  0
SECTION
  2
HEADER
  9
$ACADVER
  1
AC1015
  9
$ACADMAINTVER
 70
     6
  9
$DWGCODEPAGE
  3
ANSI_932
  9
$INSBASE
 10
0.0
 20
0.0
 30
0.0
  9
$EXTMIN
 10
0.0
 20
0.0
 30
0.0
  9
$EXTMAX
 10
420.0
 20
297.0
 30
0.0
  9
$LIMMIN
 10
0.0
 20
0.0
  9
$LIMMAX
 10
420.0
 20
297.0
  9
$ORTHOMODE
 70
     0
  9
$REGENMODE
 70
     1
  9
$FILLMODE
 70
     1
  9
$QTEXTMODE
 70
     0
  9
$MIRRTEXT
 70
     1
  9
$LTSCALE
 40
1.0
  9
$ATTMODE
 70
     1
  9
$TEXTSIZE
 40
2.5
  9
$TRACEWID
 40
1.0
  9
$TEXTSTYLE
  7
Standard
  9
$CLAYER
  8
0
  9
$CELTYPE
  6
ByLayer
  9
$CECOLOR
 62
   256
  9
$CELTSCALE
 40
1.0
  9
$DISPSILH
 70
     0
  9
$DIMSCALE
 40
1.0
  9
$DIMASZ
 40
2.5
  9
$DIMEXO
 40
0.625
  9
$DIMDLI
 40
3.75
  9
$DIMRND
 40
0.0
  9
$DIMDLE
 40
0.0
  9
$DIMEXE
 40
1.25
  9
$DIMTP
 40
0.0
  9
$DIMTM
 40
0.0
  9
$DIMTXT
 40
2.5
  9
$DIMCEN
 40
2.5
  9
$DIMTSZ
 40
0.0
  9
$DIMTOL
 70
     0
  9
$DIMLIM
 70
     0
  9
$DIMTIH
 70
     0
  9
$DIMTOH
 70
     0
  9
$DIMSE1
 70
     0
  9
$DIMSE2
 70
     0
  9
$DIMTAD
 70
     1
  9
$DIMZIN
 70
     8
  9
$DIMBLK
  1

  9
$DIMASO
 70
     1
  9
$DIMSHO
 70
     1
  9
$DIMPOST
  1

  9
$DIMAPOST
  1

  9
$DIMALT
 70
     0
  9
$DIMALTD
 70
     3
  9
$DIMALTF
 40
0.03937007874016
  9
$DIMLFAC
 40
1.0
  9
$DIMTOFL
 70
     1
  9
$DIMTVP
 40
0.0
  9
$DIMTIX
 70
     0
  9
$DIMSOXD
 70
     0
  9
$DIMSAH
 70
     0
  9
$DIMBLK1
  1

  9
$DIMBLK2
  1

  9
$DIMSTYLE
  2
ISO-25
  9
$DIMCLRD
 70
     0
  9
$DIMCLRE
 70
     0
  9
$DIMCLRT
 70
     0
  9
$DIMTFAC
 40
1.0
  9
$DIMGAP
 40
0.625
  9
$DIMJUST
 70
     0
  9
$DIMSD1
 70
     0
  9
$DIMSD2
 70
     0
  9
$DIMTOLJ
 70
     0
  9
$DIMTZIN
 70
     8
  9
$DIMALTZ
 70
     0
  9
$DIMALTTZ
 70
     0
  9
$DIMUPT
 70
     0
  9
$DIMDEC
 70
     2
  9
$DIMTDEC
 70
     2
  9
$DIMALTU
 70
     2
  9
$DIMALTTD
 70
     3
  9
$DIMTXSTY
  7
Standard
  9
$DIMAUNIT
 70
     0
  9
$DIMADEC
 70
     0
  9
$DIMALTRND
 40
0.0
  9
$DIMAZIN
 70
     0
  9
$DIMDSEP
 70
    46
  9
$DIMATFIT
 70
     3
  9
$DIMFRAC
 70
     0
  9
$DIMLDRBLK
  1

  9
$DIMLUNIT
 70
     2
  9
$DIMLWD
 70
    -2
  9
$DIMLWE
 70
    -2
  9
$DIMTMOVE
 70
     0
  9
$LUNITS
 70
     2
  9
$LUPREC
 70
     4
  9
$SKETCHINC
 40
1.0
  9
$FILLETRAD
 40
10.0
  9
$AUNITS
 70
     0
  9
$AUPREC
 70
     0
  9
$MENU
  1
.
  9
$ELEVATION
 40
0.0
  9
$PELEVATION
 40
0.0
  9
$THICKNESS
 40
0.0
  9
$LIMCHECK
 70
     0
  9
$CHAMFERA
 40
10.0
  9
$CHAMFERB
 40
10.0
  9
$CHAMFERC
 40
20.0
  9
$CHAMFERD
 40
0.0
  9
$SKPOLY
 70
     0
  9
$TDCREATE
 40
2459920.000000
  9
$TDUCREATE
 40
0.000000000
  9
$TDUPDATE
 40
2459920.000000
  9
$TDUUPDATE
 40
2459920.000000
  9
$TDINDWG
 40
0.0
  9
$TDUSRTIMER
 40
0.0
  9
$USRTIMER
 70
     1
  9
$ANGBASE
 50
0.0
  9
$ANGDIR
 70
     0
  9
$PDMODE
 70
     0
  9
$PDSIZE
 40
0.0
  9
$PLINEWID
 40
0.0
  9
$SPLFRAME
 70
     0
  9
$SPLINETYPE
 70
     6
  9
$SPLINESEGS
 70
     8
  9
$HANDSEED
  5
02AD
  9
$SURFTAB1
 70
     6
  9
$SURFTAB2
 70
     6
  9
$SURFTYPE
 70
     6
  9
$SURFU
 70
     6
  9
$SURFV
 70
     6
  9
$UCSBASE
  2

  9
$UCSNAME
  2

  9
$UCSORG
 10
0.0
 20
0.0
 30
0.0
  9
$UCSXDIR
 10
1.0
 20
0.0
 30
0.0
  9
$UCSYDIR
 10
0.0
 20
1.0
 30
0.0
  9
$UCSORTHOREF
  2

  9
$UCSORTHOVIEW
 70
     0
  9
$UCSORGTOP
 10
0.0
 20
0.0
 30
0.0
  9
$UCSORGBOTTOM
 10
0.0
 20
0.0
 30
0.0
  9
$UCSORGLEFT
 10
0.0
 20
0.0
 30
0.0
  9
$UCSORGRIGHT
 10
0.0
 20
0.0
 30
0.0
  9
$UCSORGFRONT
 10
0.0
 20
0.0
 30
0.0
  9
$UCSORGBACK
 10
0.0
 20
0.0
 30
0.0
  9
$PUCSBASE
  2

  9
$PUCSNAME
  2

  9
$PUCSORG
 10
0.0
 20
0.0
 30
0.0
  9
$PUCSXDIR
 10
1.0
 20
0.0
 30
0.0
  9
$PUCSYDIR
 10
0.0
 20
1.0
 30
0.0
  9
$PUCSORTHOREF
  2

  9
$PUCSORTHOVIEW
 70
     0
  9
$PUCSORGTOP
 10
0.0
 20
0.0
 30
0.0
  9
$PUCSORGBOTTOM
 10
0.0
 20
0.0
 30
0.0
  9
$PUCSORGLEFT
 10
0.0
 20
0.0
 30
0.0
  9
$PUCSORGRIGHT
 10
0.0
 20
0.0
 30
0.0
  9
$PUCSORGFRONT
 10
0.0
 20
0.0
 30
0.0
  9
$PUCSORGBACK
 10
0.0
 20
0.0
 30
0.0
  9
$USERI1
 70
     0
  9
$USERI2
 70
     0
  9
$USERI3
 70
     0
  9
$USERI4
 70
     0
  9
$USERI5
 70
     0
  9
$USERR1
 40
0.0
  9
$USERR2
 40
0.0
  9
$USERR3
 40
0.0
  9
$USERR4
 40
0.0
  9
$USERR5
 40
0.0
  9
$WORLDVIEW
 70
     1
  9
$SHADEDGE
 70
     3
  9
$SHADEDIF
 70
    70
  9
$TILEMODE
 70
     1
  9
$MAXACTVP
 70
    64
  9
$PINSBASE
 10
0.0
 20
0.0
 30
0.0
  9
$PLIMCHECK
 70
     0
  9
$PEXTMIN
 10
1.000000E+20
 20
1.000000E+20
 30
1.000000E+20
  9
$PEXTMAX
 10
-1.000000E+20
 20
-1.000000E+20
 30
-1.000000E+20
  9
$PLIMMIN
 10
0.0
 20
0.0
  9
$PLIMMAX
 10
0.0
 20
0.0
  9
$UNITMODE
 70
     0
  9
$VISRETAIN
 70
     0
  9
$PLINEGEN
 70
     0
  9
$PSLTSCALE
 70
     1
  9
$TREEDEPTH
 70
  3020
  9
$CMLSTYLE
  2
STANDARD
  9
$CMLJUST
 70
     0
  9
$CMLSCALE
 40
20.0
  9
$PROXYGRAPHICS
 70
     1
  9
$MEASUREMENT
 70
     1
  9
$CELWEIGHT
370
    -1
  9
$ENDCAPS
280
     0
  9
$JOINSTYLE
280
     0
  9
$LWDISPLAY
290
     0
  9
$INSUNITS
 70
     4
  9
$HYPERLINKBASE
  1

  9
$STYLESHEET
  1

  9
$XEDIT
290
     1
  9
$CEPSNTYPE
380
     0
  9
$PSTYLEMODE
290
     1
  9
$FINGERPRINTGUID
  2
{2B56C0F0-87FB-E582-0FF2-96EE8D6998F2}
  9
$VERSIONGUID
  2
{20FC6F6E-1DFF-BDC3-A02E-423D59CE43DC}
  9
$EXTNAMES
290
     1
  9
$PSVPSCALE
 40
0.0
  0
ENDSEC
  0
SECTION
  2
CLASSES
  0
ENDSEC
  0
SECTION
  2
TABLES
  0
TABLE
  2
VPORT
  5
8
330
0
100
AcDbSymbolTable
 70
     3
  0
VPORT
  5
29
330
8
100
AcDbSymbolTableRecord
100
AcDbViewportTableRecord
  2
*Active
 70
     0
 10
0.0
 20
0.0
 11
1.0
 21
1.0
 12
210.0
 22
148.5
 13
0.0
 23
0.0
 14
10.0
 24
10.0
 15
0.0
 25
0.0
 16
0.0
 26
0.0
 36
1.0
 17
0.0
 27
0.0
 37
0.0
 40
297.0
 41
1.414141414
 42
50.0
 43
0.0
 44
0.0
 50
0.0
 51
0.0
 71
     0
 72
  1000
 73
     1
 74
     3
 75
     0
 76
     0
 77
     0
 78
     0
281
     0
 65
     0
110
0.0
120
0.0
130
0.0
111
1.0
121
0.0
131
0.0
112
0.0
122
1.0
132
0.0
 79
     0
146
0.0
  0
ENDTAB
  0
TABLE
  2
LTYPE
  5
5
330
0
100
AcDbSymbolTable
 70
     5
  0
LTYPE
  5
14
330
5
100
AcDbSymbolTableRecord
100
AcDbLinetypeTableRecord
  2
ByBlock
 70
     0
  3

 72
    65
 73
     0
 40
0.0
  0
LTYPE
  5
15
330
5
100
AcDbSymbolTableRecord
100
AcDbLinetypeTableRecord
  2
ByLayer
 70
     0
  3

 72
    65
 73
     0
 40
0.0
  0
LTYPE
  5
16
330
5
100
AcDbSymbolTableRecord
100
AcDbLinetypeTableRecord
  2
Continuous
 70
     0
  3
Solid line
 72
    65
 73
     0
 40
0.0
  0
LTYPE
  5
216
330
5
100
AcDbSymbolTableRecord
100
AcDbLinetypeTableRecord
  2
LTYPE1
 70
     0
  3
CENTER
 72
    65
 73
     4
 40
15.0
 49
10.5
 74
     0
 49
-1.5
 74
     0
 49
1.5
 74
     0
 49
-1.5
 74
     0
  0
LTYPE
  5
276
330
5
100
AcDbSymbolTableRecord
100
AcDbLinetypeTableRecord
  2
LTYPE2
 70
     0
  3
HIDDEN
 72
    65
 73
     2
 40
3.0
 49
1.8
 74
     0
 49
-1.2
 74
     0
  0
ENDTAB
  0
TABLE
  2
LAYER
  5
2
330
0
100
AcDbSymbolTable
 70
   128
  0
LAYER
  5
10
330
2
100
AcDbSymbolTableRecord
100
AcDbLayerTableRecord
  2
0
 70
     0
 62
     7
  6
Continuous
290
     1
370
    -3
390
F
  0
LAYER
  5
2A
330
2
100
AcDbSymbolTableRecord
100
AcDbLayerTableRecord
  2
2
 70
     0
 62
     7
  6
Continuous
290
     1
370
    -3
390
F
  0
LAYER
  5
2B
330
2
100
AcDbSymbolTableRecord
100
AcDbLayerTableRecord
  2
3
 70
     0
 62
     7
  6
Continuous
290
     1
370
    -3
390
F
  0
LAYER
  5
2C
330
2
100
AcDbSymbolTableRecord
100
AcDbLayerTableRecord
  2
4
 70
     0
 62
     7
  6
Continuous
290
     1
370
    -3
390
F
  0
LAYER
  5
2D
330
2
100
AcDbSymbolTableRecord
100
AcDbLayerTableRecord
  2
5
 70
     0
 62
     7
  6
Continuous
290
     1
370
    -3
390
F
  0
LAYER
  5
2E
330
2
100
AcDbSymbolTableRecord
100
AcDbLayerTableRecord
  2
6
 70
     0
 62
     7
  6
Continuous
290
     1
370
    -3
390
F
  0
LAYER
  5
2F
330
2
100
AcDbSymbolTableRecord
100
AcDbLayerTableRecord
  2
7
 70
     0
 62
     7
  6
Continuous
290
     1
370
    -3
390
F
  0
LAYER
  5
30
330
2
100
AcDbSymbolTableRecord
100
AcDbLayerTableRecord
  2
8
 70
     0
 62
     7
  6
Continuous
290
     1
370
    -3
390
F
  0
LAYER
  5
31
330
2
100
AcDbSymbolTableRecord
100
AcDbLayerTableRecord
  2
9
 70
     0
 62
     7
  6
Continuous
290
     1
370
    -3
390
F
  0
LAYER
  5
32
330
2
100
AcDbSymbolTableRecord
100
AcDbLayerTableRecord
  2
10
 70
     0
 62
     7
  6
Continuous
290
     1
370
    -3
390
F
  0
LAYER
  5
33
330
2
100
AcDbSymbolTableRecord
100
AcDbLayerTableRecord
  2
11
 70
     0
 62
     7
  6
Continuous
290
     1
370
    -3
390
F
  0
LAYER
  5
34
330
2
100
AcDbSymbolTableRecord
100
AcDbLayerTableRecord
  2
12
 70
     0
 62
     7
  6
Continuous
290
     1
370
    -3
390
F
  0
LAYER
  5
35
330
2
100
AcDbSymbolTableRecord
100
AcDbLayerTableRecord
  2
13
 70
     0
 62
     7
  6
Continuous
290
     1
370
    -3
390
F
  0
LAYER
  5
36
330
2
100
AcDbSymbolTableRecord
100
AcDbLayerTableRecord
  2
14
 70
     0
 62
     7
  6
Continuous
290
     1
370
    -3
390
F
  0
LAYER
  5
37
330
2
100
AcDbSymbolTableRecord
100
AcDbLayerTableRecord
  2
15
 70
     0
 62
     7
  6
Continuous
290
     1
370
    -3
390
F
  0
LAYER
  5
38
330
2
100
AcDbSymbolTableRecord
100
AcDbLayerTableRecord
  2
16
 70
     0
 62
     7
  6
Continuous
290
     1
370
    -3
390
F
  0
LAYER
  5
39
330
2
100
AcDbSymbolTableRecord
100
AcDbLayerTableRecord
  2
17
 70
     0
 62
     7
  6
Continuous
290
     1
370
    -3
390
F
  0
LAYER
  5
3A
330
2
100
AcDbSymbolTableRecord
100
AcDbLayerTableRecord
  2
18
 70
     0
 62
     7
  6
Continuous
290
     1
370
    -3
390
F
  0
LAYER
  5
3B
330
2
100
AcDbSymbolTableRecord
100
AcDbLayerTableRecord
  2
19
 70
     0
 62
     7
  6
Continuous
290
     1
370
    -3
390
F
  0
LAYER
  5
3C
330
2
100
AcDbSymbolTableRecord
100
AcDbLayerTableRecord
  2
20
 70
     0
 62
     7
  6
Continuous
290
     1
370
    -3
390
F
  0
LAYER
  5
3D
330
2
100
AcDbSymbolTableRecord
100
AcDbLayerTableRecord
  2
21
 70
     0
 62
     7
  6
Continuous
290
     1
370
    -3
390
F
  0
LAYER
  5
3E
330
2
100
AcDbSymbolTableRecord
100
AcDbLayerTableRecord
  2
22
 70
     0
 62
     7
  6
Continuous
290
     1
370
    -3
390
F
  0
LAYER
  5
3F
330
2
100
AcDbSymbolTableRecord
100
AcDbLayerTableRecord
  2
23
 70
     0
 62
     7
  6
Continuous
290
     1
370
    -3
390
F
  0
LAYER
  5
40
330
2
100
AcDbSymbolTableRecord
100
AcDbLayerTableRecord
  2
24
 70
     0
 62
     7
  6
Continuous
290
     1
370
    -3
390
F
  0
LAYER
  5
41
330
2
100
AcDbSymbolTableRecord
100
AcDbLayerTableRecord
  2
25
 70
     0
 62
     7
  6
Continuous
290
     1
370
    -3
390
F
  0
LAYER
  5
42
330
2
100
AcDbSymbolTableRecord
100
AcDbLayerTableRecord
  2
26
 70
     0
 62
     7
  6
Continuous
290
     1
370
    -3
390
F
  0
LAYER
  5
43
330
2
100
AcDbSymbolTableRecord
100
AcDbLayerTableRecord
  2
27
 70
     0
 62
     7
  6
Continuous
290
     1
370
    -3
390
F
  0
LAYER
  5
44
330
2
100
AcDbSymbolTableRecord
100
AcDbLayerTableRecord
  2
28
 70
     0
 62
     7
  6
Continuous
290
     1
370
    -3
390
F
  0
LAYER
  5
45
330
2
100
AcDbSymbolTableRecord
100
AcDbLayerTableRecord
  2
29
 70
     0
 62
     7
  6
Continuous
290
     1
370
    -3
390
F
  0
LAYER
  5
46
330
2
100
AcDbSymbolTableRecord
100
AcDbLayerTableRecord
  2
30
 70
     0
 62
     7
  6
Continuous
290
     1
370
    -3
390
F
  0
LAYER
  5
47
330
2
100
AcDbSymbolTableRecord
100
AcDbLayerTableRecord
  2
31
 70
     0
 62
     7
  6
Continuous
290
     1
370
    -3
390
F
  0
LAYER
  5
48
330
2
100
AcDbSymbolTableRecord
100
AcDbLayerTableRecord
  2
32
 70
     0
 62
     7
  6
Continuous
290
     1
370
    -3
390
F
  0
LAYER
  5
49
330
2
100
AcDbSymbolTableRecord
100
AcDbLayerTableRecord
  2
33
 70
     0
 62
     7
  6
Continuous
290
     1
370
    -3
390
F
  0
LAYER
  5
4A
330
2
100
AcDbSymbolTableRecord
100
AcDbLayerTableRecord
  2
34
 70
     0
 62
     7
  6
Continuous
290
     1
370
    -3
390
F
  0
LAYER
  5
4B
330
2
100
AcDbSymbolTableRecord
100
AcDbLayerTableRecord
  2
35
 70
     0
 62
     7
  6
Continuous
290
     1
370
    -3
390
F
  0
LAYER
  5
4C
330
2
100
AcDbSymbolTableRecord
100
AcDbLayerTableRecord
  2
36
 70
     0
 62
     7
  6
Continuous
290
     1
370
    -3
390
F
  0
LAYER
  5
4D
330
2
100
AcDbSymbolTableRecord
100
AcDbLayerTableRecord
  2
37
 70
     0
 62
     7
  6
Continuous
290
     1
370
    -3
390
F
  0
LAYER
  5
4E
330
2
100
AcDbSymbolTableRecord
100
AcDbLayerTableRecord
  2
38
 70
     0
 62
     7
  6
Continuous
290
     1
370
    -3
390
F
  0
LAYER
  5
4F
330
2
100
AcDbSymbolTableRecord
100
AcDbLayerTableRecord
  2
39
 70
     0
 62
     7
  6
Continuous
290
     1
370
    -3
390
F
  0
LAYER
  5
50
330
2
100
AcDbSymbolTableRecord
100
AcDbLayerTableRecord
  2
40
 70
     0
 62
     7
  6
Continuous
290
     1
370
    -3
390
F
  0
LAYER
  5
51
330
2
100
AcDbSymbolTableRecord
100
AcDbLayerTableRecord
  2
41
 70
     0
 62
     7
  6
Continuous
290
     1
370
    -3
390
F
  0
LAYER
  5
52
330
2
100
AcDbSymbolTableRecord
100
AcDbLayerTableRecord
  2
42
 70
     0
 62
     7
  6
Continuous
290
     1
370
    -3
390
F
  0
LAYER
  5
53
330
2
100
AcDbSymbolTableRecord
100
AcDbLayerTableRecord
  2
43
 70
     0
 62
     7
  6
Continuous
290
     1
370
    -3
390
F
  0
LAYER
  5
54
330
2
100
AcDbSymbolTableRecord
100
AcDbLayerTableRecord
  2
44
 70
     0
 62
     7
  6
Continuous
290
     1
370
    -3
390
F
  0
LAYER
  5
55
330
2
100
AcDbSymbolTableRecord
100
AcDbLayerTableRecord
  2
45
 70
     0
 62
     7
  6
Continuous
290
     1
370
    -3
390
F
  0
LAYER
  5
56
330
2
100
AcDbSymbolTableRecord
100
AcDbLayerTableRecord
  2
46
 70
     0
 62
     7
  6
Continuous
290
     1
370
    -3
390
F
  0
LAYER
  5
57
330
2
100
AcDbSymbolTableRecord
100
AcDbLayerTableRecord
  2
47
 70
     0
 62
     7
  6
Continuous
290
     1
370
    -3
390
F
  0
LAYER
  5
58
330
2
100
AcDbSymbolTableRecord
100
AcDbLayerTableRecord
  2
48
 70
     0
 62
     7
  6
Continuous
290
     1
370
    -3
390
F
  0
LAYER
  5
59
330
2
100
AcDbSymbolTableRecord
100
AcDbLayerTableRecord
  2
49
 70
     0
 62
     7
  6
Continuous
290
     1
370
    -3
390
F
  0
LAYER
  5
5A
330
2
100
AcDbSymbolTableRecord
100
AcDbLayerTableRecord
  2
50
 70
     0
 62
     7
  6
Continuous
290
     1
370
    -3
390
F
  0
LAYER
  5
5B
330
2
100
AcDbSymbolTableRecord
100
AcDbLayerTableRecord
  2
51
 70
     0
 62
     7
  6
Continuous
290
     1
370
    -3
390
F
  0
LAYER
  5
5C
330
2
100
AcDbSymbolTableRecord
100
AcDbLayerTableRecord
  2
52
 70
     0
 62
     7
  6
Continuous
290
     1
370
    -3
390
F
  0
LAYER
  5
5D
330
2
100
AcDbSymbolTableRecord
100
AcDbLayerTableRecord
  2
53
 70
     0
 62
     7
  6
Continuous
290
     1
370
    -3
390
F
  0
LAYER
  5
5E
330
2
100
AcDbSymbolTableRecord
100
AcDbLayerTableRecord
  2
54
 70
     0
 62
     7
  6
Continuous
290
     1
370
    -3
390
F
  0
LAYER
  5
5F
330
2
100
AcDbSymbolTableRecord
100
AcDbLayerTableRecord
  2
55
 70
     0
 62
     7
  6
Continuous
290
     1
370
    -3
390
F
  0
LAYER
  5
60
330
2
100
AcDbSymbolTableRecord
100
AcDbLayerTableRecord
  2
56
 70
     0
 62
     7
  6
Continuous
290
     1
370
    -3
390
F
  0
LAYER
  5
61
330
2
100
AcDbSymbolTableRecord
100
AcDbLayerTableRecord
  2
57
 70
     0
 62
     7
  6
Continuous
290
     1
370
    -3
390
F
  0
LAYER
  5
62
330
2
100
AcDbSymbolTableRecord
100
AcDbLayerTableRecord
  2
58
 70
     0
 62
     7
  6
Continuous
290
     1
370
    -3
390
F
  0
LAYER
  5
63
330
2
100
AcDbSymbolTableRecord
100
AcDbLayerTableRecord
  2
59
 70
     0
 62
     7
  6
Continuous
290
     1
370
    -3
390
F
  0
LAYER
  5
64
330
2
100
AcDbSymbolTableRecord
100
AcDbLayerTableRecord
  2
60
 70
     0
 62
     7
  6
Continuous
290
     1
370
    -3
390
F
  0
LAYER
  5
65
330
2
100
AcDbSymbolTableRecord
100
AcDbLayerTableRecord
  2
61
 70
     0
 62
     7
  6
Continuous
290
     1
370
    -3
390
F
  0
LAYER
  5
66
330
2
100
AcDbSymbolTableRecord
100
AcDbLayerTableRecord
  2
62
 70
     0
 62
     7
  6
Continuous
290
     1
370
    -3
390
F
  0
LAYER
  5
67
330
2
100
AcDbSymbolTableRecord
100
AcDbLayerTableRecord
  2
63
 70
     0
 62
     7
  6
Continuous
290
     1
370
    -3
390
F
  0
LAYER
  5
68
330
2
100
AcDbSymbolTableRecord
100
AcDbLayerTableRecord
  2
64
 70
     0
 62
     7
  6
Continuous
290
     1
370
    -3
390
F
  0
LAYER
  5
69
330
2
100
AcDbSymbolTableRecord
100
AcDbLayerTableRecord
  2
65
 70
     0
 62
     7
  6
Continuous
290
     1
370
    -3
390
F
  0
LAYER
  5
6A
330
2
100
AcDbSymbolTableRecord
100
AcDbLayerTableRecord
  2
66
 70
     0
 62
     7
  6
Continuous
290
     1
370
    -3
390
F
  0
LAYER
  5
6B
330
2
100
AcDbSymbolTableRecord
100
AcDbLayerTableRecord
  2
67
 70
     0
 62
     7
  6
Continuous
290
     1
370
    -3
390
F
  0
LAYER
  5
6C
330
2
100
AcDbSymbolTableRecord
100
AcDbLayerTableRecord
  2
68
 70
     0
 62
     7
  6
Continuous
290
     1
370
    -3
390
F
  0
LAYER
  5
6D
330
2
100
AcDbSymbolTableRecord
100
AcDbLayerTableRecord
  2
69
 70
     0
 62
     7
  6
Continuous
290
     1
370
    -3
390
F
  0
LAYER
  5
6E
330
2
100
AcDbSymbolTableRecord
100
AcDbLayerTableRecord
  2
70
 70
     0
 62
     7
  6
Continuous
290
     1
370
    -3
390
F
  0
LAYER
  5
6F
330
2
100
AcDbSymbolTableRecord
100
AcDbLayerTableRecord
  2
71
 70
     0
 62
     7
  6
Continuous
290
     1
370
    -3
390
F
  0
LAYER
  5
70
330
2
100
AcDbSymbolTableRecord
100
AcDbLayerTableRecord
  2
72
 70
     0
 62
     7
  6
Continuous
290
     1
370
    -3
390
F
  0
LAYER
  5
71
330
2
100
AcDbSymbolTableRecord
100
AcDbLayerTableRecord
  2
73
 70
     0
 62
     7
  6
Continuous
290
     1
370
    -3
390
F
  0
LAYER
  5
72
330
2
100
AcDbSymbolTableRecord
100
AcDbLayerTableRecord
  2
74
 70
     0
 62
     7
  6
Continuous
290
     1
370
    -3
390
F
  0
LAYER
  5
73
330
2
100
AcDbSymbolTableRecord
100
AcDbLayerTableRecord
  2
75
 70
     0
 62
     7
  6
Continuous
290
     1
370
    -3
390
F
  0
LAYER
  5
74
330
2
100
AcDbSymbolTableRecord
100
AcDbLayerTableRecord
  2
76
 70
     0
 62
     7
  6
Continuous
290
     1
370
    -3
390
F
  0
LAYER
  5
75
330
2
100
AcDbSymbolTableRecord
100
AcDbLayerTableRecord
  2
77
 70
     0
 62
     7
  6
Continuous
290
     1
370
    -3
390
F
  0
LAYER
  5
76
330
2
100
AcDbSymbolTableRecord
100
AcDbLayerTableRecord
  2
78
 70
     0
 62
     7
  6
Continuous
290
     1
370
    -3
390
F
  0
LAYER
  5
77
330
2
100
AcDbSymbolTableRecord
100
AcDbLayerTableRecord
  2
79
 70
     0
 62
     7
  6
Continuous
290
     1
370
    -3
390
F
  0
LAYER
  5
78
330
2
100
AcDbSymbolTableRecord
100
AcDbLayerTableRecord
  2
80
 70
     0
 62
     7
  6
Continuous
290
     1
370
    -3
390
F
  0
LAYER
  5
79
330
2
100
AcDbSymbolTableRecord
100
AcDbLayerTableRecord
  2
81
 70
     0
 62
     7
  6
Continuous
290
     1
370
    -3
390
F
  0
LAYER
  5
7A
330
2
100
AcDbSymbolTableRecord
100
AcDbLayerTableRecord
  2
82
 70
     0
 62
     7
  6
Continuous
290
     1
370
    -3
390
F
  0
LAYER
  5
7B
330
2
100
AcDbSymbolTableRecord
100
AcDbLayerTableRecord
  2
83
 70
     0
 62
     7
  6
Continuous
290
     1
370
    -3
390
F
  0
LAYER
  5
7C
330
2
100
AcDbSymbolTableRecord
100
AcDbLayerTableRecord
  2
84
 70
     0
 62
     7
  6
Continuous
290
     1
370
    -3
390
F
  0
LAYER
  5
7D
330
2
100
AcDbSymbolTableRecord
100
AcDbLayerTableRecord
  2
85
 70
     0
 62
     7
  6
Continuous
290
     1
370
    -3
390
F
  0
LAYER
  5
7E
330
2
100
AcDbSymbolTableRecord
100
AcDbLayerTableRecord
  2
86
 70
     0
 62
     7
  6
Continuous
290
     1
370
    -3
390
F
  0
LAYER
  5
7F
330
2
100
AcDbSymbolTableRecord
100
AcDbLayerTableRecord
  2
87
 70
     0
 62
     7
  6
Continuous
290
     1
370
    -3
390
F
  0
LAYER
  5
80
330
2
100
AcDbSymbolTableRecord
100
AcDbLayerTableRecord
  2
88
 70
     0
 62
     7
  6
Continuous
290
     1
370
    -3
390
F
  0
LAYER
  5
81
330
2
100
AcDbSymbolTableRecord
100
AcDbLayerTableRecord
  2
89
 70
     0
 62
     7
  6
Continuous
290
     1
370
    -3
390
F
  0
LAYER
  5
82
330
2
100
AcDbSymbolTableRecord
100
AcDbLayerTableRecord
  2
90
 70
     0
 62
     7
  6
Continuous
290
     1
370
    -3
390
F
  0
LAYER
  5
83
330
2
100
AcDbSymbolTableRecord
100
AcDbLayerTableRecord
  2
91
 70
     0
 62
     7
  6
Continuous
290
     1
370
    -3
390
F
  0
LAYER
  5
84
330
2
100
AcDbSymbolTableRecord
100
AcDbLayerTableRecord
  2
92
 70
     0
 62
     7
  6
Continuous
290
     1
370
    -3
390
F
  0
LAYER
  5
85
330
2
100
AcDbSymbolTableRecord
100
AcDbLayerTableRecord
  2
93
 70
     0
 62
     7
  6
Continuous
290
     1
370
    -3
390
F
  0
LAYER
  5
86
330
2
100
AcDbSymbolTableRecord
100
AcDbLayerTableRecord
  2
94
 70
     0
 62
     7
  6
Continuous
290
     1
370
    -3
390
F
  0
LAYER
  5
87
330
2
100
AcDbSymbolTableRecord
100
AcDbLayerTableRecord
  2
95
 70
     0
 62
     7
  6
Continuous
290
     1
370
    -3
390
F
  0
LAYER
  5
88
330
2
100
AcDbSymbolTableRecord
100
AcDbLayerTableRecord
  2
96
 70
     0
 62
     7
  6
Continuous
290
     1
370
    -3
390
F
  0
LAYER
  5
89
330
2
100
AcDbSymbolTableRecord
100
AcDbLayerTableRecord
  2
97
 70
     0
 62
     7
  6
Continuous
290
     1
370
    -3
390
F
  0
LAYER
  5
8A
330
2
100
AcDbSymbolTableRecord
100
AcDbLayerTableRecord
  2
98
 70
     0
 62
     7
  6
Continuous
290
     1
370
    -3
390
F
  0
LAYER
  5
8B
330
2
100
AcDbSymbolTableRecord
100
AcDbLayerTableRecord
  2
99
 70
     0
 62
     7
  6
Continuous
290
     1
370
    -3
390
F
  0
LAYER
  5
8C
330
2
100
AcDbSymbolTableRecord
100
AcDbLayerTableRecord
  2
100
 70
     0
 62
     7
  6
Continuous
290
     1
370
    -3
390
F
  0
LAYER
  5
8D
330
2
100
AcDbSymbolTableRecord
100
AcDbLayerTableRecord
  2
101
 70
     0
 62
     7
  6
Continuous
290
     1
370
    -3
390
F
  0
LAYER
  5
8E
330
2
100
AcDbSymbolTableRecord
100
AcDbLayerTableRecord
  2
102
 70
     0
 62
     7
  6
Continuous
290
     1
370
    -3
390
F
  0
LAYER
  5
8F
330
2
100
AcDbSymbolTableRecord
100
AcDbLayerTableRecord
  2
103
 70
     0
 62
     7
  6
Continuous
290
     1
370
    -3
390
F
  0
LAYER
  5
90
330
2
100
AcDbSymbolTableRecord
100
AcDbLayerTableRecord
  2
104
 70
     0
 62
     7
  6
Continuous
290
     1
370
    -3
390
F
  0
LAYER
  5
91
330
2
100
AcDbSymbolTableRecord
100
AcDbLayerTableRecord
  2
105
 70
     0
 62
     7
  6
Continuous
290
     1
370
    -3
390
F
  0
LAYER
  5
92
330
2
100
AcDbSymbolTableRecord
100
AcDbLayerTableRecord
  2
106
 70
     0
 62
     7
  6
Continuous
290
     1
370
    -3
390
F
  0
LAYER
  5
93
330
2
100
AcDbSymbolTableRecord
100
AcDbLayerTableRecord
  2
107
 70
     0
 62
     7
  6
Continuous
290
     1
370
    -3
390
F
  0
LAYER
  5
94
330
2
100
AcDbSymbolTableRecord
100
AcDbLayerTableRecord
  2
108
 70
     0
 62
     7
  6
Continuous
290
     1
370
    -3
390
F
  0
LAYER
  5
95
330
2
100
AcDbSymbolTableRecord
100
AcDbLayerTableRecord
  2
109
 70
     0
 62
     7
  6
Continuous
290
     1
370
    -3
390
F
  0
LAYER
  5
96
330
2
100
AcDbSymbolTableRecord
100
AcDbLayerTableRecord
  2
110
 70
     0
 62
     7
  6
Continuous
290
     1
370
    -3
390
F
  0
LAYER
  5
97
330
2
100
AcDbSymbolTableRecord
100
AcDbLayerTableRecord
  2
111
 70
     0
 62
     7
  6
Continuous
290
     1
370
    -3
390
F
  0
LAYER
  5
98
330
2
100
AcDbSymbolTableRecord
100
AcDbLayerTableRecord
  2
112
 70
     0
 62
     7
  6
Continuous
290
     1
370
    -3
390
F
  0
LAYER
  5
99
330
2
100
AcDbSymbolTableRecord
100
AcDbLayerTableRecord
  2
113
 70
     0
 62
     7
  6
Continuous
290
     1
370
    -3
390
F
  0
LAYER
  5
9A
330
2
100
AcDbSymbolTableRecord
100
AcDbLayerTableRecord
  2
114
 70
     0
 62
     7
  6
Continuous
290
     1
370
    -3
390
F
  0
LAYER
  5
9B
330
2
100
AcDbSymbolTableRecord
100
AcDbLayerTableRecord
  2
115
 70
     0
 62
     7
  6
Continuous
290
     1
370
    -3
390
F
  0
LAYER
  5
9C
330
2
100
AcDbSymbolTableRecord
100
AcDbLayerTableRecord
  2
116
 70
     0
 62
     7
  6
Continuous
290
     1
370
    -3
390
F
  0
LAYER
  5
9D
330
2
100
AcDbSymbolTableRecord
100
AcDbLayerTableRecord
  2
117
 70
     0
 62
     7
  6
Continuous
290
     1
370
    -3
390
F
  0
LAYER
  5
9E
330
2
100
AcDbSymbolTableRecord
100
AcDbLayerTableRecord
  2
118
 70
     0
 62
     7
  6
Continuous
290
     1
370
    -3
390
F
  0
LAYER
  5
9F
330
2
100
AcDbSymbolTableRecord
100
AcDbLayerTableRecord
  2
119
 70
     0
 62
     7
  6
Continuous
290
     1
370
    -3
390
F
  0
LAYER
  5
A0
330
2
100
AcDbSymbolTableRecord
100
AcDbLayerTableRecord
  2
120
 70
     0
 62
     7
  6
Continuous
290
     1
370
    -3
390
F
  0
LAYER
  5
A1
330
2
100
AcDbSymbolTableRecord
100
AcDbLayerTableRecord
  2
121
 70
     0
 62
     7
  6
Continuous
290
     1
370
    -3
390
F
  0
LAYER
  5
A2
330
2
100
AcDbSymbolTableRecord
100
AcDbLayerTableRecord
  2
122
 70
     0
 62
     7
  6
Continuous
290
     1
370
    -3
390
F
  0
LAYER
  5
A3
330
2
100
AcDbSymbolTableRecord
100
AcDbLayerTableRecord
  2
123
 70
     0
 62
     7
  6
Continuous
290
     1
370
    -3
390
F
  0
LAYER
  5
A4
330
2
100
AcDbSymbolTableRecord
100
AcDbLayerTableRecord
  2
124
 70
     0
 62
     7
  6
Continuous
290
     1
370
    -3
390
F
  0
LAYER
  5
A5
330
2
100
AcDbSymbolTableRecord
100
AcDbLayerTableRecord
  2
125
 70
     0
 62
     7
  6
Continuous
290
     1
370
    -3
390
F
  0
LAYER
  5
A6
330
2
100
AcDbSymbolTableRecord
100
AcDbLayerTableRecord
  2
126
 70
     0
 62
     7
  6
Continuous
290
     1
370
    -3
390
F
  0
LAYER
  5
A7
330
2
100
AcDbSymbolTableRecord
100
AcDbLayerTableRecord
  2
127
 70
     0
 62
     7
  6
Continuous
290
     1
370
    -3
390
F
  0
LAYER
  5
A8
330
2
100
AcDbSymbolTableRecord
100
AcDbLayerTableRecord
  2
128
 70
     0
 62
     7
  6
Continuous
290
     1
370
    -3
390
F
  0
ENDTAB
  0
TABLE
  2
STYLE
  5
3
330
0
100
AcDbSymbolTable
 70
    10
  0
STYLE
  5
11
330
3
100
AcDbSymbolTableRecord
100
AcDbTextStyleTableRecord
  2
Standard
 70
     0
 40
0.0
 41
1.0
 50
0.0
 71
     0
 42
2.5
  3
txt.shx
  4
extfont.shx
  0
STYLE
  5
1B3
330
3
100
AcDbSymbolTableRecord
100
AcDbTextStyleTableRecord
  2
KANJI0
 70
     0
 40
3.0
 41
0.6
 50
0.0
 71
     0
 42
3.0
  3
txt.shx
  4
extfont.shx
  0
STYLE
  5
256
330
3
100
AcDbSymbolTableRecord
100
AcDbTextStyleTableRecord
  2
KANJI1
 70
     0
 40
10.0
 41
1.0
 50
0.0
 71
     0
 42
10.0
  3
txt.shx
  4
extfont.shx
  0
STYLE
  5
258
330
3
100
AcDbSymbolTableRecord
100
AcDbTextStyleTableRecord
  2
KANJI2
 70
     0
 40
10.0
 41
0.784
 50
0.0
 71
     0
 42
10.0
  3
txt.shx
  4
extfont.shx
  0
STYLE
  5
267
330
3
100
AcDbSymbolTableRecord
100
AcDbTextStyleTableRecord
  2
KANJI3
 70
     0
 40
2.5
 41
0.900472653
 50
0.0
 71
     0
 42
2.5
  3
txt.shx
  4
extfont.shx
  0
STYLE
  5
269
330
3
100
AcDbSymbolTableRecord
100
AcDbTextStyleTableRecord
  2
KANJI4
 70
     0
 40
2.5
 41
1.0
 50
0.0
 71
     0
 42
2.5
  3
txt.shx
  4
extfont.shx
  0
STYLE
  5
26B
330
3
100
AcDbSymbolTableRecord
100
AcDbTextStyleTableRecord
  2
KANJI5
 70
     0
 40
2.5
 41
0.80829828
 50
0.0
 71
     0
 42
2.5
  3
txt.shx
  4
extfont.shx
  0
STYLE
  5
285
330
3
100
AcDbSymbolTableRecord
100
AcDbTextStyleTableRecord
  2
KANJI6
 70
     0
 40
3.0
 41
0.85
 50
0.0
 71
     0
 42
3.0
  3
txt.shx
  4
extfont.shx
  0
STYLE
  5
29D
330
3
100
AcDbSymbolTableRecord
100
AcDbTextStyleTableRecord
  2
KANJI7
 70
     0
 40
3.0
 41
0.9
 50
0.0
 71
     0
 42
3.0
  3
txt.shx
  4
extfont.shx
  0
STYLE
  5
2AC
330
3
100
AcDbSymbolTableRecord
100
AcDbTextStyleTableRecord
  2
KANJI8
 70
     0
 40
3.0
 41
0.9
 50
0.0
 71
     0
 42
3.0
  3
txt.shx
  4
extfont.shx
  0
ENDTAB
  0
TABLE
  2
VIEW
  5
6
330
0
100
AcDbSymbolTable
 70
     0
  0
ENDTAB
  0
TABLE
  2
UCS
  5
7
330
0
100
AcDbSymbolTable
 70
     0
  0
ENDTAB
  0
TABLE
  2
APPID
  5
9
330
0
100
AcDbSymbolTable
 70
     1
  0
APPID
  5
12
330
9
100
AcDbSymbolTableRecord
100
AcDbRegAppTableRecord
  2
ACAD
 70
     0
  0
ENDTAB
  0
TABLE
  2
DIMSTYLE
  5
A
330
0
100
AcDbSymbolTable
 70
     1
100
AcDbDimStyleTable
 71
     0
  0
DIMSTYLE
105
27
330
A
100
AcDbSymbolTableRecord
100
AcDbDimStyleTableRecord
  2
ISO-25
 70
    64
  3

  4

 40
1.0
 41
2.5
 42
0.625
 43
3.75
 44
1.25
 45
0.0
 46
0.0
 47
0.0
 48
0.0
 71
     0
 72
     0
 73
     0
 74
     0
 75
     0
 76
     0
 77
     1
 78
     8
 79
     0
140
2.5
141
2.5
142
0.0
143
0.039370079
144
1.0
145
0.0
146
1.0
147
0.625
148
0.0
170
     0
171
     3
172
     1
173
     0
174
     0
175
     0
176
     0
177
     0
178
     0
179
     0
270
     2
271
     2
272
     2
273
     2
274
     3
275
     0
276
     0
277
     2
278
    46
279
     0
280
     0
281
     0
282
     0
283
     1
284
     8
285
     0
286
     0
288
     0
289
     3
340
11
341
0
342
0
343
0
344
0
371
    -2
372
    -2
  0
ENDTAB
  0
TABLE
  2
BLOCK_RECORD
  5
1
330
0
100
AcDbSymbolTable
 70
     3
  0
BLOCK_RECORD
  5
1F
330
1
100
AcDbSymbolTableRecord
100
AcDbBlockTableRecord
  2
*Model_Space
340
22
  0
BLOCK_RECORD
  5
1B
330
1
100
AcDbSymbolTableRecord
100
AcDbBlockTableRecord
  2
*Paper_Space
340
1E
  0
BLOCK_RECORD
  5
23
330
1
100
AcDbSymbolTableRecord
100
AcDbBlockTableRecord
  2
*Paper_Space0
340
26
  0
ENDTAB
  0
ENDSEC
  0
SECTION
  2
BLOCKS
  0
BLOCK
  5
1C
330
1B
100
AcDbEntity
 67
     1
  8
0
100
AcDbBlockBegin
  2
*Paper_Space
 70
     0
 10
0.0
 20
0.0
 30
0.0
  3
*Paper_Space
  1

  0
ENDBLK
  5
1D
330
1B
100
AcDbEntity
  8
0
100
AcDbBlockEnd
  0
BLOCK
  5
20
330
1F
100
AcDbEntity
  8
0
100
AcDbBlockBegin
  2
*Model_Space
 70
     0
 10
0.0
 20
0.0
 30
0.0
  3
*Model_Space
  1

  0
ENDBLK
  5
21
330
1F
100
AcDbEntity
  8
0
100
AcDbBlockEnd
  0
BLOCK
  5
24
330
23
100
AcDbEntity
 67
     1
  8
0
100
AcDbBlockBegin
  2
*Paper_Space0
 70
     0
 10
0.0
 20
0.0
 30
0.0
  3
*Paper_Space0
  1

  0
ENDBLK
  5
25
330
23
100
AcDbEntity
  8
0
100
AcDbBlockEnd
  0
ENDSEC
  0
SECTION
  2
ENTITIES
  0
LINE
  5
A9
330
1F
100
AcDbEntity
  8
0
  6
Continuous
 62
     7
100
AcDbLine
 10
45.074345527
 20
166.134924701
 30
0.0
 11
45.415658443
 21
166.500308736
 31
0.0
  0
ARC
  5
AA
330
1F
100
AcDbEntity
  8
0
  6
Continuous
 62
     7
100
AcDbCircle
 10
46.030021692
 20
167.158
 30
0.0
 40
0.9
100
AcDbArc
 50
226.950822851
 51
328.034281249
  0
LINE
  5
AB
330
1F
100
AcDbEntity
  8
0
  6
Continuous
 62
     7
100
AcDbLine
 10
46.793550197
 20
166.681529412
 30
0.0
 11
47.2177327
 21
166.416823529
 31
0.0
  0
ARC
  5
AC
330
1F
100
AcDbEntity
  8
0
  6
Continuous
 62
     7
100
AcDbCircle
 10
46.030021692
 20
167.158
 30
0.0
 40
1.4
100
AcDbArc
 50
226.950822851
 51
328.034281251
  0
ARC
  5
AD
330
1F
100
AcDbEntity
  8
0
  6
Continuous
 62
     7
100
AcDbCircle
 10
57.567785773
 20
159.958
 30
0.0
 40
12.2
100
AcDbArc
 50
121.965718751
 51
148.034281249
  0
ARC
  5
AE
330
1F
100
AcDbEntity
  8
0
  6
Continuous
 62
     7
100
AcDbCircle
 10
57.567785773
 20
159.958
 30
0.0
 40
12.7
100
AcDbArc
 50
121.965718751
 51
148.034281249
  0
LINE
  5
AF
330
1F
100
AcDbEntity
  8
0
  6
Continuous
 62
     7
100
AcDbLine
 10
51.108962244
 20
170.308053073
 30
0.0
 11
50.844256361
 21
170.732235576
 31
0.0
  0
ARC
  5
B0
330
1F
100
AcDbEntity
  8
0
  6
Continuous
 62
     7
100
AcDbCircle
 10
50.367785773
 20
171.495764081
 30
0.0
 40
0.9
100
AcDbArc
 50
301.965718751
 51
43.049177149
  0
LINE
  5
B1
330
1F
100
AcDbEntity
  8
0
  6
Continuous
 62
     7
100
AcDbLine
 10
51.025477037
 20
172.11012733
 30
0.0
 11
51.390861072
 21
172.451440246
 31
0.0
  0
ARC
  5
B2
330
1F
100
AcDbEntity
  8
0
  6
Continuous
 62
     7
100
AcDbCircle
 10
50.367785773
 20
171.495764081
 30
0.0
 40
1.4
100
AcDbArc
 50
301.965718751
 51
43.049177148
  0
LINE
  5
B3
330
1F
100
AcDbEntity
  8
0
  6
Continuous
 62
     7
100
AcDbLine
 10
45.415658443
 20
153.415691264
 30
0.0
 11
45.074345527
 21
153.781075299
 31
0.0
  0
ARC
  5
B4
330
1F
100
AcDbEntity
  8
0
  6
Continuous
 62
     7
100
AcDbCircle
 10
46.030021692
 20
152.758
 30
0.0
 40
1.4
100
AcDbArc
 50
31.965718751
 51
133.049177148
  0
LINE
  5
B5
330
1F
100
AcDbEntity
  8
0
  6
Continuous
 62
     7
100
AcDbLine
 10
47.2177327
 20
153.499176471
 30
0.0
 11
46.793550197
 21
153.234470588
 31
0.0
  0
ARC
  5
B6
330
1F
100
AcDbEntity
  8
0
  6
Continuous
 62
     7
100
AcDbCircle
 10
46.030021692
 20
152.758
 30
0.0
 40
0.9
100
AcDbArc
 50
31.965718751
 51
133.049177149
  0
ARC
  5
B7
330
1F
100
AcDbEntity
  8
0
  6
Continuous
 62
     7
100
AcDbCircle
 10
57.567785773
 20
159.958
 30
0.0
 40
12.2
100
AcDbArc
 50
211.965718751
 51
238.034281249
  0
LINE
  5
B8
330
1F
100
AcDbEntity
  8
0
  6
Continuous
 62
     7
100
AcDbLine
 10
50.844256361
 20
149.183764424
 30
0.0
 11
51.108962244
 21
149.607946927
 31
0.0
  0
ARC
  5
B9
330
1F
100
AcDbEntity
  8
0
  6
Continuous
 62
     7
100
AcDbCircle
 10
57.567785773
 20
159.958
 30
0.0
 40
12.7
100
AcDbArc
 50
211.965718751
 51
238.034281249
  0
ARC
  5
BA
330
1F
100
AcDbEntity
  8
0
  6
Continuous
 62
     7
100
AcDbCircle
 10
57.567785773
 20
145.958
 30
0.0
 40
28.0
100
AcDbArc
 50
77.234525445
 51
102.765474555
  0
LINE
  5
BB
330
1F
100
AcDbEntity
  8
0
  6
Continuous
 62
     7
100
AcDbLine
 10
63.644209129
 20
172.77827366
 30
0.0
 11
63.754689554
 21
173.265914999
 31
0.0
  0
ARC
  5
BC
330
1F
100
AcDbEntity
  8
0
  6
Continuous
 62
     7
100
AcDbCircle
 10
57.567785773
 20
145.958
 30
0.0
 40
27.5
100
AcDbArc
 50
77.234525445
 51
102.765474555
  0
LINE
  5
BD
330
1F
100
AcDbEntity
  8
0
  6
Continuous
 62
     7
100
AcDbLine
 10
51.491362417
 20
172.77827366
 30
0.0
 11
51.380881992
 21
173.265914999
 31
0.0
  0
ARC
  5
BE
330
1F
100
AcDbEntity
  8
0
  6
Continuous
 62
     7
100
AcDbCircle
 10
71.567785773
 20
159.958
 30
0.0
 40
27.5
100
AcDbArc
 50
167.234525445
 51
192.765474555
  0
LINE
  5
BF
330
1F
100
AcDbEntity
  8
0
  6
Continuous
 62
     7
100
AcDbLine
 10
44.747512113
 20
153.881576644
 30
0.0
 11
44.259870774
 21
153.771096219
 31
0.0
  0
ARC
  5
C0
330
1F
100
AcDbEntity
  8
0
  6
Continuous
 62
     7
100
AcDbCircle
 10
71.567785773
 20
159.958
 30
0.0
 40
28.0
100
AcDbArc
 50
167.234525445
 51
192.765474555
  0
LINE
  5
C1
330
1F
100
AcDbEntity
  8
0
  6
Continuous
 62
     7
100
AcDbLine
 10
44.747512113
 20
166.034423356
 30
0.0
 11
44.259870774
 21
166.144903781
 31
0.0
  0
ARC
  5
C2
330
1F
100
AcDbEntity
  8
0
  6
Continuous
 62
     7
100
AcDbCircle
 10
44.939775417
 20
165.990864023
 30
0.0
 40
0.197135977
100
AcDbArc
 50
46.950822856
 51
167.234525445
  0
ARC
  5
C3
330
1F
100
AcDbEntity
  8
0
  6
Continuous
 62
     7
100
AcDbCircle
 10
44.939775417
 20
165.990864023
 30
0.0
 40
0.697135977
100
AcDbArc
 50
46.950822851
 51
167.234525445
  0
ARC
  5
C4
330
1F
100
AcDbEntity
  8
0
  6
Continuous
 62
     7
100
AcDbCircle
 10
44.939775417
 20
153.925135977
 30
0.0
 40
0.197135977
100
AcDbArc
 50
192.765474555
 51
313.049177153
  0
ARC
  5
C5
330
1F
100
AcDbEntity
  8
0
  6
Continuous
 62
     7
100
AcDbCircle
 10
44.939775417
 20
153.925135977
 30
0.0
 40
0.697135977
100
AcDbArc
 50
192.765474555
 51
313.049177149
  0
LINE
  5
C6
330
1F
100
AcDbEntity
  8
0
  6
Continuous
 62
     7
100
AcDbLine
 10
51.390861072
 20
147.464559754
 30
0.0
 11
51.025477037
 21
147.80587267
 31
0.0
  0
ARC
  5
C7
330
1F
100
AcDbEntity
  8
0
  6
Continuous
 62
     7
100
AcDbCircle
 10
50.367785773
 20
148.420235918
 30
0.0
 40
0.9
100
AcDbArc
 50
316.950822851
 51
58.034281249
  0
ARC
  5
C8
330
1F
100
AcDbEntity
  8
0
  6
Continuous
 62
     7
100
AcDbCircle
 10
50.367785773
 20
148.420235918
 30
0.0
 40
1.4
100
AcDbArc
 50
316.950822852
 51
58.034281248
  0
ARC
  5
C9
330
1F
100
AcDbEntity
  8
0
  6
Continuous
 62
     7
100
AcDbCircle
 10
63.600649796
 20
172.586010356
 30
0.0
 40
0.697135977
100
AcDbArc
 50
316.950822851
 51
77.234525445
  0
LINE
  5
CA
330
1F
100
AcDbEntity
  8
0
  6
Continuous
 62
     7
100
AcDbLine
 10
63.744710474
 20
172.451440246
 30
0.0
 11
64.110094509
 21
172.11012733
 31
0.0
  0
ARC
  5
CB
330
1F
100
AcDbEntity
  8
0
  6
Continuous
 62
     7
100
AcDbCircle
 10
63.600649796
 20
172.586010356
 30
0.0
 40
0.197135977
100
AcDbArc
 50
316.950822856
 51
77.234525445
  0
LINE
  5
CC
330
1F
100
AcDbEntity
  8
0
  6
Continuous
 62
     7
100
AcDbLine
 10
64.291315185
 20
170.732235576
 30
0.0
 11
64.026609302
 21
170.308053073
 31
0.0
  0
ARC
  5
CD
330
1F
100
AcDbEntity
  8
0
  6
Continuous
 62
     7
100
AcDbCircle
 10
64.767785773
 20
171.495764081
 30
0.0
 40
1.4
100
AcDbArc
 50
136.950822851
 51
238.034281249
  0
ARC
  5
CE
330
1F
100
AcDbEntity
  8
0
  6
Continuous
 62
     7
100
AcDbCircle
 10
64.767785773
 20
171.495764081
 30
0.0
 40
0.9
100
AcDbArc
 50
136.950822851
 51
238.034281249
  0
LINE
  5
CF
330
1F
100
AcDbEntity
  8
0
  6
Continuous
 62
     7
100
AcDbLine
 10
64.110094509
 20
147.80587267
 30
0.0
 11
63.744710474
 21
147.464559754
 31
0.0
  0
ARC
  5
D0
330
1F
100
AcDbEntity
  8
0
  6
Continuous
 62
     7
100
AcDbCircle
 10
64.767785773
 20
148.420235918
 30
0.0
 40
1.4
100
AcDbArc
 50
121.965718751
 51
223.049177146
  0
LINE
  5
D1
330
1F
100
AcDbEntity
  8
0
  6
Continuous
 62
     7
100
AcDbLine
 10
64.026609302
 20
149.607946927
 30
0.0
 11
64.291315185
 21
149.183764424
 31
0.0
  0
ARC
  5
D2
330
1F
100
AcDbEntity
  8
0
  6
Continuous
 62
     7
100
AcDbCircle
 10
64.767785773
 20
148.420235918
 30
0.0
 40
0.9
100
AcDbArc
 50
121.965718751
 51
223.049177149
  0
ARC
  5
D3
330
1F
100
AcDbEntity
  8
0
  6
Continuous
 62
     7
100
AcDbCircle
 10
57.567785773
 20
159.958
 30
0.0
 40
12.7
100
AcDbArc
 50
31.965718751
 51
58.034281249
  0
LINE
  5
D4
330
1F
100
AcDbEntity
  8
0
  6
Continuous
 62
     7
100
AcDbLine
 10
67.917838846
 20
166.416823529
 30
0.0
 11
68.342021349
 21
166.681529412
 31
0.0
  0
ARC
  5
D5
330
1F
100
AcDbEntity
  8
0
  6
Continuous
 62
     7
100
AcDbCircle
 10
57.567785773
 20
159.958
 30
0.0
 40
12.2
100
AcDbArc
 50
31.965718751
 51
58.034281249
  0
ARC
  5
D6
330
1F
100
AcDbEntity
  8
0
  6
Continuous
 62
     7
100
AcDbCircle
 10
57.567785773
 20
159.958
 30
0.0
 40
12.7
100
AcDbArc
 50
301.965718751
 51
328.034281249
  0
ARC
  5
D7
330
1F
100
AcDbEntity
  8
0
  6
Continuous
 62
     7
100
AcDbCircle
 10
57.567785773
 20
159.958
 30
0.0
 40
12.2
100
AcDbArc
 50
301.965718751
 51
328.034281249
  0
LINE
  5
D8
330
1F
100
AcDbEntity
  8
0
  6
Continuous
 62
     7
100
AcDbLine
 10
68.342021349
 20
153.234470588
 30
0.0
 11
67.917838846
 21
153.499176471
 31
0.0
  0
ARC
  5
D9
330
1F
100
AcDbEntity
  8
0
  6
Continuous
 62
     7
100
AcDbCircle
 10
51.53492175
 20
172.586010356
 30
0.0
 40
0.197135977
100
AcDbArc
 50
102.765474553
 51
223.049177155
  0
ARC
  5
DA
330
1F
100
AcDbEntity
  8
0
  6
Continuous
 62
     7
100
AcDbCircle
 10
51.53492175
 20
172.586010356
 30
0.0
 40
0.697135977
100
AcDbArc
 50
102.765474555
 51
223.049177149
  0
LINE
  5
DB
330
1F
100
AcDbEntity
  8
0
  6
Continuous
 62
     7
100
AcDbLine
 10
70.061226019
 20
153.781075299
 30
0.0
 11
69.719913103
 21
153.415691264
 31
0.0
  0
ARC
  5
DC
330
1F
100
AcDbEntity
  8
0
  6
Continuous
 62
     7
100
AcDbCircle
 10
70.19579613
 20
153.925135977
 30
0.0
 40
0.197135977
100
AcDbArc
 50
226.950822847
 51
347.234525445
  0
LINE
  5
DD
330
1F
100
AcDbEntity
  8
0
  6
Continuous
 62
     7
100
AcDbLine
 10
70.388059433
 20
153.881576644
 30
0.0
 11
70.875700772
 21
153.771096219
 31
0.0
  0
ARC
  5
DE
330
1F
100
AcDbEntity
  8
0
  6
Continuous
 62
     7
100
AcDbCircle
 10
70.19579613
 20
153.925135977
 30
0.0
 40
0.697135977
100
AcDbArc
 50
226.950822851
 51
347.234525445
  0
ARC
  5
DF
330
1F
100
AcDbEntity
  8
0
  6
Continuous
 62
     7
100
AcDbCircle
 10
43.567785773
 20
159.958
 30
0.0
 40
28.0
100
AcDbArc
 50
347.234525445
 51
12.765474555
  0
ARC
  5
E0
330
1F
100
AcDbEntity
  8
0
  6
Continuous
 62
     7
100
AcDbCircle
 10
43.567785773
 20
159.958
 30
0.0
 40
27.5
100
AcDbArc
 50
347.234525445
 51
12.765474555
  0
LINE
  5
E1
330
1F
100
AcDbEntity
  8
0
  6
Continuous
 62
     7
100
AcDbLine
 10
70.388059433
 20
166.034423356
 30
0.0
 11
70.875700772
 21
166.144903781
 31
0.0
  0
ARC
  5
E2
330
1F
100
AcDbEntity
  8
0
  6
Continuous
 62
     7
100
AcDbCircle
 10
69.105549855
 20
167.158
 30
0.0
 40
1.4
100
AcDbArc
 50
211.965718751
 51
313.049177149
  0
ARC
  5
E3
330
1F
100
AcDbEntity
  8
0
  6
Continuous
 62
     7
100
AcDbCircle
 10
69.105549855
 20
167.158
 30
0.0
 40
0.9
100
AcDbArc
 50
211.965718751
 51
313.049177149
  0
LINE
  5
E4
330
1F
100
AcDbEntity
  8
0
  6
Continuous
 62
     7
100
AcDbLine
 10
69.719913103
 20
166.500308736
 30
0.0
 11
70.061226019
 21
166.134924701
 31
0.0
  0
ARC
  5
E5
330
1F
100
AcDbEntity
  8
0
  6
Continuous
 62
     7
100
AcDbCircle
 10
51.53492175
 20
147.329989643
 30
0.0
 40
0.197135977
100
AcDbArc
 50
136.950822845
 51
257.234525445
  0
LINE
  5
E6
330
1F
100
AcDbEntity
  8
0
  6
Continuous
 62
     7
100
AcDbLine
 10
51.491362417
 20
147.13772634
 30
0.0
 11
51.380881992
 21
146.650085001
 31
0.0
  0
ARC
  5
E7
330
1F
100
AcDbEntity
  8
0
  6
Continuous
 62
     7
100
AcDbCircle
 10
51.53492175
 20
147.329989643
 30
0.0
 40
0.697135977
100
AcDbArc
 50
136.950822851
 51
257.234525445
  0
ARC
  5
E8
330
1F
100
AcDbEntity
  8
0
  6
Continuous
 62
     7
100
AcDbCircle
 10
57.567785773
 20
173.958
 30
0.0
 40
27.5
100
AcDbArc
 50
257.234525445
 51
282.765474555
  0
LINE
  5
E9
330
1F
100
AcDbEntity
  8
0
  6
Continuous
 62
     7
100
AcDbLine
 10
63.644209129
 20
147.13772634
 30
0.0
 11
63.754689554
 21
146.650085001
 31
0.0
  0
ARC
  5
EA
330
1F
100
AcDbEntity
  8
0
  6
Continuous
 62
     7
100
AcDbCircle
 10
57.567785773
 20
173.958
 30
0.0
 40
28.0
100
AcDbArc
 50
257.234525445
 51
282.765474555
  0
ARC
  5
EB
330
1F
100
AcDbEntity
  8
0
  6
Continuous
 62
     7
100
AcDbCircle
 10
69.105549855
 20
152.758
 30
0.0
 40
1.4
100
AcDbArc
 50
46.950822852
 51
148.034281248
  0
ARC
  5
EC
330
1F
100
AcDbEntity
  8
0
  6
Continuous
 62
     7
100
AcDbCircle
 10
69.105549855
 20
152.758
 30
0.0
 40
0.9
100
AcDbArc
 50
46.950822851
 51
148.034281249
  0
ARC
  5
ED
330
1F
100
AcDbEntity
  8
0
  6
Continuous
 62
     7
100
AcDbCircle
 10
63.600649796
 20
147.329989643
 30
0.0
 40
0.697135977
100
AcDbArc
 50
282.765474555
 51
43.049177149
  0
ARC
  5
EE
330
1F
100
AcDbEntity
  8
0
  6
Continuous
 62
     7
100
AcDbCircle
 10
63.600649796
 20
147.329989643
 30
0.0
 40
0.197135977
100
AcDbArc
 50
282.765474558
 51
43.049177165
  0
ARC
  5
EF
330
1F
100
AcDbEntity
  8
0
  6
Continuous
 62
     7
100
AcDbCircle
 10
70.19579613
 20
165.990864023
 30
0.0
 40
0.697135977
100
AcDbArc
 50
12.765474555
 51
133.049177149
  0
ARC
  5
F0
330
1F
100
AcDbEntity
  8
0
  6
Continuous
 62
     7
100
AcDbCircle
 10
70.19579613
 20
165.990864023
 30
0.0
 40
0.197135977
100
AcDbArc
 50
12.76547456
 51
133.049177144
  0
POINT
  5
F1
330
1F
100
AcDbEntity
  8
3
  6
Continuous
 62
     4
100
AcDbPoint
 10
67.567785773
 20
159.458000473
 30
0.0
  0
POINT
  5
F2
330
1F
100
AcDbEntity
  8
3
  6
Continuous
 62
     4
100
AcDbPoint
 10
47.567785773
 20
159.458000473
 30
0.0
  0
POINT
  5
F3
330
1F
100
AcDbEntity
  8
3
  6
Continuous
 62
     4
100
AcDbPoint
 10
64.367785773
 20
159.458000009
 30
0.0
  0
POINT
  5
F4
330
1F
100
AcDbEntity
  8
3
  6
Continuous
 62
     4
100
AcDbPoint
 10
50.767785773
 20
159.458000009
 30
0.0
  0
ARC
  5
F5
330
1F
100
AcDbEntity
  8
6
  6
Continuous
 62
     7
100
AcDbCircle
 10
57.567785773
 20
159.958
 30
0.0
 40
10.0
100
AcDbArc
 50
0.0
 51
180.0
  0
ARC
  5
F6
330
1F
100
AcDbEntity
  8
6
  6
Continuous
 62
     7
100
AcDbCircle
 10
57.567785773
 20
159.958
 30
0.0
 40
10.0
100
AcDbArc
 50
180.0
 51
0.0
  0
ARC
  5
F7
330
1F
100
AcDbEntity
  8
6
  6
Continuous
 62
     7
100
AcDbCircle
 10
57.567785773
 20
159.958
 30
0.0
 40
6.8
100
AcDbArc
 50
0.0
 51
180.0
  0
ARC
  5
F8
330
1F
100
AcDbEntity
  8
6
  6
Continuous
 62
     7
100
AcDbCircle
 10
57.567785773
 20
159.958
 30
0.0
 40
6.8
100
AcDbArc
 50
180.0
 51
0.0
  0
LINE
  5
F9
330
1F
100
AcDbEntity
  8
0
  6
Continuous
 62
     7
100
AcDbLine
 10
106.25
 20
153.230626801
 30
0.0
 11
160.25
 21
153.230626801
 31
0.0
  0
LINE
  5
FA
330
1F
100
AcDbEntity
  8
0
  6
Continuous
 62
     7
100
AcDbLine
 10
160.25
 20
166.685375306
 30
0.0
 11
106.25
 21
166.685375306
 31
0.0
  0
LINE
  5
FB
330
1F
100
AcDbEntity
  8
0
  6
Continuous
 62
     7
100
AcDbLine
 10
160.25
 20
173.958
 30
0.0
 11
106.25
 21
173.958
 31
0.0
  0
LINE
  5
FC
330
1F
100
AcDbEntity
  8
0
  6
Continuous
 62
     7
100
AcDbLine
 10
106.25
 20
145.958002107
 30
0.0
 11
160.25
 21
145.958002107
 31
0.0
  0
LINE
  5
FD
330
1F
100
AcDbEntity
  8
0
  6
Continuous
 62
     7
100
AcDbLine
 10
106.25
 20
153.776078724
 30
0.0
 11
106.25
 21
166.139923383
 31
0.0
  0
LINE
  5
FE
330
1F
100
AcDbEntity
  8
0
  6
Continuous
 62
     7
100
AcDbLine
 10
160.25
 20
153.776078724
 30
0.0
 11
160.25
 21
166.139923383
 31
0.0
  0
LINE
  5
FF
330
1F
100
AcDbEntity
  8
0
  6
Continuous
 62
     7
100
AcDbLine
 10
106.25
 20
153.776078724
 30
0.0
 11
106.25
 21
153.230626801
 31
0.0
  0
LINE
  5
100
330
1F
100
AcDbEntity
  8
0
  6
Continuous
 62
     7
100
AcDbLine
 10
160.25
 20
153.776078724
 30
0.0
 11
160.25
 21
153.230626801
 31
0.0
  0
LINE
  5
101
330
1F
100
AcDbEntity
  8
0
  6
Continuous
 62
     7
100
AcDbLine
 10
106.25
 20
166.139923383
 30
0.0
 11
106.25
 21
166.685375306
 31
0.0
  0
LINE
  5
102
330
1F
100
AcDbEntity
  8
0
  6
Continuous
 62
     7
100
AcDbLine
 10
160.25
 20
166.139923383
 30
0.0
 11
160.25
 21
166.685375306
 31
0.0
  0
LINE
  5
103
330
1F
100
AcDbEntity
  8
0
  6
Continuous
 62
     7
100
AcDbLine
 10
106.25
 20
153.234472903
 30
0.0
 11
106.25
 21
149.183768419
 31
0.0
  0
LINE
  5
104
330
1F
100
AcDbEntity
  8
0
  6
Continuous
 62
     7
100
AcDbLine
 10
160.25
 20
153.234472903
 30
0.0
 11
160.25
 21
149.183768419
 31
0.0
  0
LINE
  5
105
330
1F
100
AcDbEntity
  8
0
  6
Continuous
 62
     7
100
AcDbLine
 10
106.25
 20
166.681529204
 30
0.0
 11
106.25
 21
170.732233688
 31
0.0
  0
LINE
  5
106
330
1F
100
AcDbEntity
  8
0
  6
Continuous
 62
     7
100
AcDbLine
 10
160.25
 20
166.681529204
 30
0.0
 11
160.25
 21
170.732233688
 31
0.0
  0
LINE
  5
107
330
1F
100
AcDbEntity
  8
0
  6
Continuous
 62
     7
100
AcDbLine
 10
106.25
 20
172.108074262
 30
0.0
 11
106.25
 21
173.267043081
 31
0.0
  0
LINE
  5
108
330
1F
100
AcDbEntity
  8
0
  6
Continuous
 62
     7
100
AcDbLine
 10
160.25
 20
172.108074262
 30
0.0
 11
160.25
 21
173.267043081
 31
0.0
  0
LINE
  5
109
330
1F
100
AcDbEntity
  8
0
  6
Continuous
 62
     7
100
AcDbLine
 10
106.25
 20
147.807927845
 30
0.0
 11
106.25
 21
146.648959026
 31
0.0
  0
LINE
  5
10A
330
1F
100
AcDbEntity
  8
0
  6
Continuous
 62
     7
100
AcDbLine
 10
160.25
 20
147.807927845
 30
0.0
 11
160.25
 21
146.648959026
 31
0.0
  0
LINE
  5
10B
330
1F
100
AcDbEntity
  8
0
  6
Continuous
 62
     7
100
AcDbLine
 10
106.25
 20
149.183768419
 30
0.0
 11
106.25
 21
147.807927845
 31
0.0
  0
LINE
  5
10C
330
1F
100
AcDbEntity
  8
0
  6
Continuous
 62
     7
100
AcDbLine
 10
160.25
 20
149.183768419
 30
0.0
 11
160.25
 21
147.807927845
 31
0.0
  0
LINE
  5
10D
330
1F
100
AcDbEntity
  8
0
  6
Continuous
 62
     7
100
AcDbLine
 10
106.25
 20
170.732233688
 30
0.0
 11
106.25
 21
172.108074262
 31
0.0
  0
LINE
  5
10E
330
1F
100
AcDbEntity
  8
0
  6
Continuous
 62
     7
100
AcDbLine
 10
160.25
 20
170.732233688
 30
0.0
 11
160.25
 21
172.108074262
 31
0.0
  0
LINE
  5
10F
330
1F
100
AcDbEntity
  8
0
  6
Continuous
 62
     7
100
AcDbLine
 10
106.25
 20
173.267043081
 30
0.0
 11
106.25
 21
173.958
 31
0.0
  0
LINE
  5
110
330
1F
100
AcDbEntity
  8
0
  6
Continuous
 62
     7
100
AcDbLine
 10
160.25
 20
173.267043081
 30
0.0
 11
160.25
 21
173.958
 31
0.0
  0
LINE
  5
111
330
1F
100
AcDbEntity
  8
0
  6
Continuous
 62
     7
100
AcDbLine
 10
106.25
 20
145.958002107
 30
0.0
 11
106.25
 21
146.648959026
 31
0.0
  0
LINE
  5
112
330
1F
100
AcDbEntity
  8
0
  6
Continuous
 62
     7
100
AcDbLine
 10
160.25
 20
145.958002107
 30
0.0
 11
160.25
 21
146.648959026
 31
0.0
  0
LINE
  5
113
330
1F
100
AcDbEntity
  8
0
  6
Continuous
 62
     7
100
AcDbLine
 10
103.75
 20
166.688
 30
0.0
 11
103.25
 21
166.188
 31
0.0
  0
LINE
  5
114
330
1F
100
AcDbEntity
  8
0
  6
Continuous
 62
     7
100
AcDbLine
 10
106.25
 20
166.688
 30
0.0
 11
103.75
 21
166.688
 31
0.0
  0
LINE
  5
115
330
1F
100
AcDbEntity
  8
0
  6
Continuous
 62
     7
100
AcDbLine
 10
103.75
 20
153.228
 30
0.0
 11
106.25
 21
153.228
 31
0.0
  0
LINE
  5
116
330
1F
100
AcDbEntity
  8
0
  6
Continuous
 62
     7
100
AcDbLine
 10
103.25
 20
153.728
 30
0.0
 11
103.75
 21
153.228
 31
0.0
  0
LINE
  5
117
330
1F
100
AcDbEntity
  8
0
  6
Continuous
 62
     7
100
AcDbLine
 10
103.75
 20
145.958
 30
0.0
 11
106.25
 21
145.958
 31
0.0
  0
LINE
  5
118
330
1F
100
AcDbEntity
  8
0
  6
Continuous
 62
     7
100
AcDbLine
 10
103.25
 20
146.458
 30
0.0
 11
103.75
 21
145.958
 31
0.0
  0
LINE
  5
119
330
1F
100
AcDbEntity
  8
0
  6
Continuous
 62
     7
100
AcDbLine
 10
103.75
 20
173.958
 30
0.0
 11
103.25
 21
173.458
 31
0.0
  0
LINE
  5
11A
330
1F
100
AcDbEntity
  8
0
  6
Continuous
 62
     7
100
AcDbLine
 10
106.25
 20
173.958
 30
0.0
 11
103.75
 21
173.958
 31
0.0
  0
LINE
  5
11B
330
1F
100
AcDbEntity
  8
0
  6
Continuous
 62
     7
100
AcDbLine
 10
103.75
 20
153.771096219
 30
0.0
 11
103.75
 21
166.144903781
 31
0.0
  0
LINE
  5
11C
330
1F
100
AcDbEntity
  8
0
  6
Continuous
 62
     7
100
AcDbLine
 10
106.25
 20
153.771096219
 30
0.0
 11
106.25
 21
166.144903781
 31
0.0
  0
LINE
  5
11D
330
1F
100
AcDbEntity
  8
0
  6
Continuous
 62
     7
100
AcDbLine
 10
103.25
 20
153.881576644
 30
0.0
 11
103.25
 21
166.034423356
 31
0.0
  0
LINE
  5
11E
330
1F
100
AcDbEntity
  8
0
  6
Continuous
 62
     7
100
AcDbLine
 10
103.75
 20
166.688
 30
0.0
 11
103.75
 21
166.144903781
 31
0.0
  0
LINE
  5
11F
330
1F
100
AcDbEntity
  8
0
  6
Continuous
 62
     7
100
AcDbLine
 10
103.25
 20
166.034423356
 30
0.0
 11
103.25
 21
166.188
 31
0.0
  0
LINE
  5
120
330
1F
100
AcDbEntity
  8
0
  6
Continuous
 62
     7
100
AcDbLine
 10
106.25
 20
166.688
 30
0.0
 11
106.25
 21
166.144903781
 31
0.0
  0
LINE
  5
121
330
1F
100
AcDbEntity
  8
0
  6
Continuous
 62
     7
100
AcDbLine
 10
103.75
 20
153.771096219
 30
0.0
 11
103.75
 21
153.228
 31
0.0
  0
LINE
  5
122
330
1F
100
AcDbEntity
  8
0
  6
Continuous
 62
     7
100
AcDbLine
 10
106.25
 20
153.771096219
 30
0.0
 11
106.25
 21
153.228
 31
0.0
  0
LINE
  5
123
330
1F
100
AcDbEntity
  8
0
  6
Continuous
 62
     7
100
AcDbLine
 10
103.25
 20
153.728
 30
0.0
 11
103.25
 21
153.881576644
 31
0.0
  0
LINE
  5
124
330
1F
100
AcDbEntity
  8
0
  6
Continuous
 62
     7
100
AcDbLine
 10
103.25
 20
166.188
 30
0.0
 11
103.25
 21
166.416823529
 31
0.0
  0
LINE
  5
125
330
1F
100
AcDbEntity
  8
0
  6
Continuous
 62
     7
100
AcDbLine
 10
103.25
 20
153.499176471
 30
0.0
 11
103.25
 21
153.728
 31
0.0
  0
LINE
  5
126
330
1F
100
AcDbEntity
  8
0
  6
Continuous
 62
     7
100
AcDbLine
 10
103.75
 20
149.183764424
 30
0.0
 11
103.75
 21
153.234470588
 31
0.0
  0
LINE
  5
127
330
1F
100
AcDbEntity
  8
0
  6
Continuous
 62
     7
100
AcDbLine
 10
106.25
 20
149.183764424
 30
0.0
 11
106.25
 21
153.234470588
 31
0.0
  0
LINE
  5
128
330
1F
100
AcDbEntity
  8
0
  6
Continuous
 62
     7
100
AcDbLine
 10
103.25
 20
149.607946927
 30
0.0
 11
103.25
 21
153.499176471
 31
0.0
  0
LINE
  5
129
330
1F
100
AcDbEntity
  8
0
  6
Continuous
 62
     7
100
AcDbLine
 10
103.75
 20
166.681529412
 30
0.0
 11
103.75
 21
170.732235576
 31
0.0
  0
LINE
  5
12A
330
1F
100
AcDbEntity
  8
0
  6
Continuous
 62
     7
100
AcDbLine
 10
103.25
 20
166.416823529
 30
0.0
 11
103.25
 21
170.308053073
 31
0.0
  0
LINE
  5
12B
330
1F
100
AcDbEntity
  8
0
  6
Continuous
 62
     7
100
AcDbLine
 10
106.25
 20
166.681529412
 30
0.0
 11
106.25
 21
170.732235576
 31
0.0
  0
LINE
  5
12C
330
1F
100
AcDbEntity
  8
0
  6
Continuous
 62
     7
100
AcDbLine
 10
103.75
 20
173.265914999
 30
0.0
 11
103.75
 21
172.11012733
 31
0.0
  0
LINE
  5
12D
330
1F
100
AcDbEntity
  8
0
  6
Continuous
 62
     7
100
AcDbLine
 10
106.25
 20
173.265914999
 30
0.0
 11
106.25
 21
172.11012733
 31
0.0
  0
LINE
  5
12E
330
1F
100
AcDbEntity
  8
0
  6
Continuous
 62
     7
100
AcDbLine
 10
103.25
 20
172.451440246
 30
0.0
 11
103.25
 21
172.77827366
 31
0.0
  0
LINE
  5
12F
330
1F
100
AcDbEntity
  8
0
  6
Continuous
 62
     7
100
AcDbLine
 10
103.75
 20
147.80587267
 30
0.0
 11
103.75
 21
146.650085001
 31
0.0
  0
LINE
  5
130
330
1F
100
AcDbEntity
  8
0
  6
Continuous
 62
     7
100
AcDbLine
 10
103.25
 20
147.13772634
 30
0.0
 11
103.25
 21
147.464559754
 31
0.0
  0
LINE
  5
131
330
1F
100
AcDbEntity
  8
0
  6
Continuous
 62
     7
100
AcDbLine
 10
106.25
 20
147.80587267
 30
0.0
 11
106.25
 21
146.650085001
 31
0.0
  0
LINE
  5
132
330
1F
100
AcDbEntity
  8
0
  6
Continuous
 62
     7
100
AcDbLine
 10
103.75
 20
170.732235576
 30
0.0
 11
103.75
 21
172.11012733
 31
0.0
  0
LINE
  5
133
330
1F
100
AcDbEntity
  8
0
  6
Continuous
 62
     7
100
AcDbLine
 10
106.25
 20
172.11012733
 30
0.0
 11
106.25
 21
170.732235576
 31
0.0
  0
LINE
  5
134
330
1F
100
AcDbEntity
  8
0
  6
Continuous
 62
     7
100
AcDbLine
 10
103.25
 20
170.308053073
 30
0.0
 11
103.25
 21
172.451440246
 31
0.0
  0
LINE
  5
135
330
1F
100
AcDbEntity
  8
0
  6
Continuous
 62
     7
100
AcDbLine
 10
103.75
 20
147.80587267
 30
0.0
 11
103.75
 21
149.183764424
 31
0.0
  0
LINE
  5
136
330
1F
100
AcDbEntity
  8
0
  6
Continuous
 62
     7
100
AcDbLine
 10
103.25
 20
147.464559754
 30
0.0
 11
103.25
 21
149.607946927
 31
0.0
  0
LINE
  5
137
330
1F
100
AcDbEntity
  8
0
  6
Continuous
 62
     7
100
AcDbLine
 10
106.25
 20
149.183764424
 30
0.0
 11
106.25
 21
147.80587267
 31
0.0
  0
LINE
  5
138
330
1F
100
AcDbEntity
  8
0
  6
Continuous
 62
     7
100
AcDbLine
 10
103.75
 20
145.958
 30
0.0
 11
103.75
 21
146.650085001
 31
0.0
  0
LINE
  5
139
330
1F
100
AcDbEntity
  8
0
  6
Continuous
 62
     7
100
AcDbLine
 10
106.25
 20
145.958
 30
0.0
 11
106.25
 21
146.650085001
 31
0.0
  0
LINE
  5
13A
330
1F
100
AcDbEntity
  8
0
  6
Continuous
 62
     7
100
AcDbLine
 10
103.25
 20
146.458
 30
0.0
 11
103.25
 21
147.13772634
 31
0.0
  0
LINE
  5
13B
330
1F
100
AcDbEntity
  8
0
  6
Continuous
 62
     7
100
AcDbLine
 10
103.75
 20
173.265914999
 30
0.0
 11
103.75
 21
173.958
 31
0.0
  0
LINE
  5
13C
330
1F
100
AcDbEntity
  8
0
  6
Continuous
 62
     7
100
AcDbLine
 10
103.25
 20
172.77827366
 30
0.0
 11
103.25
 21
173.458
 31
0.0
  0
LINE
  5
13D
330
1F
100
AcDbEntity
  8
0
  6
Continuous
 62
     7
100
AcDbLine
 10
106.25
 20
173.265914999
 30
0.0
 11
106.25
 21
173.958
 31
0.0
  0
POINT
  5
13E
330
1F
100
AcDbEntity
  8
3
  6
Continuous
 62
     4
100
AcDbPoint
 10
103.25
 20
149.458000025
 30
0.0
  0
POINT
  5
13F
330
1F
100
AcDbEntity
  8
3
  6
Continuous
 62
     4
100
AcDbPoint
 10
103.25
 20
149.457999976
 30
0.0
  0
POINT
  5
140
330
1F
100
AcDbEntity
  8
3
  6
Continuous
 62
     4
100
AcDbPoint
 10
97.75
 20
153.058000357
 30
0.0
  0
POINT
  5
141
330
1F
100
AcDbEntity
  8
3
  6
Continuous
 62
     4
100
AcDbPoint
 10
103.25
 20
149.458000222
 30
0.0
  0
POINT
  5
142
330
1F
100
AcDbEntity
  8
3
  6
Continuous
 62
     4
100
AcDbPoint
 10
100.75
 20
151.065481225
 30
0.0
  0
ARC
  5
143
330
1F
100
AcDbEntity
  8
6
  6
Continuous
 62
     7
100
AcDbCircle
 10
98.15
 20
166.358
 30
0.0
 40
0.4
100
AcDbArc
 50
90.0
 51
180.0
  0
ARC
  5
144
330
1F
100
AcDbEntity
  8
6
  6
Continuous
 62
     7
100
AcDbCircle
 10
98.15
 20
153.558
 30
0.0
 40
0.4
100
AcDbArc
 50
180.0
 51
270.0
  0
LINE
  5
145
330
1F
100
AcDbEntity
  8
6
  6
Continuous
 62
     7
100
AcDbLine
 10
98.15
 20
166.758
 30
0.0
 11
100.75
 21
166.758
 31
0.0
  0
LINE
  5
146
330
1F
100
AcDbEntity
  8
6
  6
Continuous
 62
     7
100
AcDbLine
 10
97.75
 20
163.358
 30
0.0
 11
97.75
 21
166.358
 31
0.0
  0
LINE
  5
147
330
1F
100
AcDbEntity
  8
6
  6
Continuous
 62
     7
100
AcDbLine
 10
97.75
 20
163.358
 30
0.0
 11
97.75
 21
159.958
 31
0.0
  0
LINE
  5
148
330
1F
100
AcDbEntity
  8
6
  6
Continuous
 62
     7
100
AcDbLine
 10
97.75
 20
159.958
 30
0.0
 11
97.75
 21
156.558
 31
0.0
  0
LINE
  5
149
330
1F
100
AcDbEntity
  8
6
  6
Continuous
 62
     7
100
AcDbLine
 10
97.75
 20
153.558
 30
0.0
 11
97.75
 21
156.558
 31
0.0
  0
LINE
  5
14A
330
1F
100
AcDbEntity
  8
6
  6
Continuous
 62
     7
100
AcDbLine
 10
100.75
 20
153.158
 30
0.0
 11
98.15
 21
153.158
 31
0.0
  0
ARC
  5
14B
330
1F
100
AcDbEntity
  8
6
  6
Continuous
 62
     7
100
AcDbCircle
 10
102.25
 20
168.350518657
 30
0.0
 40
1.5
100
AcDbArc
 50
95.710593138
 51
180.0
  0
ARC
  5
14C
330
1F
100
AcDbEntity
  8
6
  6
Continuous
 62
     7
100
AcDbCircle
 10
102.25
 20
151.565481343
 30
0.0
 40
1.5
100
AcDbArc
 50
180.0
 51
264.289406862
  0
LINE
  5
14D
330
1F
100
AcDbEntity
  8
6
  6
Continuous
 62
     7
100
AcDbLine
 10
102.100744421
 20
150.072925558
 30
0.0
 11
103.25
 21
149.958
 31
0.0
  0
LINE
  5
14E
330
1F
100
AcDbEntity
  8
6
  6
Continuous
 62
     7
100
AcDbLine
 10
100.75
 20
168.350518657
 30
0.0
 11
100.75
 21
151.565481343
 31
0.0
  0
LINE
  5
14F
330
1F
100
AcDbEntity
  8
6
  6
Continuous
 62
     7
100
AcDbLine
 10
103.25
 20
169.958
 30
0.0
 11
102.100744421
 21
169.843074442
 31
0.0
  0
LINE
  5
150
330
1F
100
AcDbEntity
  8
6
  6
Continuous
 62
     7
100
AcDbLine
 10
103.25
 20
152.008
 30
0.0
 11
103.25
 21
149.958
 31
0.0
  0
LINE
  5
151
330
1F
100
AcDbEntity
  8
6
  6
Continuous
 62
     7
100
AcDbLine
 10
103.25
 20
152.008
 30
0.0
 11
103.25
 21
159.958
 31
0.0
  0
LINE
  5
152
330
1F
100
AcDbEntity
  8
6
  6
Continuous
 62
     7
100
AcDbLine
 10
103.25
 20
169.958
 30
0.0
 11
103.25
 21
167.908
 31
0.0
  0
LINE
  5
153
330
1F
100
AcDbEntity
  8
6
  6
Continuous
 62
     7
100
AcDbLine
 10
103.25
 20
159.958
 30
0.0
 11
103.25
 21
167.908
 31
0.0
  0
LINE
  5
154
330
1F
100
AcDbEntity
  8
0
  6
Continuous
 62
     2
100
AcDbLine
 10
236.261122053
 20
159.458
 30
0.0
 11
233.594455386
 21
155.458
 31
0.0
  0
LINE
  5
155
330
1F
100
AcDbEntity
  8
0
  6
Continuous
 62
     2
100
AcDbLine
 10
238.261122053
 20
159.458
 30
0.0
 11
235.594455386
 21
155.458
 31
0.0
  0
LINE
  5
156
330
1F
100
AcDbEntity
  8
0
  6
Continuous
 62
     2
100
AcDbLine
 10
232.883786611
 20
162.133161386
 30
0.0
 11
236.261122053
 21
159.458
 31
0.0
  0
LINE
  5
157
330
1F
100
AcDbEntity
  8
0
  6
Continuous
 62
     2
100
AcDbLine
 10
234.884143755
 20
162.132878495
 30
0.0
 11
237.095869635
 21
165.852599293
 31
0.0
  0
LINE
  5
158
330
1F
100
AcDbEntity
  8
0
  6
Continuous
 62
     2
100
AcDbLine
 10
234.884143755
 20
162.132878495
 30
0.0
 11
238.261122053
 21
159.458
 31
0.0
  0
LINE
  5
159
330
1F
100
AcDbEntity
  8
0
  6
Continuous
 62
     2
100
AcDbLine
 10
232.883786611
 20
162.133161386
 30
0.0
 11
235.195869635
 21
165.852599293
 31
0.0
  0
LINE
  5
15A
330
1F
100
AcDbEntity
  8
0
  6
Continuous
 62
     7
100
AcDbLine
 10
162.75
 20
166.688
 30
0.0
 11
163.25
 21
166.188
 31
0.0
  0
LINE
  5
15B
330
1F
100
AcDbEntity
  8
0
  6
Continuous
 62
     7
100
AcDbLine
 10
160.25
 20
166.688
 30
0.0
 11
162.75
 21
166.688
 31
0.0
  0
LINE
  5
15C
330
1F
100
AcDbEntity
  8
0
  6
Continuous
 62
     7
100
AcDbLine
 10
162.75
 20
153.228
 30
0.0
 11
160.25
 21
153.228
 31
0.0
  0
LINE
  5
15D
330
1F
100
AcDbEntity
  8
0
  6
Continuous
 62
     7
100
AcDbLine
 10
163.25
 20
153.728
 30
0.0
 11
162.75
 21
153.228
 31
0.0
  0
LINE
  5
15E
330
1F
100
AcDbEntity
  8
0
  6
Continuous
 62
     7
100
AcDbLine
 10
162.75
 20
145.958
 30
0.0
 11
160.25
 21
145.958
 31
0.0
  0
LINE
  5
15F
330
1F
100
AcDbEntity
  8
0
  6
Continuous
 62
     7
100
AcDbLine
 10
163.25
 20
146.458
 30
0.0
 11
162.75
 21
145.958
 31
0.0
  0
LINE
  5
160
330
1F
100
AcDbEntity
  8
0
  6
Continuous
 62
     7
100
AcDbLine
 10
162.75
 20
173.958
 30
0.0
 11
163.25
 21
173.458
 31
0.0
  0
LINE
  5
161
330
1F
100
AcDbEntity
  8
0
  6
Continuous
 62
     7
100
AcDbLine
 10
160.25
 20
173.958
 30
0.0
 11
162.75
 21
173.958
 31
0.0
  0
LINE
  5
162
330
1F
100
AcDbEntity
  8
0
  6
Continuous
 62
     7
100
AcDbLine
 10
162.75
 20
153.771096219
 30
0.0
 11
162.75
 21
166.144903781
 31
0.0
  0
LINE
  5
163
330
1F
100
AcDbEntity
  8
0
  6
Continuous
 62
     7
100
AcDbLine
 10
160.25
 20
153.771096219
 30
0.0
 11
160.25
 21
166.144903781
 31
0.0
  0
LINE
  5
164
330
1F
100
AcDbEntity
  8
0
  6
Continuous
 62
     7
100
AcDbLine
 10
163.25
 20
153.881576644
 30
0.0
 11
163.25
 21
166.034423356
 31
0.0
  0
LINE
  5
165
330
1F
100
AcDbEntity
  8
0
  6
Continuous
 62
     7
100
AcDbLine
 10
162.75
 20
166.688
 30
0.0
 11
162.75
 21
166.144903781
 31
0.0
  0
LINE
  5
166
330
1F
100
AcDbEntity
  8
0
  6
Continuous
 62
     7
100
AcDbLine
 10
163.25
 20
166.034423356
 30
0.0
 11
163.25
 21
166.188
 31
0.0
  0
LINE
  5
167
330
1F
100
AcDbEntity
  8
0
  6
Continuous
 62
     7
100
AcDbLine
 10
160.25
 20
166.688
 30
0.0
 11
160.25
 21
166.144903781
 31
0.0
  0
LINE
  5
168
330
1F
100
AcDbEntity
  8
0
  6
Continuous
 62
     7
100
AcDbLine
 10
162.75
 20
153.771096219
 30
0.0
 11
162.75
 21
153.228
 31
0.0
  0
LINE
  5
169
330
1F
100
AcDbEntity
  8
0
  6
Continuous
 62
     7
100
AcDbLine
 10
160.25
 20
153.771096219
 30
0.0
 11
160.25
 21
153.228
 31
0.0
  0
LINE
  5
16A
330
1F
100
AcDbEntity
  8
0
  6
Continuous
 62
     7
100
AcDbLine
 10
163.25
 20
153.728
 30
0.0
 11
163.25
 21
153.881576644
 31
0.0
  0
LINE
  5
16B
330
1F
100
AcDbEntity
  8
0
  6
Continuous
 62
     7
100
AcDbLine
 10
163.25
 20
166.188
 30
0.0
 11
163.25
 21
166.416823529
 31
0.0
  0
LINE
  5
16C
330
1F
100
AcDbEntity
  8
0
  6
Continuous
 62
     7
100
AcDbLine
 10
163.25
 20
153.499176471
 30
0.0
 11
163.25
 21
153.728
 31
0.0
  0
LINE
  5
16D
330
1F
100
AcDbEntity
  8
0
  6
Continuous
 62
     7
100
AcDbLine
 10
162.75
 20
149.183764424
 30
0.0
 11
162.75
 21
153.234470588
 31
0.0
  0
LINE
  5
16E
330
1F
100
AcDbEntity
  8
0
  6
Continuous
 62
     7
100
AcDbLine
 10
160.25
 20
149.183764424
 30
0.0
 11
160.25
 21
153.234470588
 31
0.0
  0
LINE
  5
16F
330
1F
100
AcDbEntity
  8
0
  6
Continuous
 62
     7
100
AcDbLine
 10
163.25
 20
149.607946927
 30
0.0
 11
163.25
 21
153.499176471
 31
0.0
  0
LINE
  5
170
330
1F
100
AcDbEntity
  8
0
  6
Continuous
 62
     7
100
AcDbLine
 10
162.75
 20
166.681529412
 30
0.0
 11
162.75
 21
170.732235576
 31
0.0
  0
LINE
  5
171
330
1F
100
AcDbEntity
  8
0
  6
Continuous
 62
     7
100
AcDbLine
 10
163.25
 20
166.416823529
 30
0.0
 11
163.25
 21
170.308053073
 31
0.0
  0
LINE
  5
172
330
1F
100
AcDbEntity
  8
0
  6
Continuous
 62
     7
100
AcDbLine
 10
160.25
 20
166.681529412
 30
0.0
 11
160.25
 21
170.732235576
 31
0.0
  0
LINE
  5
173
330
1F
100
AcDbEntity
  8
0
  6
Continuous
 62
     7
100
AcDbLine
 10
162.75
 20
173.265914999
 30
0.0
 11
162.75
 21
172.11012733
 31
0.0
  0
LINE
  5
174
330
1F
100
AcDbEntity
  8
0
  6
Continuous
 62
     7
100
AcDbLine
 10
160.25
 20
173.265914999
 30
0.0
 11
160.25
 21
172.11012733
 31
0.0
  0
LINE
  5
175
330
1F
100
AcDbEntity
  8
0
  6
Continuous
 62
     7
100
AcDbLine
 10
163.25
 20
172.451440246
 30
0.0
 11
163.25
 21
172.77827366
 31
0.0
  0
LINE
  5
176
330
1F
100
AcDbEntity
  8
0
  6
Continuous
 62
     7
100
AcDbLine
 10
162.75
 20
147.80587267
 30
0.0
 11
162.75
 21
146.650085001
 31
0.0
  0
LINE
  5
177
330
1F
100
AcDbEntity
  8
0
  6
Continuous
 62
     7
100
AcDbLine
 10
163.25
 20
147.13772634
 30
0.0
 11
163.25
 21
147.464559754
 31
0.0
  0
LINE
  5
178
330
1F
100
AcDbEntity
  8
0
  6
Continuous
 62
     7
100
AcDbLine
 10
160.25
 20
147.80587267
 30
0.0
 11
160.25
 21
146.650085001
 31
0.0
  0
LINE
  5
179
330
1F
100
AcDbEntity
  8
0
  6
Continuous
 62
     7
100
AcDbLine
 10
162.75
 20
170.732235576
 30
0.0
 11
162.75
 21
172.11012733
 31
0.0
  0
LINE
  5
17A
330
1F
100
AcDbEntity
  8
0
  6
Continuous
 62
     7
100
AcDbLine
 10
160.25
 20
172.11012733
 30
0.0
 11
160.25
 21
170.732235576
 31
0.0
  0
LINE
  5
17B
330
1F
100
AcDbEntity
  8
0
  6
Continuous
 62
     7
100
AcDbLine
 10
163.25
 20
170.308053073
 30
0.0
 11
163.25
 21
172.451440246
 31
0.0
  0
LINE
  5
17C
330
1F
100
AcDbEntity
  8
0
  6
Continuous
 62
     7
100
AcDbLine
 10
162.75
 20
147.80587267
 30
0.0
 11
162.75
 21
149.183764424
 31
0.0
  0
LINE
  5
17D
330
1F
100
AcDbEntity
  8
0
  6
Continuous
 62
     7
100
AcDbLine
 10
163.25
 20
147.464559754
 30
0.0
 11
163.25
 21
149.607946927
 31
0.0
  0
LINE
  5
17E
330
1F
100
AcDbEntity
  8
0
  6
Continuous
 62
     7
100
AcDbLine
 10
160.25
 20
149.183764424
 30
0.0
 11
160.25
 21
147.80587267
 31
0.0
  0
LINE
  5
17F
330
1F
100
AcDbEntity
  8
0
  6
Continuous
 62
     7
100
AcDbLine
 10
162.75
 20
145.958
 30
0.0
 11
162.75
 21
146.650085001
 31
0.0
  0
LINE
  5
180
330
1F
100
AcDbEntity
  8
0
  6
Continuous
 62
     7
100
AcDbLine
 10
160.25
 20
145.958
 30
0.0
 11
160.25
 21
146.650085001
 31
0.0
  0
LINE
  5
181
330
1F
100
AcDbEntity
  8
0
  6
Continuous
 62
     7
100
AcDbLine
 10
163.25
 20
146.458
 30
0.0
 11
163.25
 21
147.13772634
 31
0.0
  0
LINE
  5
182
330
1F
100
AcDbEntity
  8
0
  6
Continuous
 62
     7
100
AcDbLine
 10
162.75
 20
173.265914999
 30
0.0
 11
162.75
 21
173.958
 31
0.0
  0
LINE
  5
183
330
1F
100
AcDbEntity
  8
0
  6
Continuous
 62
     7
100
AcDbLine
 10
163.25
 20
172.77827366
 30
0.0
 11
163.25
 21
173.458
 31
0.0
  0
LINE
  5
184
330
1F
100
AcDbEntity
  8
0
  6
Continuous
 62
     7
100
AcDbLine
 10
160.25
 20
173.265914999
 30
0.0
 11
160.25
 21
173.958
 31
0.0
  0
LINE
  5
185
330
1F
100
AcDbEntity
  8
0
  6
Continuous
 62
     3
100
AcDbLine
 10
56.567785773
 20
173.958
 30
0.0
 11
36.622286178
 21
173.958
 31
0.0
  0
LINE
  5
186
330
1F
100
AcDbEntity
  8
0
  6
Continuous
 62
     3
100
AcDbLine
 10
38.622286178
 20
173.958
 30
0.0
 11
37.975238565
 21
171.543185434
 31
0.0
  0
LINE
  5
187
330
1F
100
AcDbEntity
  8
0
  6
Continuous
 62
     3
100
AcDbLine
 10
38.622286178
 20
173.958
 30
0.0
 11
39.269333791
 21
171.543185434
 31
0.0
  0
LWPOLYLINE
  5
189
330
1F
100
AcDbEntity
  8
0
  6
Continuous
 62
     3
100
AcDbPolyline
 90
     3
 70
   128
 43
0.0
 10
38.622286178
 20
173.958
 10
38.622286178
 20
159.958
 10
39.269333791
 20
162.372814566
  0
LINE
  5
18A
330
1F
100
AcDbEntity
  8
0
  6
Continuous
 62
     3
100
AcDbLine
 10
38.622286178
 20
159.958
 30
0.0
 11
37.975238565
 21
162.372814566
 31
0.0
  0
LINE
  5
18B
330
1F
100
AcDbEntity
  8
0
  6
Continuous
 62
     3
100
AcDbLine
 10
40.422286178
 20
159.958
 30
0.0
 11
36.622286178
 21
159.958
 31
0.0
  0
LINE
  5
18C
330
1F
100
AcDbEntity
  8
0
  6
Continuous
 62
     3
100
AcDbLine
 10
56.567785773
 20
173.958
 30
0.0
 11
29.397785773
 21
173.958
 31
0.0
  0
LINE
  5
18D
330
1F
100
AcDbEntity
  8
0
  6
Continuous
 62
     3
100
AcDbLine
 10
31.397785773
 20
173.958
 30
0.0
 11
30.75073816
 21
171.543185434
 31
0.0
  0
LINE
  5
18E
330
1F
100
AcDbEntity
  8
0
  6
Continuous
 62
     3
100
AcDbLine
 10
31.397785773
 20
173.958
 30
0.0
 11
32.044833386
 21
171.543185434
 31
0.0
  0
LWPOLYLINE
  5
190
330
1F
100
AcDbEntity
  8
0
  6
Continuous
 62
     3
100
AcDbPolyline
 90
     3
 70
   128
 43
0.0
 10
31.397785773
 20
173.958
 10
31.397785773
 20
145.958
 10
32.044833386
 20
148.372814566
  0
LINE
  5
191
330
1F
100
AcDbEntity
  8
0
  6
Continuous
 62
     3
100
AcDbLine
 10
31.397785773
 20
145.958
 30
0.0
 11
30.75073816
 21
148.372814566
 31
0.0
  0
LINE
  5
192
330
1F
100
AcDbEntity
  8
0
  6
Continuous
 62
     3
100
AcDbLine
 10
56.567785773
 20
145.958
 30
0.0
 11
29.397785773
 21
145.958
 31
0.0
  0
LINE
  5
193
330
1F
100
AcDbEntity
  8
0
  6
Continuous
 62
     3
100
AcDbLine
 10
43.567785773
 20
114.468
 30
0.0
 11
45.982600339
 21
113.820952387
 31
0.0
  0
LINE
  5
194
330
1F
100
AcDbEntity
  8
0
  6
Continuous
 62
     3
100
AcDbLine
 10
43.567785773
 20
114.468
 30
0.0
 11
45.982600339
 21
115.115047613
 31
0.0
  0
LWPOLYLINE
  5
196
330
1F
100
AcDbEntity
  8
0
  6
Continuous
 62
     3
100
AcDbPolyline
 90
     3
 70
   128
 43
0.0
 10
43.567785773
 20
114.468
 10
71.567785773
 20
114.468
 10
69.152971207
 20
115.115047613
  0
LINE
  5
197
330
1F
100
AcDbEntity
  8
0
  6
Continuous
 62
     3
100
AcDbLine
 10
71.567785773
 20
114.468
 30
0.0
 11
69.152971207
 21
113.820952387
 31
0.0
  0
LINE
  5
198
330
1F
100
AcDbEntity
  8
0
  6
Continuous
 62
     3
100
AcDbLine
 10
43.567785773
 20
158.958
 30
0.0
 11
43.567785773
 21
136.458452668
 31
0.0
  0
LINE
  5
199
330
1F
100
AcDbEntity
  8
0
  6
Continuous
 62
     3
100
AcDbLine
 10
43.567785773
 20
138.458452668
 30
0.0
 11
41.152971207
 21
139.105500281
 31
0.0
  0
LINE
  5
19A
330
1F
100
AcDbEntity
  8
0
  6
Continuous
 62
     3
100
AcDbLine
 10
43.567785773
 20
138.458452668
 30
0.0
 11
41.152971207
 21
137.811405055
 31
0.0
  0
LWPOLYLINE
  5
19C
330
1F
100
AcDbEntity
  8
0
  6
Continuous
 62
     3
100
AcDbPolyline
 90
     4
 70
   128
 43
0.0
 10
35.917785773
 20
138.458452668
 10
43.567785773
 20
138.458452668
 10
57.567785773
 20
138.458452668
 10
61.317785773
 20
138.458452668
  0
LINE
  5
19D
330
1F
100
AcDbEntity
  8
0
  6
Continuous
 62
     3
100
AcDbLine
 10
57.567785773
 20
138.458452668
 30
0.0
 11
59.982600339
 21
137.811405055
 31
0.0
  0
LINE
  5
19E
330
1F
100
AcDbEntity
  8
0
  6
Continuous
 62
     3
100
AcDbLine
 10
57.567785773
 20
138.458452668
 30
0.0
 11
59.982600339
 21
139.105500281
 31
0.0
  0
LINE
  5
19F
330
1F
100
AcDbEntity
  8
0
  6
Continuous
 62
     3
100
AcDbLine
 10
57.567785773
 20
143.868452668
 30
0.0
 11
57.567785773
 21
136.458452668
 31
0.0
  0
LINE
  5
1A0
330
1F
100
AcDbEntity
  8
0
  6
Continuous
 62
     3
100
AcDbLine
 10
50.767785773
 20
158.958
 30
0.0
 11
50.767785773
 21
128.318
 31
0.0
  0
LINE
  5
1A1
330
1F
100
AcDbEntity
  8
0
  6
Continuous
 62
     3
100
AcDbLine
 10
50.767785773
 20
130.318
 30
0.0
 11
53.182600339
 21
129.670952387
 31
0.0
  0
LINE
  5
1A2
330
1F
100
AcDbEntity
  8
0
  6
Continuous
 62
     3
100
AcDbLine
 10
50.767785773
 20
130.318
 30
0.0
 11
53.182600339
 21
130.965047613
 31
0.0
  0
LWPOLYLINE
  5
1A4
330
1F
100
AcDbEntity
  8
0
  6
Continuous
 62
     3
100
AcDbPolyline
 90
     3
 70
   128
 43
0.0
 10
50.767785773
 20
130.318
 10
64.367785773
 20
130.318
 10
61.952971207
 20
130.965047613
  0
LINE
  5
1A5
330
1F
100
AcDbEntity
  8
0
  6
Continuous
 62
     3
100
AcDbLine
 10
64.367785773
 20
130.318
 30
0.0
 11
61.952971207
 21
129.670952387
 31
0.0
  0
LINE
  5
1A6
330
1F
100
AcDbEntity
  8
0
  6
Continuous
 62
     3
100
AcDbLine
 10
64.367785773
 20
158.958
 30
0.0
 11
64.367785773
 21
128.318
 31
0.0
  0
LINE
  5
1A7
330
1F
100
AcDbEntity
  8
0
  6
Continuous
 62
     3
100
AcDbLine
 10
47.567785773
 20
158.958
 30
0.0
 11
47.567785773
 21
120.888
 31
0.0
  0
LINE
  5
1A8
330
1F
100
AcDbEntity
  8
0
  6
Continuous
 62
     3
100
AcDbLine
 10
47.567785773
 20
122.888
 30
0.0
 11
49.982600339
 21
122.240952387
 31
0.0
  0
LINE
  5
1A9
330
1F
100
AcDbEntity
  8
0
  6
Continuous
 62
     3
100
AcDbLine
 10
47.567785773
 20
122.888
 30
0.0
 11
49.982600339
 21
123.535047613
 31
0.0
  0
LWPOLYLINE
  5
1AB
330
1F
100
AcDbEntity
  8
0
  6
Continuous
 62
     3
100
AcDbPolyline
 90
     3
 70
   128
 43
0.0
 10
47.567785773
 20
122.888
 10
67.567785773
 20
122.888
 10
65.152971207
 20
123.535047613
  0
LINE
  5
1AC
330
1F
100
AcDbEntity
  8
0
  6
Continuous
 62
     3
100
AcDbLine
 10
67.567785773
 20
122.888
 30
0.0
 11
65.152971207
 21
122.240952387
 31
0.0
  0
LINE
  5
1AD
330
1F
100
AcDbEntity
  8
0
  6
Continuous
 62
     3
100
AcDbLine
 10
67.567785773
 20
158.958
 30
0.0
 11
67.567785773
 21
120.888
 31
0.0
  0
LINE
  5
1AE
330
1F
100
AcDbEntity
  8
0
  6
Continuous
 62
     3
100
AcDbLine
 10
43.567785773
 20
158.958
 30
0.0
 11
43.567785773
 21
112.468
 31
0.0
  0
LINE
  5
1AF
330
1F
100
AcDbEntity
  8
0
  6
Continuous
 62
     3
100
AcDbLine
 10
71.567785773
 20
158.958
 30
0.0
 11
71.567785773
 21
112.468
 31
0.0
  0
LINE
  5
1B0
330
1F
100
AcDbEntity
  8
2
  6
Continuous
 62
     7
100
AcDbLine
 10
233.147875479
 20
162.558
 30
0.0
 11
163.25
 21
162.558
 31
0.0
  0
LINE
  5
1B1
330
1F
100
AcDbEntity
  8
2
  6
Continuous
 62
     7
100
AcDbLine
 10
234.861122052
 20
157.358
 30
0.0
 11
163.25
 21
157.358
 31
0.0
  0
TEXT
  5
1B2
330
1F
100
AcDbEntity
  8
0
  6
Continuous
 62
     2
100
AcDbText
 10
37.622286178
 20
165.008
 30
0.0
 40
3.0
  1
１４
 50
90.0
 41
0.6
  7
KANJI0
 72
     5
 11
37.622286178
 21
168.908
 31
0.0
100
AcDbText
  0
TEXT
  5
1B4
330
1F
100
AcDbEntity
  8
0
  6
Continuous
 62
     2
100
AcDbText
 10
35.917785773
 20
139.458452668
 30
0.0
 40
3.0
  1
１４
 41
0.6
  7
KANJI0
 72
     5
 11
39.817785773
 21
139.458452668
 31
0.0
100
AcDbText
  0
LINE
  5
1B5
330
1F
100
AcDbEntity
  8
0
  6
Continuous
 62
     2
100
AcDbLine
 10
300.706030832
 20
162.208
 30
0.0
 11
297.706030832
 21
162.708
 31
0.0
  0
LINE
  5
1B6
330
1F
100
AcDbEntity
  8
0
  6
Continuous
 62
     2
100
AcDbLine
 10
307.206030832
 20
162.208
 30
0.0
 11
300.706030832
 21
162.208
 31
0.0
  0
LINE
  5
1B7
330
1F
100
AcDbEntity
  8
0
  6
Continuous
 62
     2
100
AcDbLine
 10
297.706030832
 20
162.708
 30
0.0
 11
287.206030832
 21
162.708
 31
0.0
  0
LINE
  5
1B8
330
1F
100
AcDbEntity
  8
0
  6
Continuous
 62
     2
100
AcDbLine
 10
287.206030832
 20
157.208
 30
0.0
 11
297.706030832
 21
157.208
 31
0.0
  0
LINE
  5
1B9
330
1F
100
AcDbEntity
  8
0
  6
Continuous
 62
     3
100
AcDbLine
 10
297.706030832
 20
162.708
 30
0.0
 11
297.706030832
 21
157.208
 31
0.0
  0
LINE
  5
1BA
330
1F
100
AcDbEntity
  8
0
  6
Continuous
 62
     2
100
AcDbLine
 10
300.706030832
 20
157.708
 30
0.0
 11
297.706030832
 21
157.208
 31
0.0
  0
LINE
  5
1BB
330
1F
100
AcDbEntity
  8
0
  6
Continuous
 62
     2
100
AcDbLine
 10
300.706030832
 20
157.708
 30
0.0
 11
307.206030832
 21
157.708
 31
0.0
  0
LINE
  5
1BC
330
1F
100
AcDbEntity
  8
0
  6
Continuous
 62
     2
100
AcDbLine
 10
307.206030832
 20
162.208
 30
0.0
 11
307.206030832
 21
157.708
 31
0.0
  0
LINE
  5
1BD
330
1F
100
AcDbEntity
  8
0
  6
Continuous
 62
     2
100
AcDbLine
 10
287.206030832
 20
162.708
 30
0.0
 11
287.206030832
 21
157.208
 31
0.0
  0
LINE
  5
1BE
330
1F
100
AcDbEntity
  8
0
  6
Continuous
 62
     7
100
AcDbLine
 10
358.059753671
 20
155.346756215
 30
0.0
 11
356.878559085
 21
155.346756215
 31
0.0
  0
LINE
  5
1BF
330
1F
100
AcDbEntity
  8
0
  6
Continuous
 62
     7
100
AcDbLine
 10
364.752401324
 20
156.700797094
 30
0.0
 11
364.075742928
 21
156.454607803
 31
0.0
  0
LINE
  5
1C0
330
1F
100
AcDbEntity
  8
0
  6
Continuous
 62
     7
100
AcDbLine
 10
365.121487744
 20
157.00853382
 30
0.0
 11
364.752401324
 21
156.700797094
 31
0.0
  0
LINE
  5
1C1
330
1F
100
AcDbEntity
  8
0
  6
Continuous
 62
     7
100
AcDbLine
 10
365.306030832
 20
157.56424489
 30
0.0
 11
365.121487744
 21
157.00853382
 31
0.0
  0
LINE
  5
1C2
330
1F
100
AcDbEntity
  8
0
  6
Continuous
 62
     7
100
AcDbLine
 10
362.100248179
 20
157.380666185
 30
0.0
 11
362.167408891
 21
157.56424489
 31
0.0
  0
LINE
  5
1C3
330
1F
100
AcDbEntity
  8
0
  6
Continuous
 62
     7
100
AcDbLine
 10
361.953496319
 20
157.285496605
 30
0.0
 11
362.100248179
 21
157.380666185
 31
0.0
  0
LINE
  5
1C4
330
1F
100
AcDbEntity
  8
0
  6
Continuous
 62
     7
100
AcDbLine
 10
361.953496319
 20
157.285496605
 30
0.0
 11
359.308377425
 21
156.977760327
 31
0.0
  0
LINE
  5
1C5
330
1F
100
AcDbEntity
  8
0
  6
Continuous
 62
     7
100
AcDbLine
 10
364.506343792
 20
159.624295098
 30
0.0
 11
360.446393907
 21
159.624295098
 31
0.0
  0
LINE
  5
1C6
330
1F
100
AcDbEntity
  8
0
  6
Continuous
 62
     7
100
AcDbLine
 10
364.075742928
 20
156.454607803
 30
0.0
 11
358.970048472
 21
155.931455726
 31
0.0
  0
LINE
  5
1C7
330
1F
100
AcDbEntity
  8
0
  6
Continuous
 62
     7
100
AcDbLine
 10
364.506343792
 20
166.714071927
 30
0.0
 11
360.446393907
 21
166.714071927
 31
0.0
  0
LINE
  5
1C8
330
1F
100
AcDbEntity
  8
0
  6
Continuous
 62
     7
100
AcDbLine
 10
359.677463845
 20
167.91424489
 30
0.0
 11
359.677463845
 21
157.56424489
 31
0.0
  0
LINE
  5
1C9
330
1F
100
AcDbEntity
  8
0
  6
Continuous
 62
     7
100
AcDbLine
 10
365.306030832
 20
167.91424489
 30
0.0
 11
365.306030832
 21
157.56424489
 31
0.0
  0
LINE
  5
1CA
330
1F
100
AcDbEntity
  8
0
  6
Continuous
 62
     7
100
AcDbLine
 10
364.506343792
 20
166.714071927
 30
0.0
 11
364.506343792
 21
159.624295098
 31
0.0
  0
LINE
  5
1CB
330
1F
100
AcDbEntity
  8
0
  6
Continuous
 62
     7
100
AcDbLine
 10
360.446393907
 20
166.714071927
 30
0.0
 11
360.446393907
 21
159.624295098
 31
0.0
  0
LINE
  5
1CC
330
1F
100
AcDbEntity
  8
0
  6
Continuous
 62
     7
100
AcDbLine
 10
358.908534028
 20
166.067824981
 30
0.0
 11
358.908534028
 21
160.116673681
 31
0.0
  0
LINE
  5
1CD
330
1F
100
AcDbEntity
  8
0
  6
Continuous
 62
     7
100
AcDbLine
 10
359.677463845
 20
167.298771438
 30
0.0
 11
359.677463845
 21
158.824179789
 31
0.0
  0
LINE
  5
1CE
330
1F
100
AcDbEntity
  8
0
  6
Continuous
 62
     7
100
AcDbLine
 10
351.988164693
 20
156.977760327
 30
0.0
 11
349.706030832
 21
156.542005287
 31
0.0
  0
LINE
  5
1CF
330
1F
100
AcDbEntity
  8
0
  6
Continuous
 62
     7
100
AcDbLine
 10
351.205827898
 20
168.25275511
 30
0.0
 11
349.706030832
 21
168.25275511
 31
0.0
  0
LINE
  5
1D0
330
1F
100
AcDbEntity
  8
0
  6
Continuous
 62
     7
100
AcDbLine
 10
351.205827898
 20
168.25275511
 30
0.0
 11
351.483431182
 21
167.91424489
 31
0.0
  0
LINE
  5
1D1
330
1F
100
AcDbEntity
  8
0
  6
Continuous
 62
     7
100
AcDbLine
 10
349.706030832
 20
168.25275511
 30
0.0
 11
349.706030832
 21
157.56424489
 31
0.0
  0
LINE
  5
1D2
330
1F
100
AcDbEntity
  8
0
  6
Continuous
 62
     7
100
AcDbLine
 10
350.327276171
 20
166.067824981
 30
0.0
 11
350.327276171
 21
160.116673681
 31
0.0
  0
LINE
  5
1D3
330
1F
100
AcDbEntity
  8
0
  6
Continuous
 62
     7
100
AcDbLine
 10
359.677463845
 20
167.298771438
 30
0.0
 11
349.706030832
 21
167.298771438
 31
0.0
  0
LINE
  5
1D4
330
1F
100
AcDbEntity
  8
0
  6
Continuous
 62
     7
100
AcDbLine
 10
358.908534028
 20
166.067824981
 30
0.0
 11
350.327276171
 21
166.067824981
 31
0.0
  0
LINE
  5
1D5
330
1F
100
AcDbEntity
  8
0
  6
Continuous
 62
     7
100
AcDbLine
 10
358.908534028
 20
160.116673681
 30
0.0
 11
350.327276171
 21
160.116673681
 31
0.0
  0
LINE
  5
1D6
330
1F
100
AcDbEntity
  8
0
  6
Continuous
 62
     7
100
AcDbLine
 10
359.677463845
 20
158.824179789
 30
0.0
 11
349.706030832
 21
158.824179789
 31
0.0
  0
LINE
  5
1D7
330
1F
100
AcDbEntity
  8
0
  6
Continuous
 62
     7
100
AcDbLine
 10
358.970048472
 20
155.931455726
 30
0.0
 11
353.064666732
 21
155.931455726
 31
0.0
  0
LINE
  5
1D8
330
1F
100
AcDbEntity
  8
0
  6
Continuous
 62
     7
100
AcDbLine
 10
359.308377425
 20
156.977760327
 30
0.0
 11
351.988164693
 21
156.977760327
 31
0.0
  0
LINE
  5
1D9
330
1F
100
AcDbEntity
  8
0
  6
Continuous
 62
     7
100
AcDbLine
 10
365.306030832
 20
157.56424489
 30
0.0
 11
349.706030832
 21
157.56424489
 31
0.0
  0
LINE
  5
1DA
330
1F
100
AcDbEntity
  8
0
  6
Continuous
 62
     7
100
AcDbLine
 10
358.970048472
 20
155.931455726
 30
0.0
 11
358.059753671
 21
155.346756215
 31
0.0
  0
LINE
  5
1DB
330
1F
100
AcDbEntity
  8
0
  6
Continuous
 62
     7
100
AcDbLine
 10
353.064666732
 20
155.931455726
 30
0.0
 11
349.706030832
 21
155.346756215
 31
0.0
  0
LINE
  5
1DC
330
1F
100
AcDbEntity
  8
0
  6
Continuous
 62
     7
100
AcDbLine
 10
349.706030832
 20
156.542005287
 30
0.0
 11
349.706030832
 21
155.346756215
 31
0.0
  0
LINE
  5
1DD
330
1F
100
AcDbEntity
  8
0
  6
Continuous
 62
     7
100
AcDbLine
 10
356.878559085
 20
155.931455726
 30
0.0
 11
356.878559085
 21
155.346756215
 31
0.0
  0
LINE
  5
1DE
330
1F
100
AcDbEntity
  8
0
  6
Continuous
 62
     7
100
AcDbLine
 10
351.483431182
 20
167.91424489
 30
0.0
 11
365.306030832
 21
167.91424489
 31
0.0
  0
LINE
  5
1DF
330
1F
100
AcDbEntity
  8
0
  6
Continuous
 62
     3
100
AcDbLine
 10
344.588205387
 20
165.052287495
 30
0.0
 11
349.199527187
 21
165.052287495
 31
0.0
  0
LINE
  5
1E0
330
1F
100
AcDbEntity
  8
0
  6
Continuous
 62
     3
100
AcDbLine
 10
344.588205387
 20
164.052287495
 30
0.0
 11
349.199527187
 21
164.052287495
 31
0.0
  0
LINE
  5
1E1
330
1F
100
AcDbEntity
  8
0
  6
Continuous
 62
     3
100
AcDbLine
 10
344.748205387
 20
161.252287495
 30
0.0
 11
349.299527187
 21
161.252287495
 31
0.0
  0
LINE
  5
1E2
330
1F
100
AcDbEntity
  8
0
  6
Continuous
 62
     3
100
AcDbLine
 10
344.508205387
 20
160.252287495
 30
0.0
 11
349.149527187
 21
160.252287495
 31
0.0
  0
LINE
  5
1E3
330
1F
100
AcDbEntity
  8
0
  6
Continuous
 62
     3
100
AcDbLine
 10
344.413205387
 20
146.002287495
 30
0.0
 11
349.409354953
 21
146.002287495
 31
0.0
  0
LINE
  5
1E4
330
1F
100
AcDbEntity
  8
0
  6
Continuous
 62
     3
100
AcDbLine
 10
344.413205387
 20
145.002287495
 30
0.0
 11
349.409354953
 21
145.002287495
 31
0.0
  0
LINE
  5
1E5
330
1F
100
AcDbEntity
  8
0
  6
Continuous
 62
     3
100
AcDbLine
 10
344.538205387
 20
144.252287495
 30
0.0
 11
349.409354953
 21
144.252287495
 31
0.0
  0
LINE
  5
1E6
330
1F
100
AcDbEntity
  8
0
  6
Continuous
 62
     3
100
AcDbLine
 10
344.413205387
 20
143.252287495
 30
0.0
 11
349.299527187
 21
143.252287495
 31
0.0
  0
LINE
  5
1E7
330
1F
100
AcDbEntity
  8
0
  6
Continuous
 62
     7
100
AcDbLine
 10
324.400954996
 20
166.052287495
 30
0.0
 11
344.400954996
 21
166.052287495
 31
0.0
  0
LINE
  5
1E8
330
1F
100
AcDbEntity
  8
0
  6
Continuous
 62
     7
100
AcDbLine
 10
324.400954996
 20
159.252287495
 30
0.0
 11
344.400954996
 21
159.252287495
 31
0.0
  0
LINE
  5
1E9
330
1F
100
AcDbEntity
  8
0
  6
Continuous
 62
     7
100
AcDbLine
 10
324.400954996
 20
159.252287495
 30
0.0
 11
324.400954996
 21
166.052287495
 31
0.0
  0
LINE
  5
1EA
330
1F
100
AcDbEntity
  8
0
  6
Continuous
 62
     7
100
AcDbLine
 10
344.400954996
 20
159.252287495
 30
0.0
 11
344.400954996
 21
166.052287495
 31
0.0
  0
LINE
  5
1EB
330
1F
100
AcDbEntity
  8
0
  6
Continuous
 62
     7
100
AcDbLine
 10
324.400954996
 20
148.052287495
 30
0.0
 11
344.400954996
 21
148.052287495
 31
0.0
  0
LINE
  5
1EC
330
1F
100
AcDbEntity
  8
0
  6
Continuous
 62
     7
100
AcDbLine
 10
324.400954996
 20
141.252287495
 30
0.0
 11
324.400954996
 21
148.052287495
 31
0.0
  0
LINE
  5
1ED
330
1F
100
AcDbEntity
  8
0
  6
Continuous
 62
     7
100
AcDbLine
 10
324.400954996
 20
141.252287495
 30
0.0
 11
344.400954996
 21
141.252287495
 31
0.0
  0
LINE
  5
1EE
330
1F
100
AcDbEntity
  8
0
  6
Continuous
 62
     7
100
AcDbLine
 10
344.400954996
 20
141.252287495
 30
0.0
 11
344.400954996
 21
148.052287495
 31
0.0
  0
LINE
  5
1EF
330
1F
100
AcDbEntity
  8
0
  6
Continuous
 62
     7
100
AcDbLine
 10
365.306059086
 20
135.108359832
 30
0.0
 11
365.121515999
 21
134.552648762
 31
0.0
  0
LINE
  5
1F0
330
1F
100
AcDbEntity
  8
0
  6
Continuous
 62
     7
100
AcDbLine
 10
365.121515999
 20
134.552648762
 30
0.0
 11
364.752429578
 21
134.244912036
 31
0.0
  0
LINE
  5
1F1
330
1F
100
AcDbEntity
  8
0
  6
Continuous
 62
     7
100
AcDbLine
 10
364.752429578
 20
134.244912036
 30
0.0
 11
364.075771182
 21
133.998722745
 31
0.0
  0
LINE
  5
1F2
330
1F
100
AcDbEntity
  8
0
  6
Continuous
 62
     7
100
AcDbLine
 10
361.953524573
 20
134.829611547
 30
0.0
 11
359.308405679
 21
134.521875269
 31
0.0
  0
LINE
  5
1F3
330
1F
100
AcDbEntity
  8
0
  6
Continuous
 62
     7
100
AcDbLine
 10
361.953524573
 20
134.829611547
 30
0.0
 11
362.100276433
 21
134.924781127
 31
0.0
  0
LINE
  5
1F4
330
1F
100
AcDbEntity
  8
0
  6
Continuous
 62
     7
100
AcDbLine
 10
362.100276433
 20
134.924781127
 30
0.0
 11
362.167437145
 21
135.108359832
 31
0.0
  0
LINE
  5
1F5
330
1F
100
AcDbEntity
  8
0
  6
Continuous
 62
     7
100
AcDbLine
 10
364.075771182
 20
133.998722745
 30
0.0
 11
358.970076727
 21
133.475570668
 31
0.0
  0
LINE
  5
1F6
330
1F
100
AcDbEntity
  8
0
  6
Continuous
 62
     7
100
AcDbLine
 10
358.059781926
 20
132.890871157
 30
0.0
 11
356.87858734
 21
132.890871157
 31
0.0
  0
LINE
  5
1F7
330
1F
100
AcDbEntity
  8
0
  6
Continuous
 62
     7
100
AcDbLine
 10
356.87858734
 20
133.475570668
 30
0.0
 11
356.87858734
 21
132.890871157
 31
0.0
  0
LINE
  5
1F8
330
1F
100
AcDbEntity
  8
0
  6
Continuous
 62
     7
100
AcDbLine
 10
349.706059086
 20
134.086120229
 30
0.0
 11
349.706059086
 21
132.890871157
 31
0.0
  0
LINE
  5
1F9
330
1F
100
AcDbEntity
  8
0
  6
Continuous
 62
     7
100
AcDbLine
 10
351.988192948
 20
134.521875269
 30
0.0
 11
349.706059086
 21
134.086120229
 31
0.0
  0
LINE
  5
1FA
330
1F
100
AcDbEntity
  8
0
  6
Continuous
 62
     7
100
AcDbLine
 10
353.064694986
 20
133.475570668
 30
0.0
 11
349.706059086
 21
132.890871157
 31
0.0
  0
LINE
  5
1FB
330
1F
100
AcDbEntity
  8
0
  6
Continuous
 62
     7
100
AcDbLine
 10
365.306059086
 20
135.108359832
 30
0.0
 11
349.706059086
 21
135.108359832
 31
0.0
  0
LINE
  5
1FC
330
1F
100
AcDbEntity
  8
0
  6
Continuous
 62
     7
100
AcDbLine
 10
359.308405679
 20
134.521875269
 30
0.0
 11
351.988192948
 21
134.521875269
 31
0.0
  0
LINE
  5
1FD
330
1F
100
AcDbEntity
  8
0
  6
Continuous
 62
     7
100
AcDbLine
 10
358.970076727
 20
133.475570668
 30
0.0
 11
353.064694986
 21
133.475570668
 31
0.0
  0
LINE
  5
1FE
330
1F
100
AcDbEntity
  8
0
  6
Continuous
 62
     7
100
AcDbLine
 10
358.970076727
 20
133.475570668
 30
0.0
 11
358.059781926
 21
132.890871157
 31
0.0
  0
LINE
  5
1FF
330
1F
100
AcDbEntity
  8
0
  6
Continuous
 62
     7
100
AcDbLine
 10
364.506372047
 20
137.16841004
 30
0.0
 11
360.446422162
 21
137.16841004
 31
0.0
  0
LINE
  5
200
330
1F
100
AcDbEntity
  8
0
  6
Continuous
 62
     7
100
AcDbLine
 10
364.506372047
 20
146.308186868
 30
0.0
 11
360.446422162
 21
146.308186868
 31
0.0
  0
LINE
  5
201
330
1F
100
AcDbEntity
  8
0
  6
Continuous
 62
     7
100
AcDbLine
 10
359.677492099
 20
146.89288638
 30
0.0
 11
359.677492099
 21
136.368294731
 31
0.0
  0
LINE
  5
202
330
1F
100
AcDbEntity
  8
0
  6
Continuous
 62
     7
100
AcDbLine
 10
358.908562282
 20
145.661939922
 30
0.0
 11
358.908562282
 21
137.660788623
 31
0.0
  0
LINE
  5
203
330
1F
100
AcDbEntity
  8
0
  6
Continuous
 62
     7
100
AcDbLine
 10
360.446422162
 20
146.308186868
 30
0.0
 11
360.446422162
 21
137.16841004
 31
0.0
  0
LINE
  5
204
330
1F
100
AcDbEntity
  8
0
  6
Continuous
 62
     7
100
AcDbLine
 10
364.506372047
 20
146.308186868
 30
0.0
 11
364.506372047
 21
137.16841004
 31
0.0
  0
LINE
  5
205
330
1F
100
AcDbEntity
  8
0
  6
Continuous
 62
     7
100
AcDbLine
 10
351.205856152
 20
147.846870052
 30
0.0
 11
349.706059086
 21
147.846870052
 31
0.0
  0
LINE
  5
206
330
1F
100
AcDbEntity
  8
0
  6
Continuous
 62
     7
100
AcDbLine
 10
351.205856152
 20
147.846870052
 30
0.0
 11
351.483459436
 21
147.508359832
 31
0.0
  0
LINE
  5
207
330
1F
100
AcDbEntity
  8
0
  6
Continuous
 62
     7
100
AcDbLine
 10
350.327304425
 20
145.661939922
 30
0.0
 11
350.327304425
 21
137.660788623
 31
0.0
  0
LINE
  5
208
330
1F
100
AcDbEntity
  8
0
  6
Continuous
 62
     7
100
AcDbLine
 10
365.306059086
 20
147.508359832
 30
0.0
 11
351.483459436
 21
147.508359832
 31
0.0
  0
LINE
  5
209
330
1F
100
AcDbEntity
  8
0
  6
Continuous
 62
     7
100
AcDbLine
 10
359.677492099
 20
146.89288638
 30
0.0
 11
349.706059086
 21
146.89288638
 31
0.0
  0
LINE
  5
20A
330
1F
100
AcDbEntity
  8
0
  6
Continuous
 62
     7
100
AcDbLine
 10
359.677492099
 20
136.368294731
 30
0.0
 11
349.706059086
 21
136.368294731
 31
0.0
  0
LINE
  5
20B
330
1F
100
AcDbEntity
  8
0
  6
Continuous
 62
     7
100
AcDbLine
 10
358.908562282
 20
137.660788623
 30
0.0
 11
350.327304425
 21
137.660788623
 31
0.0
  0
LINE
  5
20C
330
1F
100
AcDbEntity
  8
0
  6
Continuous
 62
     7
100
AcDbLine
 10
358.908562282
 20
145.661939922
 30
0.0
 11
350.327304425
 21
145.661939922
 31
0.0
  0
LINE
  5
20D
330
1F
100
AcDbEntity
  8
0
  6
Continuous
 62
     7
100
AcDbLine
 10
365.306059086
 20
147.508359832
 30
0.0
 11
365.306059086
 21
135.108359832
 31
0.0
  0
LINE
  5
20E
330
1F
100
AcDbEntity
  8
0
  6
Continuous
 62
     7
100
AcDbLine
 10
349.706059086
 20
147.846870052
 30
0.0
 11
349.706059086
 21
135.108359832
 31
0.0
  0
LINE
  5
20F
330
1F
100
AcDbEntity
  8
0
  6
Continuous
 62
     7
100
AcDbLine
 10
359.677492099
 20
147.508359832
 30
0.0
 11
359.677492099
 21
135.108359832
 31
0.0
  0
LINE
  5
210
330
1F
100
AcDbEntity
  8
0
  6
Continuous
 62
     3
100
AcDbLine
 10
307.183582998
 20
161.252287495
 30
0.0
 11
324.268205387
 21
161.252287495
 31
0.0
  0
LINE
  5
211
330
1F
100
AcDbEntity
  8
0
  6
Continuous
 62
     3
100
AcDbLine
 10
307.593582998
 20
160.252287495
 30
0.0
 11
324.108205387
 21
160.252287495
 31
0.0
  0
LINE
  5
212
330
1F
100
AcDbEntity
  8
0
  6
Continuous
 62
     3
100
AcDbLine
 10
320.878236641
 20
144.252287495
 30
0.0
 11
307.333582998
 21
159.41
 31
0.0
  0
LINE
  5
213
330
1F
100
AcDbEntity
  8
0
  6
Continuous
 62
     3
100
AcDbLine
 10
320.878236641
 20
144.252287495
 30
0.0
 11
324.263205387
 21
144.252287495
 31
0.0
  0
LINE
  5
214
330
1F
100
AcDbEntity
  8
0
  6
Continuous
 62
     3
100
AcDbLine
 10
322.107130637
 20
146.002287495
 30
0.0
 11
308.513582998
 21
160.025
 31
0.0
  0
LINE
  5
215
330
1F
100
AcDbEntity
  8
0
  6
Continuous
 62
     3
100
AcDbLine
 10
322.107130637
 20
146.002287495
 30
0.0
 11
324.293205387
 21
146.002287495
 31
0.0
  0
LINE
  5
217
330
1F
100
AcDbEntity
  8
4
  6
LTYPE1
 62
     3
100
AcDbLine
 10
169.677785773
 20
159.958
 30
0.0
 11
94.657521252
 21
159.958
 31
0.0
  0
LINE
  5
218
330
1F
100
AcDbEntity
  8
4
  6
LTYPE1
 62
     3
100
AcDbLine
 10
41.422286178
 20
159.958
 30
0.0
 11
73.00925682
 21
159.958
 31
0.0
  0
LINE
  5
219
330
1F
100
AcDbEntity
  8
4
  6
LTYPE1
 62
     3
100
AcDbLine
 10
57.567785773
 20
175.18587335
 30
0.0
 11
57.567785773
 21
144.868452668
 31
0.0
  0
TEXT
  5
21A
330
1F
100
AcDbEntity
  8
0
  6
Continuous
 62
     2
100
AcDbText
 10
55.617785773
 20
115.468
 30
0.0
 40
3.0
  1
２８
 41
0.6
  7
KANJI0
 72
     5
 11
59.517785773
 21
115.468
 31
0.0
100
AcDbText
  0
TEXT
  5
21B
330
1F
100
AcDbEntity
  8
0
  6
Continuous
 62
     2
100
AcDbText
 10
30.397785773
 20
158.008
 30
0.0
 40
3.0
  1
２８
 50
90.0
 41
0.6
  7
KANJI0
 72
     5
 11
30.397785773
 21
161.908
 31
0.0
100
AcDbText
  0
LINE
  5
21C
330
1F
100
AcDbEntity
  8
0
  6
Continuous
 62
     3
100
AcDbLine
 10
314.540970976
 20
165.052287495
 30
0.0
 11
324.108205387
 21
165.052287495
 31
0.0
  0
LINE
  5
21D
330
1F
100
AcDbEntity
  8
0
  6
Continuous
 62
     3
100
AcDbLine
 10
314.540970976
 20
165.052287495
 30
0.0
 11
307.358582998
 21
162.025
 31
0.0
  0
LINE
  5
21E
330
1F
100
AcDbEntity
  8
0
  6
Continuous
 62
     3
100
AcDbLine
 10
315.079549778
 20
164.052287495
 30
0.0
 11
324.268205387
 21
164.052287495
 31
0.0
  0
LINE
  5
21F
330
1F
100
AcDbEntity
  8
0
  6
Continuous
 62
     3
100
AcDbLine
 10
315.079549778
 20
164.052287495
 30
0.0
 11
308.348582998
 21
161.365
 31
0.0
  0
LINE
  5
220
330
1F
100
AcDbEntity
  8
0
  6
Continuous
 62
     3
100
AcDbLine
 10
321.888767648
 20
145.002287495
 30
0.0
 11
324.293205387
 21
145.002287495
 31
0.0
  0
LINE
  5
221
330
1F
100
AcDbEntity
  8
0
  6
Continuous
 62
     3
100
AcDbLine
 10
321.888767648
 20
145.002287495
 30
0.0
 11
307.437305418
 21
159.91
 31
0.0
  0
LINE
  5
222
330
1F
100
AcDbEntity
  8
0
  6
Continuous
 62
     3
100
AcDbLine
 10
320.614385626
 20
143.252287495
 30
0.0
 11
324.323205387
 21
143.252287495
 31
0.0
  0
LINE
  5
223
330
1F
100
AcDbEntity
  8
0
  6
Continuous
 62
     3
100
AcDbLine
 10
320.614385626
 20
143.252287495
 30
0.0
 11
307.33959364
 21
158.108
 31
0.0
  0
LINE
  5
224
330
1F
100
AcDbEntity
  8
0
  6
Continuous
 62
     3
100
AcDbLine
 10
97.75
 20
152.558
 30
0.0
 11
97.75
 21
112.468
 31
0.0
  0
LINE
  5
225
330
1F
100
AcDbEntity
  8
0
  6
Continuous
 62
     3
100
AcDbLine
 10
97.75
 20
114.468
 30
0.0
 11
95.335185434
 21
115.115047613
 31
0.0
  0
LINE
  5
226
330
1F
100
AcDbEntity
  8
0
  6
Continuous
 62
     3
100
AcDbLine
 10
97.75
 20
114.468
 30
0.0
 11
95.335185434
 21
113.820952387
 31
0.0
  0
LWPOLYLINE
  5
228
330
1F
100
AcDbEntity
  8
0
  6
Continuous
 62
     3
100
AcDbPolyline
 90
     4
 70
   128
 43
0.0
 10
88.0
 20
114.468
 10
97.75
 20
114.468
 10
103.25
 20
114.468
 10
107.0
 20
114.468
  0
LINE
  5
229
330
1F
100
AcDbEntity
  8
0
  6
Continuous
 62
     3
100
AcDbLine
 10
103.25
 20
114.468
 30
0.0
 11
105.664814566
 21
113.820952387
 31
0.0
  0
LINE
  5
22A
330
1F
100
AcDbEntity
  8
0
  6
Continuous
 62
     3
100
AcDbLine
 10
103.25
 20
114.468
 30
0.0
 11
105.664814566
 21
115.115047613
 31
0.0
  0
LINE
  5
22B
330
1F
100
AcDbEntity
  8
0
  6
Continuous
 62
     3
100
AcDbLine
 10
103.25
 20
145.458
 30
0.0
 11
103.25
 21
112.468
 31
0.0
  0
LINE
  5
22C
330
1F
100
AcDbEntity
  8
0
  6
Continuous
 62
     3
100
AcDbLine
 10
103.25
 20
145.458
 30
0.0
 11
103.25
 21
112.468
 31
0.0
  0
LINE
  5
22D
330
1F
100
AcDbEntity
  8
0
  6
Continuous
 62
     3
100
AcDbLine
 10
103.25
 20
114.468
 30
0.0
 11
105.664814566
 21
113.820952387
 31
0.0
  0
LINE
  5
22E
330
1F
100
AcDbEntity
  8
0
  6
Continuous
 62
     3
100
AcDbLine
 10
103.25
 20
114.468
 30
0.0
 11
105.664814566
 21
115.115047613
 31
0.0
  0
LWPOLYLINE
  5
230
330
1F
100
AcDbEntity
  8
0
  6
Continuous
 62
     3
100
AcDbPolyline
 90
     3
 70
   128
 43
0.0
 10
103.25
 20
114.468
 10
163.25
 20
114.468
 10
160.835185434
 20
115.115047613
  0
LINE
  5
231
330
1F
100
AcDbEntity
  8
0
  6
Continuous
 62
     3
100
AcDbLine
 10
163.25
 20
114.468
 30
0.0
 11
160.835185434
 21
113.820952387
 31
0.0
  0
LINE
  5
232
330
1F
100
AcDbEntity
  8
0
  6
Continuous
 62
     3
100
AcDbLine
 10
163.25
 20
145.458
 30
0.0
 11
163.25
 21
112.468
 31
0.0
  0
LINE
  5
233
330
1F
100
AcDbEntity
  8
0
  6
Continuous
 62
     3
100
AcDbLine
 10
163.25
 20
145.458
 30
0.0
 11
163.25
 21
112.468
 31
0.0
  0
LINE
  5
234
330
1F
100
AcDbEntity
  8
0
  6
Continuous
 62
     3
100
AcDbLine
 10
163.25
 20
114.468
 30
0.0
 11
165.664814566
 21
113.820952387
 31
0.0
  0
LINE
  5
235
330
1F
100
AcDbEntity
  8
0
  6
Continuous
 62
     3
100
AcDbLine
 10
163.25
 20
114.468
 30
0.0
 11
165.664814566
 21
115.115047613
 31
0.0
  0
LWPOLYLINE
  5
237
330
1F
100
AcDbEntity
  8
0
  6
Continuous
 62
     3
100
AcDbPolyline
 90
     3
 70
   128
 43
0.0
 10
163.25
 20
114.468
 10
349.706059086
 20
114.468
 10
347.29124452
 20
115.115047613
  0
LINE
  5
238
330
1F
100
AcDbEntity
  8
0
  6
Continuous
 62
     3
100
AcDbLine
 10
349.706059086
 20
114.468
 30
0.0
 11
347.29124452
 21
113.820952387
 31
0.0
  0
LINE
  5
239
330
1F
100
AcDbEntity
  8
0
  6
Continuous
 62
     3
100
AcDbLine
 10
349.706059086
 20
131.890871157
 30
0.0
 11
349.706059086
 21
112.468
 31
0.0
  0
LINE
  5
23A
330
1F
100
AcDbEntity
  8
0
  6
Continuous
 62
     3
100
AcDbLine
 10
349.706059086
 20
131.890871157
 30
0.0
 11
349.706059086
 21
124.228
 31
0.0
  0
LINE
  5
23B
330
1F
100
AcDbEntity
  8
0
  6
Continuous
 62
     3
100
AcDbLine
 10
349.706059086
 20
126.228
 30
0.0
 11
347.29124452
 21
126.875047613
 31
0.0
  0
LINE
  5
23C
330
1F
100
AcDbEntity
  8
0
  6
Continuous
 62
     3
100
AcDbLine
 10
349.706059086
 20
126.228
 30
0.0
 11
347.29124452
 21
125.580952387
 31
0.0
  0
LWPOLYLINE
  5
23E
330
1F
100
AcDbEntity
  8
0
  6
Continuous
 62
     3
100
AcDbPolyline
 90
     3
 70
   128
 43
0.0
 10
349.706059086
 20
126.228
 10
307.206030832
 20
126.228
 10
309.620845397
 20
125.580952387
  0
LINE
  5
23F
330
1F
100
AcDbEntity
  8
0
  6
Continuous
 62
     3
100
AcDbLine
 10
307.206030832
 20
126.228
 30
0.0
 11
309.620845397
 21
126.875047613
 31
0.0
  0
LINE
  5
240
330
1F
100
AcDbEntity
  8
0
  6
Continuous
 62
     3
100
AcDbLine
 10
307.206030832
 20
156.708
 30
0.0
 11
307.206030832
 21
124.228
 31
0.0
  0
LINE
  5
241
330
1F
100
AcDbEntity
  8
0
  6
Continuous
 62
     3
100
AcDbLine
 10
287.206030832
 20
156.208
 30
0.0
 11
287.206030832
 21
124.228
 31
0.0
  0
LINE
  5
242
330
1F
100
AcDbEntity
  8
0
  6
Continuous
 62
     3
100
AcDbLine
 10
287.206030832
 20
126.228
 30
0.0
 11
289.620845397
 21
125.580952387
 31
0.0
  0
LINE
  5
243
330
1F
100
AcDbEntity
  8
0
  6
Continuous
 62
     3
100
AcDbLine
 10
287.206030832
 20
126.228
 30
0.0
 11
289.620845397
 21
126.875047613
 31
0.0
  0
LWPOLYLINE
  5
245
330
1F
100
AcDbEntity
  8
0
  6
Continuous
 62
     3
100
AcDbPolyline
 90
     3
 70
   128
 43
0.0
 10
287.206030832
 20
126.228
 10
307.206030832
 20
126.228
 10
304.791216266
 20
126.875047613
  0
LINE
  5
246
330
1F
100
AcDbEntity
  8
0
  6
Continuous
 62
     3
100
AcDbLine
 10
307.206030832
 20
126.228
 30
0.0
 11
304.791216266
 21
125.580952387
 31
0.0
  0
LINE
  5
247
330
1F
100
AcDbEntity
  8
0
  6
Continuous
 62
     3
100
AcDbLine
 10
307.206030832
 20
156.708
 30
0.0
 11
307.206030832
 21
124.228
 31
0.0
  0
TEXT
  5
248
330
1F
100
AcDbEntity
  8
0
  6
Continuous
 62
     2
100
AcDbText
 10
131.3
 20
115.468
 30
0.0
 40
3.0
  1
６０
 41
0.6
  7
KANJI0
 72
     5
 11
135.2
 21
115.468
 31
0.0
100
AcDbText
  0
TEXT
  5
249
330
1F
100
AcDbEntity
  8
0
  6
Continuous
 62
     2
100
AcDbText
 10
88.0
 20
115.468
 30
0.0
 40
3.0
  1
５．５
 41
0.6
  7
KANJI0
 72
     5
 11
94.0
 21
115.468
 31
0.0
100
AcDbText
  0
TEXT
  5
24A
330
1F
100
AcDbEntity
  8
0
  6
Continuous
 62
     2
100
AcDbText
 10
252.428029543
 20
115.468
 30
0.0
 40
3.0
  1
１０００
 41
0.6
  7
KANJI0
 72
     5
 11
260.528029543
 21
115.468
 31
0.0
100
AcDbText
  0
TEXT
  5
24B
330
1F
100
AcDbEntity
  8
0
  6
Continuous
 62
     2
100
AcDbText
 10
323.356044959
 20
127.228
 30
0.0
 40
3.0
  1
（１００）
 41
0.6
  7
KANJI0
 72
     5
 11
333.556044959
 21
127.228
 31
0.0
100
AcDbText
  0
TEXT
  5
24C
330
1F
100
AcDbEntity
  8
0
  6
Continuous
 62
     2
100
AcDbText
 10
293.156030832
 20
127.228
 30
0.0
 40
3.0
  1
（２０）
 41
0.6
  7
KANJI0
 72
     5
 11
301.256030832
 21
127.228
 31
0.0
100
AcDbText
  0
TEXT
  5
24D
330
1F
100
AcDbEntity
  8
0
  6
Continuous
 62
     2
100
AcDbText
 10
54.567785773
 20
123.888
 30
0.0
 40
3.0
  1
φ２０
 41
0.6
  7
KANJI0
 72
     5
 11
60.567785773
 21
123.888
 31
0.0
100
AcDbText
  0
TEXT
  5
24E
330
1F
100
AcDbEntity
  8
0
  6
Continuous
 62
     2
100
AcDbText
 10
52.467785773
 20
131.318
 30
0.0
 40
3.0
  1
φ１３．６
 41
0.6
  7
KANJI0
 72
     5
 11
62.667785773
 21
131.318
 31
0.0
100
AcDbText
  0
LINE
  5
24F
330
1F
100
AcDbEntity
  8
2
  6
Continuous
 62
     7
100
AcDbLine
 10
233.1
 20
162.558
 30
0.0
 11
227.636918704
 21
162.558
 31
0.0
  0
LINE
  5
250
330
1F
100
AcDbEntity
  8
2
  6
Continuous
 62
     7
100
AcDbLine
 10
234.57
 20
157.358
 30
0.0
 11
229.361122052
 21
157.358
 31
0.0
  0
LINE
  5
251
330
1F
100
AcDbEntity
  8
2
  6
Continuous
 62
     7
100
AcDbLine
 10
287.206030832
 20
157.358
 30
0.0
 11
237.01
 21
157.358
 31
0.0
  0
LINE
  5
252
330
1F
100
AcDbEntity
  8
2
  6
Continuous
 62
     7
100
AcDbLine
 10
287.206030832
 20
162.558
 30
0.0
 11
235.27
 21
162.558
 31
0.0
  0
TEXT
  5
253
330
1F
100
AcDbEntity
  8
0
  6
Continuous
 62
     2
100
AcDbText
 10
339.81913944
 20
164.298396165
 30
0.0
 40
3.0
  1
ＹＥＬＬＯＷ
 50
180.0
 41
0.6
  7
KANJI0
 72
     5
 11
327.51913944
 21
164.298396165
 31
0.0
100
AcDbText
  0
TEXT
  5
254
330
1F
100
AcDbEntity
  8
0
  6
Continuous
 62
     2
100
AcDbText
 10
340.07913944
 20
146.258396165
 30
0.0
 40
3.0
  1
ＹＥＬＬＯＷ
 50
180.0
 41
0.6
  7
KANJI0
 72
     5
 11
327.77913944
 21
146.258396165
 31
0.0
100
AcDbText
  0
TEXT
  5
255
330
1F
100
AcDbEntity
  8
0
  6
Continuous
 62
     3
100
AcDbText
 10
12.121831953
 20
275.851831084
 30
0.0
 40
10.0
  1
ＳＵＣ－８５７
 41
1.0
  7
KANJI1
 72
     5
 11
83.921831953
 21
275.851831084
 31
0.0
100
AcDbText
  0
TEXT
  5
257
330
1F
100
AcDbEntity
  8
0
  6
Continuous
 62
     3
100
AcDbText
 10
12.121831953
 20
262.851831084
 30
0.0
 40
10.0
  1
ｅ－ＣＯＮ付ＧＦスイッチ（黄/照光）
 41
0.762222222
  7
KANJI2
 72
     5
 11
154.421831953
 21
262.851831084
 31
0.0
100
AcDbText
  0
LINE
  5
259
330
1F
100
AcDbEntity
  8
0
  6
Continuous
 62
     2
100
AcDbLine
 10
127.5
 20
77.0
 30
0.0
 11
200.5
 21
77.0
 31
0.0
  0
LINE
  5
25A
330
1F
100
AcDbEntity
  8
0
  6
Continuous
 62
     2
100
AcDbLine
 10
127.5
 20
77.0
 30
0.0
 11
225.5
 21
77.0
 31
0.0
  0
LINE
  5
25B
330
1F
100
AcDbEntity
  8
0
  6
Continuous
 62
     2
100
AcDbLine
 10
188.359996788
 20
77.0
 30
0.0
 11
225.5
 21
77.0
 31
0.0
  0
LINE
  5
25C
330
1F
100
AcDbEntity
  8
0
  6
Continuous
 62
     2
100
AcDbLine
 10
127.5
 20
57.0
 30
0.0
 11
225.5
 21
57.0
 31
0.0
  0
LINE
  5
25D
330
1F
100
AcDbEntity
  8
0
  6
Continuous
 62
     2
100
AcDbLine
 10
127.5
 20
57.0
 30
0.0
 11
225.5
 21
57.0
 31
0.0
  0
LINE
  5
25E
330
1F
100
AcDbEntity
  8
0
  6
Continuous
 62
     7
100
AcDbLine
 10
225.5
 20
71.0
 30
0.0
 11
225.5
 21
55.0
 31
0.0
  0
LINE
  5
25F
330
1F
100
AcDbEntity
  8
0
  6
Continuous
 62
     2
100
AcDbLine
 10
225.5
 20
59.0
 30
0.0
 11
229.5
 21
59.0
 31
0.0
  0
LINE
  5
260
330
1F
100
AcDbEntity
  8
0
  6
Continuous
 62
     2
100
AcDbLine
 10
225.5
 20
71.0
 30
0.0
 11
229.5
 21
71.0
 31
0.0
  0
LINE
  5
261
330
1F
100
AcDbEntity
  8
0
  6
Continuous
 62
     2
100
AcDbLine
 10
188.359996788
 20
57.0
 30
0.0
 11
225.5
 21
57.0
 31
0.0
  0
LINE
  5
262
330
1F
100
AcDbEntity
  8
0
  6
Continuous
 62
     7
100
AcDbLine
 10
229.5
 20
71.0
 30
0.0
 11
229.5
 21
55.0
 31
0.0
  0
LINE
  5
263
330
1F
100
AcDbEntity
  8
0
  6
Continuous
 62
     2
100
AcDbLine
 10
225.5
 20
67.0
 30
0.0
 11
229.5
 21
67.0
 31
0.0
  0
LINE
  5
264
330
1F
100
AcDbEntity
  8
0
  6
Continuous
 62
     2
100
AcDbLine
 10
225.5
 20
63.0
 30
0.0
 11
229.5
 21
63.0
 31
0.0
  0
LINE
  5
265
330
1F
100
AcDbEntity
  8
0
  6
Continuous
 62
     2
100
AcDbLine
 10
225.5
 20
55.0
 30
0.0
 11
229.5
 21
55.0
 31
0.0
  0
TEXT
  5
266
330
1F
100
AcDbEntity
  8
0
  6
Continuous
 62
     7
100
AcDbText
 10
226.607031286
 20
67.75
 30
0.0
 40
2.5
  1
１
 41
0.900472653
  7
KANJI3
100
AcDbText
  0
TEXT
  5
268
330
1F
100
AcDbEntity
  8
0
  6
Continuous
 62
     7
100
AcDbText
 10
226.607031286
 20
63.75
 30
0.0
 40
2.5
  1
２
 41
1.0
  7
KANJI4
100
AcDbText
  0
TEXT
  5
26A
330
1F
100
AcDbEntity
  8
0
  6
Continuous
 62
     7
100
AcDbText
 10
226.607031286
 20
55.75
 30
0.0
 40
2.5
  1
４　信号
 41
0.80829828
  7
KANJI5
 72
     5
 11
234.690014086
 21
55.75
 31
0.0
100
AcDbText
  0
TEXT
  5
26C
330
1F
100
AcDbEntity
  8
0
  6
Continuous
 62
     7
100
AcDbText
 10
226.607031286
 20
59.75
 30
0.0
 40
2.5
  1
３　０Ｖ
 41
0.80829828
  7
KANJI5
 72
     5
 11
234.690014086
 21
59.75
 31
0.0
100
AcDbText
  0
LINE
  5
26D
330
1F
100
AcDbEntity
  8
0
  6
Continuous
 62
     2
100
AcDbLine
 10
201.5
 20
77.0
 30
0.0
 11
127.5
 21
77.0
 31
0.0
  0
CIRCLE
  5
26E
330
1F
100
AcDbEntity
  8
0
  6
Continuous
 62
     3
100
AcDbCircle
 10
125.0
 20
77.0
 30
0.0
 40
2.5
  0
LINE
  5
26F
330
1F
100
AcDbEntity
  8
0
  6
Continuous
 62
     3
100
AcDbLine
 10
126.767766953
 20
78.767766953
 30
0.0
 11
127.474873734
 21
79.474873734
 31
0.0
  0
LINE
  5
270
330
1F
100
AcDbEntity
  8
0
  6
Continuous
 62
     3
100
AcDbLine
 10
123.232233047
 20
78.767766953
 30
0.0
 11
122.525126266
 21
79.474873734
 31
0.0
  0
LINE
  5
271
330
1F
100
AcDbEntity
  8
0
  6
Continuous
 62
     3
100
AcDbLine
 10
123.232233047
 20
75.232233047
 30
0.0
 11
122.525126266
 21
74.525126265
 31
0.0
  0
LINE
  5
272
330
1F
100
AcDbEntity
  8
0
  6
Continuous
 62
     3
100
AcDbLine
 10
126.767766953
 20
75.232233047
 30
0.0
 11
127.474873734
 21
74.525126265
 31
0.0
  0
LWPOLYLINE
  5
274
330
1F
100
AcDbEntity
  8
0
  6
Continuous
 62
     3
100
AcDbPolyline
 90
     3
 70
   129
 43
0.0
 10
123.7
 20
79.0
 10
123.7
 20
75.0
 10
126.2
 20
77.0
  0
LINE
  5
275
330
1F
100
AcDbEntity
  8
0
  6
Continuous
 62
     3
100
AcDbLine
 10
126.2
 20
79.0
 30
0.0
 11
126.2
 21
75.0
 31
0.0
  0
LINE
  5
277
330
1F
100
AcDbEntity
  8
0
  6
LTYPE2
 62
     3
100
AcDbLine
 10
132.535
 20
82.85
 30
0.0
 11
117.535
 21
82.85
 31
0.0
  0
LINE
  5
278
330
1F
100
AcDbEntity
  8
0
  6
Continuous
 62
     2
100
AcDbLine
 10
225.5
 20
87.0
 30
0.0
 11
229.5
 21
87.0
 31
0.0
  0
LINE
  5
279
330
1F
100
AcDbEntity
  8
0
  6
Continuous
 62
     2
100
AcDbLine
 10
225.5
 20
83.0
 30
0.0
 11
229.5
 21
83.0
 31
0.0
  0
LINE
  5
27A
330
1F
100
AcDbEntity
  8
0
  6
Continuous
 62
     2
100
AcDbLine
 10
225.5
 20
79.0
 30
0.0
 11
229.5
 21
79.0
 31
0.0
  0
TEXT
  5
27B
330
1F
100
AcDbEntity
  8
0
  6
Continuous
 62
     7
100
AcDbText
 10
226.607031286
 20
79.75
 30
0.0
 40
2.5
  1
２
 41
1.0
  7
KANJI4
100
AcDbText
  0
LINE
  5
27C
330
1F
100
AcDbEntity
  8
0
  6
Continuous
 62
     7
100
AcDbLine
 10
225.5
 20
87.0
 30
0.0
 11
225.5
 21
75.0
 31
0.0
  0
LINE
  5
27D
330
1F
100
AcDbEntity
  8
0
  6
Continuous
 62
     2
100
AcDbLine
 10
225.5
 20
75.0
 30
0.0
 11
229.5
 21
75.0
 31
0.0
  0
LINE
  5
27E
330
1F
100
AcDbEntity
  8
0
  6
Continuous
 62
     7
100
AcDbLine
 10
229.5
 20
87.0
 30
0.0
 11
229.5
 21
75.0
 31
0.0
  0
TEXT
  5
27F
330
1F
100
AcDbEntity
  8
0
  6
Continuous
 62
     7
100
AcDbText
 10
226.607031286
 20
83.75
 30
0.0
 40
2.5
  1
１　＋２４Ｖ
 41
0.900472653
  7
KANJI3
 72
     5
 11
240.114121081
 21
83.75
 31
0.0
100
AcDbText
  0
TEXT
  5
280
330
1F
100
AcDbEntity
  8
0
  6
Continuous
 62
     7
100
AcDbText
 10
226.607031286
 20
75.75
 30
0.0
 40
2.5
  1
３　信号
 41
0.80829828
  7
KANJI5
 72
     5
 11
234.690014086
 21
75.75
 31
0.0
100
AcDbText
  0
LINE
  5
281
330
1F
100
AcDbEntity
  8
0
  6
Continuous
 62
     2
100
AcDbLine
 10
100.0
 20
63.85
 30
0.0
 11
121.535
 21
63.85
 31
0.0
  0
LWPOLYLINE
  5
283
330
1F
100
AcDbEntity
  8
0
  6
Continuous
 62
     2
100
AcDbPolyline
 90
     3
 70
   128
 43
0.0
 10
100.0
 20
63.85
 10
100.0
 20
57.0
 10
200.5
 20
57.0
  0
TEXT
  5
284
330
1F
100
AcDbEntity
  8
0
  6
Continuous
 62
     3
100
AcDbText
 10
118.272233047
 20
77.287233047
 30
0.0
 40
3.0
  1
＋
 41
0.85
  7
KANJI6
100
AcDbText
  0
TEXT
  5
286
330
1F
100
AcDbEntity
  8
0
  6
Continuous
 62
     3
100
AcDbText
 10
129.272233047
 20
77.287233047
 30
0.0
 40
3.0
  1
ー
 41
0.85
  7
KANJI6
100
AcDbText
  0
LINE
  5
287
330
1F
100
AcDbEntity
  8
0
  6
Continuous
 62
     2
100
AcDbLine
 10
100.0
 20
85.0
 30
0.0
 11
225.5
 21
85.0
 31
0.0
  0
LINE
  5
288
330
1F
100
AcDbEntity
  8
0
  6
Continuous
 62
     2
100
AcDbLine
 10
100.0
 20
85.0
 30
0.0
 11
100.0
 21
77.0
 31
0.0
  0
CIRCLE
  5
289
330
1F
100
AcDbEntity
  8
0
  6
Continuous
 62
     3
100
AcDbCircle
 10
122.535
 20
63.85
 30
0.0
 40
1.0
  0
CIRCLE
  5
28A
330
1F
100
AcDbEntity
  8
0
  6
Continuous
 62
     3
100
AcDbCircle
 10
127.535
 20
66.35
 30
0.0
 40
1.0
  0
CIRCLE
  5
28B
330
1F
100
AcDbEntity
  8
0
  6
Continuous
 62
     3
100
AcDbCircle
 10
127.535
 20
61.35
 30
0.0
 40
1.0
  0
CIRCLE
  5
28C
330
1F
100
AcDbEntity
  8
0
  6
Continuous
 62
     3
100
AcDbCircle
 10
127.535
 20
66.35
 30
0.0
 40
0.1
  0
CIRCLE
  5
28D
330
1F
100
AcDbEntity
  8
0
  6
Continuous
 62
     3
100
AcDbCircle
 10
127.535
 20
66.35
 30
0.0
 40
0.2
  0
CIRCLE
  5
28E
330
1F
100
AcDbEntity
  8
0
  6
Continuous
 62
     3
100
AcDbCircle
 10
127.535
 20
66.35
 30
0.0
 40
0.3
  0
CIRCLE
  5
28F
330
1F
100
AcDbEntity
  8
0
  6
Continuous
 62
     3
100
AcDbCircle
 10
127.535
 20
66.35
 30
0.0
 40
0.4
  0
CIRCLE
  5
290
330
1F
100
AcDbEntity
  8
0
  6
Continuous
 62
     3
100
AcDbCircle
 10
127.535
 20
66.35
 30
0.0
 40
0.5
  0
CIRCLE
  5
291
330
1F
100
AcDbEntity
  8
0
  6
Continuous
 62
     3
100
AcDbCircle
 10
127.535
 20
66.35
 30
0.0
 40
0.6
  0
CIRCLE
  5
292
330
1F
100
AcDbEntity
  8
0
  6
Continuous
 62
     3
100
AcDbCircle
 10
127.535
 20
66.35
 30
0.0
 40
0.7
  0
CIRCLE
  5
293
330
1F
100
AcDbEntity
  8
0
  6
Continuous
 62
     3
100
AcDbCircle
 10
127.535
 20
66.35
 30
0.0
 40
0.8
  0
CIRCLE
  5
294
330
1F
100
AcDbEntity
  8
0
  6
Continuous
 62
     3
100
AcDbCircle
 10
127.535
 20
66.35
 30
0.0
 40
0.9
  0
LINE
  5
295
330
1F
100
AcDbEntity
  8
0
  6
Continuous
 62
     2
100
AcDbLine
 10
123.535
 20
63.85
 30
0.0
 11
129.035
 21
65.85
 31
0.0
  0
LINE
  5
296
330
1F
100
AcDbEntity
  8
0
  6
Continuous
 62
     2
100
AcDbLine
 10
125.265
 20
64.479090909
 30
0.0
 11
124.581517368
 21
66.358679027
 31
0.0
  0
LINE
  5
297
330
1F
100
AcDbEntity
  8
0
  6
Continuous
 62
     2
100
AcDbLine
 10
128.535
 20
61.35
 30
0.0
 11
201.535
 21
61.35
 31
0.0
  0
LINE
  5
298
330
1F
100
AcDbEntity
  8
0
  6
Continuous
 62
     2
100
AcDbLine
 10
128.535
 20
61.35
 30
0.0
 11
225.45
 21
61.35
 31
0.0
  0
LINE
  5
299
330
1F
100
AcDbEntity
  8
0
  6
LTYPE2
 62
     3
100
AcDbLine
 10
117.535
 20
58.85
 30
0.0
 11
117.535
 21
82.85
 31
0.0
  0
LWPOLYLINE
  5
29B
330
1F
100
AcDbEntity
  8
0
  6
LTYPE2
 62
     3
100
AcDbPolyline
 90
     3
 70
   128
 43
0.0
 10
132.535
 20
82.85
 10
132.535
 20
58.85
 10
117.535
 20
58.85
  0
TEXT
  5
29C
330
1F
100
AcDbEntity
  8
0
  6
Continuous
 62
     3
100
AcDbText
 10
194.15
 20
77.2
 30
0.0
 40
3.0
  1
Ｇｒｅｅｎ
 41
0.9
  7
KANJI7
 72
     5
 11
207.65
 21
77.2
 31
0.0
100
AcDbText
  0
TEXT
  5
29E
330
1F
100
AcDbEntity
  8
0
  6
Continuous
 62
     3
100
AcDbText
 10
194.15
 20
86.2
 30
0.0
 40
3.0
  1
Ｒｅｄ
 41
0.9
  7
KANJI7
 72
     5
 11
202.25
 21
86.2
 31
0.0
100
AcDbText
  0
LINE
  5
29F
330
1F
100
AcDbEntity
  8
0
  6
Continuous
 62
     3
100
AcDbLine
 10
104.535
 20
78.0
 30
0.0
 11
104.535
 21
76.0
 31
0.0
  0
LINE
  5
2A0
330
1F
100
AcDbEntity
  8
0
  6
Continuous
 62
     3
100
AcDbLine
 10
104.535
 20
78.0
 30
0.0
 11
112.535
 21
78.0
 31
0.0
  0
LINE
  5
2A1
330
1F
100
AcDbEntity
  8
0
  6
Continuous
 62
     3
100
AcDbLine
 10
104.535
 20
76.0
 30
0.0
 11
112.535
 21
76.0
 31
0.0
  0
LINE
  5
2A2
330
1F
100
AcDbEntity
  8
0
  6
Continuous
 62
     3
100
AcDbLine
 10
112.535
 20
78.0
 30
0.0
 11
112.535
 21
76.0
 31
0.0
  0
LINE
  5
2A3
330
1F
100
AcDbEntity
  8
0
  6
Continuous
 62
     2
100
AcDbLine
 10
104.535
 20
77.0
 30
0.0
 11
100.0
 21
77.0
 31
0.0
  0
LINE
  5
2A4
330
1F
100
AcDbEntity
  8
0
  6
Continuous
 62
     2
100
AcDbLine
 10
122.5
 20
77.0
 30
0.0
 11
112.535
 21
77.0
 31
0.0
  0
TEXT
  5
2A5
330
1F
100
AcDbEntity
  8
0
  6
Continuous
 62
     3
100
AcDbText
 10
194.15
 20
57.2
 30
0.0
 40
3.0
  1
Ｗｈｉｔｅ
 41
0.9
  7
KANJI7
 72
     5
 11
207.65
 21
57.2
 31
0.0
100
AcDbText
  0
TEXT
  5
2A6
330
1F
100
AcDbEntity
  8
0
  6
Continuous
 62
     3
100
AcDbText
 10
194.15
 20
62.2
 30
0.0
 40
3.0
  1
Ｂｌａｃｋ
 41
0.9
  7
KANJI7
 72
     5
 11
207.65
 21
62.2
 31
0.0
100
AcDbText
  0
LINE
  5
2A7
330
1F
100
AcDbEntity
  8
0
  6
Continuous
 62
     3
100
AcDbLine
 10
99.37
 20
166.808
 30
0.0
 11
98.48570953
 21
169.146381997
 31
0.0
  0
LINE
  5
2A8
330
1F
100
AcDbEntity
  8
0
  6
Continuous
 62
     3
100
AcDbLine
 10
99.37
 20
166.808
 30
0.0
 11
97.43499099
 21
168.390952978
 31
0.0
  0
LINE
  5
2A9
330
1F
100
AcDbEntity
  8
0
  6
Continuous
 62
     3
100
AcDbLine
 10
99.37
 20
166.808
 30
0.0
 11
89.93
 21
179.938
 31
0.0
  0
LINE
  5
2AA
330
1F
100
AcDbEntity
  8
0
  6
Continuous
 62
     3
100
AcDbLine
 10
89.93
 20
179.938
 30
0.0
 11
20.51
 21
179.938
 31
0.0
  0
TEXT
  5
2AB
330
1F
100
AcDbEntity
  8
0
  6
Continuous
 62
     3
100
AcDbText
 10
21.23
 20
180.938
 30
0.0
 40
3.0
  1
照光式押釦　ＬＰ０１－１５ＣＨ１ＣＫＮＳ１ＮＹ
 41
0.9
  7
KANJI8
 72
     5
 11
89.93
 21
180.938
 31
0.0
100
AcDbText
  0
ENDSEC
  0
SECTION
  2
OBJECTS
  0
DICTIONARY
  5
C
330
0
100
AcDbDictionary
280
     0
281
     1
  3
ACAD_GROUP
350
D
  3
ACAD_LAYOUT
350
1A
  3
ACAD_MLINESTYLE
350
17
  3
ACAD_PLOTSETTINGS
350
19
  3
ACAD_PLOTSTYLENAME
350
E
  0
DICTIONARY
  5
D
102
{ACAD_REACTORS
330
C
102
}
330
C
100
AcDbDictionary
280
     0
281
     1
  0
DICTIONARY
  5
1A
102
{ACAD_REACTORS
330
C
102
}
330
C
100
AcDbDictionary
280
     0
281
     1
  3
Model
350
22
  3
ﾚｲｱｳﾄ1
350
1E
  3
ﾚｲｱｳﾄ2
350
26
  0
LAYOUT
  5
22
102
{ACAD_REACTORS
330
1A
102
}
330
1A
100
AcDbPlotSettings
  1

  2

  4

  6

 40
0.0
 41
0.0
 42
0.0
 43
0.0
 44
0.0
 45
0.0
 46
0.0
 47
0.0
 48
0.0
 49
0.0
140
0.0
141
0.0
142
1.0
143
1.0
 70
  1712
 72
     0
 73
     0
 74
     0
  7

 75
     0
147
1.0
148
0.0
149
0.0
100
AcDbLayout
  1
Model
 70
     1
 71
     0
 10
0.0
 20
0.0
 11
0.0
 21
0.0
 12
0.0
 22
0.0
 32
0.0
 14
0.0
 24
0.0
 34
0.0
 15
0.0
 25
0.0
 35
0.0
146
0.0
 13
0.0
 23
0.0
 33
0.0
 16
1.0
 26
0.0
 36
0.0
 17
0.0
 27
1.0
 37
0.0
 76
     0
330
1F
331
0
345
0
346
0
  0
LAYOUT
  5
1E
102
{ACAD_REACTORS
330
1A
102
}
330
1A
100
AcDbPlotSettings
  1

  2

  4

  6

 40
0.0
 41
0.0
 42
0.0
 43
0.0
 44
0.0
 45
0.0
 46
0.0
 47
0.0
 48
0.0
 49
0.0
140
0.0
141
0.0
142
1.0
143
1.0
 70
   688
 72
     0
 73
     0
 74
     5
  7

 75
    16
147
1.0
148
0.0
149
0.0
100
AcDbLayout
  1
ﾚｲｱｳﾄ1
 70
     1
 71
     1
 10
0.0
 20
0.0
 11
0.0
 21
0.0
 12
0.0
 22
0.0
 32
0.0
 14
0.0
 24
0.0
 34
0.0
 15
0.0
 25
0.0
 35
0.0
146
0.0
 13
0.0
 23
0.0
 33
0.0
 16
1.0
 26
0.0
 36
0.0
 17
0.0
 27
1.0
 37
0.0
 76
     0
330
1B
331
0
345
0
346
0
  0
LAYOUT
  5
26
102
{ACAD_REACTORS
330
1A
102
}
330
1A
100
AcDbPlotSettings
  1

  2

  4

  6

 40
0.0
 41
0.0
 42
0.0
 43
0.0
 44
0.0
 45
0.0
 46
0.0
 47
0.0
 48
0.0
 49
0.0
140
0.0
141
0.0
142
1.0
143
1.0
 70
   688
 72
     0
 73
     0
 74
     5
  7

 75
    16
147
1.0
148
0.0
149
0.0
100
AcDbLayout
  1
ﾚｲｱｳﾄ2
 70
     1
 71
     2
 10
0.0
 20
0.0
 11
0.0
 21
0.0
 12
0.0
 22
0.0
 32
0.0
 14
0.0
 24
0.0
 34
0.0
 15
0.0
 25
0.0
 35
0.0
146
0.0
 13
0.0
 23
0.0
 33
0.0
 16
1.0
 26
0.0
 36
0.0
 17
0.0
 27
1.0
 37
0.0
 76
     0
330
23
331
0
345
0
346
0
  0
DICTIONARY
  5
17
102
{ACAD_REACTORS
330
C
102
}
330
C
100
AcDbDictionary
280
     0
281
     1
  3
Standard
350
18
  0
MLINESTYLE
  5
18
102
{ACAD_REACTORS
330
17
102
}
330
17
100
AcDbMlineStyle
  2
STANDARD
 70
     0
  3

 62
   256
 51
90.0
 52
90.0
 71
     2
 49
0.5
 62
   256
  6
ByLayer
 49
-0.5
 62
   256
  6
ByLayer
  0
DICTIONARY
  5
19
102
{ACAD_REACTORS
330
C
102
}
330
C
100
AcDbDictionary
280
     0
281
     1
  0
ACDBDICTIONARYWDFLT
  5
E
330
C
100
AcDbDictionary
281
     0
  3
Normal
350
F
100
AcDbDictionaryWithDefault
340
F
  0
ACDBPLACEHOLDER
  5
F
102
{ACAD_REACTORS
330
E
102
}
330
E
  0
ENDSEC
  0
EOF
