  0
SECTION
  2
HEADER
  9
$ACADVER
  1
AC1015
  9
$ACADMAINTVER
 70
     6
  9
$DWGCODEPAGE
  3
ANSI_932
  9
$INSBASE
 10
0.0
 20
0.0
 30
0.0
  9
$EXTMIN
 10
0.0
 20
0.0
 30
0.0
  9
$EXTMAX
 10
420.0
 20
297.0
 30
0.0
  9
$LIMMIN
 10
0.0
 20
0.0
  9
$LIMMAX
 10
420.0
 20
297.0
  9
$ORTHOMODE
 70
     0
  9
$REGENMODE
 70
     1
  9
$FILLMODE
 70
     1
  9
$QTEXTMODE
 70
     0
  9
$MIRRTEXT
 70
     1
  9
$LTSCALE
 40
1.0
  9
$ATTMODE
 70
     1
  9
$TEXTSIZE
 40
2.5
  9
$TRACEWID
 40
1.0
  9
$TEXTSTYLE
  7
Standard
  9
$CLAYER
  8
0
  9
$CELTYPE
  6
ByLayer
  9
$CECOLOR
 62
   256
  9
$CELTSCALE
 40
1.0
  9
$DISPSILH
 70
     0
  9
$DIMSCALE
 40
1.0
  9
$DIMASZ
 40
2.5
  9
$DIMEXO
 40
0.625
  9
$DIMDLI
 40
3.75
  9
$DIMRND
 40
0.0
  9
$DIMDLE
 40
0.0
  9
$DIMEXE
 40
1.25
  9
$DIMTP
 40
0.0
  9
$DIMTM
 40
0.0
  9
$DIMTXT
 40
2.5
  9
$DIMCEN
 40
2.5
  9
$DIMTSZ
 40
0.0
  9
$DIMTOL
 70
     0
  9
$DIMLIM
 70
     0
  9
$DIMTIH
 70
     0
  9
$DIMTOH
 70
     0
  9
$DIMSE1
 70
     0
  9
$DIMSE2
 70
     0
  9
$DIMTAD
 70
     1
  9
$DIMZIN
 70
     8
  9
$DIMBLK
  1

  9
$DIMASO
 70
     1
  9
$DIMSHO
 70
     1
  9
$DIMPOST
  1

  9
$DIMAPOST
  1

  9
$DIMALT
 70
     0
  9
$DIMALTD
 70
     3
  9
$DIMALTF
 40
0.03937007874016
  9
$DIMLFAC
 40
1.0
  9
$DIMTOFL
 70
     1
  9
$DIMTVP
 40
0.0
  9
$DIMTIX
 70
     0
  9
$DIMSOXD
 70
     0
  9
$DIMSAH
 70
     0
  9
$DIMBLK1
  1

  9
$DIMBLK2
  1

  9
$DIMSTYLE
  2
ISO-25
  9
$DIMCLRD
 70
     0
  9
$DIMCLRE
 70
     0
  9
$DIMCLRT
 70
     0
  9
$DIMTFAC
 40
1.0
  9
$DIMGAP
 40
0.625
  9
$DIMJUST
 70
     0
  9
$DIMSD1
 70
     0
  9
$DIMSD2
 70
     0
  9
$DIMTOLJ
 70
     0
  9
$DIMTZIN
 70
     8
  9
$DIMALTZ
 70
     0
  9
$DIMALTTZ
 70
     0
  9
$DIMUPT
 70
     0
  9
$DIMDEC
 70
     2
  9
$DIMTDEC
 70
     2
  9
$DIMALTU
 70
     2
  9
$DIMALTTD
 70
     3
  9
$DIMTXSTY
  7
Standard
  9
$DIMAUNIT
 70
     0
  9
$DIMADEC
 70
     0
  9
$DIMALTRND
 40
0.0
  9
$DIMAZIN
 70
     0
  9
$DIMDSEP
 70
    46
  9
$DIMATFIT
 70
     3
  9
$DIMFRAC
 70
     0
  9
$DIMLDRBLK
  1

  9
$DIMLUNIT
 70
     2
  9
$DIMLWD
 70
    -2
  9
$DIMLWE
 70
    -2
  9
$DIMTMOVE
 70
     0
  9
$LUNITS
 70
     2
  9
$LUPREC
 70
     4
  9
$SKETCHINC
 40
1.0
  9
$FILLETRAD
 40
10.0
  9
$AUNITS
 70
     0
  9
$AUPREC
 70
     0
  9
$MENU
  1
.
  9
$ELEVATION
 40
0.0
  9
$PELEVATION
 40
0.0
  9
$THICKNESS
 40
0.0
  9
$LIMCHECK
 70
     0
  9
$CHAMFERA
 40
10.0
  9
$CHAMFERB
 40
10.0
  9
$CHAMFERC
 40
20.0
  9
$CHAMFERD
 40
0.0
  9
$SKPOLY
 70
     0
  9
$TDCREATE
 40
2459677.000000
  9
$TDUCREATE
 40
0.000000000
  9
$TDUPDATE
 40
2459677.000000
  9
$TDUUPDATE
 40
2459677.000000
  9
$TDINDWG
 40
0.0
  9
$TDUSRTIMER
 40
0.0
  9
$USRTIMER
 70
     1
  9
$ANGBASE
 50
0.0
  9
$ANGDIR
 70
     0
  9
$PDMODE
 70
     0
  9
$PDSIZE
 40
0.0
  9
$PLINEWID
 40
0.0
  9
$SPLFRAME
 70
     0
  9
$SPLINETYPE
 70
     6
  9
$SPLINESEGS
 70
     8
  9
$HANDSEED
  5
027F
  9
$SURFTAB1
 70
     6
  9
$SURFTAB2
 70
     6
  9
$SURFTYPE
 70
     6
  9
$SURFU
 70
     6
  9
$SURFV
 70
     6
  9
$UCSBASE
  2

  9
$UCSNAME
  2

  9
$UCSORG
 10
0.0
 20
0.0
 30
0.0
  9
$UCSXDIR
 10
1.0
 20
0.0
 30
0.0
  9
$UCSYDIR
 10
0.0
 20
1.0
 30
0.0
  9
$UCSORTHOREF
  2

  9
$UCSORTHOVIEW
 70
     0
  9
$UCSORGTOP
 10
0.0
 20
0.0
 30
0.0
  9
$UCSORGBOTTOM
 10
0.0
 20
0.0
 30
0.0
  9
$UCSORGLEFT
 10
0.0
 20
0.0
 30
0.0
  9
$UCSORGRIGHT
 10
0.0
 20
0.0
 30
0.0
  9
$UCSORGFRONT
 10
0.0
 20
0.0
 30
0.0
  9
$UCSORGBACK
 10
0.0
 20
0.0
 30
0.0
  9
$PUCSBASE
  2

  9
$PUCSNAME
  2

  9
$PUCSORG
 10
0.0
 20
0.0
 30
0.0
  9
$PUCSXDIR
 10
1.0
 20
0.0
 30
0.0
  9
$PUCSYDIR
 10
0.0
 20
1.0
 30
0.0
  9
$PUCSORTHOREF
  2

  9
$PUCSORTHOVIEW
 70
     0
  9
$PUCSORGTOP
 10
0.0
 20
0.0
 30
0.0
  9
$PUCSORGBOTTOM
 10
0.0
 20
0.0
 30
0.0
  9
$PUCSORGLEFT
 10
0.0
 20
0.0
 30
0.0
  9
$PUCSORGRIGHT
 10
0.0
 20
0.0
 30
0.0
  9
$PUCSORGFRONT
 10
0.0
 20
0.0
 30
0.0
  9
$PUCSORGBACK
 10
0.0
 20
0.0
 30
0.0
  9
$USERI1
 70
     0
  9
$USERI2
 70
     0
  9
$USERI3
 70
     0
  9
$USERI4
 70
     0
  9
$USERI5
 70
     0
  9
$USERR1
 40
0.0
  9
$USERR2
 40
0.0
  9
$USERR3
 40
0.0
  9
$USERR4
 40
0.0
  9
$USERR5
 40
0.0
  9
$WORLDVIEW
 70
     1
  9
$SHADEDGE
 70
     3
  9
$SHADEDIF
 70
    70
  9
$TILEMODE
 70
     1
  9
$MAXACTVP
 70
    64
  9
$PINSBASE
 10
0.0
 20
0.0
 30
0.0
  9
$PLIMCHECK
 70
     0
  9
$PEXTMIN
 10
1.000000E+20
 20
1.000000E+20
 30
1.000000E+20
  9
$PEXTMAX
 10
-1.000000E+20
 20
-1.000000E+20
 30
-1.000000E+20
  9
$PLIMMIN
 10
0.0
 20
0.0
  9
$PLIMMAX
 10
0.0
 20
0.0
  9
$UNITMODE
 70
     0
  9
$VISRETAIN
 70
     0
  9
$PLINEGEN
 70
     0
  9
$PSLTSCALE
 70
     1
  9
$TREEDEPTH
 70
  3020
  9
$CMLSTYLE
  2
STANDARD
  9
$CMLJUST
 70
     0
  9
$CMLSCALE
 40
20.0
  9
$PROXYGRAPHICS
 70
     1
  9
$MEASUREMENT
 70
     1
  9
$CELWEIGHT
370
    -1
  9
$ENDCAPS
280
     0
  9
$JOINSTYLE
280
     0
  9
$LWDISPLAY
290
     0
  9
$INSUNITS
 70
     4
  9
$HYPERLINKBASE
  1

  9
$STYLESHEET
  1

  9
$XEDIT
290
     1
  9
$CEPSNTYPE
380
     0
  9
$PSTYLEMODE
290
     1
  9
$FINGERPRINTGUID
  2
{5369A79F-0E71-269B-EE8D-DBA1AE21EA58}
  9
$VERSIONGUID
  2
{3F698ABA-1E09-3652-C7F9-E02612072C1F}
  9
$EXTNAMES
290
     1
  9
$PSVPSCALE
 40
0.0
  0
ENDSEC
  0
SECTION
  2
CLASSES
  0
ENDSEC
  0
SECTION
  2
TABLES
  0
TABLE
  2
VPORT
  5
8
330
0
100
AcDbSymbolTable
 70
     3
  0
VPORT
  5
29
330
8
100
AcDbSymbolTableRecord
100
AcDbViewportTableRecord
  2
*Active
 70
     0
 10
0.0
 20
0.0
 11
1.0
 21
1.0
 12
210.0
 22
148.5
 13
0.0
 23
0.0
 14
10.0
 24
10.0
 15
0.0
 25
0.0
 16
0.0
 26
0.0
 36
1.0
 17
0.0
 27
0.0
 37
0.0
 40
297.0
 41
1.414141414
 42
50.0
 43
0.0
 44
0.0
 50
0.0
 51
0.0
 71
     0
 72
  1000
 73
     1
 74
     3
 75
     0
 76
     0
 77
     0
 78
     0
281
     0
 65
     0
110
0.0
120
0.0
130
0.0
111
1.0
121
0.0
131
0.0
112
0.0
122
1.0
132
0.0
 79
     0
146
0.0
  0
ENDTAB
  0
TABLE
  2
LTYPE
  5
5
330
0
100
AcDbSymbolTable
 70
     4
  0
LTYPE
  5
14
330
5
100
AcDbSymbolTableRecord
100
AcDbLinetypeTableRecord
  2
ByBlock
 70
     0
  3

 72
    65
 73
     0
 40
0.0
  0
LTYPE
  5
15
330
5
100
AcDbSymbolTableRecord
100
AcDbLinetypeTableRecord
  2
ByLayer
 70
     0
  3

 72
    65
 73
     0
 40
0.0
  0
LTYPE
  5
16
330
5
100
AcDbSymbolTableRecord
100
AcDbLinetypeTableRecord
  2
Continuous
 70
     0
  3
Solid line
 72
    65
 73
     0
 40
0.0
  0
LTYPE
  5
17B
330
5
100
AcDbSymbolTableRecord
100
AcDbLinetypeTableRecord
  2
LTYPE1
 70
     0
  3
PHANTOM
 72
    65
 73
     6
 40
15.0
 49
11.25
 74
     0
 49
-0.75
 74
     0
 49
0.75
 74
     0
 49
-0.75
 74
     0
 49
0.75
 74
     0
 49
-0.75
 74
     0
  0
ENDTAB
  0
TABLE
  2
LAYER
  5
2
330
0
100
AcDbSymbolTable
 70
   128
  0
LAYER
  5
10
330
2
100
AcDbSymbolTableRecord
100
AcDbLayerTableRecord
  2
0
 70
     0
 62
     7
  6
Continuous
290
     1
370
    -3
390
F
  0
LAYER
  5
2A
330
2
100
AcDbSymbolTableRecord
100
AcDbLayerTableRecord
  2
2
 70
     0
 62
     7
  6
Continuous
290
     1
370
    -3
390
F
  0
LAYER
  5
2B
330
2
100
AcDbSymbolTableRecord
100
AcDbLayerTableRecord
  2
3
 70
     0
 62
     7
  6
Continuous
290
     1
370
    -3
390
F
  0
LAYER
  5
2C
330
2
100
AcDbSymbolTableRecord
100
AcDbLayerTableRecord
  2
4
 70
     0
 62
     7
  6
Continuous
290
     1
370
    -3
390
F
  0
LAYER
  5
2D
330
2
100
AcDbSymbolTableRecord
100
AcDbLayerTableRecord
  2
5
 70
     0
 62
     7
  6
Continuous
290
     1
370
    -3
390
F
  0
LAYER
  5
2E
330
2
100
AcDbSymbolTableRecord
100
AcDbLayerTableRecord
  2
6
 70
     0
 62
     7
  6
Continuous
290
     1
370
    -3
390
F
  0
LAYER
  5
2F
330
2
100
AcDbSymbolTableRecord
100
AcDbLayerTableRecord
  2
7
 70
     0
 62
     7
  6
Continuous
290
     1
370
    -3
390
F
  0
LAYER
  5
30
330
2
100
AcDbSymbolTableRecord
100
AcDbLayerTableRecord
  2
8
 70
     0
 62
     7
  6
Continuous
290
     1
370
    -3
390
F
  0
LAYER
  5
31
330
2
100
AcDbSymbolTableRecord
100
AcDbLayerTableRecord
  2
9
 70
     0
 62
     7
  6
Continuous
290
     1
370
    -3
390
F
  0
LAYER
  5
32
330
2
100
AcDbSymbolTableRecord
100
AcDbLayerTableRecord
  2
10
 70
     0
 62
     7
  6
Continuous
290
     1
370
    -3
390
F
  0
LAYER
  5
33
330
2
100
AcDbSymbolTableRecord
100
AcDbLayerTableRecord
  2
11
 70
     0
 62
     7
  6
Continuous
290
     1
370
    -3
390
F
  0
LAYER
  5
34
330
2
100
AcDbSymbolTableRecord
100
AcDbLayerTableRecord
  2
12
 70
     0
 62
     7
  6
Continuous
290
     1
370
    -3
390
F
  0
LAYER
  5
35
330
2
100
AcDbSymbolTableRecord
100
AcDbLayerTableRecord
  2
13
 70
     0
 62
     7
  6
Continuous
290
     1
370
    -3
390
F
  0
LAYER
  5
36
330
2
100
AcDbSymbolTableRecord
100
AcDbLayerTableRecord
  2
14
 70
     0
 62
     7
  6
Continuous
290
     1
370
    -3
390
F
  0
LAYER
  5
37
330
2
100
AcDbSymbolTableRecord
100
AcDbLayerTableRecord
  2
15
 70
     0
 62
     7
  6
Continuous
290
     1
370
    -3
390
F
  0
LAYER
  5
38
330
2
100
AcDbSymbolTableRecord
100
AcDbLayerTableRecord
  2
16
 70
     0
 62
     7
  6
Continuous
290
     1
370
    -3
390
F
  0
LAYER
  5
39
330
2
100
AcDbSymbolTableRecord
100
AcDbLayerTableRecord
  2
17
 70
     0
 62
     7
  6
Continuous
290
     1
370
    -3
390
F
  0
LAYER
  5
3A
330
2
100
AcDbSymbolTableRecord
100
AcDbLayerTableRecord
  2
18
 70
     0
 62
     7
  6
Continuous
290
     1
370
    -3
390
F
  0
LAYER
  5
3B
330
2
100
AcDbSymbolTableRecord
100
AcDbLayerTableRecord
  2
19
 70
     0
 62
     7
  6
Continuous
290
     1
370
    -3
390
F
  0
LAYER
  5
3C
330
2
100
AcDbSymbolTableRecord
100
AcDbLayerTableRecord
  2
20
 70
     0
 62
     7
  6
Continuous
290
     1
370
    -3
390
F
  0
LAYER
  5
3D
330
2
100
AcDbSymbolTableRecord
100
AcDbLayerTableRecord
  2
21
 70
     0
 62
     7
  6
Continuous
290
     1
370
    -3
390
F
  0
LAYER
  5
3E
330
2
100
AcDbSymbolTableRecord
100
AcDbLayerTableRecord
  2
22
 70
     0
 62
     7
  6
Continuous
290
     1
370
    -3
390
F
  0
LAYER
  5
3F
330
2
100
AcDbSymbolTableRecord
100
AcDbLayerTableRecord
  2
23
 70
     0
 62
     7
  6
Continuous
290
     1
370
    -3
390
F
  0
LAYER
  5
40
330
2
100
AcDbSymbolTableRecord
100
AcDbLayerTableRecord
  2
24
 70
     0
 62
     7
  6
Continuous
290
     1
370
    -3
390
F
  0
LAYER
  5
41
330
2
100
AcDbSymbolTableRecord
100
AcDbLayerTableRecord
  2
25
 70
     0
 62
     7
  6
Continuous
290
     1
370
    -3
390
F
  0
LAYER
  5
42
330
2
100
AcDbSymbolTableRecord
100
AcDbLayerTableRecord
  2
26
 70
     0
 62
     7
  6
Continuous
290
     1
370
    -3
390
F
  0
LAYER
  5
43
330
2
100
AcDbSymbolTableRecord
100
AcDbLayerTableRecord
  2
27
 70
     0
 62
     7
  6
Continuous
290
     1
370
    -3
390
F
  0
LAYER
  5
44
330
2
100
AcDbSymbolTableRecord
100
AcDbLayerTableRecord
  2
28
 70
     0
 62
     7
  6
Continuous
290
     1
370
    -3
390
F
  0
LAYER
  5
45
330
2
100
AcDbSymbolTableRecord
100
AcDbLayerTableRecord
  2
29
 70
     0
 62
     7
  6
Continuous
290
     1
370
    -3
390
F
  0
LAYER
  5
46
330
2
100
AcDbSymbolTableRecord
100
AcDbLayerTableRecord
  2
30
 70
     0
 62
     7
  6
Continuous
290
     1
370
    -3
390
F
  0
LAYER
  5
47
330
2
100
AcDbSymbolTableRecord
100
AcDbLayerTableRecord
  2
31
 70
     0
 62
     7
  6
Continuous
290
     1
370
    -3
390
F
  0
LAYER
  5
48
330
2
100
AcDbSymbolTableRecord
100
AcDbLayerTableRecord
  2
32
 70
     0
 62
     7
  6
Continuous
290
     1
370
    -3
390
F
  0
LAYER
  5
49
330
2
100
AcDbSymbolTableRecord
100
AcDbLayerTableRecord
  2
33
 70
     0
 62
     7
  6
Continuous
290
     1
370
    -3
390
F
  0
LAYER
  5
4A
330
2
100
AcDbSymbolTableRecord
100
AcDbLayerTableRecord
  2
34
 70
     0
 62
     7
  6
Continuous
290
     1
370
    -3
390
F
  0
LAYER
  5
4B
330
2
100
AcDbSymbolTableRecord
100
AcDbLayerTableRecord
  2
35
 70
     0
 62
     7
  6
Continuous
290
     1
370
    -3
390
F
  0
LAYER
  5
4C
330
2
100
AcDbSymbolTableRecord
100
AcDbLayerTableRecord
  2
36
 70
     0
 62
     7
  6
Continuous
290
     1
370
    -3
390
F
  0
LAYER
  5
4D
330
2
100
AcDbSymbolTableRecord
100
AcDbLayerTableRecord
  2
37
 70
     0
 62
     7
  6
Continuous
290
     1
370
    -3
390
F
  0
LAYER
  5
4E
330
2
100
AcDbSymbolTableRecord
100
AcDbLayerTableRecord
  2
38
 70
     0
 62
     7
  6
Continuous
290
     1
370
    -3
390
F
  0
LAYER
  5
4F
330
2
100
AcDbSymbolTableRecord
100
AcDbLayerTableRecord
  2
39
 70
     0
 62
     7
  6
Continuous
290
     1
370
    -3
390
F
  0
LAYER
  5
50
330
2
100
AcDbSymbolTableRecord
100
AcDbLayerTableRecord
  2
40
 70
     0
 62
     7
  6
Continuous
290
     1
370
    -3
390
F
  0
LAYER
  5
51
330
2
100
AcDbSymbolTableRecord
100
AcDbLayerTableRecord
  2
41
 70
     0
 62
     7
  6
Continuous
290
     1
370
    -3
390
F
  0
LAYER
  5
52
330
2
100
AcDbSymbolTableRecord
100
AcDbLayerTableRecord
  2
42
 70
     0
 62
     7
  6
Continuous
290
     1
370
    -3
390
F
  0
LAYER
  5
53
330
2
100
AcDbSymbolTableRecord
100
AcDbLayerTableRecord
  2
43
 70
     0
 62
     7
  6
Continuous
290
     1
370
    -3
390
F
  0
LAYER
  5
54
330
2
100
AcDbSymbolTableRecord
100
AcDbLayerTableRecord
  2
44
 70
     0
 62
     7
  6
Continuous
290
     1
370
    -3
390
F
  0
LAYER
  5
55
330
2
100
AcDbSymbolTableRecord
100
AcDbLayerTableRecord
  2
45
 70
     0
 62
     7
  6
Continuous
290
     1
370
    -3
390
F
  0
LAYER
  5
56
330
2
100
AcDbSymbolTableRecord
100
AcDbLayerTableRecord
  2
46
 70
     0
 62
     7
  6
Continuous
290
     1
370
    -3
390
F
  0
LAYER
  5
57
330
2
100
AcDbSymbolTableRecord
100
AcDbLayerTableRecord
  2
47
 70
     0
 62
     7
  6
Continuous
290
     1
370
    -3
390
F
  0
LAYER
  5
58
330
2
100
AcDbSymbolTableRecord
100
AcDbLayerTableRecord
  2
48
 70
     0
 62
     7
  6
Continuous
290
     1
370
    -3
390
F
  0
LAYER
  5
59
330
2
100
AcDbSymbolTableRecord
100
AcDbLayerTableRecord
  2
49
 70
     0
 62
     7
  6
Continuous
290
     1
370
    -3
390
F
  0
LAYER
  5
5A
330
2
100
AcDbSymbolTableRecord
100
AcDbLayerTableRecord
  2
50
 70
     0
 62
     7
  6
Continuous
290
     1
370
    -3
390
F
  0
LAYER
  5
5B
330
2
100
AcDbSymbolTableRecord
100
AcDbLayerTableRecord
  2
51
 70
     0
 62
     7
  6
Continuous
290
     1
370
    -3
390
F
  0
LAYER
  5
5C
330
2
100
AcDbSymbolTableRecord
100
AcDbLayerTableRecord
  2
52
 70
     0
 62
     7
  6
Continuous
290
     1
370
    -3
390
F
  0
LAYER
  5
5D
330
2
100
AcDbSymbolTableRecord
100
AcDbLayerTableRecord
  2
53
 70
     0
 62
     7
  6
Continuous
290
     1
370
    -3
390
F
  0
LAYER
  5
5E
330
2
100
AcDbSymbolTableRecord
100
AcDbLayerTableRecord
  2
54
 70
     0
 62
     7
  6
Continuous
290
     1
370
    -3
390
F
  0
LAYER
  5
5F
330
2
100
AcDbSymbolTableRecord
100
AcDbLayerTableRecord
  2
55
 70
     0
 62
     7
  6
Continuous
290
     1
370
    -3
390
F
  0
LAYER
  5
60
330
2
100
AcDbSymbolTableRecord
100
AcDbLayerTableRecord
  2
56
 70
     0
 62
     7
  6
Continuous
290
     1
370
    -3
390
F
  0
LAYER
  5
61
330
2
100
AcDbSymbolTableRecord
100
AcDbLayerTableRecord
  2
57
 70
     0
 62
     7
  6
Continuous
290
     1
370
    -3
390
F
  0
LAYER
  5
62
330
2
100
AcDbSymbolTableRecord
100
AcDbLayerTableRecord
  2
58
 70
     0
 62
     7
  6
Continuous
290
     1
370
    -3
390
F
  0
LAYER
  5
63
330
2
100
AcDbSymbolTableRecord
100
AcDbLayerTableRecord
  2
59
 70
     0
 62
     7
  6
Continuous
290
     1
370
    -3
390
F
  0
LAYER
  5
64
330
2
100
AcDbSymbolTableRecord
100
AcDbLayerTableRecord
  2
60
 70
     0
 62
     7
  6
Continuous
290
     1
370
    -3
390
F
  0
LAYER
  5
65
330
2
100
AcDbSymbolTableRecord
100
AcDbLayerTableRecord
  2
61
 70
     0
 62
     7
  6
Continuous
290
     1
370
    -3
390
F
  0
LAYER
  5
66
330
2
100
AcDbSymbolTableRecord
100
AcDbLayerTableRecord
  2
62
 70
     0
 62
     7
  6
Continuous
290
     1
370
    -3
390
F
  0
LAYER
  5
67
330
2
100
AcDbSymbolTableRecord
100
AcDbLayerTableRecord
  2
63
 70
     0
 62
     7
  6
Continuous
290
     1
370
    -3
390
F
  0
LAYER
  5
68
330
2
100
AcDbSymbolTableRecord
100
AcDbLayerTableRecord
  2
64
 70
     0
 62
     7
  6
Continuous
290
     1
370
    -3
390
F
  0
LAYER
  5
69
330
2
100
AcDbSymbolTableRecord
100
AcDbLayerTableRecord
  2
65
 70
     0
 62
     7
  6
Continuous
290
     1
370
    -3
390
F
  0
LAYER
  5
6A
330
2
100
AcDbSymbolTableRecord
100
AcDbLayerTableRecord
  2
66
 70
     0
 62
     7
  6
Continuous
290
     1
370
    -3
390
F
  0
LAYER
  5
6B
330
2
100
AcDbSymbolTableRecord
100
AcDbLayerTableRecord
  2
67
 70
     0
 62
     7
  6
Continuous
290
     1
370
    -3
390
F
  0
LAYER
  5
6C
330
2
100
AcDbSymbolTableRecord
100
AcDbLayerTableRecord
  2
68
 70
     0
 62
     7
  6
Continuous
290
     1
370
    -3
390
F
  0
LAYER
  5
6D
330
2
100
AcDbSymbolTableRecord
100
AcDbLayerTableRecord
  2
69
 70
     0
 62
     7
  6
Continuous
290
     1
370
    -3
390
F
  0
LAYER
  5
6E
330
2
100
AcDbSymbolTableRecord
100
AcDbLayerTableRecord
  2
70
 70
     0
 62
     7
  6
Continuous
290
     1
370
    -3
390
F
  0
LAYER
  5
6F
330
2
100
AcDbSymbolTableRecord
100
AcDbLayerTableRecord
  2
71
 70
     0
 62
     7
  6
Continuous
290
     1
370
    -3
390
F
  0
LAYER
  5
70
330
2
100
AcDbSymbolTableRecord
100
AcDbLayerTableRecord
  2
72
 70
     0
 62
     7
  6
Continuous
290
     1
370
    -3
390
F
  0
LAYER
  5
71
330
2
100
AcDbSymbolTableRecord
100
AcDbLayerTableRecord
  2
73
 70
     0
 62
     7
  6
Continuous
290
     1
370
    -3
390
F
  0
LAYER
  5
72
330
2
100
AcDbSymbolTableRecord
100
AcDbLayerTableRecord
  2
74
 70
     0
 62
     7
  6
Continuous
290
     1
370
    -3
390
F
  0
LAYER
  5
73
330
2
100
AcDbSymbolTableRecord
100
AcDbLayerTableRecord
  2
75
 70
     0
 62
     7
  6
Continuous
290
     1
370
    -3
390
F
  0
LAYER
  5
74
330
2
100
AcDbSymbolTableRecord
100
AcDbLayerTableRecord
  2
76
 70
     0
 62
     7
  6
Continuous
290
     1
370
    -3
390
F
  0
LAYER
  5
75
330
2
100
AcDbSymbolTableRecord
100
AcDbLayerTableRecord
  2
77
 70
     0
 62
     7
  6
Continuous
290
     1
370
    -3
390
F
  0
LAYER
  5
76
330
2
100
AcDbSymbolTableRecord
100
AcDbLayerTableRecord
  2
78
 70
     0
 62
     7
  6
Continuous
290
     1
370
    -3
390
F
  0
LAYER
  5
77
330
2
100
AcDbSymbolTableRecord
100
AcDbLayerTableRecord
  2
79
 70
     0
 62
     7
  6
Continuous
290
     1
370
    -3
390
F
  0
LAYER
  5
78
330
2
100
AcDbSymbolTableRecord
100
AcDbLayerTableRecord
  2
80
 70
     0
 62
     7
  6
Continuous
290
     1
370
    -3
390
F
  0
LAYER
  5
79
330
2
100
AcDbSymbolTableRecord
100
AcDbLayerTableRecord
  2
81
 70
     0
 62
     7
  6
Continuous
290
     1
370
    -3
390
F
  0
LAYER
  5
7A
330
2
100
AcDbSymbolTableRecord
100
AcDbLayerTableRecord
  2
82
 70
     0
 62
     7
  6
Continuous
290
     1
370
    -3
390
F
  0
LAYER
  5
7B
330
2
100
AcDbSymbolTableRecord
100
AcDbLayerTableRecord
  2
83
 70
     0
 62
     7
  6
Continuous
290
     1
370
    -3
390
F
  0
LAYER
  5
7C
330
2
100
AcDbSymbolTableRecord
100
AcDbLayerTableRecord
  2
84
 70
     0
 62
     7
  6
Continuous
290
     1
370
    -3
390
F
  0
LAYER
  5
7D
330
2
100
AcDbSymbolTableRecord
100
AcDbLayerTableRecord
  2
85
 70
     0
 62
     7
  6
Continuous
290
     1
370
    -3
390
F
  0
LAYER
  5
7E
330
2
100
AcDbSymbolTableRecord
100
AcDbLayerTableRecord
  2
86
 70
     0
 62
     7
  6
Continuous
290
     1
370
    -3
390
F
  0
LAYER
  5
7F
330
2
100
AcDbSymbolTableRecord
100
AcDbLayerTableRecord
  2
87
 70
     0
 62
     7
  6
Continuous
290
     1
370
    -3
390
F
  0
LAYER
  5
80
330
2
100
AcDbSymbolTableRecord
100
AcDbLayerTableRecord
  2
88
 70
     0
 62
     7
  6
Continuous
290
     1
370
    -3
390
F
  0
LAYER
  5
81
330
2
100
AcDbSymbolTableRecord
100
AcDbLayerTableRecord
  2
89
 70
     0
 62
     7
  6
Continuous
290
     1
370
    -3
390
F
  0
LAYER
  5
82
330
2
100
AcDbSymbolTableRecord
100
AcDbLayerTableRecord
  2
90
 70
     0
 62
     7
  6
Continuous
290
     1
370
    -3
390
F
  0
LAYER
  5
83
330
2
100
AcDbSymbolTableRecord
100
AcDbLayerTableRecord
  2
91
 70
     0
 62
     7
  6
Continuous
290
     1
370
    -3
390
F
  0
LAYER
  5
84
330
2
100
AcDbSymbolTableRecord
100
AcDbLayerTableRecord
  2
92
 70
     0
 62
     7
  6
Continuous
290
     1
370
    -3
390
F
  0
LAYER
  5
85
330
2
100
AcDbSymbolTableRecord
100
AcDbLayerTableRecord
  2
93
 70
     0
 62
     7
  6
Continuous
290
     1
370
    -3
390
F
  0
LAYER
  5
86
330
2
100
AcDbSymbolTableRecord
100
AcDbLayerTableRecord
  2
94
 70
     0
 62
     7
  6
Continuous
290
     1
370
    -3
390
F
  0
LAYER
  5
87
330
2
100
AcDbSymbolTableRecord
100
AcDbLayerTableRecord
  2
95
 70
     0
 62
     7
  6
Continuous
290
     1
370
    -3
390
F
  0
LAYER
  5
88
330
2
100
AcDbSymbolTableRecord
100
AcDbLayerTableRecord
  2
96
 70
     0
 62
     7
  6
Continuous
290
     1
370
    -3
390
F
  0
LAYER
  5
89
330
2
100
AcDbSymbolTableRecord
100
AcDbLayerTableRecord
  2
97
 70
     0
 62
     7
  6
Continuous
290
     1
370
    -3
390
F
  0
LAYER
  5
8A
330
2
100
AcDbSymbolTableRecord
100
AcDbLayerTableRecord
  2
98
 70
     0
 62
     7
  6
Continuous
290
     1
370
    -3
390
F
  0
LAYER
  5
8B
330
2
100
AcDbSymbolTableRecord
100
AcDbLayerTableRecord
  2
99
 70
     0
 62
     7
  6
Continuous
290
     1
370
    -3
390
F
  0
LAYER
  5
8C
330
2
100
AcDbSymbolTableRecord
100
AcDbLayerTableRecord
  2
100
 70
     0
 62
     7
  6
Continuous
290
     1
370
    -3
390
F
  0
LAYER
  5
8D
330
2
100
AcDbSymbolTableRecord
100
AcDbLayerTableRecord
  2
101
 70
     0
 62
     7
  6
Continuous
290
     1
370
    -3
390
F
  0
LAYER
  5
8E
330
2
100
AcDbSymbolTableRecord
100
AcDbLayerTableRecord
  2
102
 70
     0
 62
     7
  6
Continuous
290
     1
370
    -3
390
F
  0
LAYER
  5
8F
330
2
100
AcDbSymbolTableRecord
100
AcDbLayerTableRecord
  2
103
 70
     0
 62
     7
  6
Continuous
290
     1
370
    -3
390
F
  0
LAYER
  5
90
330
2
100
AcDbSymbolTableRecord
100
AcDbLayerTableRecord
  2
104
 70
     0
 62
     7
  6
Continuous
290
     1
370
    -3
390
F
  0
LAYER
  5
91
330
2
100
AcDbSymbolTableRecord
100
AcDbLayerTableRecord
  2
105
 70
     0
 62
     7
  6
Continuous
290
     1
370
    -3
390
F
  0
LAYER
  5
92
330
2
100
AcDbSymbolTableRecord
100
AcDbLayerTableRecord
  2
106
 70
     0
 62
     7
  6
Continuous
290
     1
370
    -3
390
F
  0
LAYER
  5
93
330
2
100
AcDbSymbolTableRecord
100
AcDbLayerTableRecord
  2
107
 70
     0
 62
     7
  6
Continuous
290
     1
370
    -3
390
F
  0
LAYER
  5
94
330
2
100
AcDbSymbolTableRecord
100
AcDbLayerTableRecord
  2
108
 70
     0
 62
     7
  6
Continuous
290
     1
370
    -3
390
F
  0
LAYER
  5
95
330
2
100
AcDbSymbolTableRecord
100
AcDbLayerTableRecord
  2
109
 70
     0
 62
     7
  6
Continuous
290
     1
370
    -3
390
F
  0
LAYER
  5
96
330
2
100
AcDbSymbolTableRecord
100
AcDbLayerTableRecord
  2
110
 70
     0
 62
     7
  6
Continuous
290
     1
370
    -3
390
F
  0
LAYER
  5
97
330
2
100
AcDbSymbolTableRecord
100
AcDbLayerTableRecord
  2
111
 70
     0
 62
     7
  6
Continuous
290
     1
370
    -3
390
F
  0
LAYER
  5
98
330
2
100
AcDbSymbolTableRecord
100
AcDbLayerTableRecord
  2
112
 70
     0
 62
     7
  6
Continuous
290
     1
370
    -3
390
F
  0
LAYER
  5
99
330
2
100
AcDbSymbolTableRecord
100
AcDbLayerTableRecord
  2
113
 70
     0
 62
     7
  6
Continuous
290
     1
370
    -3
390
F
  0
LAYER
  5
9A
330
2
100
AcDbSymbolTableRecord
100
AcDbLayerTableRecord
  2
114
 70
     0
 62
     7
  6
Continuous
290
     1
370
    -3
390
F
  0
LAYER
  5
9B
330
2
100
AcDbSymbolTableRecord
100
AcDbLayerTableRecord
  2
115
 70
     0
 62
     7
  6
Continuous
290
     1
370
    -3
390
F
  0
LAYER
  5
9C
330
2
100
AcDbSymbolTableRecord
100
AcDbLayerTableRecord
  2
116
 70
     0
 62
     7
  6
Continuous
290
     1
370
    -3
390
F
  0
LAYER
  5
9D
330
2
100
AcDbSymbolTableRecord
100
AcDbLayerTableRecord
  2
117
 70
     0
 62
     7
  6
Continuous
290
     1
370
    -3
390
F
  0
LAYER
  5
9E
330
2
100
AcDbSymbolTableRecord
100
AcDbLayerTableRecord
  2
118
 70
     0
 62
     7
  6
Continuous
290
     1
370
    -3
390
F
  0
LAYER
  5
9F
330
2
100
AcDbSymbolTableRecord
100
AcDbLayerTableRecord
  2
119
 70
     0
 62
     7
  6
Continuous
290
     1
370
    -3
390
F
  0
LAYER
  5
A0
330
2
100
AcDbSymbolTableRecord
100
AcDbLayerTableRecord
  2
120
 70
     0
 62
     7
  6
Continuous
290
     1
370
    -3
390
F
  0
LAYER
  5
A1
330
2
100
AcDbSymbolTableRecord
100
AcDbLayerTableRecord
  2
121
 70
     0
 62
     7
  6
Continuous
290
     1
370
    -3
390
F
  0
LAYER
  5
A2
330
2
100
AcDbSymbolTableRecord
100
AcDbLayerTableRecord
  2
122
 70
     0
 62
     7
  6
Continuous
290
     1
370
    -3
390
F
  0
LAYER
  5
A3
330
2
100
AcDbSymbolTableRecord
100
AcDbLayerTableRecord
  2
123
 70
     0
 62
     7
  6
Continuous
290
     1
370
    -3
390
F
  0
LAYER
  5
A4
330
2
100
AcDbSymbolTableRecord
100
AcDbLayerTableRecord
  2
124
 70
     0
 62
     7
  6
Continuous
290
     1
370
    -3
390
F
  0
LAYER
  5
A5
330
2
100
AcDbSymbolTableRecord
100
AcDbLayerTableRecord
  2
125
 70
     0
 62
     7
  6
Continuous
290
     1
370
    -3
390
F
  0
LAYER
  5
A6
330
2
100
AcDbSymbolTableRecord
100
AcDbLayerTableRecord
  2
126
 70
     0
 62
     7
  6
Continuous
290
     1
370
    -3
390
F
  0
LAYER
  5
A7
330
2
100
AcDbSymbolTableRecord
100
AcDbLayerTableRecord
  2
127
 70
     0
 62
     7
  6
Continuous
290
     1
370
    -3
390
F
  0
LAYER
  5
A8
330
2
100
AcDbSymbolTableRecord
100
AcDbLayerTableRecord
  2
128
 70
     0
 62
     7
  6
Continuous
290
     1
370
    -3
390
F
  0
ENDTAB
  0
TABLE
  2
STYLE
  5
3
330
0
100
AcDbSymbolTable
 70
     4
  0
STYLE
  5
11
330
3
100
AcDbSymbolTableRecord
100
AcDbTextStyleTableRecord
  2
Standard
 70
     0
 40
0.0
 41
1.0
 50
0.0
 71
     0
 42
2.5
  3
txt.shx
  4
extfont.shx
  0
STYLE
  5
24B
330
3
100
AcDbSymbolTableRecord
100
AcDbTextStyleTableRecord
  2
KANJI0
 70
     0
 40
3.0
 41
0.9
 50
0.0
 71
     0
 42
3.0
  3
txt.shx
  4
extfont.shx
  0
STYLE
  5
277
330
3
100
AcDbSymbolTableRecord
100
AcDbTextStyleTableRecord
  2
KANJI1
 70
     0
 40
3.0
 41
0.6
 50
0.0
 71
     0
 42
3.0
  3
txt.shx
  4
extfont.shx
  0
STYLE
  5
27E
330
3
100
AcDbSymbolTableRecord
100
AcDbTextStyleTableRecord
  2
KANJI2
 70
     0
 40
4.7625
 41
0.7
 50
0.0
 71
     0
 42
4.7625
  3
txt.shx
  4
extfont.shx
  0
ENDTAB
  0
TABLE
  2
VIEW
  5
6
330
0
100
AcDbSymbolTable
 70
     0
  0
ENDTAB
  0
TABLE
  2
UCS
  5
7
330
0
100
AcDbSymbolTable
 70
     0
  0
ENDTAB
  0
TABLE
  2
APPID
  5
9
330
0
100
AcDbSymbolTable
 70
     1
  0
APPID
  5
12
330
9
100
AcDbSymbolTableRecord
100
AcDbRegAppTableRecord
  2
ACAD
 70
     0
  0
ENDTAB
  0
TABLE
  2
DIMSTYLE
  5
A
330
0
100
AcDbSymbolTable
 70
     1
100
AcDbDimStyleTable
 71
     0
  0
DIMSTYLE
105
27
330
A
100
AcDbSymbolTableRecord
100
AcDbDimStyleTableRecord
  2
ISO-25
 70
    64
  3

  4

 40
1.0
 41
2.5
 42
0.625
 43
3.75
 44
1.25
 45
0.0
 46
0.0
 47
0.0
 48
0.0
 71
     0
 72
     0
 73
     0
 74
     0
 75
     0
 76
     0
 77
     1
 78
     8
 79
     0
140
2.5
141
2.5
142
0.0
143
0.039370079
144
1.0
145
0.0
146
1.0
147
0.625
148
0.0
170
     0
171
     3
172
     1
173
     0
174
     0
175
     0
176
     0
177
     0
178
     0
179
     0
270
     2
271
     2
272
     2
273
     2
274
     3
275
     0
276
     0
277
     2
278
    46
279
     0
280
     0
281
     0
282
     0
283
     1
284
     8
285
     0
286
     0
288
     0
289
     3
340
11
341
0
342
0
343
0
344
0
371
    -2
372
    -2
  0
ENDTAB
  0
TABLE
  2
BLOCK_RECORD
  5
1
330
0
100
AcDbSymbolTable
 70
     3
  0
BLOCK_RECORD
  5
1F
330
1
100
AcDbSymbolTableRecord
100
AcDbBlockTableRecord
  2
*Model_Space
340
22
  0
BLOCK_RECORD
  5
1B
330
1
100
AcDbSymbolTableRecord
100
AcDbBlockTableRecord
  2
*Paper_Space
340
1E
  0
BLOCK_RECORD
  5
23
330
1
100
AcDbSymbolTableRecord
100
AcDbBlockTableRecord
  2
*Paper_Space0
340
26
  0
ENDTAB
  0
ENDSEC
  0
SECTION
  2
BLOCKS
  0
BLOCK
  5
1C
330
1B
100
AcDbEntity
 67
     1
  8
0
100
AcDbBlockBegin
  2
*Paper_Space
 70
     0
 10
0.0
 20
0.0
 30
0.0
  3
*Paper_Space
  1

  0
ENDBLK
  5
1D
330
1B
100
AcDbEntity
  8
0
100
AcDbBlockEnd
  0
BLOCK
  5
20
330
1F
100
AcDbEntity
  8
0
100
AcDbBlockBegin
  2
*Model_Space
 70
     0
 10
0.0
 20
0.0
 30
0.0
  3
*Model_Space
  1

  0
ENDBLK
  5
21
330
1F
100
AcDbEntity
  8
0
100
AcDbBlockEnd
  0
BLOCK
  5
24
330
23
100
AcDbEntity
 67
     1
  8
0
100
AcDbBlockBegin
  2
*Paper_Space0
 70
     0
 10
0.0
 20
0.0
 30
0.0
  3
*Paper_Space0
  1

  0
ENDBLK
  5
25
330
23
100
AcDbEntity
  8
0
100
AcDbBlockEnd
  0
ENDSEC
  0
SECTION
  2
ENTITIES
  0
LINE
  5
A9
330
1F
100
AcDbEntity
  8
0
  6
Continuous
 62
     7
100
AcDbLine
 10
239.257198136
 20
89.234316669
 30
0.0
 11
239.546399872
 21
89.234316669
 31
0.0
  0
LINE
  5
AA
330
1F
100
AcDbEntity
  8
0
  6
Continuous
 62
     7
100
AcDbLine
 10
239.546399872
 20
96.134316123
 30
0.0
 11
239.257198136
 21
96.134316123
 31
0.0
  0
ARC
  5
AB
330
1F
100
AcDbEntity
  8
0
  6
Continuous
 62
     7
100
AcDbCircle
 10
236.657196645
 20
92.68431597
 30
0.0
 40
4.5
100
AcDbArc
 50
19.471220635
 51
50.05549481
  0
ARC
  5
AC
330
1F
100
AcDbEntity
  8
0
  6
Continuous
 62
     7
100
AcDbCircle
 10
236.657196645
 20
92.68431597
 30
0.0
 40
4.5
100
AcDbArc
 50
309.94450519
 51
340.528779365
  0
LINE
  5
AD
330
1F
100
AcDbEntity
  8
0
  6
Continuous
 62
     7
100
AcDbLine
 10
236.20719866
 20
125.684315286
 30
0.0
 11
236.20719866
 21
125.973520747
 31
0.0
  0
LINE
  5
AE
330
1F
100
AcDbEntity
  8
0
  6
Continuous
 62
     7
100
AcDbLine
 10
229.307197343
 20
125.973520747
 30
0.0
 11
229.307197343
 21
125.684315286
 31
0.0
  0
ARC
  5
AF
330
1F
100
AcDbEntity
  8
0
  6
Continuous
 62
     7
100
AcDbCircle
 10
232.757196645
 20
123.08431597
 30
0.0
 40
4.5
100
AcDbArc
 50
109.471220635
 51
140.05549481
  0
ARC
  5
B0
330
1F
100
AcDbEntity
  8
0
  6
Continuous
 62
     7
100
AcDbCircle
 10
232.757196645
 20
123.08431597
 30
0.0
 40
4.5
100
AcDbArc
 50
39.94450519
 51
70.528779366
  0
LINE
  5
B1
330
1F
100
AcDbEntity
  8
0
  6
Continuous
 62
     7
100
AcDbLine
 10
101.757195155
 20
96.134316123
 30
0.0
 11
101.467993419
 21
96.134316123
 31
0.0
  0
LINE
  5
B2
330
1F
100
AcDbEntity
  8
0
  6
Continuous
 62
     7
100
AcDbLine
 10
101.467993419
 20
89.234316669
 30
0.0
 11
101.757195155
 21
89.234316669
 31
0.0
  0
ARC
  5
B3
330
1F
100
AcDbEntity
  8
0
  6
Continuous
 62
     7
100
AcDbCircle
 10
104.357196645
 20
92.68431597
 30
0.0
 40
4.5
100
AcDbArc
 50
129.94450519
 51
160.528779366
  0
ARC
  5
B4
330
1F
100
AcDbEntity
  8
0
  6
Continuous
 62
     7
100
AcDbCircle
 10
104.357196645
 20
92.68431597
 30
0.0
 40
4.5
100
AcDbArc
 50
199.471220635
 51
230.05549481
  0
LINE
  5
B5
330
1F
100
AcDbEntity
  8
0
  6
Continuous
 62
     7
100
AcDbLine
 10
111.707195948
 20
125.684315286
 30
0.0
 11
111.707195948
 21
125.973520747
 31
0.0
  0
LINE
  5
B6
330
1F
100
AcDbEntity
  8
0
  6
Continuous
 62
     7
100
AcDbLine
 10
104.807194631
 20
125.973520747
 30
0.0
 11
104.807194631
 21
125.684315286
 31
0.0
  0
ARC
  5
B7
330
1F
100
AcDbEntity
  8
0
  6
Continuous
 62
     7
100
AcDbCircle
 10
108.257196645
 20
123.08431597
 30
0.0
 40
4.5
100
AcDbArc
 50
109.471220635
 51
140.05549481
  0
ARC
  5
B8
330
1F
100
AcDbEntity
  8
0
  6
Continuous
 62
     7
100
AcDbCircle
 10
108.257196645
 20
123.08431597
 30
0.0
 40
4.5
100
AcDbArc
 50
39.94450519
 51
70.528779366
  0
LINE
  5
B9
330
1F
100
AcDbEntity
  8
0
  6
Continuous
 62
     7
100
AcDbLine
 10
239.546399872
 20
89.234316669
 30
0.0
 11
239.546399872
 21
96.134316123
 31
0.0
  0
ARC
  5
BA
330
1F
100
AcDbEntity
  8
0
  6
Continuous
 62
     7
100
AcDbCircle
 10
236.657196645
 20
92.68431597
 30
0.0
 40
4.489988864
100
AcDbArc
 50
3.831089424
 51
19.516393362
  0
LINE
  5
BB
330
1F
100
AcDbEntity
  8
0
  6
Continuous
 62
     7
100
AcDbLine
 10
240.889218013
 20
92.984316818
 30
0.0
 11
241.137150983
 21
92.984316818
 31
0.0
  0
ARC
  5
BC
330
1F
100
AcDbEntity
  8
0
  6
Continuous
 62
     7
100
AcDbCircle
 10
236.657196645
 20
92.68431597
 30
0.0
 40
4.242640687
100
AcDbArc
 50
355.945192772
 51
4.054807228
  0
LINE
  5
BD
330
1F
100
AcDbEntity
  8
0
  6
Continuous
 62
     7
100
AcDbLine
 10
241.137150983
 20
92.384315974
 30
0.0
 11
240.889218013
 21
92.384315974
 31
0.0
  0
ARC
  5
BE
330
1F
100
AcDbEntity
  8
0
  6
Continuous
 62
     7
100
AcDbCircle
 10
236.657196645
 20
92.68431597
 30
0.0
 40
4.489988864
100
AcDbArc
 50
340.483606639
 51
356.168910576
  0
LINE
  5
BF
330
1F
100
AcDbEntity
  8
0
  6
Continuous
 62
     7
100
AcDbLine
 10
240.89983509
 20
91.18431615
 30
0.0
 11
240.889218013
 21
91.18431615
 31
0.0
  0
LINE
  5
C0
330
1F
100
AcDbEntity
  8
0
  6
Continuous
 62
     7
100
AcDbLine
 10
240.889218013
 20
94.184316642
 30
0.0
 11
240.89983509
 21
94.184316642
 31
0.0
  0
LINE
  5
C1
330
1F
100
AcDbEntity
  8
0
  6
Continuous
 62
     7
100
AcDbLine
 10
236.20719866
 20
125.973520747
 30
0.0
 11
229.307197343
 21
125.973520747
 31
0.0
  0
ARC
  5
C2
330
1F
100
AcDbEntity
  8
0
  6
Continuous
 62
     7
100
AcDbCircle
 10
232.757196645
 20
123.08431597
 30
0.0
 40
4.489988864
100
AcDbArc
 50
93.831089424
 51
109.516393361
  0
LINE
  5
C3
330
1F
100
AcDbEntity
  8
0
  6
Continuous
 62
     7
100
AcDbLine
 10
232.457194786
 20
127.316335163
 30
0.0
 11
232.457194786
 21
127.564271859
 31
0.0
  0
ARC
  5
C4
330
1F
100
AcDbEntity
  8
0
  6
Continuous
 62
     7
100
AcDbCircle
 10
232.757196645
 20
123.08431597
 30
0.0
 40
4.242640687
100
AcDbArc
 50
85.945192772
 51
94.054807228
  0
LINE
  5
C5
330
1F
100
AcDbEntity
  8
0
  6
Continuous
 62
     7
100
AcDbLine
 10
233.057197492
 20
127.564271859
 30
0.0
 11
233.057197492
 21
127.316335163
 31
0.0
  0
ARC
  5
C6
330
1F
100
AcDbEntity
  8
0
  6
Continuous
 62
     7
100
AcDbCircle
 10
232.757196645
 20
123.08431597
 30
0.0
 40
4.489988864
100
AcDbArc
 50
70.483606639
 51
86.168910576
  0
LINE
  5
C7
330
1F
100
AcDbEntity
  8
0
  6
Continuous
 62
     7
100
AcDbLine
 10
234.257195453
 20
127.326955966
 30
0.0
 11
234.257195453
 21
127.316335163
 31
0.0
  0
LINE
  5
C8
330
1F
100
AcDbEntity
  8
0
  6
Continuous
 62
     7
100
AcDbLine
 10
231.257196824
 20
127.316335163
 30
0.0
 11
231.257196824
 21
127.326955966
 31
0.0
  0
LINE
  5
C9
330
1F
100
AcDbEntity
  8
0
  6
Continuous
 62
     7
100
AcDbLine
 10
101.467993419
 20
92.684315464
 30
0.0
 11
101.467993419
 21
89.234316669
 31
0.0
  0
LINE
  5
CA
330
1F
100
AcDbEntity
  8
0
  6
Continuous
 62
     7
100
AcDbLine
 10
101.467993419
 20
96.134316123
 30
0.0
 11
101.467993419
 21
92.684315464
 31
0.0
  0
LINE
  5
CB
330
1F
100
AcDbEntity
  8
0
  6
Continuous
 62
     7
100
AcDbLine
 10
100.125175278
 20
91.18431615
 30
0.0
 11
100.114558201
 21
91.18431615
 31
0.0
  0
ARC
  5
CC
330
1F
100
AcDbEntity
  8
0
  6
Continuous
 62
     7
100
AcDbCircle
 10
104.357196645
 20
92.68431597
 30
0.0
 40
4.489988864
100
AcDbArc
 50
183.831089424
 51
199.516393362
  0
LINE
  5
CD
330
1F
100
AcDbEntity
  8
0
  6
Continuous
 62
     7
100
AcDbLine
 10
100.125175278
 20
92.384315974
 30
0.0
 11
99.877242307
 21
92.384315974
 31
0.0
  0
ARC
  5
CE
330
1F
100
AcDbEntity
  8
0
  6
Continuous
 62
     7
100
AcDbCircle
 10
104.357196645
 20
92.68431597
 30
0.0
 40
4.242640687
100
AcDbArc
 50
175.945192772
 51
184.054807228
  0
LINE
  5
CF
330
1F
100
AcDbEntity
  8
0
  6
Continuous
 62
     7
100
AcDbLine
 10
99.877242307
 20
92.984316818
 30
0.0
 11
100.125175278
 21
92.984316818
 31
0.0
  0
ARC
  5
D0
330
1F
100
AcDbEntity
  8
0
  6
Continuous
 62
     7
100
AcDbCircle
 10
104.357196645
 20
92.68431597
 30
0.0
 40
4.489988864
100
AcDbArc
 50
160.483606638
 51
176.168910576
  0
LINE
  5
D1
330
1F
100
AcDbEntity
  8
0
  6
Continuous
 62
     7
100
AcDbLine
 10
100.114558201
 20
94.184316642
 30
0.0
 11
100.125175278
 21
94.184316642
 31
0.0
  0
LINE
  5
D2
330
1F
100
AcDbEntity
  8
0
  6
Continuous
 62
     7
100
AcDbLine
 10
108.257197152
 20
125.973520747
 30
0.0
 11
104.807194631
 21
125.973520747
 31
0.0
  0
LINE
  5
D3
330
1F
100
AcDbEntity
  8
0
  6
Continuous
 62
     7
100
AcDbLine
 10
111.707195948
 20
125.973520747
 30
0.0
 11
108.257197152
 21
125.973520747
 31
0.0
  0
LINE
  5
D4
330
1F
100
AcDbEntity
  8
0
  6
Continuous
 62
     7
100
AcDbLine
 10
106.757197838
 20
127.316335163
 30
0.0
 11
106.757197838
 21
127.326955966
 31
0.0
  0
ARC
  5
D5
330
1F
100
AcDbEntity
  8
0
  6
Continuous
 62
     7
100
AcDbCircle
 10
108.257196645
 20
123.08431597
 30
0.0
 40
4.489988864
100
AcDbArc
 50
93.831089424
 51
109.516393361
  0
LINE
  5
D6
330
1F
100
AcDbEntity
  8
0
  6
Continuous
 62
     7
100
AcDbLine
 10
107.957195799
 20
127.316335163
 30
0.0
 11
107.957195799
 21
127.564271859
 31
0.0
  0
ARC
  5
D7
330
1F
100
AcDbEntity
  8
0
  6
Continuous
 62
     7
100
AcDbCircle
 10
108.257196645
 20
123.08431597
 30
0.0
 40
4.242640687
100
AcDbArc
 50
85.945192772
 51
94.054807228
  0
LINE
  5
D8
330
1F
100
AcDbEntity
  8
0
  6
Continuous
 62
     7
100
AcDbLine
 10
108.557198505
 20
127.564271859
 30
0.0
 11
108.557198505
 21
127.316335163
 31
0.0
  0
ARC
  5
D9
330
1F
100
AcDbEntity
  8
0
  6
Continuous
 62
     7
100
AcDbCircle
 10
108.257196645
 20
123.08431597
 30
0.0
 40
4.489988864
100
AcDbArc
 50
70.483606639
 51
86.168910576
  0
LINE
  5
DA
330
1F
100
AcDbEntity
  8
0
  6
Continuous
 62
     7
100
AcDbLine
 10
109.757196467
 20
127.326955966
 30
0.0
 11
109.757196467
 21
127.316335163
 31
0.0
  0
LINE
  5
DB
330
1F
100
AcDbEntity
  8
0
  6
Continuous
 62
     7
100
AcDbLine
 10
238.157194416
 20
125.684315286
 30
0.0
 11
102.857198875
 21
125.684315286
 31
0.0
  0
LINE
  5
DC
330
1F
100
AcDbEntity
  8
0
  6
Continuous
 62
     7
100
AcDbLine
 10
238.157194416
 20
124.684316984
 30
0.0
 11
238.157194416
 21
125.684315286
 31
0.0
  0
LINE
  5
DD
330
1F
100
AcDbEntity
  8
0
  6
Continuous
 62
     7
100
AcDbLine
 10
102.857198875
 20
124.684316984
 30
0.0
 11
102.857198875
 21
125.684315286
 31
0.0
  0
LINE
  5
DE
330
1F
100
AcDbEntity
  8
0
  6
Continuous
 62
     7
100
AcDbLine
 10
102.757197182
 20
30.684316478
 30
0.0
 11
238.257196109
 21
30.684316478
 31
0.0
  0
ARC
  5
DF
330
1F
100
AcDbEntity
  8
0
  6
Continuous
 62
     7
100
AcDbCircle
 10
116.257196645
 20
43.68431597
 30
0.0
 40
5.0
100
AcDbArc
 50
180.0
 51
270.0
  0
LINE
  5
E0
330
1F
100
AcDbEntity
  8
0
  6
Continuous
 62
     7
100
AcDbLine
 10
116.257198463
 20
38.684317789
 30
0.0
 11
224.757194828
 21
38.684317789
 31
0.0
  0
ARC
  5
E1
330
1F
100
AcDbEntity
  8
0
  6
Continuous
 62
     7
100
AcDbCircle
 10
224.757196645
 20
43.68431597
 30
0.0
 40
5.0
100
AcDbArc
 50
270.0
 51
0.0
  0
LINE
  5
E2
330
1F
100
AcDbEntity
  8
0
  6
Continuous
 62
     7
100
AcDbLine
 10
229.75719751
 20
43.684316746
 30
0.0
 11
229.75719751
 21
111.684316716
 31
0.0
  0
ARC
  5
E3
330
1F
100
AcDbEntity
  8
0
  6
Continuous
 62
     7
100
AcDbCircle
 10
224.757196645
 20
111.68431597
 30
0.0
 40
5.0
100
AcDbArc
 50
0.0
 51
90.0
  0
LINE
  5
E4
330
1F
100
AcDbEntity
  8
0
  6
Continuous
 62
     7
100
AcDbLine
 10
224.757194828
 20
116.684315673
 30
0.0
 11
116.257198463
 21
116.684315673
 31
0.0
  0
ARC
  5
E5
330
1F
100
AcDbEntity
  8
0
  6
Continuous
 62
     7
100
AcDbCircle
 10
116.257196645
 20
111.68431597
 30
0.0
 40
5.0
100
AcDbArc
 50
90.0
 51
180.0
  0
LINE
  5
E6
330
1F
100
AcDbEntity
  8
0
  6
Continuous
 62
     7
100
AcDbLine
 10
111.257195781
 20
111.684316716
 30
0.0
 11
111.257195781
 21
43.684316746
 31
0.0
  0
LINE
  5
E7
330
1F
100
AcDbEntity
  8
0
  6
Continuous
 62
     7
100
AcDbLine
 10
238.157194416
 20
124.684316984
 30
0.0
 11
238.257196109
 21
124.684316984
 31
0.0
  0
LINE
  5
E8
330
1F
100
AcDbEntity
  8
0
  6
Continuous
 62
     7
100
AcDbLine
 10
102.757197182
 20
124.684316984
 30
0.0
 11
102.857198875
 21
124.684316984
 31
0.0
  0
LINE
  5
E9
330
1F
100
AcDbEntity
  8
0
  6
Continuous
 62
     7
100
AcDbLine
 10
238.257196109
 20
30.684316478
 30
0.0
 11
239.257198136
 21
30.684316478
 31
0.0
  0
LINE
  5
EA
330
1F
100
AcDbEntity
  8
0
  6
Continuous
 62
     7
100
AcDbLine
 10
239.257198136
 20
30.684316478
 30
0.0
 11
239.257198136
 21
124.684316984
 31
0.0
  0
LINE
  5
EB
330
1F
100
AcDbEntity
  8
0
  6
Continuous
 62
     7
100
AcDbLine
 10
239.257198136
 20
124.684316984
 30
0.0
 11
238.257196109
 21
124.684316984
 31
0.0
  0
LINE
  5
EC
330
1F
100
AcDbEntity
  8
0
  6
Continuous
 62
     7
100
AcDbLine
 10
101.757195155
 20
124.684316984
 30
0.0
 11
101.757195155
 21
30.684316478
 31
0.0
  0
LINE
  5
ED
330
1F
100
AcDbEntity
  8
0
  6
Continuous
 62
     7
100
AcDbLine
 10
102.757197182
 20
30.684316478
 30
0.0
 11
101.757195155
 21
30.684316478
 31
0.0
  0
LINE
  5
EE
330
1F
100
AcDbEntity
  8
0
  6
Continuous
 62
     7
100
AcDbLine
 10
102.757197182
 20
124.684316984
 30
0.0
 11
101.757195155
 21
124.684316984
 31
0.0
  0
LINE
  5
EF
330
1F
100
AcDbEntity
  8
0
  6
Continuous
 62
     7
100
AcDbLine
 10
101.757195155
 20
125.684315286
 30
0.0
 11
102.757197182
 21
125.684315286
 31
0.0
  0
LINE
  5
F0
330
1F
100
AcDbEntity
  8
0
  6
Continuous
 62
     7
100
AcDbLine
 10
102.757197182
 20
125.684315286
 30
0.0
 11
102.757197182
 21
124.684316984
 31
0.0
  0
LINE
  5
F1
330
1F
100
AcDbEntity
  8
0
  6
Continuous
 62
     7
100
AcDbLine
 10
101.757195155
 20
124.684316984
 30
0.0
 11
101.757195155
 21
125.684315286
 31
0.0
  0
LINE
  5
F2
330
1F
100
AcDbEntity
  8
0
  6
Continuous
 62
     7
100
AcDbLine
 10
238.257196109
 20
125.684315286
 30
0.0
 11
239.257198136
 21
125.684315286
 31
0.0
  0
LINE
  5
F3
330
1F
100
AcDbEntity
  8
0
  6
Continuous
 62
     7
100
AcDbLine
 10
238.257196109
 20
124.684316984
 30
0.0
 11
238.257196109
 21
125.684315286
 31
0.0
  0
LINE
  5
F4
330
1F
100
AcDbEntity
  8
0
  6
Continuous
 62
     7
100
AcDbLine
 10
239.257198136
 20
125.684315286
 30
0.0
 11
239.257198136
 21
124.684316984
 31
0.0
  0
ARC
  5
F5
330
1F
100
AcDbEntity
  8
0
  6
Continuous
 62
     7
100
AcDbCircle
 10
356.49129127
 20
123.08431597
 30
0.0
 40
4.5
100
AcDbArc
 50
109.471220635
 51
140.05549481
  0
ARC
  5
F6
330
1F
100
AcDbEntity
  8
0
  6
Continuous
 62
     7
100
AcDbCircle
 10
356.49129127
 20
123.08431597
 30
0.0
 40
4.5
100
AcDbArc
 50
39.94450519
 51
70.528779366
  0
LINE
  5
F7
330
1F
100
AcDbEntity
  8
0
  6
Continuous
 62
     7
100
AcDbLine
 10
359.94129123
 20
125.684315286
 30
0.0
 11
359.94129123
 21
125.973520747
 31
0.0
  0
LINE
  5
F8
330
1F
100
AcDbEntity
  8
0
  6
Continuous
 62
     7
100
AcDbLine
 10
353.04129131
 20
125.973520747
 30
0.0
 11
353.04129131
 21
125.684315286
 31
0.0
  0
CIRCLE
  5
F9
330
1F
100
AcDbEntity
  8
0
  6
Continuous
 62
     7
100
AcDbCircle
 10
356.49129127
 20
92.68431597
 30
0.0
 40
3.45
  0
LINE
  5
FA
330
1F
100
AcDbEntity
  8
0
  6
Continuous
 62
     7
100
AcDbLine
 10
356.191291256
 20
92.984316818
 30
0.0
 11
356.191291256
 21
94.184316642
 31
0.0
  0
LINE
  5
FB
330
1F
100
AcDbEntity
  8
0
  6
Continuous
 62
     7
100
AcDbLine
 10
354.991291257
 20
92.984316818
 30
0.0
 11
356.191291256
 21
92.984316818
 31
0.0
  0
LINE
  5
FC
330
1F
100
AcDbEntity
  8
0
  6
Continuous
 62
     7
100
AcDbLine
 10
354.991291257
 20
92.384315974
 30
0.0
 11
354.991291257
 21
92.984316818
 31
0.0
  0
LINE
  5
FD
330
1F
100
AcDbEntity
  8
0
  6
Continuous
 62
     7
100
AcDbLine
 10
356.191291256
 20
92.384315974
 30
0.0
 11
354.991291257
 21
92.384315974
 31
0.0
  0
LINE
  5
FE
330
1F
100
AcDbEntity
  8
0
  6
Continuous
 62
     7
100
AcDbLine
 10
356.191291256
 20
91.18431615
 30
0.0
 11
356.191291256
 21
92.384315974
 31
0.0
  0
LINE
  5
FF
330
1F
100
AcDbEntity
  8
0
  6
Continuous
 62
     7
100
AcDbLine
 10
356.791291285
 20
91.18431615
 30
0.0
 11
356.191291256
 21
91.18431615
 31
0.0
  0
LINE
  5
100
330
1F
100
AcDbEntity
  8
0
  6
Continuous
 62
     7
100
AcDbLine
 10
356.791291285
 20
92.384315974
 30
0.0
 11
356.791291285
 21
91.18431615
 31
0.0
  0
LINE
  5
101
330
1F
100
AcDbEntity
  8
0
  6
Continuous
 62
     7
100
AcDbLine
 10
357.991291283
 20
92.384315974
 30
0.0
 11
356.791291285
 21
92.384315974
 31
0.0
  0
LINE
  5
102
330
1F
100
AcDbEntity
  8
0
  6
Continuous
 62
     7
100
AcDbLine
 10
357.991291283
 20
92.984316818
 30
0.0
 11
357.991291283
 21
92.384315974
 31
0.0
  0
LINE
  5
103
330
1F
100
AcDbEntity
  8
0
  6
Continuous
 62
     7
100
AcDbLine
 10
356.791291285
 20
92.984316818
 30
0.0
 11
357.991291283
 21
92.984316818
 31
0.0
  0
LINE
  5
104
330
1F
100
AcDbEntity
  8
0
  6
Continuous
 62
     7
100
AcDbLine
 10
356.791291285
 20
94.184316642
 30
0.0
 11
356.791291285
 21
92.984316818
 31
0.0
  0
LINE
  5
105
330
1F
100
AcDbEntity
  8
0
  6
Continuous
 62
     7
100
AcDbLine
 10
356.191291256
 20
94.184316642
 30
0.0
 11
356.791291285
 21
94.184316642
 31
0.0
  0
LINE
  5
106
330
1F
100
AcDbEntity
  8
0
  6
Continuous
 62
     7
100
AcDbLine
 10
359.94129123
 20
125.973520747
 30
0.0
 11
353.04129131
 21
125.973520747
 31
0.0
  0
LINE
  5
107
330
1F
100
AcDbEntity
  8
0
  6
Continuous
 62
     7
100
AcDbLine
 10
354.991291257
 20
127.316335163
 30
0.0
 11
354.991291257
 21
127.326955966
 31
0.0
  0
ARC
  5
108
330
1F
100
AcDbEntity
  8
0
  6
Continuous
 62
     7
100
AcDbCircle
 10
356.49129127
 20
123.08431597
 30
0.0
 40
4.489988864
100
AcDbArc
 50
93.831089424
 51
109.516393361
  0
LINE
  5
109
330
1F
100
AcDbEntity
  8
0
  6
Continuous
 62
     7
100
AcDbLine
 10
356.191291256
 20
127.316335163
 30
0.0
 11
356.191291256
 21
127.564271859
 31
0.0
  0
ARC
  5
10A
330
1F
100
AcDbEntity
  8
0
  6
Continuous
 62
     7
100
AcDbCircle
 10
356.49129127
 20
123.08431597
 30
0.0
 40
4.242640687
100
AcDbArc
 50
85.945192772
 51
94.054807228
  0
LINE
  5
10B
330
1F
100
AcDbEntity
  8
0
  6
Continuous
 62
     7
100
AcDbLine
 10
356.791291285
 20
127.564271859
 30
0.0
 11
356.791291285
 21
127.316335163
 31
0.0
  0
ARC
  5
10C
330
1F
100
AcDbEntity
  8
0
  6
Continuous
 62
     7
100
AcDbCircle
 10
356.49129127
 20
123.08431597
 30
0.0
 40
4.489988864
100
AcDbArc
 50
70.483606639
 51
86.168910576
  0
LINE
  5
10D
330
1F
100
AcDbEntity
  8
0
  6
Continuous
 62
     7
100
AcDbLine
 10
357.991291283
 20
127.326955966
 30
0.0
 11
357.991291283
 21
127.316335163
 31
0.0
  0
ARC
  5
10E
330
1F
100
AcDbEntity
  8
0
  6
Continuous
 62
     7
100
AcDbCircle
 10
290.49129127
 20
124.68431597
 30
0.0
 40
1.0
100
AcDbArc
 50
90.0
 51
180.0
  0
LINE
  5
10F
330
1F
100
AcDbEntity
  8
0
  6
Continuous
 62
     7
100
AcDbLine
 10
290.491291628
 20
125.684315286
 30
0.0
 11
365.491290883
 21
125.684315286
 31
0.0
  0
LINE
  5
110
330
1F
100
AcDbEntity
  8
0
  6
Continuous
 62
     7
100
AcDbLine
 10
361.491291159
 20
78.184315882
 30
0.0
 11
341.491291606
 21
78.184315882
 31
0.0
  0
ARC
  5
111
330
1F
100
AcDbEntity
  8
0
  6
Continuous
 62
     7
100
AcDbCircle
 10
341.49129127
 20
73.18431597
 30
0.0
 40
5.0
100
AcDbArc
 50
90.0
 51
180.0
  0
LINE
  5
112
330
1F
100
AcDbEntity
  8
0
  6
Continuous
 62
     7
100
AcDbLine
 10
336.491291717
 20
73.184315964
 30
0.0
 11
336.491291717
 21
35.684315435
 31
0.0
  0
ARC
  5
113
330
1F
100
AcDbEntity
  8
0
  6
Continuous
 62
     7
100
AcDbCircle
 10
331.49129127
 20
35.68431597
 30
0.0
 40
5.0
100
AcDbArc
 50
270.0
 51
0.0
  0
LINE
  5
114
330
1F
100
AcDbEntity
  8
0
  6
Continuous
 62
     7
100
AcDbLine
 10
331.491290898
 20
30.684316478
 30
0.0
 11
289.491289601
 21
30.684316478
 31
0.0
  0
ARC
  5
115
330
1F
100
AcDbEntity
  8
0
  6
Continuous
 62
     7
100
AcDbCircle
 10
365.49129127
 20
124.68431597
 30
0.0
 40
1.0
100
AcDbArc
 50
0.0
 51
90.0
  0
ARC
  5
116
330
1F
100
AcDbEntity
  8
0
  6
Continuous
 62
     7
100
AcDbCircle
 10
361.49129127
 20
83.18431597
 30
0.0
 40
5.0
100
AcDbArc
 50
270.0
 51
0.0
  0
LINE
  5
117
330
1F
100
AcDbEntity
  8
0
  6
Continuous
 62
     7
100
AcDbLine
 10
366.491291047
 20
124.684316984
 30
0.0
 11
366.491291047
 21
83.18431577
 31
0.0
  0
LINE
  5
118
330
1F
100
AcDbEntity
  8
0
  6
Continuous
 62
     7
100
AcDbLine
 10
288.491287575
 20
30.684316478
 30
0.0
 11
288.491287575
 21
124.684316984
 31
0.0
  0
LINE
  5
119
330
1F
100
AcDbEntity
  8
0
  6
Continuous
 62
     7
100
AcDbLine
 10
289.491289601
 20
124.684316984
 30
0.0
 11
288.491287575
 21
124.684316984
 31
0.0
  0
LINE
  5
11A
330
1F
100
AcDbEntity
  8
0
  6
Continuous
 62
     7
100
AcDbLine
 10
288.491287575
 20
30.684316478
 30
0.0
 11
289.491289601
 21
30.684316478
 31
0.0
  0
LINE
  5
11B
330
1F
100
AcDbEntity
  8
0
  6
Continuous
 62
     7
100
AcDbLine
 10
290.491291628
 20
125.684315286
 30
0.0
 11
289.491289601
 21
125.684315286
 31
0.0
  0
ARC
  5
11C
330
1F
100
AcDbEntity
  8
0
  6
Continuous
 62
     7
100
AcDbCircle
 10
289.49129127
 20
124.68431597
 30
0.0
 40
1.0
100
AcDbArc
 50
90.0
 51
180.0
  0
LINE
  5
11D
330
1F
100
AcDbEntity
  8
0
  6
Continuous
 62
     7
100
AcDbLine
 10
366.491291047
 20
125.684315286
 30
0.0
 11
366.491291047
 21
124.684316984
 31
0.0
  0
LINE
  5
11E
330
1F
100
AcDbEntity
  8
0
  6
Continuous
 62
     7
100
AcDbLine
 10
365.491290883
 20
125.684315286
 30
0.0
 11
366.491291047
 21
125.684315286
 31
0.0
  0
LINE
  5
11F
330
1F
100
AcDbEntity
  8
0
  6
Continuous
 62
     7
100
AcDbLine
 10
239.257198136
 20
238.888804142
 30
0.0
 11
239.546399872
 21
238.888804142
 31
0.0
  0
LINE
  5
120
330
1F
100
AcDbEntity
  8
0
  6
Continuous
 62
     7
100
AcDbLine
 10
239.546399872
 20
245.788804062
 30
0.0
 11
239.257198136
 21
245.788804062
 31
0.0
  0
ARC
  5
121
330
1F
100
AcDbEntity
  8
0
  6
Continuous
 62
     7
100
AcDbCircle
 10
236.657196645
 20
242.338804102
 30
0.0
 40
4.5
100
AcDbArc
 50
19.471220635
 51
50.05549481
  0
ARC
  5
122
330
1F
100
AcDbEntity
  8
0
  6
Continuous
 62
     7
100
AcDbCircle
 10
236.657196645
 20
242.338804102
 30
0.0
 40
4.5
100
AcDbArc
 50
309.94450519
 51
340.528779365
  0
LINE
  5
123
330
1F
100
AcDbEntity
  8
0
  6
Continuous
 62
     7
100
AcDbLine
 10
101.757195155
 20
245.788804062
 30
0.0
 11
101.467993419
 21
245.788804062
 31
0.0
  0
LINE
  5
124
330
1F
100
AcDbEntity
  8
0
  6
Continuous
 62
     7
100
AcDbLine
 10
101.467993419
 20
238.888804142
 30
0.0
 11
101.757195155
 21
238.888804142
 31
0.0
  0
ARC
  5
125
330
1F
100
AcDbEntity
  8
0
  6
Continuous
 62
     7
100
AcDbCircle
 10
104.357196645
 20
242.338804102
 30
0.0
 40
4.5
100
AcDbArc
 50
199.471220635
 51
230.05549481
  0
ARC
  5
126
330
1F
100
AcDbEntity
  8
0
  6
Continuous
 62
     7
100
AcDbCircle
 10
104.357196645
 20
242.338804102
 30
0.0
 40
4.5
100
AcDbArc
 50
129.94450519
 51
160.528779366
  0
LINE
  5
127
330
1F
100
AcDbEntity
  8
0
  6
Continuous
 62
     7
100
AcDbLine
 10
239.546399872
 20
238.888804142
 30
0.0
 11
239.546399872
 21
245.788804062
 31
0.0
  0
LINE
  5
128
330
1F
100
AcDbEntity
  8
0
  6
Continuous
 62
     7
100
AcDbLine
 10
241.137150983
 20
242.038804088
 30
0.0
 11
240.889218013
 21
242.038804088
 31
0.0
  0
ARC
  5
129
330
1F
100
AcDbEntity
  8
0
  6
Continuous
 62
     7
100
AcDbCircle
 10
236.657196645
 20
242.338804102
 30
0.0
 40
4.489988864
100
AcDbArc
 50
340.483606639
 51
356.168910576
  0
LINE
  5
12A
330
1F
100
AcDbEntity
  8
0
  6
Continuous
 62
     7
100
AcDbLine
 10
240.89983509
 20
240.838804089
 30
0.0
 11
240.889218013
 21
240.838804089
 31
0.0
  0
LINE
  5
12B
330
1F
100
AcDbEntity
  8
0
  6
Continuous
 62
     7
100
AcDbLine
 10
240.889218013
 20
243.838804115
 30
0.0
 11
240.89983509
 21
243.838804115
 31
0.0
  0
ARC
  5
12C
330
1F
100
AcDbEntity
  8
0
  6
Continuous
 62
     7
100
AcDbCircle
 10
236.657196645
 20
242.338804102
 30
0.0
 40
4.489988864
100
AcDbArc
 50
3.831089424
 51
19.516393362
  0
LINE
  5
12D
330
1F
100
AcDbEntity
  8
0
  6
Continuous
 62
     7
100
AcDbLine
 10
240.889218013
 20
242.638804116
 30
0.0
 11
241.137150983
 21
242.638804116
 31
0.0
  0
ARC
  5
12E
330
1F
100
AcDbEntity
  8
0
  6
Continuous
 62
     7
100
AcDbCircle
 10
236.657196645
 20
242.338804102
 30
0.0
 40
4.242640687
100
AcDbArc
 50
355.945192772
 51
4.054807228
  0
CIRCLE
  5
12F
330
1F
100
AcDbEntity
  8
0
  6
Continuous
 62
     7
100
AcDbCircle
 10
232.757196645
 20
242.338804102
 30
0.0
 40
3.45
  0
LINE
  5
130
330
1F
100
AcDbEntity
  8
0
  6
Continuous
 62
     7
100
AcDbLine
 10
232.457194786
 20
242.038804088
 30
0.0
 11
231.257196824
 21
242.038804088
 31
0.0
  0
LINE
  5
131
330
1F
100
AcDbEntity
  8
0
  6
Continuous
 62
     7
100
AcDbLine
 10
232.457194786
 20
240.838804089
 30
0.0
 11
232.457194786
 21
242.038804088
 31
0.0
  0
LINE
  5
132
330
1F
100
AcDbEntity
  8
0
  6
Continuous
 62
     7
100
AcDbLine
 10
233.057197492
 20
240.838804089
 30
0.0
 11
232.457194786
 21
240.838804089
 31
0.0
  0
LINE
  5
133
330
1F
100
AcDbEntity
  8
0
  6
Continuous
 62
     7
100
AcDbLine
 10
233.057197492
 20
242.038804088
 30
0.0
 11
233.057197492
 21
240.838804089
 31
0.0
  0
LINE
  5
134
330
1F
100
AcDbEntity
  8
0
  6
Continuous
 62
     7
100
AcDbLine
 10
234.257195453
 20
242.038804088
 30
0.0
 11
233.057197492
 21
242.038804088
 31
0.0
  0
LINE
  5
135
330
1F
100
AcDbEntity
  8
0
  6
Continuous
 62
     7
100
AcDbLine
 10
234.257195453
 20
242.638804116
 30
0.0
 11
234.257195453
 21
242.038804088
 31
0.0
  0
LINE
  5
136
330
1F
100
AcDbEntity
  8
0
  6
Continuous
 62
     7
100
AcDbLine
 10
233.057197492
 20
242.638804116
 30
0.0
 11
234.257195453
 21
242.638804116
 31
0.0
  0
LINE
  5
137
330
1F
100
AcDbEntity
  8
0
  6
Continuous
 62
     7
100
AcDbLine
 10
233.057197492
 20
243.838804115
 30
0.0
 11
233.057197492
 21
242.638804116
 31
0.0
  0
LINE
  5
138
330
1F
100
AcDbEntity
  8
0
  6
Continuous
 62
     7
100
AcDbLine
 10
232.457194786
 20
243.838804115
 30
0.0
 11
233.057197492
 21
243.838804115
 31
0.0
  0
LINE
  5
139
330
1F
100
AcDbEntity
  8
0
  6
Continuous
 62
     7
100
AcDbLine
 10
232.457194786
 20
242.638804116
 30
0.0
 11
232.457194786
 21
243.838804115
 31
0.0
  0
LINE
  5
13A
330
1F
100
AcDbEntity
  8
0
  6
Continuous
 62
     7
100
AcDbLine
 10
231.257196824
 20
242.638804116
 30
0.0
 11
232.457194786
 21
242.638804116
 31
0.0
  0
LINE
  5
13B
330
1F
100
AcDbEntity
  8
0
  6
Continuous
 62
     7
100
AcDbLine
 10
231.257196824
 20
242.038804088
 30
0.0
 11
231.257196824
 21
242.638804116
 31
0.0
  0
LINE
  5
13C
330
1F
100
AcDbEntity
  8
0
  6
Continuous
 62
     7
100
AcDbLine
 10
101.467993419
 20
245.788804062
 30
0.0
 11
101.467993419
 21
238.888804142
 31
0.0
  0
LINE
  5
13D
330
1F
100
AcDbEntity
  8
0
  6
Continuous
 62
     7
100
AcDbLine
 10
99.877242307
 20
242.638804116
 30
0.0
 11
100.125175278
 21
242.638804116
 31
0.0
  0
ARC
  5
13E
330
1F
100
AcDbEntity
  8
0
  6
Continuous
 62
     7
100
AcDbCircle
 10
104.357196645
 20
242.338804102
 30
0.0
 40
4.489988864
100
AcDbArc
 50
160.483606638
 51
176.168910576
  0
LINE
  5
13F
330
1F
100
AcDbEntity
  8
0
  6
Continuous
 62
     7
100
AcDbLine
 10
100.114558201
 20
243.838804115
 30
0.0
 11
100.125175278
 21
243.838804115
 31
0.0
  0
LINE
  5
140
330
1F
100
AcDbEntity
  8
0
  6
Continuous
 62
     7
100
AcDbLine
 10
100.125175278
 20
240.838804089
 30
0.0
 11
100.114558201
 21
240.838804089
 31
0.0
  0
ARC
  5
141
330
1F
100
AcDbEntity
  8
0
  6
Continuous
 62
     7
100
AcDbCircle
 10
104.357196645
 20
242.338804102
 30
0.0
 40
4.489988864
100
AcDbArc
 50
183.831089424
 51
199.516393362
  0
LINE
  5
142
330
1F
100
AcDbEntity
  8
0
  6
Continuous
 62
     7
100
AcDbLine
 10
100.125175278
 20
242.038804088
 30
0.0
 11
99.877242307
 21
242.038804088
 31
0.0
  0
ARC
  5
143
330
1F
100
AcDbEntity
  8
0
  6
Continuous
 62
     7
100
AcDbCircle
 10
104.357196645
 20
242.338804102
 30
0.0
 40
4.242640687
100
AcDbArc
 50
175.945192772
 51
184.054807228
  0
CIRCLE
  5
144
330
1F
100
AcDbEntity
  8
0
  6
Continuous
 62
     7
100
AcDbCircle
 10
108.257196645
 20
242.338804102
 30
0.0
 40
3.45
  0
LINE
  5
145
330
1F
100
AcDbEntity
  8
0
  6
Continuous
 62
     7
100
AcDbLine
 10
108.557198505
 20
242.638804116
 30
0.0
 11
109.757196467
 21
242.638804116
 31
0.0
  0
LINE
  5
146
330
1F
100
AcDbEntity
  8
0
  6
Continuous
 62
     7
100
AcDbLine
 10
108.557198505
 20
243.838804115
 30
0.0
 11
108.557198505
 21
242.638804116
 31
0.0
  0
LINE
  5
147
330
1F
100
AcDbEntity
  8
0
  6
Continuous
 62
     7
100
AcDbLine
 10
107.957195799
 20
243.838804115
 30
0.0
 11
108.557198505
 21
243.838804115
 31
0.0
  0
LINE
  5
148
330
1F
100
AcDbEntity
  8
0
  6
Continuous
 62
     7
100
AcDbLine
 10
107.957195799
 20
242.638804116
 30
0.0
 11
107.957195799
 21
243.838804115
 31
0.0
  0
LINE
  5
149
330
1F
100
AcDbEntity
  8
0
  6
Continuous
 62
     7
100
AcDbLine
 10
106.757197838
 20
242.638804116
 30
0.0
 11
107.957195799
 21
242.638804116
 31
0.0
  0
LINE
  5
14A
330
1F
100
AcDbEntity
  8
0
  6
Continuous
 62
     7
100
AcDbLine
 10
106.757197838
 20
242.038804088
 30
0.0
 11
106.757197838
 21
242.638804116
 31
0.0
  0
LINE
  5
14B
330
1F
100
AcDbEntity
  8
0
  6
Continuous
 62
     7
100
AcDbLine
 10
107.957195799
 20
242.038804088
 30
0.0
 11
106.757197838
 21
242.038804088
 31
0.0
  0
LINE
  5
14C
330
1F
100
AcDbEntity
  8
0
  6
Continuous
 62
     7
100
AcDbLine
 10
107.957195799
 20
240.838804089
 30
0.0
 11
107.957195799
 21
242.038804088
 31
0.0
  0
LINE
  5
14D
330
1F
100
AcDbEntity
  8
0
  6
Continuous
 62
     7
100
AcDbLine
 10
108.557198505
 20
240.838804089
 30
0.0
 11
107.957195799
 21
240.838804089
 31
0.0
  0
LINE
  5
14E
330
1F
100
AcDbEntity
  8
0
  6
Continuous
 62
     7
100
AcDbLine
 10
108.557198505
 20
242.038804088
 30
0.0
 11
108.557198505
 21
240.838804089
 31
0.0
  0
LINE
  5
14F
330
1F
100
AcDbEntity
  8
0
  6
Continuous
 62
     7
100
AcDbLine
 10
109.757196467
 20
242.038804088
 30
0.0
 11
108.557198505
 21
242.038804088
 31
0.0
  0
LINE
  5
150
330
1F
100
AcDbEntity
  8
0
  6
Continuous
 62
     7
100
AcDbLine
 10
109.757196467
 20
242.638804116
 30
0.0
 11
109.757196467
 21
242.038804088
 31
0.0
  0
LINE
  5
151
330
1F
100
AcDbEntity
  8
0
  6
Continuous
 62
     7
100
AcDbLine
 10
102.757197182
 20
237.388804129
 30
0.0
 11
102.857198875
 21
237.388804129
 31
0.0
  0
LINE
  5
152
330
1F
100
AcDbEntity
  8
0
  6
Continuous
 62
     7
100
AcDbLine
 10
102.757197182
 20
247.288804075
 30
0.0
 11
102.857198875
 21
247.288804075
 31
0.0
  0
LWPOLYLINE
  5
154
330
1F
100
AcDbEntity
  8
0
  6
Continuous
 62
     7
100
AcDbPolyline
 90
     3
 70
   128
 43
0.0
 10
102.757197182
 20
250.088803975
 10
102.795627277
 20
250.478984362
 10
102.857198875
 20
250.71330419
  0
LWPOLYLINE
  5
156
330
1F
100
AcDbEntity
  8
0
  6
Continuous
 62
     7
100
AcDbPolyline
 90
     3
 70
   128
 43
0.0
 10
102.757197182
 20
234.588804229
 10
102.795627277
 20
234.198623842
 10
102.857198875
 20
233.964304013
  0
LINE
  5
157
330
1F
100
AcDbEntity
  8
0
  6
Continuous
 62
     7
100
AcDbLine
 10
238.257196109
 20
247.288804075
 30
0.0
 11
238.157194416
 21
247.288804075
 31
0.0
  0
LINE
  5
158
330
1F
100
AcDbEntity
  8
0
  6
Continuous
 62
     7
100
AcDbLine
 10
238.257196109
 20
237.388804129
 30
0.0
 11
238.157194416
 21
237.388804129
 31
0.0
  0
LWPOLYLINE
  5
15A
330
1F
100
AcDbEntity
  8
0
  6
Continuous
 62
     7
100
AcDbPolyline
 90
     3
 70
   128
 43
0.0
 10
238.257196109
 20
250.088803975
 10
238.218766014
 20
250.478984362
 10
238.157194416
 20
250.71330419
  0
LWPOLYLINE
  5
15C
330
1F
100
AcDbEntity
  8
0
  6
Continuous
 62
     7
100
AcDbPolyline
 90
     3
 70
   128
 43
0.0
 10
238.257196109
 20
234.588804229
 10
238.218766014
 20
234.198623842
 10
238.157194416
 20
233.964304013
  0
LINE
  5
15D
330
1F
100
AcDbEntity
  8
0
  6
Continuous
 62
     7
100
AcDbLine
 10
238.157194416
 20
174.338800406
 30
0.0
 11
238.157194416
 21
175.338802433
 31
0.0
  0
LINE
  5
15E
330
1F
100
AcDbEntity
  8
0
  6
Continuous
 62
     7
100
AcDbLine
 10
238.157194416
 20
174.338800406
 30
0.0
 11
102.857198875
 21
174.338800406
 31
0.0
  0
LINE
  5
15F
330
1F
100
AcDbEntity
  8
0
  6
Continuous
 62
     7
100
AcDbLine
 10
102.857198875
 20
174.338800406
 30
0.0
 11
102.857198875
 21
175.338802433
 31
0.0
  0
ARC
  5
160
330
1F
100
AcDbEntity
  8
0
  6
Continuous
 62
     7
100
AcDbCircle
 10
103.857196645
 20
251.338804102
 30
0.0
 40
1.0
100
AcDbArc
 50
90.0
 51
180.0
  0
LINE
  5
161
330
1F
100
AcDbEntity
  8
0
  6
Continuous
 62
     7
100
AcDbLine
 10
103.857193451
 20
252.338803878
 30
0.0
 11
237.15719984
 21
252.338803878
 31
0.0
  0
ARC
  5
162
330
1F
100
AcDbEntity
  8
0
  6
Continuous
 62
     7
100
AcDbCircle
 10
237.157196645
 20
251.338804102
 30
0.0
 40
1.0
100
AcDbArc
 50
0.0
 51
90.0
  0
LINE
  5
163
330
1F
100
AcDbEntity
  8
0
  6
Continuous
 62
     7
100
AcDbLine
 10
238.157194416
 20
251.338803714
 30
0.0
 11
238.157194416
 21
175.338802433
 31
0.0
  0
LINE
  5
164
330
1F
100
AcDbEntity
  8
0
  6
Continuous
 62
     7
100
AcDbLine
 10
102.857198875
 20
175.338802433
 30
0.0
 11
102.857198875
 21
251.338803714
 31
0.0
  0
LINE
  5
165
330
1F
100
AcDbEntity
  8
0
  6
Continuous
 62
     7
100
AcDbLine
 10
239.257198136
 20
176.338804459
 30
0.0
 11
239.257198136
 21
251.338803714
 31
0.0
  0
LINE
  5
166
330
1F
100
AcDbEntity
  8
0
  6
Continuous
 62
     7
100
AcDbLine
 10
238.257196109
 20
176.338804459
 30
0.0
 11
238.257196109
 21
251.338803714
 31
0.0
  0
LINE
  5
167
330
1F
100
AcDbEntity
  8
0
  6
Continuous
 62
     7
100
AcDbLine
 10
102.757197182
 20
251.338803714
 30
0.0
 11
102.757197182
 21
176.338804459
 31
0.0
  0
LINE
  5
168
330
1F
100
AcDbEntity
  8
0
  6
Continuous
 62
     7
100
AcDbLine
 10
101.757195155
 20
251.338803714
 30
0.0
 11
101.757195155
 21
176.338804459
 31
0.0
  0
LINE
  5
169
330
1F
100
AcDbEntity
  8
0
  6
Continuous
 62
     7
100
AcDbLine
 10
238.257196109
 20
252.338803878
 30
0.0
 11
239.257198136
 21
252.338803878
 31
0.0
  0
LINE
  5
16A
330
1F
100
AcDbEntity
  8
0
  6
Continuous
 62
     7
100
AcDbLine
 10
239.257198136
 20
252.338803878
 30
0.0
 11
239.257198136
 21
251.338803714
 31
0.0
  0
LINE
  5
16B
330
1F
100
AcDbEntity
  8
0
  6
Continuous
 62
     7
100
AcDbLine
 10
238.257196109
 20
251.338803714
 30
0.0
 11
238.257196109
 21
252.338803878
 31
0.0
  0
LINE
  5
16C
330
1F
100
AcDbEntity
  8
0
  6
Continuous
 62
     7
100
AcDbLine
 10
101.757195155
 20
252.338803878
 30
0.0
 11
102.757197182
 21
252.338803878
 31
0.0
  0
LINE
  5
16D
330
1F
100
AcDbEntity
  8
0
  6
Continuous
 62
     7
100
AcDbLine
 10
102.757197182
 20
252.338803878
 30
0.0
 11
102.757197182
 21
251.338803714
 31
0.0
  0
LINE
  5
16E
330
1F
100
AcDbEntity
  8
0
  6
Continuous
 62
     7
100
AcDbLine
 10
101.757195155
 20
251.338803714
 30
0.0
 11
101.757195155
 21
252.338803878
 31
0.0
  0
LINE
  5
16F
330
1F
100
AcDbEntity
  8
0
  6
Continuous
 62
     7
100
AcDbLine
 10
238.257196109
 20
175.338802433
 30
0.0
 11
239.257198136
 21
175.338802433
 31
0.0
  0
LINE
  5
170
330
1F
100
AcDbEntity
  8
0
  6
Continuous
 62
     7
100
AcDbLine
 10
239.257198136
 20
176.338804459
 30
0.0
 11
239.257198136
 21
175.338802433
 31
0.0
  0
LINE
  5
171
330
1F
100
AcDbEntity
  8
0
  6
Continuous
 62
     7
100
AcDbLine
 10
238.257196109
 20
175.338802433
 30
0.0
 11
238.257196109
 21
176.338804459
 31
0.0
  0
LINE
  5
172
330
1F
100
AcDbEntity
  8
0
  6
Continuous
 62
     7
100
AcDbLine
 10
102.757197182
 20
175.338802433
 30
0.0
 11
101.757195155
 21
175.338802433
 31
0.0
  0
LINE
  5
173
330
1F
100
AcDbEntity
  8
0
  6
Continuous
 62
     7
100
AcDbLine
 10
102.757197182
 20
176.338804459
 30
0.0
 11
102.757197182
 21
175.338802433
 31
0.0
  0
LINE
  5
174
330
1F
100
AcDbEntity
  8
0
  6
Continuous
 62
     7
100
AcDbLine
 10
101.757195155
 20
175.338802433
 30
0.0
 11
101.757195155
 21
176.338804459
 31
0.0
  0
ARC
  5
175
330
1F
100
AcDbEntity
  8
0
  6
Continuous
 62
     7
100
AcDbCircle
 10
102.757196645
 20
175.338804102
 30
0.0
 40
1.0
100
AcDbArc
 50
180.0
 51
270.0
  0
LINE
  5
176
330
1F
100
AcDbEntity
  8
0
  6
Continuous
 62
     7
100
AcDbLine
 10
102.757197182
 20
175.338802433
 30
0.0
 11
102.857198875
 21
175.338802433
 31
0.0
  0
LINE
  5
177
330
1F
100
AcDbEntity
  8
0
  6
Continuous
 62
     7
100
AcDbLine
 10
102.757197182
 20
174.338800406
 30
0.0
 11
102.857198875
 21
174.338800406
 31
0.0
  0
LINE
  5
178
330
1F
100
AcDbEntity
  8
0
  6
Continuous
 62
     7
100
AcDbLine
 10
238.157194416
 20
175.338802433
 30
0.0
 11
238.257196109
 21
175.338802433
 31
0.0
  0
ARC
  5
179
330
1F
100
AcDbEntity
  8
0
  6
Continuous
 62
     7
100
AcDbCircle
 10
238.257196645
 20
175.338804102
 30
0.0
 40
1.0
100
AcDbArc
 50
270.0
 51
0.0
  0
LINE
  5
17A
330
1F
100
AcDbEntity
  8
0
  6
Continuous
 62
     7
100
AcDbLine
 10
238.157194416
 20
174.338800406
 30
0.0
 11
238.257196109
 21
174.338800406
 31
0.0
  0
LINE
  5
17C
330
1F
100
AcDbEntity
  8
0
  6
LTYPE1
 62
     3
100
AcDbLine
 10
180.507196422
 20
263.838804832
 30
0.0
 11
180.367513868
 21
259.838804176
 31
0.0
  0
LINE
  5
17D
330
1F
100
AcDbEntity
  8
0
  6
LTYPE1
 62
     3
100
AcDbLine
 10
180.007500883
 20
263.838804832
 30
0.0
 11
180.507196422
 21
263.838804832
 31
0.0
  0
LINE
  5
17E
330
1F
100
AcDbEntity
  8
0
  6
LTYPE1
 62
     3
100
AcDbLine
 10
161.006892408
 20
263.838804832
 30
0.0
 11
180.007500883
 21
263.838804832
 31
0.0
  0
LINE
  5
17F
330
1F
100
AcDbEntity
  8
0
  6
LTYPE1
 62
     3
100
AcDbLine
 10
160.646879423
 20
259.838804176
 30
0.0
 11
160.507196869
 21
263.838804832
 31
0.0
  0
LINE
  5
180
330
1F
100
AcDbEntity
  8
0
  6
LTYPE1
 62
     3
100
AcDbLine
 10
160.507196869
 20
263.838804832
 30
0.0
 11
161.006892408
 21
263.838804832
 31
0.0
  0
LINE
  5
181
330
1F
100
AcDbEntity
  8
0
  6
LTYPE1
 62
     3
100
AcDbLine
 10
230.007198016
 20
254.838804288
 30
0.0
 11
230.007198016
 21
252.338803878
 31
0.0
  0
ARC
  5
182
330
1F
100
AcDbEntity
  8
0
  6
LTYPE1
 62
     3
100
AcDbCircle
 10
225.007196645
 20
254.838804102
 30
0.0
 40
5.0
100
AcDbArc
 50
0.0
 51
90.0
  0
LINE
  5
183
330
1F
100
AcDbEntity
  8
0
  6
LTYPE1
 62
     3
100
AcDbLine
 10
116.007197957
 20
259.838804176
 30
0.0
 11
225.007195334
 21
259.838804176
 31
0.0
  0
LINE
  5
184
330
1F
100
AcDbEntity
  8
0
  6
LTYPE1
 62
     3
100
AcDbLine
 10
111.007195275
 20
252.338803878
 30
0.0
 11
111.007195275
 21
254.838804288
 31
0.0
  0
ARC
  5
185
330
1F
100
AcDbEntity
  8
0
  6
LTYPE1
 62
     3
100
AcDbCircle
 10
116.007196645
 20
254.838804102
 30
0.0
 40
5.0
100
AcDbArc
 50
90.0
 51
180.0
  0
LINE
  5
186
330
1F
100
AcDbEntity
  8
0
  6
LTYPE1
 62
     3
100
AcDbLine
 10
105.50719903
 20
30.607959202
 30
0.0
 11
105.50719903
 21
29.607960901
 31
0.0
  0
LINE
  5
187
330
1F
100
AcDbEntity
  8
0
  6
LTYPE1
 62
     3
100
AcDbLine
 10
105.563972454
 20
30.684316478
 30
0.0
 11
105.563972454
 21
30.607959202
 31
0.0
  0
ARC
  5
188
330
1F
100
AcDbEntity
  8
0
  6
LTYPE1
 62
     3
100
AcDbCircle
 10
108.507196645
 20
35.686532431
 30
0.0
 40
6.778571429
100
AcDbArc
 50
280.626423394
 51
296.268044613
  0
ARC
  5
189
330
1F
100
AcDbEntity
  8
0
  6
LTYPE1
 62
     3
100
AcDbCircle
 10
108.507196645
 20
35.686532431
 30
0.0
 40
6.778571429
100
AcDbArc
 50
243.731955387
 51
259.373576606
  0
LINE
  5
18A
330
1F
100
AcDbEntity
  8
0
  6
LTYPE1
 62
     3
100
AcDbLine
 10
111.007195275
 20
30.607959202
 30
0.0
 11
112.507198314
 21
30.607959202
 31
0.0
  0
LINE
  5
18B
330
1F
100
AcDbEntity
  8
0
  6
LTYPE1
 62
     3
100
AcDbLine
 10
112.507198314
 20
30.607959202
 30
0.0
 11
112.507198314
 21
29.607960901
 31
0.0
  0
LINE
  5
18C
330
1F
100
AcDbEntity
  8
0
  6
LTYPE1
 62
     3
100
AcDbLine
 10
112.507198314
 20
29.607960901
 30
0.0
 11
111.007195275
 21
29.607960901
 31
0.0
  0
LINE
  5
18D
330
1F
100
AcDbEntity
  8
0
  6
LTYPE1
 62
     3
100
AcDbLine
 10
111.007195275
 20
29.607960901
 30
0.0
 11
110.007196973
 21
29.607960901
 31
0.0
  0
LINE
  5
18E
330
1F
100
AcDbEntity
  8
0
  6
LTYPE1
 62
     3
100
AcDbLine
 10
111.007195275
 20
30.607959202
 30
0.0
 11
110.007196973
 21
30.607959202
 31
0.0
  0
LINE
  5
18F
330
1F
100
AcDbEntity
  8
0
  6
LTYPE1
 62
     3
100
AcDbLine
 10
110.007196973
 20
29.607960901
 30
0.0
 11
108.777690987
 21
29.607960901
 31
0.0
  0
LINE
  5
190
330
1F
100
AcDbEntity
  8
0
  6
LTYPE1
 62
     3
100
AcDbLine
 10
110.007196973
 20
30.607959202
 30
0.0
 11
108.777690987
 21
30.607959202
 31
0.0
  0
LINE
  5
191
330
1F
100
AcDbEntity
  8
0
  6
LTYPE1
 62
     3
100
AcDbLine
 10
108.777690987
 20
29.607960901
 30
0.0
 11
107.375350158
 21
29.607960901
 31
0.0
  0
LINE
  5
192
330
1F
100
AcDbEntity
  8
0
  6
LTYPE1
 62
     3
100
AcDbLine
 10
108.777690987
 20
30.607959202
 30
0.0
 11
107.375350158
 21
30.607959202
 31
0.0
  0
LINE
  5
193
330
1F
100
AcDbEntity
  8
0
  6
LTYPE1
 62
     3
100
AcDbLine
 10
107.375350158
 20
29.607960901
 30
0.0
 11
106.19657145
 21
29.607960901
 31
0.0
  0
LINE
  5
194
330
1F
100
AcDbEntity
  8
0
  6
LTYPE1
 62
     3
100
AcDbLine
 10
107.375350158
 20
30.607959202
 30
0.0
 11
106.19657145
 21
30.607959202
 31
0.0
  0
LINE
  5
195
330
1F
100
AcDbEntity
  8
0
  6
LTYPE1
 62
     3
100
AcDbLine
 10
106.19657145
 20
29.607960901
 30
0.0
 11
105.50719903
 21
29.607960901
 31
0.0
  0
LINE
  5
196
330
1F
100
AcDbEntity
  8
0
  6
LTYPE1
 62
     3
100
AcDbLine
 10
106.19657145
 20
30.607959202
 30
0.0
 11
105.50719903
 21
30.607959202
 31
0.0
  0
LINE
  5
197
330
1F
100
AcDbEntity
  8
0
  6
LTYPE1
 62
     3
100
AcDbLine
 10
112.507198314
 20
30.684316478
 30
0.0
 11
112.507198314
 21
30.607959202
 31
0.0
  0
LINE
  5
198
330
1F
100
AcDbEntity
  8
0
  6
LTYPE1
 62
     3
100
AcDbLine
 10
106.19657145
 20
30.607959202
 30
0.0
 11
105.566073518
 21
30.607959202
 31
0.0
  0
LINE
  5
199
330
1F
100
AcDbEntity
  8
0
  6
LTYPE1
 62
     3
100
AcDbLine
 10
109.757196467
 20
29.024211637
 30
0.0
 11
109.757196467
 21
29.036229423
 31
0.0
  0
ARC
  5
19A
330
1F
100
AcDbEntity
  8
0
  6
LTYPE1
 62
     3
100
AcDbCircle
 10
108.507196645
 20
35.686532431
 30
0.0
 40
6.76675924
100
AcDbArc
 50
273.388871868
 51
280.645189322
  0
LINE
  5
19B
330
1F
100
AcDbEntity
  8
0
  6
LTYPE1
 62
     3
100
AcDbLine
 10
108.907196979
 20
28.931604645
 30
0.0
 11
108.907196979
 21
29.036229423
 31
0.0
  0
ARC
  5
19C
330
1F
100
AcDbEntity
  8
0
  6
LTYPE1
 62
     3
100
AcDbCircle
 10
108.507196645
 20
35.686532431
 30
0.0
 40
6.662321713
100
AcDbArc
 50
266.557941195
 51
273.442058805
  0
LINE
  5
19D
330
1F
100
AcDbEntity
  8
0
  6
LTYPE1
 62
     3
100
AcDbLine
 10
108.107198338
 20
29.036229423
 30
0.0
 11
108.107198338
 21
28.931604645
 31
0.0
  0
ARC
  5
19E
330
1F
100
AcDbEntity
  8
0
  6
LTYPE1
 62
     3
100
AcDbCircle
 10
108.507196645
 20
35.686532431
 30
0.0
 40
6.76675924
100
AcDbArc
 50
259.354810678
 51
266.611128132
  0
LINE
  5
19F
330
1F
100
AcDbEntity
  8
0
  6
LTYPE1
 62
     3
100
AcDbLine
 10
107.257198851
 20
29.036229423
 30
0.0
 11
107.257198851
 21
29.024211637
 31
0.0
  0
LINE
  5
1A0
330
1F
100
AcDbEntity
  8
0
  6
LTYPE1
 62
     3
100
AcDbLine
 10
173.507196672
 20
28.80796226
 30
0.0
 11
173.507196672
 21
29.607960901
 31
0.0
  0
LINE
  5
1A1
330
1F
100
AcDbEntity
  8
0
  6
LTYPE1
 62
     3
100
AcDbLine
 10
167.507196619
 20
29.607960901
 30
0.0
 11
167.507196619
 21
28.80796226
 31
0.0
  0
LINE
  5
1A2
330
1F
100
AcDbEntity
  8
0
  6
LTYPE1
 62
     3
100
AcDbLine
 10
178.307196434
 20
29.607960901
 30
0.0
 11
178.307196434
 21
27.607960573
 31
0.0
  0
ARC
  5
1A3
330
1F
100
AcDbEntity
  8
0
  6
LTYPE1
 62
     3
100
AcDbCircle
 10
176.307196645
 20
27.607961003
 30
0.0
 40
2.0
100
AcDbArc
 50
270.0
 51
0.000000006
  0
LINE
  5
1A4
330
1F
100
AcDbEntity
  8
0
  6
LTYPE1
 62
     3
100
AcDbLine
 10
176.307196572
 20
25.607960246
 30
0.0
 11
164.707196719
 21
25.607960246
 31
0.0
  0
ARC
  5
1A5
330
1F
100
AcDbEntity
  8
0
  6
LTYPE1
 62
     3
100
AcDbCircle
 10
164.707196645
 20
27.607961003
 30
0.0
 40
2.0
100
AcDbArc
 50
180.0
 51
269.999999995
  0
LINE
  5
1A6
330
1F
100
AcDbEntity
  8
0
  6
LTYPE1
 62
     3
100
AcDbLine
 10
162.707196857
 20
27.607960573
 30
0.0
 11
162.707196857
 21
29.607960901
 31
0.0
  0
LINE
  5
1A7
330
1F
100
AcDbEntity
  8
0
  6
LTYPE1
 62
     3
100
AcDbLine
 10
166.007196839
 20
29.607960901
 30
0.0
 11
166.007196839
 21
28.907859645
 31
0.0
  0
ELLIPSE
  5
1A8
330
1F
100
AcDbEntity
  8
0
  6
LTYPE1
 62
     3
100
AcDbEllipse
 10
166.307299483
 20
28.90806384
 30
0.0
 11
-0.212277444
 21
-0.212277444
 31
0.0
 40
0.999315002
 41
5.498129759
 42
0.785055547
  0
LINE
  5
1A9
330
1F
100
AcDbEntity
  8
0
  6
LTYPE1
 62
     3
100
AcDbLine
 10
166.307093884
 20
28.6079626
 30
0.0
 11
168.732459616
 21
28.6079626
 31
0.0
  0
ARC
  5
1AA
330
1F
100
AcDbEntity
  8
0
  6
LTYPE1
 62
     3
100
AcDbCircle
 10
170.507196645
 20
28.607961003
 30
0.0
 40
1.5
100
AcDbArc
 50
189.591302608
 51
350.408697357
  0
LINE
  5
1AB
330
1F
100
AcDbEntity
  8
0
  6
LTYPE1
 62
     3
100
AcDbLine
 10
172.281933675
 20
28.6079626
 30
0.0
 11
174.707299407
 21
28.6079626
 31
0.0
  0
ELLIPSE
  5
1AC
330
1F
100
AcDbEntity
  8
0
  6
LTYPE1
 62
     3
100
AcDbEllipse
 10
174.707093808
 20
28.90806384
 30
0.0
 11
0.212277444
 21
-0.212277444
 31
0.0
 40
0.999315002
 41
5.49812976
 42
0.785055544
  0
LINE
  5
1AD
330
1F
100
AcDbEntity
  8
0
  6
LTYPE1
 62
     3
100
AcDbLine
 10
175.007196452
 20
28.907859645
 30
0.0
 11
175.007196452
 21
29.607960901
 31
0.0
  0
LWPOLYLINE
  5
1AF
330
1F
100
AcDbEntity
  8
0
  6
LTYPE1
 62
     3
100
AcDbPolyline
 90
    71
 70
   128
 43
0.0
 10
171.986228656
 20
28.358032389
 10
171.987295384
 20
28.363973558
 10
171.98848233
 20
28.369886067
 10
171.98978843
 20
28.375768086
 10
171.99121262
 20
28.381617784
 10
171.992753835
 20
28.38743333
 10
171.994411012
 20
28.393212894
 10
171.996183085
 20
28.398954644
 10
171.998068991
 20
28.40465675
 10
172.000067666
 20
28.410317382
 10
172.002178045
 20
28.415934709
 10
172.004399064
 20
28.421506899
 10
172.006729659
 20
28.427032123
 10
172.009168765
 20
28.432508549
 10
172.011715318
 20
28.437934348
 10
172.014368255
 20
28.443307687
 10
172.017126511
 20
28.448626737
 10
172.019989021
 20
28.453889667
 10
172.022954722
 20
28.459094645
 10
172.026022548
 20
28.464239842
 10
172.029191437
 20
28.469323427
 10
172.032460324
 20
28.474343568
 10
172.035828143
 20
28.479298436
 10
172.039293832
 20
28.4841862
 10
172.042856326
 20
28.489005028
 10
172.046514561
 20
28.49375309
 10
172.050267473
 20
28.498428556
 10
172.054113996
 20
28.503029594
 10
172.058053068
 20
28.507554375
 10
172.062083623
 20
28.512001066
 10
172.066204598
 20
28.516367839
 10
172.070414929
 20
28.520652861
 10
172.07471355
 20
28.524854302
 10
172.079099399
 20
28.528970332
 10
172.08357141
 20
28.532999119
 10
172.088128519
 20
28.536938834
 10
172.092766722
 20
28.540784653
 10
172.097481301
 20
28.54453244
 10
172.10227012
 20
28.548181393
 10
172.107131044
 20
28.551730708
 10
172.112061937
 20
28.555179583
 10
172.117060665
 20
28.558527216
 10
172.122125092
 20
28.561772804
 10
172.127253083
 20
28.564915545
 10
172.132442502
 20
28.567954636
 10
172.137691215
 20
28.570889275
 10
172.142997085
 20
28.57371866
 10
172.148357979
 20
28.576441987
 10
172.15377176
 20
28.579058454
 10
172.159236293
 20
28.58156726
 10
172.164749443
 20
28.5839676
 10
172.170309075
 20
28.586258674
 10
172.175913053
 20
28.588439678
 10
172.181559242
 20
28.59050981
 10
172.187245507
 20
28.592468267
 10
172.192969713
 20
28.594314247
 10
172.198729724
 20
28.596046947
 10
172.204523406
 20
28.597665566
 10
172.210348622
 20
28.5991693
 10
172.216203238
 20
28.600557346
 10
172.222085118
 20
28.601828904
 10
172.227992127
 20
28.602983169
 10
172.23392213
 20
28.604019339
 10
172.239872991
 20
28.604936613
 10
172.245842575
 20
28.605734187
 10
172.251828748
 20
28.606411259
 10
172.257829373
 20
28.606967027
 10
172.263842316
 20
28.607400687
 10
172.26986544
 20
28.607711439
 10
172.275896612
 20
28.607898478
 10
172.281933695
 20
28.607961002
  0
LWPOLYLINE
  5
1B1
330
1F
100
AcDbEntity
  8
0
  6
LTYPE1
 62
     3
100
AcDbPolyline
 90
    71
 70
   128
 43
0.0
 10
168.732459595
 20
28.607961002
 10
168.738495452
 20
28.607899098
 10
168.74452308
 20
28.60771388
 10
168.750540497
 20
28.607406094
 10
168.756545721
 20
28.606976484
 10
168.76253677
 20
28.606425794
 10
168.76851166
 20
28.605754768
 10
168.774468409
 20
28.604964151
 10
168.780405036
 20
28.604054687
 10
168.786319557
 20
28.60302712
 10
168.79220999
 20
28.601882195
 10
168.798074352
 20
28.600620656
 10
168.803910662
 20
28.599243248
 10
168.809716937
 20
28.597750714
 10
168.815491194
 20
28.596143799
 10
168.821231451
 20
28.594423247
 10
168.826935726
 20
28.592589804
 10
168.832602035
 20
28.590644212
 10
168.838228397
 20
28.588587216
 10
168.84381283
 20
28.586419562
 10
168.84935335
 20
28.584141992
 10
168.854847975
 20
28.581755251
 10
168.860294723
 20
28.579260084
 10
168.865691612
 20
28.576657236
 10
168.871036659
 20
28.573947449
 10
168.876327881
 20
28.571131469
 10
168.881563296
 20
28.56821004
 10
168.886740922
 20
28.565183906
 10
168.891858777
 20
28.562053812
 10
168.896914877
 20
28.558820502
 10
168.901907241
 20
28.55548472
 10
168.906833885
 20
28.552047211
 10
168.911692828
 20
28.548508719
 10
168.916482087
 20
28.544869988
 10
168.92119968
 20
28.541131762
 10
168.925843624
 20
28.537294787
 10
168.930408497
 20
28.533362206
 10
168.934889434
 20
28.529337984
 10
168.939285287
 20
28.525224091
 10
168.94359491
 20
28.5210225
 10
168.947817155
 20
28.516735182
 10
168.951950876
 20
28.512364109
 10
168.955994926
 20
28.507911253
 10
168.959948156
 20
28.503378585
 10
168.963809421
 20
28.498768077
 10
168.967577574
 20
28.494081701
 10
168.971251466
 20
28.489321429
 10
168.974829952
 20
28.484489231
 10
168.978311884
 20
28.479587081
 10
168.981696115
 20
28.474616949
 10
168.984981498
 20
28.469580808
 10
168.988166886
 20
28.464480629
 10
168.991251132
 20
28.459318383
 10
168.994233089
 20
28.454096043
 10
168.997111609
 20
28.448815581
 10
168.999885547
 20
28.443478967
 10
169.002553754
 20
28.438088174
 10
169.005115084
 20
28.432645173
 10
169.00756839
 20
28.427151936
 10
169.009912524
 20
28.421610435
 10
169.01214634
 20
28.416022641
 10
169.014268691
 20
28.410390526
 10
169.016278428
 20
28.404716063
 10
169.018174407
 20
28.399001222
 10
169.019955478
 20
28.393247975
 10
169.021620496
 20
28.387458294
 10
169.023168314
 20
28.381634151
 10
169.024597783
 20
28.375777517
 10
169.025907758
 20
28.369890365
 10
169.027097091
 20
28.363974665
 10
169.028164634
 20
28.35803239
  0
LINE
  5
1B2
330
1F
100
AcDbEntity
  8
0
  6
LTYPE1
 62
     3
100
AcDbLine
 10
167.507196619
 20
28.80796226
 30
0.0
 11
173.507196672
 21
28.80796226
 31
0.0
  0
LINE
  5
1B3
330
1F
100
AcDbEntity
  8
0
  6
LTYPE1
 62
     3
100
AcDbLine
 10
208.507195424
 20
28.6079626
 30
0.0
 11
208.507195424
 21
29.607960901
 31
0.0
  0
LINE
  5
1B4
330
1F
100
AcDbEntity
  8
0
  6
LTYPE1
 62
     3
100
AcDbLine
 10
208.507195424
 20
28.6079626
 30
0.0
 11
198.50719751
 21
28.6079626
 31
0.0
  0
LINE
  5
1B5
330
1F
100
AcDbEntity
  8
0
  6
LTYPE1
 62
     3
100
AcDbLine
 10
198.50719751
 20
28.6079626
 30
0.0
 11
198.50719751
 21
29.607960901
 31
0.0
  0
LINE
  5
1B6
330
1F
100
AcDbEntity
  8
0
  6
LTYPE1
 62
     3
100
AcDbLine
 10
235.507194261
 20
29.607960901
 30
0.0
 11
235.507194261
 21
30.607959202
 31
0.0
  0
LINE
  5
1B7
330
1F
100
AcDbEntity
  8
0
  6
LTYPE1
 62
     3
100
AcDbLine
 10
235.450420837
 20
30.607959202
 30
0.0
 11
235.450420837
 21
30.684316478
 31
0.0
  0
ARC
  5
1B8
330
1F
100
AcDbEntity
  8
0
  6
LTYPE1
 62
     3
100
AcDbCircle
 10
232.507196645
 20
35.686532431
 30
0.0
 40
6.778571429
100
AcDbArc
 50
280.626423394
 51
296.268044613
  0
ARC
  5
1B9
330
1F
100
AcDbEntity
  8
0
  6
LTYPE1
 62
     3
100
AcDbCircle
 10
232.507196645
 20
35.686532431
 30
0.0
 40
6.778571429
100
AcDbArc
 50
243.731955387
 51
259.373576606
  0
LINE
  5
1BA
330
1F
100
AcDbEntity
  8
0
  6
LTYPE1
 62
     3
100
AcDbLine
 10
231.007196318
 20
29.607960901
 30
0.0
 11
230.007198016
 21
29.607960901
 31
0.0
  0
LINE
  5
1BB
330
1F
100
AcDbEntity
  8
0
  6
LTYPE1
 62
     3
100
AcDbLine
 10
231.007196318
 20
30.607959202
 30
0.0
 11
230.007198016
 21
30.607959202
 31
0.0
  0
LINE
  5
1BC
330
1F
100
AcDbEntity
  8
0
  6
LTYPE1
 62
     3
100
AcDbLine
 10
228.507194976
 20
29.607960901
 30
0.0
 11
228.507194976
 21
30.607959202
 31
0.0
  0
LINE
  5
1BD
330
1F
100
AcDbEntity
  8
0
  6
LTYPE1
 62
     3
100
AcDbLine
 10
230.007198016
 20
29.607960901
 30
0.0
 11
228.507194976
 21
29.607960901
 31
0.0
  0
LINE
  5
1BE
330
1F
100
AcDbEntity
  8
0
  6
LTYPE1
 62
     3
100
AcDbLine
 10
228.507194976
 20
30.607959202
 30
0.0
 11
230.007198016
 21
30.607959202
 31
0.0
  0
LINE
  5
1BF
330
1F
100
AcDbEntity
  8
0
  6
LTYPE1
 62
     3
100
AcDbLine
 10
232.236702304
 20
29.607960901
 30
0.0
 11
231.007196318
 21
29.607960901
 31
0.0
  0
LINE
  5
1C0
330
1F
100
AcDbEntity
  8
0
  6
LTYPE1
 62
     3
100
AcDbLine
 10
232.236702304
 20
30.607959202
 30
0.0
 11
231.007196318
 21
30.607959202
 31
0.0
  0
LINE
  5
1C1
330
1F
100
AcDbEntity
  8
0
  6
LTYPE1
 62
     3
100
AcDbLine
 10
233.639043133
 20
29.607960901
 30
0.0
 11
232.236702304
 21
29.607960901
 31
0.0
  0
LINE
  5
1C2
330
1F
100
AcDbEntity
  8
0
  6
LTYPE1
 62
     3
100
AcDbLine
 10
233.639043133
 20
30.607959202
 30
0.0
 11
232.236702304
 21
30.607959202
 31
0.0
  0
LINE
  5
1C3
330
1F
100
AcDbEntity
  8
0
  6
LTYPE1
 62
     3
100
AcDbLine
 10
234.817821841
 20
29.607960901
 30
0.0
 11
233.639043133
 21
29.607960901
 31
0.0
  0
LINE
  5
1C4
330
1F
100
AcDbEntity
  8
0
  6
LTYPE1
 62
     3
100
AcDbLine
 10
234.817821841
 20
30.607959202
 30
0.0
 11
233.639043133
 21
30.607959202
 31
0.0
  0
LINE
  5
1C5
330
1F
100
AcDbEntity
  8
0
  6
LTYPE1
 62
     3
100
AcDbLine
 10
235.507194261
 20
29.607960901
 30
0.0
 11
234.817821841
 21
29.607960901
 31
0.0
  0
LINE
  5
1C6
330
1F
100
AcDbEntity
  8
0
  6
LTYPE1
 62
     3
100
AcDbLine
 10
235.507194261
 20
30.607959202
 30
0.0
 11
234.817821841
 21
30.607959202
 31
0.0
  0
LINE
  5
1C7
330
1F
100
AcDbEntity
  8
0
  6
LTYPE1
 62
     3
100
AcDbLine
 10
228.507194976
 20
30.607959202
 30
0.0
 11
228.507194976
 21
30.684316478
 31
0.0
  0
LINE
  5
1C8
330
1F
100
AcDbEntity
  8
0
  6
LTYPE1
 62
     3
100
AcDbLine
 10
234.817821841
 20
30.607959202
 30
0.0
 11
235.448319773
 21
30.607959202
 31
0.0
  0
LINE
  5
1C9
330
1F
100
AcDbEntity
  8
0
  6
LTYPE1
 62
     3
100
AcDbLine
 10
233.75719444
 20
29.024211637
 30
0.0
 11
233.75719444
 21
29.036229423
 31
0.0
  0
ARC
  5
1CA
330
1F
100
AcDbEntity
  8
0
  6
LTYPE1
 62
     3
100
AcDbCircle
 10
232.507196645
 20
35.686532431
 30
0.0
 40
6.76675924
100
AcDbArc
 50
273.388871868
 51
280.645189322
  0
LINE
  5
1CB
330
1F
100
AcDbEntity
  8
0
  6
LTYPE1
 62
     3
100
AcDbLine
 10
232.907194953
 20
28.931604645
 30
0.0
 11
232.907194953
 21
29.036229423
 31
0.0
  0
ARC
  5
1CC
330
1F
100
AcDbEntity
  8
0
  6
LTYPE1
 62
     3
100
AcDbCircle
 10
232.507196645
 20
35.686532431
 30
0.0
 40
6.662321713
100
AcDbArc
 50
266.557941195
 51
273.442058805
  0
LINE
  5
1CD
330
1F
100
AcDbEntity
  8
0
  6
LTYPE1
 62
     3
100
AcDbLine
 10
232.107196312
 20
29.036229423
 30
0.0
 11
232.107196312
 21
28.931604645
 31
0.0
  0
ARC
  5
1CE
330
1F
100
AcDbEntity
  8
0
  6
LTYPE1
 62
     3
100
AcDbCircle
 10
232.507196645
 20
35.686532431
 30
0.0
 40
6.76675924
100
AcDbArc
 50
259.354810678
 51
266.611128132
  0
LINE
  5
1CF
330
1F
100
AcDbEntity
  8
0
  6
LTYPE1
 62
     3
100
AcDbLine
 10
231.257196824
 20
29.036229423
 30
0.0
 11
231.257196824
 21
29.024211637
 31
0.0
  0
LINE
  5
1D0
330
1F
100
AcDbEntity
  8
0
  6
LTYPE1
 62
     3
100
AcDbLine
 10
228.507194976
 20
30.607959202
 30
0.0
 11
112.507198314
 21
30.607959202
 31
0.0
  0
LINE
  5
1D1
330
1F
100
AcDbEntity
  8
0
  6
LTYPE1
 62
     3
100
AcDbLine
 10
228.507194976
 20
29.607960901
 30
0.0
 11
112.507198314
 21
29.607960901
 31
0.0
  0
LINE
  5
1D2
330
1F
100
AcDbEntity
  8
0
  6
LTYPE1
 62
     3
100
AcDbLine
 10
363.221291293
 20
29.607960901
 30
0.0
 11
363.221291293
 21
30.607959202
 31
0.0
  0
LINE
  5
1D3
330
1F
100
AcDbEntity
  8
0
  6
LTYPE1
 62
     3
100
AcDbLine
 10
349.761291247
 20
30.607959202
 30
0.0
 11
349.761291247
 21
29.607960901
 31
0.0
  0
LINE
  5
1D4
330
1F
100
AcDbEntity
  8
0
  6
LTYPE1
 62
     3
100
AcDbLine
 10
363.991291103
 20
29.607960901
 30
0.0
 11
363.991291103
 21
30.607959202
 31
0.0
  0
LINE
  5
1D5
330
1F
100
AcDbEntity
  8
0
  6
LTYPE1
 62
     3
100
AcDbLine
 10
363.221291293
 20
30.607959202
 30
0.0
 11
363.221291293
 21
78.493143379
 31
0.0
  0
LINE
  5
1D6
330
1F
100
AcDbEntity
  8
0
  6
LTYPE1
 62
     3
100
AcDbLine
 10
363.991291103
 20
30.607959202
 30
0.0
 11
363.991291103
 21
78.854188736
 31
0.0
  0
LINE
  5
1D7
330
1F
100
AcDbEntity
  8
0
  6
LTYPE1
 62
     3
100
AcDbLine
 10
359.891291315
 20
28.80796226
 30
0.0
 11
359.891291315
 21
29.607960901
 31
0.0
  0
LINE
  5
1D8
330
1F
100
AcDbEntity
  8
0
  6
LTYPE1
 62
     3
100
AcDbLine
 10
353.891291263
 20
29.426416329
 30
0.0
 11
353.891291263
 21
28.80796226
 31
0.0
  0
ARC
  5
1D9
330
1F
100
AcDbEntity
  8
0
  6
LTYPE1
 62
     3
100
AcDbCircle
 10
356.49129127
 20
35.686532431
 30
0.0
 40
6.778571429
100
AcDbArc
 50
280.626423394
 51
296.268044613
  0
ARC
  5
1DA
330
1F
100
AcDbEntity
  8
0
  6
LTYPE1
 62
     3
100
AcDbCircle
 10
356.49129127
 20
35.686532431
 30
0.0
 40
6.778571429
100
AcDbArc
 50
243.731955387
 51
259.373576606
  0
LINE
  5
1DB
330
1F
100
AcDbEntity
  8
0
  6
LTYPE1
 62
     3
100
AcDbLine
 10
360.991291076
 20
28.6079626
 30
0.0
 11
360.991291076
 21
29.607960901
 31
0.0
  0
LINE
  5
1DC
330
1F
100
AcDbEntity
  8
0
  6
LTYPE1
 62
     3
100
AcDbLine
 10
362.666218848
 20
30.607959202
 30
0.0
 11
350.316363693
 21
30.607959202
 31
0.0
  0
LINE
  5
1DD
330
1F
100
AcDbEntity
  8
0
  6
LTYPE1
 62
     3
100
AcDbLine
 10
362.666218848
 20
29.607960901
 30
0.0
 11
350.316363693
 21
29.607960901
 31
0.0
  0
LINE
  5
1DE
330
1F
100
AcDbEntity
  8
0
  6
LTYPE1
 62
     3
100
AcDbLine
 10
363.221291293
 20
30.607959202
 30
0.0
 11
362.666218848
 21
30.607959202
 31
0.0
  0
LINE
  5
1DF
330
1F
100
AcDbEntity
  8
0
  6
LTYPE1
 62
     3
100
AcDbLine
 10
363.221291293
 20
29.607960901
 30
0.0
 11
362.666218848
 21
29.607960901
 31
0.0
  0
LINE
  5
1E0
330
1F
100
AcDbEntity
  8
0
  6
LTYPE1
 62
     3
100
AcDbLine
 10
350.316363693
 20
30.607959202
 30
0.0
 11
349.761291247
 21
30.607959202
 31
0.0
  0
LINE
  5
1E1
330
1F
100
AcDbEntity
  8
0
  6
LTYPE1
 62
     3
100
AcDbLine
 10
350.316363693
 20
29.607960901
 30
0.0
 11
349.761291247
 21
29.607960901
 31
0.0
  0
LINE
  5
1E2
330
1F
100
AcDbEntity
  8
0
  6
LTYPE1
 62
     3
100
AcDbLine
 10
363.26085667
 20
30.607959202
 30
0.0
 11
363.221291293
 21
30.607959202
 31
0.0
  0
LINE
  5
1E3
330
1F
100
AcDbEntity
  8
0
  6
LTYPE1
 62
     3
100
AcDbLine
 10
363.26085667
 20
29.607960901
 30
0.0
 11
363.221291293
 21
29.607960901
 31
0.0
  0
LINE
  5
1E4
330
1F
100
AcDbEntity
  8
0
  6
LTYPE1
 62
     3
100
AcDbLine
 10
349.761291247
 20
30.607959202
 30
0.0
 11
349.72172587
 21
30.607959202
 31
0.0
  0
LINE
  5
1E5
330
1F
100
AcDbEntity
  8
0
  6
LTYPE1
 62
     3
100
AcDbLine
 10
349.761291247
 20
29.607960901
 30
0.0
 11
349.72172587
 21
29.607960901
 31
0.0
  0
LINE
  5
1E6
330
1F
100
AcDbEntity
  8
0
  6
LTYPE1
 62
     3
100
AcDbLine
 10
363.991291103
 20
30.607959202
 30
0.0
 11
363.26085667
 21
30.607959202
 31
0.0
  0
LINE
  5
1E7
330
1F
100
AcDbEntity
  8
0
  6
LTYPE1
 62
     3
100
AcDbLine
 10
363.991291103
 20
29.607960901
 30
0.0
 11
363.26085667
 21
29.607960901
 31
0.0
  0
LINE
  5
1E8
330
1F
100
AcDbEntity
  8
0
  6
LTYPE1
 62
     3
100
AcDbLine
 10
348.991291438
 20
29.607960901
 30
0.0
 11
348.991291438
 21
30.607959202
 31
0.0
  0
LINE
  5
1E9
330
1F
100
AcDbEntity
  8
0
  6
LTYPE1
 62
     3
100
AcDbLine
 10
349.72172587
 20
30.607959202
 30
0.0
 11
348.991291438
 21
30.607959202
 31
0.0
  0
LINE
  5
1EA
330
1F
100
AcDbEntity
  8
0
  6
LTYPE1
 62
     3
100
AcDbLine
 10
349.72172587
 20
29.607960901
 30
0.0
 11
348.991291438
 21
29.607960901
 31
0.0
  0
LINE
  5
1EB
330
1F
100
AcDbEntity
  8
0
  6
LTYPE1
 62
     3
100
AcDbLine
 10
364.424321175
 20
30.607959202
 30
0.0
 11
363.991291103
 21
30.607959202
 31
0.0
  0
LINE
  5
1EC
330
1F
100
AcDbEntity
  8
0
  6
LTYPE1
 62
     3
100
AcDbLine
 10
364.424321175
 20
29.607960901
 30
0.0
 11
363.991291103
 21
29.607960901
 31
0.0
  0
LINE
  5
1ED
330
1F
100
AcDbEntity
  8
0
  6
LTYPE1
 62
     3
100
AcDbLine
 10
348.691291482
 20
57.573147065
 30
0.0
 11
347.691291318
 21
57.573147065
 31
0.0
  0
ARC
  5
1EE
330
1F
100
AcDbEntity
  8
0
  6
LTYPE1
 62
     3
100
AcDbCircle
 10
347.69129127
 20
58.073146317
 30
0.0
 40
0.5
100
AcDbArc
 50
180.0
 51
270.0
  0
LINE
  5
1EF
330
1F
100
AcDbEntity
  8
0
  6
LTYPE1
 62
     3
100
AcDbLine
 10
347.191291236
 20
58.073146216
 30
0.0
 11
347.191291236
 21
59.27314604
 31
0.0
  0
LINE
  5
1F0
330
1F
100
AcDbEntity
  8
0
  6
LTYPE1
 62
     3
100
AcDbLine
 10
347.191291236
 20
59.27314604
 30
0.0
 11
348.991291438
 21
59.27314604
 31
0.0
  0
LINE
  5
1F1
330
1F
100
AcDbEntity
  8
0
  6
LTYPE1
 62
     3
100
AcDbLine
 10
347.191291236
 20
45.273145608
 30
0.0
 11
347.191291236
 21
45.773146621
 31
0.0
  0
ARC
  5
1F2
330
1F
100
AcDbEntity
  8
0
  6
LTYPE1
 62
     3
100
AcDbCircle
 10
347.69129127
 20
45.773146318
 30
0.0
 40
0.5
100
AcDbArc
 50
90.0
 51
180.0
  0
LINE
  5
1F3
330
1F
100
AcDbEntity
  8
0
  6
LTYPE1
 62
     3
100
AcDbLine
 10
347.691291318
 20
46.273145772
 30
0.0
 11
348.691291482
 21
46.273145772
 31
0.0
  0
LINE
  5
1F4
330
1F
100
AcDbEntity
  8
0
  6
LTYPE1
 62
     3
100
AcDbLine
 10
348.691291482
 20
46.273145772
 30
0.0
 11
348.691291482
 21
47.273145935
 31
0.0
  0
LINE
  5
1F5
330
1F
100
AcDbEntity
  8
0
  6
LTYPE1
 62
     3
100
AcDbLine
 10
348.691291482
 20
47.273145935
 30
0.0
 11
348.991291438
 21
47.273145935
 31
0.0
  0
LINE
  5
1F6
330
1F
100
AcDbEntity
  8
0
  6
LTYPE1
 62
     3
100
AcDbLine
 10
348.991291438
 20
55.573146737
 30
0.0
 11
348.691291482
 21
55.573146737
 31
0.0
  0
LINE
  5
1F7
330
1F
100
AcDbEntity
  8
0
  6
LTYPE1
 62
     3
100
AcDbLine
 10
348.691291482
 20
55.573146737
 30
0.0
 11
348.691291482
 21
57.573147065
 31
0.0
  0
LINE
  5
1F8
330
1F
100
AcDbEntity
  8
0
  6
LTYPE1
 62
     3
100
AcDbLine
 10
348.991291438
 20
45.273145608
 30
0.0
 11
347.191291236
 21
45.273145608
 31
0.0
  0
LINE
  5
1F9
330
1F
100
AcDbEntity
  8
0
  6
LTYPE1
 62
     3
100
AcDbLine
 10
347.191291236
 20
62.273146531
 30
0.0
 11
347.191291236
 21
62.773146614
 31
0.0
  0
ARC
  5
1FA
330
1F
100
AcDbEntity
  8
0
  6
LTYPE1
 62
     3
100
AcDbCircle
 10
347.69129127
 20
62.773146318
 30
0.0
 40
0.5
100
AcDbArc
 50
90.0
 51
180.0
  0
LINE
  5
1FB
330
1F
100
AcDbEntity
  8
0
  6
LTYPE1
 62
     3
100
AcDbLine
 10
347.691291318
 20
63.273146695
 30
0.0
 11
348.691291482
 21
63.273146695
 31
0.0
  0
LINE
  5
1FC
330
1F
100
AcDbEntity
  8
0
  6
LTYPE1
 62
     3
100
AcDbLine
 10
348.691291482
 20
63.273146695
 30
0.0
 11
348.691291482
 21
64.273145928
 31
0.0
  0
LINE
  5
1FD
330
1F
100
AcDbEntity
  8
0
  6
LTYPE1
 62
     3
100
AcDbLine
 10
348.691291482
 20
64.273145928
 30
0.0
 11
348.991291438
 21
64.273145928
 31
0.0
  0
LINE
  5
1FE
330
1F
100
AcDbEntity
  8
0
  6
LTYPE1
 62
     3
100
AcDbLine
 10
348.991291438
 20
62.273146531
 30
0.0
 11
347.191291236
 21
62.273146531
 31
0.0
  0
LINE
  5
1FF
330
1F
100
AcDbEntity
  8
0
  6
LTYPE1
 62
     3
100
AcDbLine
 10
355.741291264
 20
78.184315882
 30
0.0
 11
355.741291264
 21
30.607959202
 31
0.0
  0
LINE
  5
200
330
1F
100
AcDbEntity
  8
0
  6
LTYPE1
 62
     3
100
AcDbLine
 10
357.241291277
 20
30.607959202
 30
0.0
 11
357.241291277
 21
78.184315882
 31
0.0
  0
LINE
  5
201
330
1F
100
AcDbEntity
  8
0
  6
LTYPE1
 62
     3
100
AcDbLine
 10
358.306106137
 20
30.607959202
 30
0.0
 11
362.666218848
 21
30.607959202
 31
0.0
  0
LINE
  5
202
330
1F
100
AcDbEntity
  8
0
  6
LTYPE1
 62
     3
100
AcDbLine
 10
350.316363693
 20
30.607959202
 30
0.0
 11
354.676476404
 21
30.607959202
 31
0.0
  0
LINE
  5
203
330
1F
100
AcDbEntity
  8
0
  6
LTYPE1
 62
     3
100
AcDbLine
 10
353.891291263
 20
28.80796226
 30
0.0
 11
359.891291315
 21
28.80796226
 31
0.0
  0
LINE
  5
204
330
1F
100
AcDbEntity
  8
0
  6
LTYPE1
 62
     3
100
AcDbLine
 10
357.741291242
 20
29.024211637
 30
0.0
 11
357.741291242
 21
29.036229423
 31
0.0
  0
ARC
  5
205
330
1F
100
AcDbEntity
  8
0
  6
LTYPE1
 62
     3
100
AcDbCircle
 10
356.49129127
 20
35.686532431
 30
0.0
 40
6.76675924
100
AcDbArc
 50
273.388871868
 51
280.645189322
  0
LINE
  5
206
330
1F
100
AcDbEntity
  8
0
  6
LTYPE1
 62
     3
100
AcDbLine
 10
356.89129126
 20
28.931604645
 30
0.0
 11
356.89129126
 21
29.036229423
 31
0.0
  0
ARC
  5
207
330
1F
100
AcDbEntity
  8
0
  6
LTYPE1
 62
     3
100
AcDbCircle
 10
356.49129127
 20
35.686532431
 30
0.0
 40
6.662321713
100
AcDbArc
 50
266.557941195
 51
273.442058805
  0
LINE
  5
208
330
1F
100
AcDbEntity
  8
0
  6
LTYPE1
 62
     3
100
AcDbLine
 10
356.09129128
 20
29.036229423
 30
0.0
 11
356.09129128
 21
28.931604645
 31
0.0
  0
ARC
  5
209
330
1F
100
AcDbEntity
  8
0
  6
LTYPE1
 62
     3
100
AcDbCircle
 10
356.49129127
 20
35.686532431
 30
0.0
 40
6.76675924
100
AcDbArc
 50
259.354810678
 51
266.611128132
  0
LINE
  5
20A
330
1F
100
AcDbEntity
  8
0
  6
LTYPE1
 62
     3
100
AcDbLine
 10
355.241291298
 20
29.036229423
 30
0.0
 11
355.241291298
 21
29.024211637
 31
0.0
  0
LINE
  5
20B
330
1F
100
AcDbEntity
  8
0
  6
LTYPE1
 62
     3
100
AcDbLine
 10
356.49129127
 20
35.607961885
 30
0.0
 11
357.241291277
 21
35.607961885
 31
0.0
  0
LINE
  5
20C
330
1F
100
AcDbEntity
  8
0
  6
LTYPE1
 62
     3
100
AcDbLine
 10
355.741291264
 20
35.607961885
 30
0.0
 11
356.49129127
 21
35.607961885
 31
0.0
  0
LINE
  5
20D
330
1F
100
AcDbEntity
  8
0
  6
LTYPE1
 62
     3
100
AcDbLine
 10
348.991291438
 20
74.573146359
 30
0.0
 11
348.691291482
 21
74.573146359
 31
0.0
  0
LINE
  5
20E
330
1F
100
AcDbEntity
  8
0
  6
LTYPE1
 62
     3
100
AcDbLine
 10
348.691291482
 20
74.573146359
 30
0.0
 11
348.691291482
 21
76.573146221
 31
0.0
  0
LINE
  5
20F
330
1F
100
AcDbEntity
  8
0
  6
LTYPE1
 62
     3
100
AcDbLine
 10
348.691291482
 20
76.573146221
 30
0.0
 11
347.691291318
 21
76.573146221
 31
0.0
  0
ARC
  5
210
330
1F
100
AcDbEntity
  8
0
  6
LTYPE1
 62
     3
100
AcDbCircle
 10
347.69129127
 20
77.073146318
 30
0.0
 40
0.5
100
AcDbArc
 50
180.0
 51
270.0
  0
LINE
  5
211
330
1F
100
AcDbEntity
  8
0
  6
LTYPE1
 62
     3
100
AcDbLine
 10
347.191291236
 20
77.073146303
 30
0.0
 11
347.191291236
 21
78.184315882
 31
0.0
  0
LINE
  5
212
330
1F
100
AcDbEntity
  8
0
  6
LTYPE1
 62
     3
100
AcDbLine
 10
349.761291247
 20
78.184315882
 30
0.0
 11
349.761291247
 21
30.607959202
 31
0.0
  0
LINE
  5
213
330
1F
100
AcDbEntity
  8
0
  6
LTYPE1
 62
     3
100
AcDbLine
 10
348.991291438
 20
30.607959202
 30
0.0
 11
348.991291438
 21
78.184315882
 31
0.0
  0
LINE
  5
214
330
1F
100
AcDbEntity
  8
0
  6
LTYPE1
 62
     3
100
AcDbLine
 10
377.991292
 20
100.607961363
 30
0.0
 11
377.991292
 21
100.108265824
 31
0.0
  0
LINE
  5
215
330
1F
100
AcDbEntity
  8
0
  6
LTYPE1
 62
     3
100
AcDbLine
 10
373.991291345
 20
100.468277878
 30
0.0
 11
377.991292
 21
100.607961363
 31
0.0
  0
LINE
  5
216
330
1F
100
AcDbEntity
  8
0
  6
LTYPE1
 62
     3
100
AcDbLine
 10
373.991291345
 20
90.907961077
 30
0.0
 11
377.991292
 21
90.907961077
 31
0.0
  0
LINE
  5
217
330
1F
100
AcDbEntity
  8
0
  6
LTYPE1
 62
     3
100
AcDbLine
 10
377.991292
 20
90.907961077
 30
0.0
 11
377.991292
 21
100.108265824
 31
0.0
  0
ARC
  5
218
330
1F
100
AcDbEntity
  8
0
  6
LTYPE1
 62
     3
100
AcDbCircle
 10
373.99129127
 20
87.157961003
 30
0.0
 40
0.50000001
100
AcDbArc
 50
270.0
 51
359.999999992
  0
ARC
  5
219
330
1F
100
AcDbEntity
  8
0
  6
LTYPE1
 62
     3
100
AcDbCircle
 10
373.99129127
 20
87.657961003
 30
0.0
 40
0.500000011
100
AcDbArc
 50
359.999999991
 51
90.0
  0
LINE
  5
21A
330
1F
100
AcDbEntity
  8
0
  6
LTYPE1
 62
     3
100
AcDbLine
 10
374.491290495
 20
87.157960928
 30
0.0
 11
374.491290495
 21
87.65796101
 31
0.0
  0
LINE
  5
21B
330
1F
100
AcDbEntity
  8
0
  6
LTYPE1
 62
     3
100
AcDbLine
 10
375.366268054
 20
88.907960749
 30
0.0
 11
375.191291169
 21
90.907961077
 31
0.0
  0
LINE
  5
21C
330
1F
100
AcDbEntity
  8
0
  6
LTYPE1
 62
     3
100
AcDbLine
 10
376.836589844
 20
88.907960749
 30
0.0
 11
377.991292
 21
90.907961077
 31
0.0
  0
LINE
  5
21D
330
1F
100
AcDbEntity
  8
0
  6
LTYPE1
 62
     3
100
AcDbLine
 10
375.366268054
 20
88.907960749
 30
0.0
 11
376.836589844
 21
88.907960749
 31
0.0
  0
LINE
  5
21E
330
1F
100
AcDbEntity
  8
0
  6
LTYPE1
 62
     3
100
AcDbLine
 10
368.991291456
 20
122.007960401
 30
0.0
 11
366.491291047
 21
122.007960401
 31
0.0
  0
LINE
  5
21F
330
1F
100
AcDbEntity
  8
0
  6
LTYPE1
 62
     3
100
AcDbLine
 10
368.991291456
 20
121.007962099
 30
0.0
 11
366.491291047
 21
121.007962099
 31
0.0
  0
LINE
  5
220
330
1F
100
AcDbEntity
  8
0
  6
LTYPE1
 62
     3
100
AcDbLine
 10
373.991291345
 20
121.007962099
 30
0.0
 11
373.991291345
 21
122.007960401
 31
0.0
  0
LINE
  5
221
330
1F
100
AcDbEntity
  8
0
  6
LTYPE1
 62
     3
100
AcDbLine
 10
373.991291345
 20
122.007960401
 30
0.0
 11
368.991291456
 21
122.007960401
 31
0.0
  0
LINE
  5
222
330
1F
100
AcDbEntity
  8
0
  6
LTYPE1
 62
     3
100
AcDbLine
 10
373.991291345
 20
121.007962099
 30
0.0
 11
368.991291456
 21
121.007962099
 31
0.0
  0
LINE
  5
223
330
1F
100
AcDbEntity
  8
0
  6
LTYPE1
 62
     3
100
AcDbLine
 10
368.991291456
 20
30.607959202
 30
0.0
 11
364.424321175
 21
30.607959202
 31
0.0
  0
LINE
  5
224
330
1F
100
AcDbEntity
  8
0
  6
LTYPE1
 62
     3
100
AcDbLine
 10
368.991291456
 20
29.607960901
 30
0.0
 11
364.424321175
 21
29.607960901
 31
0.0
  0
LINE
  5
225
330
1F
100
AcDbEntity
  8
0
  6
LTYPE1
 62
     3
100
AcDbLine
 10
375.991291673
 20
30.607959202
 30
0.0
 11
377.134234951
 21
30.637888185
 31
0.0
  0
LINE
  5
226
330
1F
100
AcDbEntity
  8
0
  6
LTYPE1
 62
     3
100
AcDbLine
 10
375.991291673
 20
27.607960573
 30
0.0
 11
375.991291673
 21
30.607959202
 31
0.0
  0
LINE
  5
227
330
1F
100
AcDbEntity
  8
0
  6
LTYPE1
 62
     3
100
AcDbLine
 10
373.991291345
 20
29.607960901
 30
0.0
 11
373.991291345
 21
27.607960573
 31
0.0
  0
LINE
  5
228
330
1F
100
AcDbEntity
  8
0
  6
LTYPE1
 62
     3
100
AcDbLine
 10
375.991291673
 20
27.607960573
 30
0.0
 11
375.991291673
 21
25.660334102
 31
0.0
  0
LINE
  5
229
330
1F
100
AcDbEntity
  8
0
  6
LTYPE1
 62
     3
100
AcDbLine
 10
375.991291673
 20
25.660334102
 30
0.0
 11
373.991291345
 21
25.607960246
 31
0.0
  0
LINE
  5
22A
330
1F
100
AcDbEntity
  8
0
  6
LTYPE1
 62
     3
100
AcDbLine
 10
373.991291345
 20
27.607960573
 30
0.0
 11
373.991291345
 21
25.607960246
 31
0.0
  0
LINE
  5
22B
330
1F
100
AcDbEntity
  8
0
  6
LTYPE1
 62
     3
100
AcDbLine
 10
375.39610763
 20
57.607961766
 30
0.0
 11
375.290102631
 21
55.585289321
 31
0.0
  0
LINE
  5
22C
330
1F
100
AcDbEntity
  8
0
  6
LTYPE1
 62
     3
100
AcDbLine
 10
375.39610763
 20
57.607961766
 30
0.0
 11
375.934706376
 21
57.607961766
 31
0.0
  0
ARC
  5
22D
330
1F
100
AcDbEntity
  8
0
  6
LTYPE1
 62
     3
100
AcDbCircle
 10
375.934706078
 20
57.307961003
 30
0.0
 40
0.300000001
100
AcDbArc
 50
35.000000028
 51
90.0
  0
LINE
  5
22E
330
1F
100
AcDbEntity
  8
0
  6
LTYPE1
 62
     3
100
AcDbLine
 10
377.400867016
 20
55.737100488
 30
0.0
 11
376.180452601
 21
57.480033434
 31
0.0
  0
ARC
  5
22F
330
1F
100
AcDbEntity
  8
0
  6
LTYPE1
 62
     3
100
AcDbCircle
 10
376.99129127
 20
55.450311609
 30
0.0
 40
0.500000002
100
AcDbArc
 50
0.0
 51
35.000000048
  0
LINE
  5
230
330
1F
100
AcDbEntity
  8
0
  6
LTYPE1
 62
     3
100
AcDbLine
 10
377.491290987
 20
55.038141034
 30
0.0
 11
377.491290987
 21
55.450310878
 31
0.0
  0
LINE
  5
231
330
1F
100
AcDbEntity
  8
0
  6
LTYPE1
 62
     3
100
AcDbLine
 10
377.491290987
 20
25.699613563
 30
0.0
 11
375.991291673
 21
25.660334102
 31
0.0
  0
LINE
  5
232
330
1F
100
AcDbEntity
  8
0
  6
LTYPE1
 62
     3
100
AcDbLine
 10
377.491290987
 20
25.699613563
 30
0.0
 11
377.491290987
 21
30.625419638
 31
0.0
  0
LINE
  5
233
330
1F
100
AcDbEntity
  8
0
  6
LTYPE1
 62
     3
100
AcDbLine
 10
377.991292
 20
30.607959202
 30
0.0
 11
373.991291345
 21
30.747642688
 31
0.0
  0
LINE
  5
234
330
1F
100
AcDbEntity
  8
0
  6
LTYPE1
 62
     3
100
AcDbLine
 10
377.991292
 20
31.107654742
 30
0.0
 11
377.991292
 21
30.607959202
 31
0.0
  0
LINE
  5
235
330
1F
100
AcDbEntity
  8
0
  6
LTYPE1
 62
     3
100
AcDbLine
 10
376.852336646
 20
55.558022059
 30
0.0
 11
373.991291345
 21
55.607961438
 31
0.0
  0
ARC
  5
236
330
1F
100
AcDbEntity
  8
0
  6
LTYPE1
 62
     3
100
AcDbCircle
 10
376.847100984
 20
55.258066961
 30
0.0
 40
0.300000006
100
AcDbArc
 50
44.999999987
 51
89.000000523
  0
LINE
  5
237
330
1F
100
AcDbEntity
  8
0
  6
LTYPE1
 62
     3
100
AcDbLine
 10
377.903423578
 20
54.626008443
 30
0.0
 11
377.059233681
 21
55.47019834
 31
0.0
  0
ARC
  5
238
330
1F
100
AcDbEntity
  8
0
  6
LTYPE1
 62
     3
100
AcDbCircle
 10
377.69129127
 20
54.413876675
 30
0.0
 40
0.3
100
AcDbArc
 50
0.0
 51
45.000000004
  0
LINE
  5
239
330
1F
100
AcDbEntity
  8
0
  6
LTYPE1
 62
     3
100
AcDbLine
 10
377.991292
 20
31.107654742
 30
0.0
 11
377.991292
 21
54.413877374
 31
0.0
  0
LWPOLYLINE
  5
23B
330
1F
100
AcDbEntity
  8
0
  6
LTYPE1
 62
     3
100
AcDbPolyline
 90
   141
 70
   128
 43
0.0
 10
374.19129127
 20
59.107961003
 10
374.19129127
 20
59.111504395
 10
374.19129127
 20
59.115063069
 10
374.19129127
 20
59.118636371
 10
374.19129127
 20
59.122223647
 10
374.19129127
 20
59.125824244
 10
374.19129127
 20
59.129437507
 10
374.19129127
 20
59.133062784
 10
374.19129127
 20
59.136699421
 10
374.19129127
 20
59.140346763
 10
374.19129127
 20
59.144004158
 10
374.19129127
 20
59.147670952
 10
374.19129127
 20
59.151346491
 10
374.19129127
 20
59.155030121
 10
374.19129127
 20
59.158721189
 10
374.19129127
 20
59.162419041
 10
374.19129127
 20
59.166123024
 10
374.19129127
 20
59.169832483
 10
374.19129127
 20
59.173546766
 10
374.19129127
 20
59.177265219
 10
374.19129127
 20
59.180987187
 10
374.19129127
 20
59.184712018
 10
374.19129127
 20
59.188439057
 10
374.19129127
 20
59.192167651
 10
374.19129127
 20
59.195897147
 10
374.19129127
 20
59.199626891
 10
374.19129127
 20
59.203356228
 10
374.19129127
 20
59.207084506
 10
374.19129127
 20
59.210811071
 10
374.19129127
 20
59.214535269
 10
374.19129127
 20
59.218256447
 10
374.19129127
 20
59.221973951
 10
374.19129127
 20
59.225687126
 10
374.19129127
 20
59.229395321
 10
374.19129127
 20
59.23309788
 10
374.19129127
 20
59.236794151
 10
374.19129127
 20
59.240482805
 10
374.19129127
 20
59.244162432
 10
374.19129127
 20
59.247832257
 10
374.19129127
 20
59.251491504
 10
374.19129127
 20
59.255139396
 10
374.19129127
 20
59.258775159
 10
374.19129127
 20
59.262398016
 10
374.19129127
 20
59.266007192
 10
374.19129127
 20
59.26960191
 10
374.19129127
 20
59.273181395
 10
374.19129127
 20
59.276744871
 10
374.19129127
 20
59.280291561
 10
374.19129127
 20
59.283820691
 10
374.19129127
 20
59.287331485
 10
374.19129127
 20
59.290823166
 10
374.19129127
 20
59.294294958
 10
374.19129127
 20
59.297746087
 10
374.19129127
 20
59.301175776
 10
374.19129127
 20
59.304583248
 10
374.19129127
 20
59.307967729
 10
374.19129127
 20
59.311328443
 10
374.19129127
 20
59.314664613
 10
374.19129127
 20
59.317975464
 10
374.19129127
 20
59.32126022
 10
374.19129127
 20
59.324518106
 10
374.19129127
 20
59.327748344
 10
374.19129127
 20
59.33095016
 10
374.19129127
 20
59.334122778
 10
374.19129127
 20
59.337265421
 10
374.19129127
 20
59.340377315
 10
374.19129127
 20
59.343457682
 10
374.19129127
 20
59.346505748
 10
374.19129127
 20
59.349520736
 10
374.19129127
 20
59.35250187
 10
374.19129127
 20
59.355448376
 10
374.19129127
 20
59.358358988
 10
374.19129127
 20
59.361232756
 10
374.19129127
 20
59.364069371
 10
374.19129127
 20
59.366868528
 10
374.19129127
 20
59.369629918
 10
374.19129127
 20
59.372353235
 10
374.19129127
 20
59.375038172
 10
374.19129127
 20
59.377684421
 10
374.19129127
 20
59.380291675
 10
374.19129127
 20
59.382859628
 10
374.19129127
 20
59.385387971
 10
374.19129127
 20
59.387876398
 10
374.19129127
 20
59.390324602
 10
374.19129127
 20
59.392732275
 10
374.19129127
 20
59.395099111
 10
374.19129127
 20
59.397424801
 10
374.19129127
 20
59.39970904
 10
374.19129127
 20
59.40195152
 10
374.19129127
 20
59.404151934
 10
374.19129127
 20
59.406309974
 10
374.19129127
 20
59.408425333
 10
374.19129127
 20
59.410497705
 10
374.19129127
 20
59.412526782
 10
374.19129127
 20
59.414512257
 10
374.19129127
 20
59.416453823
 10
374.19129127
 20
59.418351173
 10
374.19129127
 20
59.420203999
 10
374.19129127
 20
59.422011995
 10
374.19129127
 20
59.423774853
 10
374.19129127
 20
59.425492266
 10
374.19129127
 20
59.427163927
 10
374.19129127
 20
59.428789529
 10
374.19129127
 20
59.430368764
 10
374.19129127
 20
59.431901326
 10
374.19129127
 20
59.433386908
 10
374.19129127
 20
59.434825583
 10
374.19129127
 20
59.43621782
 10
374.19129127
 20
59.4375639
 10
374.19129127
 20
59.438864108
 10
374.19129127
 20
59.440118726
 10
374.19129127
 20
59.441328037
 10
374.19129127
 20
59.442492324
 10
374.19129127
 20
59.443611869
 10
374.19129127
 20
59.444686956
 10
374.19129127
 20
59.445717867
 10
374.19129127
 20
59.446704885
 10
374.19129127
 20
59.447648294
 10
374.19129127
 20
59.448548375
 10
374.19129127
 20
59.449405413
 10
374.19129127
 20
59.450219689
 10
374.19129127
 20
59.450991487
 10
374.19129127
 20
59.45172109
 10
374.19129127
 20
59.45240878
 10
374.19129127
 20
59.45305484
 10
374.19129127
 20
59.453659554
 10
374.19129127
 20
59.454223204
 10
374.19129127
 20
59.454746072
 10
374.19129127
 20
59.455228443
 10
374.19129127
 20
59.455670598
 10
374.19129127
 20
59.456072821
 10
374.19129127
 20
59.456435394
 10
374.19129127
 20
59.456758601
 10
374.19129127
 20
59.457042724
 10
374.19129127
 20
59.457288046
 10
374.19129127
 20
59.457494851
 10
374.19129127
 20
59.45766342
 10
374.19129127
 20
59.457794036
 10
374.19129127
 20
59.457886984
 10
374.19129127
 20
59.457942545
 10
374.19129127
 20
59.457961003
  0
ARC
  5
23C
330
1F
100
AcDbEntity
  8
0
  6
LTYPE1
 62
     3
100
AcDbCircle
 10
373.69129127
 20
59.457961002
 30
0.0
 40
0.500000007
100
AcDbArc
 50
359.999999977
 51
53.130102965
  0
LWPOLYLINE
  5
23E
330
1F
100
AcDbEntity
  8
0
  6
LTYPE1
 62
     3
100
AcDbPolyline
 90
   141
 70
   128
 43
0.0
 10
374.19129127
 20
58.757961002
 10
374.19129127
 20
58.75797946
 10
374.19129127
 20
58.758035021
 10
374.19129127
 20
58.758127969
 10
374.19129127
 20
58.758258585
 10
374.19129127
 20
58.758427155
 10
374.19129127
 20
58.758633959
 10
374.19129127
 20
58.758879281
 10
374.19129127
 20
58.759163404
 10
374.19129127
 20
58.759486611
 10
374.19129127
 20
58.759849184
 10
374.19129127
 20
58.760251407
 10
374.19129127
 20
58.760693562
 10
374.19129127
 20
58.761175933
 10
374.19129127
 20
58.761698801
 10
374.19129127
 20
58.762262451
 10
374.19129127
 20
58.762867165
 10
374.19129127
 20
58.763513225
 10
374.19129127
 20
58.764200915
 10
374.19129127
 20
58.764930518
 10
374.19129127
 20
58.765702316
 10
374.19129127
 20
58.766516592
 10
374.19129127
 20
58.76737363
 10
374.19129127
 20
58.768273711
 10
374.19129127
 20
58.76921712
 10
374.19129127
 20
58.770204138
 10
374.19129127
 20
58.77123505
 10
374.19129127
 20
58.772310136
 10
374.19129127
 20
58.773429681
 10
374.19129127
 20
58.774593968
 10
374.19129127
 20
58.775803279
 10
374.19129127
 20
58.777057897
 10
374.19129127
 20
58.778358105
 10
374.19129127
 20
58.779704185
 10
374.19129127
 20
58.781096422
 10
374.19129127
 20
58.782535097
 10
374.19129127
 20
58.784020679
 10
374.19129127
 20
58.785553241
 10
374.19129127
 20
58.787132476
 10
374.19129127
 20
58.788758078
 10
374.19129127
 20
58.790429739
 10
374.19129127
 20
58.792147152
 10
374.19129127
 20
58.79391001
 10
374.19129127
 20
58.795718006
 10
374.19129127
 20
58.797570832
 10
374.19129127
 20
58.799468182
 10
374.19129127
 20
58.801409748
 10
374.19129127
 20
58.803395223
 10
374.19129127
 20
58.8054243
 10
374.19129127
 20
58.807496672
 10
374.19129127
 20
58.809612031
 10
374.19129127
 20
58.811770072
 10
374.19129127
 20
58.813970485
 10
374.19129127
 20
58.816212965
 10
374.19129127
 20
58.818497204
 10
374.19129127
 20
58.820822894
 10
374.19129127
 20
58.82318973
 10
374.19129127
 20
58.825597403
 10
374.19129127
 20
58.828045607
 10
374.19129127
 20
58.830534034
 10
374.19129127
 20
58.833062377
 10
374.19129127
 20
58.83563033
 10
374.19129127
 20
58.838237584
 10
374.19129127
 20
58.840883833
 10
374.19129127
 20
58.84356877
 10
374.19129127
 20
58.846292087
 10
374.19129127
 20
58.849053477
 10
374.19129127
 20
58.851852634
 10
374.19129127
 20
58.854689249
 10
374.19129127
 20
58.857563017
 10
374.19129127
 20
58.860473629
 10
374.19129127
 20
58.863420135
 10
374.19129127
 20
58.866401269
 10
374.19129127
 20
58.869416257
 10
374.19129127
 20
58.872464323
 10
374.19129127
 20
58.875544691
 10
374.19129127
 20
58.878656584
 10
374.19129127
 20
58.881799227
 10
374.19129127
 20
58.884971845
 10
374.19129127
 20
58.888173661
 10
374.19129127
 20
58.891403899
 10
374.19129127
 20
58.894661785
 10
374.19129127
 20
58.897946541
 10
374.19129127
 20
58.901257392
 10
374.19129127
 20
58.904593562
 10
374.19129127
 20
58.907954276
 10
374.19129127
 20
58.911338757
 10
374.19129127
 20
58.914746229
 10
374.19129127
 20
58.918175918
 10
374.19129127
 20
58.921627047
 10
374.19129127
 20
58.925098839
 10
374.19129127
 20
58.92859052
 10
374.19129127
 20
58.932101314
 10
374.19129127
 20
58.935630444
 10
374.19129127
 20
58.939177135
 10
374.19129127
 20
58.94274061
 10
374.19129127
 20
58.946320095
 10
374.19129127
 20
58.949914813
 10
374.19129127
 20
58.953523989
 10
374.19129127
 20
58.957146846
 10
374.19129127
 20
58.960782609
 10
374.19129127
 20
58.964430501
 10
374.19129127
 20
58.968089748
 10
374.19129127
 20
58.971759573
 10
374.19129127
 20
58.9754392
 10
374.19129127
 20
58.979127854
 10
374.19129127
 20
58.982824125
 10
374.19129127
 20
58.986526684
 10
374.19129127
 20
58.990234879
 10
374.19129127
 20
58.993948055
 10
374.19129127
 20
58.997665558
 10
374.19129127
 20
59.001386736
 10
374.19129127
 20
59.005110934
 10
374.19129127
 20
59.008837499
 10
374.19129127
 20
59.012565777
 10
374.19129127
 20
59.016295114
 10
374.19129127
 20
59.020024858
 10
374.19129127
 20
59.023754354
 10
374.19129127
 20
59.027482948
 10
374.19129127
 20
59.031209987
 10
374.19129127
 20
59.034934818
 10
374.19129127
 20
59.038656786
 10
374.19129127
 20
59.042375239
 10
374.19129127
 20
59.046089522
 10
374.19129127
 20
59.049798981
 10
374.19129127
 20
59.053502964
 10
374.19129127
 20
59.057200816
 10
374.19129127
 20
59.060891884
 10
374.19129127
 20
59.064575514
 10
374.19129127
 20
59.068251053
 10
374.19129127
 20
59.071917847
 10
374.19129127
 20
59.075575242
 10
374.19129127
 20
59.079222584
 10
374.19129127
 20
59.082859221
 10
374.19129127
 20
59.086484498
 10
374.19129127
 20
59.090097761
 10
374.19129127
 20
59.093698358
 10
374.19129127
 20
59.097285634
 10
374.19129127
 20
59.100858936
 10
374.19129127
 20
59.10441761
 10
374.19129127
 20
59.107961003
  0
ARC
  5
23F
330
1F
100
AcDbEntity
  8
0
  6
LTYPE1
 62
     3
100
AcDbCircle
 10
373.69129127
 20
58.757961002
 30
0.0
 40
0.50000001
100
AcDbArc
 50
306.869896787
 51
359.99999999
  0
LINE
  5
240
330
1F
100
AcDbEntity
  8
0
  6
LTYPE1
 62
     3
100
AcDbLine
 10
372.991291181
 20
28.6079626
 30
0.0
 11
372.991291181
 21
29.607960901
 31
0.0
  0
LINE
  5
241
330
1F
100
AcDbEntity
  8
0
  6
LTYPE1
 62
     3
100
AcDbLine
 10
372.991291181
 20
28.6079626
 30
0.0
 11
360.991291076
 21
28.6079626
 31
0.0
  0
LINE
  5
242
330
1F
100
AcDbEntity
  8
0
  6
LTYPE1
 62
     3
100
AcDbLine
 10
373.991291345
 20
29.607960901
 30
0.0
 11
373.991291345
 21
30.607959202
 31
0.0
  0
LINE
  5
243
330
1F
100
AcDbEntity
  8
0
  6
LTYPE1
 62
     3
100
AcDbLine
 10
373.991291345
 20
30.607959202
 30
0.0
 11
368.991291456
 21
30.607959202
 31
0.0
  0
LINE
  5
244
330
1F
100
AcDbEntity
  8
0
  6
LTYPE1
 62
     3
100
AcDbLine
 10
373.991291345
 20
29.607960901
 30
0.0
 11
368.991291456
 21
29.607960901
 31
0.0
  0
LINE
  5
245
330
1F
100
AcDbEntity
  8
0
  6
LTYPE1
 62
     3
100
AcDbLine
 10
373.991291345
 20
30.607959202
 30
0.0
 11
373.991291345
 21
121.007962099
 31
0.0
  0
LINE
  5
246
330
1F
100
AcDbEntity
  8
0
  6
Continuous
 62
     3
100
AcDbLine
 10
378.491292569
 20
96.184313342
 30
0.0
 11
380.264961836
 21
97.946158209
 31
0.0
  0
LINE
  5
247
330
1F
100
AcDbEntity
  8
0
  6
Continuous
 62
     3
100
AcDbLine
 10
378.491292569
 20
96.184313342
 30
0.0
 11
379.146412779
 21
98.596950387
 31
0.0
  0
LINE
  5
248
330
1F
100
AcDbEntity
  8
0
  6
Continuous
 62
     3
100
AcDbLine
 10
378.491292569
 20
96.184313342
 30
0.0
 11
391.291292569
 21
118.184313342
 31
0.0
  0
LINE
  5
249
330
1F
100
AcDbEntity
  8
0
  6
Continuous
 62
     3
100
AcDbLine
 10
391.291292569
 20
118.184313342
 30
0.0
 11
405.951292569
 21
118.184313342
 31
0.0
  0
TEXT
  5
24A
330
1F
100
AcDbEntity
  8
0
  6
Continuous
 62
     2
100
AcDbText
 10
391.291292569
 20
119.184313342
 30
0.0
 40
3.0
  1
ＳｉＯｔ３
 41
0.9
  7
KANJI0
 72
     5
 11
405.991292569
 21
119.184313342
 31
0.0
100
AcDbText
  0
LINE
  5
24C
330
1F
100
AcDbEntity
  8
0
  6
Continuous
 62
     3
100
AcDbLine
 10
288.491287575
 20
125.684316984
 30
0.0
 11
288.491287575
 21
141.00431597
 31
0.0
  0
LINE
  5
24D
330
1F
100
AcDbEntity
  8
0
  6
Continuous
 62
     3
100
AcDbLine
 10
288.491287575
 20
139.00431597
 30
0.0
 11
290.906102141
 21
138.357268357
 31
0.0
  0
LINE
  5
24E
330
1F
100
AcDbEntity
  8
0
  6
Continuous
 62
     3
100
AcDbLine
 10
288.491287575
 20
139.00431597
 30
0.0
 11
290.906102141
 21
139.651363582
 31
0.0
  0
LINE
  5
24F
330
1F
100
AcDbEntity
  8
0
  6
Continuous
 62
     3
100
AcDbLine
 10
288.491287575
 20
125.684316984
 30
0.0
 11
288.491287575
 21
153.393520747
 31
0.0
  0
LINE
  5
250
330
1F
100
AcDbEntity
  8
0
  6
Continuous
 62
     3
100
AcDbLine
 10
288.491287575
 20
151.393520747
 30
0.0
 11
290.906102141
 21
150.746473135
 31
0.0
  0
LINE
  5
251
330
1F
100
AcDbEntity
  8
0
  6
Continuous
 62
     3
100
AcDbLine
 10
288.491287575
 20
151.393520747
 30
0.0
 11
290.906102141
 21
152.04056836
 31
0.0
  0
LINE
  5
252
330
1F
100
AcDbEntity
  8
0
  6
Continuous
 62
     3
100
AcDbLine
 10
366.491291047
 20
139.00431597
 30
0.0
 11
364.076476481
 21
139.651363582
 31
0.0
  0
LINE
  5
253
330
1F
100
AcDbEntity
  8
0
  6
Continuous
 62
     3
100
AcDbLine
 10
366.491291047
 20
139.00431597
 30
0.0
 11
364.076476481
 21
138.357268357
 31
0.0
  0
LINE
  5
254
330
1F
100
AcDbEntity
  8
0
  6
Continuous
 62
     3
100
AcDbLine
 10
366.491291047
 20
126.684315286
 30
0.0
 11
366.491291047
 21
141.00431597
 31
0.0
  0
LINE
  5
255
330
1F
100
AcDbEntity
  8
0
  6
Continuous
 62
     3
100
AcDbLine
 10
377.991292
 20
151.393520747
 30
0.0
 11
375.576477435
 21
152.04056836
 31
0.0
  0
LINE
  5
256
330
1F
100
AcDbEntity
  8
0
  6
Continuous
 62
     3
100
AcDbLine
 10
377.991292
 20
151.393520747
 30
0.0
 11
375.576477435
 21
150.746473135
 31
0.0
  0
LINE
  5
257
330
1F
100
AcDbEntity
  8
0
  6
Continuous
 62
     3
100
AcDbLine
 10
377.991292
 20
101.607961363
 30
0.0
 11
377.991292
 21
153.393520747
 31
0.0
  0
LINE
  5
258
330
1F
100
AcDbEntity
  8
0
  6
Continuous
 62
     3
100
AcDbLine
 10
288.491287575
 20
139.00431597
 30
0.0
 11
366.491291047
 21
139.00431597
 31
0.0
  0
LINE
  5
259
330
1F
100
AcDbEntity
  8
0
  6
Continuous
 62
     3
100
AcDbLine
 10
288.491287575
 20
151.393520747
 30
0.0
 11
377.991292
 21
151.393520747
 31
0.0
  0
LINE
  5
25A
330
1F
100
AcDbEntity
  8
0
  6
Continuous
 62
     3
100
AcDbLine
 10
101.757195155
 20
139.00431597
 30
0.0
 11
104.172009721
 21
138.357268357
 31
0.0
  0
LINE
  5
25B
330
1F
100
AcDbEntity
  8
0
  6
Continuous
 62
     3
100
AcDbLine
 10
101.757195155
 20
126.684315286
 30
0.0
 11
101.757195155
 21
141.00431597
 31
0.0
  0
LINE
  5
25C
330
1F
100
AcDbEntity
  8
0
  6
Continuous
 62
     3
100
AcDbLine
 10
101.757195155
 20
139.00431597
 30
0.0
 11
104.172009721
 21
139.651363582
 31
0.0
  0
LINE
  5
25D
330
1F
100
AcDbEntity
  8
0
  6
Continuous
 62
     3
100
AcDbLine
 10
99.877242307
 20
93.984316818
 30
0.0
 11
99.877242307
 21
153.393520747
 31
0.0
  0
LINE
  5
25E
330
1F
100
AcDbEntity
  8
0
  6
Continuous
 62
     3
100
AcDbLine
 10
99.877242307
 20
151.393520747
 30
0.0
 11
102.292056873
 21
150.746473135
 31
0.0
  0
LINE
  5
25F
330
1F
100
AcDbEntity
  8
0
  6
Continuous
 62
     3
100
AcDbLine
 10
99.877242307
 20
151.393520747
 30
0.0
 11
102.292056873
 21
152.04056836
 31
0.0
  0
LINE
  5
260
330
1F
100
AcDbEntity
  8
0
  6
Continuous
 62
     3
100
AcDbLine
 10
239.257198136
 20
139.00431597
 30
0.0
 11
236.84238357
 21
139.651363582
 31
0.0
  0
LINE
  5
261
330
1F
100
AcDbEntity
  8
0
  6
Continuous
 62
     3
100
AcDbLine
 10
239.257198136
 20
139.00431597
 30
0.0
 11
236.84238357
 21
138.357268357
 31
0.0
  0
LINE
  5
262
330
1F
100
AcDbEntity
  8
0
  6
Continuous
 62
     3
100
AcDbLine
 10
239.257198136
 20
126.684315286
 30
0.0
 11
239.257198136
 21
141.00431597
 31
0.0
  0
LINE
  5
263
330
1F
100
AcDbEntity
  8
0
  6
Continuous
 62
     3
100
AcDbLine
 10
241.137152002
 20
151.393520747
 30
0.0
 11
238.722337437
 21
152.04056836
 31
0.0
  0
LINE
  5
264
330
1F
100
AcDbEntity
  8
0
  6
Continuous
 62
     3
100
AcDbLine
 10
241.137152002
 20
151.393520747
 30
0.0
 11
238.722337437
 21
150.746473135
 31
0.0
  0
LINE
  5
265
330
1F
100
AcDbEntity
  8
0
  6
Continuous
 62
     3
100
AcDbLine
 10
241.137152002
 20
93.98431597
 30
0.0
 11
241.137152002
 21
153.393520747
 31
0.0
  0
LINE
  5
266
330
1F
100
AcDbEntity
  8
0
  6
Continuous
 62
     3
100
AcDbLine
 10
101.757195155
 20
139.00431597
 30
0.0
 11
239.257198136
 21
139.00431597
 31
0.0
  0
LINE
  5
267
330
1F
100
AcDbEntity
  8
0
  6
Continuous
 62
     3
100
AcDbLine
 10
99.877242307
 20
151.393520747
 30
0.0
 11
241.137152002
 21
151.393520747
 31
0.0
  0
LINE
  5
268
330
1F
100
AcDbEntity
  8
0
  6
Continuous
 62
     3
100
AcDbLine
 10
100.757195155
 20
125.684315286
 30
0.0
 11
88.454555958
 21
125.684315286
 31
0.0
  0
LINE
  5
269
330
1F
100
AcDbEntity
  8
0
  6
Continuous
 62
     3
100
AcDbLine
 10
90.454555958
 20
125.684315286
 30
0.0
 11
89.807508346
 21
123.26950072
 31
0.0
  0
LINE
  5
26A
330
1F
100
AcDbEntity
  8
0
  6
Continuous
 62
     3
100
AcDbLine
 10
90.454555958
 20
125.684315286
 30
0.0
 11
91.101603571
 21
123.26950072
 31
0.0
  0
LINE
  5
26B
330
1F
100
AcDbEntity
  8
0
  6
Continuous
 62
     3
100
AcDbLine
 10
106.957196645
 20
127.564271327
 30
0.0
 11
77.257194631
 21
127.564271327
 31
0.0
  0
LINE
  5
26C
330
1F
100
AcDbEntity
  8
0
  6
Continuous
 62
     3
100
AcDbLine
 10
79.257194631
 20
127.564271327
 30
0.0
 11
78.610147018
 21
125.149456761
 31
0.0
  0
LINE
  5
26D
330
1F
100
AcDbEntity
  8
0
  6
Continuous
 62
     3
100
AcDbLine
 10
79.257194631
 20
127.564271327
 30
0.0
 11
79.904242244
 21
125.149456761
 31
0.0
  0
LINE
  5
26E
330
1F
100
AcDbEntity
  8
0
  6
Continuous
 62
     3
100
AcDbLine
 10
90.454555958
 20
30.684316478
 30
0.0
 11
91.101603571
 21
33.099131043
 31
0.0
  0
LINE
  5
26F
330
1F
100
AcDbEntity
  8
0
  6
Continuous
 62
     3
100
AcDbLine
 10
90.454555958
 20
30.684316478
 30
0.0
 11
89.807508346
 21
33.099131043
 31
0.0
  0
LINE
  5
270
330
1F
100
AcDbEntity
  8
0
  6
Continuous
 62
     3
100
AcDbLine
 10
100.757195155
 20
30.684316478
 30
0.0
 11
88.454555958
 21
30.684316478
 31
0.0
  0
LINE
  5
271
330
1F
100
AcDbEntity
  8
0
  6
Continuous
 62
     3
100
AcDbLine
 10
79.257194631
 20
25.607960246
 30
0.0
 11
79.904242244
 21
28.022774811
 31
0.0
  0
LINE
  5
272
330
1F
100
AcDbEntity
  8
0
  6
Continuous
 62
     3
100
AcDbLine
 10
79.257194631
 20
25.607960246
 30
0.0
 11
78.610147018
 21
28.022774811
 31
0.0
  0
LINE
  5
273
330
1F
100
AcDbEntity
  8
0
  6
Continuous
 62
     3
100
AcDbLine
 10
163.707196719
 20
25.607960246
 30
0.0
 11
77.257194631
 21
25.607960246
 31
0.0
  0
LINE
  5
274
330
1F
100
AcDbEntity
  8
0
  6
Continuous
 62
     3
100
AcDbLine
 10
90.454555958
 20
125.684315286
 30
0.0
 11
90.454555958
 21
30.684316478
 31
0.0
  0
LINE
  5
275
330
1F
100
AcDbEntity
  8
0
  6
Continuous
 62
     3
100
AcDbLine
 10
79.257194631
 20
127.564271327
 30
0.0
 11
79.257194631
 21
25.607960246
 31
0.0
  0
TEXT
  5
276
330
1F
100
AcDbEntity
  8
0
  6
Continuous
 62
     2
100
AcDbText
 10
163.307197155
 20
152.393520747
 30
0.0
 40
3.0
  1
（１４１．３）
 41
0.6
  7
KANJI1
 72
     5
 11
177.707197155
 21
152.393520747
 31
0.0
100
AcDbText
  0
TEXT
  5
278
330
1F
100
AcDbEntity
  8
0
  6
Continuous
 62
     2
100
AcDbText
 10
165.407196645
 20
140.00431597
 30
0.0
 40
3.0
  1
１３７．５
 41
0.6
  7
KANJI1
 72
     5
 11
175.607196645
 21
140.00431597
 31
0.0
100
AcDbText
  0
TEXT
  5
279
330
1F
100
AcDbEntity
  8
0
  6
Continuous
 62
     2
100
AcDbText
 10
78.257194631
 20
71.486115786
 30
0.0
 40
3.0
  1
（１０２）
 50
90.0
 41
0.6
  7
KANJI1
 72
     5
 11
78.257194631
 21
81.686115786
 31
0.0
100
AcDbText
  0
TEXT
  5
27A
330
1F
100
AcDbEntity
  8
0
  6
Continuous
 62
     2
100
AcDbText
 10
89.454555958
 20
76.234315882
 30
0.0
 40
3.0
  1
９５
 50
90.0
 41
0.6
  7
KANJI1
 72
     5
 11
89.454555958
 21
80.134315882
 31
0.0
100
AcDbText
  0
TEXT
  5
27B
330
1F
100
AcDbEntity
  8
0
  6
Continuous
 62
     2
100
AcDbText
 10
327.091289788
 20
152.393520747
 30
0.0
 40
3.0
  1
（８９．５）
 41
0.6
  7
KANJI1
 72
     5
 11
339.391289788
 21
152.393520747
 31
0.0
100
AcDbText
  0
TEXT
  5
27C
330
1F
100
AcDbEntity
  8
0
  6
Continuous
 62
     2
100
AcDbText
 10
325.541289311
 20
140.00431597
 30
0.0
 40
3.0
  1
７８
 41
0.6
  7
KANJI1
 72
     5
 11
329.441289311
 21
140.00431597
 31
0.0
100
AcDbText
  0
TEXT
  5
27D
330
1F
100
AcDbEntity
  8
0
  6
Continuous
 62
     7
100
AcDbText
 10
37.732017169
 20
265.954727397
 30
0.0
 40
4.7625
  1
SUC-818
 41
0.7
  7
KANJI2
 72
     5
 11
61.068267169
 21
265.954727397
 31
0.0
100
AcDbText
  0
ENDSEC
  0
SECTION
  2
OBJECTS
  0
DICTIONARY
  5
C
330
0
100
AcDbDictionary
280
     0
281
     1
  3
ACAD_GROUP
350
D
  3
ACAD_LAYOUT
350
1A
  3
ACAD_MLINESTYLE
350
17
  3
ACAD_PLOTSETTINGS
350
19
  3
ACAD_PLOTSTYLENAME
350
E
  0
DICTIONARY
  5
D
102
{ACAD_REACTORS
330
C
102
}
330
C
100
AcDbDictionary
280
     0
281
     1
  0
DICTIONARY
  5
1A
102
{ACAD_REACTORS
330
C
102
}
330
C
100
AcDbDictionary
280
     0
281
     1
  3
Model
350
22
  3
ﾚｲｱｳﾄ1
350
1E
  3
ﾚｲｱｳﾄ2
350
26
  0
LAYOUT
  5
22
102
{ACAD_REACTORS
330
1A
102
}
330
1A
100
AcDbPlotSettings
  1

  2

  4

  6

 40
0.0
 41
0.0
 42
0.0
 43
0.0
 44
0.0
 45
0.0
 46
0.0
 47
0.0
 48
0.0
 49
0.0
140
0.0
141
0.0
142
1.0
143
1.0
 70
  1712
 72
     0
 73
     0
 74
     0
  7

 75
     0
147
1.0
148
0.0
149
0.0
100
AcDbLayout
  1
Model
 70
     1
 71
     0
 10
0.0
 20
0.0
 11
0.0
 21
0.0
 12
0.0
 22
0.0
 32
0.0
 14
0.0
 24
0.0
 34
0.0
 15
0.0
 25
0.0
 35
0.0
146
0.0
 13
0.0
 23
0.0
 33
0.0
 16
1.0
 26
0.0
 36
0.0
 17
0.0
 27
1.0
 37
0.0
 76
     0
330
1F
331
0
345
0
346
0
  0
LAYOUT
  5
1E
102
{ACAD_REACTORS
330
1A
102
}
330
1A
100
AcDbPlotSettings
  1

  2

  4

  6

 40
0.0
 41
0.0
 42
0.0
 43
0.0
 44
0.0
 45
0.0
 46
0.0
 47
0.0
 48
0.0
 49
0.0
140
0.0
141
0.0
142
1.0
143
1.0
 70
   688
 72
     0
 73
     0
 74
     5
  7

 75
    16
147
1.0
148
0.0
149
0.0
100
AcDbLayout
  1
ﾚｲｱｳﾄ1
 70
     1
 71
     1
 10
0.0
 20
0.0
 11
0.0
 21
0.0
 12
0.0
 22
0.0
 32
0.0
 14
0.0
 24
0.0
 34
0.0
 15
0.0
 25
0.0
 35
0.0
146
0.0
 13
0.0
 23
0.0
 33
0.0
 16
1.0
 26
0.0
 36
0.0
 17
0.0
 27
1.0
 37
0.0
 76
     0
330
1B
331
0
345
0
346
0
  0
LAYOUT
  5
26
102
{ACAD_REACTORS
330
1A
102
}
330
1A
100
AcDbPlotSettings
  1

  2

  4

  6

 40
0.0
 41
0.0
 42
0.0
 43
0.0
 44
0.0
 45
0.0
 46
0.0
 47
0.0
 48
0.0
 49
0.0
140
0.0
141
0.0
142
1.0
143
1.0
 70
   688
 72
     0
 73
     0
 74
     5
  7

 75
    16
147
1.0
148
0.0
149
0.0
100
AcDbLayout
  1
ﾚｲｱｳﾄ2
 70
     1
 71
     2
 10
0.0
 20
0.0
 11
0.0
 21
0.0
 12
0.0
 22
0.0
 32
0.0
 14
0.0
 24
0.0
 34
0.0
 15
0.0
 25
0.0
 35
0.0
146
0.0
 13
0.0
 23
0.0
 33
0.0
 16
1.0
 26
0.0
 36
0.0
 17
0.0
 27
1.0
 37
0.0
 76
     0
330
23
331
0
345
0
346
0
  0
DICTIONARY
  5
17
102
{ACAD_REACTORS
330
C
102
}
330
C
100
AcDbDictionary
280
     0
281
     1
  3
Standard
350
18
  0
MLINESTYLE
  5
18
102
{ACAD_REACTORS
330
17
102
}
330
17
100
AcDbMlineStyle
  2
STANDARD
 70
     0
  3

 62
   256
 51
90.0
 52
90.0
 71
     2
 49
0.5
 62
   256
  6
ByLayer
 49
-0.5
 62
   256
  6
ByLayer
  0
DICTIONARY
  5
19
102
{ACAD_REACTORS
330
C
102
}
330
C
100
AcDbDictionary
280
     0
281
     1
  0
ACDBDICTIONARYWDFLT
  5
E
330
C
100
AcDbDictionary
281
     0
  3
Normal
350
F
100
AcDbDictionaryWithDefault
340
F
  0
ACDBPLACEHOLDER
  5
F
102
{ACAD_REACTORS
330
E
102
}
330
E
  0
ENDSEC
  0
EOF
