  0
SECTION
  2
HEADER
  9
$ACADVER
  1
AC1015
  9
$ACADMAINTVER
 70
     6
  9
$DWGCODEPAGE
  3
ANSI_932
  9
$INSBASE
 10
0.0
 20
0.0
 30
0.0
  9
$EXTMIN
 10
0.0
 20
0.0
 30
0.0
  9
$EXTMAX
 10
420.0
 20
297.0
 30
0.0
  9
$LIMMIN
 10
0.0
 20
0.0
  9
$LIMMAX
 10
420.0
 20
297.0
  9
$ORTHOMODE
 70
     0
  9
$REGENMODE
 70
     1
  9
$FILLMODE
 70
     1
  9
$QTEXTMODE
 70
     0
  9
$MIRRTEXT
 70
     1
  9
$LTSCALE
 40
1.0
  9
$ATTMODE
 70
     1
  9
$TEXTSIZE
 40
2.5
  9
$TRACEWID
 40
1.0
  9
$TEXTSTYLE
  7
Standard
  9
$CLAYER
  8
0
  9
$CELTYPE
  6
ByLayer
  9
$CECOLOR
 62
   256
  9
$CELTSCALE
 40
1.0
  9
$DISPSILH
 70
     0
  9
$DIMSCALE
 40
1.0
  9
$DIMASZ
 40
2.5
  9
$DIMEXO
 40
0.625
  9
$DIMDLI
 40
3.75
  9
$DIMRND
 40
0.0
  9
$DIMDLE
 40
0.0
  9
$DIMEXE
 40
1.25
  9
$DIMTP
 40
0.0
  9
$DIMTM
 40
0.0
  9
$DIMTXT
 40
2.5
  9
$DIMCEN
 40
2.5
  9
$DIMTSZ
 40
0.0
  9
$DIMTOL
 70
     0
  9
$DIMLIM
 70
     0
  9
$DIMTIH
 70
     0
  9
$DIMTOH
 70
     0
  9
$DIMSE1
 70
     0
  9
$DIMSE2
 70
     0
  9
$DIMTAD
 70
     1
  9
$DIMZIN
 70
     8
  9
$DIMBLK
  1

  9
$DIMASO
 70
     1
  9
$DIMSHO
 70
     1
  9
$DIMPOST
  1

  9
$DIMAPOST
  1

  9
$DIMALT
 70
     0
  9
$DIMALTD
 70
     3
  9
$DIMALTF
 40
0.03937007874016
  9
$DIMLFAC
 40
1.0
  9
$DIMTOFL
 70
     1
  9
$DIMTVP
 40
0.0
  9
$DIMTIX
 70
     0
  9
$DIMSOXD
 70
     0
  9
$DIMSAH
 70
     0
  9
$DIMBLK1
  1

  9
$DIMBLK2
  1

  9
$DIMSTYLE
  2
ISO-25
  9
$DIMCLRD
 70
     0
  9
$DIMCLRE
 70
     0
  9
$DIMCLRT
 70
     0
  9
$DIMTFAC
 40
1.0
  9
$DIMGAP
 40
0.625
  9
$DIMJUST
 70
     0
  9
$DIMSD1
 70
     0
  9
$DIMSD2
 70
     0
  9
$DIMTOLJ
 70
     0
  9
$DIMTZIN
 70
     8
  9
$DIMALTZ
 70
     0
  9
$DIMALTTZ
 70
     0
  9
$DIMUPT
 70
     0
  9
$DIMDEC
 70
     2
  9
$DIMTDEC
 70
     2
  9
$DIMALTU
 70
     2
  9
$DIMALTTD
 70
     3
  9
$DIMTXSTY
  7
Standard
  9
$DIMAUNIT
 70
     0
  9
$DIMADEC
 70
     0
  9
$DIMALTRND
 40
0.0
  9
$DIMAZIN
 70
     0
  9
$DIMDSEP
 70
    46
  9
$DIMATFIT
 70
     3
  9
$DIMFRAC
 70
     0
  9
$DIMLDRBLK
  1

  9
$DIMLUNIT
 70
     2
  9
$DIMLWD
 70
    -2
  9
$DIMLWE
 70
    -2
  9
$DIMTMOVE
 70
     0
  9
$LUNITS
 70
     2
  9
$LUPREC
 70
     4
  9
$SKETCHINC
 40
1.0
  9
$FILLETRAD
 40
10.0
  9
$AUNITS
 70
     0
  9
$AUPREC
 70
     0
  9
$MENU
  1
.
  9
$ELEVATION
 40
0.0
  9
$PELEVATION
 40
0.0
  9
$THICKNESS
 40
0.0
  9
$LIMCHECK
 70
     0
  9
$CHAMFERA
 40
10.0
  9
$CHAMFERB
 40
10.0
  9
$CHAMFERC
 40
20.0
  9
$CHAMFERD
 40
0.0
  9
$SKPOLY
 70
     0
  9
$TDCREATE
 40
2459674.000000
  9
$TDUCREATE
 40
0.000000000
  9
$TDUPDATE
 40
2459674.000000
  9
$TDUUPDATE
 40
2459674.000000
  9
$TDINDWG
 40
0.0
  9
$TDUSRTIMER
 40
0.0
  9
$USRTIMER
 70
     1
  9
$ANGBASE
 50
0.0
  9
$ANGDIR
 70
     0
  9
$PDMODE
 70
     0
  9
$PDSIZE
 40
0.0
  9
$PLINEWID
 40
0.0
  9
$SPLFRAME
 70
     0
  9
$SPLINETYPE
 70
     6
  9
$SPLINESEGS
 70
     8
  9
$HANDSEED
  5
027E
  9
$SURFTAB1
 70
     6
  9
$SURFTAB2
 70
     6
  9
$SURFTYPE
 70
     6
  9
$SURFU
 70
     6
  9
$SURFV
 70
     6
  9
$UCSBASE
  2

  9
$UCSNAME
  2

  9
$UCSORG
 10
0.0
 20
0.0
 30
0.0
  9
$UCSXDIR
 10
1.0
 20
0.0
 30
0.0
  9
$UCSYDIR
 10
0.0
 20
1.0
 30
0.0
  9
$UCSORTHOREF
  2

  9
$UCSORTHOVIEW
 70
     0
  9
$UCSORGTOP
 10
0.0
 20
0.0
 30
0.0
  9
$UCSORGBOTTOM
 10
0.0
 20
0.0
 30
0.0
  9
$UCSORGLEFT
 10
0.0
 20
0.0
 30
0.0
  9
$UCSORGRIGHT
 10
0.0
 20
0.0
 30
0.0
  9
$UCSORGFRONT
 10
0.0
 20
0.0
 30
0.0
  9
$UCSORGBACK
 10
0.0
 20
0.0
 30
0.0
  9
$PUCSBASE
  2

  9
$PUCSNAME
  2

  9
$PUCSORG
 10
0.0
 20
0.0
 30
0.0
  9
$PUCSXDIR
 10
1.0
 20
0.0
 30
0.0
  9
$PUCSYDIR
 10
0.0
 20
1.0
 30
0.0
  9
$PUCSORTHOREF
  2

  9
$PUCSORTHOVIEW
 70
     0
  9
$PUCSORGTOP
 10
0.0
 20
0.0
 30
0.0
  9
$PUCSORGBOTTOM
 10
0.0
 20
0.0
 30
0.0
  9
$PUCSORGLEFT
 10
0.0
 20
0.0
 30
0.0
  9
$PUCSORGRIGHT
 10
0.0
 20
0.0
 30
0.0
  9
$PUCSORGFRONT
 10
0.0
 20
0.0
 30
0.0
  9
$PUCSORGBACK
 10
0.0
 20
0.0
 30
0.0
  9
$USERI1
 70
     0
  9
$USERI2
 70
     0
  9
$USERI3
 70
     0
  9
$USERI4
 70
     0
  9
$USERI5
 70
     0
  9
$USERR1
 40
0.0
  9
$USERR2
 40
0.0
  9
$USERR3
 40
0.0
  9
$USERR4
 40
0.0
  9
$USERR5
 40
0.0
  9
$WORLDVIEW
 70
     1
  9
$SHADEDGE
 70
     3
  9
$SHADEDIF
 70
    70
  9
$TILEMODE
 70
     1
  9
$MAXACTVP
 70
    64
  9
$PINSBASE
 10
0.0
 20
0.0
 30
0.0
  9
$PLIMCHECK
 70
     0
  9
$PEXTMIN
 10
1.000000E+20
 20
1.000000E+20
 30
1.000000E+20
  9
$PEXTMAX
 10
-1.000000E+20
 20
-1.000000E+20
 30
-1.000000E+20
  9
$PLIMMIN
 10
0.0
 20
0.0
  9
$PLIMMAX
 10
0.0
 20
0.0
  9
$UNITMODE
 70
     0
  9
$VISRETAIN
 70
     0
  9
$PLINEGEN
 70
     0
  9
$PSLTSCALE
 70
     1
  9
$TREEDEPTH
 70
  3020
  9
$CMLSTYLE
  2
STANDARD
  9
$CMLJUST
 70
     0
  9
$CMLSCALE
 40
20.0
  9
$PROXYGRAPHICS
 70
     1
  9
$MEASUREMENT
 70
     1
  9
$CELWEIGHT
370
    -1
  9
$ENDCAPS
280
     0
  9
$JOINSTYLE
280
     0
  9
$LWDISPLAY
290
     0
  9
$INSUNITS
 70
     4
  9
$HYPERLINKBASE
  1

  9
$STYLESHEET
  1

  9
$XEDIT
290
     1
  9
$CEPSNTYPE
380
     0
  9
$PSTYLEMODE
290
     1
  9
$FINGERPRINTGUID
  2
{DF332FC5-16D5-B242-CB70-F5786D030EF5}
  9
$VERSIONGUID
  2
{42F2AAD8-398B-AABA-310A-2F61D77FDE70}
  9
$EXTNAMES
290
     1
  9
$PSVPSCALE
 40
0.0
  0
ENDSEC
  0
SECTION
  2
CLASSES
  0
ENDSEC
  0
SECTION
  2
TABLES
  0
TABLE
  2
VPORT
  5
8
330
0
100
AcDbSymbolTable
 70
     3
  0
VPORT
  5
29
330
8
100
AcDbSymbolTableRecord
100
AcDbViewportTableRecord
  2
*Active
 70
     0
 10
0.0
 20
0.0
 11
1.0
 21
1.0
 12
210.0
 22
148.5
 13
0.0
 23
0.0
 14
10.0
 24
10.0
 15
0.0
 25
0.0
 16
0.0
 26
0.0
 36
1.0
 17
0.0
 27
0.0
 37
0.0
 40
297.0
 41
1.414141414
 42
50.0
 43
0.0
 44
0.0
 50
0.0
 51
0.0
 71
     0
 72
  1000
 73
     1
 74
     3
 75
     0
 76
     0
 77
     0
 78
     0
281
     0
 65
     0
110
0.0
120
0.0
130
0.0
111
1.0
121
0.0
131
0.0
112
0.0
122
1.0
132
0.0
 79
     0
146
0.0
  0
ENDTAB
  0
TABLE
  2
LTYPE
  5
5
330
0
100
AcDbSymbolTable
 70
     4
  0
LTYPE
  5
14
330
5
100
AcDbSymbolTableRecord
100
AcDbLinetypeTableRecord
  2
ByBlock
 70
     0
  3

 72
    65
 73
     0
 40
0.0
  0
LTYPE
  5
15
330
5
100
AcDbSymbolTableRecord
100
AcDbLinetypeTableRecord
  2
ByLayer
 70
     0
  3

 72
    65
 73
     0
 40
0.0
  0
LTYPE
  5
16
330
5
100
AcDbSymbolTableRecord
100
AcDbLinetypeTableRecord
  2
Continuous
 70
     0
  3
Solid line
 72
    65
 73
     0
 40
0.0
  0
LTYPE
  5
17B
330
5
100
AcDbSymbolTableRecord
100
AcDbLinetypeTableRecord
  2
LTYPE1
 70
     0
  3
PHANTOM
 72
    65
 73
     6
 40
15.0
 49
11.25
 74
     0
 49
-0.75
 74
     0
 49
0.75
 74
     0
 49
-0.75
 74
     0
 49
0.75
 74
     0
 49
-0.75
 74
     0
  0
ENDTAB
  0
TABLE
  2
LAYER
  5
2
330
0
100
AcDbSymbolTable
 70
   128
  0
LAYER
  5
10
330
2
100
AcDbSymbolTableRecord
100
AcDbLayerTableRecord
  2
0
 70
     0
 62
     7
  6
Continuous
290
     1
370
    -3
390
F
  0
LAYER
  5
2A
330
2
100
AcDbSymbolTableRecord
100
AcDbLayerTableRecord
  2
2
 70
     0
 62
     7
  6
Continuous
290
     1
370
    -3
390
F
  0
LAYER
  5
2B
330
2
100
AcDbSymbolTableRecord
100
AcDbLayerTableRecord
  2
3
 70
     0
 62
     7
  6
Continuous
290
     1
370
    -3
390
F
  0
LAYER
  5
2C
330
2
100
AcDbSymbolTableRecord
100
AcDbLayerTableRecord
  2
4
 70
     0
 62
     7
  6
Continuous
290
     1
370
    -3
390
F
  0
LAYER
  5
2D
330
2
100
AcDbSymbolTableRecord
100
AcDbLayerTableRecord
  2
5
 70
     0
 62
     7
  6
Continuous
290
     1
370
    -3
390
F
  0
LAYER
  5
2E
330
2
100
AcDbSymbolTableRecord
100
AcDbLayerTableRecord
  2
6
 70
     0
 62
     7
  6
Continuous
290
     1
370
    -3
390
F
  0
LAYER
  5
2F
330
2
100
AcDbSymbolTableRecord
100
AcDbLayerTableRecord
  2
7
 70
     0
 62
     7
  6
Continuous
290
     1
370
    -3
390
F
  0
LAYER
  5
30
330
2
100
AcDbSymbolTableRecord
100
AcDbLayerTableRecord
  2
8
 70
     0
 62
     7
  6
Continuous
290
     1
370
    -3
390
F
  0
LAYER
  5
31
330
2
100
AcDbSymbolTableRecord
100
AcDbLayerTableRecord
  2
9
 70
     0
 62
     7
  6
Continuous
290
     1
370
    -3
390
F
  0
LAYER
  5
32
330
2
100
AcDbSymbolTableRecord
100
AcDbLayerTableRecord
  2
10
 70
     0
 62
     7
  6
Continuous
290
     1
370
    -3
390
F
  0
LAYER
  5
33
330
2
100
AcDbSymbolTableRecord
100
AcDbLayerTableRecord
  2
11
 70
     0
 62
     7
  6
Continuous
290
     1
370
    -3
390
F
  0
LAYER
  5
34
330
2
100
AcDbSymbolTableRecord
100
AcDbLayerTableRecord
  2
12
 70
     0
 62
     7
  6
Continuous
290
     1
370
    -3
390
F
  0
LAYER
  5
35
330
2
100
AcDbSymbolTableRecord
100
AcDbLayerTableRecord
  2
13
 70
     0
 62
     7
  6
Continuous
290
     1
370
    -3
390
F
  0
LAYER
  5
36
330
2
100
AcDbSymbolTableRecord
100
AcDbLayerTableRecord
  2
14
 70
     0
 62
     7
  6
Continuous
290
     1
370
    -3
390
F
  0
LAYER
  5
37
330
2
100
AcDbSymbolTableRecord
100
AcDbLayerTableRecord
  2
15
 70
     0
 62
     7
  6
Continuous
290
     1
370
    -3
390
F
  0
LAYER
  5
38
330
2
100
AcDbSymbolTableRecord
100
AcDbLayerTableRecord
  2
16
 70
     0
 62
     7
  6
Continuous
290
     1
370
    -3
390
F
  0
LAYER
  5
39
330
2
100
AcDbSymbolTableRecord
100
AcDbLayerTableRecord
  2
17
 70
     0
 62
     7
  6
Continuous
290
     1
370
    -3
390
F
  0
LAYER
  5
3A
330
2
100
AcDbSymbolTableRecord
100
AcDbLayerTableRecord
  2
18
 70
     0
 62
     7
  6
Continuous
290
     1
370
    -3
390
F
  0
LAYER
  5
3B
330
2
100
AcDbSymbolTableRecord
100
AcDbLayerTableRecord
  2
19
 70
     0
 62
     7
  6
Continuous
290
     1
370
    -3
390
F
  0
LAYER
  5
3C
330
2
100
AcDbSymbolTableRecord
100
AcDbLayerTableRecord
  2
20
 70
     0
 62
     7
  6
Continuous
290
     1
370
    -3
390
F
  0
LAYER
  5
3D
330
2
100
AcDbSymbolTableRecord
100
AcDbLayerTableRecord
  2
21
 70
     0
 62
     7
  6
Continuous
290
     1
370
    -3
390
F
  0
LAYER
  5
3E
330
2
100
AcDbSymbolTableRecord
100
AcDbLayerTableRecord
  2
22
 70
     0
 62
     7
  6
Continuous
290
     1
370
    -3
390
F
  0
LAYER
  5
3F
330
2
100
AcDbSymbolTableRecord
100
AcDbLayerTableRecord
  2
23
 70
     0
 62
     7
  6
Continuous
290
     1
370
    -3
390
F
  0
LAYER
  5
40
330
2
100
AcDbSymbolTableRecord
100
AcDbLayerTableRecord
  2
24
 70
     0
 62
     7
  6
Continuous
290
     1
370
    -3
390
F
  0
LAYER
  5
41
330
2
100
AcDbSymbolTableRecord
100
AcDbLayerTableRecord
  2
25
 70
     0
 62
     7
  6
Continuous
290
     1
370
    -3
390
F
  0
LAYER
  5
42
330
2
100
AcDbSymbolTableRecord
100
AcDbLayerTableRecord
  2
26
 70
     0
 62
     7
  6
Continuous
290
     1
370
    -3
390
F
  0
LAYER
  5
43
330
2
100
AcDbSymbolTableRecord
100
AcDbLayerTableRecord
  2
27
 70
     0
 62
     7
  6
Continuous
290
     1
370
    -3
390
F
  0
LAYER
  5
44
330
2
100
AcDbSymbolTableRecord
100
AcDbLayerTableRecord
  2
28
 70
     0
 62
     7
  6
Continuous
290
     1
370
    -3
390
F
  0
LAYER
  5
45
330
2
100
AcDbSymbolTableRecord
100
AcDbLayerTableRecord
  2
29
 70
     0
 62
     7
  6
Continuous
290
     1
370
    -3
390
F
  0
LAYER
  5
46
330
2
100
AcDbSymbolTableRecord
100
AcDbLayerTableRecord
  2
30
 70
     0
 62
     7
  6
Continuous
290
     1
370
    -3
390
F
  0
LAYER
  5
47
330
2
100
AcDbSymbolTableRecord
100
AcDbLayerTableRecord
  2
31
 70
     0
 62
     7
  6
Continuous
290
     1
370
    -3
390
F
  0
LAYER
  5
48
330
2
100
AcDbSymbolTableRecord
100
AcDbLayerTableRecord
  2
32
 70
     0
 62
     7
  6
Continuous
290
     1
370
    -3
390
F
  0
LAYER
  5
49
330
2
100
AcDbSymbolTableRecord
100
AcDbLayerTableRecord
  2
33
 70
     0
 62
     7
  6
Continuous
290
     1
370
    -3
390
F
  0
LAYER
  5
4A
330
2
100
AcDbSymbolTableRecord
100
AcDbLayerTableRecord
  2
34
 70
     0
 62
     7
  6
Continuous
290
     1
370
    -3
390
F
  0
LAYER
  5
4B
330
2
100
AcDbSymbolTableRecord
100
AcDbLayerTableRecord
  2
35
 70
     0
 62
     7
  6
Continuous
290
     1
370
    -3
390
F
  0
LAYER
  5
4C
330
2
100
AcDbSymbolTableRecord
100
AcDbLayerTableRecord
  2
36
 70
     0
 62
     7
  6
Continuous
290
     1
370
    -3
390
F
  0
LAYER
  5
4D
330
2
100
AcDbSymbolTableRecord
100
AcDbLayerTableRecord
  2
37
 70
     0
 62
     7
  6
Continuous
290
     1
370
    -3
390
F
  0
LAYER
  5
4E
330
2
100
AcDbSymbolTableRecord
100
AcDbLayerTableRecord
  2
38
 70
     0
 62
     7
  6
Continuous
290
     1
370
    -3
390
F
  0
LAYER
  5
4F
330
2
100
AcDbSymbolTableRecord
100
AcDbLayerTableRecord
  2
39
 70
     0
 62
     7
  6
Continuous
290
     1
370
    -3
390
F
  0
LAYER
  5
50
330
2
100
AcDbSymbolTableRecord
100
AcDbLayerTableRecord
  2
40
 70
     0
 62
     7
  6
Continuous
290
     1
370
    -3
390
F
  0
LAYER
  5
51
330
2
100
AcDbSymbolTableRecord
100
AcDbLayerTableRecord
  2
41
 70
     0
 62
     7
  6
Continuous
290
     1
370
    -3
390
F
  0
LAYER
  5
52
330
2
100
AcDbSymbolTableRecord
100
AcDbLayerTableRecord
  2
42
 70
     0
 62
     7
  6
Continuous
290
     1
370
    -3
390
F
  0
LAYER
  5
53
330
2
100
AcDbSymbolTableRecord
100
AcDbLayerTableRecord
  2
43
 70
     0
 62
     7
  6
Continuous
290
     1
370
    -3
390
F
  0
LAYER
  5
54
330
2
100
AcDbSymbolTableRecord
100
AcDbLayerTableRecord
  2
44
 70
     0
 62
     7
  6
Continuous
290
     1
370
    -3
390
F
  0
LAYER
  5
55
330
2
100
AcDbSymbolTableRecord
100
AcDbLayerTableRecord
  2
45
 70
     0
 62
     7
  6
Continuous
290
     1
370
    -3
390
F
  0
LAYER
  5
56
330
2
100
AcDbSymbolTableRecord
100
AcDbLayerTableRecord
  2
46
 70
     0
 62
     7
  6
Continuous
290
     1
370
    -3
390
F
  0
LAYER
  5
57
330
2
100
AcDbSymbolTableRecord
100
AcDbLayerTableRecord
  2
47
 70
     0
 62
     7
  6
Continuous
290
     1
370
    -3
390
F
  0
LAYER
  5
58
330
2
100
AcDbSymbolTableRecord
100
AcDbLayerTableRecord
  2
48
 70
     0
 62
     7
  6
Continuous
290
     1
370
    -3
390
F
  0
LAYER
  5
59
330
2
100
AcDbSymbolTableRecord
100
AcDbLayerTableRecord
  2
49
 70
     0
 62
     7
  6
Continuous
290
     1
370
    -3
390
F
  0
LAYER
  5
5A
330
2
100
AcDbSymbolTableRecord
100
AcDbLayerTableRecord
  2
50
 70
     0
 62
     7
  6
Continuous
290
     1
370
    -3
390
F
  0
LAYER
  5
5B
330
2
100
AcDbSymbolTableRecord
100
AcDbLayerTableRecord
  2
51
 70
     0
 62
     7
  6
Continuous
290
     1
370
    -3
390
F
  0
LAYER
  5
5C
330
2
100
AcDbSymbolTableRecord
100
AcDbLayerTableRecord
  2
52
 70
     0
 62
     7
  6
Continuous
290
     1
370
    -3
390
F
  0
LAYER
  5
5D
330
2
100
AcDbSymbolTableRecord
100
AcDbLayerTableRecord
  2
53
 70
     0
 62
     7
  6
Continuous
290
     1
370
    -3
390
F
  0
LAYER
  5
5E
330
2
100
AcDbSymbolTableRecord
100
AcDbLayerTableRecord
  2
54
 70
     0
 62
     7
  6
Continuous
290
     1
370
    -3
390
F
  0
LAYER
  5
5F
330
2
100
AcDbSymbolTableRecord
100
AcDbLayerTableRecord
  2
55
 70
     0
 62
     7
  6
Continuous
290
     1
370
    -3
390
F
  0
LAYER
  5
60
330
2
100
AcDbSymbolTableRecord
100
AcDbLayerTableRecord
  2
56
 70
     0
 62
     7
  6
Continuous
290
     1
370
    -3
390
F
  0
LAYER
  5
61
330
2
100
AcDbSymbolTableRecord
100
AcDbLayerTableRecord
  2
57
 70
     0
 62
     7
  6
Continuous
290
     1
370
    -3
390
F
  0
LAYER
  5
62
330
2
100
AcDbSymbolTableRecord
100
AcDbLayerTableRecord
  2
58
 70
     0
 62
     7
  6
Continuous
290
     1
370
    -3
390
F
  0
LAYER
  5
63
330
2
100
AcDbSymbolTableRecord
100
AcDbLayerTableRecord
  2
59
 70
     0
 62
     7
  6
Continuous
290
     1
370
    -3
390
F
  0
LAYER
  5
64
330
2
100
AcDbSymbolTableRecord
100
AcDbLayerTableRecord
  2
60
 70
     0
 62
     7
  6
Continuous
290
     1
370
    -3
390
F
  0
LAYER
  5
65
330
2
100
AcDbSymbolTableRecord
100
AcDbLayerTableRecord
  2
61
 70
     0
 62
     7
  6
Continuous
290
     1
370
    -3
390
F
  0
LAYER
  5
66
330
2
100
AcDbSymbolTableRecord
100
AcDbLayerTableRecord
  2
62
 70
     0
 62
     7
  6
Continuous
290
     1
370
    -3
390
F
  0
LAYER
  5
67
330
2
100
AcDbSymbolTableRecord
100
AcDbLayerTableRecord
  2
63
 70
     0
 62
     7
  6
Continuous
290
     1
370
    -3
390
F
  0
LAYER
  5
68
330
2
100
AcDbSymbolTableRecord
100
AcDbLayerTableRecord
  2
64
 70
     0
 62
     7
  6
Continuous
290
     1
370
    -3
390
F
  0
LAYER
  5
69
330
2
100
AcDbSymbolTableRecord
100
AcDbLayerTableRecord
  2
65
 70
     0
 62
     7
  6
Continuous
290
     1
370
    -3
390
F
  0
LAYER
  5
6A
330
2
100
AcDbSymbolTableRecord
100
AcDbLayerTableRecord
  2
66
 70
     0
 62
     7
  6
Continuous
290
     1
370
    -3
390
F
  0
LAYER
  5
6B
330
2
100
AcDbSymbolTableRecord
100
AcDbLayerTableRecord
  2
67
 70
     0
 62
     7
  6
Continuous
290
     1
370
    -3
390
F
  0
LAYER
  5
6C
330
2
100
AcDbSymbolTableRecord
100
AcDbLayerTableRecord
  2
68
 70
     0
 62
     7
  6
Continuous
290
     1
370
    -3
390
F
  0
LAYER
  5
6D
330
2
100
AcDbSymbolTableRecord
100
AcDbLayerTableRecord
  2
69
 70
     0
 62
     7
  6
Continuous
290
     1
370
    -3
390
F
  0
LAYER
  5
6E
330
2
100
AcDbSymbolTableRecord
100
AcDbLayerTableRecord
  2
70
 70
     0
 62
     7
  6
Continuous
290
     1
370
    -3
390
F
  0
LAYER
  5
6F
330
2
100
AcDbSymbolTableRecord
100
AcDbLayerTableRecord
  2
71
 70
     0
 62
     7
  6
Continuous
290
     1
370
    -3
390
F
  0
LAYER
  5
70
330
2
100
AcDbSymbolTableRecord
100
AcDbLayerTableRecord
  2
72
 70
     0
 62
     7
  6
Continuous
290
     1
370
    -3
390
F
  0
LAYER
  5
71
330
2
100
AcDbSymbolTableRecord
100
AcDbLayerTableRecord
  2
73
 70
     0
 62
     7
  6
Continuous
290
     1
370
    -3
390
F
  0
LAYER
  5
72
330
2
100
AcDbSymbolTableRecord
100
AcDbLayerTableRecord
  2
74
 70
     0
 62
     7
  6
Continuous
290
     1
370
    -3
390
F
  0
LAYER
  5
73
330
2
100
AcDbSymbolTableRecord
100
AcDbLayerTableRecord
  2
75
 70
     0
 62
     7
  6
Continuous
290
     1
370
    -3
390
F
  0
LAYER
  5
74
330
2
100
AcDbSymbolTableRecord
100
AcDbLayerTableRecord
  2
76
 70
     0
 62
     7
  6
Continuous
290
     1
370
    -3
390
F
  0
LAYER
  5
75
330
2
100
AcDbSymbolTableRecord
100
AcDbLayerTableRecord
  2
77
 70
     0
 62
     7
  6
Continuous
290
     1
370
    -3
390
F
  0
LAYER
  5
76
330
2
100
AcDbSymbolTableRecord
100
AcDbLayerTableRecord
  2
78
 70
     0
 62
     7
  6
Continuous
290
     1
370
    -3
390
F
  0
LAYER
  5
77
330
2
100
AcDbSymbolTableRecord
100
AcDbLayerTableRecord
  2
79
 70
     0
 62
     7
  6
Continuous
290
     1
370
    -3
390
F
  0
LAYER
  5
78
330
2
100
AcDbSymbolTableRecord
100
AcDbLayerTableRecord
  2
80
 70
     0
 62
     7
  6
Continuous
290
     1
370
    -3
390
F
  0
LAYER
  5
79
330
2
100
AcDbSymbolTableRecord
100
AcDbLayerTableRecord
  2
81
 70
     0
 62
     7
  6
Continuous
290
     1
370
    -3
390
F
  0
LAYER
  5
7A
330
2
100
AcDbSymbolTableRecord
100
AcDbLayerTableRecord
  2
82
 70
     0
 62
     7
  6
Continuous
290
     1
370
    -3
390
F
  0
LAYER
  5
7B
330
2
100
AcDbSymbolTableRecord
100
AcDbLayerTableRecord
  2
83
 70
     0
 62
     7
  6
Continuous
290
     1
370
    -3
390
F
  0
LAYER
  5
7C
330
2
100
AcDbSymbolTableRecord
100
AcDbLayerTableRecord
  2
84
 70
     0
 62
     7
  6
Continuous
290
     1
370
    -3
390
F
  0
LAYER
  5
7D
330
2
100
AcDbSymbolTableRecord
100
AcDbLayerTableRecord
  2
85
 70
     0
 62
     7
  6
Continuous
290
     1
370
    -3
390
F
  0
LAYER
  5
7E
330
2
100
AcDbSymbolTableRecord
100
AcDbLayerTableRecord
  2
86
 70
     0
 62
     7
  6
Continuous
290
     1
370
    -3
390
F
  0
LAYER
  5
7F
330
2
100
AcDbSymbolTableRecord
100
AcDbLayerTableRecord
  2
87
 70
     0
 62
     7
  6
Continuous
290
     1
370
    -3
390
F
  0
LAYER
  5
80
330
2
100
AcDbSymbolTableRecord
100
AcDbLayerTableRecord
  2
88
 70
     0
 62
     7
  6
Continuous
290
     1
370
    -3
390
F
  0
LAYER
  5
81
330
2
100
AcDbSymbolTableRecord
100
AcDbLayerTableRecord
  2
89
 70
     0
 62
     7
  6
Continuous
290
     1
370
    -3
390
F
  0
LAYER
  5
82
330
2
100
AcDbSymbolTableRecord
100
AcDbLayerTableRecord
  2
90
 70
     0
 62
     7
  6
Continuous
290
     1
370
    -3
390
F
  0
LAYER
  5
83
330
2
100
AcDbSymbolTableRecord
100
AcDbLayerTableRecord
  2
91
 70
     0
 62
     7
  6
Continuous
290
     1
370
    -3
390
F
  0
LAYER
  5
84
330
2
100
AcDbSymbolTableRecord
100
AcDbLayerTableRecord
  2
92
 70
     0
 62
     7
  6
Continuous
290
     1
370
    -3
390
F
  0
LAYER
  5
85
330
2
100
AcDbSymbolTableRecord
100
AcDbLayerTableRecord
  2
93
 70
     0
 62
     7
  6
Continuous
290
     1
370
    -3
390
F
  0
LAYER
  5
86
330
2
100
AcDbSymbolTableRecord
100
AcDbLayerTableRecord
  2
94
 70
     0
 62
     7
  6
Continuous
290
     1
370
    -3
390
F
  0
LAYER
  5
87
330
2
100
AcDbSymbolTableRecord
100
AcDbLayerTableRecord
  2
95
 70
     0
 62
     7
  6
Continuous
290
     1
370
    -3
390
F
  0
LAYER
  5
88
330
2
100
AcDbSymbolTableRecord
100
AcDbLayerTableRecord
  2
96
 70
     0
 62
     7
  6
Continuous
290
     1
370
    -3
390
F
  0
LAYER
  5
89
330
2
100
AcDbSymbolTableRecord
100
AcDbLayerTableRecord
  2
97
 70
     0
 62
     7
  6
Continuous
290
     1
370
    -3
390
F
  0
LAYER
  5
8A
330
2
100
AcDbSymbolTableRecord
100
AcDbLayerTableRecord
  2
98
 70
     0
 62
     7
  6
Continuous
290
     1
370
    -3
390
F
  0
LAYER
  5
8B
330
2
100
AcDbSymbolTableRecord
100
AcDbLayerTableRecord
  2
99
 70
     0
 62
     7
  6
Continuous
290
     1
370
    -3
390
F
  0
LAYER
  5
8C
330
2
100
AcDbSymbolTableRecord
100
AcDbLayerTableRecord
  2
100
 70
     0
 62
     7
  6
Continuous
290
     1
370
    -3
390
F
  0
LAYER
  5
8D
330
2
100
AcDbSymbolTableRecord
100
AcDbLayerTableRecord
  2
101
 70
     0
 62
     7
  6
Continuous
290
     1
370
    -3
390
F
  0
LAYER
  5
8E
330
2
100
AcDbSymbolTableRecord
100
AcDbLayerTableRecord
  2
102
 70
     0
 62
     7
  6
Continuous
290
     1
370
    -3
390
F
  0
LAYER
  5
8F
330
2
100
AcDbSymbolTableRecord
100
AcDbLayerTableRecord
  2
103
 70
     0
 62
     7
  6
Continuous
290
     1
370
    -3
390
F
  0
LAYER
  5
90
330
2
100
AcDbSymbolTableRecord
100
AcDbLayerTableRecord
  2
104
 70
     0
 62
     7
  6
Continuous
290
     1
370
    -3
390
F
  0
LAYER
  5
91
330
2
100
AcDbSymbolTableRecord
100
AcDbLayerTableRecord
  2
105
 70
     0
 62
     7
  6
Continuous
290
     1
370
    -3
390
F
  0
LAYER
  5
92
330
2
100
AcDbSymbolTableRecord
100
AcDbLayerTableRecord
  2
106
 70
     0
 62
     7
  6
Continuous
290
     1
370
    -3
390
F
  0
LAYER
  5
93
330
2
100
AcDbSymbolTableRecord
100
AcDbLayerTableRecord
  2
107
 70
     0
 62
     7
  6
Continuous
290
     1
370
    -3
390
F
  0
LAYER
  5
94
330
2
100
AcDbSymbolTableRecord
100
AcDbLayerTableRecord
  2
108
 70
     0
 62
     7
  6
Continuous
290
     1
370
    -3
390
F
  0
LAYER
  5
95
330
2
100
AcDbSymbolTableRecord
100
AcDbLayerTableRecord
  2
109
 70
     0
 62
     7
  6
Continuous
290
     1
370
    -3
390
F
  0
LAYER
  5
96
330
2
100
AcDbSymbolTableRecord
100
AcDbLayerTableRecord
  2
110
 70
     0
 62
     7
  6
Continuous
290
     1
370
    -3
390
F
  0
LAYER
  5
97
330
2
100
AcDbSymbolTableRecord
100
AcDbLayerTableRecord
  2
111
 70
     0
 62
     7
  6
Continuous
290
     1
370
    -3
390
F
  0
LAYER
  5
98
330
2
100
AcDbSymbolTableRecord
100
AcDbLayerTableRecord
  2
112
 70
     0
 62
     7
  6
Continuous
290
     1
370
    -3
390
F
  0
LAYER
  5
99
330
2
100
AcDbSymbolTableRecord
100
AcDbLayerTableRecord
  2
113
 70
     0
 62
     7
  6
Continuous
290
     1
370
    -3
390
F
  0
LAYER
  5
9A
330
2
100
AcDbSymbolTableRecord
100
AcDbLayerTableRecord
  2
114
 70
     0
 62
     7
  6
Continuous
290
     1
370
    -3
390
F
  0
LAYER
  5
9B
330
2
100
AcDbSymbolTableRecord
100
AcDbLayerTableRecord
  2
115
 70
     0
 62
     7
  6
Continuous
290
     1
370
    -3
390
F
  0
LAYER
  5
9C
330
2
100
AcDbSymbolTableRecord
100
AcDbLayerTableRecord
  2
116
 70
     0
 62
     7
  6
Continuous
290
     1
370
    -3
390
F
  0
LAYER
  5
9D
330
2
100
AcDbSymbolTableRecord
100
AcDbLayerTableRecord
  2
117
 70
     0
 62
     7
  6
Continuous
290
     1
370
    -3
390
F
  0
LAYER
  5
9E
330
2
100
AcDbSymbolTableRecord
100
AcDbLayerTableRecord
  2
118
 70
     0
 62
     7
  6
Continuous
290
     1
370
    -3
390
F
  0
LAYER
  5
9F
330
2
100
AcDbSymbolTableRecord
100
AcDbLayerTableRecord
  2
119
 70
     0
 62
     7
  6
Continuous
290
     1
370
    -3
390
F
  0
LAYER
  5
A0
330
2
100
AcDbSymbolTableRecord
100
AcDbLayerTableRecord
  2
120
 70
     0
 62
     7
  6
Continuous
290
     1
370
    -3
390
F
  0
LAYER
  5
A1
330
2
100
AcDbSymbolTableRecord
100
AcDbLayerTableRecord
  2
121
 70
     0
 62
     7
  6
Continuous
290
     1
370
    -3
390
F
  0
LAYER
  5
A2
330
2
100
AcDbSymbolTableRecord
100
AcDbLayerTableRecord
  2
122
 70
     0
 62
     7
  6
Continuous
290
     1
370
    -3
390
F
  0
LAYER
  5
A3
330
2
100
AcDbSymbolTableRecord
100
AcDbLayerTableRecord
  2
123
 70
     0
 62
     7
  6
Continuous
290
     1
370
    -3
390
F
  0
LAYER
  5
A4
330
2
100
AcDbSymbolTableRecord
100
AcDbLayerTableRecord
  2
124
 70
     0
 62
     7
  6
Continuous
290
     1
370
    -3
390
F
  0
LAYER
  5
A5
330
2
100
AcDbSymbolTableRecord
100
AcDbLayerTableRecord
  2
125
 70
     0
 62
     7
  6
Continuous
290
     1
370
    -3
390
F
  0
LAYER
  5
A6
330
2
100
AcDbSymbolTableRecord
100
AcDbLayerTableRecord
  2
126
 70
     0
 62
     7
  6
Continuous
290
     1
370
    -3
390
F
  0
LAYER
  5
A7
330
2
100
AcDbSymbolTableRecord
100
AcDbLayerTableRecord
  2
127
 70
     0
 62
     7
  6
Continuous
290
     1
370
    -3
390
F
  0
LAYER
  5
A8
330
2
100
AcDbSymbolTableRecord
100
AcDbLayerTableRecord
  2
128
 70
     0
 62
     7
  6
Continuous
290
     1
370
    -3
390
F
  0
ENDTAB
  0
TABLE
  2
STYLE
  5
3
330
0
100
AcDbSymbolTable
 70
     4
  0
STYLE
  5
11
330
3
100
AcDbSymbolTableRecord
100
AcDbTextStyleTableRecord
  2
Standard
 70
     0
 40
0.0
 41
1.0
 50
0.0
 71
     0
 42
2.5
  3
txt.shx
  4
extfont.shx
  0
STYLE
  5
249
330
3
100
AcDbSymbolTableRecord
100
AcDbTextStyleTableRecord
  2
KANJI0
 70
     0
 40
3.0
 41
0.9
 50
0.0
 71
     0
 42
3.0
  3
txt.shx
  4
extfont.shx
  0
STYLE
  5
276
330
3
100
AcDbSymbolTableRecord
100
AcDbTextStyleTableRecord
  2
KANJI1
 70
     0
 40
3.0
 41
0.6
 50
0.0
 71
     0
 42
3.0
  3
txt.shx
  4
extfont.shx
  0
STYLE
  5
27D
330
3
100
AcDbSymbolTableRecord
100
AcDbTextStyleTableRecord
  2
KANJI2
 70
     0
 40
4.7625
 41
0.7
 50
0.0
 71
     0
 42
4.7625
  3
txt.shx
  4
extfont.shx
  0
ENDTAB
  0
TABLE
  2
VIEW
  5
6
330
0
100
AcDbSymbolTable
 70
     0
  0
ENDTAB
  0
TABLE
  2
UCS
  5
7
330
0
100
AcDbSymbolTable
 70
     0
  0
ENDTAB
  0
TABLE
  2
APPID
  5
9
330
0
100
AcDbSymbolTable
 70
     1
  0
APPID
  5
12
330
9
100
AcDbSymbolTableRecord
100
AcDbRegAppTableRecord
  2
ACAD
 70
     0
  0
ENDTAB
  0
TABLE
  2
DIMSTYLE
  5
A
330
0
100
AcDbSymbolTable
 70
     1
100
AcDbDimStyleTable
 71
     0
  0
DIMSTYLE
105
27
330
A
100
AcDbSymbolTableRecord
100
AcDbDimStyleTableRecord
  2
ISO-25
 70
    64
  3

  4

 40
1.0
 41
2.5
 42
0.625
 43
3.75
 44
1.25
 45
0.0
 46
0.0
 47
0.0
 48
0.0
 71
     0
 72
     0
 73
     0
 74
     0
 75
     0
 76
     0
 77
     1
 78
     8
 79
     0
140
2.5
141
2.5
142
0.0
143
0.039370079
144
1.0
145
0.0
146
1.0
147
0.625
148
0.0
170
     0
171
     3
172
     1
173
     0
174
     0
175
     0
176
     0
177
     0
178
     0
179
     0
270
     2
271
     2
272
     2
273
     2
274
     3
275
     0
276
     0
277
     2
278
    46
279
     0
280
     0
281
     0
282
     0
283
     1
284
     8
285
     0
286
     0
288
     0
289
     3
340
11
341
0
342
0
343
0
344
0
371
    -2
372
    -2
  0
ENDTAB
  0
TABLE
  2
BLOCK_RECORD
  5
1
330
0
100
AcDbSymbolTable
 70
     3
  0
BLOCK_RECORD
  5
1F
330
1
100
AcDbSymbolTableRecord
100
AcDbBlockTableRecord
  2
*Model_Space
340
22
  0
BLOCK_RECORD
  5
1B
330
1
100
AcDbSymbolTableRecord
100
AcDbBlockTableRecord
  2
*Paper_Space
340
1E
  0
BLOCK_RECORD
  5
23
330
1
100
AcDbSymbolTableRecord
100
AcDbBlockTableRecord
  2
*Paper_Space0
340
26
  0
ENDTAB
  0
ENDSEC
  0
SECTION
  2
BLOCKS
  0
BLOCK
  5
1C
330
1B
100
AcDbEntity
 67
     1
  8
0
100
AcDbBlockBegin
  2
*Paper_Space
 70
     0
 10
0.0
 20
0.0
 30
0.0
  3
*Paper_Space
  1

  0
ENDBLK
  5
1D
330
1B
100
AcDbEntity
  8
0
100
AcDbBlockEnd
  0
BLOCK
  5
20
330
1F
100
AcDbEntity
  8
0
100
AcDbBlockBegin
  2
*Model_Space
 70
     0
 10
0.0
 20
0.0
 30
0.0
  3
*Model_Space
  1

  0
ENDBLK
  5
21
330
1F
100
AcDbEntity
  8
0
100
AcDbBlockEnd
  0
BLOCK
  5
24
330
23
100
AcDbEntity
 67
     1
  8
0
100
AcDbBlockBegin
  2
*Paper_Space0
 70
     0
 10
0.0
 20
0.0
 30
0.0
  3
*Paper_Space0
  1

  0
ENDBLK
  5
25
330
23
100
AcDbEntity
  8
0
100
AcDbBlockEnd
  0
ENDSEC
  0
SECTION
  2
ENTITIES
  0
LINE
  5
A9
330
1F
100
AcDbEntity
  8
0
  6
Continuous
 62
     7
100
AcDbLine
 10
216.036012227
 20
131.655162944
 30
0.0
 11
216.036012227
 21
131.944368406
 31
0.0
  0
LINE
  5
AA
330
1F
100
AcDbEntity
  8
0
  6
Continuous
 62
     7
100
AcDbLine
 10
209.13601091
 20
131.944368406
 30
0.0
 11
209.13601091
 21
131.655162944
 31
0.0
  0
ARC
  5
AB
330
1F
100
AcDbEntity
  8
0
  6
Continuous
 62
     7
100
AcDbCircle
 10
212.586012448
 20
129.055163628
 30
0.0
 40
4.5
100
AcDbArc
 50
39.94450519
 51
70.528779366
  0
ARC
  5
AC
330
1F
100
AcDbEntity
  8
0
  6
Continuous
 62
     7
100
AcDbCircle
 10
212.586012448
 20
129.055163628
 30
0.0
 40
4.5
100
AcDbArc
 50
109.471220635
 51
140.05549481
  0
LINE
  5
AD
330
1F
100
AcDbEntity
  8
0
  6
Continuous
 62
     7
100
AcDbLine
 10
131.586013193
 20
102.105163781
 30
0.0
 11
131.296807731
 21
102.105163781
 31
0.0
  0
LINE
  5
AE
330
1F
100
AcDbEntity
  8
0
  6
Continuous
 62
     7
100
AcDbLine
 10
131.296807731
 20
95.205164327
 30
0.0
 11
131.586013193
 21
95.205164327
 31
0.0
  0
ARC
  5
AF
330
1F
100
AcDbEntity
  8
0
  6
Continuous
 62
     7
100
AcDbCircle
 10
134.186012447
 20
98.655163628
 30
0.0
 40
4.5
100
AcDbArc
 50
129.94450519
 51
160.528779366
  0
ARC
  5
B0
330
1F
100
AcDbEntity
  8
0
  6
Continuous
 62
     7
100
AcDbCircle
 10
134.186012447
 20
98.655163628
 30
0.0
 40
4.5
100
AcDbArc
 50
199.471220635
 51
230.05549481
  0
LINE
  5
B1
330
1F
100
AcDbEntity
  8
0
  6
Continuous
 62
     7
100
AcDbLine
 10
141.536013985
 20
131.655162944
 30
0.0
 11
141.536013985
 21
131.944368406
 31
0.0
  0
LINE
  5
B2
330
1F
100
AcDbEntity
  8
0
  6
Continuous
 62
     7
100
AcDbLine
 10
134.636012668
 20
131.944368406
 30
0.0
 11
134.636012668
 21
131.655162944
 31
0.0
  0
ARC
  5
B3
330
1F
100
AcDbEntity
  8
0
  6
Continuous
 62
     7
100
AcDbCircle
 10
138.086012448
 20
129.055163628
 30
0.0
 40
4.5
100
AcDbArc
 50
39.94450519
 51
70.528779366
  0
ARC
  5
B4
330
1F
100
AcDbEntity
  8
0
  6
Continuous
 62
     7
100
AcDbCircle
 10
138.086012448
 20
129.055163628
 30
0.0
 40
4.5
100
AcDbArc
 50
109.471220635
 51
140.05549481
  0
LINE
  5
B5
330
1F
100
AcDbEntity
  8
0
  6
Continuous
 62
     7
100
AcDbLine
 10
219.086011702
 20
95.205164327
 30
0.0
 11
219.375217164
 21
95.205164327
 31
0.0
  0
LINE
  5
B6
330
1F
100
AcDbEntity
  8
0
  6
Continuous
 62
     7
100
AcDbLine
 10
219.375217164
 20
102.105163781
 30
0.0
 11
219.086011702
 21
102.105163781
 31
0.0
  0
ARC
  5
B7
330
1F
100
AcDbEntity
  8
0
  6
Continuous
 62
     7
100
AcDbCircle
 10
216.486012448
 20
98.655163628
 30
0.0
 40
4.5
100
AcDbArc
 50
19.471220635
 51
50.05549481
  0
ARC
  5
B8
330
1F
100
AcDbEntity
  8
0
  6
Continuous
 62
     7
100
AcDbCircle
 10
216.486012448
 20
98.655163628
 30
0.0
 40
4.5
100
AcDbArc
 50
309.94450519
 51
340.528779365
  0
LINE
  5
B9
330
1F
100
AcDbEntity
  8
0
  6
Continuous
 62
     7
100
AcDbLine
 10
216.036012227
 20
131.944368406
 30
0.0
 11
209.13601091
 21
131.944368406
 31
0.0
  0
LINE
  5
BA
330
1F
100
AcDbEntity
  8
0
  6
Continuous
 62
     7
100
AcDbLine
 10
211.086014116
 20
133.287182821
 30
0.0
 11
211.086014116
 21
133.297803624
 31
0.0
  0
ARC
  5
BB
330
1F
100
AcDbEntity
  8
0
  6
Continuous
 62
     7
100
AcDbCircle
 10
212.586012448
 20
129.055163628
 30
0.0
 40
4.489988864
100
AcDbArc
 50
93.831089424
 51
109.516393361
  0
LINE
  5
BC
330
1F
100
AcDbEntity
  8
0
  6
Continuous
 62
     7
100
AcDbLine
 10
212.286012078
 20
133.287182821
 30
0.0
 11
212.286012078
 21
133.535119517
 31
0.0
  0
ARC
  5
BD
330
1F
100
AcDbEntity
  8
0
  6
Continuous
 62
     7
100
AcDbCircle
 10
212.586012448
 20
129.055163628
 30
0.0
 40
4.242640687
100
AcDbArc
 50
85.945192772
 51
94.054807228
  0
LINE
  5
BE
330
1F
100
AcDbEntity
  8
0
  6
Continuous
 62
     7
100
AcDbLine
 10
212.886011059
 20
133.535119517
 30
0.0
 11
212.886011059
 21
133.287182821
 31
0.0
  0
ARC
  5
BF
330
1F
100
AcDbEntity
  8
0
  6
Continuous
 62
     7
100
AcDbCircle
 10
212.586012448
 20
129.055163628
 30
0.0
 40
4.489988864
100
AcDbArc
 50
70.483606639
 51
86.168910576
  0
LINE
  5
C0
330
1F
100
AcDbEntity
  8
0
  6
Continuous
 62
     7
100
AcDbLine
 10
214.086012746
 20
133.297803624
 30
0.0
 11
214.086012746
 21
133.287182821
 31
0.0
  0
LINE
  5
C1
330
1F
100
AcDbEntity
  8
0
  6
Continuous
 62
     7
100
AcDbLine
 10
131.296807731
 20
98.655163123
 30
0.0
 11
131.296807731
 21
95.205164327
 31
0.0
  0
LINE
  5
C2
330
1F
100
AcDbEntity
  8
0
  6
Continuous
 62
     7
100
AcDbLine
 10
131.296807731
 20
102.105163781
 30
0.0
 11
131.296807731
 21
98.655163123
 31
0.0
  0
LINE
  5
C3
330
1F
100
AcDbEntity
  8
0
  6
Continuous
 62
     7
100
AcDbLine
 10
129.953993315
 20
97.155163808
 30
0.0
 11
129.943372512
 21
97.155163808
 31
0.0
  0
ARC
  5
C4
330
1F
100
AcDbEntity
  8
0
  6
Continuous
 62
     7
100
AcDbCircle
 10
134.186012447
 20
98.655163628
 30
0.0
 40
4.489988864
100
AcDbArc
 50
183.831089424
 51
199.516393362
  0
LINE
  5
C5
330
1F
100
AcDbEntity
  8
0
  6
Continuous
 62
     7
100
AcDbLine
 10
129.953993315
 20
98.355163632
 30
0.0
 11
129.706056619
 21
98.355163632
 31
0.0
  0
ARC
  5
C6
330
1F
100
AcDbEntity
  8
0
  6
Continuous
 62
     7
100
AcDbCircle
 10
134.186012447
 20
98.655163628
 30
0.0
 40
4.242640687
100
AcDbArc
 50
175.945192772
 51
184.054807228
  0
LINE
  5
C7
330
1F
100
AcDbEntity
  8
0
  6
Continuous
 62
     7
100
AcDbLine
 10
129.706056619
 20
98.955164476
 30
0.0
 11
129.953993315
 21
98.955164476
 31
0.0
  0
ARC
  5
C8
330
1F
100
AcDbEntity
  8
0
  6
Continuous
 62
     7
100
AcDbCircle
 10
134.186012447
 20
98.655163628
 30
0.0
 40
4.489988864
100
AcDbArc
 50
160.483606638
 51
176.168910576
  0
LINE
  5
C9
330
1F
100
AcDbEntity
  8
0
  6
Continuous
 62
     7
100
AcDbLine
 10
129.943372512
 20
100.1551643
 30
0.0
 11
129.953993315
 21
100.1551643
 31
0.0
  0
LINE
  5
CA
330
1F
100
AcDbEntity
  8
0
  6
Continuous
 62
     7
100
AcDbLine
 10
141.536013985
 20
131.944368406
 30
0.0
 11
134.636012668
 21
131.944368406
 31
0.0
  0
LINE
  5
CB
330
1F
100
AcDbEntity
  8
0
  6
Continuous
 62
     7
100
AcDbLine
 10
136.586012149
 20
133.287182821
 30
0.0
 11
136.586012149
 21
133.297803624
 31
0.0
  0
ARC
  5
CC
330
1F
100
AcDbEntity
  8
0
  6
Continuous
 62
     7
100
AcDbCircle
 10
138.086012448
 20
129.055163628
 30
0.0
 40
4.489988864
100
AcDbArc
 50
93.831089424
 51
109.516393361
  0
LINE
  5
CD
330
1F
100
AcDbEntity
  8
0
  6
Continuous
 62
     7
100
AcDbLine
 10
137.786013836
 20
133.287182821
 30
0.0
 11
137.786013836
 21
133.535119517
 31
0.0
  0
ARC
  5
CE
330
1F
100
AcDbEntity
  8
0
  6
Continuous
 62
     7
100
AcDbCircle
 10
138.086012448
 20
129.055163628
 30
0.0
 40
4.242640687
100
AcDbArc
 50
85.945192772
 51
94.054807228
  0
LINE
  5
CF
330
1F
100
AcDbEntity
  8
0
  6
Continuous
 62
     7
100
AcDbLine
 10
138.386012817
 20
133.535119517
 30
0.0
 11
138.386012817
 21
133.287182821
 31
0.0
  0
ARC
  5
D0
330
1F
100
AcDbEntity
  8
0
  6
Continuous
 62
     7
100
AcDbCircle
 10
138.086012448
 20
129.055163628
 30
0.0
 40
4.489988864
100
AcDbArc
 50
70.483606639
 51
86.168910576
  0
LINE
  5
D1
330
1F
100
AcDbEntity
  8
0
  6
Continuous
 62
     7
100
AcDbLine
 10
139.586010779
 20
133.297803624
 30
0.0
 11
139.586010779
 21
133.287182821
 31
0.0
  0
LINE
  5
D2
330
1F
100
AcDbEntity
  8
0
  6
Continuous
 62
     7
100
AcDbLine
 10
219.375217164
 20
95.205164327
 30
0.0
 11
219.375217164
 21
102.105163781
 31
0.0
  0
ARC
  5
D3
330
1F
100
AcDbEntity
  8
0
  6
Continuous
 62
     7
100
AcDbCircle
 10
216.486012448
 20
98.655163628
 30
0.0
 40
4.489988864
100
AcDbArc
 50
3.831089424
 51
19.516393362
  0
LINE
  5
D4
330
1F
100
AcDbEntity
  8
0
  6
Continuous
 62
     7
100
AcDbLine
 10
220.71803158
 20
98.955164476
 30
0.0
 11
220.965968276
 21
98.955164476
 31
0.0
  0
ARC
  5
D5
330
1F
100
AcDbEntity
  8
0
  6
Continuous
 62
     7
100
AcDbCircle
 10
216.486012448
 20
98.655163628
 30
0.0
 40
4.242640687
100
AcDbArc
 50
355.945192772
 51
4.054807228
  0
LINE
  5
D6
330
1F
100
AcDbEntity
  8
0
  6
Continuous
 62
     7
100
AcDbLine
 10
220.965968276
 20
98.355163632
 30
0.0
 11
220.71803158
 21
98.355163632
 31
0.0
  0
ARC
  5
D7
330
1F
100
AcDbEntity
  8
0
  6
Continuous
 62
     7
100
AcDbCircle
 10
216.486012448
 20
98.655163628
 30
0.0
 40
4.489988864
100
AcDbArc
 50
340.483606639
 51
356.168910576
  0
LINE
  5
D8
330
1F
100
AcDbEntity
  8
0
  6
Continuous
 62
     7
100
AcDbLine
 10
220.728652383
 20
97.155163808
 30
0.0
 11
220.71803158
 21
97.155163808
 31
0.0
  0
LINE
  5
D9
330
1F
100
AcDbEntity
  8
0
  6
Continuous
 62
     7
100
AcDbLine
 10
220.71803158
 20
100.1551643
 30
0.0
 11
220.728652383
 21
100.1551643
 31
0.0
  0
LINE
  5
DA
330
1F
100
AcDbEntity
  8
0
  6
Continuous
 62
     7
100
AcDbLine
 10
217.986011708
 20
130.655164643
 30
0.0
 11
218.086013401
 21
130.655164643
 31
0.0
  0
LINE
  5
DB
330
1F
100
AcDbEntity
  8
0
  6
Continuous
 62
     7
100
AcDbLine
 10
132.586011494
 20
36.655164136
 30
0.0
 11
218.086013401
 21
36.655164136
 31
0.0
  0
LINE
  5
DC
330
1F
100
AcDbEntity
  8
0
  6
Continuous
 62
     7
100
AcDbLine
 10
132.586011494
 20
130.655164643
 30
0.0
 11
132.686013187
 21
130.655164643
 31
0.0
  0
ARC
  5
DD
330
1F
100
AcDbEntity
  8
0
  6
Continuous
 62
     7
100
AcDbCircle
 10
152.086012448
 20
49.655163628
 30
0.0
 40
5.0
100
AcDbArc
 50
180.0
 51
270.0
  0
LINE
  5
DE
330
1F
100
AcDbEntity
  8
0
  6
Continuous
 62
     7
100
AcDbLine
 10
152.086011896
 20
44.655165447
 30
0.0
 11
198.586012999
 21
44.655165447
 31
0.0
  0
ARC
  5
DF
330
1F
100
AcDbEntity
  8
0
  6
Continuous
 62
     7
100
AcDbCircle
 10
198.586012448
 20
49.655163628
 30
0.0
 40
5.0
100
AcDbArc
 50
270.0
 51
0.0
  0
LINE
  5
E0
330
1F
100
AcDbEntity
  8
0
  6
Continuous
 62
     7
100
AcDbLine
 10
203.586011956
 20
49.655164404
 30
0.0
 11
203.586011956
 21
117.655164375
 31
0.0
  0
ARC
  5
E1
330
1F
100
AcDbEntity
  8
0
  6
Continuous
 62
     7
100
AcDbCircle
 10
198.586012448
 20
117.655163628
 30
0.0
 40
5.0
100
AcDbArc
 50
0.0
 51
90.0
  0
LINE
  5
E2
330
1F
100
AcDbEntity
  8
0
  6
Continuous
 62
     7
100
AcDbLine
 10
198.586012999
 20
122.655163331
 30
0.0
 11
152.086011896
 21
122.655163331
 31
0.0
  0
ARC
  5
E3
330
1F
100
AcDbEntity
  8
0
  6
Continuous
 62
     7
100
AcDbCircle
 10
152.086012448
 20
117.655163628
 30
0.0
 40
5.0
100
AcDbArc
 50
90.0
 51
180.0
  0
LINE
  5
E4
330
1F
100
AcDbEntity
  8
0
  6
Continuous
 62
     7
100
AcDbLine
 10
147.086012939
 20
117.655164375
 30
0.0
 11
147.086012939
 21
49.655164404
 31
0.0
  0
LINE
  5
E5
330
1F
100
AcDbEntity
  8
0
  6
Continuous
 62
     7
100
AcDbLine
 10
217.986011708
 20
131.655162944
 30
0.0
 11
132.686013187
 21
131.655162944
 31
0.0
  0
LINE
  5
E6
330
1F
100
AcDbEntity
  8
0
  6
Continuous
 62
     7
100
AcDbLine
 10
217.986011708
 20
130.655164643
 30
0.0
 11
217.986011708
 21
131.655162944
 31
0.0
  0
LINE
  5
E7
330
1F
100
AcDbEntity
  8
0
  6
Continuous
 62
     7
100
AcDbLine
 10
132.686013187
 20
130.655164643
 30
0.0
 11
132.686013187
 21
131.655162944
 31
0.0
  0
LINE
  5
E8
330
1F
100
AcDbEntity
  8
0
  6
Continuous
 62
     7
100
AcDbLine
 10
218.086013401
 20
36.655164136
 30
0.0
 11
219.086011702
 21
36.655164136
 31
0.0
  0
LINE
  5
E9
330
1F
100
AcDbEntity
  8
0
  6
Continuous
 62
     7
100
AcDbLine
 10
219.086011702
 20
36.655164136
 30
0.0
 11
219.086011702
 21
130.655164643
 31
0.0
  0
LINE
  5
EA
330
1F
100
AcDbEntity
  8
0
  6
Continuous
 62
     7
100
AcDbLine
 10
219.086011702
 20
130.655164643
 30
0.0
 11
218.086013401
 21
130.655164643
 31
0.0
  0
LINE
  5
EB
330
1F
100
AcDbEntity
  8
0
  6
Continuous
 62
     7
100
AcDbLine
 10
132.586011494
 20
36.655164136
 30
0.0
 11
131.586013193
 21
36.655164136
 31
0.0
  0
LINE
  5
EC
330
1F
100
AcDbEntity
  8
0
  6
Continuous
 62
     7
100
AcDbLine
 10
131.586013193
 20
130.655164643
 30
0.0
 11
131.586013193
 21
36.655164136
 31
0.0
  0
LINE
  5
ED
330
1F
100
AcDbEntity
  8
0
  6
Continuous
 62
     7
100
AcDbLine
 10
132.586011494
 20
130.655164643
 30
0.0
 11
131.586013193
 21
130.655164643
 31
0.0
  0
LINE
  5
EE
330
1F
100
AcDbEntity
  8
0
  6
Continuous
 62
     7
100
AcDbLine
 10
131.586013193
 20
131.655162944
 30
0.0
 11
132.586011494
 21
131.655162944
 31
0.0
  0
LINE
  5
EF
330
1F
100
AcDbEntity
  8
0
  6
Continuous
 62
     7
100
AcDbLine
 10
132.586011494
 20
131.655162944
 30
0.0
 11
132.586011494
 21
130.655164643
 31
0.0
  0
LINE
  5
F0
330
1F
100
AcDbEntity
  8
0
  6
Continuous
 62
     7
100
AcDbLine
 10
131.586013193
 20
130.655164643
 30
0.0
 11
131.586013193
 21
131.655162944
 31
0.0
  0
LINE
  5
F1
330
1F
100
AcDbEntity
  8
0
  6
Continuous
 62
     7
100
AcDbLine
 10
218.086013401
 20
131.655162944
 30
0.0
 11
219.086011702
 21
131.655162944
 31
0.0
  0
LINE
  5
F2
330
1F
100
AcDbEntity
  8
0
  6
Continuous
 62
     7
100
AcDbLine
 10
218.086013401
 20
130.655164643
 30
0.0
 11
218.086013401
 21
131.655162944
 31
0.0
  0
LINE
  5
F3
330
1F
100
AcDbEntity
  8
0
  6
Continuous
 62
     7
100
AcDbLine
 10
219.086011702
 20
131.655162944
 30
0.0
 11
219.086011702
 21
130.655164643
 31
0.0
  0
LINE
  5
F4
330
1F
100
AcDbEntity
  8
0
  6
Continuous
 62
     7
100
AcDbLine
 10
345.540629844
 20
131.655162944
 30
0.0
 11
345.540629844
 21
131.944368406
 31
0.0
  0
LINE
  5
F5
330
1F
100
AcDbEntity
  8
0
  6
Continuous
 62
     7
100
AcDbLine
 10
338.640629924
 20
131.944368406
 30
0.0
 11
338.640629924
 21
131.655162944
 31
0.0
  0
ARC
  5
F6
330
1F
100
AcDbEntity
  8
0
  6
Continuous
 62
     7
100
AcDbCircle
 10
342.090629884
 20
129.055163628
 30
0.0
 40
4.5
100
AcDbArc
 50
109.471220635
 51
140.05549481
  0
ARC
  5
F7
330
1F
100
AcDbEntity
  8
0
  6
Continuous
 62
     7
100
AcDbCircle
 10
342.090629884
 20
129.055163628
 30
0.0
 40
4.5
100
AcDbArc
 50
39.94450519
 51
70.528779366
  0
LINE
  5
F8
330
1F
100
AcDbEntity
  8
0
  6
Continuous
 62
     7
100
AcDbLine
 10
342.090629884
 20
131.944368406
 30
0.0
 11
338.640629924
 21
131.944368406
 31
0.0
  0
LINE
  5
F9
330
1F
100
AcDbEntity
  8
0
  6
Continuous
 62
     7
100
AcDbLine
 10
345.540629844
 20
131.944368406
 30
0.0
 11
342.090629884
 21
131.944368406
 31
0.0
  0
LINE
  5
FA
330
1F
100
AcDbEntity
  8
0
  6
Continuous
 62
     7
100
AcDbLine
 10
340.590629871
 20
133.287182821
 30
0.0
 11
340.590629871
 21
133.297803624
 31
0.0
  0
ARC
  5
FB
330
1F
100
AcDbEntity
  8
0
  6
Continuous
 62
     7
100
AcDbCircle
 10
342.090629884
 20
129.055163628
 30
0.0
 40
4.489988864
100
AcDbArc
 50
93.831089424
 51
109.516393361
  0
LINE
  5
FC
330
1F
100
AcDbEntity
  8
0
  6
Continuous
 62
     7
100
AcDbLine
 10
341.79062987
 20
133.287182821
 30
0.0
 11
341.79062987
 21
133.535119517
 31
0.0
  0
ARC
  5
FD
330
1F
100
AcDbEntity
  8
0
  6
Continuous
 62
     7
100
AcDbCircle
 10
342.090629884
 20
129.055163628
 30
0.0
 40
4.242640687
100
AcDbArc
 50
85.945192772
 51
94.054807228
  0
LINE
  5
FE
330
1F
100
AcDbEntity
  8
0
  6
Continuous
 62
     7
100
AcDbLine
 10
342.390629898
 20
133.535119517
 30
0.0
 11
342.390629898
 21
133.287182821
 31
0.0
  0
ARC
  5
FF
330
1F
100
AcDbEntity
  8
0
  6
Continuous
 62
     7
100
AcDbCircle
 10
342.090629884
 20
129.055163628
 30
0.0
 40
4.489988864
100
AcDbArc
 50
70.483606639
 51
86.168910576
  0
LINE
  5
100
330
1F
100
AcDbEntity
  8
0
  6
Continuous
 62
     7
100
AcDbLine
 10
343.590629897
 20
133.297803624
 30
0.0
 11
343.590629897
 21
133.287182821
 31
0.0
  0
CIRCLE
  5
101
330
1F
100
AcDbEntity
  8
0
  6
Continuous
 62
     7
100
AcDbCircle
 10
342.090629884
 20
98.655163628
 30
0.0
 40
3.45
  0
LINE
  5
102
330
1F
100
AcDbEntity
  8
0
  6
Continuous
 62
     7
100
AcDbLine
 10
341.79062987
 20
98.955164476
 30
0.0
 11
341.79062987
 21
100.1551643
 31
0.0
  0
LINE
  5
103
330
1F
100
AcDbEntity
  8
0
  6
Continuous
 62
     7
100
AcDbLine
 10
340.590629871
 20
98.955164476
 30
0.0
 11
341.79062987
 21
98.955164476
 31
0.0
  0
LINE
  5
104
330
1F
100
AcDbEntity
  8
0
  6
Continuous
 62
     7
100
AcDbLine
 10
340.590629871
 20
98.355163632
 30
0.0
 11
340.590629871
 21
98.955164476
 31
0.0
  0
LINE
  5
105
330
1F
100
AcDbEntity
  8
0
  6
Continuous
 62
     7
100
AcDbLine
 10
341.79062987
 20
98.355163632
 30
0.0
 11
340.590629871
 21
98.355163632
 31
0.0
  0
LINE
  5
106
330
1F
100
AcDbEntity
  8
0
  6
Continuous
 62
     7
100
AcDbLine
 10
341.79062987
 20
97.155163808
 30
0.0
 11
341.79062987
 21
98.355163632
 31
0.0
  0
LINE
  5
107
330
1F
100
AcDbEntity
  8
0
  6
Continuous
 62
     7
100
AcDbLine
 10
342.390629898
 20
97.155163808
 30
0.0
 11
341.79062987
 21
97.155163808
 31
0.0
  0
LINE
  5
108
330
1F
100
AcDbEntity
  8
0
  6
Continuous
 62
     7
100
AcDbLine
 10
342.390629898
 20
98.355163632
 30
0.0
 11
342.390629898
 21
97.155163808
 31
0.0
  0
LINE
  5
109
330
1F
100
AcDbEntity
  8
0
  6
Continuous
 62
     7
100
AcDbLine
 10
343.590629897
 20
98.355163632
 30
0.0
 11
342.390629898
 21
98.355163632
 31
0.0
  0
LINE
  5
10A
330
1F
100
AcDbEntity
  8
0
  6
Continuous
 62
     7
100
AcDbLine
 10
343.590629897
 20
98.955164476
 30
0.0
 11
343.590629897
 21
98.355163632
 31
0.0
  0
LINE
  5
10B
330
1F
100
AcDbEntity
  8
0
  6
Continuous
 62
     7
100
AcDbLine
 10
342.390629898
 20
98.955164476
 30
0.0
 11
343.590629897
 21
98.955164476
 31
0.0
  0
LINE
  5
10C
330
1F
100
AcDbEntity
  8
0
  6
Continuous
 62
     7
100
AcDbLine
 10
342.390629898
 20
100.1551643
 30
0.0
 11
342.390629898
 21
98.955164476
 31
0.0
  0
LINE
  5
10D
330
1F
100
AcDbEntity
  8
0
  6
Continuous
 62
     7
100
AcDbLine
 10
341.79062987
 20
100.1551643
 30
0.0
 11
342.390629898
 21
100.1551643
 31
0.0
  0
ARC
  5
10E
330
1F
100
AcDbEntity
  8
0
  6
Continuous
 62
     7
100
AcDbCircle
 10
276.090629884
 20
130.655163628
 30
0.0
 40
1.0
100
AcDbArc
 50
90.0
 51
180.0
  0
LINE
  5
10F
330
1F
100
AcDbEntity
  8
0
  6
Continuous
 62
     7
100
AcDbLine
 10
276.090630242
 20
131.655162944
 30
0.0
 11
351.090629497
 21
131.655162944
 31
0.0
  0
ARC
  5
110
330
1F
100
AcDbEntity
  8
0
  6
Continuous
 62
     7
100
AcDbCircle
 10
351.090629884
 20
130.655163628
 30
0.0
 40
1.0
100
AcDbArc
 50
0.0
 51
90.0
  0
LINE
  5
111
330
1F
100
AcDbEntity
  8
0
  6
Continuous
 62
     7
100
AcDbLine
 10
347.090629772
 20
84.15516354
 30
0.0
 11
327.090630219
 21
84.15516354
 31
0.0
  0
ARC
  5
112
330
1F
100
AcDbEntity
  8
0
  6
Continuous
 62
     7
100
AcDbCircle
 10
327.090629884
 20
79.155163628
 30
0.0
 40
5.0
100
AcDbArc
 50
90.0
 51
180.0
  0
LINE
  5
113
330
1F
100
AcDbEntity
  8
0
  6
Continuous
 62
     7
100
AcDbLine
 10
322.090630331
 20
79.155163623
 30
0.0
 11
322.090630331
 21
41.655163093
 31
0.0
  0
ARC
  5
114
330
1F
100
AcDbEntity
  8
0
  6
Continuous
 62
     7
100
AcDbCircle
 10
317.090629884
 20
41.655163628
 30
0.0
 40
5.0
100
AcDbArc
 50
270.0
 51
0.0
  0
LINE
  5
115
330
1F
100
AcDbEntity
  8
0
  6
Continuous
 62
     7
100
AcDbLine
 10
317.090629512
 20
36.655164136
 30
0.0
 11
275.090628215
 21
36.655164136
 31
0.0
  0
ARC
  5
116
330
1F
100
AcDbEntity
  8
0
  6
Continuous
 62
     7
100
AcDbCircle
 10
347.090629884
 20
89.155163628
 30
0.0
 40
5.0
100
AcDbArc
 50
270.0
 51
0.0
  0
LINE
  5
117
330
1F
100
AcDbEntity
  8
0
  6
Continuous
 62
     7
100
AcDbLine
 10
352.09062966
 20
130.655164643
 30
0.0
 11
352.09062966
 21
89.155163428
 31
0.0
  0
LINE
  5
118
330
1F
100
AcDbEntity
  8
0
  6
Continuous
 62
     7
100
AcDbLine
 10
274.090626188
 20
36.655164136
 30
0.0
 11
275.090628215
 21
36.655164136
 31
0.0
  0
LINE
  5
119
330
1F
100
AcDbEntity
  8
0
  6
Continuous
 62
     7
100
AcDbLine
 10
274.090626188
 20
36.655164136
 30
0.0
 11
274.090626188
 21
130.655164643
 31
0.0
  0
LINE
  5
11A
330
1F
100
AcDbEntity
  8
0
  6
Continuous
 62
     7
100
AcDbLine
 10
275.090628215
 20
130.655164643
 30
0.0
 11
274.090626188
 21
130.655164643
 31
0.0
  0
LINE
  5
11B
330
1F
100
AcDbEntity
  8
0
  6
Continuous
 62
     7
100
AcDbLine
 10
276.090630242
 20
131.655162944
 30
0.0
 11
275.090628215
 21
131.655162944
 31
0.0
  0
ARC
  5
11C
330
1F
100
AcDbEntity
  8
0
  6
Continuous
 62
     7
100
AcDbCircle
 10
275.090629884
 20
130.655163628
 30
0.0
 40
1.0
100
AcDbArc
 50
90.0
 51
180.0
  0
LINE
  5
11D
330
1F
100
AcDbEntity
  8
0
  6
Continuous
 62
     7
100
AcDbLine
 10
352.09062966
 20
131.655162944
 30
0.0
 11
352.09062966
 21
130.655164643
 31
0.0
  0
LINE
  5
11E
330
1F
100
AcDbEntity
  8
0
  6
Continuous
 62
     7
100
AcDbLine
 10
351.090629497
 20
131.655162944
 30
0.0
 11
352.09062966
 21
131.655162944
 31
0.0
  0
LINE
  5
11F
330
1F
100
AcDbEntity
  8
0
  6
Continuous
 62
     7
100
AcDbLine
 10
131.586013193
 20
243.19055136
 30
0.0
 11
131.296807731
 21
243.19055136
 31
0.0
  0
LINE
  5
120
330
1F
100
AcDbEntity
  8
0
  6
Continuous
 62
     7
100
AcDbLine
 10
131.296807731
 20
236.29055144
 30
0.0
 11
131.586013193
 21
236.29055144
 31
0.0
  0
ARC
  5
121
330
1F
100
AcDbEntity
  8
0
  6
Continuous
 62
     7
100
AcDbCircle
 10
134.186012447
 20
239.7405514
 30
0.0
 40
4.5
100
AcDbArc
 50
199.471220635
 51
230.05549481
  0
ARC
  5
122
330
1F
100
AcDbEntity
  8
0
  6
Continuous
 62
     7
100
AcDbCircle
 10
134.186012447
 20
239.7405514
 30
0.0
 40
4.5
100
AcDbArc
 50
129.94450519
 51
160.528779366
  0
LINE
  5
123
330
1F
100
AcDbEntity
  8
0
  6
Continuous
 62
     7
100
AcDbLine
 10
219.086011702
 20
236.29055144
 30
0.0
 11
219.375217164
 21
236.29055144
 31
0.0
  0
LINE
  5
124
330
1F
100
AcDbEntity
  8
0
  6
Continuous
 62
     7
100
AcDbLine
 10
219.375217164
 20
243.19055136
 30
0.0
 11
219.086011702
 21
243.19055136
 31
0.0
  0
ARC
  5
125
330
1F
100
AcDbEntity
  8
0
  6
Continuous
 62
     7
100
AcDbCircle
 10
216.486012448
 20
239.7405514
 30
0.0
 40
4.5
100
AcDbArc
 50
19.471220635
 51
50.05549481
  0
ARC
  5
126
330
1F
100
AcDbEntity
  8
0
  6
Continuous
 62
     7
100
AcDbCircle
 10
216.486012448
 20
239.7405514
 30
0.0
 40
4.5
100
AcDbArc
 50
309.94450519
 51
340.528779365
  0
CIRCLE
  5
127
330
1F
100
AcDbEntity
  8
0
  6
Continuous
 62
     7
100
AcDbCircle
 10
212.586012448
 20
239.7405514
 30
0.0
 40
3.45
  0
LINE
  5
128
330
1F
100
AcDbEntity
  8
0
  6
Continuous
 62
     7
100
AcDbLine
 10
212.286012078
 20
240.040551414
 30
0.0
 11
212.286012078
 21
241.240551413
 31
0.0
  0
LINE
  5
129
330
1F
100
AcDbEntity
  8
0
  6
Continuous
 62
     7
100
AcDbLine
 10
211.086014116
 20
240.040551414
 30
0.0
 11
212.286012078
 21
240.040551414
 31
0.0
  0
LINE
  5
12A
330
1F
100
AcDbEntity
  8
0
  6
Continuous
 62
     7
100
AcDbLine
 10
211.086014116
 20
239.440551386
 30
0.0
 11
211.086014116
 21
240.040551414
 31
0.0
  0
LINE
  5
12B
330
1F
100
AcDbEntity
  8
0
  6
Continuous
 62
     7
100
AcDbLine
 10
212.286012078
 20
239.440551386
 30
0.0
 11
211.086014116
 21
239.440551386
 31
0.0
  0
LINE
  5
12C
330
1F
100
AcDbEntity
  8
0
  6
Continuous
 62
     7
100
AcDbLine
 10
212.286012078
 20
238.240551387
 30
0.0
 11
212.286012078
 21
239.440551386
 31
0.0
  0
LINE
  5
12D
330
1F
100
AcDbEntity
  8
0
  6
Continuous
 62
     7
100
AcDbLine
 10
212.886011059
 20
238.240551387
 30
0.0
 11
212.286012078
 21
238.240551387
 31
0.0
  0
LINE
  5
12E
330
1F
100
AcDbEntity
  8
0
  6
Continuous
 62
     7
100
AcDbLine
 10
212.886011059
 20
239.440551386
 30
0.0
 11
212.886011059
 21
238.240551387
 31
0.0
  0
LINE
  5
12F
330
1F
100
AcDbEntity
  8
0
  6
Continuous
 62
     7
100
AcDbLine
 10
214.086012746
 20
239.440551386
 30
0.0
 11
212.886011059
 21
239.440551386
 31
0.0
  0
LINE
  5
130
330
1F
100
AcDbEntity
  8
0
  6
Continuous
 62
     7
100
AcDbLine
 10
214.086012746
 20
240.040551414
 30
0.0
 11
214.086012746
 21
239.440551386
 31
0.0
  0
LINE
  5
131
330
1F
100
AcDbEntity
  8
0
  6
Continuous
 62
     7
100
AcDbLine
 10
212.886011059
 20
240.040551414
 30
0.0
 11
214.086012746
 21
240.040551414
 31
0.0
  0
LINE
  5
132
330
1F
100
AcDbEntity
  8
0
  6
Continuous
 62
     7
100
AcDbLine
 10
212.886011059
 20
241.240551413
 30
0.0
 11
212.886011059
 21
240.040551414
 31
0.0
  0
LINE
  5
133
330
1F
100
AcDbEntity
  8
0
  6
Continuous
 62
     7
100
AcDbLine
 10
212.286012078
 20
241.240551413
 30
0.0
 11
212.886011059
 21
241.240551413
 31
0.0
  0
LINE
  5
134
330
1F
100
AcDbEntity
  8
0
  6
Continuous
 62
     7
100
AcDbLine
 10
131.296807731
 20
243.19055136
 30
0.0
 11
131.296807731
 21
236.29055144
 31
0.0
  0
LINE
  5
135
330
1F
100
AcDbEntity
  8
0
  6
Continuous
 62
     7
100
AcDbLine
 10
129.706056619
 20
240.040551414
 30
0.0
 11
129.953993315
 21
240.040551414
 31
0.0
  0
ARC
  5
136
330
1F
100
AcDbEntity
  8
0
  6
Continuous
 62
     7
100
AcDbCircle
 10
134.186012447
 20
239.7405514
 30
0.0
 40
4.489988864
100
AcDbArc
 50
160.483606638
 51
176.168910576
  0
LINE
  5
137
330
1F
100
AcDbEntity
  8
0
  6
Continuous
 62
     7
100
AcDbLine
 10
129.943372512
 20
241.240551413
 30
0.0
 11
129.953993315
 21
241.240551413
 31
0.0
  0
LINE
  5
138
330
1F
100
AcDbEntity
  8
0
  6
Continuous
 62
     7
100
AcDbLine
 10
129.953993315
 20
238.240551387
 30
0.0
 11
129.943372512
 21
238.240551387
 31
0.0
  0
ARC
  5
139
330
1F
100
AcDbEntity
  8
0
  6
Continuous
 62
     7
100
AcDbCircle
 10
134.186012447
 20
239.7405514
 30
0.0
 40
4.489988864
100
AcDbArc
 50
183.831089424
 51
199.516393362
  0
LINE
  5
13A
330
1F
100
AcDbEntity
  8
0
  6
Continuous
 62
     7
100
AcDbLine
 10
129.953993315
 20
239.440551386
 30
0.0
 11
129.706056619
 21
239.440551386
 31
0.0
  0
ARC
  5
13B
330
1F
100
AcDbEntity
  8
0
  6
Continuous
 62
     7
100
AcDbCircle
 10
134.186012447
 20
239.7405514
 30
0.0
 40
4.242640687
100
AcDbArc
 50
175.945192772
 51
184.054807228
  0
CIRCLE
  5
13C
330
1F
100
AcDbEntity
  8
0
  6
Continuous
 62
     7
100
AcDbCircle
 10
138.086012448
 20
239.7405514
 30
0.0
 40
3.45
  0
LINE
  5
13D
330
1F
100
AcDbEntity
  8
0
  6
Continuous
 62
     7
100
AcDbLine
 10
137.786013836
 20
240.040551414
 30
0.0
 11
137.786013836
 21
241.240551413
 31
0.0
  0
LINE
  5
13E
330
1F
100
AcDbEntity
  8
0
  6
Continuous
 62
     7
100
AcDbLine
 10
136.586012149
 20
240.040551414
 30
0.0
 11
137.786013836
 21
240.040551414
 31
0.0
  0
LINE
  5
13F
330
1F
100
AcDbEntity
  8
0
  6
Continuous
 62
     7
100
AcDbLine
 10
136.586012149
 20
239.440551386
 30
0.0
 11
136.586012149
 21
240.040551414
 31
0.0
  0
LINE
  5
140
330
1F
100
AcDbEntity
  8
0
  6
Continuous
 62
     7
100
AcDbLine
 10
137.786013836
 20
239.440551386
 30
0.0
 11
136.586012149
 21
239.440551386
 31
0.0
  0
LINE
  5
141
330
1F
100
AcDbEntity
  8
0
  6
Continuous
 62
     7
100
AcDbLine
 10
137.786013836
 20
238.240551387
 30
0.0
 11
137.786013836
 21
239.440551386
 31
0.0
  0
LINE
  5
142
330
1F
100
AcDbEntity
  8
0
  6
Continuous
 62
     7
100
AcDbLine
 10
138.386012817
 20
238.240551387
 30
0.0
 11
137.786013836
 21
238.240551387
 31
0.0
  0
LINE
  5
143
330
1F
100
AcDbEntity
  8
0
  6
Continuous
 62
     7
100
AcDbLine
 10
138.386012817
 20
239.440551386
 30
0.0
 11
138.386012817
 21
238.240551387
 31
0.0
  0
LINE
  5
144
330
1F
100
AcDbEntity
  8
0
  6
Continuous
 62
     7
100
AcDbLine
 10
139.586010779
 20
239.440551386
 30
0.0
 11
138.386012817
 21
239.440551386
 31
0.0
  0
LINE
  5
145
330
1F
100
AcDbEntity
  8
0
  6
Continuous
 62
     7
100
AcDbLine
 10
139.586010779
 20
240.040551414
 30
0.0
 11
139.586010779
 21
239.440551386
 31
0.0
  0
LINE
  5
146
330
1F
100
AcDbEntity
  8
0
  6
Continuous
 62
     7
100
AcDbLine
 10
138.386012817
 20
240.040551414
 30
0.0
 11
139.586010779
 21
240.040551414
 31
0.0
  0
LINE
  5
147
330
1F
100
AcDbEntity
  8
0
  6
Continuous
 62
     7
100
AcDbLine
 10
138.386012817
 20
241.240551413
 30
0.0
 11
138.386012817
 21
240.040551414
 31
0.0
  0
LINE
  5
148
330
1F
100
AcDbEntity
  8
0
  6
Continuous
 62
     7
100
AcDbLine
 10
137.786013836
 20
241.240551413
 30
0.0
 11
138.386012817
 21
241.240551413
 31
0.0
  0
LINE
  5
149
330
1F
100
AcDbEntity
  8
0
  6
Continuous
 62
     7
100
AcDbLine
 10
219.375217164
 20
236.29055144
 30
0.0
 11
219.375217164
 21
243.19055136
 31
0.0
  0
LINE
  5
14A
330
1F
100
AcDbEntity
  8
0
  6
Continuous
 62
     7
100
AcDbLine
 10
220.965968276
 20
239.440551386
 30
0.0
 11
220.71803158
 21
239.440551386
 31
0.0
  0
ARC
  5
14B
330
1F
100
AcDbEntity
  8
0
  6
Continuous
 62
     7
100
AcDbCircle
 10
216.486012448
 20
239.7405514
 30
0.0
 40
4.489988864
100
AcDbArc
 50
340.483606639
 51
356.168910576
  0
LINE
  5
14C
330
1F
100
AcDbEntity
  8
0
  6
Continuous
 62
     7
100
AcDbLine
 10
220.728652383
 20
238.240551387
 30
0.0
 11
220.71803158
 21
238.240551387
 31
0.0
  0
LINE
  5
14D
330
1F
100
AcDbEntity
  8
0
  6
Continuous
 62
     7
100
AcDbLine
 10
220.71803158
 20
241.240551413
 30
0.0
 11
220.728652383
 21
241.240551413
 31
0.0
  0
ARC
  5
14E
330
1F
100
AcDbEntity
  8
0
  6
Continuous
 62
     7
100
AcDbCircle
 10
216.486012448
 20
239.7405514
 30
0.0
 40
4.489988864
100
AcDbArc
 50
3.831089424
 51
19.516393362
  0
LINE
  5
14F
330
1F
100
AcDbEntity
  8
0
  6
Continuous
 62
     7
100
AcDbLine
 10
220.71803158
 20
240.040551414
 30
0.0
 11
220.965968276
 21
240.040551414
 31
0.0
  0
ARC
  5
150
330
1F
100
AcDbEntity
  8
0
  6
Continuous
 62
     7
100
AcDbCircle
 10
216.486012448
 20
239.7405514
 30
0.0
 40
4.242640687
100
AcDbArc
 50
355.945192772
 51
4.054807228
  0
LINE
  5
151
330
1F
100
AcDbEntity
  8
0
  6
Continuous
 62
     7
100
AcDbLine
 10
218.086013401
 20
234.790551427
 30
0.0
 11
217.986011708
 21
234.790551427
 31
0.0
  0
LINE
  5
152
330
1F
100
AcDbEntity
  8
0
  6
Continuous
 62
     7
100
AcDbLine
 10
218.086013401
 20
244.690551373
 30
0.0
 11
217.986011708
 21
244.690551373
 31
0.0
  0
LWPOLYLINE
  5
154
330
1F
100
AcDbEntity
  8
0
  6
Continuous
 62
     7
100
AcDbPolyline
 90
     3
 70
   128
 43
0.0
 10
218.086013401
 20
247.490551273
 10
218.047583307
 20
247.88073166
 10
217.986011708
 20
248.115051488
  0
LWPOLYLINE
  5
156
330
1F
100
AcDbEntity
  8
0
  6
Continuous
 62
     7
100
AcDbPolyline
 90
     3
 70
   128
 43
0.0
 10
218.086013401
 20
231.990551527
 10
218.047583307
 20
231.60037114
 10
217.986011708
 20
231.366051312
  0
LINE
  5
157
330
1F
100
AcDbEntity
  8
0
  6
Continuous
 62
     7
100
AcDbLine
 10
132.586011494
 20
234.790551427
 30
0.0
 11
132.686013187
 21
234.790551427
 31
0.0
  0
LINE
  5
158
330
1F
100
AcDbEntity
  8
0
  6
Continuous
 62
     7
100
AcDbLine
 10
132.586011494
 20
244.690551373
 30
0.0
 11
132.686013187
 21
244.690551373
 31
0.0
  0
LWPOLYLINE
  5
15A
330
1F
100
AcDbEntity
  8
0
  6
Continuous
 62
     7
100
AcDbPolyline
 90
     3
 70
   128
 43
0.0
 10
132.586011494
 20
247.490551273
 10
132.624441588
 20
247.88073166
 10
132.686013187
 20
248.115051488
  0
LWPOLYLINE
  5
15C
330
1F
100
AcDbEntity
  8
0
  6
Continuous
 62
     7
100
AcDbPolyline
 90
     3
 70
   128
 43
0.0
 10
132.586011494
 20
231.990551527
 10
132.624441588
 20
231.60037114
 10
132.686013187
 20
231.366051312
  0
LINE
  5
15D
330
1F
100
AcDbEntity
  8
0
  6
Continuous
 62
     7
100
AcDbLine
 10
217.986011708
 20
171.740547704
 30
0.0
 11
217.986011708
 21
172.740549731
 31
0.0
  0
LINE
  5
15E
330
1F
100
AcDbEntity
  8
0
  6
Continuous
 62
     7
100
AcDbLine
 10
217.986011708
 20
171.740547704
 30
0.0
 11
132.686013187
 21
171.740547704
 31
0.0
  0
LINE
  5
15F
330
1F
100
AcDbEntity
  8
0
  6
Continuous
 62
     7
100
AcDbLine
 10
132.686013187
 20
171.740547704
 30
0.0
 11
132.686013187
 21
172.740549731
 31
0.0
  0
ARC
  5
160
330
1F
100
AcDbEntity
  8
0
  6
Continuous
 62
     7
100
AcDbCircle
 10
133.686012447
 20
248.7405514
 30
0.0
 40
1.0
100
AcDbArc
 50
90.0
 51
180.0
  0
LINE
  5
161
330
1F
100
AcDbEntity
  8
0
  6
Continuous
 62
     7
100
AcDbLine
 10
133.686011488
 20
249.740551176
 30
0.0
 11
216.986013407
 21
249.740551176
 31
0.0
  0
ARC
  5
162
330
1F
100
AcDbEntity
  8
0
  6
Continuous
 62
     7
100
AcDbCircle
 10
216.986012448
 20
248.7405514
 30
0.0
 40
1.0
100
AcDbArc
 50
0.0
 51
90.0
  0
LINE
  5
163
330
1F
100
AcDbEntity
  8
0
  6
Continuous
 62
     7
100
AcDbLine
 10
217.986011708
 20
248.740551013
 30
0.0
 11
217.986011708
 21
172.740549731
 31
0.0
  0
LINE
  5
164
330
1F
100
AcDbEntity
  8
0
  6
Continuous
 62
     7
100
AcDbLine
 10
132.686013187
 20
172.740549731
 30
0.0
 11
132.686013187
 21
248.740551013
 31
0.0
  0
LINE
  5
165
330
1F
100
AcDbEntity
  8
0
  6
Continuous
 62
     7
100
AcDbLine
 10
131.586013193
 20
249.740551176
 30
0.0
 11
132.586011494
 21
249.740551176
 31
0.0
  0
LINE
  5
166
330
1F
100
AcDbEntity
  8
0
  6
Continuous
 62
     7
100
AcDbLine
 10
132.586011494
 20
249.740551176
 30
0.0
 11
132.586011494
 21
248.740551013
 31
0.0
  0
LINE
  5
167
330
1F
100
AcDbEntity
  8
0
  6
Continuous
 62
     7
100
AcDbLine
 10
131.586013193
 20
248.740551013
 30
0.0
 11
131.586013193
 21
249.740551176
 31
0.0
  0
LINE
  5
168
330
1F
100
AcDbEntity
  8
0
  6
Continuous
 62
     7
100
AcDbLine
 10
132.586011494
 20
248.740551013
 30
0.0
 11
132.586011494
 21
173.740551758
 31
0.0
  0
LINE
  5
169
330
1F
100
AcDbEntity
  8
0
  6
Continuous
 62
     7
100
AcDbLine
 10
131.586013193
 20
248.740551013
 30
0.0
 11
131.586013193
 21
173.740551758
 31
0.0
  0
LINE
  5
16A
330
1F
100
AcDbEntity
  8
0
  6
Continuous
 62
     7
100
AcDbLine
 10
219.086011702
 20
173.740551758
 30
0.0
 11
219.086011702
 21
248.740551013
 31
0.0
  0
LINE
  5
16B
330
1F
100
AcDbEntity
  8
0
  6
Continuous
 62
     7
100
AcDbLine
 10
218.086013401
 20
173.740551758
 30
0.0
 11
218.086013401
 21
248.740551013
 31
0.0
  0
LINE
  5
16C
330
1F
100
AcDbEntity
  8
0
  6
Continuous
 62
     7
100
AcDbLine
 10
218.086013401
 20
249.740551176
 30
0.0
 11
219.086011702
 21
249.740551176
 31
0.0
  0
LINE
  5
16D
330
1F
100
AcDbEntity
  8
0
  6
Continuous
 62
     7
100
AcDbLine
 10
219.086011702
 20
249.740551176
 30
0.0
 11
219.086011702
 21
248.740551013
 31
0.0
  0
LINE
  5
16E
330
1F
100
AcDbEntity
  8
0
  6
Continuous
 62
     7
100
AcDbLine
 10
218.086013401
 20
248.740551013
 30
0.0
 11
218.086013401
 21
249.740551176
 31
0.0
  0
LINE
  5
16F
330
1F
100
AcDbEntity
  8
0
  6
Continuous
 62
     7
100
AcDbLine
 10
132.586011494
 20
172.740549731
 30
0.0
 11
131.586013193
 21
172.740549731
 31
0.0
  0
LINE
  5
170
330
1F
100
AcDbEntity
  8
0
  6
Continuous
 62
     7
100
AcDbLine
 10
132.586011494
 20
173.740551758
 30
0.0
 11
132.586011494
 21
172.740549731
 31
0.0
  0
LINE
  5
171
330
1F
100
AcDbEntity
  8
0
  6
Continuous
 62
     7
100
AcDbLine
 10
131.586013193
 20
172.740549731
 30
0.0
 11
131.586013193
 21
173.740551758
 31
0.0
  0
LINE
  5
172
330
1F
100
AcDbEntity
  8
0
  6
Continuous
 62
     7
100
AcDbLine
 10
218.086013401
 20
172.740549731
 30
0.0
 11
219.086011702
 21
172.740549731
 31
0.0
  0
LINE
  5
173
330
1F
100
AcDbEntity
  8
0
  6
Continuous
 62
     7
100
AcDbLine
 10
219.086011702
 20
173.740551758
 30
0.0
 11
219.086011702
 21
172.740549731
 31
0.0
  0
LINE
  5
174
330
1F
100
AcDbEntity
  8
0
  6
Continuous
 62
     7
100
AcDbLine
 10
218.086013401
 20
172.740549731
 30
0.0
 11
218.086013401
 21
173.740551758
 31
0.0
  0
ARC
  5
175
330
1F
100
AcDbEntity
  8
0
  6
Continuous
 62
     7
100
AcDbCircle
 10
132.586012448
 20
172.7405514
 30
0.0
 40
1.0
100
AcDbArc
 50
180.0
 51
270.0
  0
LINE
  5
176
330
1F
100
AcDbEntity
  8
0
  6
Continuous
 62
     7
100
AcDbLine
 10
132.586011494
 20
172.740549731
 30
0.0
 11
132.686013187
 21
172.740549731
 31
0.0
  0
LINE
  5
177
330
1F
100
AcDbEntity
  8
0
  6
Continuous
 62
     7
100
AcDbLine
 10
132.586011494
 20
171.740547704
 30
0.0
 11
132.686013187
 21
171.740547704
 31
0.0
  0
LINE
  5
178
330
1F
100
AcDbEntity
  8
0
  6
Continuous
 62
     7
100
AcDbLine
 10
217.986011708
 20
172.740549731
 30
0.0
 11
218.086013401
 21
172.740549731
 31
0.0
  0
ARC
  5
179
330
1F
100
AcDbEntity
  8
0
  6
Continuous
 62
     7
100
AcDbCircle
 10
218.086012448
 20
172.7405514
 30
0.0
 40
1.0
100
AcDbArc
 50
270.0
 51
0.0
  0
LINE
  5
17A
330
1F
100
AcDbEntity
  8
0
  6
Continuous
 62
     7
100
AcDbLine
 10
217.986011708
 20
171.740547704
 30
0.0
 11
218.086013401
 21
171.740547704
 31
0.0
  0
LINE
  5
17C
330
1F
100
AcDbEntity
  8
0
  6
LTYPE1
 62
     3
100
AcDbLine
 10
165.835708211
 20
265.240550923
 30
0.0
 11
184.836316684
 21
265.240550923
 31
0.0
  0
LINE
  5
17D
330
1F
100
AcDbEntity
  8
0
  6
LTYPE1
 62
     3
100
AcDbLine
 10
185.336012224
 20
265.240550923
 30
0.0
 11
185.19632967
 21
261.24055213
 31
0.0
  0
LINE
  5
17E
330
1F
100
AcDbEntity
  8
0
  6
LTYPE1
 62
     3
100
AcDbLine
 10
184.836316684
 20
265.240550923
 30
0.0
 11
185.336012224
 21
265.240550923
 31
0.0
  0
LINE
  5
17F
330
1F
100
AcDbEntity
  8
0
  6
LTYPE1
 62
     3
100
AcDbLine
 10
165.475695225
 20
261.24055213
 30
0.0
 11
165.336012671
 21
265.240550923
 31
0.0
  0
LINE
  5
180
330
1F
100
AcDbEntity
  8
0
  6
LTYPE1
 62
     3
100
AcDbLine
 10
165.336012671
 20
265.240550923
 30
0.0
 11
165.835708211
 21
265.240550923
 31
0.0
  0
LINE
  5
181
330
1F
100
AcDbEntity
  8
0
  6
LTYPE1
 62
     3
100
AcDbLine
 10
140.836013312
 20
249.740551176
 30
0.0
 11
140.836013312
 21
256.240551311
 31
0.0
  0
ARC
  5
182
330
1F
100
AcDbEntity
  8
0
  6
LTYPE1
 62
     3
100
AcDbCircle
 10
145.836012448
 20
256.2405514
 30
0.0
 40
5.0
100
AcDbArc
 50
90.0
 51
180.0
  0
LINE
  5
183
330
1F
100
AcDbEntity
  8
0
  6
LTYPE1
 62
     3
100
AcDbLine
 10
145.836012269
 20
261.24055213
 30
0.0
 11
204.836012626
 21
261.24055213
 31
0.0
  0
ARC
  5
184
330
1F
100
AcDbEntity
  8
0
  6
LTYPE1
 62
     3
100
AcDbCircle
 10
204.836012448
 20
256.2405514
 30
0.0
 40
5.0
100
AcDbArc
 50
0.0
 51
90.0
  0
LINE
  5
185
330
1F
100
AcDbEntity
  8
0
  6
LTYPE1
 62
     3
100
AcDbLine
 10
209.836011583
 20
256.240551311
 30
0.0
 11
209.836011583
 21
249.740551176
 31
0.0
  0
ARC
  5
186
330
1F
100
AcDbEntity
  8
0
  6
LTYPE1
 62
     3
100
AcDbCircle
 10
212.336012448
 20
41.65738009
 30
0.0
 40
6.778571429
100
AcDbArc
 50
280.626423394
 51
296.268044613
  0
ARC
  5
187
330
1F
100
AcDbEntity
  8
0
  6
LTYPE1
 62
     3
100
AcDbCircle
 10
212.336012448
 20
41.65738009
 30
0.0
 40
6.778571429
100
AcDbArc
 50
243.731955387
 51
259.373576606
  0
ARC
  5
188
330
1F
100
AcDbEntity
  8
0
  6
LTYPE1
 62
     3
100
AcDbCircle
 10
138.336012448
 20
41.65738009
 30
0.0
 40
6.778571429
100
AcDbArc
 50
280.626423394
 51
296.268044613
  0
ARC
  5
189
330
1F
100
AcDbEntity
  8
0
  6
LTYPE1
 62
     3
100
AcDbCircle
 10
138.336012448
 20
41.65738009
 30
0.0
 40
6.778571429
100
AcDbArc
 50
243.731955387
 51
259.373576606
  0
LINE
  5
18A
330
1F
100
AcDbEntity
  8
0
  6
LTYPE1
 62
     3
100
AcDbLine
 10
178.413072664
 20
34.778809919
 30
0.0
 11
178.413072664
 21
35.57880856
 31
0.0
  0
LINE
  5
18B
330
1F
100
AcDbEntity
  8
0
  6
LTYPE1
 62
     3
100
AcDbLine
 10
172.413072612
 20
35.57880856
 30
0.0
 11
172.413072612
 21
34.778809919
 31
0.0
  0
LINE
  5
18C
330
1F
100
AcDbEntity
  8
0
  6
LTYPE1
 62
     3
100
AcDbLine
 10
183.136012236
 20
35.57880856
 30
0.0
 11
183.136012236
 21
33.578808232
 31
0.0
  0
ARC
  5
18D
330
1F
100
AcDbEntity
  8
0
  6
LTYPE1
 62
     3
100
AcDbCircle
 10
181.136012448
 20
33.578808661
 30
0.0
 40
2.0
100
AcDbArc
 50
270.0
 51
0.000000006
  0
LINE
  5
18E
330
1F
100
AcDbEntity
  8
0
  6
LTYPE1
 62
     3
100
AcDbLine
 10
181.136012374
 20
31.578807904
 30
0.0
 11
169.536012521
 21
31.578807904
 31
0.0
  0
ARC
  5
18F
330
1F
100
AcDbEntity
  8
0
  6
LTYPE1
 62
     3
100
AcDbCircle
 10
169.536012448
 20
33.578808661
 30
0.0
 40
2.0
100
AcDbArc
 50
180.0
 51
269.999999995
  0
LINE
  5
190
330
1F
100
AcDbEntity
  8
0
  6
LTYPE1
 62
     3
100
AcDbLine
 10
167.536012659
 20
33.578808232
 30
0.0
 11
167.536012659
 21
35.57880856
 31
0.0
  0
LINE
  5
191
330
1F
100
AcDbEntity
  8
0
  6
LTYPE1
 62
     3
100
AcDbLine
 10
170.836012641
 20
35.57880856
 30
0.0
 11
170.836012641
 21
34.878707303
 31
0.0
  0
ELLIPSE
  5
192
330
1F
100
AcDbEntity
  8
0
  6
LTYPE1
 62
     3
100
AcDbEllipse
 10
171.136115285
 20
34.878911499
 30
0.0
 11
-0.212277444
 21
-0.212277444
 31
0.0
 40
0.999315002
 41
5.498129759
 42
0.785055547
  0
LINE
  5
193
330
1F
100
AcDbEntity
  8
0
  6
LTYPE1
 62
     3
100
AcDbLine
 10
171.135909686
 20
34.578810258
 30
0.0
 11
173.561275418
 21
34.578810258
 31
0.0
  0
ARC
  5
194
330
1F
100
AcDbEntity
  8
0
  6
LTYPE1
 62
     3
100
AcDbCircle
 10
175.336012448
 20
34.578808661
 30
0.0
 40
1.5
100
AcDbArc
 50
189.591302608
 51
350.408697357
  0
LINE
  5
195
330
1F
100
AcDbEntity
  8
0
  6
LTYPE1
 62
     3
100
AcDbLine
 10
177.110749477
 20
34.578810258
 30
0.0
 11
179.536115209
 21
34.578810258
 31
0.0
  0
ELLIPSE
  5
196
330
1F
100
AcDbEntity
  8
0
  6
LTYPE1
 62
     3
100
AcDbEllipse
 10
179.53590961
 20
34.878911499
 30
0.0
 11
0.212277444
 21
-0.212277444
 31
0.0
 40
0.999315002
 41
5.49812976
 42
0.785055544
  0
LINE
  5
197
330
1F
100
AcDbEntity
  8
0
  6
LTYPE1
 62
     3
100
AcDbLine
 10
179.836012254
 20
34.878707303
 30
0.0
 11
179.836012254
 21
35.57880856
 31
0.0
  0
LWPOLYLINE
  5
199
330
1F
100
AcDbEntity
  8
0
  6
LTYPE1
 62
     3
100
AcDbPolyline
 90
    71
 70
   128
 43
0.0
 10
176.815044458
 20
34.328880048
 10
176.816111186
 20
34.334821217
 10
176.817298132
 20
34.340733726
 10
176.818604232
 20
34.346615745
 10
176.820028422
 20
34.352465442
 10
176.821569637
 20
34.358280988
 10
176.823226814
 20
34.364060552
 10
176.824998887
 20
34.369802302
 10
176.826884793
 20
34.375504409
 10
176.828883468
 20
34.381165041
 10
176.830993847
 20
34.386782367
 10
176.833214866
 20
34.392354558
 10
176.835545461
 20
34.397879781
 10
176.837984567
 20
34.403356208
 10
176.840531121
 20
34.408782006
 10
176.843184057
 20
34.414155345
 10
176.845942313
 20
34.419474395
 10
176.848804823
 20
34.424737325
 10
176.851770524
 20
34.429942304
 10
176.85483835
 20
34.435087501
 10
176.858007239
 20
34.440171085
 10
176.861276126
 20
34.445191227
 10
176.864643945
 20
34.450146095
 10
176.868109634
 20
34.455033858
 10
176.871672129
 20
34.459852686
 10
176.875330363
 20
34.464600748
 10
176.879083275
 20
34.469276214
 10
176.882929798
 20
34.473877253
 10
176.88686887
 20
34.478402033
 10
176.890899425
 20
34.482848725
 10
176.8950204
 20
34.487215497
 10
176.899230731
 20
34.491500519
 10
176.903529352
 20
34.49570196
 10
176.907915201
 20
34.49981799
 10
176.912387212
 20
34.503846778
 10
176.916944321
 20
34.507786492
 10
176.921582524
 20
34.511632312
 10
176.926297103
 20
34.515380099
 10
176.931085922
 20
34.519029051
 10
176.935946846
 20
34.522578366
 10
176.940877739
 20
34.526027241
 10
176.945876467
 20
34.529374874
 10
176.950940894
 20
34.532620462
 10
176.956068885
 20
34.535763203
 10
176.961258304
 20
34.538802295
 10
176.966507017
 20
34.541736934
 10
176.971812887
 20
34.544566318
 10
176.977173781
 20
34.547289645
 10
176.982587562
 20
34.549906113
 10
176.988052095
 20
34.552414918
 10
176.993565245
 20
34.554815259
 10
176.999124877
 20
34.557106332
 10
177.004728855
 20
34.559287336
 10
177.010375044
 20
34.561357468
 10
177.016061309
 20
34.563315925
 10
177.021785515
 20
34.565161905
 10
177.027545527
 20
34.566894606
 10
177.033339208
 20
34.568513224
 10
177.039164424
 20
34.570016958
 10
177.04501904
 20
34.571405005
 10
177.05090092
 20
34.572676562
 10
177.056807929
 20
34.573830827
 10
177.062737932
 20
34.574866998
 10
177.068688793
 20
34.575784271
 10
177.074658377
 20
34.576581845
 10
177.08064455
 20
34.577258918
 10
177.086645175
 20
34.577814685
 10
177.092658118
 20
34.578248346
 10
177.098681242
 20
34.578559097
 10
177.104712414
 20
34.578746136
 10
177.110749497
 20
34.578808661
  0
LWPOLYLINE
  5
19B
330
1F
100
AcDbEntity
  8
0
  6
LTYPE1
 62
     3
100
AcDbPolyline
 90
    71
 70
   128
 43
0.0
 10
173.561275397
 20
34.578808661
 10
173.567311254
 20
34.578746756
 10
173.573338882
 20
34.578561539
 10
173.579356299
 20
34.578253752
 10
173.585361523
 20
34.577824142
 10
173.591352572
 20
34.577273452
 10
173.597327462
 20
34.576602426
 10
173.603284211
 20
34.575811809
 10
173.609220838
 20
34.574902345
 10
173.615135359
 20
34.573874778
 10
173.621025792
 20
34.572729853
 10
173.626890154
 20
34.571468314
 10
173.632726464
 20
34.570090906
 10
173.638532739
 20
34.568598372
 10
173.644306996
 20
34.566991457
 10
173.650047253
 20
34.565270906
 10
173.655751528
 20
34.563437462
 10
173.661417837
 20
34.56149187
 10
173.667044199
 20
34.559434875
 10
173.672628632
 20
34.55726722
 10
173.678169152
 20
34.55498965
 10
173.683663777
 20
34.55260291
 10
173.689110525
 20
34.550107743
 10
173.694507414
 20
34.547504894
 10
173.699852461
 20
34.544795107
 10
173.705143683
 20
34.541979127
 10
173.710379098
 20
34.539057698
 10
173.715556725
 20
34.536031565
 10
173.720674579
 20
34.532901471
 10
173.725730679
 20
34.529668161
 10
173.730723043
 20
34.526332379
 10
173.735649687
 20
34.52289487
 10
173.74050863
 20
34.519356377
 10
173.745297889
 20
34.515717646
 10
173.750015482
 20
34.511979421
 10
173.754659426
 20
34.508142445
 10
173.759224299
 20
34.504209864
 10
173.763705236
 20
34.500185642
 10
173.768101089
 20
34.496071749
 10
173.772410712
 20
34.491870158
 10
173.776632957
 20
34.48758284
 10
173.780766678
 20
34.483211767
 10
173.784810728
 20
34.478758911
 10
173.788763958
 20
34.474226243
 10
173.792625223
 20
34.469615735
 10
173.796393376
 20
34.464929359
 10
173.800067268
 20
34.460169087
 10
173.803645754
 20
34.45533689
 10
173.807127686
 20
34.450434739
 10
173.810511917
 20
34.445464608
 10
173.8137973
 20
34.440428466
 10
173.816982688
 20
34.435328287
 10
173.820066934
 20
34.430166042
 10
173.823048891
 20
34.424943702
 10
173.825927411
 20
34.419663239
 10
173.828701349
 20
34.414326625
 10
173.831369556
 20
34.408935832
 10
173.833930886
 20
34.403492831
 10
173.836384192
 20
34.397999594
 10
173.838728326
 20
34.392458093
 10
173.840962142
 20
34.386870299
 10
173.843084493
 20
34.381238185
 10
173.84509423
 20
34.375563721
 10
173.846990209
 20
34.36984888
 10
173.84877128
 20
34.364095633
 10
173.850436298
 20
34.358305952
 10
173.851984116
 20
34.352481809
 10
173.853413585
 20
34.346625176
 10
173.85472356
 20
34.340738023
 10
173.855912893
 20
34.334822323
 10
173.856980436
 20
34.328880048
  0
LINE
  5
19C
330
1F
100
AcDbEntity
  8
0
  6
LTYPE1
 62
     3
100
AcDbLine
 10
204.836012626
 20
34.578810258
 30
0.0
 11
204.836012626
 21
35.57880856
 31
0.0
  0
LINE
  5
19D
330
1F
100
AcDbEntity
  8
0
  6
LTYPE1
 62
     3
100
AcDbLine
 10
204.836012626
 20
34.578810258
 30
0.0
 11
194.83601285
 21
34.578810258
 31
0.0
  0
LINE
  5
19E
330
1F
100
AcDbEntity
  8
0
  6
LTYPE1
 62
     3
100
AcDbLine
 10
194.83601285
 20
34.578810258
 30
0.0
 11
194.83601285
 21
35.57880856
 31
0.0
  0
LINE
  5
19F
330
1F
100
AcDbEntity
  8
0
  6
LTYPE1
 62
     3
100
AcDbLine
 10
213.586011732
 20
34.995059295
 30
0.0
 11
213.586011732
 21
35.007077082
 31
0.0
  0
ARC
  5
1A0
330
1F
100
AcDbEntity
  8
0
  6
LTYPE1
 62
     3
100
AcDbCircle
 10
212.336012448
 20
41.65738009
 30
0.0
 40
6.76675924
100
AcDbArc
 50
273.388871868
 51
280.645189322
  0
LINE
  5
1A1
330
1F
100
AcDbEntity
  8
0
  6
LTYPE1
 62
     3
100
AcDbLine
 10
212.736012245
 20
34.902452304
 30
0.0
 11
212.736012245
 21
35.007077082
 31
0.0
  0
ARC
  5
1A2
330
1F
100
AcDbEntity
  8
0
  6
LTYPE1
 62
     3
100
AcDbCircle
 10
212.336012448
 20
41.65738009
 30
0.0
 40
6.662321713
100
AcDbArc
 50
266.557941195
 51
273.442058805
  0
LINE
  5
1A3
330
1F
100
AcDbEntity
  8
0
  6
LTYPE1
 62
     3
100
AcDbLine
 10
211.936013604
 20
35.007077082
 30
0.0
 11
211.936013604
 21
34.902452304
 31
0.0
  0
ARC
  5
1A4
330
1F
100
AcDbEntity
  8
0
  6
LTYPE1
 62
     3
100
AcDbCircle
 10
212.336012448
 20
41.65738009
 30
0.0
 40
6.76675924
100
AcDbArc
 50
259.354810678
 51
266.611128132
  0
LINE
  5
1A5
330
1F
100
AcDbEntity
  8
0
  6
LTYPE1
 62
     3
100
AcDbLine
 10
211.086014116
 20
35.007077082
 30
0.0
 11
211.086014116
 21
34.995059295
 31
0.0
  0
LINE
  5
1A6
330
1F
100
AcDbEntity
  8
0
  6
LTYPE1
 62
     3
100
AcDbLine
 10
212.065515871
 20
35.57880856
 30
0.0
 11
210.83601361
 21
35.57880856
 31
0.0
  0
LINE
  5
1A7
330
1F
100
AcDbEntity
  8
0
  6
LTYPE1
 62
     3
100
AcDbLine
 10
210.83601361
 20
35.57880856
 30
0.0
 11
209.836011583
 21
35.57880856
 31
0.0
  0
LINE
  5
1A8
330
1F
100
AcDbEntity
  8
0
  6
LTYPE1
 62
     3
100
AcDbLine
 10
142.336012626
 20
35.57880856
 30
0.0
 11
140.836013312
 21
35.57880856
 31
0.0
  0
LINE
  5
1A9
330
1F
100
AcDbEntity
  8
0
  6
LTYPE1
 62
     3
100
AcDbLine
 10
139.836011285
 20
35.57880856
 30
0.0
 11
138.606509025
 21
35.57880856
 31
0.0
  0
LINE
  5
1AA
330
1F
100
AcDbEntity
  8
0
  6
LTYPE1
 62
     3
100
AcDbLine
 10
140.836013312
 20
35.57880856
 30
0.0
 11
139.836011285
 21
35.57880856
 31
0.0
  0
LINE
  5
1AB
330
1F
100
AcDbEntity
  8
0
  6
LTYPE1
 62
     3
100
AcDbLine
 10
209.836011583
 20
35.57880856
 30
0.0
 11
208.336012269
 21
35.57880856
 31
0.0
  0
LINE
  5
1AC
330
1F
100
AcDbEntity
  8
0
  6
LTYPE1
 62
     3
100
AcDbLine
 10
138.606509025
 20
35.57880856
 30
0.0
 11
137.204168195
 21
35.57880856
 31
0.0
  0
LINE
  5
1AD
330
1F
100
AcDbEntity
  8
0
  6
LTYPE1
 62
     3
100
AcDbLine
 10
213.4678567
 20
35.57880856
 30
0.0
 11
212.065515871
 21
35.57880856
 31
0.0
  0
LINE
  5
1AE
330
1F
100
AcDbEntity
  8
0
  6
LTYPE1
 62
     3
100
AcDbLine
 10
137.204168195
 20
35.57880856
 30
0.0
 11
136.025385762
 21
35.57880856
 31
0.0
  0
LINE
  5
1AF
330
1F
100
AcDbEntity
  8
0
  6
LTYPE1
 62
     3
100
AcDbLine
 10
214.646639133
 20
35.57880856
 30
0.0
 11
213.4678567
 21
35.57880856
 31
0.0
  0
LINE
  5
1B0
330
1F
100
AcDbEntity
  8
0
  6
LTYPE1
 62
     3
100
AcDbLine
 10
136.025385762
 20
35.57880856
 30
0.0
 11
135.336013342
 21
35.57880856
 31
0.0
  0
LINE
  5
1B1
330
1F
100
AcDbEntity
  8
0
  6
LTYPE1
 62
     3
100
AcDbLine
 10
215.336011553
 20
35.57880856
 30
0.0
 11
214.646639133
 21
35.57880856
 31
0.0
  0
LINE
  5
1B2
330
1F
100
AcDbEntity
  8
0
  6
LTYPE1
 62
     3
100
AcDbLine
 10
208.336012269
 20
35.57880856
 30
0.0
 11
142.336012626
 21
35.57880856
 31
0.0
  0
LINE
  5
1B3
330
1F
100
AcDbEntity
  8
0
  6
LTYPE1
 62
     3
100
AcDbLine
 10
139.586010779
 20
34.995059295
 30
0.0
 11
139.586010779
 21
35.007077082
 31
0.0
  0
ARC
  5
1B4
330
1F
100
AcDbEntity
  8
0
  6
LTYPE1
 62
     3
100
AcDbCircle
 10
138.336012448
 20
41.65738009
 30
0.0
 40
6.76675924
100
AcDbArc
 50
273.388871868
 51
280.645189322
  0
LINE
  5
1B5
330
1F
100
AcDbEntity
  8
0
  6
LTYPE1
 62
     3
100
AcDbLine
 10
138.736011291
 20
34.902452304
 30
0.0
 11
138.736011291
 21
35.007077082
 31
0.0
  0
ARC
  5
1B6
330
1F
100
AcDbEntity
  8
0
  6
LTYPE1
 62
     3
100
AcDbCircle
 10
138.336012448
 20
41.65738009
 30
0.0
 40
6.662321713
100
AcDbArc
 50
266.557941195
 51
273.442058805
  0
LINE
  5
1B7
330
1F
100
AcDbEntity
  8
0
  6
LTYPE1
 62
     3
100
AcDbLine
 10
137.93601265
 20
35.007077082
 30
0.0
 11
137.93601265
 21
34.902452304
 31
0.0
  0
ARC
  5
1B8
330
1F
100
AcDbEntity
  8
0
  6
LTYPE1
 62
     3
100
AcDbCircle
 10
138.336012448
 20
41.65738009
 30
0.0
 40
6.76675924
100
AcDbArc
 50
259.354810678
 51
266.611128132
  0
LINE
  5
1B9
330
1F
100
AcDbEntity
  8
0
  6
LTYPE1
 62
     3
100
AcDbLine
 10
137.086013163
 20
35.007077082
 30
0.0
 11
137.086013163
 21
34.995059295
 31
0.0
  0
LINE
  5
1BA
330
1F
100
AcDbEntity
  8
0
  6
LTYPE1
 62
     3
100
AcDbLine
 10
172.413072612
 20
34.778809919
 30
0.0
 11
178.413072664
 21
34.778809919
 31
0.0
  0
LINE
  5
1BB
330
1F
100
AcDbEntity
  8
0
  6
LTYPE1
 62
     3
100
AcDbLine
 10
135.392786766
 20
36.655164136
 30
0.0
 11
135.392786766
 21
36.578806861
 31
0.0
  0
LINE
  5
1BC
330
1F
100
AcDbEntity
  8
0
  6
LTYPE1
 62
     3
100
AcDbLine
 10
136.025385762
 20
36.578806861
 30
0.0
 11
135.336013342
 21
36.578806861
 31
0.0
  0
LINE
  5
1BD
330
1F
100
AcDbEntity
  8
0
  6
LTYPE1
 62
     3
100
AcDbLine
 10
136.025385762
 20
36.578806861
 30
0.0
 11
135.394887829
 21
36.578806861
 31
0.0
  0
LINE
  5
1BE
330
1F
100
AcDbEntity
  8
0
  6
LTYPE1
 62
     3
100
AcDbLine
 10
135.336013342
 20
36.578806861
 30
0.0
 11
135.336013342
 21
35.57880856
 31
0.0
  0
LINE
  5
1BF
330
1F
100
AcDbEntity
  8
0
  6
LTYPE1
 62
     3
100
AcDbLine
 10
137.204168195
 20
36.578806861
 30
0.0
 11
136.025385762
 21
36.578806861
 31
0.0
  0
LINE
  5
1C0
330
1F
100
AcDbEntity
  8
0
  6
LTYPE1
 62
     3
100
AcDbLine
 10
139.836011285
 20
36.578806861
 30
0.0
 11
138.606509025
 21
36.578806861
 31
0.0
  0
LINE
  5
1C1
330
1F
100
AcDbEntity
  8
0
  6
LTYPE1
 62
     3
100
AcDbLine
 10
138.606509025
 20
36.578806861
 30
0.0
 11
137.204168195
 21
36.578806861
 31
0.0
  0
LINE
  5
1C2
330
1F
100
AcDbEntity
  8
0
  6
LTYPE1
 62
     3
100
AcDbLine
 10
142.336012626
 20
36.578806861
 30
0.0
 11
140.836013312
 21
36.578806861
 31
0.0
  0
LINE
  5
1C3
330
1F
100
AcDbEntity
  8
0
  6
LTYPE1
 62
     3
100
AcDbLine
 10
142.336012626
 20
36.655164136
 30
0.0
 11
142.336012626
 21
36.578806861
 31
0.0
  0
LINE
  5
1C4
330
1F
100
AcDbEntity
  8
0
  6
LTYPE1
 62
     3
100
AcDbLine
 10
142.336012626
 20
35.57880856
 30
0.0
 11
142.336012626
 21
36.578806861
 31
0.0
  0
LINE
  5
1C5
330
1F
100
AcDbEntity
  8
0
  6
LTYPE1
 62
     3
100
AcDbLine
 10
140.836013312
 20
36.578806861
 30
0.0
 11
139.836011285
 21
36.578806861
 31
0.0
  0
LINE
  5
1C6
330
1F
100
AcDbEntity
  8
0
  6
LTYPE1
 62
     3
100
AcDbLine
 10
215.279238129
 20
36.578806861
 30
0.0
 11
215.279238129
 21
36.655164136
 31
0.0
  0
LINE
  5
1C7
330
1F
100
AcDbEntity
  8
0
  6
LTYPE1
 62
     3
100
AcDbLine
 10
215.336011553
 20
35.57880856
 30
0.0
 11
215.336011553
 21
36.578806861
 31
0.0
  0
LINE
  5
1C8
330
1F
100
AcDbEntity
  8
0
  6
LTYPE1
 62
     3
100
AcDbLine
 10
215.336011553
 20
36.578806861
 30
0.0
 11
214.646639133
 21
36.578806861
 31
0.0
  0
LINE
  5
1C9
330
1F
100
AcDbEntity
  8
0
  6
LTYPE1
 62
     3
100
AcDbLine
 10
214.646639133
 20
36.578806861
 30
0.0
 11
215.277137066
 21
36.578806861
 31
0.0
  0
LINE
  5
1CA
330
1F
100
AcDbEntity
  8
0
  6
LTYPE1
 62
     3
100
AcDbLine
 10
213.4678567
 20
36.578806861
 30
0.0
 11
212.065515871
 21
36.578806861
 31
0.0
  0
LINE
  5
1CB
330
1F
100
AcDbEntity
  8
0
  6
LTYPE1
 62
     3
100
AcDbLine
 10
214.646639133
 20
36.578806861
 30
0.0
 11
213.4678567
 21
36.578806861
 31
0.0
  0
LINE
  5
1CC
330
1F
100
AcDbEntity
  8
0
  6
LTYPE1
 62
     3
100
AcDbLine
 10
210.83601361
 20
36.578806861
 30
0.0
 11
209.836011583
 21
36.578806861
 31
0.0
  0
LINE
  5
1CD
330
1F
100
AcDbEntity
  8
0
  6
LTYPE1
 62
     3
100
AcDbLine
 10
212.065515871
 20
36.578806861
 30
0.0
 11
210.83601361
 21
36.578806861
 31
0.0
  0
LINE
  5
1CE
330
1F
100
AcDbEntity
  8
0
  6
LTYPE1
 62
     3
100
AcDbLine
 10
208.336012269
 20
36.578806861
 30
0.0
 11
208.336012269
 21
36.655164136
 31
0.0
  0
LINE
  5
1CF
330
1F
100
AcDbEntity
  8
0
  6
LTYPE1
 62
     3
100
AcDbLine
 10
208.336012269
 20
35.57880856
 30
0.0
 11
208.336012269
 21
36.578806861
 31
0.0
  0
LINE
  5
1D0
330
1F
100
AcDbEntity
  8
0
  6
LTYPE1
 62
     3
100
AcDbLine
 10
142.336012626
 20
36.576810105
 30
0.0
 11
208.336012269
 21
36.576810105
 31
0.0
  0
LINE
  5
1D1
330
1F
100
AcDbEntity
  8
0
  6
LTYPE1
 62
     3
100
AcDbLine
 10
208.336012269
 20
36.578806861
 30
0.0
 11
142.336012626
 21
36.578806861
 31
0.0
  0
LINE
  5
1D2
330
1F
100
AcDbEntity
  8
0
  6
LTYPE1
 62
     3
100
AcDbLine
 10
209.836011583
 20
36.578806861
 30
0.0
 11
208.336012269
 21
36.578806861
 31
0.0
  0
ARC
  5
1D3
330
1F
100
AcDbEntity
  8
0
  6
LTYPE1
 62
     3
100
AcDbCircle
 10
342.090629884
 20
41.65738009
 30
0.0
 40
6.778571429
100
AcDbArc
 50
280.626423394
 51
296.268044613
  0
ARC
  5
1D4
330
1F
100
AcDbEntity
  8
0
  6
LTYPE1
 62
     3
100
AcDbCircle
 10
342.090629884
 20
41.65738009
 30
0.0
 40
6.778571429
100
AcDbArc
 50
243.731955387
 51
259.373576606
  0
LINE
  5
1D5
330
1F
100
AcDbEntity
  8
0
  6
LTYPE1
 62
     3
100
AcDbLine
 10
348.820629907
 20
35.57880856
 30
0.0
 11
348.820629907
 21
36.578806861
 31
0.0
  0
LINE
  5
1D6
330
1F
100
AcDbEntity
  8
0
  6
LTYPE1
 62
     3
100
AcDbLine
 10
335.360629861
 20
36.578806861
 30
0.0
 11
335.360629861
 21
35.57880856
 31
0.0
  0
LINE
  5
1D7
330
1F
100
AcDbEntity
  8
0
  6
LTYPE1
 62
     3
100
AcDbLine
 10
349.590629716
 20
35.57880856
 30
0.0
 11
349.590629716
 21
36.578806861
 31
0.0
  0
LINE
  5
1D8
330
1F
100
AcDbEntity
  8
0
  6
LTYPE1
 62
     3
100
AcDbLine
 10
348.820629907
 20
36.578806861
 30
0.0
 11
348.820629907
 21
84.463991037
 31
0.0
  0
LINE
  5
1D9
330
1F
100
AcDbEntity
  8
0
  6
LTYPE1
 62
     3
100
AcDbLine
 10
349.590629716
 20
36.578806861
 30
0.0
 11
349.590629716
 21
84.825036394
 31
0.0
  0
LINE
  5
1DA
330
1F
100
AcDbEntity
  8
0
  6
LTYPE1
 62
     3
100
AcDbLine
 10
345.490629929
 20
34.778809919
 30
0.0
 11
345.490629929
 21
35.57880856
 31
0.0
  0
LINE
  5
1DB
330
1F
100
AcDbEntity
  8
0
  6
LTYPE1
 62
     3
100
AcDbLine
 10
339.490629877
 20
35.397263987
 30
0.0
 11
339.490629877
 21
34.778809919
 31
0.0
  0
LINE
  5
1DC
330
1F
100
AcDbEntity
  8
0
  6
LTYPE1
 62
     3
100
AcDbLine
 10
365.590629079
 20
36.578806861
 30
0.0
 11
366.73357422
 21
36.608735843
 31
0.0
  0
LINE
  5
1DD
330
1F
100
AcDbEntity
  8
0
  6
LTYPE1
 62
     3
100
AcDbLine
 10
365.590629079
 20
33.578808232
 30
0.0
 11
365.590629079
 21
36.578806861
 31
0.0
  0
LINE
  5
1DE
330
1F
100
AcDbEntity
  8
0
  6
LTYPE1
 62
     3
100
AcDbLine
 10
363.590630614
 20
35.57880856
 30
0.0
 11
363.590630614
 21
33.578808232
 31
0.0
  0
LINE
  5
1DF
330
1F
100
AcDbEntity
  8
0
  6
LTYPE1
 62
     3
100
AcDbLine
 10
365.590629079
 20
33.578808232
 30
0.0
 11
365.590629079
 21
31.63118176
 31
0.0
  0
LINE
  5
1E0
330
1F
100
AcDbEntity
  8
0
  6
LTYPE1
 62
     3
100
AcDbLine
 10
365.590629079
 20
31.63118176
 30
0.0
 11
363.590630614
 21
31.578807904
 31
0.0
  0
LINE
  5
1E1
330
1F
100
AcDbEntity
  8
0
  6
LTYPE1
 62
     3
100
AcDbLine
 10
363.590630614
 20
33.578808232
 30
0.0
 11
363.590630614
 21
31.578807904
 31
0.0
  0
LINE
  5
1E2
330
1F
100
AcDbEntity
  8
0
  6
LTYPE1
 62
     3
100
AcDbLine
 10
364.995445036
 20
63.578809424
 30
0.0
 11
364.889441901
 21
61.556136979
 31
0.0
  0
LINE
  5
1E3
330
1F
100
AcDbEntity
  8
0
  6
LTYPE1
 62
     3
100
AcDbLine
 10
364.995445036
 20
63.578809424
 30
0.0
 11
365.534043782
 21
63.578809424
 31
0.0
  0
ARC
  5
1E4
330
1F
100
AcDbEntity
  8
0
  6
LTYPE1
 62
     3
100
AcDbCircle
 10
365.534044692
 20
63.278808661
 30
0.0
 40
0.300000001
100
AcDbArc
 50
35.000000028
 51
90.0
  0
LINE
  5
1E5
330
1F
100
AcDbEntity
  8
0
  6
LTYPE1
 62
     3
100
AcDbLine
 10
367.000206285
 20
61.707948147
 30
0.0
 11
365.779790007
 21
63.450881092
 31
0.0
  0
ARC
  5
1E6
330
1F
100
AcDbEntity
  8
0
  6
LTYPE1
 62
     3
100
AcDbCircle
 10
366.590629884
 20
61.421159267
 30
0.0
 40
0.500000002
100
AcDbArc
 50
0.0
 51
35.000000048
  0
LINE
  5
1E7
330
1F
100
AcDbEntity
  8
0
  6
LTYPE1
 62
     3
100
AcDbLine
 10
367.090630256
 20
61.008988692
 30
0.0
 11
367.090630256
 21
61.421158536
 31
0.0
  0
LINE
  5
1E8
330
1F
100
AcDbEntity
  8
0
  6
LTYPE1
 62
     3
100
AcDbLine
 10
367.090630256
 20
31.670461221
 30
0.0
 11
365.590629079
 21
31.63118176
 31
0.0
  0
LINE
  5
1E9
330
1F
100
AcDbEntity
  8
0
  6
LTYPE1
 62
     3
100
AcDbLine
 10
367.090630256
 20
31.670461221
 30
0.0
 11
367.090630256
 21
36.596267297
 31
0.0
  0
LINE
  5
1EA
330
1F
100
AcDbEntity
  8
0
  6
LTYPE1
 62
     3
100
AcDbLine
 10
367.590629407
 20
37.0785024
 30
0.0
 11
367.590629407
 21
36.578806861
 31
0.0
  0
LINE
  5
1EB
330
1F
100
AcDbEntity
  8
0
  6
LTYPE1
 62
     3
100
AcDbLine
 10
367.590629407
 20
36.578806861
 30
0.0
 11
363.590630614
 21
36.718490346
 31
0.0
  0
LINE
  5
1EC
330
1F
100
AcDbEntity
  8
0
  6
LTYPE1
 62
     3
100
AcDbLine
 10
366.451675915
 20
61.528869717
 30
0.0
 11
363.590630614
 21
61.578809096
 31
0.0
  0
ARC
  5
1ED
330
1F
100
AcDbEntity
  8
0
  6
LTYPE1
 62
     3
100
AcDbCircle
 10
366.446439598
 20
61.228914619
 30
0.0
 40
0.300000006
100
AcDbArc
 50
44.999999987
 51
89.000000523
  0
LINE
  5
1EE
330
1F
100
AcDbEntity
  8
0
  6
LTYPE1
 62
     3
100
AcDbLine
 10
367.502762847
 20
60.596856101
 30
0.0
 11
366.658571088
 21
61.441045998
 31
0.0
  0
ARC
  5
1EF
330
1F
100
AcDbEntity
  8
0
  6
LTYPE1
 62
     3
100
AcDbCircle
 10
367.290629884
 20
60.384724333
 30
0.0
 40
0.3
100
AcDbArc
 50
0.0
 51
45.000000004
  0
LINE
  5
1F0
330
1F
100
AcDbEntity
  8
0
  6
LTYPE1
 62
     3
100
AcDbLine
 10
367.590629407
 20
37.0785024
 30
0.0
 11
367.590629407
 21
60.384725033
 31
0.0
  0
LWPOLYLINE
  5
1F2
330
1F
100
AcDbEntity
  8
0
  6
LTYPE1
 62
     3
100
AcDbPolyline
 90
   141
 70
   128
 43
0.0
 10
363.790629884
 20
65.078808661
 10
363.790629884
 20
65.082352053
 10
363.790629884
 20
65.085910727
 10
363.790629884
 20
65.089484029
 10
363.790629884
 20
65.093071305
 10
363.790629884
 20
65.096671902
 10
363.790629884
 20
65.100285166
 10
363.790629884
 20
65.103910443
 10
363.790629884
 20
65.107547079
 10
363.790629884
 20
65.111194422
 10
363.790629884
 20
65.114851817
 10
363.790629884
 20
65.11851861
 10
363.790629884
 20
65.122194149
 10
363.790629884
 20
65.125877779
 10
363.790629884
 20
65.129568847
 10
363.790629884
 20
65.1332667
 10
363.790629884
 20
65.136970682
 10
363.790629884
 20
65.140680142
 10
363.790629884
 20
65.144394425
 10
363.790629884
 20
65.148112877
 10
363.790629884
 20
65.151834845
 10
363.790629884
 20
65.155559676
 10
363.790629884
 20
65.159286715
 10
363.790629884
 20
65.16301531
 10
363.790629884
 20
65.166744805
 10
363.790629884
 20
65.170474549
 10
363.790629884
 20
65.174203887
 10
363.790629884
 20
65.177932165
 10
363.790629884
 20
65.18165873
 10
363.790629884
 20
65.185382928
 10
363.790629884
 20
65.189104105
 10
363.790629884
 20
65.192821609
 10
363.790629884
 20
65.196534785
 10
363.790629884
 20
65.200242979
 10
363.790629884
 20
65.203945538
 10
363.790629884
 20
65.207641809
 10
363.790629884
 20
65.211330463
 10
363.790629884
 20
65.21501009
 10
363.790629884
 20
65.218679915
 10
363.790629884
 20
65.222339162
 10
363.790629884
 20
65.225987055
 10
363.790629884
 20
65.229622818
 10
363.790629884
 20
65.233245675
 10
363.790629884
 20
65.23685485
 10
363.790629884
 20
65.240449568
 10
363.790629884
 20
65.244029053
 10
363.790629884
 20
65.247592529
 10
363.790629884
 20
65.25113922
 10
363.790629884
 20
65.25466835
 10
363.790629884
 20
65.258179143
 10
363.790629884
 20
65.261670824
 10
363.790629884
 20
65.265142617
 10
363.790629884
 20
65.268593745
 10
363.790629884
 20
65.272023434
 10
363.790629884
 20
65.275430907
 10
363.790629884
 20
65.278815388
 10
363.790629884
 20
65.282176101
 10
363.790629884
 20
65.285512272
 10
363.790629884
 20
65.288823123
 10
363.790629884
 20
65.292107879
 10
363.790629884
 20
65.295365764
 10
363.790629884
 20
65.298596003
 10
363.790629884
 20
65.301797819
 10
363.790629884
 20
65.304970436
 10
363.790629884
 20
65.30811308
 10
363.790629884
 20
65.311224973
 10
363.790629884
 20
65.31430534
 10
363.790629884
 20
65.317353406
 10
363.790629884
 20
65.320368394
 10
363.790629884
 20
65.323349529
 10
363.790629884
 20
65.326296034
 10
363.790629884
 20
65.329206646
 10
363.790629884
 20
65.332080414
 10
363.790629884
 20
65.33491703
 10
363.790629884
 20
65.337716186
 10
363.790629884
 20
65.340477577
 10
363.790629884
 20
65.343200894
 10
363.790629884
 20
65.34588583
 10
363.790629884
 20
65.348532079
 10
363.790629884
 20
65.351139334
 10
363.790629884
 20
65.353707286
 10
363.790629884
 20
65.356235629
 10
363.790629884
 20
65.358724056
 10
363.790629884
 20
65.36117226
 10
363.790629884
 20
65.363579933
 10
363.790629884
 20
65.365946769
 10
363.790629884
 20
65.36827246
 10
363.790629884
 20
65.370556699
 10
363.790629884
 20
65.372799178
 10
363.790629884
 20
65.374999592
 10
363.790629884
 20
65.377157632
 10
363.790629884
 20
65.379272992
 10
363.790629884
 20
65.381345364
 10
363.790629884
 20
65.383374441
 10
363.790629884
 20
65.385359916
 10
363.790629884
 20
65.387301482
 10
363.790629884
 20
65.389198831
 10
363.790629884
 20
65.391051658
 10
363.790629884
 20
65.392859653
 10
363.790629884
 20
65.394622511
 10
363.790629884
 20
65.396339924
 10
363.790629884
 20
65.398011585
 10
363.790629884
 20
65.399637187
 10
363.790629884
 20
65.401216423
 10
363.790629884
 20
65.402748985
 10
363.790629884
 20
65.404234566
 10
363.790629884
 20
65.405673241
 10
363.790629884
 20
65.407065478
 10
363.790629884
 20
65.408411559
 10
363.790629884
 20
65.409711767
 10
363.790629884
 20
65.410966385
 10
363.790629884
 20
65.412175695
 10
363.790629884
 20
65.413339982
 10
363.790629884
 20
65.414459527
 10
363.790629884
 20
65.415534614
 10
363.790629884
 20
65.416565525
 10
363.790629884
 20
65.417552543
 10
363.790629884
 20
65.418495952
 10
363.790629884
 20
65.419396034
 10
363.790629884
 20
65.420253071
 10
363.790629884
 20
65.421067348
 10
363.790629884
 20
65.421839146
 10
363.790629884
 20
65.422568748
 10
363.790629884
 20
65.423256438
 10
363.790629884
 20
65.423902499
 10
363.790629884
 20
65.424507212
 10
363.790629884
 20
65.425070862
 10
363.790629884
 20
65.425593731
 10
363.790629884
 20
65.426076101
 10
363.790629884
 20
65.426518257
 10
363.790629884
 20
65.426920479
 10
363.790629884
 20
65.427283053
 10
363.790629884
 20
65.42760626
 10
363.790629884
 20
65.427890383
 10
363.790629884
 20
65.428135705
 10
363.790629884
 20
65.428342509
 10
363.790629884
 20
65.428511078
 10
363.790629884
 20
65.428641695
 10
363.790629884
 20
65.428734642
 10
363.790629884
 20
65.428790203
 10
363.790629884
 20
65.428808661
  0
ARC
  5
1F3
330
1F
100
AcDbEntity
  8
0
  6
LTYPE1
 62
     3
100
AcDbCircle
 10
363.290629884
 20
65.428808661
 30
0.0
 40
0.500000007
100
AcDbArc
 50
359.999999977
 51
53.130102965
  0
LWPOLYLINE
  5
1F5
330
1F
100
AcDbEntity
  8
0
  6
LTYPE1
 62
     3
100
AcDbPolyline
 90
   141
 70
   128
 43
0.0
 10
363.790629884
 20
64.728808661
 10
363.790629884
 20
64.728827118
 10
363.790629884
 20
64.728882679
 10
363.790629884
 20
64.728975627
 10
363.790629884
 20
64.729106244
 10
363.790629884
 20
64.729274813
 10
363.790629884
 20
64.729481617
 10
363.790629884
 20
64.729726939
 10
363.790629884
 20
64.730011062
 10
363.790629884
 20
64.730334269
 10
363.790629884
 20
64.730696842
 10
363.790629884
 20
64.731099065
 10
363.790629884
 20
64.731541221
 10
363.790629884
 20
64.732023591
 10
363.790629884
 20
64.73254646
 10
363.790629884
 20
64.73311011
 10
363.790629884
 20
64.733714823
 10
363.790629884
 20
64.734360884
 10
363.790629884
 20
64.735048574
 10
363.790629884
 20
64.735778176
 10
363.790629884
 20
64.736549974
 10
363.790629884
 20
64.737364251
 10
363.790629884
 20
64.738221288
 10
363.790629884
 20
64.73912137
 10
363.790629884
 20
64.740064778
 10
363.790629884
 20
64.741051797
 10
363.790629884
 20
64.742082708
 10
363.790629884
 20
64.743157795
 10
363.790629884
 20
64.74427734
 10
363.790629884
 20
64.745441626
 10
363.790629884
 20
64.746650937
 10
363.790629884
 20
64.747905555
 10
363.790629884
 20
64.749205763
 10
363.790629884
 20
64.750551844
 10
363.790629884
 20
64.75194408
 10
363.790629884
 20
64.753382756
 10
363.790629884
 20
64.754868337
 10
363.790629884
 20
64.756400899
 10
363.790629884
 20
64.757980135
 10
363.790629884
 20
64.759605737
 10
363.790629884
 20
64.761277398
 10
363.790629884
 20
64.762994811
 10
363.790629884
 20
64.764757669
 10
363.790629884
 20
64.766565664
 10
363.790629884
 20
64.768418491
 10
363.790629884
 20
64.77031584
 10
363.790629884
 20
64.772257406
 10
363.790629884
 20
64.774242881
 10
363.790629884
 20
64.776271958
 10
363.790629884
 20
64.77834433
 10
363.790629884
 20
64.78045969
 10
363.790629884
 20
64.78261773
 10
363.790629884
 20
64.784818143
 10
363.790629884
 20
64.787060623
 10
363.790629884
 20
64.789344862
 10
363.790629884
 20
64.791670553
 10
363.790629884
 20
64.794037388
 10
363.790629884
 20
64.796445062
 10
363.790629884
 20
64.798893265
 10
363.790629884
 20
64.801381692
 10
363.790629884
 20
64.803910036
 10
363.790629884
 20
64.806477988
 10
363.790629884
 20
64.809085242
 10
363.790629884
 20
64.811731491
 10
363.790629884
 20
64.814416428
 10
363.790629884
 20
64.817139745
 10
363.790629884
 20
64.819901136
 10
363.790629884
 20
64.822700292
 10
363.790629884
 20
64.825536908
 10
363.790629884
 20
64.828410675
 10
363.790629884
 20
64.831321288
 10
363.790629884
 20
64.834267793
 10
363.790629884
 20
64.837248928
 10
363.790629884
 20
64.840263916
 10
363.790629884
 20
64.843311981
 10
363.790629884
 20
64.846392349
 10
363.790629884
 20
64.849504242
 10
363.790629884
 20
64.852646886
 10
363.790629884
 20
64.855819503
 10
363.790629884
 20
64.859021319
 10
363.790629884
 20
64.862251558
 10
363.790629884
 20
64.865509443
 10
363.790629884
 20
64.868794199
 10
363.790629884
 20
64.87210505
 10
363.790629884
 20
64.87544122
 10
363.790629884
 20
64.878801934
 10
363.790629884
 20
64.882186415
 10
363.790629884
 20
64.885593888
 10
363.790629884
 20
64.889023576
 10
363.790629884
 20
64.892474705
 10
363.790629884
 20
64.895946498
 10
363.790629884
 20
64.899438179
 10
363.790629884
 20
64.902948972
 10
363.790629884
 20
64.906478102
 10
363.790629884
 20
64.910024793
 10
363.790629884
 20
64.913588269
 10
363.790629884
 20
64.917167754
 10
363.790629884
 20
64.920762472
 10
363.790629884
 20
64.924371647
 10
363.790629884
 20
64.927994504
 10
363.790629884
 20
64.931630267
 10
363.790629884
 20
64.93527816
 10
363.790629884
 20
64.938937406
 10
363.790629884
 20
64.942607231
 10
363.790629884
 20
64.946286859
 10
363.790629884
 20
64.949975513
 10
363.790629884
 20
64.953671783
 10
363.790629884
 20
64.957374343
 10
363.790629884
 20
64.961082537
 10
363.790629884
 20
64.964795713
 10
363.790629884
 20
64.968513216
 10
363.790629884
 20
64.972234394
 10
363.790629884
 20
64.975958592
 10
363.790629884
 20
64.979685157
 10
363.790629884
 20
64.983413435
 10
363.790629884
 20
64.987142773
 10
363.790629884
 20
64.990872516
 10
363.790629884
 20
64.994602012
 10
363.790629884
 20
64.998330606
 10
363.790629884
 20
65.002057646
 10
363.790629884
 20
65.005782476
 10
363.790629884
 20
65.009504445
 10
363.790629884
 20
65.013222897
 10
363.790629884
 20
65.01693718
 10
363.790629884
 20
65.02064664
 10
363.790629884
 20
65.024350622
 10
363.790629884
 20
65.028048474
 10
363.790629884
 20
65.031739542
 10
363.790629884
 20
65.035423173
 10
363.790629884
 20
65.039098711
 10
363.790629884
 20
65.042765505
 10
363.790629884
 20
65.0464229
 10
363.790629884
 20
65.050070243
 10
363.790629884
 20
65.053706879
 10
363.790629884
 20
65.057332156
 10
363.790629884
 20
65.06094542
 10
363.790629884
 20
65.064546016
 10
363.790629884
 20
65.068133292
 10
363.790629884
 20
65.071706594
 10
363.790629884
 20
65.075265268
 10
363.790629884
 20
65.078808661
  0
ARC
  5
1F6
330
1F
100
AcDbEntity
  8
0
  6
LTYPE1
 62
     3
100
AcDbCircle
 10
363.290629884
 20
64.728808661
 30
0.0
 40
0.50000001
100
AcDbArc
 50
306.869896787
 51
359.99999999
  0
LINE
  5
1F7
330
1F
100
AcDbEntity
  8
0
  6
LTYPE1
 62
     3
100
AcDbLine
 10
334.190630265
 20
63.658308981
 30
0.0
 11
333.190630102
 21
63.658308981
 31
0.0
  0
ARC
  5
1F8
330
1F
100
AcDbEntity
  8
0
  6
LTYPE1
 62
     3
100
AcDbCircle
 10
333.190629884
 20
64.158309687
 30
0.0
 40
0.5
100
AcDbArc
 50
180.0
 51
270.0
  0
LINE
  5
1F9
330
1F
100
AcDbEntity
  8
0
  6
LTYPE1
 62
     3
100
AcDbLine
 10
332.69063002
 20
64.158309995
 30
0.0
 11
332.69063002
 21
65.358309819
 31
0.0
  0
LINE
  5
1FA
330
1F
100
AcDbEntity
  8
0
  6
LTYPE1
 62
     3
100
AcDbLine
 10
332.69063002
 20
65.358309819
 30
0.0
 11
334.590630052
 21
65.358309819
 31
0.0
  0
LINE
  5
1FB
330
1F
100
AcDbEntity
  8
0
  6
LTYPE1
 62
     3
100
AcDbLine
 10
334.590630052
 20
51.358309387
 30
0.0
 11
332.69063002
 21
51.358309387
 31
0.0
  0
LINE
  5
1FC
330
1F
100
AcDbEntity
  8
0
  6
LTYPE1
 62
     3
100
AcDbLine
 10
332.69063002
 20
51.358309387
 30
0.0
 11
332.69063002
 21
51.8583104
 31
0.0
  0
ARC
  5
1FD
330
1F
100
AcDbEntity
  8
0
  6
LTYPE1
 62
     3
100
AcDbCircle
 10
333.190629884
 20
51.858309687
 30
0.0
 40
0.5
100
AcDbArc
 50
90.0
 51
180.0
  0
LINE
  5
1FE
330
1F
100
AcDbEntity
  8
0
  6
LTYPE1
 62
     3
100
AcDbLine
 10
333.190630102
 20
52.358309551
 30
0.0
 11
334.190630265
 21
52.358309551
 31
0.0
  0
LINE
  5
1FF
330
1F
100
AcDbEntity
  8
0
  6
LTYPE1
 62
     3
100
AcDbLine
 10
334.190630265
 20
52.358309551
 30
0.0
 11
334.190630265
 21
53.358309715
 31
0.0
  0
LINE
  5
200
330
1F
100
AcDbEntity
  8
0
  6
LTYPE1
 62
     3
100
AcDbLine
 10
334.190630265
 20
53.358309715
 30
0.0
 11
334.590630052
 21
53.358309715
 31
0.0
  0
LINE
  5
201
330
1F
100
AcDbEntity
  8
0
  6
LTYPE1
 62
     3
100
AcDbLine
 10
334.590630052
 20
61.658310516
 30
0.0
 11
334.190630265
 21
61.658310516
 31
0.0
  0
LINE
  5
202
330
1F
100
AcDbEntity
  8
0
  6
LTYPE1
 62
     3
100
AcDbLine
 10
334.190630265
 20
61.658310516
 30
0.0
 11
334.190630265
 21
63.658308981
 31
0.0
  0
LINE
  5
203
330
1F
100
AcDbEntity
  8
0
  6
LTYPE1
 62
     3
100
AcDbLine
 10
332.69063002
 20
69.358309543
 30
0.0
 11
332.69063002
 21
69.858309625
 31
0.0
  0
ARC
  5
204
330
1F
100
AcDbEntity
  8
0
  6
LTYPE1
 62
     3
100
AcDbCircle
 10
333.190629884
 20
69.858309687
 30
0.0
 40
0.5
100
AcDbArc
 50
90.0
 51
180.0
  0
LINE
  5
205
330
1F
100
AcDbEntity
  8
0
  6
LTYPE1
 62
     3
100
AcDbLine
 10
333.190630102
 20
70.358309707
 30
0.0
 11
334.190630265
 21
70.358309707
 31
0.0
  0
LINE
  5
206
330
1F
100
AcDbEntity
  8
0
  6
LTYPE1
 62
     3
100
AcDbLine
 10
334.190630265
 20
70.358309707
 30
0.0
 11
334.190630265
 21
71.358309871
 31
0.0
  0
LINE
  5
207
330
1F
100
AcDbEntity
  8
0
  6
LTYPE1
 62
     3
100
AcDbLine
 10
334.190630265
 20
71.358309871
 30
0.0
 11
334.590630052
 21
71.358309871
 31
0.0
  0
LINE
  5
208
330
1F
100
AcDbEntity
  8
0
  6
LTYPE1
 62
     3
100
AcDbLine
 10
334.590630052
 20
69.358309543
 30
0.0
 11
332.69063002
 21
69.358309543
 31
0.0
  0
LINE
  5
209
330
1F
100
AcDbEntity
  8
0
  6
LTYPE1
 62
     3
100
AcDbLine
 10
346.59062969
 20
34.578810258
 30
0.0
 11
346.59062969
 21
35.57880856
 31
0.0
  0
LINE
  5
20A
330
1F
100
AcDbEntity
  8
0
  6
LTYPE1
 62
     3
100
AcDbLine
 10
358.590629795
 20
34.578810258
 30
0.0
 11
346.59062969
 21
34.578810258
 31
0.0
  0
LINE
  5
20B
330
1F
100
AcDbEntity
  8
0
  6
LTYPE1
 62
     3
100
AcDbLine
 10
358.590629795
 20
34.578810258
 30
0.0
 11
358.590629795
 21
35.57880856
 31
0.0
  0
LINE
  5
20C
330
1F
100
AcDbEntity
  8
0
  6
LTYPE1
 62
     3
100
AcDbLine
 10
342.490629874
 20
34.902452304
 30
0.0
 11
342.490629874
 21
35.007077082
 31
0.0
  0
ARC
  5
20D
330
1F
100
AcDbEntity
  8
0
  6
LTYPE1
 62
     3
100
AcDbCircle
 10
342.090629884
 20
41.65738009
 30
0.0
 40
6.662321713
100
AcDbArc
 50
266.557941195
 51
273.442058805
  0
LINE
  5
20E
330
1F
100
AcDbEntity
  8
0
  6
LTYPE1
 62
     3
100
AcDbLine
 10
341.690629894
 20
35.007077082
 30
0.0
 11
341.690629894
 21
34.902452304
 31
0.0
  0
ARC
  5
20F
330
1F
100
AcDbEntity
  8
0
  6
LTYPE1
 62
     3
100
AcDbCircle
 10
342.090629884
 20
41.65738009
 30
0.0
 40
6.76675924
100
AcDbArc
 50
259.354810678
 51
266.611128132
  0
LINE
  5
210
330
1F
100
AcDbEntity
  8
0
  6
LTYPE1
 62
     3
100
AcDbLine
 10
340.840629912
 20
35.007077082
 30
0.0
 11
340.840629912
 21
34.995059295
 31
0.0
  0
LINE
  5
211
330
1F
100
AcDbEntity
  8
0
  6
LTYPE1
 62
     3
100
AcDbLine
 10
343.340629856
 20
34.995059295
 30
0.0
 11
343.340629856
 21
35.007077082
 31
0.0
  0
ARC
  5
212
330
1F
100
AcDbEntity
  8
0
  6
LTYPE1
 62
     3
100
AcDbCircle
 10
342.090629884
 20
41.65738009
 30
0.0
 40
6.76675924
100
AcDbArc
 50
273.388871868
 51
280.645189322
  0
LINE
  5
213
330
1F
100
AcDbEntity
  8
0
  6
LTYPE1
 62
     3
100
AcDbLine
 10
341.340629878
 20
41.578809543
 30
0.0
 11
342.840629891
 21
41.578809543
 31
0.0
  0
LINE
  5
214
330
1F
100
AcDbEntity
  8
0
  6
LTYPE1
 62
     3
100
AcDbLine
 10
348.265557461
 20
35.57880856
 30
0.0
 11
335.915702307
 21
35.57880856
 31
0.0
  0
LINE
  5
215
330
1F
100
AcDbEntity
  8
0
  6
LTYPE1
 62
     3
100
AcDbLine
 10
348.265557461
 20
36.578806861
 30
0.0
 11
335.915702307
 21
36.578806861
 31
0.0
  0
LINE
  5
216
330
1F
100
AcDbEntity
  8
0
  6
LTYPE1
 62
     3
100
AcDbLine
 10
348.820629907
 20
35.57880856
 30
0.0
 11
348.265557461
 21
35.57880856
 31
0.0
  0
LINE
  5
217
330
1F
100
AcDbEntity
  8
0
  6
LTYPE1
 62
     3
100
AcDbLine
 10
348.820629907
 20
36.578806861
 30
0.0
 11
348.265557461
 21
36.578806861
 31
0.0
  0
LINE
  5
218
330
1F
100
AcDbEntity
  8
0
  6
LTYPE1
 62
     3
100
AcDbLine
 10
335.915702307
 20
35.57880856
 30
0.0
 11
335.360629861
 21
35.57880856
 31
0.0
  0
LINE
  5
219
330
1F
100
AcDbEntity
  8
0
  6
LTYPE1
 62
     3
100
AcDbLine
 10
335.915702307
 20
36.578806861
 30
0.0
 11
335.360629861
 21
36.578806861
 31
0.0
  0
LINE
  5
21A
330
1F
100
AcDbEntity
  8
0
  6
LTYPE1
 62
     3
100
AcDbLine
 10
348.860195284
 20
35.57880856
 30
0.0
 11
348.820629907
 21
35.57880856
 31
0.0
  0
LINE
  5
21B
330
1F
100
AcDbEntity
  8
0
  6
LTYPE1
 62
     3
100
AcDbLine
 10
348.860195284
 20
36.578806861
 30
0.0
 11
348.820629907
 21
36.578806861
 31
0.0
  0
LINE
  5
21C
330
1F
100
AcDbEntity
  8
0
  6
LTYPE1
 62
     3
100
AcDbLine
 10
335.360629861
 20
35.57880856
 30
0.0
 11
335.321064484
 21
35.57880856
 31
0.0
  0
LINE
  5
21D
330
1F
100
AcDbEntity
  8
0
  6
LTYPE1
 62
     3
100
AcDbLine
 10
335.360629861
 20
36.578806861
 30
0.0
 11
335.321064484
 21
36.578806861
 31
0.0
  0
LINE
  5
21E
330
1F
100
AcDbEntity
  8
0
  6
LTYPE1
 62
     3
100
AcDbLine
 10
334.590630052
 20
35.57880856
 30
0.0
 11
334.590630052
 21
36.578806861
 31
0.0
  0
LINE
  5
21F
330
1F
100
AcDbEntity
  8
0
  6
LTYPE1
 62
     3
100
AcDbLine
 10
335.321064484
 20
35.57880856
 30
0.0
 11
334.590630052
 21
35.57880856
 31
0.0
  0
LINE
  5
220
330
1F
100
AcDbEntity
  8
0
  6
LTYPE1
 62
     3
100
AcDbLine
 10
335.321064484
 20
36.578806861
 30
0.0
 11
334.590630052
 21
36.578806861
 31
0.0
  0
LINE
  5
221
330
1F
100
AcDbEntity
  8
0
  6
LTYPE1
 62
     3
100
AcDbLine
 10
349.590629716
 20
35.57880856
 30
0.0
 11
348.860195284
 21
35.57880856
 31
0.0
  0
LINE
  5
222
330
1F
100
AcDbEntity
  8
0
  6
LTYPE1
 62
     3
100
AcDbLine
 10
349.590629716
 20
36.578806861
 30
0.0
 11
348.860195284
 21
36.578806861
 31
0.0
  0
LINE
  5
223
330
1F
100
AcDbEntity
  8
0
  6
LTYPE1
 62
     3
100
AcDbLine
 10
350.023659789
 20
35.57880856
 30
0.0
 11
349.590629716
 21
35.57880856
 31
0.0
  0
LINE
  5
224
330
1F
100
AcDbEntity
  8
0
  6
LTYPE1
 62
     3
100
AcDbLine
 10
350.023659789
 20
36.578806861
 30
0.0
 11
349.590629716
 21
36.578806861
 31
0.0
  0
LINE
  5
225
330
1F
100
AcDbEntity
  8
0
  6
LTYPE1
 62
     3
100
AcDbLine
 10
363.590630614
 20
35.57880856
 30
0.0
 11
363.590630614
 21
36.578806861
 31
0.0
  0
LINE
  5
226
330
1F
100
AcDbEntity
  8
0
  6
LTYPE1
 62
     3
100
AcDbLine
 10
363.590630614
 20
35.57880856
 30
0.0
 11
358.590629795
 21
35.57880856
 31
0.0
  0
LINE
  5
227
330
1F
100
AcDbEntity
  8
0
  6
LTYPE1
 62
     3
100
AcDbLine
 10
363.590630614
 20
36.578806861
 30
0.0
 11
358.590629795
 21
36.578806861
 31
0.0
  0
LINE
  5
228
330
1F
100
AcDbEntity
  8
0
  6
LTYPE1
 62
     3
100
AcDbLine
 10
358.590629795
 20
35.57880856
 30
0.0
 11
350.023659789
 21
35.57880856
 31
0.0
  0
LINE
  5
229
330
1F
100
AcDbEntity
  8
0
  6
LTYPE1
 62
     3
100
AcDbLine
 10
358.590629795
 20
36.578806861
 30
0.0
 11
350.023659789
 21
36.578806861
 31
0.0
  0
LINE
  5
22A
330
1F
100
AcDbEntity
  8
0
  6
LTYPE1
 62
     3
100
AcDbLine
 10
342.840629891
 20
36.578806861
 30
0.0
 11
342.840629891
 21
84.15516354
 31
0.0
  0
LINE
  5
22B
330
1F
100
AcDbEntity
  8
0
  6
LTYPE1
 62
     3
100
AcDbLine
 10
341.340629878
 20
84.15516354
 30
0.0
 11
341.340629878
 21
36.578806861
 31
0.0
  0
LINE
  5
22C
330
1F
100
AcDbEntity
  8
0
  6
LTYPE1
 62
     3
100
AcDbLine
 10
343.905444751
 20
36.578806861
 30
0.0
 11
348.265557461
 21
36.578806861
 31
0.0
  0
LINE
  5
22D
330
1F
100
AcDbEntity
  8
0
  6
LTYPE1
 62
     3
100
AcDbLine
 10
335.915702307
 20
36.578806861
 30
0.0
 11
340.275815018
 21
36.578806861
 31
0.0
  0
LINE
  5
22E
330
1F
100
AcDbEntity
  8
0
  6
LTYPE1
 62
     3
100
AcDbLine
 10
339.490629877
 20
34.778809919
 30
0.0
 11
345.490629929
 21
34.778809919
 31
0.0
  0
LINE
  5
22F
330
1F
100
AcDbEntity
  8
0
  6
LTYPE1
 62
     3
100
AcDbLine
 10
334.590630052
 20
81.658309604
 30
0.0
 11
334.190630265
 21
81.658309604
 31
0.0
  0
LINE
  5
230
330
1F
100
AcDbEntity
  8
0
  6
LTYPE1
 62
     3
100
AcDbLine
 10
334.190630265
 20
81.658309604
 30
0.0
 11
334.190630265
 21
83.658309466
 31
0.0
  0
LINE
  5
231
330
1F
100
AcDbEntity
  8
0
  6
LTYPE1
 62
     3
100
AcDbLine
 10
334.190630265
 20
83.658309466
 30
0.0
 11
333.190630102
 21
83.658309466
 31
0.0
  0
ARC
  5
232
330
1F
100
AcDbEntity
  8
0
  6
LTYPE1
 62
     3
100
AcDbCircle
 10
333.190629884
 20
84.158309687
 30
0.0
 40
0.5
100
AcDbArc
 50
180.0
 51
270.0
  0
LINE
  5
233
330
1F
100
AcDbEntity
  8
0
  6
LTYPE1
 62
     3
100
AcDbLine
 10
335.360629861
 20
84.15516354
 30
0.0
 11
335.360629861
 21
36.578806861
 31
0.0
  0
LINE
  5
234
330
1F
100
AcDbEntity
  8
0
  6
LTYPE1
 62
     3
100
AcDbLine
 10
334.590630052
 20
36.578806861
 30
0.0
 11
334.590630052
 21
84.15516354
 31
0.0
  0
LINE
  5
235
330
1F
100
AcDbEntity
  8
0
  6
LTYPE1
 62
     3
100
AcDbLine
 10
367.590629407
 20
106.578809022
 30
0.0
 11
367.590629407
 21
106.079113482
 31
0.0
  0
LINE
  5
236
330
1F
100
AcDbEntity
  8
0
  6
LTYPE1
 62
     3
100
AcDbLine
 10
363.590630614
 20
106.439125537
 30
0.0
 11
367.590629407
 21
106.578809022
 31
0.0
  0
LINE
  5
237
330
1F
100
AcDbEntity
  8
0
  6
LTYPE1
 62
     3
100
AcDbLine
 10
363.590630614
 20
96.878808735
 30
0.0
 11
367.590629407
 21
96.878808735
 31
0.0
  0
LINE
  5
238
330
1F
100
AcDbEntity
  8
0
  6
LTYPE1
 62
     3
100
AcDbLine
 10
367.590629407
 20
96.878808735
 30
0.0
 11
367.590629407
 21
106.079113482
 31
0.0
  0
ARC
  5
239
330
1F
100
AcDbEntity
  8
0
  6
LTYPE1
 62
     3
100
AcDbCircle
 10
363.590629884
 20
93.128808661
 30
0.0
 40
0.50000001
100
AcDbArc
 50
270.0
 51
359.999999992
  0
ARC
  5
23A
330
1F
100
AcDbEntity
  8
0
  6
LTYPE1
 62
     3
100
AcDbCircle
 10
363.590629884
 20
93.628808661
 30
0.0
 40
0.500000011
100
AcDbArc
 50
359.999999991
 51
90.0
  0
LINE
  5
23B
330
1F
100
AcDbEntity
  8
0
  6
LTYPE1
 62
     3
100
AcDbLine
 10
364.090629765
 20
93.128808586
 30
0.0
 11
364.090629765
 21
93.628808668
 31
0.0
  0
LINE
  5
23C
330
1F
100
AcDbEntity
  8
0
  6
LTYPE1
 62
     3
100
AcDbLine
 10
364.965607324
 20
94.878808408
 30
0.0
 11
364.790630438
 21
96.878808735
 31
0.0
  0
LINE
  5
23D
330
1F
100
AcDbEntity
  8
0
  6
LTYPE1
 62
     3
100
AcDbLine
 10
366.435929113
 20
94.878808408
 30
0.0
 11
367.590629407
 21
96.878808735
 31
0.0
  0
LINE
  5
23E
330
1F
100
AcDbEntity
  8
0
  6
LTYPE1
 62
     3
100
AcDbLine
 10
364.965607324
 20
94.878808408
 30
0.0
 11
366.435929113
 21
94.878808408
 31
0.0
  0
LINE
  5
23F
330
1F
100
AcDbEntity
  8
0
  6
LTYPE1
 62
     3
100
AcDbLine
 10
358.590629795
 20
127.978808059
 30
0.0
 11
352.09062966
 21
127.978808059
 31
0.0
  0
LINE
  5
240
330
1F
100
AcDbEntity
  8
0
  6
LTYPE1
 62
     3
100
AcDbLine
 10
358.590629795
 20
126.978809758
 30
0.0
 11
352.09062966
 21
126.978809758
 31
0.0
  0
LINE
  5
241
330
1F
100
AcDbEntity
  8
0
  6
LTYPE1
 62
     3
100
AcDbLine
 10
363.590630614
 20
126.978809758
 30
0.0
 11
363.590630614
 21
127.978808059
 31
0.0
  0
LINE
  5
242
330
1F
100
AcDbEntity
  8
0
  6
LTYPE1
 62
     3
100
AcDbLine
 10
363.590630614
 20
127.978808059
 30
0.0
 11
358.590629795
 21
127.978808059
 31
0.0
  0
LINE
  5
243
330
1F
100
AcDbEntity
  8
0
  6
LTYPE1
 62
     3
100
AcDbLine
 10
363.590630614
 20
126.978809758
 30
0.0
 11
358.590629795
 21
126.978809758
 31
0.0
  0
LINE
  5
244
330
1F
100
AcDbEntity
  8
0
  6
LTYPE1
 62
     3
100
AcDbLine
 10
363.590630614
 20
36.578806861
 30
0.0
 11
363.590630614
 21
126.978809758
 31
0.0
  0
LINE
  5
245
330
1F
100
AcDbEntity
  8
0
  6
Continuous
 62
     3
100
AcDbLine
 10
368.090629976
 20
102.155161001
 30
0.0
 11
369.864299243
 21
103.917005868
 31
0.0
  0
LINE
  5
246
330
1F
100
AcDbEntity
  8
0
  6
Continuous
 62
     3
100
AcDbLine
 10
368.090629976
 20
102.155161001
 30
0.0
 11
368.745750186
 21
104.567798046
 31
0.0
  0
LINE
  5
247
330
1F
100
AcDbEntity
  8
0
  6
Continuous
 62
     3
100
AcDbLine
 10
368.090629976
 20
102.155161001
 30
0.0
 11
380.890629976
 21
124.155161001
 31
0.0
  0
TEXT
  5
248
330
1F
100
AcDbEntity
  8
0
  6
Continuous
 62
     2
100
AcDbText
 10
380.890629976
 20
125.155161001
 30
0.0
 40
3.0
  1
ＳｉＯｔ１
 41
0.9
  7
KANJI0
 72
     5
 11
395.590629976
 21
125.155161001
 31
0.0
100
AcDbText
  0
LINE
  5
24A
330
1F
100
AcDbEntity
  8
0
  6
Continuous
 62
     3
100
AcDbLine
 10
380.890629976
 20
124.155161001
 30
0.0
 11
395.550629976
 21
124.155161001
 31
0.0
  0
LINE
  5
24B
330
1F
100
AcDbEntity
  8
0
  6
Continuous
 62
     3
100
AcDbLine
 10
131.586013193
 20
132.655162944
 30
0.0
 11
131.586013193
 21
144.735162944
 31
0.0
  0
LINE
  5
24C
330
1F
100
AcDbEntity
  8
0
  6
Continuous
 62
     3
100
AcDbLine
 10
131.586013193
 20
142.735162944
 30
0.0
 11
134.000827758
 21
142.088115331
 31
0.0
  0
LINE
  5
24D
330
1F
100
AcDbEntity
  8
0
  6
Continuous
 62
     3
100
AcDbLine
 10
131.586013193
 20
142.735162944
 30
0.0
 11
134.000827758
 21
143.382210557
 31
0.0
  0
LINE
  5
24E
330
1F
100
AcDbEntity
  8
0
  6
Continuous
 62
     3
100
AcDbLine
 10
129.706056619
 20
99.955164476
 30
0.0
 11
129.706056619
 21
156.455163628
 31
0.0
  0
LINE
  5
24F
330
1F
100
AcDbEntity
  8
0
  6
Continuous
 62
     3
100
AcDbLine
 10
129.706056619
 20
154.455163628
 30
0.0
 11
132.120871185
 21
153.808116015
 31
0.0
  0
LINE
  5
250
330
1F
100
AcDbEntity
  8
0
  6
Continuous
 62
     3
100
AcDbLine
 10
129.706056619
 20
154.455163628
 30
0.0
 11
132.120871185
 21
155.102211241
 31
0.0
  0
LINE
  5
251
330
1F
100
AcDbEntity
  8
0
  6
Continuous
 62
     3
100
AcDbLine
 10
219.086011702
 20
142.735162944
 30
0.0
 11
216.671197137
 21
143.382210557
 31
0.0
  0
LINE
  5
252
330
1F
100
AcDbEntity
  8
0
  6
Continuous
 62
     3
100
AcDbLine
 10
219.086011702
 20
142.735162944
 30
0.0
 11
216.671197137
 21
142.088115331
 31
0.0
  0
LINE
  5
253
330
1F
100
AcDbEntity
  8
0
  6
Continuous
 62
     3
100
AcDbLine
 10
219.086011702
 20
132.655162944
 30
0.0
 11
219.086011702
 21
144.735162944
 31
0.0
  0
LINE
  5
254
330
1F
100
AcDbEntity
  8
0
  6
Continuous
 62
     3
100
AcDbLine
 10
220.965967804
 20
154.455163628
 30
0.0
 11
218.551153239
 21
155.102211241
 31
0.0
  0
LINE
  5
255
330
1F
100
AcDbEntity
  8
0
  6
Continuous
 62
     3
100
AcDbLine
 10
220.965967804
 20
154.455163628
 30
0.0
 11
218.551153239
 21
153.808116015
 31
0.0
  0
LINE
  5
256
330
1F
100
AcDbEntity
  8
0
  6
Continuous
 62
     3
100
AcDbLine
 10
220.965967804
 20
99.955163628
 30
0.0
 11
220.965967804
 21
156.455163628
 31
0.0
  0
LINE
  5
257
330
1F
100
AcDbEntity
  8
0
  6
Continuous
 62
     3
100
AcDbLine
 10
131.586013193
 20
142.735162944
 30
0.0
 11
219.086011702
 21
142.735162944
 31
0.0
  0
LINE
  5
258
330
1F
100
AcDbEntity
  8
0
  6
Continuous
 62
     3
100
AcDbLine
 10
129.706056619
 20
154.455163628
 30
0.0
 11
220.965967804
 21
154.455163628
 31
0.0
  0
LINE
  5
259
330
1F
100
AcDbEntity
  8
0
  6
Continuous
 62
     3
100
AcDbLine
 10
130.586013193
 20
131.655162944
 30
0.0
 11
119.456013193
 21
131.655162944
 31
0.0
  0
LINE
  5
25A
330
1F
100
AcDbEntity
  8
0
  6
Continuous
 62
     3
100
AcDbLine
 10
121.456013193
 20
131.655162944
 30
0.0
 11
120.80896558
 21
129.240348378
 31
0.0
  0
LINE
  5
25B
330
1F
100
AcDbEntity
  8
0
  6
Continuous
 62
     3
100
AcDbLine
 10
121.456013193
 20
131.655162944
 30
0.0
 11
122.103060805
 21
129.240348378
 31
0.0
  0
LINE
  5
25C
330
1F
100
AcDbEntity
  8
0
  6
Continuous
 62
     3
100
AcDbLine
 10
136.786012447
 20
133.535118985
 30
0.0
 11
108.356012521
 21
133.535118985
 31
0.0
  0
LINE
  5
25D
330
1F
100
AcDbEntity
  8
0
  6
Continuous
 62
     3
100
AcDbLine
 10
110.356012521
 20
133.535118985
 30
0.0
 11
109.708964909
 21
131.120304419
 31
0.0
  0
LINE
  5
25E
330
1F
100
AcDbEntity
  8
0
  6
Continuous
 62
     3
100
AcDbLine
 10
110.356012521
 20
133.535118985
 30
0.0
 11
111.003060134
 21
131.120304419
 31
0.0
  0
LINE
  5
25F
330
1F
100
AcDbEntity
  8
0
  6
Continuous
 62
     3
100
AcDbLine
 10
121.456013193
 20
36.655164136
 30
0.0
 11
122.103060805
 21
39.069978702
 31
0.0
  0
LINE
  5
260
330
1F
100
AcDbEntity
  8
0
  6
Continuous
 62
     3
100
AcDbLine
 10
121.456013193
 20
36.655164136
 30
0.0
 11
120.80896558
 21
39.069978702
 31
0.0
  0
LINE
  5
261
330
1F
100
AcDbEntity
  8
0
  6
Continuous
 62
     3
100
AcDbLine
 10
130.586013193
 20
36.655164136
 30
0.0
 11
119.456013193
 21
36.655164136
 31
0.0
  0
LINE
  5
262
330
1F
100
AcDbEntity
  8
0
  6
Continuous
 62
     3
100
AcDbLine
 10
110.356012521
 20
31.578807904
 30
0.0
 11
111.003060134
 21
33.99362247
 31
0.0
  0
LINE
  5
263
330
1F
100
AcDbEntity
  8
0
  6
Continuous
 62
     3
100
AcDbLine
 10
110.356012521
 20
31.578807904
 30
0.0
 11
109.708964909
 21
33.99362247
 31
0.0
  0
LINE
  5
264
330
1F
100
AcDbEntity
  8
0
  6
Continuous
 62
     3
100
AcDbLine
 10
168.536012521
 20
31.578807904
 30
0.0
 11
108.356012521
 21
31.578807904
 31
0.0
  0
LINE
  5
265
330
1F
100
AcDbEntity
  8
0
  6
Continuous
 62
     3
100
AcDbLine
 10
121.456013193
 20
131.655162944
 30
0.0
 11
121.456013193
 21
36.655164136
 31
0.0
  0
LINE
  5
266
330
1F
100
AcDbEntity
  8
0
  6
Continuous
 62
     3
100
AcDbLine
 10
110.356012521
 20
133.535118985
 30
0.0
 11
110.356012521
 21
31.578807904
 31
0.0
  0
LINE
  5
267
330
1F
100
AcDbEntity
  8
0
  6
Continuous
 62
     3
100
AcDbLine
 10
274.090626188
 20
131.655164643
 30
0.0
 11
274.090626188
 21
144.735162944
 31
0.0
  0
LINE
  5
268
330
1F
100
AcDbEntity
  8
0
  6
Continuous
 62
     3
100
AcDbLine
 10
274.090626188
 20
142.735162944
 30
0.0
 11
276.505440754
 21
142.088115331
 31
0.0
  0
LINE
  5
269
330
1F
100
AcDbEntity
  8
0
  6
Continuous
 62
     3
100
AcDbLine
 10
274.090626188
 20
142.735162944
 30
0.0
 11
276.505440754
 21
143.382210557
 31
0.0
  0
LINE
  5
26A
330
1F
100
AcDbEntity
  8
0
  6
Continuous
 62
     3
100
AcDbLine
 10
274.090626188
 20
131.655164643
 30
0.0
 11
274.090626188
 21
156.455163628
 31
0.0
  0
LINE
  5
26B
330
1F
100
AcDbEntity
  8
0
  6
Continuous
 62
     3
100
AcDbLine
 10
274.090626188
 20
154.455163628
 30
0.0
 11
276.505440754
 21
153.808116015
 31
0.0
  0
LINE
  5
26C
330
1F
100
AcDbEntity
  8
0
  6
Continuous
 62
     3
100
AcDbLine
 10
274.090626188
 20
154.455163628
 30
0.0
 11
276.505440754
 21
155.102211241
 31
0.0
  0
LINE
  5
26D
330
1F
100
AcDbEntity
  8
0
  6
Continuous
 62
     3
100
AcDbLine
 10
352.09062966
 20
142.735162944
 30
0.0
 11
349.675815095
 21
143.382210557
 31
0.0
  0
LINE
  5
26E
330
1F
100
AcDbEntity
  8
0
  6
Continuous
 62
     3
100
AcDbLine
 10
352.09062966
 20
142.735162944
 30
0.0
 11
349.675815095
 21
142.088115331
 31
0.0
  0
LINE
  5
26F
330
1F
100
AcDbEntity
  8
0
  6
Continuous
 62
     3
100
AcDbLine
 10
352.09062966
 20
132.655162944
 30
0.0
 11
352.09062966
 21
144.735162944
 31
0.0
  0
LINE
  5
270
330
1F
100
AcDbEntity
  8
0
  6
Continuous
 62
     3
100
AcDbLine
 10
367.590629407
 20
154.455163628
 30
0.0
 11
365.175814841
 21
155.102211241
 31
0.0
  0
LINE
  5
271
330
1F
100
AcDbEntity
  8
0
  6
Continuous
 62
     3
100
AcDbLine
 10
367.590629407
 20
154.455163628
 30
0.0
 11
365.175814841
 21
153.808116015
 31
0.0
  0
LINE
  5
272
330
1F
100
AcDbEntity
  8
0
  6
Continuous
 62
     3
100
AcDbLine
 10
367.590629407
 20
107.578809022
 30
0.0
 11
367.590629407
 21
156.455163628
 31
0.0
  0
LINE
  5
273
330
1F
100
AcDbEntity
  8
0
  6
Continuous
 62
     3
100
AcDbLine
 10
274.090626188
 20
142.735162944
 30
0.0
 11
352.09062966
 21
142.735162944
 31
0.0
  0
LINE
  5
274
330
1F
100
AcDbEntity
  8
0
  6
Continuous
 62
     3
100
AcDbLine
 10
274.090626188
 20
154.455163628
 30
0.0
 11
367.590629407
 21
154.455163628
 31
0.0
  0
TEXT
  5
275
330
1F
100
AcDbEntity
  8
0
  6
Continuous
 62
     2
100
AcDbText
 10
169.186012212
 20
155.455163628
 30
0.0
 40
3.0
  1
（９１．３）
 41
0.6
  7
KANJI1
 72
     5
 11
181.486012212
 21
155.455163628
 31
0.0
100
AcDbText
  0
TEXT
  5
277
330
1F
100
AcDbEntity
  8
0
  6
Continuous
 62
     2
100
AcDbText
 10
171.286012447
 20
143.735162944
 30
0.0
 40
3.0
  1
８７．５
 41
0.6
  7
KANJI1
 72
     5
 11
179.386012447
 21
143.735162944
 31
0.0
100
AcDbText
  0
TEXT
  5
278
330
1F
100
AcDbEntity
  8
0
  6
Continuous
 62
     2
100
AcDbText
 10
109.356012521
 20
77.456963444
 30
0.0
 40
3.0
  1
（１０２）
 50
90.0
 41
0.6
  7
KANJI1
 72
     5
 11
109.356012521
 21
87.656963444
 31
0.0
100
AcDbText
  0
TEXT
  5
279
330
1F
100
AcDbEntity
  8
0
  6
Continuous
 62
     2
100
AcDbText
 10
120.456013193
 20
82.20516354
 30
0.0
 40
3.0
  1
９５
 50
90.0
 41
0.6
  7
KANJI1
 72
     5
 11
120.456013193
 21
86.10516354
 31
0.0
100
AcDbText
  0
TEXT
  5
27A
330
1F
100
AcDbEntity
  8
0
  6
Continuous
 62
     2
100
AcDbText
 10
314.690627798
 20
155.455163628
 30
0.0
 40
3.0
  1
（９３．５）
 41
0.6
  7
KANJI1
 72
     5
 11
326.990627798
 21
155.455163628
 31
0.0
100
AcDbText
  0
TEXT
  5
27B
330
1F
100
AcDbEntity
  8
0
  6
Continuous
 62
     2
100
AcDbText
 10
311.140627925
 20
143.735162944
 30
0.0
 40
3.0
  1
７８
 41
0.6
  7
KANJI1
 72
     5
 11
315.040627924
 21
143.735162944
 31
0.0
100
AcDbText
  0
TEXT
  5
27C
330
1F
100
AcDbEntity
  8
0
  6
Continuous
 62
     7
100
AcDbText
 10
57.560835207
 20
263.356474695
 30
0.0
 40
4.7625
  1
SUC-817
 41
0.7
  7
KANJI2
 72
     5
 11
80.897085207
 21
263.356474695
 31
0.0
100
AcDbText
  0
ENDSEC
  0
SECTION
  2
OBJECTS
  0
DICTIONARY
  5
C
330
0
100
AcDbDictionary
280
     0
281
     1
  3
ACAD_GROUP
350
D
  3
ACAD_LAYOUT
350
1A
  3
ACAD_MLINESTYLE
350
17
  3
ACAD_PLOTSETTINGS
350
19
  3
ACAD_PLOTSTYLENAME
350
E
  0
DICTIONARY
  5
D
102
{ACAD_REACTORS
330
C
102
}
330
C
100
AcDbDictionary
280
     0
281
     1
  0
DICTIONARY
  5
1A
102
{ACAD_REACTORS
330
C
102
}
330
C
100
AcDbDictionary
280
     0
281
     1
  3
Model
350
22
  3
ﾚｲｱｳﾄ1
350
1E
  3
ﾚｲｱｳﾄ2
350
26
  0
LAYOUT
  5
22
102
{ACAD_REACTORS
330
1A
102
}
330
1A
100
AcDbPlotSettings
  1

  2

  4

  6

 40
0.0
 41
0.0
 42
0.0
 43
0.0
 44
0.0
 45
0.0
 46
0.0
 47
0.0
 48
0.0
 49
0.0
140
0.0
141
0.0
142
1.0
143
1.0
 70
  1712
 72
     0
 73
     0
 74
     0
  7

 75
     0
147
1.0
148
0.0
149
0.0
100
AcDbLayout
  1
Model
 70
     1
 71
     0
 10
0.0
 20
0.0
 11
0.0
 21
0.0
 12
0.0
 22
0.0
 32
0.0
 14
0.0
 24
0.0
 34
0.0
 15
0.0
 25
0.0
 35
0.0
146
0.0
 13
0.0
 23
0.0
 33
0.0
 16
1.0
 26
0.0
 36
0.0
 17
0.0
 27
1.0
 37
0.0
 76
     0
330
1F
331
0
345
0
346
0
  0
LAYOUT
  5
1E
102
{ACAD_REACTORS
330
1A
102
}
330
1A
100
AcDbPlotSettings
  1

  2

  4

  6

 40
0.0
 41
0.0
 42
0.0
 43
0.0
 44
0.0
 45
0.0
 46
0.0
 47
0.0
 48
0.0
 49
0.0
140
0.0
141
0.0
142
1.0
143
1.0
 70
   688
 72
     0
 73
     0
 74
     5
  7

 75
    16
147
1.0
148
0.0
149
0.0
100
AcDbLayout
  1
ﾚｲｱｳﾄ1
 70
     1
 71
     1
 10
0.0
 20
0.0
 11
0.0
 21
0.0
 12
0.0
 22
0.0
 32
0.0
 14
0.0
 24
0.0
 34
0.0
 15
0.0
 25
0.0
 35
0.0
146
0.0
 13
0.0
 23
0.0
 33
0.0
 16
1.0
 26
0.0
 36
0.0
 17
0.0
 27
1.0
 37
0.0
 76
     0
330
1B
331
0
345
0
346
0
  0
LAYOUT
  5
26
102
{ACAD_REACTORS
330
1A
102
}
330
1A
100
AcDbPlotSettings
  1

  2

  4

  6

 40
0.0
 41
0.0
 42
0.0
 43
0.0
 44
0.0
 45
0.0
 46
0.0
 47
0.0
 48
0.0
 49
0.0
140
0.0
141
0.0
142
1.0
143
1.0
 70
   688
 72
     0
 73
     0
 74
     5
  7

 75
    16
147
1.0
148
0.0
149
0.0
100
AcDbLayout
  1
ﾚｲｱｳﾄ2
 70
     1
 71
     2
 10
0.0
 20
0.0
 11
0.0
 21
0.0
 12
0.0
 22
0.0
 32
0.0
 14
0.0
 24
0.0
 34
0.0
 15
0.0
 25
0.0
 35
0.0
146
0.0
 13
0.0
 23
0.0
 33
0.0
 16
1.0
 26
0.0
 36
0.0
 17
0.0
 27
1.0
 37
0.0
 76
     0
330
23
331
0
345
0
346
0
  0
DICTIONARY
  5
17
102
{ACAD_REACTORS
330
C
102
}
330
C
100
AcDbDictionary
280
     0
281
     1
  3
Standard
350
18
  0
MLINESTYLE
  5
18
102
{ACAD_REACTORS
330
17
102
}
330
17
100
AcDbMlineStyle
  2
STANDARD
 70
     0
  3

 62
   256
 51
90.0
 52
90.0
 71
     2
 49
0.5
 62
   256
  6
ByLayer
 49
-0.5
 62
   256
  6
ByLayer
  0
DICTIONARY
  5
19
102
{ACAD_REACTORS
330
C
102
}
330
C
100
AcDbDictionary
280
     0
281
     1
  0
ACDBDICTIONARYWDFLT
  5
E
330
C
100
AcDbDictionary
281
     0
  3
Normal
350
F
100
AcDbDictionaryWithDefault
340
F
  0
ACDBPLACEHOLDER
  5
F
102
{ACAD_REACTORS
330
E
102
}
330
E
  0
ENDSEC
  0
EOF
