  0
SECTION
  2
HEADER
  9
$ACADVER
  1
AC1015
  9
$ACADMAINTVER
 70
     6
  9
$DWGCODEPAGE
  3
ANSI_932
  9
$INSBASE
 10
0.0
 20
0.0
 30
0.0
  9
$EXTMIN
 10
0.0
 20
0.0
 30
0.0
  9
$EXTMAX
 10
420.0
 20
297.0
 30
0.0
  9
$LIMMIN
 10
0.0
 20
0.0
  9
$LIMMAX
 10
420.0
 20
297.0
  9
$ORTHOMODE
 70
     0
  9
$REGENMODE
 70
     1
  9
$FILLMODE
 70
     1
  9
$QTEXTMODE
 70
     0
  9
$MIRRTEXT
 70
     1
  9
$LTSCALE
 40
1.0
  9
$ATTMODE
 70
     1
  9
$TEXTSIZE
 40
2.5
  9
$TRACEWID
 40
1.0
  9
$TEXTSTYLE
  7
Standard
  9
$CLAYER
  8
0
  9
$CELTYPE
  6
ByLayer
  9
$CECOLOR
 62
   256
  9
$CELTSCALE
 40
1.0
  9
$DISPSILH
 70
     0
  9
$DIMSCALE
 40
1.0
  9
$DIMASZ
 40
2.5
  9
$DIMEXO
 40
0.625
  9
$DIMDLI
 40
3.75
  9
$DIMRND
 40
0.0
  9
$DIMDLE
 40
0.0
  9
$DIMEXE
 40
1.25
  9
$DIMTP
 40
0.0
  9
$DIMTM
 40
0.0
  9
$DIMTXT
 40
2.5
  9
$DIMCEN
 40
2.5
  9
$DIMTSZ
 40
0.0
  9
$DIMTOL
 70
     0
  9
$DIMLIM
 70
     0
  9
$DIMTIH
 70
     0
  9
$DIMTOH
 70
     0
  9
$DIMSE1
 70
     0
  9
$DIMSE2
 70
     0
  9
$DIMTAD
 70
     1
  9
$DIMZIN
 70
     8
  9
$DIMBLK
  1

  9
$DIMASO
 70
     1
  9
$DIMSHO
 70
     1
  9
$DIMPOST
  1

  9
$DIMAPOST
  1

  9
$DIMALT
 70
     0
  9
$DIMALTD
 70
     3
  9
$DIMALTF
 40
0.03937007874016
  9
$DIMLFAC
 40
1.0
  9
$DIMTOFL
 70
     1
  9
$DIMTVP
 40
0.0
  9
$DIMTIX
 70
     0
  9
$DIMSOXD
 70
     0
  9
$DIMSAH
 70
     0
  9
$DIMBLK1
  1

  9
$DIMBLK2
  1

  9
$DIMSTYLE
  2
ISO-25
  9
$DIMCLRD
 70
     0
  9
$DIMCLRE
 70
     0
  9
$DIMCLRT
 70
     0
  9
$DIMTFAC
 40
1.0
  9
$DIMGAP
 40
0.625
  9
$DIMJUST
 70
     0
  9
$DIMSD1
 70
     0
  9
$DIMSD2
 70
     0
  9
$DIMTOLJ
 70
     0
  9
$DIMTZIN
 70
     8
  9
$DIMALTZ
 70
     0
  9
$DIMALTTZ
 70
     0
  9
$DIMUPT
 70
     0
  9
$DIMDEC
 70
     2
  9
$DIMTDEC
 70
     2
  9
$DIMALTU
 70
     2
  9
$DIMALTTD
 70
     3
  9
$DIMTXSTY
  7
Standard
  9
$DIMAUNIT
 70
     0
  9
$DIMADEC
 70
     0
  9
$DIMALTRND
 40
0.0
  9
$DIMAZIN
 70
     0
  9
$DIMDSEP
 70
    46
  9
$DIMATFIT
 70
     3
  9
$DIMFRAC
 70
     0
  9
$DIMLDRBLK
  1

  9
$DIMLUNIT
 70
     2
  9
$DIMLWD
 70
    -2
  9
$DIMLWE
 70
    -2
  9
$DIMTMOVE
 70
     0
  9
$LUNITS
 70
     2
  9
$LUPREC
 70
     4
  9
$SKETCHINC
 40
1.0
  9
$FILLETRAD
 40
10.0
  9
$AUNITS
 70
     0
  9
$AUPREC
 70
     0
  9
$MENU
  1
.
  9
$ELEVATION
 40
0.0
  9
$PELEVATION
 40
0.0
  9
$THICKNESS
 40
0.0
  9
$LIMCHECK
 70
     0
  9
$CHAMFERA
 40
10.0
  9
$CHAMFERB
 40
10.0
  9
$CHAMFERC
 40
20.0
  9
$CHAMFERD
 40
0.0
  9
$SKPOLY
 70
     0
  9
$TDCREATE
 40
2459004.000000
  9
$TDUCREATE
 40
0.000000000
  9
$TDUPDATE
 40
2459004.000000
  9
$TDUUPDATE
 40
2459004.000000
  9
$TDINDWG
 40
0.0
  9
$TDUSRTIMER
 40
0.0
  9
$USRTIMER
 70
     1
  9
$ANGBASE
 50
0.0
  9
$ANGDIR
 70
     0
  9
$PDMODE
 70
     0
  9
$PDSIZE
 40
0.0
  9
$PLINEWID
 40
0.0
  9
$SPLFRAME
 70
     0
  9
$SPLINETYPE
 70
     6
  9
$SPLINESEGS
 70
     8
  9
$HANDSEED
  5
036B
  9
$SURFTAB1
 70
     6
  9
$SURFTAB2
 70
     6
  9
$SURFTYPE
 70
     6
  9
$SURFU
 70
     6
  9
$SURFV
 70
     6
  9
$UCSBASE
  2

  9
$UCSNAME
  2

  9
$UCSORG
 10
0.0
 20
0.0
 30
0.0
  9
$UCSXDIR
 10
1.0
 20
0.0
 30
0.0
  9
$UCSYDIR
 10
0.0
 20
1.0
 30
0.0
  9
$UCSORTHOREF
  2

  9
$UCSORTHOVIEW
 70
     0
  9
$UCSORGTOP
 10
0.0
 20
0.0
 30
0.0
  9
$UCSORGBOTTOM
 10
0.0
 20
0.0
 30
0.0
  9
$UCSORGLEFT
 10
0.0
 20
0.0
 30
0.0
  9
$UCSORGRIGHT
 10
0.0
 20
0.0
 30
0.0
  9
$UCSORGFRONT
 10
0.0
 20
0.0
 30
0.0
  9
$UCSORGBACK
 10
0.0
 20
0.0
 30
0.0
  9
$PUCSBASE
  2

  9
$PUCSNAME
  2

  9
$PUCSORG
 10
0.0
 20
0.0
 30
0.0
  9
$PUCSXDIR
 10
1.0
 20
0.0
 30
0.0
  9
$PUCSYDIR
 10
0.0
 20
1.0
 30
0.0
  9
$PUCSORTHOREF
  2

  9
$PUCSORTHOVIEW
 70
     0
  9
$PUCSORGTOP
 10
0.0
 20
0.0
 30
0.0
  9
$PUCSORGBOTTOM
 10
0.0
 20
0.0
 30
0.0
  9
$PUCSORGLEFT
 10
0.0
 20
0.0
 30
0.0
  9
$PUCSORGRIGHT
 10
0.0
 20
0.0
 30
0.0
  9
$PUCSORGFRONT
 10
0.0
 20
0.0
 30
0.0
  9
$PUCSORGBACK
 10
0.0
 20
0.0
 30
0.0
  9
$USERI1
 70
     0
  9
$USERI2
 70
     0
  9
$USERI3
 70
     0
  9
$USERI4
 70
     0
  9
$USERI5
 70
     0
  9
$USERR1
 40
0.0
  9
$USERR2
 40
0.0
  9
$USERR3
 40
0.0
  9
$USERR4
 40
0.0
  9
$USERR5
 40
0.0
  9
$WORLDVIEW
 70
     1
  9
$SHADEDGE
 70
     3
  9
$SHADEDIF
 70
    70
  9
$TILEMODE
 70
     1
  9
$MAXACTVP
 70
    64
  9
$PINSBASE
 10
0.0
 20
0.0
 30
0.0
  9
$PLIMCHECK
 70
     0
  9
$PEXTMIN
 10
1.000000E+20
 20
1.000000E+20
 30
1.000000E+20
  9
$PEXTMAX
 10
-1.000000E+20
 20
-1.000000E+20
 30
-1.000000E+20
  9
$PLIMMIN
 10
0.0
 20
0.0
  9
$PLIMMAX
 10
0.0
 20
0.0
  9
$UNITMODE
 70
     0
  9
$VISRETAIN
 70
     0
  9
$PLINEGEN
 70
     0
  9
$PSLTSCALE
 70
     1
  9
$TREEDEPTH
 70
  3020
  9
$CMLSTYLE
  2
STANDARD
  9
$CMLJUST
 70
     0
  9
$CMLSCALE
 40
20.0
  9
$PROXYGRAPHICS
 70
     1
  9
$MEASUREMENT
 70
     1
  9
$CELWEIGHT
370
    -1
  9
$ENDCAPS
280
     0
  9
$JOINSTYLE
280
     0
  9
$LWDISPLAY
290
     0
  9
$INSUNITS
 70
     4
  9
$HYPERLINKBASE
  1

  9
$STYLESHEET
  1

  9
$XEDIT
290
     1
  9
$CEPSNTYPE
380
     0
  9
$PSTYLEMODE
290
     1
  9
$FINGERPRINTGUID
  2
{142646D4-8F9C-6915-0CA7-044E7C41B7F2}
  9
$VERSIONGUID
  2
{142646D4-8F9C-6915-0CA7-044E7C41B7F2}
  9
$EXTNAMES
290
     1
  9
$PSVPSCALE
 40
0.0
  0
ENDSEC
  0
SECTION
  2
CLASSES
  0
ENDSEC
  0
SECTION
  2
TABLES
  0
TABLE
  2
VPORT
  5
8
330
0
100
AcDbSymbolTable
 70
     3
  0
VPORT
  5
29
330
8
100
AcDbSymbolTableRecord
100
AcDbViewportTableRecord
  2
*Active
 70
     0
 10
0.0
 20
0.0
 11
1.0
 21
1.0
 12
210.0
 22
148.5
 13
0.0
 23
0.0
 14
10.0
 24
10.0
 15
0.0
 25
0.0
 16
0.0
 26
0.0
 36
1.0
 17
0.0
 27
0.0
 37
0.0
 40
297.0
 41
1.414141414
 42
50.0
 43
0.0
 44
0.0
 50
0.0
 51
0.0
 71
     0
 72
  1000
 73
     1
 74
     3
 75
     0
 76
     0
 77
     0
 78
     0
281
     0
 65
     0
110
0.0
120
0.0
130
0.0
111
1.0
121
0.0
131
0.0
112
0.0
122
1.0
132
0.0
 79
     0
146
0.0
  0
ENDTAB
  0
TABLE
  2
LTYPE
  5
5
330
0
100
AcDbSymbolTable
 70
     5
  0
LTYPE
  5
14
330
5
100
AcDbSymbolTableRecord
100
AcDbLinetypeTableRecord
  2
ByBlock
 70
     0
  3

 72
    65
 73
     0
 40
0.0
  0
LTYPE
  5
15
330
5
100
AcDbSymbolTableRecord
100
AcDbLinetypeTableRecord
  2
ByLayer
 70
     0
  3

 72
    65
 73
     0
 40
0.0
  0
LTYPE
  5
16
330
5
100
AcDbSymbolTableRecord
100
AcDbLinetypeTableRecord
  2
Continuous
 70
     0
  3
Solid line
 72
    65
 73
     0
 40
0.0
  0
LTYPE
  5
D2
330
5
100
AcDbSymbolTableRecord
100
AcDbLinetypeTableRecord
  2
LTYPE1
 70
     0
  3
CENTER
 72
    65
 73
     4
 40
15.0
 49
10.5
 74
     0
 49
-1.5
 74
     0
 49
1.5
 74
     0
 49
-1.5
 74
     0
  0
LTYPE
  5
338
330
5
100
AcDbSymbolTableRecord
100
AcDbLinetypeTableRecord
  2
LTYPE2
 70
     0
  3
HIDDEN
 72
    65
 73
     2
 40
3.0
 49
1.8
 74
     0
 49
-1.2
 74
     0
  0
ENDTAB
  0
TABLE
  2
LAYER
  5
2
330
0
100
AcDbSymbolTable
 70
   128
  0
LAYER
  5
10
330
2
100
AcDbSymbolTableRecord
100
AcDbLayerTableRecord
  2
0
 70
     0
 62
     7
  6
Continuous
290
     1
370
    -3
390
F
  0
LAYER
  5
2A
330
2
100
AcDbSymbolTableRecord
100
AcDbLayerTableRecord
  2
2
 70
     0
 62
     7
  6
Continuous
290
     1
370
    -3
390
F
  0
LAYER
  5
2B
330
2
100
AcDbSymbolTableRecord
100
AcDbLayerTableRecord
  2
3
 70
     0
 62
     7
  6
Continuous
290
     1
370
    -3
390
F
  0
LAYER
  5
2C
330
2
100
AcDbSymbolTableRecord
100
AcDbLayerTableRecord
  2
4
 70
     0
 62
     7
  6
Continuous
290
     1
370
    -3
390
F
  0
LAYER
  5
2D
330
2
100
AcDbSymbolTableRecord
100
AcDbLayerTableRecord
  2
5
 70
     0
 62
     7
  6
Continuous
290
     1
370
    -3
390
F
  0
LAYER
  5
2E
330
2
100
AcDbSymbolTableRecord
100
AcDbLayerTableRecord
  2
6
 70
     0
 62
     7
  6
Continuous
290
     1
370
    -3
390
F
  0
LAYER
  5
2F
330
2
100
AcDbSymbolTableRecord
100
AcDbLayerTableRecord
  2
7
 70
     0
 62
     7
  6
Continuous
290
     1
370
    -3
390
F
  0
LAYER
  5
30
330
2
100
AcDbSymbolTableRecord
100
AcDbLayerTableRecord
  2
8
 70
     0
 62
     7
  6
Continuous
290
     1
370
    -3
390
F
  0
LAYER
  5
31
330
2
100
AcDbSymbolTableRecord
100
AcDbLayerTableRecord
  2
9
 70
     0
 62
     7
  6
Continuous
290
     1
370
    -3
390
F
  0
LAYER
  5
32
330
2
100
AcDbSymbolTableRecord
100
AcDbLayerTableRecord
  2
10
 70
     0
 62
     7
  6
Continuous
290
     1
370
    -3
390
F
  0
LAYER
  5
33
330
2
100
AcDbSymbolTableRecord
100
AcDbLayerTableRecord
  2
11
 70
     0
 62
     7
  6
Continuous
290
     1
370
    -3
390
F
  0
LAYER
  5
34
330
2
100
AcDbSymbolTableRecord
100
AcDbLayerTableRecord
  2
12
 70
     0
 62
     7
  6
Continuous
290
     1
370
    -3
390
F
  0
LAYER
  5
35
330
2
100
AcDbSymbolTableRecord
100
AcDbLayerTableRecord
  2
13
 70
     0
 62
     7
  6
Continuous
290
     1
370
    -3
390
F
  0
LAYER
  5
36
330
2
100
AcDbSymbolTableRecord
100
AcDbLayerTableRecord
  2
14
 70
     0
 62
     7
  6
Continuous
290
     1
370
    -3
390
F
  0
LAYER
  5
37
330
2
100
AcDbSymbolTableRecord
100
AcDbLayerTableRecord
  2
15
 70
     0
 62
     7
  6
Continuous
290
     1
370
    -3
390
F
  0
LAYER
  5
38
330
2
100
AcDbSymbolTableRecord
100
AcDbLayerTableRecord
  2
16
 70
     0
 62
     7
  6
Continuous
290
     1
370
    -3
390
F
  0
LAYER
  5
39
330
2
100
AcDbSymbolTableRecord
100
AcDbLayerTableRecord
  2
17
 70
     0
 62
     7
  6
Continuous
290
     1
370
    -3
390
F
  0
LAYER
  5
3A
330
2
100
AcDbSymbolTableRecord
100
AcDbLayerTableRecord
  2
18
 70
     0
 62
     7
  6
Continuous
290
     1
370
    -3
390
F
  0
LAYER
  5
3B
330
2
100
AcDbSymbolTableRecord
100
AcDbLayerTableRecord
  2
19
 70
     0
 62
     7
  6
Continuous
290
     1
370
    -3
390
F
  0
LAYER
  5
3C
330
2
100
AcDbSymbolTableRecord
100
AcDbLayerTableRecord
  2
20
 70
     0
 62
     7
  6
Continuous
290
     1
370
    -3
390
F
  0
LAYER
  5
3D
330
2
100
AcDbSymbolTableRecord
100
AcDbLayerTableRecord
  2
21
 70
     0
 62
     7
  6
Continuous
290
     1
370
    -3
390
F
  0
LAYER
  5
3E
330
2
100
AcDbSymbolTableRecord
100
AcDbLayerTableRecord
  2
22
 70
     0
 62
     7
  6
Continuous
290
     1
370
    -3
390
F
  0
LAYER
  5
3F
330
2
100
AcDbSymbolTableRecord
100
AcDbLayerTableRecord
  2
23
 70
     0
 62
     7
  6
Continuous
290
     1
370
    -3
390
F
  0
LAYER
  5
40
330
2
100
AcDbSymbolTableRecord
100
AcDbLayerTableRecord
  2
24
 70
     0
 62
     7
  6
Continuous
290
     1
370
    -3
390
F
  0
LAYER
  5
41
330
2
100
AcDbSymbolTableRecord
100
AcDbLayerTableRecord
  2
25
 70
     0
 62
     7
  6
Continuous
290
     1
370
    -3
390
F
  0
LAYER
  5
42
330
2
100
AcDbSymbolTableRecord
100
AcDbLayerTableRecord
  2
26
 70
     0
 62
     7
  6
Continuous
290
     1
370
    -3
390
F
  0
LAYER
  5
43
330
2
100
AcDbSymbolTableRecord
100
AcDbLayerTableRecord
  2
27
 70
     0
 62
     7
  6
Continuous
290
     1
370
    -3
390
F
  0
LAYER
  5
44
330
2
100
AcDbSymbolTableRecord
100
AcDbLayerTableRecord
  2
28
 70
     0
 62
     7
  6
Continuous
290
     1
370
    -3
390
F
  0
LAYER
  5
45
330
2
100
AcDbSymbolTableRecord
100
AcDbLayerTableRecord
  2
29
 70
     0
 62
     7
  6
Continuous
290
     1
370
    -3
390
F
  0
LAYER
  5
46
330
2
100
AcDbSymbolTableRecord
100
AcDbLayerTableRecord
  2
30
 70
     0
 62
     7
  6
Continuous
290
     1
370
    -3
390
F
  0
LAYER
  5
47
330
2
100
AcDbSymbolTableRecord
100
AcDbLayerTableRecord
  2
31
 70
     0
 62
     7
  6
Continuous
290
     1
370
    -3
390
F
  0
LAYER
  5
48
330
2
100
AcDbSymbolTableRecord
100
AcDbLayerTableRecord
  2
32
 70
     0
 62
     7
  6
Continuous
290
     1
370
    -3
390
F
  0
LAYER
  5
49
330
2
100
AcDbSymbolTableRecord
100
AcDbLayerTableRecord
  2
33
 70
     0
 62
     7
  6
Continuous
290
     1
370
    -3
390
F
  0
LAYER
  5
4A
330
2
100
AcDbSymbolTableRecord
100
AcDbLayerTableRecord
  2
34
 70
     0
 62
     7
  6
Continuous
290
     1
370
    -3
390
F
  0
LAYER
  5
4B
330
2
100
AcDbSymbolTableRecord
100
AcDbLayerTableRecord
  2
35
 70
     0
 62
     7
  6
Continuous
290
     1
370
    -3
390
F
  0
LAYER
  5
4C
330
2
100
AcDbSymbolTableRecord
100
AcDbLayerTableRecord
  2
36
 70
     0
 62
     7
  6
Continuous
290
     1
370
    -3
390
F
  0
LAYER
  5
4D
330
2
100
AcDbSymbolTableRecord
100
AcDbLayerTableRecord
  2
37
 70
     0
 62
     7
  6
Continuous
290
     1
370
    -3
390
F
  0
LAYER
  5
4E
330
2
100
AcDbSymbolTableRecord
100
AcDbLayerTableRecord
  2
38
 70
     0
 62
     7
  6
Continuous
290
     1
370
    -3
390
F
  0
LAYER
  5
4F
330
2
100
AcDbSymbolTableRecord
100
AcDbLayerTableRecord
  2
39
 70
     0
 62
     7
  6
Continuous
290
     1
370
    -3
390
F
  0
LAYER
  5
50
330
2
100
AcDbSymbolTableRecord
100
AcDbLayerTableRecord
  2
40
 70
     0
 62
     7
  6
Continuous
290
     1
370
    -3
390
F
  0
LAYER
  5
51
330
2
100
AcDbSymbolTableRecord
100
AcDbLayerTableRecord
  2
41
 70
     0
 62
     7
  6
Continuous
290
     1
370
    -3
390
F
  0
LAYER
  5
52
330
2
100
AcDbSymbolTableRecord
100
AcDbLayerTableRecord
  2
42
 70
     0
 62
     7
  6
Continuous
290
     1
370
    -3
390
F
  0
LAYER
  5
53
330
2
100
AcDbSymbolTableRecord
100
AcDbLayerTableRecord
  2
43
 70
     0
 62
     7
  6
Continuous
290
     1
370
    -3
390
F
  0
LAYER
  5
54
330
2
100
AcDbSymbolTableRecord
100
AcDbLayerTableRecord
  2
44
 70
     0
 62
     7
  6
Continuous
290
     1
370
    -3
390
F
  0
LAYER
  5
55
330
2
100
AcDbSymbolTableRecord
100
AcDbLayerTableRecord
  2
45
 70
     0
 62
     7
  6
Continuous
290
     1
370
    -3
390
F
  0
LAYER
  5
56
330
2
100
AcDbSymbolTableRecord
100
AcDbLayerTableRecord
  2
46
 70
     0
 62
     7
  6
Continuous
290
     1
370
    -3
390
F
  0
LAYER
  5
57
330
2
100
AcDbSymbolTableRecord
100
AcDbLayerTableRecord
  2
47
 70
     0
 62
     7
  6
Continuous
290
     1
370
    -3
390
F
  0
LAYER
  5
58
330
2
100
AcDbSymbolTableRecord
100
AcDbLayerTableRecord
  2
48
 70
     0
 62
     7
  6
Continuous
290
     1
370
    -3
390
F
  0
LAYER
  5
59
330
2
100
AcDbSymbolTableRecord
100
AcDbLayerTableRecord
  2
49
 70
     0
 62
     7
  6
Continuous
290
     1
370
    -3
390
F
  0
LAYER
  5
5A
330
2
100
AcDbSymbolTableRecord
100
AcDbLayerTableRecord
  2
50
 70
     0
 62
     7
  6
Continuous
290
     1
370
    -3
390
F
  0
LAYER
  5
5B
330
2
100
AcDbSymbolTableRecord
100
AcDbLayerTableRecord
  2
51
 70
     0
 62
     7
  6
Continuous
290
     1
370
    -3
390
F
  0
LAYER
  5
5C
330
2
100
AcDbSymbolTableRecord
100
AcDbLayerTableRecord
  2
52
 70
     0
 62
     7
  6
Continuous
290
     1
370
    -3
390
F
  0
LAYER
  5
5D
330
2
100
AcDbSymbolTableRecord
100
AcDbLayerTableRecord
  2
53
 70
     0
 62
     7
  6
Continuous
290
     1
370
    -3
390
F
  0
LAYER
  5
5E
330
2
100
AcDbSymbolTableRecord
100
AcDbLayerTableRecord
  2
54
 70
     0
 62
     7
  6
Continuous
290
     1
370
    -3
390
F
  0
LAYER
  5
5F
330
2
100
AcDbSymbolTableRecord
100
AcDbLayerTableRecord
  2
55
 70
     0
 62
     7
  6
Continuous
290
     1
370
    -3
390
F
  0
LAYER
  5
60
330
2
100
AcDbSymbolTableRecord
100
AcDbLayerTableRecord
  2
56
 70
     0
 62
     7
  6
Continuous
290
     1
370
    -3
390
F
  0
LAYER
  5
61
330
2
100
AcDbSymbolTableRecord
100
AcDbLayerTableRecord
  2
57
 70
     0
 62
     7
  6
Continuous
290
     1
370
    -3
390
F
  0
LAYER
  5
62
330
2
100
AcDbSymbolTableRecord
100
AcDbLayerTableRecord
  2
58
 70
     0
 62
     7
  6
Continuous
290
     1
370
    -3
390
F
  0
LAYER
  5
63
330
2
100
AcDbSymbolTableRecord
100
AcDbLayerTableRecord
  2
59
 70
     0
 62
     7
  6
Continuous
290
     1
370
    -3
390
F
  0
LAYER
  5
64
330
2
100
AcDbSymbolTableRecord
100
AcDbLayerTableRecord
  2
60
 70
     0
 62
     7
  6
Continuous
290
     1
370
    -3
390
F
  0
LAYER
  5
65
330
2
100
AcDbSymbolTableRecord
100
AcDbLayerTableRecord
  2
61
 70
     0
 62
     7
  6
Continuous
290
     1
370
    -3
390
F
  0
LAYER
  5
66
330
2
100
AcDbSymbolTableRecord
100
AcDbLayerTableRecord
  2
62
 70
     0
 62
     7
  6
Continuous
290
     1
370
    -3
390
F
  0
LAYER
  5
67
330
2
100
AcDbSymbolTableRecord
100
AcDbLayerTableRecord
  2
63
 70
     0
 62
     7
  6
Continuous
290
     1
370
    -3
390
F
  0
LAYER
  5
68
330
2
100
AcDbSymbolTableRecord
100
AcDbLayerTableRecord
  2
64
 70
     0
 62
     7
  6
Continuous
290
     1
370
    -3
390
F
  0
LAYER
  5
69
330
2
100
AcDbSymbolTableRecord
100
AcDbLayerTableRecord
  2
65
 70
     0
 62
     7
  6
Continuous
290
     1
370
    -3
390
F
  0
LAYER
  5
6A
330
2
100
AcDbSymbolTableRecord
100
AcDbLayerTableRecord
  2
66
 70
     0
 62
     7
  6
Continuous
290
     1
370
    -3
390
F
  0
LAYER
  5
6B
330
2
100
AcDbSymbolTableRecord
100
AcDbLayerTableRecord
  2
67
 70
     0
 62
     7
  6
Continuous
290
     1
370
    -3
390
F
  0
LAYER
  5
6C
330
2
100
AcDbSymbolTableRecord
100
AcDbLayerTableRecord
  2
68
 70
     0
 62
     7
  6
Continuous
290
     1
370
    -3
390
F
  0
LAYER
  5
6D
330
2
100
AcDbSymbolTableRecord
100
AcDbLayerTableRecord
  2
69
 70
     0
 62
     7
  6
Continuous
290
     1
370
    -3
390
F
  0
LAYER
  5
6E
330
2
100
AcDbSymbolTableRecord
100
AcDbLayerTableRecord
  2
70
 70
     0
 62
     7
  6
Continuous
290
     1
370
    -3
390
F
  0
LAYER
  5
6F
330
2
100
AcDbSymbolTableRecord
100
AcDbLayerTableRecord
  2
71
 70
     0
 62
     7
  6
Continuous
290
     1
370
    -3
390
F
  0
LAYER
  5
70
330
2
100
AcDbSymbolTableRecord
100
AcDbLayerTableRecord
  2
72
 70
     0
 62
     7
  6
Continuous
290
     1
370
    -3
390
F
  0
LAYER
  5
71
330
2
100
AcDbSymbolTableRecord
100
AcDbLayerTableRecord
  2
73
 70
     0
 62
     7
  6
Continuous
290
     1
370
    -3
390
F
  0
LAYER
  5
72
330
2
100
AcDbSymbolTableRecord
100
AcDbLayerTableRecord
  2
74
 70
     0
 62
     7
  6
Continuous
290
     1
370
    -3
390
F
  0
LAYER
  5
73
330
2
100
AcDbSymbolTableRecord
100
AcDbLayerTableRecord
  2
75
 70
     0
 62
     7
  6
Continuous
290
     1
370
    -3
390
F
  0
LAYER
  5
74
330
2
100
AcDbSymbolTableRecord
100
AcDbLayerTableRecord
  2
76
 70
     0
 62
     7
  6
Continuous
290
     1
370
    -3
390
F
  0
LAYER
  5
75
330
2
100
AcDbSymbolTableRecord
100
AcDbLayerTableRecord
  2
77
 70
     0
 62
     7
  6
Continuous
290
     1
370
    -3
390
F
  0
LAYER
  5
76
330
2
100
AcDbSymbolTableRecord
100
AcDbLayerTableRecord
  2
78
 70
     0
 62
     7
  6
Continuous
290
     1
370
    -3
390
F
  0
LAYER
  5
77
330
2
100
AcDbSymbolTableRecord
100
AcDbLayerTableRecord
  2
79
 70
     0
 62
     7
  6
Continuous
290
     1
370
    -3
390
F
  0
LAYER
  5
78
330
2
100
AcDbSymbolTableRecord
100
AcDbLayerTableRecord
  2
80
 70
     0
 62
     7
  6
Continuous
290
     1
370
    -3
390
F
  0
LAYER
  5
79
330
2
100
AcDbSymbolTableRecord
100
AcDbLayerTableRecord
  2
81
 70
     0
 62
     7
  6
Continuous
290
     1
370
    -3
390
F
  0
LAYER
  5
7A
330
2
100
AcDbSymbolTableRecord
100
AcDbLayerTableRecord
  2
82
 70
     0
 62
     7
  6
Continuous
290
     1
370
    -3
390
F
  0
LAYER
  5
7B
330
2
100
AcDbSymbolTableRecord
100
AcDbLayerTableRecord
  2
83
 70
     0
 62
     7
  6
Continuous
290
     1
370
    -3
390
F
  0
LAYER
  5
7C
330
2
100
AcDbSymbolTableRecord
100
AcDbLayerTableRecord
  2
84
 70
     0
 62
     7
  6
Continuous
290
     1
370
    -3
390
F
  0
LAYER
  5
7D
330
2
100
AcDbSymbolTableRecord
100
AcDbLayerTableRecord
  2
85
 70
     0
 62
     7
  6
Continuous
290
     1
370
    -3
390
F
  0
LAYER
  5
7E
330
2
100
AcDbSymbolTableRecord
100
AcDbLayerTableRecord
  2
86
 70
     0
 62
     7
  6
Continuous
290
     1
370
    -3
390
F
  0
LAYER
  5
7F
330
2
100
AcDbSymbolTableRecord
100
AcDbLayerTableRecord
  2
87
 70
     0
 62
     7
  6
Continuous
290
     1
370
    -3
390
F
  0
LAYER
  5
80
330
2
100
AcDbSymbolTableRecord
100
AcDbLayerTableRecord
  2
88
 70
     0
 62
     7
  6
Continuous
290
     1
370
    -3
390
F
  0
LAYER
  5
81
330
2
100
AcDbSymbolTableRecord
100
AcDbLayerTableRecord
  2
89
 70
     0
 62
     7
  6
Continuous
290
     1
370
    -3
390
F
  0
LAYER
  5
82
330
2
100
AcDbSymbolTableRecord
100
AcDbLayerTableRecord
  2
90
 70
     0
 62
     7
  6
Continuous
290
     1
370
    -3
390
F
  0
LAYER
  5
83
330
2
100
AcDbSymbolTableRecord
100
AcDbLayerTableRecord
  2
91
 70
     0
 62
     7
  6
Continuous
290
     1
370
    -3
390
F
  0
LAYER
  5
84
330
2
100
AcDbSymbolTableRecord
100
AcDbLayerTableRecord
  2
92
 70
     0
 62
     7
  6
Continuous
290
     1
370
    -3
390
F
  0
LAYER
  5
85
330
2
100
AcDbSymbolTableRecord
100
AcDbLayerTableRecord
  2
93
 70
     0
 62
     7
  6
Continuous
290
     1
370
    -3
390
F
  0
LAYER
  5
86
330
2
100
AcDbSymbolTableRecord
100
AcDbLayerTableRecord
  2
94
 70
     0
 62
     7
  6
Continuous
290
     1
370
    -3
390
F
  0
LAYER
  5
87
330
2
100
AcDbSymbolTableRecord
100
AcDbLayerTableRecord
  2
95
 70
     0
 62
     7
  6
Continuous
290
     1
370
    -3
390
F
  0
LAYER
  5
88
330
2
100
AcDbSymbolTableRecord
100
AcDbLayerTableRecord
  2
96
 70
     0
 62
     7
  6
Continuous
290
     1
370
    -3
390
F
  0
LAYER
  5
89
330
2
100
AcDbSymbolTableRecord
100
AcDbLayerTableRecord
  2
97
 70
     0
 62
     7
  6
Continuous
290
     1
370
    -3
390
F
  0
LAYER
  5
8A
330
2
100
AcDbSymbolTableRecord
100
AcDbLayerTableRecord
  2
98
 70
     0
 62
     7
  6
Continuous
290
     1
370
    -3
390
F
  0
LAYER
  5
8B
330
2
100
AcDbSymbolTableRecord
100
AcDbLayerTableRecord
  2
99
 70
     0
 62
     7
  6
Continuous
290
     1
370
    -3
390
F
  0
LAYER
  5
8C
330
2
100
AcDbSymbolTableRecord
100
AcDbLayerTableRecord
  2
100
 70
     0
 62
     7
  6
Continuous
290
     1
370
    -3
390
F
  0
LAYER
  5
8D
330
2
100
AcDbSymbolTableRecord
100
AcDbLayerTableRecord
  2
101
 70
     0
 62
     7
  6
Continuous
290
     1
370
    -3
390
F
  0
LAYER
  5
8E
330
2
100
AcDbSymbolTableRecord
100
AcDbLayerTableRecord
  2
102
 70
     0
 62
     7
  6
Continuous
290
     1
370
    -3
390
F
  0
LAYER
  5
8F
330
2
100
AcDbSymbolTableRecord
100
AcDbLayerTableRecord
  2
103
 70
     0
 62
     7
  6
Continuous
290
     1
370
    -3
390
F
  0
LAYER
  5
90
330
2
100
AcDbSymbolTableRecord
100
AcDbLayerTableRecord
  2
104
 70
     0
 62
     7
  6
Continuous
290
     1
370
    -3
390
F
  0
LAYER
  5
91
330
2
100
AcDbSymbolTableRecord
100
AcDbLayerTableRecord
  2
105
 70
     0
 62
     7
  6
Continuous
290
     1
370
    -3
390
F
  0
LAYER
  5
92
330
2
100
AcDbSymbolTableRecord
100
AcDbLayerTableRecord
  2
106
 70
     0
 62
     7
  6
Continuous
290
     1
370
    -3
390
F
  0
LAYER
  5
93
330
2
100
AcDbSymbolTableRecord
100
AcDbLayerTableRecord
  2
107
 70
     0
 62
     7
  6
Continuous
290
     1
370
    -3
390
F
  0
LAYER
  5
94
330
2
100
AcDbSymbolTableRecord
100
AcDbLayerTableRecord
  2
108
 70
     0
 62
     7
  6
Continuous
290
     1
370
    -3
390
F
  0
LAYER
  5
95
330
2
100
AcDbSymbolTableRecord
100
AcDbLayerTableRecord
  2
109
 70
     0
 62
     7
  6
Continuous
290
     1
370
    -3
390
F
  0
LAYER
  5
96
330
2
100
AcDbSymbolTableRecord
100
AcDbLayerTableRecord
  2
110
 70
     0
 62
     7
  6
Continuous
290
     1
370
    -3
390
F
  0
LAYER
  5
97
330
2
100
AcDbSymbolTableRecord
100
AcDbLayerTableRecord
  2
111
 70
     0
 62
     7
  6
Continuous
290
     1
370
    -3
390
F
  0
LAYER
  5
98
330
2
100
AcDbSymbolTableRecord
100
AcDbLayerTableRecord
  2
112
 70
     0
 62
     7
  6
Continuous
290
     1
370
    -3
390
F
  0
LAYER
  5
99
330
2
100
AcDbSymbolTableRecord
100
AcDbLayerTableRecord
  2
113
 70
     0
 62
     7
  6
Continuous
290
     1
370
    -3
390
F
  0
LAYER
  5
9A
330
2
100
AcDbSymbolTableRecord
100
AcDbLayerTableRecord
  2
114
 70
     0
 62
     7
  6
Continuous
290
     1
370
    -3
390
F
  0
LAYER
  5
9B
330
2
100
AcDbSymbolTableRecord
100
AcDbLayerTableRecord
  2
115
 70
     0
 62
     7
  6
Continuous
290
     1
370
    -3
390
F
  0
LAYER
  5
9C
330
2
100
AcDbSymbolTableRecord
100
AcDbLayerTableRecord
  2
116
 70
     0
 62
     7
  6
Continuous
290
     1
370
    -3
390
F
  0
LAYER
  5
9D
330
2
100
AcDbSymbolTableRecord
100
AcDbLayerTableRecord
  2
117
 70
     0
 62
     7
  6
Continuous
290
     1
370
    -3
390
F
  0
LAYER
  5
9E
330
2
100
AcDbSymbolTableRecord
100
AcDbLayerTableRecord
  2
118
 70
     0
 62
     7
  6
Continuous
290
     1
370
    -3
390
F
  0
LAYER
  5
9F
330
2
100
AcDbSymbolTableRecord
100
AcDbLayerTableRecord
  2
119
 70
     0
 62
     7
  6
Continuous
290
     1
370
    -3
390
F
  0
LAYER
  5
A0
330
2
100
AcDbSymbolTableRecord
100
AcDbLayerTableRecord
  2
120
 70
     0
 62
     7
  6
Continuous
290
     1
370
    -3
390
F
  0
LAYER
  5
A1
330
2
100
AcDbSymbolTableRecord
100
AcDbLayerTableRecord
  2
121
 70
     0
 62
     7
  6
Continuous
290
     1
370
    -3
390
F
  0
LAYER
  5
A2
330
2
100
AcDbSymbolTableRecord
100
AcDbLayerTableRecord
  2
122
 70
     0
 62
     7
  6
Continuous
290
     1
370
    -3
390
F
  0
LAYER
  5
A3
330
2
100
AcDbSymbolTableRecord
100
AcDbLayerTableRecord
  2
123
 70
     0
 62
     7
  6
Continuous
290
     1
370
    -3
390
F
  0
LAYER
  5
A4
330
2
100
AcDbSymbolTableRecord
100
AcDbLayerTableRecord
  2
124
 70
     0
 62
     7
  6
Continuous
290
     1
370
    -3
390
F
  0
LAYER
  5
A5
330
2
100
AcDbSymbolTableRecord
100
AcDbLayerTableRecord
  2
125
 70
     0
 62
     7
  6
Continuous
290
     1
370
    -3
390
F
  0
LAYER
  5
A6
330
2
100
AcDbSymbolTableRecord
100
AcDbLayerTableRecord
  2
126
 70
     0
 62
     7
  6
Continuous
290
     1
370
    -3
390
F
  0
LAYER
  5
A7
330
2
100
AcDbSymbolTableRecord
100
AcDbLayerTableRecord
  2
127
 70
     0
 62
     7
  6
Continuous
290
     1
370
    -3
390
F
  0
LAYER
  5
A8
330
2
100
AcDbSymbolTableRecord
100
AcDbLayerTableRecord
  2
128
 70
     0
 62
     7
  6
Continuous
290
     1
370
    -3
390
F
  0
ENDTAB
  0
TABLE
  2
STYLE
  5
3
330
0
100
AcDbSymbolTable
 70
    14
  0
STYLE
  5
11
330
3
100
AcDbSymbolTableRecord
100
AcDbTextStyleTableRecord
  2
Standard
 70
     0
 40
0.0
 41
1.0
 50
0.0
 71
     0
 42
2.5
  3
txt.shx
  4
extfont.shx
  0
STYLE
  5
DD
330
3
100
AcDbSymbolTableRecord
100
AcDbTextStyleTableRecord
  2
KANJI0
 70
     0
 40
3.0
 41
0.6
 50
0.0
 71
     0
 42
3.0
  3
txt.shx
  4
extfont.shx
  0
STYLE
  5
1C1
330
3
100
AcDbSymbolTableRecord
100
AcDbTextStyleTableRecord
  2
KANJI1
 70
     0
 40
3.0
 41
0.9
 50
0.0
 71
     0
 42
3.0
  3
txt.shx
  4
extfont.shx
  0
STYLE
  5
23B
330
3
100
AcDbSymbolTableRecord
100
AcDbTextStyleTableRecord
  2
KANJI2
 70
     0
 40
3.78
 41
0.740740741
 50
0.0
 71
     0
 42
3.78
  3
txt.shx
  4
extfont.shx
  0
STYLE
  5
23E
330
3
100
AcDbSymbolTableRecord
100
AcDbTextStyleTableRecord
  2
KANJI3
 70
     0
 40
3.0
 41
0.8
 50
0.0
 71
     0
 42
3.0
  3
txt.shx
  4
extfont.shx
  0
STYLE
  5
241
330
3
100
AcDbSymbolTableRecord
100
AcDbTextStyleTableRecord
  2
KANJI4
 70
     0
 40
3.0
 41
0.9
 50
0.0
 71
     0
 42
3.0
  3
txt.shx
  4
extfont.shx
  0
STYLE
  5
247
330
3
100
AcDbSymbolTableRecord
100
AcDbTextStyleTableRecord
  2
KANJI5
 70
     0
 40
3.0
 41
0.8
 50
0.0
 71
     0
 42
3.0
  3
txt.shx
  4
extfont.shx
  0
STYLE
  5
337
330
3
100
AcDbSymbolTableRecord
100
AcDbTextStyleTableRecord
  2
KANJI6
 70
     0
 40
4.0
 41
0.8
 50
0.0
 71
     0
 42
4.0
  3
txt.shx
  4
extfont.shx
  0
STYLE
  5
345
330
3
100
AcDbSymbolTableRecord
100
AcDbTextStyleTableRecord
  2
KANJI7
 70
     0
 40
2.625
 41
1.0
 50
0.0
 71
     0
 42
2.625
  3
txt.shx
  4
extfont.shx
  0
STYLE
  5
347
330
3
100
AcDbSymbolTableRecord
100
AcDbTextStyleTableRecord
  2
KANJI8
 70
     0
 40
2.625
 41
0.80829828
 50
0.0
 71
     0
 42
2.625
  3
txt.shx
  4
extfont.shx
  0
STYLE
  5
34A
330
3
100
AcDbSymbolTableRecord
100
AcDbTextStyleTableRecord
  2
KANJI9
 70
     0
 40
2.835
 41
0.740740741
 50
0.0
 71
     0
 42
2.835
  3
txt.shx
  4
extfont.shx
  0
STYLE
  5
34D
330
3
100
AcDbSymbolTableRecord
100
AcDbTextStyleTableRecord
  2
KANJI10
 70
     0
 40
2.625
 41
0.900472653
 50
0.0
 71
     0
 42
2.625
  3
txt.shx
  4
extfont.shx
  0
STYLE
  5
351
330
3
100
AcDbSymbolTableRecord
100
AcDbTextStyleTableRecord
  2
KANJI11
 70
     0
 40
2.8125
 41
0.80829828
 50
0.0
 71
     0
 42
2.8125
  3
txt.shx
  4
extfont.shx
  0
STYLE
  5
369
330
3
100
AcDbSymbolTableRecord
100
AcDbTextStyleTableRecord
  2
KANJI12
 70
     0
 40
10.0
 41
1.0
 50
0.0
 71
     0
 42
10.0
  3
txt.shx
  4
extfont.shx
  0
ENDTAB
  0
TABLE
  2
VIEW
  5
6
330
0
100
AcDbSymbolTable
 70
     0
  0
ENDTAB
  0
TABLE
  2
UCS
  5
7
330
0
100
AcDbSymbolTable
 70
     0
  0
ENDTAB
  0
TABLE
  2
APPID
  5
9
330
0
100
AcDbSymbolTable
 70
     1
  0
APPID
  5
12
330
9
100
AcDbSymbolTableRecord
100
AcDbRegAppTableRecord
  2
ACAD
 70
     0
  0
ENDTAB
  0
TABLE
  2
DIMSTYLE
  5
A
330
0
100
AcDbSymbolTable
 70
     1
100
AcDbDimStyleTable
 71
     0
  0
DIMSTYLE
105
27
330
A
100
AcDbSymbolTableRecord
100
AcDbDimStyleTableRecord
  2
ISO-25
 70
    64
  3

  4

 40
1.0
 41
2.5
 42
0.625
 43
3.75
 44
1.25
 45
0.0
 46
0.0
 47
0.0
 48
0.0
 71
     0
 72
     0
 73
     0
 74
     0
 75
     0
 76
     0
 77
     1
 78
     8
 79
     0
140
2.5
141
2.5
142
0.0
143
0.039370079
144
1.0
145
0.0
146
1.0
147
0.625
148
0.0
170
     0
171
     3
172
     1
173
     0
174
     0
175
     0
176
     0
177
     0
178
     0
179
     0
270
     2
271
     2
272
     2
273
     2
274
     3
275
     0
276
     0
277
     2
278
    46
279
     0
280
     0
281
     0
282
     0
283
     1
284
     8
285
     0
286
     0
288
     0
289
     3
340
11
341
0
342
0
343
0
344
0
371
    -2
372
    -2
  0
ENDTAB
  0
TABLE
  2
BLOCK_RECORD
  5
1
330
0
100
AcDbSymbolTable
 70
     3
  0
BLOCK_RECORD
  5
1F
330
1
100
AcDbSymbolTableRecord
100
AcDbBlockTableRecord
  2
*Model_Space
340
22
  0
BLOCK_RECORD
  5
1B
330
1
100
AcDbSymbolTableRecord
100
AcDbBlockTableRecord
  2
*Paper_Space
340
1E
  0
BLOCK_RECORD
  5
23
330
1
100
AcDbSymbolTableRecord
100
AcDbBlockTableRecord
  2
*Paper_Space0
340
26
  0
ENDTAB
  0
ENDSEC
  0
SECTION
  2
BLOCKS
  0
BLOCK
  5
1C
330
1B
100
AcDbEntity
 67
     1
  8
0
100
AcDbBlockBegin
  2
*Paper_Space
 70
     0
 10
0.0
 20
0.0
 30
0.0
  3
*Paper_Space
  1

  0
ENDBLK
  5
1D
330
1B
100
AcDbEntity
  8
0
100
AcDbBlockEnd
  0
BLOCK
  5
20
330
1F
100
AcDbEntity
  8
0
100
AcDbBlockBegin
  2
*Model_Space
 70
     0
 10
0.0
 20
0.0
 30
0.0
  3
*Model_Space
  1

  0
ENDBLK
  5
21
330
1F
100
AcDbEntity
  8
0
100
AcDbBlockEnd
  0
BLOCK
  5
24
330
23
100
AcDbEntity
 67
     1
  8
0
100
AcDbBlockBegin
  2
*Paper_Space0
 70
     0
 10
0.0
 20
0.0
 30
0.0
  3
*Paper_Space0
  1

  0
ENDBLK
  5
25
330
23
100
AcDbEntity
  8
0
100
AcDbBlockEnd
  0
ENDSEC
  0
SECTION
  2
ENTITIES
  0
LINE
  5
A9
330
1F
100
AcDbEntity
  8
0
  6
Continuous
 62
     7
100
AcDbLine
 10
162.554040128
 20
210.239483276
 30
0.0
 11
162.554040128
 21
210.739484289
 31
0.0
  0
LINE
  5
AA
330
1F
100
AcDbEntity
  8
0
  6
Continuous
 62
     7
100
AcDbLine
 10
156.554040076
 20
210.739484289
 30
0.0
 11
156.554040076
 21
210.239483276
 31
0.0
  0
LINE
  5
AB
330
1F
100
AcDbEntity
  8
0
  6
Continuous
 62
     7
100
AcDbLine
 10
162.304040087
 20
210.739484289
 30
0.0
 11
162.304040087
 21
212.17668266
 31
0.0
  0
LINE
  5
AC
330
1F
100
AcDbEntity
  8
0
  6
Continuous
 62
     7
100
AcDbLine
 10
156.804040088
 20
212.17668266
 30
0.0
 11
156.804040088
 21
210.739484289
 31
0.0
  0
ARC
  5
AD
330
1F
100
AcDbEntity
  8
0
  6
Continuous
 62
     7
100
AcDbCircle
 10
159.554040076
 20
205.739484498
 30
0.0
 40
7.0
100
AcDbArc
 50
66.867604176
 51
75.073026239
  0
ARC
  5
AE
330
1F
100
AcDbEntity
  8
0
  6
Continuous
 62
     7
100
AcDbCircle
 10
159.554040076
 20
205.739484498
 30
0.0
 40
7.0
100
AcDbArc
 50
104.934567146
 51
113.132395824
  0
LINE
  5
AF
330
1F
100
AcDbEntity
  8
0
  6
Continuous
 62
     7
100
AcDbLine
 10
156.554040076
 20
210.739484289
 30
0.0
 11
162.554040128
 21
210.739484289
 31
0.0
  0
LINE
  5
B0
330
1F
100
AcDbEntity
  8
0
  6
Continuous
 62
     7
100
AcDbLine
 10
159.554040102
 20
212.17668266
 30
0.0
 11
156.804040088
 21
212.17668266
 31
0.0
  0
LINE
  5
B1
330
1F
100
AcDbEntity
  8
0
  6
Continuous
 62
     7
100
AcDbLine
 10
162.304040087
 20
212.17668266
 30
0.0
 11
159.554040102
 21
212.17668266
 31
0.0
  0
LWPOLYLINE
  5
B3
330
1F
100
AcDbEntity
  8
0
  6
Continuous
 62
     7
100
AcDbPolyline
 90
    71
 70
   128
 43
0.0
 10
159.954040121
 20
212.716588983
 10
159.986444639
 20
212.713397266
 10
160.018847939
 20
212.710199198
 10
160.051248803
 20
212.706988425
 10
160.083646013
 20
212.703758598
 10
160.116038351
 20
212.700503363
 10
160.148424598
 20
212.697216369
 10
160.180803537
 20
212.693891265
 10
160.213173949
 20
212.690521698
 10
160.245534617
 20
212.687101316
 10
160.277884323
 20
212.683623768
 10
160.310221848
 20
212.680082702
 10
160.342545974
 20
212.676471766
 10
160.374855484
 20
212.672784609
 10
160.407149158
 20
212.669014878
 10
160.43942578
 20
212.665156222
 10
160.471684131
 20
212.661202289
 10
160.503922993
 20
212.657146727
 10
160.536141149
 20
212.652983184
 10
160.568337378
 20
212.648705309
 10
160.600510465
 20
212.644306749
 10
160.632659191
 20
212.639781154
 10
160.664782337
 20
212.63512217
 10
160.696878686
 20
212.630323447
 10
160.72894702
 20
212.625378633
 10
160.76098612
 20
212.620281375
 10
160.792994769
 20
212.615025322
 10
160.824971748
 20
212.609604122
 10
160.85691584
 20
212.604011424
 10
160.888825825
 20
212.598240875
 10
160.920700487
 20
212.592286123
 10
160.952538608
 20
212.586140818
 10
160.984338968
 20
212.579798606
 10
161.016100351
 20
212.573253137
 10
161.047821537
 20
212.566498059
 10
161.07950131
 20
212.559527019
 10
161.087374734
 20
212.557758854
 10
161.095245597
 20
212.555977328
 10
161.103113972
 20
212.554182834
 10
161.110979936
 20
212.552375763
 10
161.118843564
 20
212.55055651
 10
161.12670493
 20
212.548725467
 10
161.134564111
 20
212.546883027
 10
161.142421182
 20
212.545029584
 10
161.150276219
 20
212.54316553
 10
161.158129295
 20
212.541291258
 10
161.165980488
 20
212.539407161
 10
161.173829872
 20
212.537513632
 10
161.181677523
 20
212.535611065
 10
161.189523516
 20
212.533699851
 10
161.197367926
 20
212.531780385
 10
161.205210829
 20
212.529853059
 10
161.2130523
 20
212.527918267
 10
161.220892414
 20
212.5259764
 10
161.228731247
 20
212.524027852
 10
161.236568875
 20
212.522073017
 10
161.244405372
 20
212.520112287
 10
161.252240814
 20
212.518146055
 10
161.260075276
 20
212.516174714
 10
161.267908834
 20
212.514198657
 10
161.275741563
 20
212.512218277
 10
161.283573538
 20
212.510233967
 10
161.291404835
 20
212.508246121
 10
161.29923553
 20
212.50625513
 10
161.307065696
 20
212.504261388
 10
161.314895411
 20
212.502265289
 10
161.322724748
 20
212.500267225
 10
161.330553784
 20
212.498267588
 10
161.338382595
 20
212.496266773
 10
161.346211254
 20
212.494265171
 10
161.354039838
 20
212.492263177
  0
LINE
  5
B4
330
1F
100
AcDbEntity
  8
0
  6
Continuous
 62
     7
100
AcDbLine
 10
157.754040133
 20
212.492263177
 30
0.0
 11
159.154040083
 21
212.716588983
 31
0.0
  0
LWPOLYLINE
  5
B6
330
1F
100
AcDbEntity
  8
0
  6
Continuous
 62
     7
100
AcDbPolyline
 90
    71
 70
   128
 43
0.0
 10
159.154040083
 20
212.716588983
 10
159.154040083
 20
212.713397262
 10
159.154040083
 20
212.71019919
 10
159.154040083
 20
212.706988413
 10
159.154040083
 20
212.703758582
 10
159.154040083
 20
212.700503343
 10
159.154040083
 20
212.697216346
 10
159.154040083
 20
212.693891238
 10
159.154040083
 20
212.690521667
 10
159.154040083
 20
212.687101282
 10
159.154040083
 20
212.683623731
 10
159.154040083
 20
212.680082662
 10
159.154040083
 20
212.676471724
 10
159.154040083
 20
212.672784564
 10
159.154040083
 20
212.669014831
 10
159.154040083
 20
212.665156173
 10
159.154040083
 20
212.661202238
 10
159.154040083
 20
212.657146674
 10
159.154040083
 20
212.652983131
 10
159.154040083
 20
212.648705255
 10
159.154040083
 20
212.644306695
 10
159.154040083
 20
212.6397811
 10
159.154040083
 20
212.635122117
 10
159.154040083
 20
212.630323395
 10
159.154040083
 20
212.625378582
 10
159.154040083
 20
212.620281326
 10
159.154040083
 20
212.615025275
 10
159.154040083
 20
212.609604078
 10
159.154040083
 20
212.604011383
 10
159.154040083
 20
212.598240838
 10
159.154040083
 20
212.592286091
 10
159.154040083
 20
212.586140791
 10
159.154040083
 20
212.579798585
 10
159.154040083
 20
212.573253122
 10
159.154040083
 20
212.566498051
 10
159.154040083
 20
212.559527019
 10
159.154040083
 20
212.557758854
 10
159.154040083
 20
212.555977328
 10
159.154040083
 20
212.554182833
 10
159.154040083
 20
212.552375763
 10
159.154040083
 20
212.55055651
 10
159.154040083
 20
212.548725467
 10
159.154040083
 20
212.546883027
 10
159.154040083
 20
212.545029583
 10
159.154040083
 20
212.543165529
 10
159.154040083
 20
212.541291257
 10
159.154040083
 20
212.53940716
 10
159.154040083
 20
212.537513631
 10
159.154040083
 20
212.535611064
 10
159.154040083
 20
212.533699851
 10
159.154040083
 20
212.531780385
 10
159.154040083
 20
212.529853059
 10
159.154040083
 20
212.527918266
 10
159.154040083
 20
212.525976399
 10
159.154040083
 20
212.524027852
 10
159.154040083
 20
212.522073016
 10
159.154040083
 20
212.520112286
 10
159.154040083
 20
212.518146054
 10
159.154040083
 20
212.516174713
 10
159.154040083
 20
212.514198656
 10
159.154040083
 20
212.512218276
 10
159.154040083
 20
212.510233967
 10
159.154040083
 20
212.50824612
 10
159.154040083
 20
212.50625513
 10
159.154040083
 20
212.504261388
 10
159.154040083
 20
212.502265289
 10
159.154040083
 20
212.500267224
 10
159.154040083
 20
212.498267588
 10
159.154040083
 20
212.496266773
 10
159.154040083
 20
212.494265171
 10
159.154040083
 20
212.492263177
  0
LWPOLYLINE
  5
B8
330
1F
100
AcDbEntity
  8
0
  6
Continuous
 62
     7
100
AcDbPolyline
 90
    71
 70
   128
 43
0.0
 10
159.154040083
 20
212.492263177
 10
159.165468655
 20
212.492770264
 10
159.176897227
 20
212.493276523
 10
159.188325799
 20
212.493781125
 10
159.199754371
 20
212.494283243
 10
159.211182943
 20
212.494782049
 10
159.222611515
 20
212.495276714
 10
159.234040087
 20
212.49576641
 10
159.245468658
 20
212.49625031
 10
159.25689723
 20
212.496727584
 10
159.268325802
 20
212.497197405
 10
159.279754374
 20
212.497658946
 10
159.291182946
 20
212.498111376
 10
159.302611518
 20
212.49855387
 10
159.31404009
 20
212.498985597
 10
159.325468662
 20
212.499405731
 10
159.336897234
 20
212.499813444
 10
159.348325806
 20
212.500207906
 10
159.359754378
 20
212.50058829
 10
159.37118295
 20
212.500953768
 10
159.382611522
 20
212.501303512
 10
159.394040094
 20
212.501636693
 10
159.405468666
 20
212.501952483
 10
159.416897238
 20
212.502250055
 10
159.42832581
 20
212.50252858
 10
159.439754382
 20
212.502787231
 10
159.451182954
 20
212.503025178
 10
159.462611526
 20
212.503241594
 10
159.474040098
 20
212.50343565
 10
159.48546867
 20
212.50360652
 10
159.496897242
 20
212.503753373
 10
159.508325814
 20
212.503875383
 10
159.519754386
 20
212.503971722
 10
159.531182958
 20
212.50404156
 10
159.54261153
 20
212.50408407
 10
159.554040102
 20
212.504098424
 10
159.565468674
 20
212.50408407
 10
159.576897246
 20
212.50404156
 10
159.588325818
 20
212.503971722
 10
159.59975439
 20
212.503875383
 10
159.611182962
 20
212.503753373
 10
159.622611534
 20
212.50360652
 10
159.634040106
 20
212.50343565
 10
159.645468677
 20
212.503241594
 10
159.656897249
 20
212.503025178
 10
159.668325821
 20
212.502787231
 10
159.679754393
 20
212.50252858
 10
159.691182965
 20
212.502250055
 10
159.702611537
 20
212.501952483
 10
159.714040109
 20
212.501636693
 10
159.725468681
 20
212.501303512
 10
159.736897253
 20
212.500953768
 10
159.748325825
 20
212.50058829
 10
159.759754397
 20
212.500207906
 10
159.771182969
 20
212.499813444
 10
159.782611541
 20
212.499405731
 10
159.794040113
 20
212.498985597
 10
159.805468685
 20
212.49855387
 10
159.816897257
 20
212.498111376
 10
159.828325829
 20
212.497658946
 10
159.839754401
 20
212.497197405
 10
159.851182973
 20
212.496727584
 10
159.862611545
 20
212.49625031
 10
159.874040117
 20
212.49576641
 10
159.885468689
 20
212.495276714
 10
159.896897261
 20
212.494782049
 10
159.908325833
 20
212.494283243
 10
159.919754405
 20
212.493781125
 10
159.931182977
 20
212.493276523
 10
159.942611549
 20
212.492770264
 10
159.954040121
 20
212.492263177
  0
LINE
  5
B9
330
1F
100
AcDbEntity
  8
0
  6
Continuous
 62
     7
100
AcDbLine
 10
159.954040121
 20
212.492263177
 30
0.0
 11
159.954040121
 21
212.716588983
 31
0.0
  0
LINE
  5
BA
330
1F
100
AcDbEntity
  8
0
  6
Continuous
 62
     7
100
AcDbLine
 10
159.954040121
 20
212.716588983
 30
0.0
 11
159.954040121
 21
212.492263177
 31
0.0
  0
LINE
  5
BB
330
1F
100
AcDbEntity
  8
0
  6
Continuous
 62
     7
100
AcDbLine
 10
156.054040052
 20
210.239483276
 30
0.0
 11
178.054040806
 21
210.239483276
 31
0.0
  0
LINE
  5
BC
330
1F
100
AcDbEntity
  8
0
  6
Continuous
 62
     7
100
AcDbLine
 10
156.054040052
 20
209.039485314
 30
0.0
 11
178.054040806
 21
209.039485314
 31
0.0
  0
LINE
  5
BD
330
1F
100
AcDbEntity
  8
0
  6
Continuous
 62
     7
100
AcDbLine
 10
156.054040052
 20
210.239483276
 30
0.0
 11
156.054040052
 21
209.039485314
 31
0.0
  0
LINE
  5
BE
330
1F
100
AcDbEntity
  8
0
  6
Continuous
 62
     7
100
AcDbLine
 10
178.054040806
 20
209.039485314
 30
0.0
 11
178.054040806
 21
210.239483276
 31
0.0
  0
LINE
  5
BF
330
1F
100
AcDbEntity
  8
0
  6
Continuous
 62
     7
100
AcDbLine
 10
167.054039934
 20
211.681703338
 30
0.0
 11
170.440025204
 21
211.681703338
 31
0.0
  0
LINE
  5
C0
330
1F
100
AcDbEntity
  8
0
  6
Continuous
 62
     7
100
AcDbLine
 10
170.223692009
 20
210.239483276
 30
0.0
 11
170.440025204
 21
211.681703338
 31
0.0
  0
LINE
  5
C1
330
1F
100
AcDbEntity
  8
0
  6
Continuous
 62
     7
100
AcDbLine
 10
167.054039934
 20
211.681703338
 30
0.0
 11
167.054039934
 21
210.239483276
 31
0.0
  0
LINE
  5
C2
330
1F
100
AcDbEntity
  8
0
  6
Continuous
 62
     7
100
AcDbLine
 10
170.440025204
 20
210.239483276
 30
0.0
 11
170.440025204
 21
211.681703338
 31
0.0
  0
LINE
  5
C3
330
1F
100
AcDbEntity
  8
0
  6
Continuous
 62
     7
100
AcDbLine
 10
178.054040806
 20
223.039483884
 30
0.0
 11
156.054040052
 21
223.039483884
 31
0.0
  0
LINE
  5
C4
330
1F
100
AcDbEntity
  8
0
  6
Continuous
 62
     7
100
AcDbLine
 10
164.054039908
 20
215.339483926
 30
0.0
 11
161.054039882
 21
215.339483926
 31
0.0
  0
ARC
  5
C5
330
1F
100
AcDbEntity
  8
0
  6
Continuous
 62
     7
100
AcDbCircle
 10
164.054040076
 20
217.039484498
 30
0.0
 40
1.7
100
AcDbArc
 50
270.000000011
 51
89.999999994
  0
LINE
  5
C6
330
1F
100
AcDbEntity
  8
0
  6
Continuous
 62
     7
100
AcDbLine
 10
161.054039882
 20
218.739485601
 30
0.0
 11
164.054039908
 21
218.739485601
 31
0.0
  0
ARC
  5
C7
330
1F
100
AcDbEntity
  8
0
  6
Continuous
 62
     7
100
AcDbCircle
 10
161.054040076
 20
217.039484498
 30
0.0
 40
1.7
100
AcDbArc
 50
90.0
 51
270.000000011
  0
ARC
  5
C8
330
1F
100
AcDbEntity
  8
0
  6
Continuous
 62
     7
100
AcDbCircle
 10
173.054040076
 20
215.577052377
 30
0.0
 40
1.7
100
AcDbArc
 50
172.999999989
 51
353.000000006
  0
ARC
  5
C9
330
1F
100
AcDbEntity
  8
0
  6
Continuous
 62
     7
100
AcDbCircle
 10
161.143486256
 20
217.039484498
 30
0.0
 40
13.7
100
AcDbArc
 50
353.0
 51
6.999999999
  0
ARC
  5
CA
330
1F
100
AcDbEntity
  8
0
  6
Continuous
 62
     7
100
AcDbCircle
 10
173.054040076
 20
218.501916619
 30
0.0
 40
1.7
100
AcDbArc
 50
6.999999987
 51
186.999999987
  0
ARC
  5
CB
330
1F
100
AcDbEntity
  8
0
  6
Continuous
 62
     7
100
AcDbCircle
 10
161.143486256
 20
217.039484498
 30
0.0
 40
10.3
100
AcDbArc
 50
353.000000001
 51
7.000000003
  0
LINE
  5
CC
330
1F
100
AcDbEntity
  8
0
  6
Continuous
 62
     7
100
AcDbLine
 10
156.054040052
 20
223.039483884
 30
0.0
 11
156.054040052
 21
210.239483276
 31
0.0
  0
LINE
  5
CD
330
1F
100
AcDbEntity
  8
0
  6
Continuous
 62
     7
100
AcDbLine
 10
178.054040806
 20
210.239483276
 30
0.0
 11
178.054040806
 21
223.039483884
 31
0.0
  0
LINE
  5
CE
330
1F
100
AcDbEntity
  8
0
  6
Continuous
 62
     7
100
AcDbLine
 10
156.554040076
 20
197.839483851
 30
0.0
 11
176.554039629
 21
197.839483851
 31
0.0
  0
LINE
  5
CF
330
1F
100
AcDbEntity
  8
0
  6
Continuous
 62
     7
100
AcDbLine
 10
156.554040076
 20
197.839483851
 30
0.0
 11
156.554040076
 21
209.039485314
 31
0.0
  0
LINE
  5
D0
330
1F
100
AcDbEntity
  8
0
  6
Continuous
 62
     7
100
AcDbLine
 10
176.554039629
 20
197.839483851
 30
0.0
 11
176.554039629
 21
209.039485314
 31
0.0
  0
ARC
  5
D1
330
1F
100
AcDbEntity
  8
0
  6
Continuous
 62
     7
100
AcDbCircle
 10
172.220350847
 20
203.439484583
 30
0.0
 40
4.440709107
100
AcDbArc
 50
347.395643331
 51
12.604356669
  0
LINE
  5
D3
330
1F
100
AcDbEntity
  8
0
  6
LTYPE1
 62
     3
100
AcDbLine
 10
157.354040076
 20
217.039484498
 30
0.0
 11
164.754040076
 21
217.039484498
 31
0.0
  0
LINE
  5
D4
330
1F
100
AcDbEntity
  8
0
  6
LTYPE1
 62
     3
100
AcDbLine
 10
161.054040076
 20
213.339484498
 30
0.0
 11
161.054040076
 21
220.739484498
 31
0.0
  0
LINE
  5
D5
330
1F
100
AcDbEntity
  8
0
  6
LTYPE1
 62
     3
100
AcDbLine
 10
164.054040076
 20
213.339484498
 30
0.0
 11
164.054040076
 21
220.739484498
 31
0.0
  0
LINE
  5
D6
330
1F
100
AcDbEntity
  8
0
  6
Continuous
 62
     3
100
AcDbLine
 10
141.354040076
 20
223.039483884
 30
0.0
 11
140.706992463
 21
220.624669318
 31
0.0
  0
LINE
  5
D7
330
1F
100
AcDbEntity
  8
0
  6
Continuous
 62
     3
100
AcDbLine
 10
141.354040076
 20
223.039483884
 30
0.0
 11
142.001087688
 21
220.624669318
 31
0.0
  0
LWPOLYLINE
  5
D9
330
1F
100
AcDbEntity
  8
0
  6
Continuous
 62
     3
100
AcDbPolyline
 90
     3
 70
   128
 43
0.0
 10
141.354040076
 20
223.039483884
 10
141.354040076
 20
197.839483851
 10
142.001087688
 20
200.254298417
  0
LINE
  5
DA
330
1F
100
AcDbEntity
  8
0
  6
Continuous
 62
     3
100
AcDbLine
 10
141.354040076
 20
197.839483851
 30
0.0
 11
140.706992463
 21
200.254298417
 31
0.0
  0
LINE
  5
DB
330
1F
100
AcDbEntity
  8
0
  6
Continuous
 62
     3
100
AcDbLine
 10
155.554040076
 20
197.839483851
 30
0.0
 11
139.354040076
 21
197.839483851
 31
0.0
  0
MTEXT
  5
DC
330
1F
100
AcDbEntity
  8
0
  6
Continuous
 62
     3
100
AcDbMText
 10
140.354040076
 20
206.389483868
 30
0.0
 40
3.0
 41
16.2
 71
     7
 72
     1
  1
\T1.167;\W0.600;２５．２
  7
KANJI0
 11
0.0
 21
1.0
 31
0.0
 73
     1
 44
1.0
  0
LINE
  5
DE
330
1F
100
AcDbEntity
  8
0
  6
Continuous
 62
     3
100
AcDbLine
 10
146.854040076
 20
203.439484498
 30
0.0
 11
146.206992463
 21
205.854299064
 31
0.0
  0
LINE
  5
DF
330
1F
100
AcDbEntity
  8
0
  6
Continuous
 62
     3
100
AcDbLine
 10
154.154040076
 20
203.439484498
 30
0.0
 11
144.854040076
 21
203.439484498
 31
0.0
  0
MTEXT
  5
E0
330
1F
100
AcDbEntity
  8
0
  6
Continuous
 62
     3
100
AcDbMText
 10
145.854040076
 20
206.189484498
 30
0.0
 40
3.0
 41
16.2
 71
     7
 72
     1
  1
\T1.167;\W0.600;１３．６
  7
KANJI0
 11
0.0
 21
1.0
 31
0.0
 73
     1
 44
1.0
  0
MTEXT
  5
E1
330
1F
100
AcDbEntity
  8
0
  6
Continuous
 62
     3
100
AcDbMText
 10
145.854040076
 20
219.139484191
 30
0.0
 40
3.0
 41
3.6
 71
     7
 72
     1
  1
\T1.167;\W0.600;６
  7
KANJI0
 11
0.0
 21
1.0
 31
0.0
 73
     1
 44
1.0
  0
LINE
  5
E2
330
1F
100
AcDbEntity
  8
0
  6
Continuous
 62
     3
100
AcDbLine
 10
153.154039882
 20
218.739485601
 30
0.0
 11
153.801087495
 21
221.154300166
 31
0.0
  0
LINE
  5
E3
330
1F
100
AcDbEntity
  8
0
  6
Continuous
 62
     3
100
AcDbLine
 10
153.154039882
 20
218.739485601
 30
0.0
 11
152.506992269
 21
221.154300166
 31
0.0
  0
LWPOLYLINE
  5
E5
330
1F
100
AcDbEntity
  8
0
  6
Continuous
 62
     3
100
AcDbPolyline
 90
     4
 70
   128
 43
0.0
 10
153.154039882
 20
222.489485601
 10
153.154039882
 20
218.739485601
 10
153.154039882
 20
215.339483926
 10
153.154039882
 20
205.589483926
  0
LINE
  5
E6
330
1F
100
AcDbEntity
  8
0
  6
Continuous
 62
     3
100
AcDbLine
 10
153.154039882
 20
215.339483926
 30
0.0
 11
152.506992269
 21
212.92466936
 31
0.0
  0
LINE
  5
E7
330
1F
100
AcDbEntity
  8
0
  6
Continuous
 62
     3
100
AcDbLine
 10
153.154039882
 20
215.339483926
 30
0.0
 11
153.801087495
 21
212.92466936
 31
0.0
  0
LINE
  5
E8
330
1F
100
AcDbEntity
  8
0
  6
Continuous
 62
     3
100
AcDbLine
 10
155.054040052
 20
223.039483884
 30
0.0
 11
139.354040076
 21
223.039483884
 31
0.0
  0
LINE
  5
E9
330
1F
100
AcDbEntity
  8
0
  6
Continuous
 62
     3
100
AcDbLine
 10
156.354040076
 20
217.039484498
 30
0.0
 11
144.854040076
 21
217.039484498
 31
0.0
  0
LINE
  5
EA
330
1F
100
AcDbEntity
  8
0
  6
Continuous
 62
     3
100
AcDbLine
 10
146.854040076
 20
217.039484498
 30
0.0
 11
146.206992463
 21
214.624669932
 31
0.0
  0
LINE
  5
EB
330
1F
100
AcDbEntity
  8
0
  6
Continuous
 62
     3
100
AcDbLine
 10
146.854040076
 20
217.039484498
 30
0.0
 11
147.501087688
 21
214.624669932
 31
0.0
  0
LWPOLYLINE
  5
ED
330
1F
100
AcDbEntity
  8
0
  6
Continuous
 62
     3
100
AcDbPolyline
 90
     3
 70
   128
 43
0.0
 10
146.854040076
 20
217.039484498
 10
146.854040076
 20
203.439484498
 10
147.501087688
 20
205.854299064
  0
LINE
  5
EE
330
1F
100
AcDbEntity
  8
0
  6
Continuous
 62
     3
100
AcDbLine
 10
156.354040076
 20
217.039484498
 30
0.0
 11
144.854040076
 21
217.039484498
 31
0.0
  0
LINE
  5
EF
330
1F
100
AcDbEntity
  8
0
  6
Continuous
 62
     3
100
AcDbLine
 10
146.854040076
 20
217.039484498
 30
0.0
 11
147.501087688
 21
219.454299064
 31
0.0
  0
LINE
  5
F0
330
1F
100
AcDbEntity
  8
0
  6
Continuous
 62
     3
100
AcDbLine
 10
146.854040076
 20
217.039484498
 30
0.0
 11
146.206992463
 21
219.454299064
 31
0.0
  0
LWPOLYLINE
  5
F2
330
1F
100
AcDbEntity
  8
0
  6
Continuous
 62
     3
100
AcDbPolyline
 90
     3
 70
   128
 43
0.0
 10
146.854040076
 20
217.039484498
 10
146.854040076
 20
223.039483884
 10
146.206992463
 20
220.624669318
  0
LINE
  5
F3
330
1F
100
AcDbEntity
  8
0
  6
Continuous
 62
     3
100
AcDbLine
 10
146.854040076
 20
223.039483884
 30
0.0
 11
147.501087688
 21
220.624669318
 31
0.0
  0
LINE
  5
F4
330
1F
100
AcDbEntity
  8
0
  6
Continuous
 62
     3
100
AcDbLine
 10
155.054040052
 20
223.039483884
 30
0.0
 11
144.854040076
 21
223.039483884
 31
0.0
  0
LINE
  5
F5
330
1F
100
AcDbEntity
  8
0
  6
Continuous
 62
     3
100
AcDbLine
 10
160.054039882
 20
218.739485601
 30
0.0
 11
151.154039882
 21
218.739485601
 31
0.0
  0
LINE
  5
F6
330
1F
100
AcDbEntity
  8
0
  6
Continuous
 62
     3
100
AcDbLine
 10
160.054039882
 20
215.339483926
 30
0.0
 11
151.154039882
 21
215.339483926
 31
0.0
  0
MTEXT
  5
F7
330
1F
100
AcDbEntity
  8
0
  6
Continuous
 62
     3
100
AcDbMText
 10
152.154039882
 20
205.589483926
 30
0.0
 40
3.0
 41
12.0
 71
     7
 72
     1
  1
\T1.167;\W0.600;３．４
  7
KANJI0
 11
0.0
 21
1.0
 31
0.0
 73
     1
 44
1.0
  0
LINE
  5
F8
330
1F
100
AcDbEntity
  8
0
  6
Continuous
 62
     3
100
AcDbLine
 10
161.054040076
 20
221.739484498
 30
0.0
 11
161.054040076
 21
228.039484498
 31
0.0
  0
LINE
  5
F9
330
1F
100
AcDbEntity
  8
0
  6
Continuous
 62
     3
100
AcDbLine
 10
161.054040076
 20
226.039484498
 30
0.0
 11
158.63922551
 21
226.686532111
 31
0.0
  0
LINE
  5
FA
330
1F
100
AcDbEntity
  8
0
  6
Continuous
 62
     3
100
AcDbLine
 10
161.054040076
 20
226.039484498
 30
0.0
 11
158.63922551
 21
225.392436885
 31
0.0
  0
LWPOLYLINE
  5
FC
330
1F
100
AcDbEntity
  8
0
  6
Continuous
 62
     3
100
AcDbPolyline
 90
     4
 70
   128
 43
0.0
 10
157.304040076
 20
226.039484498
 10
161.054040076
 20
226.039484498
 10
164.054040076
 20
226.039484498
 10
169.604040076
 20
226.039484498
  0
LINE
  5
FD
330
1F
100
AcDbEntity
  8
0
  6
Continuous
 62
     3
100
AcDbLine
 10
164.054040076
 20
226.039484498
 30
0.0
 11
166.468854641
 21
225.392436885
 31
0.0
  0
LINE
  5
FE
330
1F
100
AcDbEntity
  8
0
  6
Continuous
 62
     3
100
AcDbLine
 10
164.054040076
 20
226.039484498
 30
0.0
 11
166.468854641
 21
226.686532111
 31
0.0
  0
LINE
  5
FF
330
1F
100
AcDbEntity
  8
0
  6
Continuous
 62
     3
100
AcDbLine
 10
164.054040076
 20
221.739484498
 30
0.0
 11
164.054040076
 21
228.039484498
 31
0.0
  0
MTEXT
  5
100
330
1F
100
AcDbEntity
  8
0
  6
Continuous
 62
     3
100
AcDbMText
 10
167.804040076
 20
227.039484498
 30
0.0
 40
3.0
 41
3.6
 71
     7
 72
     1
  1
\T1.167;\W0.600;３
  7
KANJI0
 73
     1
 44
1.0
  0
LINE
  5
101
330
1F
100
AcDbEntity
  8
0
  6
Continuous
 62
     3
100
AcDbLine
 10
161.054040076
 20
221.739484498
 30
0.0
 11
161.054040076
 21
233.639483884
 31
0.0
  0
LINE
  5
102
330
1F
100
AcDbEntity
  8
0
  6
Continuous
 62
     3
100
AcDbLine
 10
161.054040076
 20
231.639483884
 30
0.0
 11
158.63922551
 21
232.286531497
 31
0.0
  0
LINE
  5
103
330
1F
100
AcDbEntity
  8
0
  6
Continuous
 62
     3
100
AcDbLine
 10
161.054040076
 20
231.639483884
 30
0.0
 11
158.63922551
 21
230.992436271
 31
0.0
  0
LWPOLYLINE
  5
105
330
1F
100
AcDbEntity
  8
0
  6
Continuous
 62
     3
100
AcDbPolyline
 90
     3
 70
   128
 43
0.0
 10
161.054040076
 20
231.639483884
 10
156.054040052
 20
231.639483884
 10
158.468854618
 20
230.992436271
  0
LINE
  5
106
330
1F
100
AcDbEntity
  8
0
  6
Continuous
 62
     3
100
AcDbLine
 10
156.054040052
 20
231.639483884
 30
0.0
 11
158.468854618
 21
232.286531497
 31
0.0
  0
LINE
  5
107
330
1F
100
AcDbEntity
  8
0
  6
Continuous
 62
     3
100
AcDbLine
 10
156.054040052
 20
224.039483884
 30
0.0
 11
156.054040052
 21
233.639483884
 31
0.0
  0
MTEXT
  5
108
330
1F
100
AcDbEntity
  8
0
  6
Continuous
 62
     3
100
AcDbMText
 10
157.654040064
 20
232.639483884
 30
0.0
 40
3.0
 41
3.6
 71
     7
 72
     1
  1
\T1.167;\W0.600;５
  7
KANJI0
 73
     1
 44
1.0
  0
LINE
  5
109
330
1F
100
AcDbEntity
  8
0
  6
Continuous
 62
     3
100
AcDbLine
 10
161.054040076
 20
221.739484498
 30
0.0
 11
161.054040076
 21
233.639483884
 31
0.0
  0
LINE
  5
10A
330
1F
100
AcDbEntity
  8
0
  6
Continuous
 62
     3
100
AcDbLine
 10
161.054040076
 20
231.639483884
 30
0.0
 11
163.468854641
 21
230.992436271
 31
0.0
  0
LINE
  5
10B
330
1F
100
AcDbEntity
  8
0
  6
Continuous
 62
     3
100
AcDbLine
 10
161.054040076
 20
231.639483884
 30
0.0
 11
163.468854641
 21
232.286531497
 31
0.0
  0
LWPOLYLINE
  5
10D
330
1F
100
AcDbEntity
  8
0
  6
Continuous
 62
     3
100
AcDbPolyline
 90
     3
 70
   128
 43
0.0
 10
161.054040076
 20
231.639483884
 10
173.054040076
 20
231.639483884
 10
170.63922551
 20
232.286531497
  0
LINE
  5
10E
330
1F
100
AcDbEntity
  8
0
  6
Continuous
 62
     3
100
AcDbLine
 10
173.054040076
 20
231.639483884
 30
0.0
 11
170.63922551
 21
230.992436271
 31
0.0
  0
LINE
  5
10F
330
1F
100
AcDbEntity
  8
0
  6
Continuous
 62
     3
100
AcDbLine
 10
173.054040076
 20
223.201916619
 30
0.0
 11
173.054040076
 21
233.639483884
 31
0.0
  0
MTEXT
  5
110
330
1F
100
AcDbEntity
  8
0
  6
Continuous
 62
     3
100
AcDbMText
 10
165.104040076
 20
232.639483884
 30
0.0
 40
3.0
 41
7.8
 71
     7
 72
     1
  1
\T1.167;\W0.600;１２
  7
KANJI0
 73
     1
 44
1.0
  0
LINE
  5
111
330
1F
100
AcDbEntity
  8
0
  6
Continuous
 62
     3
100
AcDbLine
 10
178.054040806
 20
224.039483884
 30
0.0
 11
178.054040806
 21
239.639483884
 31
0.0
  0
LINE
  5
112
330
1F
100
AcDbEntity
  8
0
  6
Continuous
 62
     3
100
AcDbLine
 10
178.054040806
 20
237.639483884
 30
0.0
 11
175.63922624
 21
238.286531497
 31
0.0
  0
LINE
  5
113
330
1F
100
AcDbEntity
  8
0
  6
Continuous
 62
     3
100
AcDbLine
 10
178.054040806
 20
237.639483884
 30
0.0
 11
175.63922624
 21
236.992436271
 31
0.0
  0
LWPOLYLINE
  5
115
330
1F
100
AcDbEntity
  8
0
  6
Continuous
 62
     3
100
AcDbPolyline
 90
     3
 70
   128
 43
0.0
 10
178.054040806
 20
237.639483884
 10
156.054040052
 20
237.639483884
 10
158.468854618
 20
236.992436271
  0
LINE
  5
116
330
1F
100
AcDbEntity
  8
0
  6
Continuous
 62
     3
100
AcDbLine
 10
156.054040052
 20
237.639483884
 30
0.0
 11
158.468854618
 21
238.286531497
 31
0.0
  0
LINE
  5
117
330
1F
100
AcDbEntity
  8
0
  6
Continuous
 62
     3
100
AcDbLine
 10
156.054040052
 20
224.039483884
 30
0.0
 11
156.054040052
 21
239.639483884
 31
0.0
  0
MTEXT
  5
118
330
1F
100
AcDbEntity
  8
0
  6
Continuous
 62
     3
100
AcDbMText
 10
165.104040429
 20
238.639483884
 30
0.0
 40
3.0
 41
7.8
 71
     7
 72
     1
  1
\T1.167;\W0.600;２２
  7
KANJI0
 73
     1
 44
1.0
  0
LINE
  5
119
330
1F
100
AcDbEntity
  8
0
  6
LTYPE1
 62
     3
100
AcDbLine
 10
169.381619314
 20
218.051000048
 30
0.0
 11
176.726460837
 21
218.952833189
 31
0.0
  0
LINE
  5
11A
330
1F
100
AcDbEntity
  8
0
  6
LTYPE1
 62
     3
100
AcDbLine
 10
169.381619315
 20
216.027968947
 30
0.0
 11
176.726460837
 21
215.126135806
 31
0.0
  0
ARC
  5
11B
330
1F
100
AcDbEntity
  8
0
  6
LTYPE1
 62
     3
100
AcDbCircle
 10
161.143486256
 20
217.039484498
 30
0.0
 40
12.119818481
100
AcDbArc
 50
337.275425383
 51
22.722472391
  0
LINE
  5
11C
330
1F
100
AcDbEntity
  8
0
  6
Continuous
 62
     3
100
AcDbLine
 10
177.719006988
 20
219.074702533
 30
0.0
 11
193.782087567
 21
221.047000828
 31
0.0
  0
LINE
  5
11D
330
1F
100
AcDbEntity
  8
0
  6
Continuous
 62
     3
100
AcDbLine
 10
191.796995263
 20
213.275706854
 30
0.0
 11
191.449062511
 21
215.751377026
 31
0.0
  0
LINE
  5
11E
330
1F
100
AcDbEntity
  8
0
  6
Continuous
 62
     3
100
AcDbLine
 10
191.796995263
 20
213.275706854
 30
0.0
 11
192.733511747
 21
215.59366649
 31
0.0
  0
LWPOLYLINE
  5
120
330
1F
100
AcDbEntity
  8
0
  6
Continuous
 62
     3
100
AcDbPolyline
 90
     3
 70
   128
 43
0.0
 10
191.796995263
 20
213.275706854
 42
0.06116262
 10
191.796995263
 20
220.803262142
 42
0.0
 10
191.449062511
 20
218.32759197
 42
0.0
  0
LINE
  5
121
330
1F
100
AcDbEntity
  8
0
  6
Continuous
 62
     3
100
AcDbLine
 10
191.796995263
 20
220.803262142
 30
0.0
 11
192.733511747
 21
218.485302505
 31
0.0
  0
LINE
  5
122
330
1F
100
AcDbEntity
  8
0
  6
Continuous
 62
     3
100
AcDbLine
 10
177.719006988
 20
215.004266463
 30
0.0
 11
193.782087567
 21
213.031968167
 31
0.0
  0
MTEXT
  5
123
330
1F
100
AcDbEntity
  8
0
  6
Continuous
 62
     3
100
AcDbMText
 10
190.581144537
 20
214.639484498
 30
0.0
 40
3.0
 41
12.0
 71
     7
 72
     1
  1
\T1.167;\W0.600;１４゜
  7
KANJI0
 11
0.0
 21
1.0
 31
0.0
 73
     1
 44
1.0
  0
LINE
  5
124
330
1F
100
AcDbEntity
  8
0
  6
Continuous
 62
     7
100
AcDbLine
 10
169.004040347
 20
204.497786006
 30
0.0
 11
169.004040347
 21
202.381185023
 31
0.0
  0
ARC
  5
125
330
1F
100
AcDbEntity
  8
0
  6
Continuous
 62
     7
100
AcDbCircle
 10
168.704040076
 20
203.439485514
 30
0.0
 40
1.1
100
AcDbArc
 50
285.826620135
 51
74.173379865
  0
ARC
  5
126
330
1F
100
AcDbEntity
  8
0
  6
Continuous
 62
     7
100
AcDbCircle
 10
168.704040076
 20
203.439485514
 30
0.0
 40
1.1
100
AcDbArc
 50
105.826620135
 51
254.173379865
  0
LINE
  5
127
330
1F
100
AcDbEntity
  8
0
  6
Continuous
 62
     7
100
AcDbLine
 10
168.404040435
 20
202.381185023
 30
0.0
 11
168.404040435
 21
204.497786006
 31
0.0
  0
LWPOLYLINE
  5
129
330
1F
100
AcDbEntity
  8
0
  6
Continuous
 62
     7
100
AcDbPolyline
 90
   106
 70
   128
 43
0.0
 10
166.812291301
 20
199.639250287
 10
166.822031613
 20
199.651220641
 10
166.831824038
 20
199.663134732
 10
166.841668443
 20
199.674992703
 10
166.851564697
 20
199.686794696
 10
166.861512668
 20
199.698540853
 10
166.871512223
 20
199.710231318
 10
166.881563231
 20
199.721866232
 10
166.891665559
 20
199.733445738
 10
166.901819076
 20
199.744969979
 10
166.91202365
 20
199.756439096
 10
166.922279149
 20
199.767853233
 10
166.932585441
 20
199.779212532
 10
166.942942394
 20
199.790517135
 10
166.953349875
 20
199.801767185
 10
166.963807754
 20
199.812962824
 10
166.974315897
 20
199.824104195
 10
166.984874174
 20
199.83519144
 10
166.995482452
 20
199.846224701
 10
167.006140599
 20
199.857204122
 10
167.016848483
 20
199.868129844
 10
167.027605973
 20
199.879002011
 10
167.038412935
 20
199.889820763
 10
167.04926924
 20
199.900586245
 10
167.060174753
 20
199.911298598
 10
167.071129344
 20
199.921957966
 10
167.082132881
 20
199.932564489
 10
167.093185231
 20
199.943118311
 10
167.104286262
 20
199.953619575
 10
167.115435844
 20
199.964068422
 10
167.126633842
 20
199.974464996
 10
167.137880127
 20
199.984809439
 10
167.149174565
 20
199.995101892
 10
167.160517025
 20
200.005342499
 10
167.171907375
 20
200.015531402
 10
167.183345483
 20
200.025668744
 10
167.194834298
 20
200.035756341
 10
167.206376448
 20
200.045795613
 10
167.217971322
 20
200.055786107
 10
167.229618306
 20
200.065727372
 10
167.241316789
 20
200.075618953
 10
167.253066158
 20
200.085460399
 10
167.264865801
 20
200.095251258
 10
167.276715106
 20
200.104991076
 10
167.288613459
 20
200.114679401
 10
167.300560249
 20
200.124315781
 10
167.312554863
 20
200.133899763
 10
167.324596689
 20
200.143430894
 10
167.336685114
 20
200.152908722
 10
167.348819526
 20
200.162332794
 10
167.360999313
 20
200.171702659
 10
167.373223863
 20
200.181017862
 10
167.385492562
 20
200.190277952
 10
167.397804799
 20
200.199482476
 10
167.41015996
 20
200.208630981
 10
167.422557435
 20
200.217723016
 10
167.43499661
 20
200.226758127
 10
167.447476872
 20
200.235735862
 10
167.459997611
 20
200.244655768
 10
167.472558212
 20
200.253517393
 10
167.485158065
 20
200.262320284
 10
167.497796555
 20
200.271063989
 10
167.510473072
 20
200.279748055
 10
167.523187003
 20
200.28837203
 10
167.535937734
 20
200.29693546
 10
167.548724655
 20
200.305437894
 10
167.561547152
 20
200.313878879
 10
167.574404613
 20
200.322257962
 10
167.587296426
 20
200.330574691
 10
167.600221978
 20
200.338828613
 10
167.613180657
 20
200.347019275
 10
167.639194861
 20
200.36321411
 10
167.665336925
 20
200.379162273
 10
167.691606257
 20
200.394862549
 10
167.718002268
 20
200.410313719
 10
167.744524364
 20
200.425514567
 10
167.771171956
 20
200.440463876
 10
167.797944451
 20
200.455160429
 10
167.824841259
 20
200.469603008
 10
167.851861789
 20
200.483790397
 10
167.879005448
 20
200.497721378
 10
167.906271647
 20
200.511394735
 10
167.933659793
 20
200.52480925
 10
167.961169296
 20
200.537963707
 10
167.988799563
 20
200.550856888
 10
168.016550005
 20
200.563487576
 10
168.04442003
 20
200.575854554
 10
168.072409046
 20
200.587956606
 10
168.100516462
 20
200.599792513
 10
168.128741688
 20
200.61136106
 10
168.157084131
 20
200.622661029
 10
168.185543201
 20
200.633691202
 10
168.214118306
 20
200.644450364
 10
168.242808855
 20
200.654937296
 10
168.271614258
 20
200.665150782
 10
168.300533921
 20
200.675089605
 10
168.329567256
 20
200.684752547
 10
168.358713669
 20
200.694138392
 10
168.387972571
 20
200.703245922
 10
168.417343369
 20
200.712073921
 10
168.446825473
 20
200.720621172
 10
168.47641829
 20
200.728886457
 10
168.506121231
 20
200.736868559
 10
168.535933704
 20
200.744566261
 10
168.565855118
 20
200.751978347
 10
168.59588488
 20
200.759103598
  0
LWPOLYLINE
  5
12B
330
1F
100
AcDbEntity
  8
0
  6
Continuous
 62
     7
100
AcDbPolyline
 90
    71
 70
   128
 43
0.0
 10
166.109094399
 20
199.63925022
 10
166.119178355
 20
199.63925022
 10
166.129261575
 20
199.63925022
 10
166.139344042
 20
199.63925022
 10
166.149425741
 20
199.63925022
 10
166.159506656
 20
199.63925022
 10
166.169586772
 20
199.63925022
 10
166.179666073
 20
199.63925022
 10
166.189744543
 20
199.63925022
 10
166.199822168
 20
199.63925022
 10
166.209898931
 20
199.63925022
 10
166.219974818
 20
199.63925022
 10
166.230049812
 20
199.63925022
 10
166.240123897
 20
199.63925022
 10
166.25019706
 20
199.63925022
 10
166.260269283
 20
199.63925022
 10
166.270340551
 20
199.63925022
 10
166.280410849
 20
199.63925022
 10
166.290480162
 20
199.63925022
 10
166.300548473
 20
199.63925022
 10
166.310615767
 20
199.63925022
 10
166.320682029
 20
199.63925022
 10
166.330747243
 20
199.63925022
 10
166.340811393
 20
199.63925022
 10
166.350874465
 20
199.63925022
 10
166.360936442
 20
199.63925022
 10
166.370997308
 20
199.63925022
 10
166.38105705
 20
199.63925022
 10
166.39111565
 20
199.63925022
 10
166.401173093
 20
199.63925022
 10
166.411229364
 20
199.63925022
 10
166.421284447
 20
199.63925022
 10
166.431338327
 20
199.63925022
 10
166.441390988
 20
199.63925022
 10
166.451442415
 20
199.63925022
 10
166.461492591
 20
199.63925022
 10
166.471541545
 20
199.63925022
 10
166.481589218
 20
199.63925022
 10
166.491635588
 20
199.63925022
 10
166.501680631
 20
199.63925022
 10
166.511724324
 20
199.63925022
 10
166.521766644
 20
199.63925022
 10
166.531807566
 20
199.63925022
 10
166.541847069
 20
199.63925022
 10
166.551885127
 20
199.63925022
 10
166.561921719
 20
199.63925022
 10
166.57195682
 20
199.63925022
 10
166.581990407
 20
199.63925022
 10
166.592022456
 20
199.63925022
 10
166.602052945
 20
199.63925022
 10
166.61208185
 20
199.63925022
 10
166.622109147
 20
199.63925022
 10
166.632134814
 20
199.63925022
 10
166.642158826
 20
199.63925022
 10
166.65218116
 20
199.63925022
 10
166.662201794
 20
199.63925022
 10
166.672220703
 20
199.63925022
 10
166.682237864
 20
199.63925022
 10
166.692253253
 20
199.63925022
 10
166.702266848
 20
199.63925022
 10
166.712278625
 20
199.63925022
 10
166.722288561
 20
199.63925022
 10
166.732296632
 20
199.63925022
 10
166.742302814
 20
199.63925022
 10
166.752307085
 20
199.63925022
 10
166.762309421
 20
199.63925022
 10
166.772309798
 20
199.63925022
 10
166.782308193
 20
199.63925022
 10
166.792304583
 20
199.63925022
 10
166.802298945
 20
199.63925022
 10
166.812291255
 20
199.63925022
  0
LWPOLYLINE
  5
12D
330
1F
100
AcDbEntity
  8
0
  6
Continuous
 62
     7
100
AcDbPolyline
 90
   141
 70
   128
 43
0.0
 10
168.504040258
 20
201.148416533
 10
168.483533474
 20
201.144181916
 10
168.463065855
 20
201.139848226
 10
168.442637349
 20
201.135415579
 10
168.422247905
 20
201.130884095
 10
168.40189747
 20
201.126253891
 10
168.381585991
 20
201.121525086
 10
168.361313416
 20
201.116697799
 10
168.341079693
 20
201.111772147
 10
168.32088477
 20
201.106748249
 10
168.300728595
 20
201.101626222
 10
168.280611115
 20
201.096406186
 10
168.260532277
 20
201.091088259
 10
168.24049203
 20
201.085672558
 10
168.220490321
 20
201.080159202
 10
168.200527098
 20
201.07454831
 10
168.180602309
 20
201.068839999
 10
168.160715901
 20
201.063034387
 10
168.140867823
 20
201.057131594
 10
168.121058021
 20
201.051131737
 10
168.101286443
 20
201.045034935
 10
168.081553038
 20
201.038841305
 10
168.061857753
 20
201.032550967
 10
168.042200536
 20
201.026164037
 10
168.022581334
 20
201.019680636
 10
168.003000095
 20
201.01310088
 10
167.983456766
 20
201.006424888
 10
167.963951297
 20
200.999652778
 10
167.944483633
 20
200.992784669
 10
167.925053724
 20
200.985820679
 10
167.905661516
 20
200.978760926
 10
167.886306957
 20
200.971605529
 10
167.866989996
 20
200.964354605
 10
167.847710579
 20
200.957008273
 10
167.828468655
 20
200.949566651
 10
167.809264171
 20
200.942029857
 10
167.79009361
 20
200.93439583
 10
167.770953994
 20
200.926662541
 10
167.751846079
 20
200.918830155
 10
167.732770623
 20
200.91089884
 10
167.71372838
 20
200.902868761
 10
167.694720108
 20
200.894740085
 10
167.675746562
 20
200.886512979
 10
167.6568085
 20
200.878187608
 10
167.637906678
 20
200.869764139
 10
167.619041851
 20
200.861242739
 10
167.600214777
 20
200.852623573
 10
167.581426211
 20
200.843906809
 10
167.562676911
 20
200.835092612
 10
167.543967632
 20
200.826181149
 10
167.525299131
 20
200.817172587
 10
167.506672165
 20
200.808067091
 10
167.488087489
 20
200.798864828
 10
167.46954586
 20
200.789565965
 10
167.451048034
 20
200.780170668
 10
167.432594768
 20
200.770679103
 10
167.414186818
 20
200.761091436
 10
167.395824941
 20
200.751407835
 10
167.377509893
 20
200.741628465
 10
167.35924243
 20
200.731753492
 10
167.341023308
 20
200.721783084
 10
167.322853285
 20
200.711717406
 10
167.304733116
 20
200.701556625
 10
167.286663557
 20
200.691300908
 10
167.268645366
 20
200.68095042
 10
167.250679298
 20
200.670505328
 10
167.232766111
 20
200.659965798
 10
167.214906559
 20
200.649331998
 10
167.1971014
 20
200.638604092
 10
167.17935139
 20
200.627782248
 10
167.161657286
 20
200.616866632
 10
167.144027445
 20
200.605863141
 10
167.126469771
 20
200.594777477
 10
167.108984338
 20
200.583609516
 10
167.091571218
 20
200.572359132
 10
167.074230485
 20
200.561026201
 10
167.056962213
 20
200.549610596
 10
167.039766475
 20
200.538112193
 10
167.022643345
 20
200.526530866
 10
167.005592895
 20
200.51486649
 10
166.988615201
 20
200.50311894
 10
166.971710334
 20
200.491288091
 10
166.954878369
 20
200.479373818
 10
166.938119378
 20
200.467375994
 10
166.921433437
 20
200.455294496
 10
166.904820617
 20
200.443129197
 10
166.888280992
 20
200.430879973
 10
166.871814636
 20
200.418546699
 10
166.855421623
 20
200.406129249
 10
166.839102025
 20
200.393627497
 10
166.822855917
 20
200.381041319
 10
166.806683371
 20
200.36837059
 10
166.790584461
 20
200.355615184
 10
166.774559261
 20
200.342774976
 10
166.758607844
 20
200.329849841
 10
166.742730284
 20
200.316839653
 10
166.726926654
 20
200.303744288
 10
166.711197027
 20
200.29056362
 10
166.695541478
 20
200.277297524
 10
166.679960078
 20
200.263945874
 10
166.664452903
 20
200.250508547
 10
166.649020025
 20
200.236985415
 10
166.633661518
 20
200.223376354
 10
166.618377455
 20
200.209681239
 10
166.60316791
 20
200.195899945
 10
166.588032957
 20
200.182032346
 10
166.572970018
 20
200.168074637
 10
166.557977147
 20
200.154023256
 10
166.543055365
 20
200.139878446
 10
166.528205691
 20
200.125640448
 10
166.513429143
 20
200.111309504
 10
166.498726742
 20
200.096885856
 10
166.484099507
 20
200.082369745
 10
166.469548457
 20
200.067761414
 10
166.455074612
 20
200.053061104
 10
166.440678991
 20
200.038269057
 10
166.426362614
 20
200.023385514
 10
166.412126501
 20
200.008410718
 10
166.39797167
 20
199.99334491
 10
166.383899141
 20
199.978188333
 10
166.369909934
 20
199.962941227
 10
166.356005067
 20
199.947603835
 10
166.342185561
 20
199.932176398
 10
166.328452435
 20
199.916659159
 10
166.314806709
 20
199.901052358
 10
166.301249401
 20
199.885356239
 10
166.287781532
 20
199.869571042
 10
166.27440412
 20
199.853697009
 10
166.261118185
 20
199.837734383
 10
166.247924748
 20
199.821683404
 10
166.234824826
 20
199.805544316
 10
166.22181944
 20
199.789317359
 10
166.208909608
 20
199.773002775
 10
166.196096352
 20
199.756600806
 10
166.183380689
 20
199.740111694
 10
166.170763639
 20
199.723535681
 10
166.158246223
 20
199.706873009
 10
166.145829458
 20
199.690123918
 10
166.133514366
 20
199.673288652
 10
166.121301964
 20
199.656367452
 10
166.109193273
 20
199.639360559
  0
LINE
  5
12E
330
1F
100
AcDbEntity
  8
0
  6
Continuous
 62
     7
100
AcDbLine
 10
168.595884503
 20
200.759103521
 30
0.0
 11
168.504040265
 21
201.148416614
 31
0.0
  0
LWPOLYLINE
  5
130
330
1F
100
AcDbEntity
  8
0
  6
Continuous
 62
     7
100
AcDbPolyline
 90
   141
 70
   128
 43
0.0
 10
166.109601629
 20
207.239720773
 10
166.121658307
 20
207.222747998
 10
166.133809051
 20
207.20587011
 10
166.146053492
 20
207.189086694
 10
166.158391258
 20
207.172397332
 10
166.170821978
 20
207.155801609
 10
166.183345283
 20
207.139299108
 10
166.195960801
 20
207.122889414
 10
166.208668163
 20
207.106572109
 10
166.221466996
 20
207.090346778
 10
166.234356931
 20
207.074213005
 10
166.247337597
 20
207.058170372
 10
166.260408623
 20
207.042218465
 10
166.273569639
 20
207.026356867
 10
166.286820273
 20
207.010585161
 10
166.300160156
 20
206.994902931
 10
166.313588917
 20
206.979309762
 10
166.327106185
 20
206.963805237
 10
166.340711589
 20
206.948388939
 10
166.354404758
 20
206.933060453
 10
166.368185323
 20
206.917819362
 10
166.382052912
 20
206.90266525
 10
166.396007155
 20
206.887597701
 10
166.410047681
 20
206.872616298
 10
166.42417412
 20
206.857720626
 10
166.4383861
 20
206.842910268
 10
166.452683251
 20
206.828184808
 10
166.467065203
 20
206.813543829
 10
166.481531585
 20
206.798986916
 10
166.496082026
 20
206.784513653
 10
166.510716155
 20
206.770123622
 10
166.525433603
 20
206.755816408
 10
166.540233997
 20
206.741591595
 10
166.555116969
 20
206.727448766
 10
166.570082146
 20
206.713387505
 10
166.585129158
 20
206.699407396
 10
166.600262852
 20
206.685505643
 10
166.615487501
 20
206.671680163
 10
166.630801873
 20
206.657931611
 10
166.64620474
 20
206.644260643
 10
166.66169487
 20
206.630667913
 10
166.677271034
 20
206.617154076
 10
166.692932
 20
206.603719789
 10
166.708676539
 20
206.590365704
 10
166.724503421
 20
206.577092479
 10
166.740411414
 20
206.563900768
 10
166.75639929
 20
206.550791225
 10
166.772465816
 20
206.537764506
 10
166.788609764
 20
206.524821266
 10
166.804829903
 20
206.51196216
 10
166.821125002
 20
206.499187844
 10
166.837493832
 20
206.486498971
 10
166.853935161
 20
206.473896198
 10
166.87044776
 20
206.461380179
 10
166.887030398
 20
206.448951569
 10
166.903681845
 20
206.436611024
 10
166.920400871
 20
206.424359199
 10
166.937186245
 20
206.412196747
 10
166.954036738
 20
206.400124326
 10
166.970951118
 20
206.388142589
 10
166.987928155
 20
206.376252192
 10
167.00496662
 20
206.36445379
 10
167.022065281
 20
206.352748038
 10
167.039222909
 20
206.34113559
 10
167.056438273
 20
206.329617103
 10
167.073710143
 20
206.31819323
 10
167.091037289
 20
206.306864628
 10
167.10841848
 20
206.295631951
 10
167.125852486
 20
206.284495854
 10
167.143338077
 20
206.273456993
 10
167.160874022
 20
206.262516022
 10
167.178459637
 20
206.251671554
 10
167.196095033
 20
206.240921694
 10
167.213780171
 20
206.230266339
 10
167.231515012
 20
206.219705384
 10
167.249299515
 20
206.209238726
 10
167.267133642
 20
206.198866259
 10
167.285017355
 20
206.18858788
 10
167.302950612
 20
206.178403484
 10
167.320933377
 20
206.168312968
 10
167.338965608
 20
206.158316227
 10
167.357047267
 20
206.148413156
 10
167.375178315
 20
206.138603652
 10
167.393358713
 20
206.128887611
 10
167.41158842
 20
206.119264928
 10
167.429867399
 20
206.109735498
 10
167.44819561
 20
206.100299219
 10
167.466573014
 20
206.090955985
 10
167.484999571
 20
206.081705692
 10
167.503475243
 20
206.072548237
 10
167.521999989
 20
206.063483514
 10
167.540573772
 20
206.05451142
 10
167.559196551
 20
206.04563185
 10
167.577868288
 20
206.036844701
 10
167.596588943
 20
206.028149868
 10
167.615358477
 20
206.019547247
 10
167.634176851
 20
206.011036733
 10
167.653044026
 20
206.002618222
 10
167.671959962
 20
205.994291611
 10
167.690924621
 20
205.986056795
 10
167.709937962
 20
205.97791367
 10
167.728999948
 20
205.969862131
 10
167.748110538
 20
205.961902074
 10
167.767269693
 20
205.954033396
 10
167.786477375
 20
205.946255991
 10
167.805733544
 20
205.938569756
 10
167.825037364
 20
205.930975861
 10
167.844387521
 20
205.923475718
 10
167.863783259
 20
205.916069584
 10
167.883223822
 20
205.908757716
 10
167.902708456
 20
205.901540373
 10
167.922236404
 20
205.89441781
 10
167.941806911
 20
205.887390286
 10
167.961419221
 20
205.880458058
 10
167.981072578
 20
205.873621383
 10
168.000766228
 20
205.86688052
 10
168.020499414
 20
205.860235724
 10
168.04027138
 20
205.853687254
 10
168.060081372
 20
205.847235368
 10
168.079928633
 20
205.840880321
 10
168.099812408
 20
205.834622373
 10
168.119731941
 20
205.82846178
 10
168.139686476
 20
205.822398799
 10
168.159675259
 20
205.816433689
 10
168.179697533
 20
205.810566705
 10
168.199752543
 20
205.804798107
 10
168.219839532
 20
205.799128151
 10
168.239957746
 20
205.793557095
 10
168.260106429
 20
205.788085196
 10
168.280284826
 20
205.782712711
 10
168.30049218
 20
205.777439898
 10
168.320727735
 20
205.772267015
 10
168.340990738
 20
205.767194318
 10
168.361280431
 20
205.762222065
 10
168.381596059
 20
205.757350514
 10
168.401936866
 20
205.752579921
 10
168.422302097
 20
205.747910545
 10
168.442690997
 20
205.743342642
 10
168.463102809
 20
205.738876471
 10
168.483536779
 20
205.734512288
 10
168.503992149
 20
205.730250351
  0
LWPOLYLINE
  5
132
330
1F
100
AcDbEntity
  8
0
  6
Continuous
 62
     7
100
AcDbPolyline
 90
    71
 70
   128
 43
0.0
 10
166.812431854
 20
207.239720808
 10
166.802444281
 20
207.239720808
 10
166.792454677
 20
207.239720808
 10
166.782463065
 20
207.239720808
 10
166.772469469
 20
207.239720808
 10
166.762473912
 20
207.239720808
 10
166.752476416
 20
207.239720808
 10
166.742477004
 20
207.239720808
 10
166.732475701
 20
207.239720808
 10
166.722472529
 20
207.239720808
 10
166.712467512
 20
207.239720808
 10
166.702460672
 20
207.239720808
 10
166.692452032
 20
207.239720808
 10
166.682441616
 20
207.239720808
 10
166.672429448
 20
207.239720808
 10
166.662415549
 20
207.239720808
 10
166.652399944
 20
207.239720808
 10
166.642382655
 20
207.239720808
 10
166.632363705
 20
207.239720808
 10
166.622343119
 20
207.239720808
 10
166.612320918
 20
207.239720808
 10
166.602297127
 20
207.239720808
 10
166.592271767
 20
207.239720808
 10
166.582244863
 20
207.239720808
 10
166.572216438
 20
207.239720808
 10
166.562186514
 20
207.239720808
 10
166.552155115
 20
207.239720808
 10
166.542122264
 20
207.239720808
 10
166.532087984
 20
207.239720808
 10
166.522052299
 20
207.239720808
 10
166.512015231
 20
207.239720808
 10
166.501976804
 20
207.239720808
 10
166.49193704
 20
207.239720808
 10
166.481895964
 20
207.239720808
 10
166.471853597
 20
207.239720808
 10
166.461809964
 20
207.239720808
 10
166.451765028
 20
207.239720808
 10
166.441718854
 20
207.239720808
 10
166.431671459
 20
207.239720808
 10
166.421622857
 20
207.239720808
 10
166.411573065
 20
207.239720808
 10
166.401522096
 20
207.239720808
 10
166.391469968
 20
207.239720808
 10
166.381416694
 20
207.239720808
 10
166.37136229
 20
207.239720808
 10
166.361306773
 20
207.239720808
 10
166.351250156
 20
207.239720808
 10
166.341192456
 20
207.239720808
 10
166.331133687
 20
207.239720808
 10
166.321073866
 20
207.239720808
 10
166.311013007
 20
207.239720808
 10
166.300951127
 20
207.239720808
 10
166.290888239
 20
207.239720808
 10
166.28082436
 20
207.239720808
 10
166.270759505
 20
207.239720808
 10
166.260693689
 20
207.239720808
 10
166.250626927
 20
207.239720808
 10
166.240559236
 20
207.239720808
 10
166.23049063
 20
207.239720808
 10
166.220421125
 20
207.239720808
 10
166.210350736
 20
207.239720808
 10
166.200279478
 20
207.239720808
 10
166.190207367
 20
207.239720808
 10
166.180134419
 20
207.239720808
 10
166.170060647
 20
207.239720808
 10
166.159986069
 20
207.239720808
 10
166.149910699
 20
207.239720808
 10
166.139834552
 20
207.239720808
 10
166.129757645
 20
207.239720808
 10
166.119679991
 20
207.239720808
 10
166.109601607
 20
207.239720808
  0
LWPOLYLINE
  5
134
330
1F
100
AcDbEntity
  8
0
  6
Continuous
 62
     7
100
AcDbPolyline
 90
   106
 70
   128
 43
0.0
 10
168.595829281
 20
206.119603476
 10
168.580816079
 20
206.123158217
 10
168.565830726
 20
206.126784078
 10
168.550873171
 20
206.130480925
 10
168.53594336
 20
206.134248622
 10
168.521041241
 20
206.138087034
 10
168.506166759
 20
206.141996027
 10
168.491319863
 20
206.145975465
 10
168.4765005
 20
206.150025213
 10
168.461708616
 20
206.154145135
 10
168.446944159
 20
206.158335097
 10
168.432207075
 20
206.162594963
 10
168.417497312
 20
206.166924599
 10
168.402814817
 20
206.171323869
 10
168.388159537
 20
206.175792637
 10
168.373531419
 20
206.18033077
 10
168.35893041
 20
206.184938131
 10
168.344356457
 20
206.189614585
 10
168.329809507
 20
206.194359998
 10
168.315289508
 20
206.199174234
 10
168.300796406
 20
206.204057159
 10
168.286330149
 20
206.209008636
 10
168.271890683
 20
206.21402853
 10
168.257477955
 20
206.219116708
 10
168.243091914
 20
206.224273032
 10
168.228732505
 20
206.229497369
 10
168.214399676
 20
206.234789583
 10
168.200093374
 20
206.240149539
 10
168.185813545
 20
206.245577102
 10
168.171560138
 20
206.251072137
 10
168.157333099
 20
206.256634508
 10
168.143132376
 20
206.26226408
 10
168.128957914
 20
206.267960719
 10
168.114809662
 20
206.273724288
 10
168.100687566
 20
206.279554654
 10
168.086591574
 20
206.28545168
 10
168.072518746
 20
206.29141721
 10
168.058466627
 20
206.297452915
 10
168.044435892
 20
206.303558407
 10
168.030427215
 20
206.309733294
 10
168.016441271
 20
206.315977186
 10
168.002478735
 20
206.322289692
 10
167.98854028
 20
206.328670424
 10
167.974626581
 20
206.33511899
 10
167.960738313
 20
206.341635
 10
167.946876151
 20
206.348218064
 10
167.933040768
 20
206.354867792
 10
167.919232839
 20
206.361583793
 10
167.905453039
 20
206.368365677
 10
167.891702042
 20
206.375213054
 10
167.877980522
 20
206.382125533
 10
167.864289155
 20
206.389102724
 10
167.850628615
 20
206.396144238
 10
167.836999575
 20
206.403249683
 10
167.823402711
 20
206.41041867
 10
167.809838697
 20
206.417650808
 10
167.796308208
 20
206.424945707
 10
167.782811918
 20
206.432302976
 10
167.769350501
 20
206.439722226
 10
167.755924632
 20
206.447203066
 10
167.742534986
 20
206.454745106
 10
167.729182236
 20
206.462347956
 10
167.715867058
 20
206.470011225
 10
167.702590126
 20
206.477734523
 10
167.689352115
 20
206.485517459
 10
167.676153698
 20
206.493359644
 10
167.662995551
 20
206.501260688
 10
167.649878347
 20
206.509220199
 10
167.636802762
 20
206.517237789
 10
167.62376947
 20
206.525313065
 10
167.610779145
 20
206.533445639
 10
167.584923513
 20
206.549878796
 10
167.559231996
 20
206.566533806
 10
167.533705961
 20
206.583410533
 10
167.508346775
 20
206.600508843
 10
167.483155807
 20
206.617828599
 10
167.458134425
 20
206.635369666
 10
167.433283996
 20
206.653131908
 10
167.408605887
 20
206.671115189
 10
167.384101467
 20
206.689319373
 10
167.359772103
 20
206.707744325
 10
167.335619163
 20
206.72638991
 10
167.311644015
 20
206.74525599
 10
167.287848026
 20
206.764342432
 10
167.264232565
 20
206.783649098
 10
167.240798999
 20
206.803175853
 10
167.217548695
 20
206.822922562
 10
167.194483021
 20
206.842889089
 10
167.171603346
 20
206.863075298
 10
167.148911037
 20
206.883481053
 10
167.126407461
 20
206.904106219
 10
167.104093987
 20
206.92495066
 10
167.081971982
 20
206.94601424
 10
167.060042813
 20
206.967296824
 10
167.03830785
 20
206.988798275
 10
167.016768458
 20
207.010518459
 10
166.995426007
 20
207.032457239
 10
166.974281863
 20
207.05461448
 10
166.953337395
 20
207.076990046
 10
166.93259397
 20
207.099583801
 10
166.912052957
 20
207.12239561
 10
166.891715722
 20
207.145425337
 10
166.871583633
 20
207.168672845
 10
166.851658059
 20
207.192138001
 10
166.831940366
 20
207.215820667
 10
166.812431924
 20
207.239720708
  0
LINE
  5
135
330
1F
100
AcDbEntity
  8
0
  6
Continuous
 62
     7
100
AcDbLine
 10
168.504032814
 20
205.730474786
 30
0.0
 11
168.595886366
 21
206.119795562
 31
0.0
  0
LWPOLYLINE
  5
137
330
1F
100
AcDbEntity
  8
0
  6
Continuous
 62
     7
100
AcDbPolyline
 90
    36
 70
   128
 43
0.0
 10
168.504040073
 20
204.521150896
 10
168.501155494
 20
204.520613549
 10
168.498272192
 20
204.520068463
 10
168.495390196
 20
204.519515646
 10
168.492509539
 20
204.518955103
 10
168.48963025
 20
204.518386843
 10
168.486752361
 20
204.517810873
 10
168.483875901
 20
204.5172272
 10
168.481000902
 20
204.516635831
 10
168.478127394
 20
204.516036773
 10
168.475255408
 20
204.515430033
 10
168.472384975
 20
204.514815619
 10
168.469516124
 20
204.514193538
 10
168.466648888
 20
204.513563797
 10
168.463783296
 20
204.512926403
 10
168.46091938
 20
204.512281363
 10
168.458057169
 20
204.511628685
 10
168.455196695
 20
204.510968375
 10
168.452337988
 20
204.510300441
 10
168.449481079
 20
204.509624891
 10
168.446625999
 20
204.508941731
 10
168.443772778
 20
204.508250968
 10
168.440921446
 20
204.507552609
 10
168.438072036
 20
204.506846663
 10
168.435224576
 20
204.506133135
 10
168.432379099
 20
204.505412034
 10
168.429535633
 20
204.504683366
 10
168.426694212
 20
204.503947138
 10
168.423854864
 20
204.503203358
 10
168.42101762
 20
204.502452033
 10
168.418182512
 20
204.50169317
 10
168.41534957
 20
204.500926777
 10
168.412518824
 20
204.500152859
 10
168.409690305
 20
204.499371426
 10
168.406864045
 20
204.498582483
 10
168.404040072
 20
204.497786038
  0
LWPOLYLINE
  5
139
330
1F
100
AcDbEntity
  8
0
  6
Continuous
 62
     7
100
AcDbPolyline
 90
    36
 70
   128
 43
0.0
 10
168.404040072
 20
202.381184991
 10
168.406864045
 20
202.380388546
 10
168.409690305
 20
202.379599603
 10
168.412518824
 20
202.378818169
 10
168.41534957
 20
202.378044252
 10
168.418182512
 20
202.377277858
 10
168.42101762
 20
202.376518995
 10
168.423854864
 20
202.37576767
 10
168.426694212
 20
202.37502389
 10
168.429535634
 20
202.374287662
 10
168.432379099
 20
202.373558994
 10
168.435224576
 20
202.372837893
 10
168.438072036
 20
202.372124365
 10
168.440921447
 20
202.371418419
 10
168.443772778
 20
202.370720061
 10
168.446625999
 20
202.370029298
 10
168.449481079
 20
202.369346137
 10
168.452337988
 20
202.368670587
 10
168.455196695
 20
202.368002653
 10
168.458057169
 20
202.367342344
 10
168.46091938
 20
202.366689665
 10
168.463783296
 20
202.366044626
 10
168.466648888
 20
202.365407232
 10
168.469516125
 20
202.36477749
 10
168.472384975
 20
202.364155409
 10
168.475255408
 20
202.363540995
 10
168.478127394
 20
202.362934256
 10
168.481000902
 20
202.362335198
 10
168.483875901
 20
202.361743828
 10
168.486752361
 20
202.361160155
 10
168.489630251
 20
202.360584185
 10
168.492509539
 20
202.360015925
 10
168.495390197
 20
202.359455382
 10
168.498272192
 20
202.358902565
 10
168.501155495
 20
202.358357479
 10
168.504040074
 20
202.357820132
  0
LINE
  5
13A
330
1F
100
AcDbEntity
  8
0
  6
Continuous
 62
     7
100
AcDbLine
 10
164.295665031
 20
199.639250291
 30
0.0
 11
166.109245778
 21
199.639250291
 31
0.0
  0
LINE
  5
13B
330
1F
100
AcDbEntity
  8
0
  6
Continuous
 62
     7
100
AcDbLine
 10
166.109601544
 20
207.239720737
 30
0.0
 11
164.295665031
 21
207.239720737
 31
0.0
  0
ARC
  5
13C
330
1F
100
AcDbEntity
  8
0
  6
Continuous
 62
     7
100
AcDbCircle
 10
169.284665348
 20
209.039485514
 30
0.0
 40
2.999764706
100
AcDbArc
 50
256.725814518
 51
270.0
  0
ARC
  5
13D
330
1F
100
AcDbEntity
  8
0
  6
Continuous
 62
     7
100
AcDbCircle
 10
169.284665348
 20
209.039485514
 30
0.0
 40
3.399764706
100
AcDbArc
 50
256.725983197
 51
270.0
  0
ARC
  5
13E
330
1F
100
AcDbEntity
  8
0
  6
Continuous
 62
     7
100
AcDbCircle
 10
172.804040076
 20
202.439485514
 30
0.0
 40
1.600235294
100
AcDbArc
 50
311.406437807
 51
0.0
  0
LINE
  5
13F
330
1F
100
AcDbEntity
  8
0
  6
Continuous
 62
     7
100
AcDbLine
 10
173.862429844
 20
201.239250134
 30
0.0
 11
169.284665534
 21
201.239250134
 31
0.0
  0
ARC
  5
140
330
1F
100
AcDbEntity
  8
0
  6
Continuous
 62
     7
100
AcDbCircle
 10
169.284665348
 20
197.839485514
 30
0.0
 40
3.399764714
100
AcDbArc
 50
90.0
 51
103.27420052
  0
ARC
  5
141
330
1F
100
AcDbEntity
  8
0
  6
Continuous
 62
     7
100
AcDbCircle
 10
168.704040076
 20
203.439485514
 30
0.0
 40
1.1
100
AcDbArc
 50
259.524318174
 51
285.82662013
  0
ARC
  5
142
330
1F
100
AcDbEntity
  8
0
  6
Continuous
 62
     7
100
AcDbCircle
 10
168.704040076
 20
203.439485514
 30
0.0
 40
1.1
100
AcDbArc
 50
74.17337987
 51
100.475681821
  0
LINE
  5
143
330
1F
100
AcDbEntity
  8
0
  6
Continuous
 62
     7
100
AcDbLine
 10
169.284665534
 20
205.639720894
 30
0.0
 11
173.862429844
 21
205.639720894
 31
0.0
  0
ARC
  5
144
330
1F
100
AcDbEntity
  8
0
  6
Continuous
 62
     7
100
AcDbCircle
 10
172.804040076
 20
204.439485514
 30
0.0
 40
1.600235294
100
AcDbArc
 50
359.999999994
 51
48.593562193
  0
LINE
  5
145
330
1F
100
AcDbEntity
  8
0
  6
Continuous
 62
     7
100
AcDbLine
 10
174.40427518
 20
204.439485562
 30
0.0
 11
174.40427518
 21
202.439485467
 31
0.0
  0
LWPOLYLINE
  5
147
330
1F
100
AcDbEntity
  8
0
  6
Continuous
 62
     7
100
AcDbPolyline
 90
    36
 70
   128
 43
0.0
 10
174.004118505
 20
200.839250219
 10
174.000301888
 20
200.850682977
 10
173.996473341
 20
200.862115536
 10
173.99263271
 20
200.873547891
 10
173.988779839
 20
200.88498004
 10
173.984914576
 20
200.896411976
 10
173.981036766
 20
200.907843697
 10
173.977146255
 20
200.919275198
 10
173.973242889
 20
200.930706474
 10
173.969326513
 20
200.94213752
 10
173.965396974
 20
200.953568334
 10
173.961454117
 20
200.96499891
 10
173.957497788
 20
200.976429244
 10
173.953527834
 20
200.987859332
 10
173.949544099
 20
200.999289169
 10
173.945546431
 20
201.010718752
 10
173.941534674
 20
201.022148075
 10
173.937508675
 20
201.033577135
 10
173.933468279
 20
201.045005927
 10
173.929413332
 20
201.056434446
 10
173.925343681
 20
201.06786269
 10
173.921259171
 20
201.079290652
 10
173.917159648
 20
201.090718329
 10
173.913044958
 20
201.102145717
 10
173.908914946
 20
201.113572811
 10
173.904769459
 20
201.124999607
 10
173.900608342
 20
201.136426101
 10
173.896431442
 20
201.147852287
 10
173.892238603
 20
201.159278163
 10
173.888029673
 20
201.170703723
 10
173.883804497
 20
201.182128964
 10
173.87956292
 20
201.193553881
 10
173.875304789
 20
201.204978469
 10
173.87102995
 20
201.216402724
 10
173.866738248
 20
201.227826643
 10
173.862429529
 20
201.23925022
  0
ARC
  5
148
330
1F
100
AcDbEntity
  8
0
  6
Continuous
 62
     7
100
AcDbCircle
 10
172.804040076
 20
202.439485514
 30
0.0
 40
2.000235297
100
AcDbArc
 50
306.867650835
 51
0.0
  0
LINE
  5
149
330
1F
100
AcDbEntity
  8
0
  6
Continuous
 62
     7
100
AcDbLine
 10
169.284665534
 20
200.839250115
 30
0.0
 11
174.004119398
 21
200.839250115
 31
0.0
  0
ARC
  5
14A
330
1F
100
AcDbEntity
  8
0
  6
Continuous
 62
     7
100
AcDbCircle
 10
169.284665348
 20
197.839485514
 30
0.0
 40
2.999764703
100
AcDbArc
 50
90.0
 51
103.274200454
  0
LWPOLYLINE
  5
14C
330
1F
100
AcDbEntity
  8
0
  6
Continuous
 62
     7
100
AcDbPolyline
 90
    36
 70
   128
 43
0.0
 10
173.862429529
 20
205.639720808
 10
173.866738248
 20
205.651144385
 10
173.87102995
 20
205.662568304
 10
173.875304789
 20
205.673992559
 10
173.87956292
 20
205.685417148
 10
173.883804497
 20
205.696842064
 10
173.888029673
 20
205.708267305
 10
173.892238603
 20
205.719692865
 10
173.896431442
 20
205.731118741
 10
173.900608342
 20
205.742544928
 10
173.904769459
 20
205.753971421
 10
173.908914946
 20
205.765398217
 10
173.913044957
 20
205.776825311
 10
173.917159648
 20
205.788252699
 10
173.921259171
 20
205.799680376
 10
173.925343681
 20
205.811108338
 10
173.929413332
 20
205.822536582
 10
173.933468279
 20
205.833965101
 10
173.937508675
 20
205.845393893
 10
173.941534674
 20
205.856822953
 10
173.945546431
 20
205.868252276
 10
173.949544099
 20
205.879681858
 10
173.953527834
 20
205.891111696
 10
173.957497788
 20
205.902541783
 10
173.961454117
 20
205.913972118
 10
173.965396973
 20
205.925402694
 10
173.969326513
 20
205.936833507
 10
173.973242888
 20
205.948264554
 10
173.977146255
 20
205.95969583
 10
173.981036766
 20
205.97112733
 10
173.984914576
 20
205.982559051
 10
173.988779839
 20
205.993990988
 10
173.992632709
 20
206.005423136
 10
173.996473341
 20
206.016855492
 10
174.000301888
 20
206.028288051
 10
174.004118504
 20
206.039720808
  0
ARC
  5
14D
330
1F
100
AcDbEntity
  8
0
  6
Continuous
 62
     7
100
AcDbCircle
 10
172.804040076
 20
204.439485514
 30
0.0
 40
2.000235297
100
AcDbArc
 50
359.999999994
 51
53.132349165
  0
LINE
  5
14E
330
1F
100
AcDbEntity
  8
0
  6
Continuous
 62
     7
100
AcDbLine
 10
174.804274501
 20
202.439485467
 30
0.0
 11
174.804274501
 21
204.439485562
 31
0.0
  0
LINE
  5
14F
330
1F
100
AcDbEntity
  8
0
  6
Continuous
 62
     7
100
AcDbLine
 10
174.004119398
 20
206.039720913
 30
0.0
 11
169.284665534
 21
206.039720913
 31
0.0
  0
LWPOLYLINE
  5
151
330
1F
100
AcDbEntity
  8
0
  6
Continuous
 62
     7
100
AcDbPolyline
 90
   106
 70
   128
 43
0.0
 10
162.804040076
 20
205.618590742
 10
162.804303859
 20
205.631875281
 10
162.804664816
 20
205.645132805
 10
162.805122421
 20
205.658362884
 10
162.805676148
 20
205.671565088
 10
162.806325472
 20
205.684738988
 10
162.807069865
 20
205.697884155
 10
162.807908803
 20
205.711000158
 10
162.80884176
 20
205.724086568
 10
162.80986821
 20
205.737142956
 10
162.810987628
 20
205.750168892
 10
162.812199486
 20
205.763163947
 10
162.81350326
 20
205.77612769
 10
162.814898424
 20
205.789059693
 10
162.816384452
 20
205.801959525
 10
162.817960818
 20
205.814826758
 10
162.819626996
 20
205.827660961
 10
162.821382461
 20
205.840461706
 10
162.823226686
 20
205.853228562
 10
162.825159147
 20
205.8659611
 10
162.827179316
 20
205.878658891
 10
162.829286669
 20
205.891321504
 10
162.831480679
 20
205.90394851
 10
162.833760821
 20
205.916539481
 10
162.836126569
 20
205.929093985
 10
162.838577397
 20
205.941611595
 10
162.841112779
 20
205.954091879
 10
162.843732189
 20
205.966534408
 10
162.846435102
 20
205.978938754
 10
162.849220992
 20
205.991304486
 10
162.852089333
 20
206.003631175
 10
162.855039599
 20
206.015918391
 10
162.858071265
 20
206.028165705
 10
162.861183804
 20
206.040372687
 10
162.864376691
 20
206.052538907
 10
162.867649399
 20
206.064663936
 10
162.870997384
 20
206.076737558
 10
162.874416294
 20
206.088750248
 10
162.877905896
 20
206.100702615
 10
162.881465957
 20
206.112595267
 10
162.885096242
 20
206.124428814
 10
162.888796519
 20
206.136203864
 10
162.892566555
 20
206.147921026
 10
162.896406115
 20
206.159580909
 10
162.900314967
 20
206.171184121
 10
162.904292878
 20
206.182731272
 10
162.908339613
 20
206.19422297
 10
162.91245494
 20
206.205659823
 10
162.916638625
 20
206.217042442
 10
162.920890435
 20
206.228371434
 10
162.925210136
 20
206.239647408
 10
162.929597496
 20
206.250870973
 10
162.93405228
 20
206.262042738
 10
162.938574255
 20
206.273163311
 10
162.943163188
 20
206.284233302
 10
162.947818846
 20
206.29525332
 10
162.952540996
 20
206.306223972
 10
162.957329403
 20
206.317145868
 10
162.962183834
 20
206.328019616
 10
162.967104057
 20
206.338845826
 10
162.972089837
 20
206.349625106
 10
162.977140942
 20
206.360358064
 10
162.982257138
 20
206.371045311
 10
162.987438192
 20
206.381687453
 10
162.99268387
 20
206.392285101
 10
162.997993939
 20
206.402838863
 10
163.003368165
 20
206.413349348
 10
163.008806316
 20
206.423817165
 10
163.014308157
 20
206.434242921
 10
163.019873456
 20
206.444627227
 10
163.025501979
 20
206.454970691
 10
163.036929658
 20
206.475511731
 10
163.048572583
 20
206.495842238
 10
163.060430934
 20
206.515962768
 10
163.072504888
 20
206.535873877
 10
163.084794625
 20
206.555576119
 10
163.097300323
 20
206.57507005
 10
163.110022161
 20
206.594356226
 10
163.122960316
 20
206.613435203
 10
163.136114968
 20
206.632307535
 10
163.149486295
 20
206.650973779
 10
163.163074476
 20
206.66943449
 10
163.176879689
 20
206.687690223
 10
163.190902113
 20
206.705741534
 10
163.205141926
 20
206.723588978
 10
163.219599306
 20
206.741233112
 10
163.234274433
 20
206.758674489
 10
163.249167485
 20
206.775913667
 10
163.264278641
 20
206.7929512
 10
163.279608078
 20
206.809787644
 10
163.295155975
 20
206.826423555
 10
163.310922512
 20
206.842859487
 10
163.326907867
 20
206.859095997
 10
163.343112217
 20
206.87513364
 10
163.359535742
 20
206.890972972
 10
163.37617862
 20
206.906614548
 10
163.39304103
 20
206.922058923
 10
163.41012315
 20
206.937306653
 10
163.427425159
 20
206.952358294
 10
163.444947236
 20
206.967214401
 10
163.462689558
 20
206.981875529
 10
163.480652304
 20
206.996342235
 10
163.498835654
 20
207.010615073
 10
163.517239785
 20
207.0246946
 10
163.535864876
 20
207.038581369
 10
163.554711105
 20
207.052275939
  0
LWPOLYLINE
  5
153
330
1F
100
AcDbEntity
  8
0
  6
Continuous
 62
     7
100
AcDbPolyline
 90
    71
 70
   128
 43
0.0
 10
163.554711105
 20
207.052275939
 10
163.561846609
 20
207.057348659
 10
163.569016952
 20
207.062354471
 10
163.576222257
 20
207.067293365
 10
163.583462648
 20
207.072165328
 10
163.590738249
 20
207.076970348
 10
163.598049186
 20
207.081708414
 10
163.60539558
 20
207.086379513
 10
163.612777558
 20
207.090983634
 10
163.620195242
 20
207.095520765
 10
163.627648756
 20
207.099990894
 10
163.635138225
 20
207.104394009
 10
163.642663773
 20
207.108730099
 10
163.650225524
 20
207.112999151
 10
163.657823601
 20
207.117201154
 10
163.665458129
 20
207.121336095
 10
163.673129232
 20
207.125403963
 10
163.680837034
 20
207.129404747
 10
163.688581658
 20
207.133338433
 10
163.69636323
 20
207.137205011
 10
163.704181872
 20
207.141004469
 10
163.712037709
 20
207.144736794
 10
163.719930865
 20
207.148401975
 10
163.727861465
 20
207.152
 10
163.735829631
 20
207.155530857
 10
163.743835488
 20
207.158994534
 10
163.751879161
 20
207.16239102
 10
163.759960773
 20
207.165720302
 10
163.768080447
 20
207.16898237
 10
163.776238309
 20
207.172177209
 10
163.784434483
 20
207.17530481
 10
163.792669091
 20
207.17836516
 10
163.800942259
 20
207.181358248
 10
163.80925411
 20
207.184284061
 10
163.817604768
 20
207.187142587
 10
163.825994358
 20
207.189933815
 10
163.834420403
 20
207.192655671
 10
163.842880011
 20
207.195305801
 10
163.85137268
 20
207.197883779
 10
163.85989791
 20
207.200389175
 10
163.868455198
 20
207.202821563
 10
163.877044045
 20
207.205180514
 10
163.885663948
 20
207.207465599
 10
163.894314407
 20
207.209676391
 10
163.902994921
 20
207.211812462
 10
163.911704987
 20
207.213873384
 10
163.920444106
 20
207.215858728
 10
163.929211775
 20
207.217768066
 10
163.938007494
 20
207.219600972
 10
163.946830761
 20
207.221357015
 10
163.955681075
 20
207.223035769
 10
163.964557936
 20
207.224636805
 10
163.973460841
 20
207.226159696
 10
163.98238929
 20
207.227604013
 10
163.991342781
 20
207.228969327
 10
164.000320814
 20
207.230255212
 10
164.009322887
 20
207.231461239
 10
164.018348499
 20
207.23258698
 10
164.027397148
 20
207.233632006
 10
164.036468334
 20
207.234595891
 10
164.045561555
 20
207.235478205
 10
164.054676311
 20
207.236278521
 10
164.063812099
 20
207.23699641
 10
164.072968419
 20
207.237631445
 10
164.08214477
 20
207.238183197
 10
164.09134065
 20
207.238651239
 10
164.100555558
 20
207.239035143
 10
164.109788994
 20
207.239334479
 10
164.119040455
 20
207.239548821
 10
164.128309441
 20
207.23967774
 10
164.13759545
 20
207.239720808
  0
LWPOLYLINE
  5
155
330
1F
100
AcDbEntity
  8
0
  6
Continuous
 62
     7
100
AcDbPolyline
 90
    36
 70
   128
 43
0.0
 10
164.13759545
 20
199.63925022
 10
164.119041264
 20
199.639417034
 10
164.100573406
 20
199.639915852
 10
164.08219419
 20
199.640744239
 10
164.06390593
 20
199.641899761
 10
164.045710941
 20
199.643379983
 10
164.027611538
 20
199.645182469
 10
164.009610033
 20
199.647304785
 10
163.991708742
 20
199.649744496
 10
163.973909979
 20
199.652499168
 10
163.956216058
 20
199.655566365
 10
163.938629294
 20
199.658943652
 10
163.921152001
 20
199.662628595
 10
163.903786492
 20
199.666618759
 10
163.886535084
 20
199.670911709
 10
163.869400089
 20
199.67550501
 10
163.852383822
 20
199.680396228
 10
163.835488597
 20
199.685582926
 10
163.818716729
 20
199.691062672
 10
163.802070532
 20
199.696833028
 10
163.78555232
 20
199.702891562
 10
163.769164408
 20
199.709235838
 10
163.75290911
 20
199.715863421
 10
163.73678874
 20
199.722771876
 10
163.720805612
 20
199.729958769
 10
163.704962041
 20
199.737421664
 10
163.689260342
 20
199.745158127
 10
163.673702828
 20
199.753165723
 10
163.658291813
 20
199.761442016
 10
163.643029613
 20
199.769984573
 10
163.62791854
 20
199.778790959
 10
163.612960911
 20
199.787858737
 10
163.598159038
 20
199.797185475
 10
163.583515237
 20
199.806768736
 10
163.569031821
 20
199.816606086
 10
163.554711105
 20
199.82669509
  0
LWPOLYLINE
  5
157
330
1F
100
AcDbEntity
  8
0
  6
Continuous
 62
     7
100
AcDbPolyline
 90
   141
 70
   128
 43
0.0
 10
163.554711105
 20
199.82669509
 10
163.54526263
 20
199.833518498
 10
163.535873868
 20
199.840390094
 10
163.526544554
 20
199.84730989
 10
163.517274423
 20
199.854277903
 10
163.508063211
 20
199.861294147
 10
163.498910652
 20
199.868358635
 10
163.489816482
 20
199.875471383
 10
163.480780437
 20
199.882632405
 10
163.471802252
 20
199.889841716
 10
163.462881662
 20
199.89709933
 10
163.454018401
 20
199.904405262
 10
163.445212207
 20
199.911759526
 10
163.436462813
 20
199.919162137
 10
163.427769955
 20
199.926613109
 10
163.419133369
 20
199.934112458
 10
163.41055279
 20
199.941660197
 10
163.402027952
 20
199.949256341
 10
163.393558592
 20
199.956900904
 10
163.385144445
 20
199.964593902
 10
163.376785245
 20
199.972335349
 10
163.368480728
 20
199.980125258
 10
163.36023063
 20
199.987963646
 10
163.352034686
 20
199.995850525
 10
163.34389263
 20
200.003785912
 10
163.335804199
 20
200.01176982
 10
163.327769128
 20
200.019802264
 10
163.319787151
 20
200.027883258
 10
163.311858005
 20
200.036012818
 10
163.303981424
 20
200.044190957
 10
163.296157144
 20
200.05241769
 10
163.2883849
 20
200.060693032
 10
163.280664427
 20
200.069016997
 10
163.272995461
 20
200.0773896
 10
163.265377737
 20
200.085810856
 10
163.25781099
 20
200.094280778
 10
163.250293397
 20
200.102802455
 10
163.242823585
 20
200.111378803
 10
163.235401963
 20
200.120009576
 10
163.228028937
 20
200.128694529
 10
163.220704918
 20
200.137433416
 10
163.213430312
 20
200.146225992
 10
163.206205528
 20
200.155072011
 10
163.199030976
 20
200.163971229
 10
163.191907062
 20
200.172923399
 10
163.184834195
 20
200.181928276
 10
163.177812783
 20
200.190985614
 10
163.170843236
 20
200.200095169
 10
163.163925961
 20
200.209256695
 10
163.157061366
 20
200.218469946
 10
163.15024986
 20
200.227734678
 10
163.143491851
 20
200.237050644
 10
163.136787747
 20
200.246417599
 10
163.130137957
 20
200.255835297
 10
163.123542889
 20
200.265303495
 10
163.117002951
 20
200.274821945
 10
163.110518552
 20
200.284390402
 10
163.1040901
 20
200.294008622
 10
163.097718003
 20
200.303676358
 10
163.09140267
 20
200.313393365
 10
163.085144509
 20
200.323159398
 10
163.078943927
 20
200.332974212
 10
163.072801334
 20
200.34283756
 10
163.066717138
 20
200.352749198
 10
163.060691748
 20
200.36270888
 10
163.05472557
 20
200.372716361
 10
163.048819014
 20
200.382771395
 10
163.042972489
 20
200.392873736
 10
163.037186401
 20
200.40302314
 10
163.031461161
 20
200.413219362
 10
163.025797175
 20
200.423462154
 10
163.020193544
 20
200.433752056
 10
163.014649369
 20
200.44408996
 10
163.009165057
 20
200.454476156
 10
163.003741017
 20
200.464910934
 10
162.998377655
 20
200.475394582
 10
162.993075381
 20
200.48592739
 10
162.987834601
 20
200.496509647
 10
162.982655725
 20
200.507141642
 10
162.97753916
 20
200.517823665
 10
162.972485313
 20
200.528556004
 10
162.967494594
 20
200.539338949
 10
162.96256741
 20
200.550172789
 10
162.957704168
 20
200.561057813
 10
162.952905277
 20
200.571994312
 10
162.948171145
 20
200.582982572
 10
162.94350218
 20
200.594022885
 10
162.938898789
 20
200.605115539
 10
162.934361381
 20
200.616260824
 10
162.929890364
 20
200.627459028
 10
162.925486145
 20
200.638710442
 10
162.921149133
 20
200.650015353
 10
162.916879736
 20
200.661374052
 10
162.91267836
 20
200.672786828
 10
162.908545416
 20
200.684253969
 10
162.904481309
 20
200.695775766
 10
162.900486449
 20
200.707352507
 10
162.896561243
 20
200.718984481
 10
162.8927061
 20
200.730671978
 10
162.888921427
 20
200.742415288
 10
162.885207632
 20
200.754214698
 10
162.881565123
 20
200.766070499
 10
162.877994308
 20
200.77798298
 10
162.874495595
 20
200.78995243
 10
162.871069393
 20
200.801979138
 10
162.867716108
 20
200.814063393
 10
162.864439227
 20
200.826197688
 10
162.861242315
 20
200.83837398
 10
162.858125894
 20
200.850591753
 10
162.855090491
 20
200.862850492
 10
162.85213663
 20
200.875149683
 10
162.849264835
 20
200.887488809
 10
162.846475631
 20
200.899867356
 10
162.843769543
 20
200.91228481
 10
162.841147095
 20
200.924740654
 10
162.838608813
 20
200.937234373
 10
162.836155221
 20
200.949765453
 10
162.833786843
 20
200.962333379
 10
162.831504204
 20
200.974937635
 10
162.829307828
 20
200.987577706
 10
162.827198242
 20
201.000253078
 10
162.825175968
 20
201.012963234
 10
162.823241533
 20
201.02570766
 10
162.82139546
 20
201.038485842
 10
162.819638273
 20
201.051297263
 10
162.817970499
 20
201.064141408
 10
162.816392661
 20
201.077017764
 10
162.814905285
 20
201.089925813
 10
162.813508894
 20
201.102865042
 10
162.812204014
 20
201.115834936
 10
162.810991168
 20
201.128834978
 10
162.809870883
 20
201.141864655
 10
162.808843682
 20
201.15492345
 10
162.80791009
 20
201.16801085
 10
162.807070632
 20
201.181126338
 10
162.806325833
 20
201.1942694
 10
162.805676216
 20
201.207439521
 10
162.805122308
 20
201.220636184
 10
162.804664632
 20
201.233858877
 10
162.804303713
 20
201.247107083
 10
162.804040076
 20
201.260380286
  0
LINE
  5
158
330
1F
100
AcDbEntity
  8
0
  6
Continuous
 62
     7
100
AcDbLine
 10
162.804040169
 20
201.260380214
 30
0.0
 11
162.804040169
 21
205.618590582
 31
0.0
  0
LINE
  5
159
330
1F
100
AcDbEntity
  8
0
  6
Continuous
 62
     7
100
AcDbLine
 10
164.137595375
 20
207.239720737
 30
0.0
 11
164.295665031
 21
207.239720737
 31
0.0
  0
LINE
  5
15A
330
1F
100
AcDbEntity
  8
0
  6
Continuous
 62
     7
100
AcDbLine
 10
164.295665031
 20
199.639250291
 30
0.0
 11
164.137595375
 21
199.639250291
 31
0.0
  0
ARC
  5
15B
330
1F
100
AcDbEntity
  8
0
  6
Continuous
 62
     7
100
AcDbCircle
 10
172.604040076
 20
203.439485514
 30
0.0
 40
1.1
100
AcDbArc
 50
105.826620135
 51
254.173379865
  0
ARC
  5
15C
330
1F
100
AcDbEntity
  8
0
  6
Continuous
 62
     7
100
AcDbCircle
 10
172.604040076
 20
203.439485514
 30
0.0
 40
1.1
100
AcDbArc
 50
285.826620135
 51
74.173379865
  0
ARC
  5
15D
330
1F
100
AcDbEntity
  8
0
  6
Continuous
 62
     7
100
AcDbCircle
 10
172.604040076
 20
203.439485514
 30
0.0
 40
1.1
100
AcDbArc
 50
254.173379853
 51
285.82662013
  0
ARC
  5
15E
330
1F
100
AcDbEntity
  8
0
  6
Continuous
 62
     7
100
AcDbCircle
 10
172.604040076
 20
203.439485514
 30
0.0
 40
1.1
100
AcDbArc
 50
74.17337987
 51
105.826620147
  0
LINE
  5
15F
330
1F
100
AcDbEntity
  8
0
  6
Continuous
 62
     2
100
AcDbLine
 10
222.144580765
 20
207.589485165
 30
0.0
 11
219.477914098
 21
203.589485165
 31
0.0
  0
LINE
  5
160
330
1F
100
AcDbEntity
  8
0
  6
Continuous
 62
     2
100
AcDbLine
 10
224.144580765
 20
207.589485165
 30
0.0
 11
221.477914098
 21
203.589485165
 31
0.0
  0
LINE
  5
161
330
1F
100
AcDbEntity
  8
0
  6
Continuous
 62
     7
100
AcDbLine
 10
219.339749262
 20
205.289485165
 30
0.0
 11
206.524602161
 21
205.289485165
 31
0.0
  0
LWPOLYLINE
  5
163
330
1F
100
AcDbEntity
  8
0
  6
Continuous
 62
     2
100
AcDbPolyline
 90
     3
 70
   128
 43
0.0
 10
221.477914098
 20
203.589485165
 10
224.760359858
 20
200.989485165
 10
222.093693192
 20
196.989485165
  0
LWPOLYLINE
  5
165
330
1F
100
AcDbEntity
  8
0
  6
Continuous
 62
     2
100
AcDbPolyline
 90
     3
 70
   128
 43
0.0
 10
219.477914098
 20
203.589485165
 10
222.760359858
 20
200.989485165
 10
220.093693192
 20
196.989485165
  0
LINE
  5
166
330
1F
100
AcDbEntity
  8
0
  6
Continuous
 62
     7
100
AcDbLine
 10
220.375107441
 20
205.289485165
 30
0.0
 11
176.625107441
 21
205.289485165
 31
0.0
  0
LINE
  5
167
330
1F
100
AcDbEntity
  8
0
  6
Continuous
 62
     7
100
AcDbLine
 10
176.603190476
 20
201.589484
 30
0.0
 11
222.002873846
 21
201.589484
 31
0.0
  0
LINE
  5
168
330
1F
100
AcDbEntity
  8
0
  6
Continuous
 62
     7
100
AcDbLine
 10
156.054040052
 20
172.089484408
 30
0.0
 11
156.054040052
 21
159.289484265
 31
0.0
  0
LINE
  5
169
330
1F
100
AcDbEntity
  8
0
  6
Continuous
 62
     7
100
AcDbLine
 10
179.347469048
 20
138.912350991
 30
0.0
 11
178.054040806
 21
140.205779233
 31
0.0
  0
LINE
  5
16A
330
1F
100
AcDbEntity
  8
0
  6
Continuous
 62
     7
100
AcDbLine
 10
178.054040806
 20
129.589484194
 30
0.0
 11
178.054040806
 21
130.78948588
 31
0.0
  0
LINE
  5
16B
330
1F
100
AcDbEntity
  8
0
  6
Continuous
 62
     7
100
AcDbLine
 10
156.054040052
 20
129.589484194
 30
0.0
 11
178.054040806
 21
129.589484194
 31
0.0
  0
LINE
  5
16C
330
1F
100
AcDbEntity
  8
0
  6
Continuous
 62
     7
100
AcDbLine
 10
156.054040052
 20
130.78948588
 30
0.0
 11
156.054040052
 21
129.589484194
 31
0.0
  0
LINE
  5
16D
330
1F
100
AcDbEntity
  8
0
  6
Continuous
 62
     7
100
AcDbLine
 10
178.054040806
 20
172.089484408
 30
0.0
 11
156.054040052
 21
172.089484408
 31
0.0
  0
LINE
  5
16E
330
1F
100
AcDbEntity
  8
0
  6
Continuous
 62
     7
100
AcDbLine
 10
156.054040052
 20
172.089484408
 30
0.0
 11
156.054040052
 21
130.78948588
 31
0.0
  0
LWPOLYLINE
  5
170
330
1F
100
AcDbEntity
  8
0
  6
Continuous
 62
     7
100
AcDbPolyline
 90
   176
 70
   128
 43
0.0
 10
178.054040806
 20
135.151953557
 10
178.059476213
 20
135.147184162
 10
178.064911779
 20
135.142414966
 10
178.070347662
 20
135.137646167
 10
178.07578402
 20
135.132877963
 10
178.081221014
 20
135.128110554
 10
178.0866588
 20
135.123344138
 10
178.092097539
 20
135.118578914
 10
178.097537388
 20
135.11381508
 10
178.102978506
 20
135.109052834
 10
178.108421051
 20
135.104292375
 10
178.113865183
 20
135.099533903
 10
178.11931106
 20
135.094777614
 10
178.12475884
 20
135.090023709
 10
178.130208683
 20
135.085272386
 10
178.135660747
 20
135.080523842
 10
178.14111519
 20
135.075778278
 10
178.146572171
 20
135.07103589
 10
178.152031849
 20
135.066296879
 10
178.157494382
 20
135.061561442
 10
178.162959929
 20
135.056829779
 10
178.168428649
 20
135.052102087
 10
178.173900701
 20
135.047378565
 10
178.179376242
 20
135.042659412
 10
178.184855432
 20
135.037944827
 10
178.190338429
 20
135.033235007
 10
178.195825392
 20
135.028530153
 10
178.201316479
 20
135.023830461
 10
178.206811849
 20
135.019136131
 10
178.212311661
 20
135.014447362
 10
178.217816074
 20
135.009764351
 10
178.223325245
 20
135.005087298
 10
178.228839334
 20
135.000416402
 10
178.2343585
 20
134.99575186
 10
178.2398829
 20
134.991093871
 10
178.245412694
 20
134.986442634
 10
178.290169058
 20
134.949217979
 10
178.335277275
 20
134.912436055
 10
178.380728747
 20
134.876088363
 10
178.426514878
 20
134.840166404
 10
178.47262707
 20
134.804661682
 10
178.519056726
 20
134.769565696
 10
178.565795249
 20
134.734869949
 10
178.612834041
 20
134.700565942
 10
178.660164507
 20
134.666645177
 10
178.707778048
 20
134.633099155
 10
178.755666067
 20
134.599919378
 10
178.803819968
 20
134.567097348
 10
178.852231152
 20
134.534624566
 10
178.900891024
 20
134.502492534
 10
178.949790985
 20
134.470692753
 10
178.998922439
 20
134.439216725
 10
179.048276788
 20
134.408055952
 10
179.097845435
 20
134.377201935
 10
179.147619784
 20
134.346646175
 10
179.197591237
 20
134.316380175
 10
179.247751196
 20
134.286395436
 10
179.298091065
 20
134.256683459
 10
179.348602247
 20
134.227235747
 10
179.399276144
 20
134.1980438
 10
179.45010416
 20
134.16909912
 10
179.501077696
 20
134.140393209
 10
179.552188156
 20
134.111917569
 10
179.603426943
 20
134.083663701
 10
179.65478546
 20
134.055623106
 10
179.706255109
 20
134.027787287
 10
179.757827294
 20
134.000147745
 10
179.809493417
 20
133.972695981
 10
179.861244881
 20
133.945423497
 10
179.913073088
 20
133.918321794
 10
179.964969443
 20
133.891382375
 10
180.017314402
 20
133.864399489
 10
180.069720919
 20
133.837574872
 10
180.12219011
 20
133.810910708
 10
180.174723093
 20
133.784409182
 10
180.227320985
 20
133.758072478
 10
180.279984902
 20
133.731902779
 10
180.332715963
 20
133.705902269
 10
180.385515283
 20
133.680073133
 10
180.43838398
 20
133.654417554
 10
180.491323172
 20
133.628937716
 10
180.544333974
 20
133.603635804
 10
180.597417505
 20
133.578514001
 10
180.650574881
 20
133.553574491
 10
180.703807219
 20
133.528819459
 10
180.757115636
 20
133.504251088
 10
180.81050125
 20
133.479871562
 10
180.863965178
 20
133.455683065
 10
180.917508536
 20
133.431687781
 10
180.971132441
 20
133.407887895
 10
181.024838012
 20
133.38428559
 10
181.078626364
 20
133.36088305
 10
181.132498615
 20
133.337682459
 10
181.186455882
 20
133.314686001
 10
181.240499281
 20
133.29189586
 10
181.294629931
 20
133.269314221
 10
181.348848948
 20
133.246943266
 10
181.403157449
 20
133.22478518
 10
181.457556551
 20
133.202842148
 10
181.512047372
 20
133.181116352
 10
181.566631027
 20
133.159609978
 10
181.621308636
 20
133.138325208
 10
181.676081313
 20
133.117264227
 10
181.730950177
 20
133.096429219
 10
181.785916345
 20
133.075822368
 10
181.840980933
 20
133.055445858
 10
181.905687605
 20
133.031844368
 10
181.970528795
 20
133.008565709
 10
182.035502106
 20
132.985612878
 10
182.100605144
 20
132.962988872
 10
182.165835513
 20
132.940696688
 10
182.231190817
 20
132.91873932
 10
182.296668661
 20
132.897119766
 10
182.362266649
 20
132.875841022
 10
182.427982385
 20
132.854906084
 10
182.493813475
 20
132.834317948
 10
182.559757522
 20
132.814079612
 10
182.625812131
 20
132.79419407
 10
182.691974906
 20
132.77466432
 10
182.758243452
 20
132.755493358
 10
182.824615373
 20
132.73668418
 10
182.891088274
 20
132.718239782
 10
182.957659759
 20
132.700163162
 10
183.024327432
 20
132.682457314
 10
183.091088899
 20
132.665125235
 10
183.157941762
 20
132.648169923
 10
183.224883627
 20
132.631594372
 10
183.291912099
 20
132.615401579
 10
183.359024781
 20
132.599594542
 10
183.426219278
 20
132.584176255
 10
183.493493195
 20
132.569149715
 10
183.560844135
 20
132.554517919
 10
183.628269704
 20
132.540283863
 10
183.695767506
 20
132.526450543
 10
183.763335144
 20
132.513020956
 10
183.830970225
 20
132.499998097
 10
183.898670351
 20
132.487384964
 10
183.966433128
 20
132.475184552
 10
184.03425616
 20
132.463399858
 10
184.102137051
 20
132.452033878
 10
184.170073406
 20
132.441089609
 10
184.236775048
 20
132.430762861
 10
184.303526308
 20
132.420833209
 10
184.370325727
 20
132.411288974
 10
184.437171846
 20
132.402118474
 10
184.504063204
 20
132.393310033
 10
184.570998343
 20
132.38485197
 10
184.637975803
 20
132.376732606
 10
184.704994125
 20
132.368940261
 10
184.77205185
 20
132.361463257
 10
184.839147518
 20
132.354289915
 10
184.90627967
 20
132.347408554
 10
184.973446847
 20
132.340807496
 10
185.040647589
 20
132.334475061
 10
185.107880436
 20
132.32839957
 10
185.17514393
 20
132.322569344
 10
185.242436611
 20
132.316972704
 10
185.30975702
 20
132.311597969
 10
185.377103697
 20
132.306433462
 10
185.444475184
 20
132.301467503
 10
185.51187002
 20
132.296688412
 10
185.579286746
 20
132.29208451
 10
185.646723903
 20
132.287644118
 10
185.714180032
 20
132.283355556
 10
185.781653674
 20
132.279207146
 10
185.849143368
 20
132.275187208
 10
185.916647655
 20
132.271284063
 10
185.984165077
 20
132.267486031
 10
186.051694174
 20
132.263781433
 10
186.119233486
 20
132.26015859
 10
186.186781555
 20
132.256605823
 10
186.25433692
 20
132.253111453
 10
186.321898122
 20
132.249663799
 10
186.389463703
 20
132.246251184
 10
186.457032202
 20
132.242861926
 10
186.524602161
 20
132.239484348
  0
ARC
  5
171
330
1F
100
AcDbEntity
  8
0
  6
Continuous
 62
     7
100
AcDbCircle
 10
186.524602824
 20
146.089484312
 30
0.0
 40
10.149999999
100
AcDbArc
 50
224.999999998
 51
270.0
  0
LINE
  5
172
330
1F
100
AcDbEntity
  8
0
  6
LTYPE1
 62
     3
100
AcDbLine
 10
170.054040076
 20
126.589484498
 30
0.0
 11
170.054040076
 21
133.989484498
 31
0.0
  0
LINE
  5
173
330
1F
100
AcDbEntity
  8
0
  6
LTYPE1
 62
     3
100
AcDbLine
 10
173.054040076
 20
126.589484498
 30
0.0
 11
173.054040076
 21
133.989484498
 31
0.0
  0
LINE
  5
174
330
1F
100
AcDbEntity
  8
0
  6
LTYPE1
 62
     3
100
AcDbLine
 10
161.054040076
 20
126.589484498
 30
0.0
 11
161.054040076
 21
133.989484498
 31
0.0
  0
LINE
  5
175
330
1F
100
AcDbEntity
  8
0
  6
Continuous
 62
     7
100
AcDbLine
 10
196.86381334
 20
135.939483651
 30
0.0
 11
186.524602161
 21
135.939483651
 31
0.0
  0
LINE
  5
176
330
1F
100
AcDbEntity
  8
0
  6
Continuous
 62
     7
100
AcDbLine
 10
186.524602161
 20
132.239484349
 30
0.0
 11
196.880980418
 21
132.239484349
 31
0.0
  0
LINE
  5
177
330
1F
100
AcDbEntity
  8
0
  6
Continuous
 62
     2
100
AcDbLine
 10
278.99476402
 20
131.789484312
 30
0.0
 11
275.99476402
 21
131.289484312
 31
0.0
  0
LINE
  5
178
330
1F
100
AcDbEntity
  8
0
  6
Continuous
 62
     2
100
AcDbLine
 10
278.99476402
 20
131.789484312
 30
0.0
 11
285.49476402
 21
131.789484312
 31
0.0
  0
LINE
  5
179
330
1F
100
AcDbEntity
  8
0
  6
Continuous
 62
     2
100
AcDbLine
 10
265.49476402
 20
131.289484312
 30
0.0
 11
275.99476402
 21
131.289484312
 31
0.0
  0
LINE
  5
17A
330
1F
100
AcDbEntity
  8
0
  6
Continuous
 62
     2
100
AcDbLine
 10
278.99476402
 20
136.589484312
 30
0.0
 11
275.99476402
 21
137.089484312
 31
0.0
  0
LINE
  5
17B
330
1F
100
AcDbEntity
  8
0
  6
Continuous
 62
     2
100
AcDbLine
 10
265.49476402
 20
137.089484312
 30
0.0
 11
265.49476402
 21
131.289484312
 31
0.0
  0
LINE
  5
17C
330
1F
100
AcDbEntity
  8
0
  6
Continuous
 62
     3
100
AcDbLine
 10
275.99476402
 20
137.089484312
 30
0.0
 11
275.99476402
 21
131.289484312
 31
0.0
  0
LINE
  5
17D
330
1F
100
AcDbEntity
  8
0
  6
Continuous
 62
     2
100
AcDbLine
 10
275.99476402
 20
137.089484312
 30
0.0
 11
265.49476402
 21
137.089484312
 31
0.0
  0
LINE
  5
17E
330
1F
100
AcDbEntity
  8
0
  6
Continuous
 62
     2
100
AcDbLine
 10
285.49476402
 20
136.589484312
 30
0.0
 11
285.49476402
 21
131.789484312
 31
0.0
  0
LINE
  5
17F
330
1F
100
AcDbEntity
  8
0
  6
Continuous
 62
     2
100
AcDbLine
 10
285.49476402
 20
136.589484312
 30
0.0
 11
278.99476402
 21
136.589484312
 31
0.0
  0
LWPOLYLINE
  5
181
330
1F
100
AcDbEntity
  8
0
  6
Continuous
 62
     7
100
AcDbPolyline
 90
     4
 70
   128
 43
0.0
 10
326.09476402
 20
139.847938008
 10
325.910220933
 20
140.403649078
 10
325.541134513
 20
140.711385804
 10
324.864476117
 20
140.957575096
  0
LINE
  5
182
330
1F
100
AcDbEntity
  8
0
  6
Continuous
 62
     7
100
AcDbLine
 10
322.742229508
 20
140.126686293
 30
0.0
 11
320.097110614
 21
140.434422571
 31
0.0
  0
LWPOLYLINE
  5
184
330
1F
100
AcDbEntity
  8
0
  6
Continuous
 62
     7
100
AcDbPolyline
 90
     3
 70
   128
 43
0.0
 10
322.742229508
 20
140.126686293
 10
322.888981368
 20
140.031516714
 10
322.956142079
 20
139.847938008
  0
LINE
  5
185
330
1F
100
AcDbEntity
  8
0
  6
Continuous
 62
     7
100
AcDbLine
 10
324.864476117
 20
140.957575096
 30
0.0
 11
319.758781661
 21
141.480727172
 31
0.0
  0
LINE
  5
186
330
1F
100
AcDbEntity
  8
0
  6
Continuous
 62
     7
100
AcDbLine
 10
318.84848686
 20
142.065426683
 30
0.0
 11
317.667292274
 21
142.065426683
 31
0.0
  0
LINE
  5
187
330
1F
100
AcDbEntity
  8
0
  6
Continuous
 62
     7
100
AcDbLine
 10
317.667292274
 20
141.480727172
 30
0.0
 11
317.667292274
 21
142.065426683
 31
0.0
  0
LINE
  5
188
330
1F
100
AcDbEntity
  8
0
  6
Continuous
 62
     7
100
AcDbLine
 10
310.49476402
 20
140.870177611
 30
0.0
 11
310.49476402
 21
142.065426683
 31
0.0
  0
LINE
  5
189
330
1F
100
AcDbEntity
  8
0
  6
Continuous
 62
     7
100
AcDbLine
 10
312.776897882
 20
140.434422571
 30
0.0
 11
310.49476402
 21
140.870177611
 31
0.0
  0
LINE
  5
18A
330
1F
100
AcDbEntity
  8
0
  6
Continuous
 62
     7
100
AcDbLine
 10
313.853399921
 20
141.480727172
 30
0.0
 11
310.49476402
 21
142.065426683
 31
0.0
  0
LINE
  5
18B
330
1F
100
AcDbEntity
  8
0
  6
Continuous
 62
     7
100
AcDbLine
 10
320.097110614
 20
140.434422571
 30
0.0
 11
312.776897882
 21
140.434422571
 31
0.0
  0
LINE
  5
18C
330
1F
100
AcDbEntity
  8
0
  6
Continuous
 62
     7
100
AcDbLine
 10
319.758781661
 20
141.480727172
 30
0.0
 11
313.853399921
 21
141.480727172
 31
0.0
  0
LINE
  5
18D
330
1F
100
AcDbEntity
  8
0
  6
Continuous
 62
     7
100
AcDbLine
 10
319.758781661
 20
141.480727172
 30
0.0
 11
318.84848686
 21
142.065426683
 31
0.0
  0
LINE
  5
18E
330
1F
100
AcDbEntity
  8
0
  6
Continuous
 62
     7
100
AcDbLine
 10
325.295076981
 20
137.7878878
 30
0.0
 11
321.235127096
 21
137.7878878
 31
0.0
  0
LINE
  5
18F
330
1F
100
AcDbEntity
  8
0
  6
Continuous
 62
     7
100
AcDbLine
 10
325.295076981
 20
128.648110972
 30
0.0
 11
321.235127096
 21
128.648110972
 31
0.0
  0
LINE
  5
190
330
1F
100
AcDbEntity
  8
0
  6
Continuous
 62
     7
100
AcDbLine
 10
320.466197034
 20
128.063411461
 30
0.0
 11
320.466197034
 21
138.58800311
 31
0.0
  0
LINE
  5
191
330
1F
100
AcDbEntity
  8
0
  6
Continuous
 62
     7
100
AcDbLine
 10
321.235127096
 20
128.648110972
 30
0.0
 11
321.235127096
 21
137.7878878
 31
0.0
  0
LINE
  5
192
330
1F
100
AcDbEntity
  8
0
  6
Continuous
 62
     7
100
AcDbLine
 10
325.295076981
 20
128.648110972
 30
0.0
 11
325.295076981
 21
137.7878878
 31
0.0
  0
LINE
  5
193
330
1F
100
AcDbEntity
  8
0
  6
Continuous
 62
     7
100
AcDbLine
 10
311.994561087
 20
127.109427788
 30
0.0
 11
312.272164371
 21
127.447938008
 31
0.0
  0
LINE
  5
194
330
1F
100
AcDbEntity
  8
0
  6
Continuous
 62
     7
100
AcDbLine
 10
326.09476402
 20
127.447938008
 30
0.0
 11
312.272164371
 21
127.447938008
 31
0.0
  0
LINE
  5
195
330
1F
100
AcDbEntity
  8
0
  6
Continuous
 62
     7
100
AcDbLine
 10
320.466197034
 20
128.063411461
 30
0.0
 11
310.49476402
 21
128.063411461
 31
0.0
  0
LINE
  5
196
330
1F
100
AcDbEntity
  8
0
  6
Continuous
 62
     7
100
AcDbLine
 10
320.466197034
 20
138.58800311
 30
0.0
 11
310.49476402
 21
138.58800311
 31
0.0
  0
LINE
  5
197
330
1F
100
AcDbEntity
  8
0
  6
Continuous
 62
     7
100
AcDbLine
 10
326.09476402
 20
127.447938008
 30
0.0
 11
326.09476402
 21
139.847938008
 31
0.0
  0
LINE
  5
198
330
1F
100
AcDbEntity
  8
0
  6
Continuous
 62
     7
100
AcDbLine
 10
320.466197034
 20
127.447938008
 30
0.0
 11
320.466197034
 21
139.847938008
 31
0.0
  0
LINE
  5
199
330
1F
100
AcDbEntity
  8
0
  6
Continuous
 62
     7
100
AcDbLine
 10
326.09476402
 20
139.847938008
 30
0.0
 11
310.49476402
 21
139.847938008
 31
0.0
  0
LINE
  5
19A
330
1F
100
AcDbEntity
  8
0
  6
Continuous
 62
     7
100
AcDbLine
 10
310.49476402
 20
127.109427788
 30
0.0
 11
310.49476402
 21
139.847938008
 31
0.0
  0
LINE
  5
19B
330
1F
100
AcDbEntity
  8
0
  6
Continuous
 62
     7
100
AcDbLine
 10
311.994561087
 20
127.109427788
 30
0.0
 11
310.49476402
 21
127.109427788
 31
0.0
  0
LINE
  5
19C
330
1F
100
AcDbEntity
  8
0
  6
Continuous
 62
     3
100
AcDbLine
 10
318.824602824
 20
142.344083605
 30
0.0
 11
318.497104629
 21
144.822539764
 31
0.0
  0
LINE
  5
19D
330
1F
100
AcDbEntity
  8
0
  6
Continuous
 62
     3
100
AcDbLine
 10
318.824602824
 20
142.344083605
 30
0.0
 11
317.301752988
 21
144.326740504
 31
0.0
  0
LINE
  5
19E
330
1F
100
AcDbEntity
  8
0
  6
Continuous
 62
     3
100
AcDbLine
 10
318.824602824
 20
142.344083605
 30
0.0
 11
309.865511915
 21
163.944083605
 31
0.0
  0
LINE
  5
19F
330
1F
100
AcDbEntity
  8
0
  6
Continuous
 62
     3
100
AcDbLine
 10
285.67844411
 20
135.811892718
 30
0.0
 11
310.49476402
 21
137.457313453
 31
0.0
  0
LINE
  5
1A0
330
1F
100
AcDbEntity
  8
0
  6
Continuous
 62
     3
100
AcDbLine
 10
285.744602824
 20
134.814083605
 30
0.0
 11
310.49476402
 21
136.455117755
 31
0.0
  0
LINE
  5
1A1
330
1F
100
AcDbEntity
  8
0
  6
Continuous
 62
     3
100
AcDbLine
 10
310.49476402
 20
133.493221679
 30
0.0
 11
285.534182921
 21
134.477905671
 31
0.0
  0
LINE
  5
1A2
330
1F
100
AcDbEntity
  8
0
  6
Continuous
 62
     3
100
AcDbLine
 10
310.49476402
 20
132.492443847
 30
0.0
 11
285.49476402
 21
133.478682898
 31
0.0
  0
LINE
  5
1A3
330
1F
100
AcDbEntity
  8
0
  6
Continuous
 62
     3
100
AcDbLine
 10
310.49476402
 20
130.826956642
 30
0.0
 11
285.49476402
 21
133.478682898
 31
0.0
  0
LINE
  5
1A4
330
1F
100
AcDbEntity
  8
0
  6
Continuous
 62
     3
100
AcDbLine
 10
310.49476402
 20
129.821347054
 30
0.0
 11
285.389286655
 21
132.484261194
 31
0.0
  0
LINE
  5
1A5
330
1F
100
AcDbEntity
  8
0
  6
Continuous
 62
     3
100
AcDbLine
 10
265.524602824
 20
129.594083605
 30
0.0
 11
265.524602824
 21
119.094083605
 31
0.0
  0
LINE
  5
1A6
330
1F
100
AcDbEntity
  8
0
  6
Continuous
 62
     3
100
AcDbLine
 10
265.524602824
 20
121.094083605
 30
0.0
 11
267.939417389
 21
120.447035992
 31
0.0
  0
LINE
  5
1A7
330
1F
100
AcDbEntity
  8
0
  6
Continuous
 62
     3
100
AcDbLine
 10
265.524602824
 20
121.094083605
 30
0.0
 11
267.939417389
 21
121.741131218
 31
0.0
  0
MTEXT
  5
1A8
330
1F
100
AcDbEntity
  8
0
  6
Continuous
 62
     3
100
AcDbMText
 10
271.474602824
 20
122.094083605
 30
0.0
 40
3.0
 41
16.2
 71
     7
 72
     1
  1
\T1.167;\W0.600;（１５）
  7
KANJI0
 73
     1
 44
1.0
  0
LWPOLYLINE
  5
1AA
330
1F
100
AcDbEntity
  8
0
  6
Continuous
 62
     3
100
AcDbPolyline
 90
     3
 70
   128
 43
0.0
 10
265.524602824
 20
121.094083605
 10
285.524602824
 20
121.094083605
 10
283.109788258
 20
121.741131218
  0
LINE
  5
1AB
330
1F
100
AcDbEntity
  8
0
  6
Continuous
 62
     3
100
AcDbLine
 10
285.524602824
 20
121.094083605
 30
0.0
 11
283.109788258
 21
120.447035992
 31
0.0
  0
LINE
  5
1AC
330
1F
100
AcDbEntity
  8
0
  6
Continuous
 62
     3
100
AcDbLine
 10
285.524602824
 20
129.694083605
 30
0.0
 11
285.524602824
 21
119.094083605
 31
0.0
  0
LINE
  5
1AD
330
1F
100
AcDbEntity
  8
0
  6
Continuous
 62
     3
100
AcDbLine
 10
285.524602824
 20
129.094083605
 30
0.0
 11
285.524602824
 21
119.094083605
 31
0.0
  0
LINE
  5
1AE
330
1F
100
AcDbEntity
  8
0
  6
Continuous
 62
     3
100
AcDbLine
 10
285.524602824
 20
128.894083605
 30
0.0
 11
285.524602824
 21
119.094083605
 31
0.0
  0
LINE
  5
1AF
330
1F
100
AcDbEntity
  8
0
  6
Continuous
 62
     3
100
AcDbLine
 10
285.524602824
 20
121.094083605
 30
0.0
 11
287.939417389
 21
120.447035992
 31
0.0
  0
LINE
  5
1B0
330
1F
100
AcDbEntity
  8
0
  6
Continuous
 62
     3
100
AcDbLine
 10
285.524602824
 20
121.094083605
 30
0.0
 11
287.939417389
 21
121.741131218
 31
0.0
  0
LINE
  5
1B1
330
1F
100
AcDbEntity
  8
0
  6
Continuous
 62
     3
100
AcDbLine
 10
310.524602824
 20
121.094083605
 30
0.0
 11
308.109788258
 21
121.741131218
 31
0.0
  0
LINE
  5
1B2
330
1F
100
AcDbEntity
  8
0
  6
Continuous
 62
     3
100
AcDbLine
 10
310.524602824
 20
121.094083605
 30
0.0
 11
308.109788258
 21
120.447035992
 31
0.0
  0
LINE
  5
1B3
330
1F
100
AcDbEntity
  8
0
  6
Continuous
 62
     3
100
AcDbLine
 10
285.524602824
 20
121.094083605
 30
0.0
 11
310.524602824
 21
121.094083605
 31
0.0
  0
MTEXT
  5
1B4
330
1F
100
AcDbEntity
  8
0
  6
Continuous
 62
     3
100
AcDbMText
 10
293.974602824
 20
122.094083605
 30
0.0
 40
3.0
 41
16.2
 71
     7
 72
     1
  1
\T1.167;\W0.600;（１５）
  7
KANJI0
 73
     1
 44
1.0
  0
LINE
  5
1B5
330
1F
100
AcDbEntity
  8
0
  6
Continuous
 62
     2
100
AcDbLine
 10
232.044076148
 20
138.239484312
 30
0.0
 11
229.377409481
 21
134.239484312
 31
0.0
  0
LINE
  5
1B6
330
1F
100
AcDbEntity
  8
0
  6
Continuous
 62
     2
100
AcDbLine
 10
234.044076148
 20
138.239484312
 30
0.0
 11
231.377409481
 21
134.239484312
 31
0.0
  0
LINE
  5
1B7
330
1F
100
AcDbEntity
  8
0
  6
Continuous
 62
     7
100
AcDbLine
 10
229.239244645
 20
135.939484312
 30
0.0
 11
216.424097544
 21
135.939484312
 31
0.0
  0
LWPOLYLINE
  5
1B9
330
1F
100
AcDbEntity
  8
0
  6
Continuous
 62
     2
100
AcDbPolyline
 90
     3
 70
   128
 43
0.0
 10
231.377409481
 20
134.239484312
 10
234.659855242
 20
131.639484312
 10
231.993188575
 20
127.639484312
  0
LWPOLYLINE
  5
1BB
330
1F
100
AcDbEntity
  8
0
  6
Continuous
 62
     2
100
AcDbPolyline
 90
     3
 70
   128
 43
0.0
 10
229.377409481
 20
134.239484312
 10
232.659855242
 20
131.639484312
 10
229.993188575
 20
127.639484312
  0
LINE
  5
1BC
330
1F
100
AcDbEntity
  8
0
  6
Continuous
 62
     7
100
AcDbLine
 10
265.377757596
 20
135.939484312
 30
0.0
 11
232.724602824
 21
135.939484312
 31
0.0
  0
LINE
  5
1BD
330
1F
100
AcDbEntity
  8
0
  6
Continuous
 62
     7
100
AcDbLine
 10
233.90236923
 20
132.239483147
 30
0.0
 11
265.377757596
 21
132.239483147
 31
0.0
  0
LINE
  5
1BE
330
1F
100
AcDbEntity
  8
0
  6
Continuous
 62
     7
100
AcDbLine
 10
230.274602824
 20
135.939484312
 30
0.0
 11
186.524602824
 21
135.939484312
 31
0.0
  0
LINE
  5
1BF
330
1F
100
AcDbEntity
  8
0
  6
Continuous
 62
     7
100
AcDbLine
 10
186.502685859
 20
132.239483147
 30
0.0
 11
231.90236923
 21
132.239483147
 31
0.0
  0
MTEXT
  5
1C0
330
1F
100
AcDbEntity
  8
0
  6
Continuous
 62
     3
100
AcDbMText
 10
259.734602824
 20
159.904083605
 30
0.0
 40
3.0
 41
84.6
 71
     7
 72
     1
  1
\T1.222;\W0.900;ボディ色：黒、カバー色：黄
  7
KANJI1
 73
     1
 44
1.0
  0
LINE
  5
1C2
330
1F
100
AcDbEntity
  8
0
  6
Continuous
 62
     3
100
AcDbLine
 10
309.865511915
 20
163.944083605
 30
0.0
 11
259.524602824
 21
163.944083605
 31
0.0
  0
MTEXT
  5
1C3
330
1F
100
AcDbEntity
  8
0
  6
Continuous
 62
     3
100
AcDbMText
 10
259.734602824
 20
168.904083605
 30
0.0
 40
3.0
 41
91.2
 71
     7
 72
     1
  1
\T1.222;\W0.900;ｅ－ＣＯＮプラグ４極＜３Ｍ＞
  7
KANJI1
 73
     1
 44
1.0
  0
MTEXT
  5
1C4
330
1F
100
AcDbEntity
  8
0
  6
Continuous
 62
     3
100
AcDbMText
 10
259.734602824
 20
164.904083605
 30
0.0
 40
3.0
 41
104.4
 71
     7
 72
     1
  1
\T1.222;\W0.900;３７１０４－３１２２－０００ＦＬ
  7
KANJI1
 73
     1
 44
1.0
  0
LINE
  5
1C5
330
1F
100
AcDbEntity
  8
0
  6
Continuous
 62
     7
100
AcDbLine
 10
272.322626557
 20
233.251953377
 30
0.0
 11
272.322626557
 21
232.251953213
 31
0.0
  0
LINE
  5
1C6
330
1F
100
AcDbEntity
  8
0
  6
Continuous
 62
     7
100
AcDbLine
 10
284.322626661
 20
232.251953213
 30
0.0
 11
284.322626661
 21
233.251953377
 31
0.0
  0
LINE
  5
1C7
330
1F
100
AcDbEntity
  8
0
  6
Continuous
 62
     7
100
AcDbLine
 10
272.822626581
 20
232.251953213
 30
0.0
 11
272.822626581
 21
229.377561128
 31
0.0
  0
LINE
  5
1C8
330
1F
100
AcDbEntity
  8
0
  6
Continuous
 62
     7
100
AcDbLine
 10
283.822626579
 20
229.377561128
 30
0.0
 11
283.822626579
 21
232.251953213
 31
0.0
  0
ARC
  5
1C9
330
1F
100
AcDbEntity
  8
0
  6
Continuous
 62
     7
100
AcDbCircle
 10
278.322626557
 20
242.251953557
 30
0.0
 40
14.0
100
AcDbArc
 50
246.867604176
 51
255.095379449
  0
ARC
  5
1CA
330
1F
100
AcDbEntity
  8
0
  6
Continuous
 62
     7
100
AcDbCircle
 10
278.322626557
 20
242.251953557
 30
0.0
 40
14.0
100
AcDbArc
 50
284.898607071
 51
293.132395824
  0
LINE
  5
1CB
330
1F
100
AcDbEntity
  8
0
  6
Continuous
 62
     7
100
AcDbLine
 10
312.322625663
 20
243.151953556
 30
0.0
 11
315.293190773
 21
243.151953556
 31
0.0
  0
LINE
  5
1CC
330
1F
100
AcDbEntity
  8
0
  6
Continuous
 62
     7
100
AcDbLine
 10
315.293190773
 20
250.551953558
 30
0.0
 11
312.322625663
 21
250.551953558
 31
0.0
  0
LWPOLYLINE
  5
1CE
330
1F
100
AcDbEntity
  8
0
  6
Continuous
 62
     7
100
AcDbPolyline
 90
   196
 70
   128
 43
0.0
 10
326.63308036
 20
250.551953558
 10
326.567187418
 20
250.551953558
 10
326.501339978
 20
250.551953558
 10
326.435538572
 20
250.551953558
 10
326.369783732
 20
250.551953558
 10
326.30407599
 20
250.551953558
 10
326.23841588
 20
250.551953558
 10
326.172803932
 20
250.551953558
 10
326.10724068
 20
250.551953558
 10
326.041726656
 20
250.551953558
 10
325.976262392
 20
250.551953558
 10
325.910848421
 20
250.551953558
 10
325.845485274
 20
250.551953558
 10
325.780173485
 20
250.551953558
 10
325.714913585
 20
250.551953558
 10
325.649706107
 20
250.551953558
 10
325.584551583
 20
250.551953558
 10
325.519450546
 20
250.551953558
 10
325.454403527
 20
250.551953558
 10
325.389411059
 20
250.551953558
 10
325.324473675
 20
250.551953558
 10
325.259271993
 20
250.551953558
 10
325.194126969
 20
250.551953558
 10
325.129039095
 20
250.551953558
 10
325.064008865
 20
250.551953558
 10
324.99903677
 20
250.551953558
 10
324.934123302
 20
250.551953558
 10
324.869268955
 20
250.551953558
 10
324.804474221
 20
250.551953558
 10
324.739739592
 20
250.551953558
 10
324.67506556
 20
250.551953558
 10
324.610452618
 20
250.551953558
 10
324.545901258
 20
250.551953558
 10
324.481411973
 20
250.551953558
 10
324.416985256
 20
250.551953558
 10
324.352621597
 20
250.551953558
 10
324.288321491
 20
250.551953558
 10
324.224085429
 20
250.551953558
 10
324.159913904
 20
250.551953558
 10
324.095807408
 20
250.551953558
 10
324.031766433
 20
250.551953558
 10
323.967791473
 20
250.551953558
 10
323.903883019
 20
250.551953558
 10
323.840041564
 20
250.551953558
 10
323.7762676
 20
250.551953558
 10
323.712561619
 20
250.551953558
 10
323.648924115
 20
250.551953558
 10
323.585355579
 20
250.551953558
 10
323.521856504
 20
250.551953558
 10
323.458427382
 20
250.551953558
 10
323.395068706
 20
250.551953558
 10
323.331780968
 20
250.551953558
 10
323.268564661
 20
250.551953558
 10
323.205420276
 20
250.551953558
 10
323.142348307
 20
250.551953558
 10
323.079349246
 20
250.551953558
 10
323.016423699
 20
250.551953558
 10
322.953572144
 20
250.551953558
 10
322.890795172
 20
250.551953558
 10
322.828093373
 20
250.551953558
 10
322.76546734
 20
250.551953558
 10
322.702917662
 20
250.551953558
 10
322.640444933
 20
250.551953558
 10
322.578049743
 20
250.551953558
 10
322.515732682
 20
250.551953558
 10
322.453494344
 20
250.551953558
 10
322.391335318
 20
250.551953558
 10
322.329256197
 20
250.551953558
 10
322.267257571
 20
250.551953558
 10
322.205340032
 20
250.551953558
 10
322.143504171
 20
250.551953558
 10
322.081750579
 20
250.551953558
 10
322.020079848
 20
250.551953558
 10
321.958492569
 20
250.551953558
 10
321.896989334
 20
250.551953558
 10
321.835570733
 20
250.551953558
 10
321.774237358
 20
250.551953558
 10
321.7129898
 20
250.551953558
 10
321.65182865
 20
250.551953558
 10
321.590754501
 20
250.551953558
 10
321.529767942
 20
250.551953558
 10
321.468869566
 20
250.551953558
 10
321.408059964
 20
250.551953558
 10
321.347339726
 20
250.551953558
 10
321.286709445
 20
250.551953558
 10
321.226169712
 20
250.551953558
 10
321.165721117
 20
250.551953558
 10
321.105364253
 20
250.551953558
 10
321.04509971
 20
250.551953558
 10
320.984928079
 20
250.551953558
 10
320.924849953
 20
250.551953558
 10
320.865159895
 20
250.551953558
 10
320.805563127
 20
250.551953558
 10
320.746059763
 20
250.551953558
 10
320.686649919
 20
250.551953558
 10
320.62733371
 20
250.551953558
 10
320.568111252
 20
250.551953558
 10
320.508982659
 20
250.551953558
 10
320.449948046
 20
250.551953558
 10
320.39100753
 20
250.551953558
 10
320.332161224
 20
250.551953558
 10
320.273409244
 20
250.551953558
 10
320.214751706
 20
250.551953558
 10
320.156188724
 20
250.551953558
 10
320.097720414
 20
250.551953558
 10
320.039346891
 20
250.551953558
 10
319.98106827
 20
250.551953558
 10
319.922884666
 20
250.551953558
 10
319.864796194
 20
250.551953558
 10
319.80680297
 20
250.551953558
 10
319.748905109
 20
250.551953558
 10
319.691102726
 20
250.551953558
 10
319.633395935
 20
250.551953558
 10
319.575784853
 20
250.551953558
 10
319.518269595
 20
250.551953558
 10
319.460850275
 20
250.551953558
 10
319.403527009
 20
250.551953558
 10
319.346299911
 20
250.551953558
 10
319.289169098
 20
250.551953558
 10
319.232134685
 20
250.551953558
 10
319.175196785
 20
250.551953558
 10
319.118355516
 20
250.551953558
 10
319.061610991
 20
250.551953558
 10
319.004963326
 20
250.551953558
 10
318.948412637
 20
250.551953558
 10
318.891959037
 20
250.551953558
 10
318.836150619
 20
250.551953558
 10
318.780439228
 20
250.551953558
 10
318.724826565
 20
250.551953558
 10
318.669314335
 20
250.551953558
 10
318.613904239
 20
250.551953558
 10
318.55859798
 20
250.551953558
 10
318.503397262
 20
250.551953558
 10
318.448303786
 20
250.551953558
 10
318.393319257
 20
250.551953558
 10
318.338445375
 20
250.551953558
 10
318.283683845
 20
250.551953558
 10
318.229036368
 20
250.551953558
 10
318.174504648
 20
250.551953558
 10
318.120090388
 20
250.551953558
 10
318.065795289
 20
250.551953558
 10
318.011621055
 20
250.551953558
 10
317.957569389
 20
250.551953558
 10
317.903641993
 20
250.551953558
 10
317.84984057
 20
250.551953558
 10
317.796166823
 20
250.551953558
 10
317.742622454
 20
250.551953558
 10
317.689209166
 20
250.551953558
 10
317.635928663
 20
250.551953558
 10
317.582782646
 20
250.551953558
 10
317.529772819
 20
250.551953558
 10
317.476900883
 20
250.551953558
 10
317.424168543
 20
250.551953558
 10
317.3715775
 20
250.551953558
 10
317.319129458
 20
250.551953558
 10
317.266826119
 20
250.551953558
 10
317.214669186
 20
250.551953558
 10
317.162660361
 20
250.551953558
 10
317.110801348
 20
250.551953558
 10
317.059093849
 20
250.551953558
 10
317.007539566
 20
250.551953558
 10
316.956876893
 20
250.551953558
 10
316.906360418
 20
250.551953558
 10
316.855985841
 20
250.551953558
 10
316.805748863
 20
250.551953558
 10
316.755645182
 20
250.551953558
 10
316.705670501
 20
250.551953558
 10
316.655820517
 20
250.551953558
 10
316.606090932
 20
250.551953558
 10
316.556477446
 20
250.551953558
 10
316.506975759
 20
250.551953558
 10
316.45758157
 20
250.551953558
 10
316.408290579
 20
250.551953558
 10
316.359098488
 20
250.551953558
 10
316.310000995
 20
250.551953558
 10
316.260993801
 20
250.551953558
 10
316.212072607
 20
250.551953558
 10
316.163233111
 20
250.551953558
 10
316.114471014
 20
250.551953558
 10
316.065782016
 20
250.551953558
 10
316.017161818
 20
250.551953558
 10
315.968606118
 20
250.551953558
 10
315.920110618
 20
250.551953558
 10
315.871671017
 20
250.551953558
 10
315.823283016
 20
250.551953558
 10
315.774942314
 20
250.551953558
 10
315.726644611
 20
250.551953558
 10
315.678385608
 20
250.551953558
 10
315.630161005
 20
250.551953558
 10
315.581966501
 20
250.551953558
 10
315.533797797
 20
250.551953558
 10
315.485650593
 20
250.551953558
 10
315.437520588
 20
250.551953558
 10
315.389403483
 20
250.551953558
 10
315.341294978
 20
250.551953558
 10
315.293190773
 20
250.551953558
  0
LWPOLYLINE
  5
1D0
330
1F
100
AcDbEntity
  8
0
  6
Continuous
 62
     7
100
AcDbPolyline
 90
   148
 70
   128
 43
0.0
 10
315.293190773
 20
243.151953556
 10
315.341294978
 20
243.151953556
 10
315.389403483
 20
243.151953556
 10
315.437520588
 20
243.151953556
 10
315.485650593
 20
243.151953556
 10
315.533797797
 20
243.151953556
 10
315.581966501
 20
243.151953556
 10
315.630161005
 20
243.151953556
 10
315.678385608
 20
243.151953556
 10
315.726644611
 20
243.151953556
 10
315.774942314
 20
243.151953556
 10
315.823283016
 20
243.151953556
 10
315.871671017
 20
243.151953556
 10
315.920110618
 20
243.151953556
 10
315.968606118
 20
243.151953556
 10
316.017161818
 20
243.151953556
 10
316.065782016
 20
243.151953556
 10
316.114471014
 20
243.151953556
 10
316.163233111
 20
243.151953556
 10
316.212072607
 20
243.151953556
 10
316.260993801
 20
243.151953556
 10
316.310000995
 20
243.151953556
 10
316.359098488
 20
243.151953556
 10
316.408290579
 20
243.151953556
 10
316.45758157
 20
243.151953556
 10
316.506975759
 20
243.151953556
 10
316.556477446
 20
243.151953556
 10
316.606090932
 20
243.151953556
 10
316.655820517
 20
243.151953556
 10
316.705670501
 20
243.151953556
 10
316.755645182
 20
243.151953556
 10
316.805748863
 20
243.151953556
 10
316.855985841
 20
243.151953556
 10
316.906360418
 20
243.151953556
 10
316.956876893
 20
243.151953556
 10
317.007539566
 20
243.151953556
 10
317.059093849
 20
243.151953556
 10
317.110801348
 20
243.151953556
 10
317.162660361
 20
243.151953556
 10
317.214669186
 20
243.151953556
 10
317.266826119
 20
243.151953556
 10
317.319129458
 20
243.151953556
 10
317.3715775
 20
243.151953556
 10
317.424168543
 20
243.151953556
 10
317.476900883
 20
243.151953556
 10
317.529772819
 20
243.151953556
 10
317.582782646
 20
243.151953556
 10
317.635928663
 20
243.151953556
 10
317.689209166
 20
243.151953556
 10
317.742622454
 20
243.151953556
 10
317.796166823
 20
243.151953556
 10
317.84984057
 20
243.151953556
 10
317.903641993
 20
243.151953556
 10
317.957569389
 20
243.151953556
 10
318.011621055
 20
243.151953556
 10
318.065795289
 20
243.151953556
 10
318.120090388
 20
243.151953556
 10
318.174504648
 20
243.151953556
 10
318.229036368
 20
243.151953556
 10
318.283683845
 20
243.151953556
 10
318.338445375
 20
243.151953556
 10
318.393319257
 20
243.151953556
 10
318.448303786
 20
243.151953556
 10
318.503397262
 20
243.151953556
 10
318.55859798
 20
243.151953556
 10
318.613904239
 20
243.151953556
 10
318.669314335
 20
243.151953556
 10
318.724826565
 20
243.151953556
 10
318.780439228
 20
243.151953556
 10
318.836150619
 20
243.151953556
 10
318.891959037
 20
243.151953556
 10
318.948412637
 20
243.151953556
 10
319.004963326
 20
243.151953556
 10
319.061610991
 20
243.151953556
 10
319.118355516
 20
243.151953556
 10
319.175196785
 20
243.151953556
 10
319.232134685
 20
243.151953556
 10
319.289169098
 20
243.151953556
 10
319.346299911
 20
243.151953556
 10
319.403527009
 20
243.151953556
 10
319.460850275
 20
243.151953556
 10
319.518269595
 20
243.151953556
 10
319.575784853
 20
243.151953556
 10
319.633395935
 20
243.151953556
 10
319.691102726
 20
243.151953556
 10
319.748905109
 20
243.151953556
 10
319.80680297
 20
243.151953556
 10
319.864796194
 20
243.151953556
 10
319.922884666
 20
243.151953556
 10
319.98106827
 20
243.151953556
 10
320.039346891
 20
243.151953556
 10
320.097720414
 20
243.151953556
 10
320.156188724
 20
243.151953556
 10
320.214751706
 20
243.151953556
 10
320.273409244
 20
243.151953556
 10
320.332161224
 20
243.151953556
 10
320.39100753
 20
243.151953556
 10
320.449948046
 20
243.151953556
 10
320.508982659
 20
243.151953556
 10
320.568111252
 20
243.151953556
 10
320.62733371
 20
243.151953556
 10
320.686649919
 20
243.151953556
 10
320.746059763
 20
243.151953556
 10
320.805563127
 20
243.151953556
 10
320.865159895
 20
243.151953556
 10
320.924849953
 20
243.151953556
 10
320.984928079
 20
243.151953556
 10
321.04509971
 20
243.151953556
 10
321.105364253
 20
243.151953556
 10
321.165721117
 20
243.151953556
 10
321.226169712
 20
243.151953556
 10
321.286709445
 20
243.151953556
 10
321.347339726
 20
243.151953556
 10
321.408059964
 20
243.151953556
 10
321.468869566
 20
243.151953556
 10
321.529767942
 20
243.151953556
 10
321.590754501
 20
243.151953556
 10
321.65182865
 20
243.151953556
 10
321.7129898
 20
243.151953556
 10
321.774237358
 20
243.151953556
 10
321.835570733
 20
243.151953556
 10
321.896989334
 20
243.151953556
 10
321.958492569
 20
243.151953556
 10
322.020079848
 20
243.151953556
 10
322.081750579
 20
243.151953556
 10
322.143504171
 20
243.151953556
 10
322.205340032
 20
243.151953556
 10
322.267257571
 20
243.151953556
 10
322.329256197
 20
243.151953556
 10
322.391335318
 20
243.151953556
 10
322.453494344
 20
243.151953556
 10
322.515732682
 20
243.151953556
 10
322.578049743
 20
243.151953556
 10
322.640444933
 20
243.151953556
 10
322.702917662
 20
243.151953556
 10
322.76546734
 20
243.151953556
 10
322.828093373
 20
243.151953556
 10
322.890795172
 20
243.151953556
 10
322.953572144
 20
243.151953556
 10
323.016423699
 20
243.151953556
 10
323.079349246
 20
243.151953556
 10
323.142348307
 20
243.151953556
 10
323.205420276
 20
243.151953556
 10
323.268564661
 20
243.151953556
 10
323.331780968
 20
243.151953556
 10
323.395068706
 20
243.151953556
 10
323.458427382
 20
243.151953556
 10
323.521856504
 20
243.151953556
  0
LWPOLYLINE
  5
1D2
330
1F
100
AcDbEntity
  8
0
  6
Continuous
 62
     7
100
AcDbPolyline
 90
    48
 70
   128
 43
0.0
 10
323.585355579
 20
243.151953556
 10
323.648924115
 20
243.151953556
 10
323.712561619
 20
243.151953556
 10
323.7762676
 20
243.151953556
 10
323.840041564
 20
243.151953556
 10
323.903883019
 20
243.151953556
 10
323.967791473
 20
243.151953556
 10
324.031766433
 20
243.151953556
 10
324.095807408
 20
243.151953556
 10
324.159913904
 20
243.151953556
 10
324.224085429
 20
243.151953556
 10
324.288321491
 20
243.151953556
 10
324.352621597
 20
243.151953556
 10
324.416985256
 20
243.151953556
 10
324.481411973
 20
243.151953556
 10
324.545901258
 20
243.151953556
 10
324.610452618
 20
243.151953556
 10
324.67506556
 20
243.151953556
 10
324.739739592
 20
243.151953556
 10
324.804474221
 20
243.151953556
 10
324.869268955
 20
243.151953556
 10
324.934123302
 20
243.151953556
 10
324.99903677
 20
243.151953556
 10
325.064008865
 20
243.151953556
 10
325.129039095
 20
243.151953556
 10
325.194126969
 20
243.151953556
 10
325.259271993
 20
243.151953556
 10
325.324473675
 20
243.151953556
 10
325.389411059
 20
243.151953556
 10
325.454403527
 20
243.151953556
 10
325.519450546
 20
243.151953556
 10
325.584551583
 20
243.151953556
 10
325.649706107
 20
243.151953556
 10
325.714913585
 20
243.151953556
 10
325.780173485
 20
243.151953556
 10
325.845485274
 20
243.151953556
 10
325.910848421
 20
243.151953556
 10
325.976262392
 20
243.151953556
 10
326.041726656
 20
243.151953556
 10
326.10724068
 20
243.151953556
 10
326.172803932
 20
243.151953556
 10
326.23841588
 20
243.151953556
 10
326.30407599
 20
243.151953556
 10
326.369783732
 20
243.151953556
 10
326.435538572
 20
243.151953556
 10
326.501339978
 20
243.151953556
 10
326.567187418
 20
243.151953556
 10
326.63308036
 20
243.151953556
  0
LINE
  5
1D3
330
1F
100
AcDbEntity
  8
0
  6
Continuous
 62
     7
100
AcDbLine
 10
284.322626661
 20
232.251953213
 30
0.0
 11
272.322626557
 21
232.251953213
 31
0.0
  0
LINE
  5
1D4
330
1F
100
AcDbEntity
  8
0
  6
Continuous
 62
     7
100
AcDbLine
 10
272.822626697
 20
229.377561128
 30
0.0
 11
283.822626579
 21
229.377561128
 31
0.0
  0
LINE
  5
1D5
330
1F
100
AcDbEntity
  8
0
  6
Continuous
 62
     7
100
AcDbLine
 10
277.522626571
 20
228.746398231
 30
0.0
 11
279.122626647
 21
228.746398231
 31
0.0
  0
LWPOLYLINE
  5
1D7
330
1F
100
AcDbEntity
  8
0
  6
Continuous
 62
     7
100
AcDbPolyline
 90
    71
 70
   128
 43
0.0
 10
281.922627013
 20
228.722735188
 10
281.922627013
 20
228.722734921
 10
281.922627013
 20
228.722734655
 10
281.922627013
 20
228.722734389
 10
281.922627013
 20
228.722734123
 10
281.922627013
 20
228.722733856
 10
281.922627013
 20
228.72273359
 10
281.922627013
 20
228.722733324
 10
281.922627013
 20
228.722733058
 10
281.922627013
 20
228.722732792
 10
281.922627013
 20
228.722732526
 10
281.922627013
 20
228.722732259
 10
281.922627013
 20
228.722731993
 10
281.922627013
 20
228.722731727
 10
281.922627013
 20
228.722731461
 10
281.922627013
 20
228.722731195
 10
281.922627013
 20
228.722730929
 10
281.922627013
 20
228.722730662
 10
281.922627013
 20
228.722730396
 10
281.922627013
 20
228.72273013
 10
281.922627013
 20
228.722729864
 10
281.922627013
 20
228.722729598
 10
281.922627013
 20
228.722729332
 10
281.922627013
 20
228.722729066
 10
281.922627013
 20
228.7227288
 10
281.922627013
 20
228.722728534
 10
281.922627013
 20
228.722728268
 10
281.922627013
 20
228.722728002
 10
281.922627013
 20
228.722727736
 10
281.922627013
 20
228.72272747
 10
281.922627013
 20
228.722727204
 10
281.922627013
 20
228.722726938
 10
281.922627013
 20
228.722726672
 10
281.922627013
 20
228.722726406
 10
281.922627013
 20
228.72272614
 10
281.922627013
 20
228.722725874
 10
281.922627013
 20
228.722150469
 10
281.922627013
 20
228.721683912
 10
281.922627013
 20
228.721323002
 10
281.922627013
 20
228.721064538
 10
281.922627013
 20
228.720905318
 10
281.922627013
 20
228.720842141
 10
281.922627013
 20
228.720871805
 10
281.922627013
 20
228.72099111
 10
281.922627013
 20
228.721196853
 10
281.922627013
 20
228.721485833
 10
281.922627013
 20
228.721854849
 10
281.922627013
 20
228.722300699
 10
281.922627013
 20
228.722820182
 10
281.922627013
 20
228.723410096
 10
281.922627013
 20
228.724067241
 10
281.922627013
 20
228.724788414
 10
281.922627013
 20
228.725570414
 10
281.922627013
 20
228.72641004
 10
281.922627013
 20
228.72730409
 10
281.922627013
 20
228.728249363
 10
281.922627013
 20
228.729242658
 10
281.922627013
 20
228.730280772
 10
281.922627013
 20
228.731360506
 10
281.922627013
 20
228.732478656
 10
281.922627013
 20
228.733632022
 10
281.922627013
 20
228.734817402
 10
281.922627013
 20
228.736031595
 10
281.922627013
 20
228.7372714
 10
281.922627013
 20
228.738533614
 10
281.922627013
 20
228.739815037
 10
281.922627013
 20
228.741112468
 10
281.922627013
 20
228.742422704
 10
281.922627013
 20
228.743742544
 10
281.922627013
 20
228.745068787
 10
281.922627013
 20
228.746398231
  0
LINE
  5
1D8
330
1F
100
AcDbEntity
  8
0
  6
Continuous
 62
     7
100
AcDbLine
 10
281.922626082
 20
228.746398231
 30
0.0
 11
279.122626647
 21
228.297742894
 31
0.0
  0
LWPOLYLINE
  5
1DA
330
1F
100
AcDbEntity
  8
0
  6
Continuous
 62
     7
100
AcDbPolyline
 90
    71
 70
   128
 43
0.0
 10
279.122626647
 20
228.297742894
 10
279.122626647
 20
228.304126483
 10
279.122626647
 20
228.310522776
 10
279.122626647
 20
228.316944475
 10
279.122626647
 20
228.323404284
 10
279.122626647
 20
228.329914907
 10
279.122626647
 20
228.336489046
 10
279.122626647
 20
228.343139406
 10
279.122626647
 20
228.349878689
 10
279.122626647
 20
228.356719599
 10
279.122626647
 20
228.36367484
 10
279.122626647
 20
228.370757114
 10
279.122626647
 20
228.377979125
 10
279.122626647
 20
228.385353577
 10
279.122626647
 20
228.392893172
 10
279.122626647
 20
228.400610615
 10
279.122626647
 20
228.408518608
 10
279.122626647
 20
228.416629855
 10
279.122626647
 20
228.424957059
 10
279.122626647
 20
228.433512923
 10
279.122626647
 20
228.442310152
 10
279.122626647
 20
228.451361448
 10
279.122626647
 20
228.460679515
 10
279.122626647
 20
228.470277056
 10
279.122626647
 20
228.480166774
 10
279.122626647
 20
228.490361373
 10
279.122626647
 20
228.500873556
 10
279.122626647
 20
228.511716027
 10
279.122626647
 20
228.522901489
 10
279.122626647
 20
228.534442644
 10
279.122626647
 20
228.546352198
 10
279.122626647
 20
228.558642853
 10
279.122626647
 20
228.571327312
 10
279.122626647
 20
228.584418278
 10
279.122626647
 20
228.597928456
 10
279.122626647
 20
228.611870548
 10
279.122626647
 20
228.615406882
 10
279.122626647
 20
228.618969939
 10
279.122626647
 20
228.622558932
 10
279.122626647
 20
228.626173077
 10
279.122626647
 20
228.629811587
 10
279.122626647
 20
228.633473676
 10
279.122626647
 20
228.637158558
 10
279.122626647
 20
228.640865447
 10
279.122626647
 20
228.644593558
 10
279.122626647
 20
228.648342104
 10
279.122626647
 20
228.652110299
 10
279.122626647
 20
228.655897357
 10
279.122626647
 20
228.659702492
 10
279.122626647
 20
228.663524919
 10
279.122626647
 20
228.667363852
 10
279.122626647
 20
228.671218503
 10
279.122626647
 20
228.675088088
 10
279.122626647
 20
228.678971821
 10
279.122626647
 20
228.682868915
 10
279.122626647
 20
228.686778585
 10
279.122626647
 20
228.690700044
 10
279.122626647
 20
228.694632506
 10
279.122626647
 20
228.698575187
 10
279.122626647
 20
228.702527299
 10
279.122626647
 20
228.706488056
 10
279.122626647
 20
228.710456674
 10
279.122626647
 20
228.714432365
 10
279.122626647
 20
228.718414344
 10
279.122626647
 20
228.722401824
 10
279.122626647
 20
228.726394021
 10
279.122626647
 20
228.730390147
 10
279.122626647
 20
228.734389417
 10
279.122626647
 20
228.738391045
 10
279.122626647
 20
228.742394245
 10
279.122626647
 20
228.746398231
  0
LINE
  5
1DB
330
1F
100
AcDbEntity
  8
0
  6
Continuous
 62
     7
100
AcDbLine
 10
279.122626647
 20
228.746398231
 30
0.0
 11
277.522626571
 21
228.746398231
 31
0.0
  0
LINE
  5
1DC
330
1F
100
AcDbEntity
  8
0
  6
Continuous
 62
     7
100
AcDbLine
 10
277.522626571
 20
228.746398231
 30
0.0
 11
277.522626571
 21
228.297742894
 31
0.0
  0
LWPOLYLINE
  5
1DE
330
1F
100
AcDbEntity
  8
0
  6
Continuous
 62
     7
100
AcDbPolyline
 90
    71
 70
   128
 43
0.0
 10
277.522626571
 20
228.297742894
 10
277.457817549
 20
228.304126484
 10
277.393010963
 20
228.310522777
 10
277.328209249
 20
228.316944477
 10
277.263414844
 20
228.323404287
 10
277.198630183
 20
228.32991491
 10
277.133857702
 20
228.33648905
 10
277.069099837
 20
228.34313941
 10
277.004359026
 20
228.349878694
 10
276.939637703
 20
228.356719605
 10
276.874938304
 20
228.363674846
 10
276.810263267
 20
228.370757121
 10
276.745615026
 20
228.377979132
 10
276.680996018
 20
228.385353584
 10
276.61640868
 20
228.39289318
 10
276.551855446
 20
228.400610623
 10
276.487338754
 20
228.408518616
 10
276.422861039
 20
228.416629863
 10
276.358424738
 20
228.424957068
 10
276.294032286
 20
228.433512933
 10
276.229686119
 20
228.442310161
 10
276.165388675
 20
228.451361457
 10
276.101142388
 20
228.460679524
 10
276.036949694
 20
228.470277065
 10
275.972813031
 20
228.480166783
 10
275.908734834
 20
228.490361381
 10
275.844717538
 20
228.500873564
 10
275.780763581
 20
228.511716034
 10
275.716875398
 20
228.522901495
 10
275.653055425
 20
228.534442651
 10
275.589306099
 20
228.546352203
 10
275.525629855
 20
228.558642857
 10
275.46202913
 20
228.571327315
 10
275.398506359
 20
228.584418281
 10
275.335063979
 20
228.597928457
 10
275.271704426
 20
228.611870548
 10
275.255957557
 20
228.615406882
 10
275.240215813
 20
228.618969939
 10
275.224479043
 20
228.622558932
 10
275.208747096
 20
228.626173077
 10
275.193019822
 20
228.629811587
 10
275.177297069
 20
228.633473676
 10
275.161578687
 20
228.637158558
 10
275.145864526
 20
228.640865448
 10
275.130154433
 20
228.644593558
 10
275.11444826
 20
228.648342104
 10
275.098745855
 20
228.652110299
 10
275.083047067
 20
228.655897357
 10
275.067351746
 20
228.659702492
 10
275.05165974
 20
228.663524919
 10
275.0359709
 20
228.667363852
 10
275.020285074
 20
228.671218503
 10
275.004602112
 20
228.675088088
 10
274.988921863
 20
228.678971821
 10
274.973244177
 20
228.682868915
 10
274.957568902
 20
228.686778585
 10
274.941895887
 20
228.690700044
 10
274.926224983
 20
228.694632507
 10
274.910556038
 20
228.698575187
 10
274.894888902
 20
228.702527299
 10
274.879223424
 20
228.706488056
 10
274.863559453
 20
228.710456674
 10
274.847896839
 20
228.714432365
 10
274.83223543
 20
228.718414344
 10
274.816575077
 20
228.722401824
 10
274.800915627
 20
228.726394021
 10
274.785256932
 20
228.730390147
 10
274.769598839
 20
228.734389417
 10
274.753941199
 20
228.738391045
 10
274.738283859
 20
228.742394245
 10
274.722626671
 20
228.746398231
  0
LINE
  5
1DF
330
1F
100
AcDbEntity
  8
0
  6
Continuous
 62
     7
100
AcDbLine
 10
274.722626671
 20
228.746398231
 30
0.0
 11
274.722626671
 21
228.722817144
 31
0.0
  0
LINE
  5
1E0
330
1F
100
AcDbEntity
  8
0
  6
Continuous
 62
     7
100
AcDbLine
 10
277.522626571
 20
228.746398231
 30
0.0
 11
277.522626571
 21
228.297742894
 31
0.0
  0
LINE
  5
1E1
330
1F
100
AcDbEntity
  8
0
  6
Continuous
 62
     7
100
AcDbLine
 10
315.322628017
 20
233.251953377
 30
0.0
 11
271.32262651
 21
233.251953377
 31
0.0
  0
LINE
  5
1E2
330
1F
100
AcDbEntity
  8
0
  6
Continuous
 62
     7
100
AcDbLine
 10
315.322628017
 20
233.251953377
 30
0.0
 11
315.322628017
 21
235.651953957
 31
0.0
  0
LINE
  5
1E3
330
1F
100
AcDbEntity
  8
0
  6
Continuous
 62
     7
100
AcDbLine
 10
315.322628017
 20
235.651953957
 30
0.0
 11
271.32262651
 21
235.651953957
 31
0.0
  0
LINE
  5
1E4
330
1F
100
AcDbEntity
  8
0
  6
Continuous
 62
     7
100
AcDbLine
 10
271.32262651
 20
235.651953957
 30
0.0
 11
271.32262651
 21
233.251953377
 31
0.0
  0
LINE
  5
1E5
330
1F
100
AcDbEntity
  8
0
  6
Continuous
 62
     7
100
AcDbLine
 10
293.322626274
 20
230.367512322
 30
0.0
 11
293.322626274
 21
233.251953377
 31
0.0
  0
LINE
  5
1E6
330
1F
100
AcDbEntity
  8
0
  6
Continuous
 62
     7
100
AcDbLine
 10
293.322626274
 20
230.367512322
 30
0.0
 11
286.550656665
 21
230.367512322
 31
0.0
  0
LINE
  5
1E7
330
1F
100
AcDbEntity
  8
0
  6
Continuous
 62
     7
100
AcDbLine
 10
286.983322125
 20
233.251953377
 30
0.0
 11
286.550656665
 21
230.367512322
 31
0.0
  0
LINE
  5
1E8
330
1F
100
AcDbEntity
  8
0
  6
Continuous
 62
     7
100
AcDbLine
 10
286.550656665
 20
233.251953377
 30
0.0
 11
286.550656665
 21
230.367512322
 31
0.0
  0
LINE
  5
1E9
330
1F
100
AcDbEntity
  8
0
  6
Continuous
 62
     7
100
AcDbLine
 10
271.32262651
 20
207.651953092
 30
0.0
 11
315.322628017
 21
207.651953092
 31
0.0
  0
LINE
  5
1EA
330
1F
100
AcDbEntity
  8
0
  6
Continuous
 62
     7
100
AcDbLine
 10
299.322627257
 20
223.051953009
 30
0.0
 11
305.322626378
 21
223.051953009
 31
0.0
  0
ARC
  5
1EB
330
1F
100
AcDbEntity
  8
0
  6
Continuous
 62
     7
100
AcDbCircle
 10
299.322626557
 20
219.651953557
 30
0.0
 40
3.4
100
AcDbArc
 50
90.000000011
 51
269.999999994
  0
LINE
  5
1EC
330
1F
100
AcDbEntity
  8
0
  6
Continuous
 62
     7
100
AcDbLine
 10
305.322626378
 20
216.251953384
 30
0.0
 11
299.322627257
 21
216.251953384
 31
0.0
  0
ARC
  5
1ED
330
1F
100
AcDbEntity
  8
0
  6
Continuous
 62
     7
100
AcDbCircle
 10
305.322626557
 20
219.651953557
 30
0.0
 40
3.4
100
AcDbArc
 50
270.0
 51
90.000000011
  0
ARC
  5
1EE
330
1F
100
AcDbEntity
  8
0
  6
Continuous
 62
     7
100
AcDbCircle
 10
281.322626557
 20
222.576817799
 30
0.0
 40
3.4
100
AcDbArc
 50
352.999999989
 51
173.000000006
  0
ARC
  5
1EF
330
1F
100
AcDbEntity
  8
0
  6
Continuous
 62
     7
100
AcDbCircle
 10
305.143734197
 20
219.651953557
 30
0.0
 40
27.4
100
AcDbArc
 50
173.0
 51
186.999999999
  0
ARC
  5
1F0
330
1F
100
AcDbEntity
  8
0
  6
Continuous
 62
     7
100
AcDbCircle
 10
281.322626557
 20
216.727089315
 30
0.0
 40
3.4
100
AcDbArc
 50
186.999999987
 51
6.999999987
  0
ARC
  5
1F1
330
1F
100
AcDbEntity
  8
0
  6
Continuous
 62
     7
100
AcDbCircle
 10
305.143734197
 20
219.651953557
 30
0.0
 40
20.600000001
100
AcDbArc
 50
173.000000001
 51
187.000000003
  0
LINE
  5
1F2
330
1F
100
AcDbEntity
  8
0
  6
Continuous
 62
     7
100
AcDbLine
 10
315.322628017
 20
207.651953092
 30
0.0
 11
315.322628017
 21
233.251953377
 31
0.0
  0
LINE
  5
1F3
330
1F
100
AcDbEntity
  8
0
  6
Continuous
 62
     7
100
AcDbLine
 10
271.32262651
 20
233.251953377
 30
0.0
 11
271.32262651
 21
207.651953092
 31
0.0
  0
ARC
  5
1F4
330
1F
100
AcDbEntity
  8
0
  6
Continuous
 62
     7
100
AcDbCircle
 10
304.422626557
 20
246.851953557
 30
0.0
 40
2.2
100
AcDbArc
 50
105.826620135
 51
254.173379865
  0
LINE
  5
1F5
330
1F
100
AcDbEntity
  8
0
  6
Continuous
 62
     7
100
AcDbLine
 10
297.222627099
 20
248.96855454
 30
0.0
 11
297.222627099
 21
244.735352574
 31
0.0
  0
ARC
  5
1F6
330
1F
100
AcDbEntity
  8
0
  6
Continuous
 62
     7
100
AcDbCircle
 10
296.622626557
 20
246.851953557
 30
0.0
 40
2.2
100
AcDbArc
 50
285.826620135
 51
74.173379865
  0
ARC
  5
1F7
330
1F
100
AcDbEntity
  8
0
  6
Continuous
 62
     7
100
AcDbCircle
 10
304.422626557
 20
246.851953557
 30
0.0
 40
2.2
100
AcDbArc
 50
285.826620135
 51
74.173379865
  0
ARC
  5
1F8
330
1F
100
AcDbEntity
  8
0
  6
Continuous
 62
     7
100
AcDbCircle
 10
296.622626557
 20
246.851953557
 30
0.0
 40
2.2
100
AcDbArc
 50
105.826620135
 51
254.173379865
  0
LINE
  5
1F9
330
1F
100
AcDbEntity
  8
0
  6
Continuous
 62
     7
100
AcDbLine
 10
296.022627275
 20
244.735352574
 30
0.0
 11
296.022627275
 21
248.96855454
 31
0.0
  0
LWPOLYLINE
  5
1FB
330
1F
100
AcDbEntity
  8
0
  6
Continuous
 62
     7
100
AcDbPolyline
 90
   106
 70
   128
 43
0.0
 10
292.839129007
 20
239.251483103
 10
292.858609632
 20
239.275423811
 10
292.878194482
 20
239.299251993
 10
292.897883292
 20
239.322967935
 10
292.9176758
 20
239.346571921
 10
292.937571741
 20
239.370064236
 10
292.957570852
 20
239.393445165
 10
292.977672867
 20
239.416714993
 10
292.997877524
 20
239.439874006
 10
293.018184558
 20
239.462922487
 10
293.038593706
 20
239.485860722
 10
293.059104704
 20
239.508688996
 10
293.079717288
 20
239.531407593
 10
293.100431193
 20
239.554016799
 10
293.121246156
 20
239.576516899
 10
293.142161913
 20
239.598908177
 10
293.1631782
 20
239.621190918
 10
293.184294754
 20
239.643365408
 10
293.20551131
 20
239.665431931
 10
293.226827604
 20
239.687390773
 10
293.248243372
 20
239.709242217
 10
293.269758351
 20
239.73098655
 10
293.291372277
 20
239.752624056
 10
293.313084885
 20
239.774155019
 10
293.334895912
 20
239.795579726
 10
293.356805094
 20
239.81689846
 10
293.378812167
 20
239.838111507
 10
293.400916867
 20
239.859219152
 10
293.42311893
 20
239.880221679
 10
293.445418093
 20
239.901119374
 10
293.46781409
 20
239.921912521
 10
293.49030666
 20
239.942601406
 10
293.512895536
 20
239.963186313
 10
293.535580456
 20
239.983667527
 10
293.558361156
 20
240.004045334
 10
293.581237372
 20
240.024320018
 10
293.604215001
 20
240.044495211
 10
293.627299302
 20
240.064573755
 10
293.650489049
 20
240.084554744
 10
293.673783018
 20
240.104437272
 10
293.697179984
 20
240.124220435
 10
293.720678723
 20
240.143903328
 10
293.744278009
 20
240.163485045
 10
293.767976617
 20
240.182964681
 10
293.791773324
 20
240.202341332
 10
293.815666903
 20
240.221614091
 10
293.839656132
 20
240.240782055
 10
293.863739783
 20
240.259844317
 10
293.887916634
 20
240.278799973
 10
293.912185459
 20
240.297648118
 10
293.936545033
 20
240.316387846
 10
293.960994131
 20
240.335018253
 10
293.98553153
 20
240.353538433
 10
294.010156003
 20
240.371947481
 10
294.034866326
 20
240.390244492
 10
294.059661275
 20
240.408428561
 10
294.084539625
 20
240.426498783
 10
294.109500151
 20
240.444454253
 10
294.134541627
 20
240.462294065
 10
294.15966283
 20
240.480017315
 10
294.184862535
 20
240.497623098
 10
294.210139517
 20
240.515110507
 10
294.23549255
 20
240.532478639
 10
294.260920411
 20
240.549726588
 10
294.286421874
 20
240.566853449
 10
294.311995715
 20
240.583858317
 10
294.337640709
 20
240.600740286
 10
294.363355631
 20
240.617498452
 10
294.389139257
 20
240.63413191
 10
294.414990361
 20
240.650639754
 10
294.44090772
 20
240.66702108
 10
294.492936127
 20
240.699410749
 10
294.545220255
 20
240.731307076
 10
294.59775892
 20
240.762707627
 10
294.650550941
 20
240.793609967
 10
294.703595134
 20
240.824011663
 10
294.756890317
 20
240.853910281
 10
294.810435308
 20
240.883303386
 10
294.864228924
 20
240.912188545
 10
294.918269983
 20
240.940563322
 10
294.972557302
 20
240.968425285
 10
295.027089699
 20
240.995771999
 10
295.081865992
 20
241.022601029
 10
295.136884997
 20
241.048909942
 10
295.192145533
 20
241.074696304
 10
295.247646416
 20
241.099957681
 10
295.303386465
 20
241.124691637
 10
295.359364498
 20
241.148895741
 10
295.41557933
 20
241.172567556
 10
295.472029781
 20
241.195704649
 10
295.528714668
 20
241.218304586
 10
295.585632807
 20
241.240364934
 10
295.642783018
 20
241.261883256
 10
295.700164116
 20
241.282857121
 10
295.757774921
 20
241.303284093
 10
295.815614249
 20
241.323161738
 10
295.873680917
 20
241.342487623
 10
295.931973744
 20
241.361259313
 10
295.990491547
 20
241.379474374
 10
296.049233143
 20
241.397130372
 10
296.108197351
 20
241.414224873
 10
296.167382987
 20
241.430755442
 10
296.226788869
 20
241.446719646
 10
296.286413814
 20
241.462115051
 10
296.346256641
 20
241.476939222
 10
296.406316166
 20
241.491189726
  0
LWPOLYLINE
  5
1FD
330
1F
100
AcDbEntity
  8
0
  6
Continuous
 62
     7
100
AcDbPolyline
 90
    71
 70
   128
 43
0.0
 10
291.432735203
 20
239.251482969
 10
291.452903117
 20
239.251482969
 10
291.473069556
 20
239.251482969
 10
291.49323449
 20
239.251482969
 10
291.513397887
 20
239.251482969
 10
291.533559717
 20
239.251482969
 10
291.553719949
 20
239.251482969
 10
291.573878551
 20
239.251482969
 10
291.594035492
 20
239.251482969
 10
291.614190742
 20
239.251482969
 10
291.634344268
 20
239.251482969
 10
291.654496041
 20
239.251482969
 10
291.674646029
 20
239.251482969
 10
291.6947942
 20
239.251482969
 10
291.714940525
 20
239.251482969
 10
291.735084971
 20
239.251482969
 10
291.755227508
 20
239.251482969
 10
291.775368104
 20
239.251482969
 10
291.795506729
 20
239.251482969
 10
291.815643351
 20
239.251482969
 10
291.83577794
 20
239.251482969
 10
291.855910463
 20
239.251482969
 10
291.876040891
 20
239.251482969
 10
291.896169192
 20
239.251482969
 10
291.916295335
 20
239.251482969
 10
291.936419289
 20
239.251482969
 10
291.956541023
 20
239.251482969
 10
291.976660505
 20
239.251482969
 10
291.996777705
 20
239.251482969
 10
292.016892592
 20
239.251482969
 10
292.037005134
 20
239.251482969
 10
292.0571153
 20
239.251482969
 10
292.07722306
 20
239.251482969
 10
292.097328382
 20
239.251482969
 10
292.117431235
 20
239.251482969
 10
292.137531588
 20
239.251482969
 10
292.157629495
 20
239.251482969
 10
292.177724842
 20
239.251482969
 10
292.197817582
 20
239.251482969
 10
292.217907668
 20
239.251482969
 10
292.237995054
 20
239.251482969
 10
292.258079694
 20
239.251482969
 10
292.278161539
 20
239.251482969
 10
292.298240543
 20
239.251482969
 10
292.31831666
 20
239.251482969
 10
292.338389843
 20
239.251482969
 10
292.358460045
 20
239.251482969
 10
292.378527219
 20
239.251482969
 10
292.398591318
 20
239.251482969
 10
292.418652296
 20
239.251482969
 10
292.438710106
 20
239.251482969
 10
292.458764701
 20
239.251482969
 10
292.478816033
 20
239.251482969
 10
292.498864058
 20
239.251482969
 10
292.518908727
 20
239.251482969
 10
292.538949993
 20
239.251482969
 10
292.558987811
 20
239.251482969
 10
292.579022133
 20
239.251482969
 10
292.599052913
 20
239.251482969
 10
292.619080103
 20
239.251482969
 10
292.639103657
 20
239.251482969
 10
292.659123528
 20
239.251482969
 10
292.679139669
 20
239.251482969
 10
292.699152034
 20
239.251482969
 10
292.719160575
 20
239.251482969
 10
292.739165247
 20
239.251482969
 10
292.759166001
 20
239.251482969
 10
292.779162792
 20
239.251482969
 10
292.799155573
 20
239.251482969
 10
292.819144296
 20
239.251482969
 10
292.839128915
 20
239.251482969
  0
LWPOLYLINE
  5
1FF
330
1F
100
AcDbEntity
  8
0
  6
Continuous
 62
     7
100
AcDbPolyline
 90
   141
 70
   128
 43
0.0
 10
296.222626922
 20
242.269815596
 10
296.181613353
 20
242.261346362
 10
296.140678115
 20
242.25267898
 10
296.099821105
 20
242.243813687
 10
296.059042216
 20
242.234750718
 10
296.018341345
 20
242.225490311
 10
295.977718387
 20
242.216032702
 10
295.937173238
 20
242.206378127
 10
295.896705793
 20
242.196526823
 10
295.856315947
 20
242.186479026
 10
295.816003596
 20
242.176234974
 10
295.775768635
 20
242.165794902
 10
295.73561096
 20
242.155159047
 10
295.695530466
 20
242.144327645
 10
295.655527048
 20
242.133300933
 10
295.615600602
 20
242.122079148
 10
295.575751024
 20
242.110662526
 10
295.535978208
 20
242.099051304
 10
295.496282051
 20
242.087245717
 10
295.456662447
 20
242.075246003
 10
295.417119293
 20
242.063052398
 10
295.377652483
 20
242.050665139
 10
295.338261912
 20
242.038084462
 10
295.298947477
 20
242.025310604
 10
295.259709073
 20
242.0123438
 10
295.220546595
 20
241.999184288
 10
295.181459939
 20
241.985832305
 10
295.142448999
 20
241.972288086
 10
295.103513672
 20
241.958551868
 10
295.064653853
 20
241.944623888
 10
295.025869437
 20
241.930504382
 10
294.98716032
 20
241.916193587
 10
294.948526397
 20
241.901691739
 10
294.909967564
 20
241.886999074
 10
294.871483716
 20
241.87211583
 10
294.833074748
 20
241.857042243
 10
294.794733626
 20
241.841774189
 10
294.756454394
 20
241.826307611
 10
294.718238565
 20
241.81064284
 10
294.680087651
 20
241.794780209
 10
294.642003165
 20
241.778720051
 10
294.603986621
 20
241.762462699
 10
294.56603953
 20
241.746008486
 10
294.528163406
 20
241.729357744
 10
294.490359761
 20
241.712510807
 10
294.452630108
 20
241.695468006
 10
294.414975959
 20
241.678229675
 10
294.377398829
 20
241.660796146
 10
294.339900228
 20
241.643167753
 10
294.30248167
 20
241.625344827
 10
294.265144669
 20
241.607327702
 10
294.227890735
 20
241.589116711
 10
294.190721383
 20
241.570712185
 10
294.153638125
 20
241.552114459
 10
294.116642474
 20
241.533323864
 10
294.079735942
 20
241.514340734
 10
294.042920043
 20
241.495165401
 10
294.006196288
 20
241.475798198
 10
293.969566191
 20
241.456239458
 10
293.933031265
 20
241.436489513
 10
293.896593022
 20
241.416548697
 10
293.860252975
 20
241.396417341
 10
293.824012637
 20
241.37609578
 10
293.78787352
 20
241.355584345
 10
293.751837138
 20
241.334883369
 10
293.715905003
 20
241.313993185
 10
293.680078627
 20
241.292914126
 10
293.644359524
 20
241.271646524
 10
293.608749206
 20
241.250190713
 10
293.573249187
 20
241.228547025
 10
293.537860978
 20
241.206715793
 10
293.502601296
 20
241.18470881
 10
293.467485948
 20
241.162537483
 10
293.432515081
 20
241.140201561
 10
293.397688841
 20
241.117700794
 10
293.363007376
 20
241.095034931
 10
293.328470832
 20
241.072203721
 10
293.294079356
 20
241.049206914
 10
293.259833095
 20
241.026044261
 10
293.225732196
 20
241.002715509
 10
293.191776807
 20
240.97922041
 10
293.157967074
 20
240.955558711
 10
293.124303143
 20
240.931730164
 10
293.090785163
 20
240.907734517
 10
293.057413279
 20
240.883571521
 10
293.024187639
 20
240.859240924
 10
292.99110839
 20
240.834742476
 10
292.958175678
 20
240.810075927
 10
292.925389651
 20
240.785241026
 10
292.892750456
 20
240.760237523
 10
292.860258239
 20
240.735065168
 10
292.827913147
 20
240.709723709
 10
292.795715328
 20
240.684212897
 10
292.763664928
 20
240.658532481
 10
292.731762095
 20
240.632682211
 10
292.700006974
 20
240.606661836
 10
292.668399714
 20
240.580471105
 10
292.63694046
 20
240.554109769
 10
292.605629361
 20
240.527577577
 10
292.574466562
 20
240.500874278
 10
292.543452212
 20
240.473999622
 10
292.512586456
 20
240.446953359
 10
292.481869442
 20
240.419735237
 10
292.451301316
 20
240.392345008
 10
292.420882226
 20
240.364782419
 10
292.390612319
 20
240.337047222
 10
292.360486441
 20
240.309131803
 10
292.330500701
 20
240.281029042
 10
292.300657136
 20
240.252739422
 10
292.270957787
 20
240.224263426
 10
292.241404692
 20
240.195601538
 10
292.21199989
 20
240.166754241
 10
292.182745419
 20
240.13772202
 10
292.15364332
 20
240.108505357
 10
292.12469563
 20
240.079104737
 10
292.095904388
 20
240.049520642
 10
292.067271635
 20
240.019753557
 10
292.038799407
 20
239.989803965
 10
292.010489745
 20
239.95967235
 10
291.982344687
 20
239.929359195
 10
291.954366273
 20
239.898864983
 10
291.92655654
 20
239.868190199
 10
291.898917528
 20
239.837335326
 10
291.871451277
 20
239.806300847
 10
291.844159823
 20
239.775087246
 10
291.817045208
 20
239.743695007
 10
291.790109469
 20
239.712124613
 10
291.763354646
 20
239.680376548
 10
291.736782777
 20
239.648451295
 10
291.710395901
 20
239.616349338
 10
291.684196057
 20
239.58407116
 10
291.658185285
 20
239.551617246
 10
291.632365623
 20
239.518988079
 10
291.606739109
 20
239.486184141
 10
291.581307783
 20
239.453205918
 10
291.556073685
 20
239.420053891
 10
291.531038851
 20
239.386728546
 10
291.506205322
 20
239.353230366
 10
291.481575137
 20
239.319559833
 10
291.457150334
 20
239.285717432
 10
291.432932953
 20
239.251703647
  0
LINE
  5
200
330
1F
100
AcDbEntity
  8
0
  6
Continuous
 62
     7
100
AcDbLine
 10
296.406315412
 20
241.491189572
 30
0.0
 11
296.222626936
 21
242.269815756
 31
0.0
  0
LWPOLYLINE
  5
202
330
1F
100
AcDbEntity
  8
0
  6
Continuous
 62
     7
100
AcDbPolyline
 90
   141
 70
   128
 43
0.0
 10
291.433749665
 20
254.452424074
 10
291.45786302
 20
254.418478525
 10
291.482164508
 20
254.38472275
 10
291.506653389
 20
254.351155917
 10
291.531328921
 20
254.317777193
 10
291.556190362
 20
254.284585747
 10
291.581236972
 20
254.251580746
 10
291.606468008
 20
254.218761356
 10
291.631882731
 20
254.186126747
 10
291.657480398
 20
254.153676085
 10
291.683260267
 20
254.121408538
 10
291.709221599
 20
254.089323274
 10
291.735363651
 20
254.057419459
 10
291.761685683
 20
254.025696262
 10
291.788186952
 20
253.994152851
 10
291.814866718
 20
253.962788392
 10
291.841724239
 20
253.931602053
 10
291.868758775
 20
253.900593002
 10
291.895969583
 20
253.869760407
 10
291.923355922
 20
253.839103434
 10
291.950917052
 20
253.808621253
 10
291.97865223
 20
253.778313029
 10
292.006560716
 20
253.74817793
 10
292.034641768
 20
253.718215125
 10
292.062894645
 20
253.688423781
 10
292.091318605
 20
253.658803065
 10
292.119912908
 20
253.629352145
 10
292.148676812
 20
253.600070188
 10
292.177609575
 20
253.570956362
 10
292.206710457
 20
253.542009834
 10
292.235978716
 20
253.513229773
 10
292.265413611
 20
253.484615345
 10
292.295014401
 20
253.456165719
 10
292.324780343
 20
253.427880061
 10
292.354710697
 20
253.399757539
 10
292.384804722
 20
253.371797321
 10
292.41507211
 20
253.343993815
 10
292.445521407
 20
253.316342854
 10
292.476150153
 20
253.288845751
 10
292.506955886
 20
253.261503814
 10
292.537936146
 20
253.234318354
 10
292.569088473
 20
253.207290682
 10
292.600410406
 20
253.180422106
 10
292.631899484
 20
253.153713938
 10
292.663553247
 20
253.127167487
 10
292.695369234
 20
253.100784064
 10
292.727344985
 20
253.074564979
 10
292.759478038
 20
253.048511541
 10
292.791765934
 20
253.022625061
 10
292.824206212
 20
252.99690685
 10
292.85679641
 20
252.971358216
 10
292.889534069
 20
252.945980471
 10
292.922416727
 20
252.920774925
 10
292.955441925
 20
252.895742887
 10
292.988607202
 20
252.870885668
 10
293.021910096
 20
252.846204578
 10
293.055348148
 20
252.821700926
 10
293.088918896
 20
252.797376024
 10
293.122619881
 20
252.773231181
 10
293.156448641
 20
252.749267707
 10
293.190402716
 20
252.725486913
 10
293.224479645
 20
252.701890109
 10
293.258676968
 20
252.678478604
 10
293.292992224
 20
252.655253709
 10
293.327422952
 20
252.632216734
 10
293.361966692
 20
252.60936899
 10
293.396620984
 20
252.586711785
 10
293.431383366
 20
252.564246431
 10
293.466251378
 20
252.541974238
 10
293.501222559
 20
252.519896515
 10
293.536294449
 20
252.498014573
 10
293.57146568
 20
252.476325636
 10
293.606736473
 20
252.454825917
 10
293.642106748
 20
252.433515207
 10
293.677576429
 20
252.412393298
 10
293.713145436
 20
252.39145998
 10
293.748813691
 20
252.370715047
 10
293.784581115
 20
252.350158289
 10
293.820447631
 20
252.329789498
 10
293.856413159
 20
252.309608465
 10
293.892477621
 20
252.289614983
 10
293.92864094
 20
252.269808842
 10
293.964903036
 20
252.250189834
 10
294.001263831
 20
252.230757751
 10
294.037723247
 20
252.211512384
 10
294.074281205
 20
252.192453526
 10
294.110937626
 20
252.173580967
 10
294.147692434
 20
252.154894499
 10
294.184545548
 20
252.136393913
 10
294.221496891
 20
252.118079002
 10
294.258546384
 20
252.099949557
 10
294.295693949
 20
252.082005369
 10
294.332939508
 20
252.06424623
 10
294.370282981
 20
252.046671931
 10
294.407724292
 20
252.029282265
 10
294.44526336
 20
252.012077022
 10
294.482900108
 20
251.995055995
 10
294.520634458
 20
251.978218974
 10
294.55846633
 20
251.961565752
 10
294.596395647
 20
251.945096119
 10
294.63442233
 20
251.928809868
 10
294.672546301
 20
251.91270679
 10
294.710767481
 20
251.896786677
 10
294.749085793
 20
251.88104932
 10
294.787501156
 20
251.865494511
 10
294.826013494
 20
251.850122041
 10
294.864621134
 20
251.834934252
 10
294.903321447
 20
251.819933965
 10
294.942112923
 20
251.805121697
 10
294.98099405
 20
251.790497962
 10
295.019963317
 20
251.776063274
 10
295.059019213
 20
251.761818149
 10
295.098160227
 20
251.747763101
 10
295.137384847
 20
251.733898645
 10
295.176691562
 20
251.720225296
 10
295.216078861
 20
251.706743568
 10
295.255545233
 20
251.693453977
 10
295.295089166
 20
251.680357038
 10
295.334709149
 20
251.667453264
 10
295.374403671
 20
251.654743172
 10
295.414171221
 20
251.642227275
 10
295.454010287
 20
251.629906088
 10
295.493919359
 20
251.617780127
 10
295.533896924
 20
251.605849906
 10
295.573941472
 20
251.59411594
 10
295.614051491
 20
251.582578744
 10
295.65422547
 20
251.571238832
 10
295.694461899
 20
251.560096719
 10
295.734759265
 20
251.549152921
 10
295.775116057
 20
251.538407951
 10
295.815530765
 20
251.527862326
 10
295.856001877
 20
251.517516558
 10
295.896527881
 20
251.507371165
 10
295.937107267
 20
251.497426659
 10
295.977738523
 20
251.487683556
 10
296.018420138
 20
251.478142371
 10
296.059150601
 20
251.468803619
 10
296.0999284
 20
251.459667814
 10
296.140752024
 20
251.450735471
 10
296.181619963
 20
251.442007105
 10
296.222530704
 20
251.433483231
  0
LWPOLYLINE
  5
204
330
1F
100
AcDbEntity
  8
0
  6
Continuous
 62
     7
100
AcDbPolyline
 90
    71
 70
   128
 43
0.0
 10
292.839410113
 20
254.452424145
 10
292.819434968
 20
254.452424145
 10
292.79945576
 20
254.452424145
 10
292.779472537
 20
254.452424145
 10
292.759485344
 20
254.452424145
 10
292.739494229
 20
254.452424145
 10
292.719499237
 20
254.452424145
 10
292.699500415
 20
254.452424145
 10
292.679497808
 20
254.452424145
 10
292.659491464
 20
254.452424145
 10
292.639481429
 20
254.452424145
 10
292.619467749
 20
254.452424145
 10
292.59945047
 20
254.452424145
 10
292.579429639
 20
254.452424145
 10
292.559405301
 20
254.452424145
 10
292.539377504
 20
254.452424145
 10
292.519346293
 20
254.452424145
 10
292.499311715
 20
254.452424145
 10
292.479273817
 20
254.452424145
 10
292.459232643
 20
254.452424145
 10
292.439188242
 20
254.452424145
 10
292.419140659
 20
254.452424145
 10
292.39908994
 20
254.452424145
 10
292.379036132
 20
254.452424145
 10
292.358979281
 20
254.452424145
 10
292.338919434
 20
254.452424145
 10
292.318856636
 20
254.452424145
 10
292.298790934
 20
254.452424145
 10
292.278722374
 20
254.452424145
 10
292.258651003
 20
254.452424145
 10
292.238576868
 20
254.452424145
 10
292.218500013
 20
254.452424145
 10
292.198420486
 20
254.452424145
 10
292.178338333
 20
254.452424145
 10
292.1582536
 20
254.452424145
 10
292.138166334
 20
254.452424145
 10
292.118076461
 20
254.452424145
 10
292.097984114
 20
254.452424145
 10
292.077889324
 20
254.452424145
 10
292.057792121
 20
254.452424145
 10
292.037692535
 20
254.452424145
 10
292.017590598
 20
254.452424145
 10
291.997486341
 20
254.452424145
 10
291.977379793
 20
254.452424145
 10
291.957270987
 20
254.452424145
 10
291.937159951
 20
254.452424145
 10
291.917046718
 20
254.452424145
 10
291.896931318
 20
254.452424145
 10
291.876813781
 20
254.452424145
 10
291.856694138
 20
254.452424145
 10
291.836572421
 20
254.452424145
 10
291.816448659
 20
254.452424145
 10
291.796322883
 20
254.452424145
 10
291.776195125
 20
254.452424145
 10
291.756065415
 20
254.452424145
 10
291.735933783
 20
254.452424145
 10
291.71580026
 20
254.452424145
 10
291.695664878
 20
254.452424145
 10
291.675527666
 20
254.452424145
 10
291.655388656
 20
254.452424145
 10
291.635247878
 20
254.452424145
 10
291.615105362
 20
254.452424145
 10
291.59496114
 20
254.452424145
 10
291.574815243
 20
254.452424145
 10
291.5546677
 20
254.452424145
 10
291.534518544
 20
254.452424145
 10
291.514367803
 20
254.452424145
 10
291.49421551
 20
254.452424145
 10
291.474061695
 20
254.452424145
 10
291.453906388
 20
254.452424145
 10
291.433749621
 20
254.452424145
  0
LWPOLYLINE
  5
206
330
1F
100
AcDbEntity
  8
0
  6
Continuous
 62
     7
100
AcDbPolyline
 90
   106
 70
   128
 43
0.0
 10
296.406204968
 20
252.212189482
 10
296.376178563
 20
252.219298962
 10
296.346207859
 20
252.226550685
 10
296.316292749
 20
252.233944378
 10
296.286433127
 20
252.241479773
 10
296.256628887
 20
252.249156598
 10
296.226879925
 20
252.256974584
 10
296.197186133
 20
252.264933459
 10
296.167547406
 20
252.273032954
 10
296.137963638
 20
252.281272799
 10
296.108434723
 20
252.289652723
 10
296.078960556
 20
252.298172456
 10
296.04954103
 20
252.306831727
 10
296.02017604
 20
252.315630266
 10
295.99086548
 20
252.324567804
 10
295.961609244
 20
252.333644069
 10
295.932407226
 20
252.342858791
 10
295.90325932
 20
252.3522117
 10
295.874165421
 20
252.361702526
 10
295.845125422
 20
252.371330998
 10
295.816139218
 20
252.381096846
 10
295.787206703
 20
252.3909998
 10
295.758327771
 20
252.40103959
 10
295.729502317
 20
252.411215944
 10
295.700730233
 20
252.421528594
 10
295.672011415
 20
252.431977268
 10
295.643345757
 20
252.442561696
 10
295.614733153
 20
252.453281608
 10
295.586173497
 20
252.464136734
 10
295.557666682
 20
252.475126803
 10
295.529212604
 20
252.486251545
 10
295.500811157
 20
252.49751069
 10
295.472462234
 20
252.508903967
 10
295.44416573
 20
252.520431106
 10
295.415921538
 20
252.532091837
 10
295.387729554
 20
252.543885889
 10
295.359583898
 20
252.555816948
 10
295.33147966
 20
252.56788836
 10
295.30341819
 20
252.580099342
 10
295.275400836
 20
252.592449116
 10
295.247428949
 20
252.6049369
 10
295.219503875
 20
252.617561914
 10
295.191626965
 20
252.630323377
 10
295.163799568
 20
252.643220509
 10
295.136023032
 20
252.65625253
 10
295.108298707
 20
252.669418658
 10
295.080627941
 20
252.682718113
 10
295.053012084
 20
252.696150115
 10
295.025452483
 20
252.709713883
 10
294.997950489
 20
252.723408636
 10
294.970507451
 20
252.737233595
 10
294.943124716
 20
252.751187978
 10
294.915803635
 20
252.765271005
 10
294.888545556
 20
252.779481896
 10
294.861351828
 20
252.793819869
 10
294.8342238
 20
252.808284145
 10
294.807162822
 20
252.822873943
 10
294.780170241
 20
252.837588482
 10
294.753247407
 20
252.852426982
 10
294.72639567
 20
252.867388662
 10
294.699616377
 20
252.882472742
 10
294.672910878
 20
252.897678441
 10
294.646280522
 20
252.913004978
 10
294.619726658
 20
252.928451574
 10
294.593250635
 20
252.944017447
 10
294.566853802
 20
252.959701818
 10
294.540537507
 20
252.975503905
 10
294.5143031
 20
252.991422928
 10
294.48815193
 20
253.007458106
 10
294.462085345
 20
253.023608659
 10
294.436104695
 20
253.039873807
 10
294.384393432
 20
253.07274012
 10
294.333010397
 20
253.10605014
 10
294.281958327
 20
253.139803596
 10
294.231239956
 20
253.174000216
 10
294.180858021
 20
253.208639728
 10
294.130815256
 20
253.243721861
 10
294.081114397
 20
253.279246345
 10
294.03175818
 20
253.315212907
 10
293.982749339
 20
253.351621275
 10
293.934090612
 20
253.38847118
 10
293.885784732
 20
253.425762348
 10
293.837834436
 20
253.46349451
 10
293.790242459
 20
253.501667392
 10
293.743011536
 20
253.540280725
 10
293.696144403
 20
253.579334235
 10
293.649643795
 20
253.618827653
 10
293.603512449
 20
253.658760707
 10
293.557753098
 20
253.699133125
 10
293.51236848
 20
253.739944635
 10
293.467361328
 20
253.781194967
 10
293.42273438
 20
253.822883849
 10
293.378490369
 20
253.865011009
 10
293.334632033
 20
253.907576177
 10
293.291162105
 20
253.95057908
 10
293.248083322
 20
253.994019447
 10
293.20539842
 20
254.037897008
 10
293.163110132
 20
254.082211489
 10
293.121221196
 20
254.126962621
 10
293.079734347
 20
254.172150131
 10
293.038652319
 20
254.217773749
 10
292.997977849
 20
254.263833202
 10
292.957713672
 20
254.31032822
 10
292.917862523
 20
254.35725853
 10
292.878427138
 20
254.404623862
 10
292.839410253
 20
254.452423944
  0
LINE
  5
207
330
1F
100
AcDbEntity
  8
0
  6
Continuous
 62
     7
100
AcDbLine
 10
296.222612034
 20
251.433932102
 30
0.0
 11
296.406319137
 21
252.212573654
 31
0.0
  0
LWPOLYLINE
  5
209
330
1F
100
AcDbEntity
  8
0
  6
Continuous
 62
     7
100
AcDbPolyline
 90
    36
 70
   128
 43
0.0
 10
296.222626552
 20
249.015284322
 10
296.216857394
 20
249.014209628
 10
296.211090789
 20
249.013119456
 10
296.205326799
 20
249.01201382
 10
296.199565484
 20
249.010892736
 10
296.193806906
 20
249.009756216
 10
296.188051127
 20
249.008604275
 10
296.182298208
 20
249.007436929
 10
296.17654821
 20
249.00625419
 10
296.170801194
 20
249.005056074
 10
296.165057222
 20
249.003842595
 10
296.159316355
 20
249.002613767
 10
296.153578655
 20
249.001369605
 10
296.147844182
 20
249.000110122
 10
296.142112998
 20
248.998835334
 10
296.136385165
 20
248.997545255
 10
296.130660744
 20
248.996239898
 10
296.124939796
 20
248.994919279
 10
296.119222382
 20
248.993583412
 10
296.113508564
 20
248.992232311
 10
296.107798404
 20
248.99086599
 10
296.102091961
 20
248.989484464
 10
296.096389299
 20
248.988087748
 10
296.090690477
 20
248.986675855
 10
296.084995558
 20
248.985248799
 10
296.079304603
 20
248.983806597
 10
296.073617673
 20
248.98234926
 10
296.067934829
 20
248.980876805
 10
296.062256133
 20
248.979389246
 10
296.056581646
 20
248.977886596
 10
296.05091143
 20
248.97636887
 10
296.045245545
 20
248.974836082
 10
296.039584053
 20
248.973288248
 10
296.033927016
 20
248.97172538
 10
296.028274495
 20
248.970147494
 10
296.022626551
 20
248.968554604
  0
LWPOLYLINE
  5
20B
330
1F
100
AcDbEntity
  8
0
  6
Continuous
 62
     7
100
AcDbPolyline
 90
    36
 70
   128
 43
0.0
 10
296.022626551
 20
244.73535251
 10
296.028274495
 20
244.73375962
 10
296.033927016
 20
244.732181734
 10
296.039584054
 20
244.730618867
 10
296.045245545
 20
244.729071032
 10
296.05091143
 20
244.727538245
 10
296.056581646
 20
244.726020519
 10
296.062256133
 20
244.724517869
 10
296.067934829
 20
244.723030309
 10
296.073617673
 20
244.721557854
 10
296.079304603
 20
244.720100518
 10
296.084995558
 20
244.718658315
 10
296.090690477
 20
244.71723126
 10
296.096389299
 20
244.715819367
 10
296.102091961
 20
244.71442265
 10
296.107798404
 20
244.713041124
 10
296.113508565
 20
244.711674804
 10
296.119222383
 20
244.710323702
 10
296.124939796
 20
244.708987835
 10
296.130660744
 20
244.707667216
 10
296.136385166
 20
244.70636186
 10
296.142112999
 20
244.70507178
 10
296.147844182
 20
244.703796992
 10
296.153578655
 20
244.70253751
 10
296.159316355
 20
244.701293347
 10
296.165057222
 20
244.700064519
 10
296.170801194
 20
244.69885104
 10
296.17654821
 20
244.697652924
 10
296.182298208
 20
244.696470186
 10
296.188051128
 20
244.695302839
 10
296.193806907
 20
244.694150899
 10
296.199565484
 20
244.693014379
 10
296.205326799
 20
244.691893294
 10
296.21109079
 20
244.690787658
 10
296.216857395
 20
244.689697487
 10
296.222626553
 20
244.688622793
  0
LINE
  5
20C
330
1F
100
AcDbEntity
  8
0
  6
Continuous
 62
     7
100
AcDbLine
 10
287.805876467
 20
239.251483111
 30
0.0
 11
291.433037963
 21
239.251483111
 31
0.0
  0
LINE
  5
20D
330
1F
100
AcDbEntity
  8
0
  6
Continuous
 62
     7
100
AcDbLine
 10
291.433749493
 20
254.452424003
 30
0.0
 11
287.805876467
 21
254.452424003
 31
0.0
  0
ARC
  5
20E
330
1F
100
AcDbEntity
  8
0
  6
Continuous
 62
     7
100
AcDbCircle
 10
297.783877101
 20
258.051953557
 30
0.0
 40
5.999529412
100
AcDbArc
 50
256.725814518
 51
270.0
  0
ARC
  5
20F
330
1F
100
AcDbEntity
  8
0
  6
Continuous
 62
     7
100
AcDbCircle
 10
297.783877101
 20
258.051953557
 30
0.0
 40
6.799529412
100
AcDbArc
 50
256.725983197
 51
270.0
  0
ARC
  5
210
330
1F
100
AcDbEntity
  8
0
  6
Continuous
 62
     7
100
AcDbCircle
 10
304.822626557
 20
244.851953557
 30
0.0
 40
3.200470588
100
AcDbArc
 50
311.406437807
 51
0.0
  0
LINE
  5
211
330
1F
100
AcDbEntity
  8
0
  6
Continuous
 62
     7
100
AcDbLine
 10
306.939406093
 20
242.451482797
 30
0.0
 11
297.783877473
 21
242.451482797
 31
0.0
  0
ARC
  5
212
330
1F
100
AcDbEntity
  8
0
  6
Continuous
 62
     7
100
AcDbCircle
 10
297.783877101
 20
235.651953557
 30
0.0
 40
6.799529428
100
AcDbArc
 50
90.0
 51
103.27420052
  0
ARC
  5
213
330
1F
100
AcDbEntity
  8
0
  6
Continuous
 62
     7
100
AcDbCircle
 10
296.622626557
 20
246.851953557
 30
0.0
 40
2.2
100
AcDbArc
 50
259.524318174
 51
285.82662013
  0
ARC
  5
214
330
1F
100
AcDbEntity
  8
0
  6
Continuous
 62
     7
100
AcDbCircle
 10
296.622626557
 20
246.851953557
 30
0.0
 40
2.2
100
AcDbArc
 50
74.17337987
 51
100.475681821
  0
LINE
  5
215
330
1F
100
AcDbEntity
  8
0
  6
Continuous
 62
     7
100
AcDbLine
 10
297.783877473
 20
251.252424317
 30
0.0
 11
306.939406093
 21
251.252424317
 31
0.0
  0
ARC
  5
216
330
1F
100
AcDbEntity
  8
0
  6
Continuous
 62
     7
100
AcDbCircle
 10
304.822626557
 20
248.851953557
 30
0.0
 40
3.200470588
100
AcDbArc
 50
359.999999994
 51
48.593562193
  0
LINE
  5
217
330
1F
100
AcDbEntity
  8
0
  6
Continuous
 62
     7
100
AcDbLine
 10
308.023096766
 20
248.851953652
 30
0.0
 11
308.023096766
 21
244.851953462
 31
0.0
  0
ARC
  5
218
330
1F
100
AcDbEntity
  8
0
  6
Continuous
 62
     7
100
AcDbCircle
 10
304.422626557
 20
246.851953557
 30
0.0
 40
2.2
100
AcDbArc
 50
254.173379853
 51
285.82662013
  0
ARC
  5
219
330
1F
100
AcDbEntity
  8
0
  6
Continuous
 62
     7
100
AcDbCircle
 10
304.422626557
 20
246.851953557
 30
0.0
 40
2.2
100
AcDbArc
 50
74.17337987
 51
105.826620147
  0
LWPOLYLINE
  5
21B
330
1F
100
AcDbEntity
  8
0
  6
Continuous
 62
     7
100
AcDbPolyline
 90
    36
 70
   128
 43
0.0
 10
307.222783415
 20
241.651482968
 10
307.215150182
 20
241.674348483
 10
307.207493088
 20
241.6972136
 10
307.199811825
 20
241.720078312
 10
307.192106084
 20
241.742942608
 10
307.184375558
 20
241.765806482
 10
307.176619938
 20
241.788669924
 10
307.168838916
 20
241.811532924
 10
307.161032183
 20
241.834395476
 10
307.153199431
 20
241.85725757
 10
307.145340353
 20
241.880119197
 10
307.137454639
 20
241.902980349
 10
307.129541982
 20
241.925841017
 10
307.121602073
 20
241.948701193
 10
307.113634604
 20
241.971560868
 10
307.105639267
 20
241.994420033
 10
307.097615754
 20
242.017278679
 10
307.089563755
 20
242.040136799
 10
307.081482964
 20
242.062994382
 10
307.073373071
 20
242.085851422
 10
307.065233768
 20
242.108707908
 10
307.057064748
 20
242.131563833
 10
307.048865702
 20
242.154419187
 10
307.040636321
 20
242.177273963
 10
307.032376297
 20
242.200128151
 10
307.024085323
 20
242.222981743
 10
307.01576309
 20
242.24583473
 10
307.007409289
 20
242.268687104
 10
306.999023612
 20
242.291538855
 10
306.990605752
 20
242.314389976
 10
306.982155399
 20
242.337240457
 10
306.973672246
 20
242.36009029
 10
306.965155984
 20
242.382939467
 10
306.956606306
 20
242.405787978
 10
306.948022901
 20
242.428635815
 10
306.939405464
 20
242.451482969
  0
ARC
  5
21C
330
1F
100
AcDbEntity
  8
0
  6
Continuous
 62
     7
100
AcDbCircle
 10
304.822626557
 20
244.851953557
 30
0.0
 40
4.000470594
100
AcDbArc
 50
306.867650835
 51
0.0
  0
LINE
  5
21D
330
1F
100
AcDbEntity
  8
0
  6
Continuous
 62
     7
100
AcDbLine
 10
297.783877473
 20
241.651482759
 30
0.0
 11
307.222785201
 21
241.651482759
 31
0.0
  0
ARC
  5
21E
330
1F
100
AcDbEntity
  8
0
  6
Continuous
 62
     7
100
AcDbCircle
 10
297.783877101
 20
235.651953557
 30
0.0
 40
5.999529407
100
AcDbArc
 50
90.0
 51
103.274200454
  0
LWPOLYLINE
  5
220
330
1F
100
AcDbEntity
  8
0
  6
Continuous
 62
     7
100
AcDbPolyline
 90
    36
 70
   128
 43
0.0
 10
306.939405464
 20
251.252424145
 10
306.948022902
 20
251.2752713
 10
306.956606306
 20
251.298119137
 10
306.965155984
 20
251.320967648
 10
306.973672246
 20
251.343816824
 10
306.982155399
 20
251.366666658
 10
306.990605752
 20
251.389517139
 10
306.999023612
 20
251.412368259
 10
307.007409289
 20
251.435220011
 10
307.01576309
 20
251.458072384
 10
307.024085323
 20
251.480925371
 10
307.032376297
 20
251.503778963
 10
307.040636321
 20
251.526633151
 10
307.048865701
 20
251.549487927
 10
307.057064748
 20
251.572343281
 10
307.065233768
 20
251.595199206
 10
307.07337307
 20
251.618055692
 10
307.081482963
 20
251.640912732
 10
307.089563755
 20
251.663770315
 10
307.097615753
 20
251.686628435
 10
307.105639267
 20
251.709487081
 10
307.113634604
 20
251.732346246
 10
307.121602073
 20
251.75520592
 10
307.129541982
 20
251.778066096
 10
307.137454639
 20
251.800926764
 10
307.145340353
 20
251.823787916
 10
307.153199431
 20
251.846649543
 10
307.161032182
 20
251.869511637
 10
307.168838915
 20
251.892374189
 10
307.176619937
 20
251.91523719
 10
307.184375558
 20
251.938100631
 10
307.192106084
 20
251.960964505
 10
307.199811824
 20
251.983828801
 10
307.207493087
 20
252.006693513
 10
307.215150181
 20
252.02955863
 10
307.222783415
 20
252.052424145
  0
ARC
  5
221
330
1F
100
AcDbEntity
  8
0
  6
Continuous
 62
     7
100
AcDbCircle
 10
304.822626557
 20
248.851953557
 30
0.0
 40
4.000470594
100
AcDbArc
 50
359.999999994
 51
53.132349165
  0
LINE
  5
222
330
1F
100
AcDbEntity
  8
0
  6
Continuous
 62
     7
100
AcDbLine
 10
308.823095407
 20
244.851953462
 30
0.0
 11
308.823095407
 21
248.851953652
 31
0.0
  0
LINE
  5
223
330
1F
100
AcDbEntity
  8
0
  6
Continuous
 62
     7
100
AcDbLine
 10
307.222785201
 20
252.052424355
 30
0.0
 11
297.783877473
 21
252.052424355
 31
0.0
  0
LWPOLYLINE
  5
225
330
1F
100
AcDbEntity
  8
0
  6
Continuous
 62
     7
100
AcDbPolyline
 90
   106
 70
   128
 43
0.0
 10
284.822626557
 20
251.210164012
 10
284.823154124
 20
251.236733091
 10
284.823876039
 20
251.263248139
 10
284.824791248
 20
251.289708297
 10
284.825898702
 20
251.316112705
 10
284.827197349
 20
251.342460506
 10
284.828686136
 20
251.368750838
 10
284.830364013
 20
251.394982845
 10
284.832229927
 20
251.421155665
 10
284.834282827
 20
251.447268441
 10
284.836521661
 20
251.473320313
 10
284.838945378
 20
251.499310422
 10
284.841552926
 20
251.525237909
 10
284.844343254
 20
251.551101914
 10
284.84731531
 20
251.576901579
 10
284.850468042
 20
251.602636045
 10
284.853800398
 20
251.628304452
 10
284.857311328
 20
251.653905941
 10
284.860999779
 20
251.679439653
 10
284.864864699
 20
251.704904729
 10
284.868905038
 20
251.73030031
 10
284.873119744
 20
251.755625537
 10
284.877507764
 20
251.78087955
 10
284.882068048
 20
251.806061491
 10
284.886799543
 20
251.8311705
 10
284.891701199
 20
251.856205718
 10
284.896771963
 20
251.881166287
 10
284.902010784
 20
251.906051346
 10
284.90741661
 20
251.930860037
 10
284.91298839
 20
251.955591501
 10
284.918725072
 20
251.980244879
 10
284.924625604
 20
252.004819311
 10
284.930688935
 20
252.029313938
 10
284.936914013
 20
252.053727902
 10
284.943299787
 20
252.078060343
 10
284.949845204
 20
252.102310402
 10
284.956541174
 20
252.126457645
 10
284.963378994
 20
252.150483025
 10
284.970358198
 20
252.174387758
 10
284.977478319
 20
252.198173063
 10
284.98473889
 20
252.221840157
 10
284.992139444
 20
252.245390257
 10
284.999679515
 20
252.268824581
 10
285.007358636
 20
252.292144346
 10
285.015176341
 20
252.315350771
 10
285.023132162
 20
252.338445072
 10
285.031225632
 20
252.361428468
 10
285.039456286
 20
252.384302175
 10
285.047823656
 20
252.407067412
 10
285.056327276
 20
252.429725396
 10
285.064966678
 20
252.452277344
 10
285.073741397
 20
252.474724475
 10
285.082650965
 20
252.497068005
 10
285.091694916
 20
252.519309152
 10
285.100872783
 20
252.541449134
 10
285.110184098
 20
252.563489168
 10
285.119628397
 20
252.585430473
 10
285.129205211
 20
252.607274264
 10
285.138914074
 20
252.629021761
 10
285.14875452
 20
252.650674181
 10
285.15872608
 20
252.67223274
 10
285.16882829
 20
252.693698658
 10
285.179060682
 20
252.71507315
 10
285.189422789
 20
252.736357436
 10
285.199914145
 20
252.757552732
 10
285.210534283
 20
252.778660256
 10
285.221282736
 20
252.799681226
 10
285.232159037
 20
252.820616858
 10
285.24316272
 20
252.841468372
 10
285.254293318
 20
252.862236984
 10
285.265550364
 20
252.882923911
 10
285.288405721
 20
252.924005991
 10
285.311691572
 20
252.964667006
 10
285.335408273
 20
253.004908066
 10
285.359556183
 20
253.044730282
 10
285.384135657
 20
253.084134766
 10
285.409147052
 20
253.123122629
 10
285.434590727
 20
253.161694982
 10
285.460467038
 20
253.199852935
 10
285.486776342
 20
253.2375976
 10
285.513518996
 20
253.274930087
 10
285.540695358
 20
253.311851509
 10
285.568305784
 20
253.348362975
 10
285.596350631
 20
253.384465597
 10
285.624830257
 20
253.420160485
 10
285.653745018
 20
253.455448752
 10
285.683095272
 20
253.490331507
 10
285.712881376
 20
253.524809863
 10
285.743103687
 20
253.558884929
 10
285.773762561
 20
253.592557817
 10
285.804858357
 20
253.625829638
 10
285.83639143
 20
253.658701504
 10
285.868362139
 20
253.691174524
 10
285.90077084
 20
253.72324981
 10
285.93361789
 20
253.754928473
 10
285.966903646
 20
253.786211624
 10
286.000628466
 20
253.817100375
 10
286.034792706
 20
253.847595835
 10
286.069396724
 20
253.877699117
 10
286.104440877
 20
253.907411331
 10
286.139925521
 20
253.936733588
 10
286.175851014
 20
253.965666999
 10
286.212217713
 20
253.994212675
 10
286.249025975
 20
254.022371728
 10
286.286276157
 20
254.050145268
 10
286.323968617
 20
254.077534406
  0
LWPOLYLINE
  5
227
330
1F
100
AcDbEntity
  8
0
  6
Continuous
 62
     7
100
AcDbPolyline
 90
    71
 70
   128
 43
0.0
 10
286.323968617
 20
254.077534406
 10
286.338239625
 20
254.087679846
 10
286.352580309
 20
254.097691472
 10
286.366990919
 20
254.107569259
 10
286.381471701
 20
254.117313185
 10
286.396022905
 20
254.126923226
 10
286.410644777
 20
254.136399357
 10
286.425337566
 20
254.145741556
 10
286.440101521
 20
254.154949798
 10
286.454936889
 20
254.16402406
 10
286.469843918
 20
254.172964318
 10
286.484822856
 20
254.181770548
 10
286.499873952
 20
254.190442727
 10
286.514997453
 20
254.198980831
 10
286.530193608
 20
254.207384836
 10
286.545462664
 20
254.215654719
 10
286.560804869
 20
254.223790455
 10
286.576220473
 20
254.231792022
 10
286.591709722
 20
254.239659395
 10
286.607272865
 20
254.247392551
 10
286.622910149
 20
254.254991466
 10
286.638621824
 20
254.262456117
 10
286.654408137
 20
254.269786479
 10
286.670269335
 20
254.276982529
 10
286.686205668
 20
254.284044243
 10
286.702217383
 20
254.290971598
 10
286.718304728
 20
254.297764569
 10
286.734467951
 20
254.304423134
 10
286.750707301
 20
254.310947268
 10
286.767023025
 20
254.317336948
 10
286.783415371
 20
254.32359215
 10
286.799884588
 20
254.32971285
 10
286.816430923
 20
254.335699025
 10
286.833054625
 20
254.34155065
 10
286.849755942
 20
254.347267703
 10
286.866535121
 20
254.35285016
 10
286.883387212
 20
254.35829387
 10
286.900306427
 20
254.363594131
 10
286.917291766
 20
254.368750087
 10
286.934342225
 20
254.37376088
 10
286.951456803
 20
254.378625655
 10
286.968634496
 20
254.383343556
 10
286.985874303
 20
254.387913727
 10
287.00317522
 20
254.392335311
 10
287.020536247
 20
254.396607453
 10
287.03795638
 20
254.400729296
 10
287.055434617
 20
254.404699985
 10
287.072969955
 20
254.408518662
 10
287.090561393
 20
254.412184472
 10
287.108207927
 20
254.41569656
 10
287.125908556
 20
254.419054067
 10
287.143662277
 20
254.42225614
 10
287.161468088
 20
254.425301921
 10
287.179324986
 20
254.428190554
 10
287.197231969
 20
254.430921184
 10
287.215188034
 20
254.433492953
 10
287.23319218
 20
254.435905007
 10
287.251243403
 20
254.438156488
 10
287.269340702
 20
254.440246542
 10
287.287483074
 20
254.44217431
 10
287.305669516
 20
254.443938939
 10
287.323899027
 20
254.44553957
 10
287.342170604
 20
254.446975349
 10
287.360483244
 20
254.448245419
 10
287.378835946
 20
254.449348924
 10
287.397227706
 20
254.450285008
 10
287.415657523
 20
254.451052814
 10
287.434124393
 20
254.451651487
 10
287.452627315
 20
254.452080171
 10
287.471165287
 20
254.452338009
 10
287.489737305
 20
254.452424145
  0
LWPOLYLINE
  5
229
330
1F
100
AcDbEntity
  8
0
  6
Continuous
 62
     7
100
AcDbPolyline
 90
    36
 70
   128
 43
0.0
 10
287.489737305
 20
239.25148297
 10
287.452628933
 20
239.251816597
 10
287.415693217
 20
239.252814233
 10
287.378934785
 20
239.254471008
 10
287.342358266
 20
239.256782051
 10
287.305968289
 20
239.259742494
 10
287.269769481
 20
239.263347467
 10
287.233766472
 20
239.267592099
 10
287.19796389
 20
239.272471522
 10
287.162366364
 20
239.277980865
 10
287.126978523
 20
239.284115259
 10
287.091804994
 20
239.290869834
 10
287.056850407
 20
239.29823972
 10
287.022119391
 20
239.306220048
 10
286.987616573
 20
239.314805948
 10
286.953346583
 20
239.32399255
 10
286.919314049
 20
239.333774984
 10
286.8855236
 20
239.344148382
 10
286.851979864
 20
239.355107872
 10
286.81868747
 20
239.366648586
 10
286.785651046
 20
239.378765654
 10
286.752875222
 20
239.391454205
 10
286.720364625
 20
239.404709371
 10
286.688123885
 20
239.418526281
 10
286.65615763
 20
239.432900067
 10
286.624470489
 20
239.447825857
 10
286.593067089
 20
239.463298783
 10
286.561952061
 20
239.479313974
 10
286.531130032
 20
239.495866562
 10
286.500605631
 20
239.512951676
 10
286.470383487
 20
239.530564446
 10
286.440468228
 20
239.548700004
 10
286.410864482
 20
239.567353478
 10
286.38157688
 20
239.58652
 10
286.352610048
 20
239.6061947
 10
286.323968616
 20
239.626372708
  0
LWPOLYLINE
  5
22B
330
1F
100
AcDbEntity
  8
0
  6
Continuous
 62
     7
100
AcDbPolyline
 90
   141
 70
   128
 43
0.0
 10
286.323968616
 20
239.626372708
 10
286.305071667
 20
239.640019525
 10
286.286294142
 20
239.653762716
 10
286.267635514
 20
239.66760231
 10
286.249095252
 20
239.681538336
 10
286.230672827
 20
239.695570822
 10
286.21236771
 20
239.709699799
 10
286.194179371
 20
239.723925295
 10
286.17610728
 20
239.738247339
 10
286.15815091
 20
239.752665961
 10
286.140309729
 20
239.767181189
 10
286.122583209
 20
239.781793053
 10
286.104970819
 20
239.796501581
 10
286.087472032
 20
239.811306803
 10
286.070086317
 20
239.826208748
 10
286.052813144
 20
239.841207445
 10
286.035651985
 20
239.856302923
 10
286.01860231
 20
239.871495211
 10
286.00166359
 20
239.886784338
 10
285.984835295
 20
239.902170333
 10
285.968116896
 20
239.917653226
 10
285.951507862
 20
239.933233045
 10
285.935007666
 20
239.94890982
 10
285.918615777
 20
239.96468358
 10
285.902331667
 20
239.980554353
 10
285.886154805
 20
239.996522169
 10
285.870084662
 20
240.012587057
 10
285.854120709
 20
240.028749046
 10
285.838262416
 20
240.045008165
 10
285.822509254
 20
240.061364443
 10
285.806860694
 20
240.07781791
 10
285.791316205
 20
240.094368594
 10
285.77587526
 20
240.111016524
 10
285.760537328
 20
240.12776173
 10
285.745301879
 20
240.14460424
 10
285.730168385
 20
240.161544085
 10
285.7151332
 20
240.17858744
 10
285.700193577
 20
240.195740136
 10
285.685350331
 20
240.213001682
 10
285.67060428
 20
240.230371587
 10
285.655956241
 20
240.247849362
 10
285.64140703
 20
240.265434513
 10
285.626957463
 20
240.283126552
 10
285.612608357
 20
240.300924987
 10
285.598360529
 20
240.318829326
 10
285.584214795
 20
240.33683908
 10
285.570171973
 20
240.354953758
 10
285.556232878
 20
240.373172867
 10
285.542398327
 20
240.391495919
 10
285.528669137
 20
240.409922422
 10
285.515046125
 20
240.428451884
 10
285.501530107
 20
240.447083816
 10
285.4881219
 20
240.465817726
 10
285.47482232
 20
240.484653124
 10
285.461632184
 20
240.503589518
 10
285.448552308
 20
240.522626418
 10
285.43558351
 20
240.541763333
 10
285.422726606
 20
240.560999772
 10
285.409982412
 20
240.580335245
 10
285.397351746
 20
240.599769259
 10
285.384835423
 20
240.619301326
 10
285.37243426
 20
240.638930953
 10
285.360149075
 20
240.658657649
 10
285.347980683
 20
240.678480925
 10
285.335929901
 20
240.698400289
 10
285.323997546
 20
240.718415251
 10
285.312184434
 20
240.738525318
 10
285.300491383
 20
240.758730002
 10
285.288919208
 20
240.77902881
 10
285.277468727
 20
240.799421252
 10
285.266140756
 20
240.819906837
 10
285.254933495
 20
240.84048664
 10
285.243845144
 20
240.861162449
 10
285.23287652
 20
240.881934842
 10
285.222028439
 20
240.902804397
 10
285.211301716
 20
240.923771694
 10
285.200697167
 20
240.944837309
 10
285.190215608
 20
240.966001823
 10
285.179857856
 20
240.987265813
 10
285.169624725
 20
241.008629858
 10
285.159517033
 20
241.030094537
 10
285.149535594
 20
241.051660427
 10
285.139681225
 20
241.073328107
 10
285.129954742
 20
241.095098156
 10
285.12035696
 20
241.116971152
 10
285.110888696
 20
241.138947674
 10
285.101550765
 20
241.1610283
 10
285.092343984
 20
241.183213608
 10
285.083269168
 20
241.205504177
 10
285.074327134
 20
241.227900586
 10
285.065518696
 20
241.250403413
 10
285.056844672
 20
241.273013236
 10
285.048305877
 20
241.295730634
 10
285.039903126
 20
241.318556185
 10
285.031637237
 20
241.341490468
 10
285.023509024
 20
241.364534061
 10
285.015519304
 20
241.387687542
 10
285.007668893
 20
241.410951491
 10
284.999958606
 20
241.434326486
 10
284.992389259
 20
241.457813104
 10
284.984961669
 20
241.481411925
 10
284.977676651
 20
241.505123528
 10
284.970535022
 20
241.528948489
 10
284.963537597
 20
241.552887388
 10
284.956685191
 20
241.576940804
 10
284.949978622
 20
241.601109315
 10
284.943424861
 20
241.625377905
 10
284.937031035
 20
241.649730489
 10
284.930798194
 20
241.674166035
 10
284.924727388
 20
241.698683513
 10
284.918819665
 20
241.723281894
 10
284.913076075
 20
241.747960147
 10
284.907497668
 20
241.772717242
 10
284.902085492
 20
241.797552148
 10
284.896840597
 20
241.822463836
 10
284.891764032
 20
241.847451275
 10
284.886856847
 20
241.872513436
 10
284.882120091
 20
241.897649287
 10
284.877554813
 20
241.922857799
 10
284.873162063
 20
241.948137941
 10
284.86894289
 20
241.973488684
 10
284.864898343
 20
241.998908997
 10
284.861029471
 20
242.02439785
 10
284.857337325
 20
242.049954212
 10
284.853822953
 20
242.075577054
 10
284.850487404
 20
242.101265346
 10
284.847331729
 20
242.127018056
 10
284.844356975
 20
242.152834156
 10
284.841564194
 20
242.178712614
 10
284.838954433
 20
242.2046524
 10
284.836528743
 20
242.230652486
 10
284.834288172
 20
242.256711839
 10
284.83223377
 20
242.28282943
 10
284.830366586
 20
242.309004229
 10
284.82868767
 20
242.335235205
 10
284.827198071
 20
242.361521329
 10
284.825898839
 20
242.38786157
 10
284.824791022
 20
242.414254898
 10
284.823875669
 20
242.440700283
 10
284.823153832
 20
242.467196694
 10
284.822626557
 20
242.493743102
  0
LINE
  5
22C
330
1F
100
AcDbEntity
  8
0
  6
Continuous
 62
     7
100
AcDbLine
 10
284.822626743
 20
242.493742956
 30
0.0
 11
284.822626743
 21
251.210163692
 31
0.0
  0
LINE
  5
22D
330
1F
100
AcDbEntity
  8
0
  6
Continuous
 62
     7
100
AcDbLine
 10
287.489737157
 20
254.452424003
 30
0.0
 11
287.805876467
 21
254.452424003
 31
0.0
  0
LINE
  5
22E
330
1F
100
AcDbEntity
  8
0
  6
Continuous
 62
     7
100
AcDbLine
 10
287.805876467
 20
239.251483111
 30
0.0
 11
287.489737157
 21
239.251483111
 31
0.0
  0
LINE
  5
22F
330
1F
100
AcDbEntity
  8
0
  6
Continuous
 62
     7
100
AcDbLine
 10
312.322625663
 20
258.051953158
 30
0.0
 11
272.322626557
 21
258.051953158
 31
0.0
  0
LINE
  5
230
330
1F
100
AcDbEntity
  8
0
  6
Continuous
 62
     7
100
AcDbLine
 10
312.322625663
 20
235.651953957
 30
0.0
 11
312.322625663
 21
258.051953158
 31
0.0
  0
LINE
  5
231
330
1F
100
AcDbEntity
  8
0
  6
Continuous
 62
     7
100
AcDbLine
 10
272.322626557
 20
235.651953957
 30
0.0
 11
272.322626557
 21
258.051953158
 31
0.0
  0
ARC
  5
232
330
1F
100
AcDbEntity
  8
0
  6
Continuous
 62
     7
100
AcDbCircle
 10
303.655150163
 20
246.851953557
 30
0.0
 40
8.881514122
100
AcDbArc
 50
347.395771674
 51
12.604228326
  0
LINE
  5
233
330
1F
100
AcDbEntity
  8
0
  6
LTYPE1
 62
     3
100
AcDbLine
 10
299.322626557
 20
212.251953557
 30
0.0
 11
299.322626557
 21
227.051953557
 31
0.0
  0
LINE
  5
234
330
1F
100
AcDbEntity
  8
0
  6
LTYPE1
 62
     3
100
AcDbLine
 10
297.922626557
 20
219.651953557
 30
0.0
 11
312.722626557
 21
219.651953557
 31
0.0
  0
LINE
  5
235
330
1F
100
AcDbEntity
  8
0
  6
LTYPE1
 62
     3
100
AcDbLine
 10
305.322626557
 20
212.251953557
 30
0.0
 11
305.322626557
 21
227.051953557
 31
0.0
  0
LINE
  5
236
330
1F
100
AcDbEntity
  8
0
  6
LTYPE1
 62
     3
100
AcDbLine
 10
273.977785035
 20
223.47865094
 30
0.0
 11
288.667468079
 21
221.674984658
 31
0.0
  0
LINE
  5
237
330
1F
100
AcDbEntity
  8
0
  6
LTYPE1
 62
     3
100
AcDbLine
 10
273.985336182
 20
215.801252974
 30
0.0
 11
288.675019227
 21
217.604919256
 31
0.0
  0
ARC
  5
238
330
1F
100
AcDbEntity
  8
0
  6
LTYPE1
 62
     3
100
AcDbCircle
 10
305.143734197
 20
219.651953557
 30
0.0
 40
24.239636962
100
AcDbArc
 50
158.544924237
 51
202.471843412
  0
LINE
  5
239
330
1F
100
AcDbEntity
  8
0
  6
LTYPE1
 62
     3
100
AcDbLine
 10
269.522626557
 20
246.851953557
 30
0.0
 11
301.222626557
 21
246.851953557
 31
0.0
  0
MTEXT
  5
23A
330
1F
100
AcDbEntity
  8
0
  6
Continuous
 62
     3
100
AcDbMText
 10
305.725169737
 20
252.727086844
 30
0.0
 40
3.78
 41
5.6
 71
     7
 72
     1
  1
\W0.741;Ｌ
  7
KANJI2
 73
     1
 44
1.0
  0
MTEXT
  5
23C
330
1F
100
AcDbEntity
  8
0
  6
Continuous
 62
     3
100
AcDbMText
 10
305.825169737
 20
237.127086844
 30
0.0
 40
3.78
 41
5.6
 71
     7
 72
     1
  1
\W0.741;Ｄ
  7
KANJI2
 73
     1
 44
1.0
  0
MTEXT
  5
23D
330
1F
100
AcDbEntity
  8
0
  6
Continuous
 62
     2
100
AcDbMText
 10
283.625893669
 20
198.096226452
 30
0.0
 40
3.0
 41
48.0
 71
     7
 72
     1
  1
\T1.125;\W0.800;Ｓｃａｌｅ　２：１
  7
KANJI3
 73
     1
 44
1.0
  0
MTEXT
  5
23F
330
1F
100
AcDbEntity
  8
0
  6
Continuous
 62
     2
100
AcDbMText
 10
285.025893669
 20
202.096226452
 30
0.0
 40
3.0
 41
40.2
 71
     7
 72
     1
  1
\T1.125;\W0.755;Ｄｅｔａｉｌ　Ａ
  7
KANJI3
 73
     1
 44
1.0
  0
MTEXT
  5
240
330
1F
100
AcDbEntity
  8
0
  6
Continuous
 62
     3
100
AcDbMText
 10
318.993190773
 20
238.351953556
 30
0.0
 40
3.0
 41
53.4
 71
     7
 72
     1
  1
\T1.111;\W0.900;動作切替スイッチを
  7
KANJI4
 73
     1
 44
1.0
  0
LINE
  5
242
330
1F
100
AcDbEntity
  8
0
  6
Continuous
 62
     3
100
AcDbLine
 10
306.193190773
 20
245.151953556
 30
0.0
 11
307.549442151
 21
243.051814941
 31
0.0
  0
LINE
  5
243
330
1F
100
AcDbEntity
  8
0
  6
Continuous
 62
     3
100
AcDbLine
 10
306.193190773
 20
245.151953556
 30
0.0
 11
308.417808228
 21
244.011305853
 31
0.0
  0
LINE
  5
244
330
1F
100
AcDbEntity
  8
0
  6
Continuous
 62
     3
100
AcDbLine
 10
319.231462378
 20
233.351953556
 30
0.0
 11
345.693190773
 21
233.351953556
 31
0.0
  0
LINE
  5
245
330
1F
100
AcDbEntity
  8
0
  6
Continuous
 62
     3
100
AcDbLine
 10
306.193190773
 20
245.151953556
 30
0.0
 11
319.231462378
 21
233.351953556
 31
0.0
  0
MTEXT
  5
246
330
1F
100
AcDbEntity
  8
0
  6
Continuous
 62
     3
100
AcDbMText
 10
188.075107441
 20
168.674084458
 30
0.0
 40
3.0
 41
14.4
 71
     7
 72
     1
  1
\W0.800;センサ
  7
KANJI5
 73
     1
 44
1.0
  0
MTEXT
  5
248
330
1F
100
AcDbEntity
  8
0
  6
Continuous
 62
     3
100
AcDbMText
 10
188.075107441
 20
157.474084458
 30
0.0
 40
3.0
 41
24.0
 71
     7
 72
     1
  1
\W0.800;センサ金具
  7
KANJI5
 73
     1
 44
1.0
  0
MTEXT
  5
249
330
1F
100
AcDbEntity
  8
0
  6
Continuous
 62
     3
100
AcDbMText
 10
189.275107441
 20
153.474084458
 30
0.0
 40
3.0
 41
120.0
 71
     7
 72
     1
  1
\W0.800;ＭＳ－ＣＸ２－１　＜パナソニックデバイスＳＵＮＸ＞
  7
KANJI5
 73
     1
 44
1.0
  0
CIRCLE
  5
24A
330
1F
100
AcDbEntity
  8
0
  6
Continuous
 62
     4
100
AcDbCircle
 10
170.667840477
 20
202.999948823
 30
0.0
 40
10.0
  0
LINE
  5
24B
330
1F
100
AcDbEntity
  8
0
  6
Continuous
 62
     4
100
AcDbLine
 10
201.726460837
 20
213.426135806
 30
0.0
 11
204.776460837
 21
213.426135806
 31
0.0
  0
MTEXT
  5
24C
330
1F
100
AcDbEntity
  8
0
  6
Continuous
 62
     3
100
AcDbMText
 10
201.726460837
 20
214.426135806
 30
0.0
 40
3.0
 41
5.4
 71
     7
 72
     1
  1
\T1.111;\W0.900;Ａ
  7
KANJI4
 73
     1
 44
1.0
  0
MTEXT
  5
24D
330
1F
100
AcDbEntity
  8
0
  6
Continuous
 62
     3
100
AcDbMText
 10
318.993190773
 20
234.351953556
 30
0.0
 40
3.0
 41
47.4
 71
     7
 72
     1
  1
\T1.111;\W0.900;「Ｌ」に設定する
  7
KANJI4
 73
     1
 44
1.0
  0
LINE
  5
24E
330
1F
100
AcDbEntity
  8
0
  6
Continuous
 62
     7
100
AcDbLine
 10
302.501699939
 20
245.77955436
 30
0.0
 11
305.495025755
 21
248.772880176
 31
0.0
  0
LINE
  5
24F
330
1F
100
AcDbEntity
  8
0
  6
Continuous
 62
     7
100
AcDbLine
 10
306.343552451
 20
247.92435348
 30
0.0
 11
303.350226635
 21
244.931027664
 31
0.0
  0
CIRCLE
  5
250
330
1F
100
AcDbEntity
  8
0
  6
Continuous
 62
     3
100
AcDbCircle
 10
304.122959313
 20
248.30725572
 30
0.0
 40
0.5
  0
CIRCLE
  5
251
330
1F
100
AcDbEntity
  8
0
  6
Continuous
 62
     3
100
AcDbCircle
 10
305.84930491
 20
246.480910123
 30
0.0
 40
0.5
  0
LINE
  5
252
330
1F
100
AcDbEntity
  8
0
  6
Continuous
 62
     3
100
AcDbLine
 10
310.49476402
 20
126.109427788
 30
0.0
 11
310.49476402
 21
106.989484194
 31
0.0
  0
LINE
  5
253
330
1F
100
AcDbEntity
  8
0
  6
Continuous
 62
     3
100
AcDbLine
 10
310.49476402
 20
108.989484194
 30
0.0
 11
308.079949455
 21
109.636531806
 31
0.0
  0
LINE
  5
254
330
1F
100
AcDbEntity
  8
0
  6
Continuous
 62
     3
100
AcDbLine
 10
310.49476402
 20
108.989484194
 30
0.0
 11
308.079949455
 21
108.342436581
 31
0.0
  0
LWPOLYLINE
  5
256
330
1F
100
AcDbEntity
  8
0
  6
Continuous
 62
     3
100
AcDbPolyline
 90
     3
 70
   128
 43
0.0
 10
310.49476402
 20
108.989484194
 10
178.054040806
 20
108.989484194
 10
180.468855372
 20
108.342436581
  0
LINE
  5
257
330
1F
100
AcDbEntity
  8
0
  6
Continuous
 62
     3
100
AcDbLine
 10
178.054040806
 20
108.989484194
 30
0.0
 11
180.468855372
 21
109.636531806
 31
0.0
  0
LINE
  5
258
330
1F
100
AcDbEntity
  8
0
  6
Continuous
 62
     3
100
AcDbLine
 10
178.054040806
 20
128.589484194
 30
0.0
 11
178.054040806
 21
106.989484194
 31
0.0
  0
MTEXT
  5
259
330
1F
100
AcDbEntity
  8
0
  6
Continuous
 62
     3
100
AcDbMText
 10
240.224402413
 20
109.989484194
 30
0.0
 40
3.0
 41
16.2
 71
     7
 72
     1
  1
\T1.167;\W0.600;２０００
  7
KANJI0
 73
     1
 44
1.0
  0
LINE
  5
25A
330
1F
100
AcDbEntity
  8
0
  6
Continuous
 62
     7
100
AcDbLine
 10
108.22396514
 20
170.339483846
 30
0.0
 11
107.723964127
 21
170.339483846
 31
0.0
  0
LINE
  5
25B
330
1F
100
AcDbEntity
  8
0
  6
Continuous
 62
     7
100
AcDbLine
 10
107.723964127
 20
164.339483925
 30
0.0
 11
108.22396514
 21
164.339483925
 31
0.0
  0
LINE
  5
25C
330
1F
100
AcDbEntity
  8
0
  6
Continuous
 62
     7
100
AcDbLine
 10
107.723964127
 20
170.089483852
 30
0.0
 11
106.286765756
 21
170.089483852
 31
0.0
  0
LINE
  5
25D
330
1F
100
AcDbEntity
  8
0
  6
Continuous
 62
     7
100
AcDbLine
 10
106.286765756
 20
164.589483966
 30
0.0
 11
107.723964127
 21
164.589483966
 31
0.0
  0
ARC
  5
25E
330
1F
100
AcDbEntity
  8
0
  6
Continuous
 62
     7
100
AcDbCircle
 10
112.723963918
 20
167.339483851
 30
0.0
 40
7.0
100
AcDbArc
 50
156.867604176
 51
165.095379449
  0
ARC
  5
25F
330
1F
100
AcDbEntity
  8
0
  6
Continuous
 62
     7
100
AcDbCircle
 10
112.723963918
 20
167.339483851
 30
0.0
 40
7.0
100
AcDbArc
 50
194.898607071
 51
203.132395824
  0
LINE
  5
260
330
1F
100
AcDbEntity
  8
0
  6
Continuous
 62
     7
100
AcDbLine
 10
108.22396514
 20
144.939483818
 30
0.0
 11
107.723964127
 21
144.939483818
 31
0.0
  0
LINE
  5
261
330
1F
100
AcDbEntity
  8
0
  6
Continuous
 62
     7
100
AcDbLine
 10
107.723964127
 20
138.939484698
 30
0.0
 11
108.22396514
 21
138.939484698
 31
0.0
  0
LINE
  5
262
330
1F
100
AcDbEntity
  8
0
  6
Continuous
 62
     7
100
AcDbLine
 10
107.723964127
 20
144.689483312
 30
0.0
 11
106.286765756
 21
144.689483312
 31
0.0
  0
LINE
  5
263
330
1F
100
AcDbEntity
  8
0
  6
Continuous
 62
     7
100
AcDbLine
 10
106.286765756
 20
139.189483342
 30
0.0
 11
107.723964127
 21
139.189483342
 31
0.0
  0
ARC
  5
264
330
1F
100
AcDbEntity
  8
0
  6
Continuous
 62
     7
100
AcDbCircle
 10
112.723963918
 20
141.939483851
 30
0.0
 40
7.0
100
AcDbArc
 50
156.867604176
 51
165.095379449
  0
ARC
  5
265
330
1F
100
AcDbEntity
  8
0
  6
Continuous
 62
     7
100
AcDbCircle
 10
112.723963918
 20
141.939483851
 30
0.0
 40
7.0
100
AcDbArc
 50
194.898607071
 51
203.132395824
  0
LINE
  5
266
330
1F
100
AcDbEntity
  8
0
  6
Continuous
 62
     7
100
AcDbLine
 10
113.173963251
 20
139.139484358
 30
0.0
 11
113.173963251
 21
137.654203665
 31
0.0
  0
LINE
  5
267
330
1F
100
AcDbEntity
  8
0
  6
Continuous
 62
     7
100
AcDbLine
 10
116.873964416
 20
137.654203665
 30
0.0
 11
116.873964416
 21
139.139484358
 31
0.0
  0
LWPOLYLINE
  5
269
330
1F
100
AcDbEntity
  8
0
  6
Continuous
 62
     7
100
AcDbPolyline
 90
   281
 70
   128
 43
0.0
 10
113.173963251
 20
137.654203665
 10
113.173963251
 20
137.631458355
 10
113.173963251
 20
137.608715551
 10
113.173963251
 20
137.585977757
 10
113.173963251
 20
137.563247479
 10
113.173963251
 20
137.540527222
 10
113.173963251
 20
137.517819491
 10
113.173963251
 20
137.495126792
 10
113.173963251
 20
137.472451629
 10
113.173963251
 20
137.449796509
 10
113.173963251
 20
137.427163936
 10
113.173963251
 20
137.404556416
 10
113.173963251
 20
137.381976454
 10
113.173963251
 20
137.359426555
 10
113.173963251
 20
137.336909224
 10
113.173963251
 20
137.314426967
 10
113.173963251
 20
137.291982289
 10
113.173963251
 20
137.269577696
 10
113.173963251
 20
137.247215692
 10
113.173963251
 20
137.224898783
 10
113.173963251
 20
137.202629473
 10
113.173963251
 20
137.180410269
 10
113.173963251
 20
137.158243676
 10
113.173963251
 20
137.136132199
 10
113.173963251
 20
137.114078342
 10
113.173963251
 20
137.092084612
 10
113.173963251
 20
137.070153514
 10
113.173963251
 20
137.048287553
 10
113.173963251
 20
137.026489234
 10
113.173963251
 20
137.004761062
 10
113.173963251
 20
136.983105543
 10
113.173963251
 20
136.961525182
 10
113.173963251
 20
136.940022484
 10
113.173963251
 20
136.918599955
 10
113.173963251
 20
136.897260099
 10
113.173963251
 20
136.876005423
 10
113.173963251
 20
136.854529897
 10
113.173963251
 20
136.833144147
 10
113.173963251
 20
136.811847688
 10
113.173963251
 20
136.790640036
 10
113.173963251
 20
136.769520707
 10
113.173963251
 20
136.748489216
 10
113.173963251
 20
136.727545078
 10
113.173963251
 20
136.706687809
 10
113.173963251
 20
136.685916925
 10
113.173963251
 20
136.66523194
 10
113.173963251
 20
136.644632372
 10
113.173963251
 20
136.624117734
 10
113.173963251
 20
136.603687543
 10
113.173963251
 20
136.583341315
 10
113.173963251
 20
136.563078564
 10
113.173963251
 20
136.542898806
 10
113.173963251
 20
136.522801557
 10
113.173963251
 20
136.502786332
 10
113.173963251
 20
136.482852647
 10
113.173963251
 20
136.463000018
 10
113.173963251
 20
136.443227959
 10
113.173963251
 20
136.423535986
 10
113.173963251
 20
136.403923616
 10
113.173963251
 20
136.384390363
 10
113.173963251
 20
136.364935742
 10
113.173963251
 20
136.34555927
 10
113.173963251
 20
136.326260463
 10
113.173963251
 20
136.307038834
 10
113.173963251
 20
136.287893901
 10
113.173963251
 20
136.268825178
 10
113.173963251
 20
136.249832181
 10
113.173963251
 20
136.230914426
 10
113.173963251
 20
136.212071428
 10
113.173963251
 20
136.193302703
 10
113.173963251
 20
136.174607766
 10
113.173963251
 20
136.155803718
 10
113.173963251
 20
136.137074741
 10
113.173963251
 20
136.118421152
 10
113.173963251
 20
136.099843272
 10
113.173963251
 20
136.081341418
 10
113.173963251
 20
136.06291591
 10
113.173963251
 20
136.044567067
 10
113.173963251
 20
136.026295208
 10
113.173963251
 20
136.008100651
 10
113.173963251
 20
135.989983717
 10
113.173963251
 20
135.971944723
 10
113.173963251
 20
135.95398399
 10
113.173963251
 20
135.936101835
 10
113.173963251
 20
135.918298578
 10
113.173963251
 20
135.900574538
 10
113.173963251
 20
135.882930034
 10
113.173963251
 20
135.865365385
 10
113.173963251
 20
135.84788091
 10
113.173963251
 20
135.830476928
 10
113.173963251
 20
135.813153758
 10
113.173963251
 20
135.795911719
 10
113.173963251
 20
135.77875113
 10
113.173963251
 20
135.76167231
 10
113.173963251
 20
135.744675578
 10
113.173963251
 20
135.727761253
 10
113.173963251
 20
135.710929654
 10
113.173963251
 20
135.694181101
 10
113.173963251
 20
135.677515911
 10
113.173963251
 20
135.660934404
 10
113.173963251
 20
135.644436899
 10
113.173963251
 20
135.628023716
 10
113.173963251
 20
135.611695172
 10
113.173963251
 20
135.595451588
 10
113.173963251
 20
135.579293282
 10
113.173963251
 20
135.563220572
 10
113.173963251
 20
135.54715513
 10
113.173963251
 20
135.531176505
 10
113.173963251
 20
135.515284751
 10
113.173963251
 20
135.499479919
 10
113.173963251
 20
135.483762063
 10
113.173963251
 20
135.468131235
 10
113.173963251
 20
135.452587487
 10
113.173963251
 20
135.437130872
 10
113.173963251
 20
135.421761442
 10
113.173963251
 20
135.40647925
 10
113.173963251
 20
135.391284348
 10
113.173963251
 20
135.37617679
 10
113.173963251
 20
135.361156626
 10
113.173963251
 20
135.346223911
 10
113.173963251
 20
135.331378696
 10
113.173963251
 20
135.316621033
 10
113.173963251
 20
135.301950976
 10
113.173963251
 20
135.287368577
 10
113.173963251
 20
135.272873888
 10
113.173963251
 20
135.258466962
 10
113.173963251
 20
135.244147852
 10
113.173963251
 20
135.229916609
 10
113.173963251
 20
135.215773286
 10
113.173963251
 20
135.201717936
 10
113.173963251
 20
135.187750612
 10
113.173963251
 20
135.173871365
 10
113.173963251
 20
135.160080249
 10
113.173963251
 20
135.146377315
 10
113.173963251
 20
135.132762617
 10
113.173963251
 20
135.119236206
 10
113.173963251
 20
135.105798136
 10
113.173963251
 20
135.092448458
 10
113.173963251
 20
135.079187226
 10
113.173963251
 20
135.066014491
 10
113.173963251
 20
135.052930307
 10
113.173963251
 20
135.039934725
 10
113.173963251
 20
135.027027918
 10
113.173963251
 20
135.014210057
 10
113.173963251
 20
135.001481315
 10
113.173963251
 20
134.988841862
 10
113.173963251
 20
134.97629187
 10
113.173963251
 20
134.963831511
 10
113.173963251
 20
134.951460958
 10
113.173963251
 20
134.93918038
 10
113.173963251
 20
134.926989951
 10
113.173963251
 20
134.914889841
 10
113.173963251
 20
134.902880223
 10
113.173963251
 20
134.890961268
 10
113.173963251
 20
134.879133147
 10
113.173963251
 20
134.867396033
 10
113.173963251
 20
134.855750097
 10
113.173963251
 20
134.844195511
 10
113.173963251
 20
134.832732446
 10
113.173963251
 20
134.821361074
 10
113.173963251
 20
134.810081567
 10
113.173963251
 20
134.798894096
 10
113.173963251
 20
134.787798834
 10
113.173963251
 20
134.776795951
 10
113.173963251
 20
134.76588562
 10
113.173963251
 20
134.755068012
 10
113.173963251
 20
134.744343298
 10
113.173963251
 20
134.733711651
 10
113.173963251
 20
134.723173242
 10
113.173963251
 20
134.712728243
 10
113.173963251
 20
134.702376825
 10
113.173963251
 20
134.692119161
 10
113.173963251
 20
134.681955421
 10
113.173963251
 20
134.671885777
 10
113.173963251
 20
134.661910402
 10
113.173963251
 20
134.652029467
 10
113.173963251
 20
134.642290889
 10
113.173963251
 20
134.632645812
 10
113.173963251
 20
134.623094051
 10
113.173963251
 20
134.613635423
 10
113.173963251
 20
134.604269743
 10
113.173963251
 20
134.594996827
 10
113.173963251
 20
134.585816491
 10
113.173963251
 20
134.576728551
 10
113.173963251
 20
134.567732822
 10
113.173963251
 20
134.558829121
 10
113.173963251
 20
134.550017263
 10
113.173963251
 20
134.541297064
 10
113.173963251
 20
134.53266834
 10
113.173963251
 20
134.524130907
 10
113.173963251
 20
134.51568458
 10
113.173963251
 20
134.507329176
 10
113.173963251
 20
134.499064509
 10
113.173963251
 20
134.490890397
 10
113.173963251
 20
134.482806655
 10
113.173963251
 20
134.474813098
 10
113.173963251
 20
134.466909543
 10
113.173963251
 20
134.459095806
 10
113.173963251
 20
134.451371701
 10
113.173963251
 20
134.443737045
 10
113.173963251
 20
134.436191655
 10
113.173963251
 20
134.428735345
 10
113.173963251
 20
134.421367931
 10
113.173963251
 20
134.41408923
 10
113.173963251
 20
134.406899057
 10
113.173963251
 20
134.399797228
 10
113.173963251
 20
134.392783559
 10
113.173963251
 20
134.385857865
 10
113.173963251
 20
134.379019963
 10
113.173963251
 20
134.372269668
 10
113.173963251
 20
134.365606797
 10
113.173963251
 20
134.359094875
 10
113.173963251
 20
134.352669448
 10
113.173963251
 20
134.346331459
 10
113.173963251
 20
134.340081853
 10
113.173963251
 20
134.333921572
 10
113.173963251
 20
134.327851561
 10
113.173963251
 20
134.321872764
 10
113.173963251
 20
134.315986124
 10
113.173963251
 20
134.310192586
 10
113.173963251
 20
134.304493093
 10
113.173963251
 20
134.298888588
 10
113.173963251
 20
134.293380017
 10
113.173963251
 20
134.287968323
 10
113.173963251
 20
134.282654449
 10
113.173963251
 20
134.27743934
 10
113.173963251
 20
134.272323939
 10
113.173963251
 20
134.26730919
 10
113.173963251
 20
134.262396037
 10
113.173963251
 20
134.257585424
 10
113.173963251
 20
134.252878295
 10
113.173963251
 20
134.248275594
 10
113.173963251
 20
134.243778264
 10
113.173963251
 20
134.239387249
 10
113.173963251
 20
134.235103493
 10
113.173963251
 20
134.230927941
 10
113.173963251
 20
134.226861535
 10
113.173963251
 20
134.22290522
 10
113.173963251
 20
134.21905994
 10
113.173963251
 20
134.215326637
 10
113.173963251
 20
134.211706258
 10
113.173963251
 20
134.208199744
 10
113.173963251
 20
134.20480804
 10
113.173963251
 20
134.20153209
 10
113.173963251
 20
134.198372838
 10
113.173963251
 20
134.195331228
 10
113.173963251
 20
134.192448684
 10
113.173963251
 20
134.189678049
 10
113.173963251
 20
134.187016031
 10
113.173963251
 20
134.184459338
 10
113.173963251
 20
134.18200468
 10
113.173963251
 20
134.179648765
 10
113.173963251
 20
134.177388301
 10
113.173963251
 20
134.175219998
 10
113.173963251
 20
134.173140563
 10
113.173963251
 20
134.171146705
 10
113.173963251
 20
134.169235132
 10
113.173963251
 20
134.167402554
 10
113.173963251
 20
134.165645679
 10
113.173963251
 20
134.163961216
 10
113.173963251
 20
134.162345872
 10
113.173963251
 20
134.160796357
 10
113.173963251
 20
134.159309379
 10
113.173963251
 20
134.157881647
 10
113.173963251
 20
134.156509869
 10
113.173963251
 20
134.155190754
 10
113.173963251
 20
134.15392101
 10
113.173963251
 20
134.152697347
 10
113.173963251
 20
134.151516472
 10
113.173963251
 20
134.150375094
 10
113.173963251
 20
134.149269922
 10
113.173963251
 20
134.148197664
 10
113.173963251
 20
134.147155029
 10
113.173963251
 20
134.146138726
 10
113.173963251
 20
134.145145462
 10
113.173963251
 20
134.144171947
 10
113.173963251
 20
134.143214889
 10
113.173963251
 20
134.142270997
 10
113.173963251
 20
134.141336979
 10
113.173963251
 20
134.140409544
 10
113.173963251
 20
134.139485401
  0
LWPOLYLINE
  5
26B
330
1F
100
AcDbEntity
  8
0
  6
Continuous
 62
     7
100
AcDbPolyline
 90
   281
 70
   128
 43
0.0
 10
116.873964416
 20
134.139485401
 10
116.873964416
 20
134.140409544
 10
116.873964416
 20
134.141336979
 10
116.873964416
 20
134.142270997
 10
116.873964416
 20
134.143214889
 10
116.873964416
 20
134.144171947
 10
116.873964416
 20
134.145145462
 10
116.873964416
 20
134.146138726
 10
116.873964416
 20
134.147155029
 10
116.873964416
 20
134.148197664
 10
116.873964416
 20
134.149269922
 10
116.873964416
 20
134.150375094
 10
116.873964416
 20
134.151516472
 10
116.873964416
 20
134.152697347
 10
116.873964416
 20
134.15392101
 10
116.873964416
 20
134.155190754
 10
116.873964416
 20
134.156509869
 10
116.873964416
 20
134.157881647
 10
116.873964416
 20
134.159309379
 10
116.873964416
 20
134.160796357
 10
116.873964416
 20
134.162345872
 10
116.873964416
 20
134.163961216
 10
116.873964416
 20
134.165645679
 10
116.873964416
 20
134.167402554
 10
116.873964416
 20
134.169235132
 10
116.873964416
 20
134.171146705
 10
116.873964416
 20
134.173140563
 10
116.873964416
 20
134.175219998
 10
116.873964416
 20
134.177388301
 10
116.873964416
 20
134.179648765
 10
116.873964416
 20
134.18200468
 10
116.873964416
 20
134.184459338
 10
116.873964416
 20
134.187016031
 10
116.873964416
 20
134.189678049
 10
116.873964416
 20
134.192448684
 10
116.873964416
 20
134.195331228
 10
116.873964416
 20
134.198372838
 10
116.873964416
 20
134.20153209
 10
116.873964416
 20
134.20480804
 10
116.873964416
 20
134.208199744
 10
116.873964416
 20
134.211706258
 10
116.873964416
 20
134.215326637
 10
116.873964416
 20
134.21905994
 10
116.873964416
 20
134.22290522
 10
116.873964416
 20
134.226861535
 10
116.873964416
 20
134.230927941
 10
116.873964416
 20
134.235103493
 10
116.873964416
 20
134.239387249
 10
116.873964416
 20
134.243778264
 10
116.873964416
 20
134.248275594
 10
116.873964416
 20
134.252878295
 10
116.873964416
 20
134.257585424
 10
116.873964416
 20
134.262396037
 10
116.873964416
 20
134.26730919
 10
116.873964416
 20
134.272323939
 10
116.873964416
 20
134.27743934
 10
116.873964416
 20
134.282654449
 10
116.873964416
 20
134.287968323
 10
116.873964416
 20
134.293380017
 10
116.873964416
 20
134.298888588
 10
116.873964416
 20
134.304493093
 10
116.873964416
 20
134.310192586
 10
116.873964416
 20
134.315986124
 10
116.873964416
 20
134.321872764
 10
116.873964416
 20
134.327851561
 10
116.873964416
 20
134.333921572
 10
116.873964416
 20
134.340081853
 10
116.873964416
 20
134.346331459
 10
116.873964416
 20
134.352669448
 10
116.873964416
 20
134.359094875
 10
116.873964416
 20
134.365606797
 10
116.873964416
 20
134.372269668
 10
116.873964416
 20
134.379019963
 10
116.873964416
 20
134.385857865
 10
116.873964416
 20
134.392783559
 10
116.873964416
 20
134.399797228
 10
116.873964416
 20
134.406899057
 10
116.873964416
 20
134.41408923
 10
116.873964416
 20
134.421367931
 10
116.873964416
 20
134.428735345
 10
116.873964416
 20
134.436191655
 10
116.873964416
 20
134.443737045
 10
116.873964416
 20
134.451371701
 10
116.873964416
 20
134.459095806
 10
116.873964416
 20
134.466909543
 10
116.873964416
 20
134.474813098
 10
116.873964416
 20
134.482806655
 10
116.873964416
 20
134.490890397
 10
116.873964416
 20
134.499064509
 10
116.873964416
 20
134.507329176
 10
116.873964416
 20
134.51568458
 10
116.873964416
 20
134.524130907
 10
116.873964416
 20
134.53266834
 10
116.873964416
 20
134.541297064
 10
116.873964416
 20
134.550017263
 10
116.873964416
 20
134.558829121
 10
116.873964416
 20
134.567732822
 10
116.873964416
 20
134.576728551
 10
116.873964416
 20
134.585816491
 10
116.873964416
 20
134.594996827
 10
116.873964416
 20
134.604269743
 10
116.873964416
 20
134.613635423
 10
116.873964416
 20
134.623094051
 10
116.873964416
 20
134.632645812
 10
116.873964416
 20
134.642290889
 10
116.873964416
 20
134.652029467
 10
116.873964416
 20
134.661910402
 10
116.873964416
 20
134.671885777
 10
116.873964416
 20
134.681955421
 10
116.873964416
 20
134.692119161
 10
116.873964416
 20
134.702376825
 10
116.873964416
 20
134.712728243
 10
116.873964416
 20
134.723173242
 10
116.873964416
 20
134.733711651
 10
116.873964416
 20
134.744343298
 10
116.873964416
 20
134.755068012
 10
116.873964416
 20
134.76588562
 10
116.873964416
 20
134.776795951
 10
116.873964416
 20
134.787798834
 10
116.873964416
 20
134.798894096
 10
116.873964416
 20
134.810081567
 10
116.873964416
 20
134.821361074
 10
116.873964416
 20
134.832732446
 10
116.873964416
 20
134.844195511
 10
116.873964416
 20
134.855750097
 10
116.873964416
 20
134.867396033
 10
116.873964416
 20
134.879133147
 10
116.873964416
 20
134.890961268
 10
116.873964416
 20
134.902880223
 10
116.873964416
 20
134.914889841
 10
116.873964416
 20
134.926989951
 10
116.873964416
 20
134.93918038
 10
116.873964416
 20
134.951460958
 10
116.873964416
 20
134.963831511
 10
116.873964416
 20
134.97629187
 10
116.873964416
 20
134.988841862
 10
116.873964416
 20
135.001481315
 10
116.873964416
 20
135.014210057
 10
116.873964416
 20
135.027027918
 10
116.873964416
 20
135.039934725
 10
116.873964416
 20
135.052930307
 10
116.873964416
 20
135.066014491
 10
116.873964416
 20
135.079187226
 10
116.873964416
 20
135.092448458
 10
116.873964416
 20
135.105798136
 10
116.873964416
 20
135.119236206
 10
116.873964416
 20
135.132762617
 10
116.873964416
 20
135.146377315
 10
116.873964416
 20
135.160080249
 10
116.873964416
 20
135.173871365
 10
116.873964416
 20
135.187750612
 10
116.873964416
 20
135.201717936
 10
116.873964416
 20
135.215773286
 10
116.873964416
 20
135.229916609
 10
116.873964416
 20
135.244147852
 10
116.873964416
 20
135.258466962
 10
116.873964416
 20
135.272873888
 10
116.873964416
 20
135.287368577
 10
116.873964416
 20
135.301950976
 10
116.873964416
 20
135.316621033
 10
116.873964416
 20
135.331378696
 10
116.873964416
 20
135.346223911
 10
116.873964416
 20
135.361156626
 10
116.873964416
 20
135.37617679
 10
116.873964416
 20
135.391284348
 10
116.873964416
 20
135.40647925
 10
116.873964416
 20
135.421761442
 10
116.873964416
 20
135.437130872
 10
116.873964416
 20
135.452587487
 10
116.873964416
 20
135.468131235
 10
116.873964416
 20
135.483762063
 10
116.873964416
 20
135.499479919
 10
116.873964416
 20
135.515284751
 10
116.873964416
 20
135.531176505
 10
116.873964416
 20
135.54715513
 10
116.873964416
 20
135.563220572
 10
116.873964416
 20
135.579293282
 10
116.873964416
 20
135.595451588
 10
116.873964416
 20
135.611695172
 10
116.873964416
 20
135.628023716
 10
116.873964416
 20
135.644436899
 10
116.873964416
 20
135.660934404
 10
116.873964416
 20
135.677515911
 10
116.873964416
 20
135.694181101
 10
116.873964416
 20
135.710929654
 10
116.873964416
 20
135.727761253
 10
116.873964416
 20
135.744675578
 10
116.873964416
 20
135.76167231
 10
116.873964416
 20
135.77875113
 10
116.873964416
 20
135.795911719
 10
116.873964416
 20
135.813153758
 10
116.873964416
 20
135.830476928
 10
116.873964416
 20
135.84788091
 10
116.873964416
 20
135.865365385
 10
116.873964416
 20
135.882930034
 10
116.873964416
 20
135.900574538
 10
116.873964416
 20
135.918298578
 10
116.873964416
 20
135.936101835
 10
116.873964416
 20
135.95398399
 10
116.873964416
 20
135.971944723
 10
116.873964416
 20
135.989983717
 10
116.873964416
 20
136.008100651
 10
116.873964416
 20
136.026295208
 10
116.873964416
 20
136.044567067
 10
116.873964416
 20
136.06291591
 10
116.873964416
 20
136.081341418
 10
116.873964416
 20
136.099843272
 10
116.873964416
 20
136.118421152
 10
116.873964416
 20
136.137074741
 10
116.873964416
 20
136.155803718
 10
116.873964416
 20
136.174607766
 10
116.873964416
 20
136.193302703
 10
116.873964416
 20
136.212071428
 10
116.873964416
 20
136.230914426
 10
116.873964416
 20
136.249832181
 10
116.873964416
 20
136.268825178
 10
116.873964416
 20
136.287893901
 10
116.873964416
 20
136.307038834
 10
116.873964416
 20
136.326260463
 10
116.873964416
 20
136.34555927
 10
116.873964416
 20
136.364935742
 10
116.873964416
 20
136.384390363
 10
116.873964416
 20
136.403923616
 10
116.873964416
 20
136.423535986
 10
116.873964416
 20
136.443227959
 10
116.873964416
 20
136.463000018
 10
116.873964416
 20
136.482852647
 10
116.873964416
 20
136.502786332
 10
116.873964416
 20
136.522801557
 10
116.873964416
 20
136.542898806
 10
116.873964416
 20
136.563078564
 10
116.873964416
 20
136.583341315
 10
116.873964416
 20
136.603687543
 10
116.873964416
 20
136.624117734
 10
116.873964416
 20
136.644632372
 10
116.873964416
 20
136.66523194
 10
116.873964416
 20
136.685916925
 10
116.873964416
 20
136.706687809
 10
116.873964416
 20
136.727545078
 10
116.873964416
 20
136.748489216
 10
116.873964416
 20
136.769520707
 10
116.873964416
 20
136.790640036
 10
116.873964416
 20
136.811847688
 10
116.873964416
 20
136.833144147
 10
116.873964416
 20
136.854529897
 10
116.873964416
 20
136.876005423
 10
116.873964416
 20
136.897260099
 10
116.873964416
 20
136.918599955
 10
116.873964416
 20
136.940022484
 10
116.873964416
 20
136.961525182
 10
116.873964416
 20
136.983105543
 10
116.873964416
 20
137.004761062
 10
116.873964416
 20
137.026489234
 10
116.873964416
 20
137.048287553
 10
116.873964416
 20
137.070153514
 10
116.873964416
 20
137.092084612
 10
116.873964416
 20
137.114078342
 10
116.873964416
 20
137.136132199
 10
116.873964416
 20
137.158243676
 10
116.873964416
 20
137.180410269
 10
116.873964416
 20
137.202629473
 10
116.873964416
 20
137.224898783
 10
116.873964416
 20
137.247215692
 10
116.873964416
 20
137.269577696
 10
116.873964416
 20
137.291982289
 10
116.873964416
 20
137.314426967
 10
116.873964416
 20
137.336909224
 10
116.873964416
 20
137.359426555
 10
116.873964416
 20
137.381976454
 10
116.873964416
 20
137.404556416
 10
116.873964416
 20
137.427163936
 10
116.873964416
 20
137.449796509
 10
116.873964416
 20
137.472451629
 10
116.873964416
 20
137.495126792
 10
116.873964416
 20
137.517819491
 10
116.873964416
 20
137.540527222
 10
116.873964416
 20
137.563247479
 10
116.873964416
 20
137.585977757
 10
116.873964416
 20
137.608715551
 10
116.873964416
 20
137.631458355
 10
116.873964416
 20
137.654203665
  0
LINE
  5
26C
330
1F
100
AcDbEntity
  8
0
  6
Continuous
 62
     7
100
AcDbLine
 10
107.723964127
 20
164.339483925
 30
0.0
 11
107.723964127
 21
170.339483846
 31
0.0
  0
LINE
  5
26D
330
1F
100
AcDbEntity
  8
0
  6
Continuous
 62
     7
100
AcDbLine
 10
106.286765756
 20
170.089483787
 30
0.0
 11
106.286765756
 21
164.589483966
 31
0.0
  0
LINE
  5
26E
330
1F
100
AcDbEntity
  8
0
  6
Continuous
 62
     7
100
AcDbLine
 10
105.971185239
 20
167.739483737
 30
0.0
 11
105.971185239
 21
166.939483932
 31
0.0
  0
LWPOLYLINE
  5
270
330
1F
100
AcDbEntity
  8
0
  6
Continuous
 62
     7
100
AcDbPolyline
 90
    71
 70
   128
 43
0.0
 10
105.959353717
 20
165.539483749
 10
105.959353611
 20
165.539483749
 10
105.959353504
 20
165.539483749
 10
105.959353398
 20
165.539483749
 10
105.959353291
 20
165.539483749
 10
105.959353185
 20
165.539483749
 10
105.959353078
 20
165.539483749
 10
105.959352972
 20
165.539483749
 10
105.959352865
 20
165.539483749
 10
105.959352759
 20
165.539483749
 10
105.959352652
 20
165.539483749
 10
105.959352546
 20
165.539483749
 10
105.959352439
 20
165.539483749
 10
105.959352333
 20
165.539483749
 10
105.959352226
 20
165.539483749
 10
105.95935212
 20
165.539483749
 10
105.959352013
 20
165.539483749
 10
105.959351907
 20
165.539483749
 10
105.959351801
 20
165.539483749
 10
105.959351694
 20
165.539483749
 10
105.959351588
 20
165.539483749
 10
105.959351481
 20
165.539483749
 10
105.959351375
 20
165.539483749
 10
105.959351268
 20
165.539483749
 10
105.959351162
 20
165.539483749
 10
105.959351056
 20
165.539483749
 10
105.959350949
 20
165.539483749
 10
105.959350843
 20
165.539483749
 10
105.959350736
 20
165.539483749
 10
105.95935063
 20
165.539483749
 10
105.959350524
 20
165.539483749
 10
105.959350417
 20
165.539483749
 10
105.959350311
 20
165.539483749
 10
105.959350204
 20
165.539483749
 10
105.959350098
 20
165.539483749
 10
105.959349992
 20
165.539483749
 10
105.959122693
 20
165.539483749
 10
105.958944564
 20
165.539483749
 10
105.958814159
 20
165.539483749
 10
105.95873003
 20
165.539483749
 10
105.958690732
 20
165.539483749
 10
105.958694819
 20
165.539483749
 10
105.958740845
 20
165.539483749
 10
105.958827363
 20
165.539483749
 10
105.958952928
 20
165.539483749
 10
105.959116093
 20
165.539483749
 10
105.959315411
 20
165.539483749
 10
105.959549438
 20
165.539483749
 10
105.959816726
 20
165.539483749
 10
105.960115829
 20
165.539483749
 10
105.960445302
 20
165.539483749
 10
105.960803698
 20
165.539483749
 10
105.961189572
 20
165.539483749
 10
105.961601476
 20
165.539483749
 10
105.962037964
 20
165.539483749
 10
105.962497592
 20
165.539483749
 10
105.962978911
 20
165.539483749
 10
105.963480477
 20
165.539483749
 10
105.964000843
 20
165.539483749
 10
105.964538563
 20
165.539483749
 10
105.965092191
 20
165.539483749
 10
105.96566028
 20
165.539483749
 10
105.966241385
 20
165.539483749
 10
105.966834059
 20
165.539483749
 10
105.967436856
 20
165.539483749
 10
105.96804833
 20
165.539483749
 10
105.968667035
 20
165.539483749
 10
105.969291524
 20
165.539483749
 10
105.969920352
 20
165.539483749
 10
105.970552073
 20
165.539483749
 10
105.971185239
 20
165.539483749
  0
LINE
  5
271
330
1F
100
AcDbEntity
  8
0
  6
Continuous
 62
     7
100
AcDbLine
 10
105.971185239
 20
165.539483749
 30
0.0
 11
105.746859433
 21
166.939483932
 31
0.0
  0
LWPOLYLINE
  5
273
330
1F
100
AcDbEntity
  8
0
  6
Continuous
 62
     7
100
AcDbPolyline
 90
    71
 70
   128
 43
0.0
 10
105.746859433
 20
166.939483932
 10
105.750051154
 20
166.939483932
 10
105.753249227
 20
166.939483932
 10
105.756460004
 20
166.939483932
 10
105.759689835
 20
166.939483932
 10
105.762945074
 20
166.939483932
 10
105.766232072
 20
166.939483932
 10
105.769557181
 20
166.939483932
 10
105.772926752
 20
166.939483932
 10
105.776347137
 20
166.939483932
 10
105.779824688
 20
166.939483932
 10
105.783365757
 20
166.939483932
 10
105.786976696
 20
166.939483932
 10
105.790663856
 20
166.939483932
 10
105.794433589
 20
166.939483932
 10
105.798292248
 20
166.939483932
 10
105.802246183
 20
166.939483932
 10
105.806301746
 20
166.939483932
 10
105.81046529
 20
166.939483932
 10
105.814743166
 20
166.939483932
 10
105.819141725
 20
166.939483932
 10
105.823667321
 20
166.939483932
 10
105.828326304
 20
166.939483932
 10
105.833125026
 20
166.939483932
 10
105.838069839
 20
166.939483932
 10
105.843167095
 20
166.939483932
 10
105.848423145
 20
166.939483932
 10
105.853844342
 20
166.939483932
 10
105.859437036
 20
166.939483932
 10
105.865207581
 20
166.939483932
 10
105.871162328
 20
166.939483932
 10
105.877307628
 20
166.939483932
 10
105.883649833
 20
166.939483932
 10
105.890195295
 20
166.939483932
 10
105.896950366
 20
166.939483932
 10
105.903921397
 20
166.939483932
 10
105.905689562
 20
166.939483932
 10
105.907471088
 20
166.939483932
 10
105.909265583
 20
166.939483932
 10
105.911072653
 20
166.939483932
 10
105.912891907
 20
166.939483932
 10
105.91472295
 20
166.939483932
 10
105.916565389
 20
166.939483932
 10
105.918418833
 20
166.939483932
 10
105.920282887
 20
166.939483932
 10
105.922157159
 20
166.939483932
 10
105.924041256
 20
166.939483932
 10
105.925934785
 20
166.939483932
 10
105.927837352
 20
166.939483932
 10
105.929748565
 20
166.939483932
 10
105.931668032
 20
166.939483932
 10
105.933595357
 20
166.939483932
 10
105.93553015
 20
166.939483932
 10
105.937472017
 20
166.939483932
 10
105.939420564
 20
166.939483932
 10
105.9413754
 20
166.939483932
 10
105.94333613
 20
166.939483932
 10
105.945302362
 20
166.939483932
 10
105.947273703
 20
166.939483932
 10
105.94924976
 20
166.939483932
 10
105.95123014
 20
166.939483932
 10
105.953214449
 20
166.939483932
 10
105.955202296
 20
166.939483932
 10
105.957193286
 20
166.939483932
 10
105.959187028
 20
166.939483932
 10
105.961183127
 20
166.939483932
 10
105.963181192
 20
166.939483932
 10
105.965180828
 20
166.939483932
 10
105.967181643
 20
166.939483932
 10
105.969183245
 20
166.939483932
 10
105.971185239
 20
166.939483932
  0
LINE
  5
274
330
1F
100
AcDbEntity
  8
0
  6
Continuous
 62
     7
100
AcDbLine
 10
105.971185239
 20
166.939483932
 30
0.0
 11
105.971185239
 21
167.739483737
 31
0.0
  0
LINE
  5
275
330
1F
100
AcDbEntity
  8
0
  6
Continuous
 62
     7
100
AcDbLine
 10
105.971185239
 20
167.739483737
 30
0.0
 11
105.746859433
 21
167.739483737
 31
0.0
  0
LWPOLYLINE
  5
277
330
1F
100
AcDbEntity
  8
0
  6
Continuous
 62
     7
100
AcDbPolyline
 90
    71
 70
   128
 43
0.0
 10
105.746859433
 20
167.739483737
 10
105.750051154
 20
167.771888254
 10
105.753249226
 20
167.804291554
 10
105.756460003
 20
167.836692417
 10
105.759689834
 20
167.869089626
 10
105.762945073
 20
167.901481962
 10
105.76623207
 20
167.933868209
 10
105.769557178
 20
167.966247147
 10
105.772926749
 20
167.998617558
 10
105.776347134
 20
168.030978226
 10
105.779824685
 20
168.06332793
 10
105.783365754
 20
168.095665455
 10
105.786976692
 20
168.12798958
 10
105.790663852
 20
168.160299089
 10
105.794433585
 20
168.192592763
 10
105.798292243
 20
168.224869385
 10
105.802246178
 20
168.257127736
 10
105.806301742
 20
168.289366597
 10
105.810465285
 20
168.321584752
 10
105.814743161
 20
168.353780982
 10
105.819141721
 20
168.385954069
 10
105.823667316
 20
168.418102794
 10
105.828326299
 20
168.450225941
 10
105.833125021
 20
168.48232229
 10
105.838069834
 20
168.514390624
 10
105.84316709
 20
168.546429725
 10
105.848423141
 20
168.578438374
 10
105.853844338
 20
168.610415354
 10
105.859437033
 20
168.642359446
 10
105.865207578
 20
168.674269433
 10
105.871162325
 20
168.706144096
 10
105.877307625
 20
168.737982218
 10
105.883649831
 20
168.76978258
 10
105.890195294
 20
168.801543964
 10
105.896950365
 20
168.833265152
 10
105.903921397
 20
168.864944926
 10
105.905689562
 20
168.872818361
 10
105.907471088
 20
168.880689233
 10
105.909265583
 20
168.888557618
 10
105.911072653
 20
168.896423592
 10
105.912891906
 20
168.90428723
 10
105.914722949
 20
168.912148606
 10
105.916565389
 20
168.920007797
 10
105.918418833
 20
168.927864878
 10
105.920282887
 20
168.935719925
 10
105.922157159
 20
168.943573011
 10
105.924041256
 20
168.951424214
 10
105.925934785
 20
168.959273608
 10
105.927837352
 20
168.967121269
 10
105.929748565
 20
168.974967271
 10
105.931668031
 20
168.982811692
 10
105.933595357
 20
168.990654604
 10
105.93553015
 20
168.998496085
 10
105.937472017
 20
169.00633621
 10
105.939420564
 20
169.014175053
 10
105.9413754
 20
169.022012691
 10
105.94333613
 20
169.029849198
 10
105.945302362
 20
169.03768465
 10
105.947273703
 20
169.045519122
 10
105.94924976
 20
169.05335269
 10
105.95123014
 20
169.061185429
 10
105.953214449
 20
169.069017414
 10
105.955202296
 20
169.076848721
 10
105.957193286
 20
169.084679425
 10
105.959187028
 20
169.092509602
 10
105.961183127
 20
169.100339326
 10
105.963181192
 20
169.108168674
 10
105.965180828
 20
169.11599772
 10
105.967181643
 20
169.12382654
 10
105.969183245
 20
169.13165521
 10
105.971185239
 20
169.139483804
  0
LINE
  5
278
330
1F
100
AcDbEntity
  8
0
  6
Continuous
 62
     7
100
AcDbLine
 10
105.971185239
 20
169.139483804
 30
0.0
 11
105.959394695
 21
169.139483804
 31
0.0
  0
LINE
  5
279
330
1F
100
AcDbEntity
  8
0
  6
Continuous
 62
     7
100
AcDbLine
 10
105.971185239
 20
167.739483737
 30
0.0
 11
105.746859433
 21
167.739483737
 31
0.0
  0
LINE
  5
27A
330
1F
100
AcDbEntity
  8
0
  6
Continuous
 62
     7
100
AcDbLine
 10
107.723964127
 20
138.939484698
 30
0.0
 11
107.723964127
 21
144.939483818
 31
0.0
  0
LINE
  5
27B
330
1F
100
AcDbEntity
  8
0
  6
Continuous
 62
     7
100
AcDbLine
 10
106.286765756
 20
144.689483312
 30
0.0
 11
106.286765756
 21
139.189483342
 31
0.0
  0
LINE
  5
27C
330
1F
100
AcDbEntity
  8
0
  6
Continuous
 62
     7
100
AcDbLine
 10
105.971185239
 20
142.33948451
 30
0.0
 11
105.971185239
 21
141.539484006
 31
0.0
  0
LWPOLYLINE
  5
27E
330
1F
100
AcDbEntity
  8
0
  6
Continuous
 62
     7
100
AcDbPolyline
 90
    71
 70
   128
 43
0.0
 10
105.959353717
 20
140.139484522
 10
105.959353611
 20
140.139484522
 10
105.959353504
 20
140.139484522
 10
105.959353398
 20
140.139484522
 10
105.959353291
 20
140.139484522
 10
105.959353185
 20
140.139484522
 10
105.959353078
 20
140.139484522
 10
105.959352972
 20
140.139484522
 10
105.959352865
 20
140.139484522
 10
105.959352759
 20
140.139484522
 10
105.959352652
 20
140.139484522
 10
105.959352546
 20
140.139484522
 10
105.959352439
 20
140.139484522
 10
105.959352333
 20
140.139484522
 10
105.959352226
 20
140.139484522
 10
105.95935212
 20
140.139484522
 10
105.959352013
 20
140.139484522
 10
105.959351907
 20
140.139484522
 10
105.959351801
 20
140.139484522
 10
105.959351694
 20
140.139484522
 10
105.959351588
 20
140.139484522
 10
105.959351481
 20
140.139484522
 10
105.959351375
 20
140.139484522
 10
105.959351268
 20
140.139484522
 10
105.959351162
 20
140.139484522
 10
105.959351056
 20
140.139484522
 10
105.959350949
 20
140.139484522
 10
105.959350843
 20
140.139484522
 10
105.959350736
 20
140.139484522
 10
105.95935063
 20
140.139484522
 10
105.959350524
 20
140.139484522
 10
105.959350417
 20
140.139484522
 10
105.959350311
 20
140.139484522
 10
105.959350204
 20
140.139484522
 10
105.959350098
 20
140.139484522
 10
105.959349992
 20
140.139484522
 10
105.959122693
 20
140.139484522
 10
105.958944564
 20
140.139484522
 10
105.958814159
 20
140.139484522
 10
105.95873003
 20
140.139484522
 10
105.958690732
 20
140.139484522
 10
105.958694819
 20
140.139484522
 10
105.958740845
 20
140.139484522
 10
105.958827363
 20
140.139484522
 10
105.958952928
 20
140.139484522
 10
105.959116093
 20
140.139484522
 10
105.959315411
 20
140.139484522
 10
105.959549438
 20
140.139484522
 10
105.959816726
 20
140.139484522
 10
105.960115829
 20
140.139484522
 10
105.960445302
 20
140.139484522
 10
105.960803698
 20
140.139484522
 10
105.961189572
 20
140.139484522
 10
105.961601476
 20
140.139484522
 10
105.962037964
 20
140.139484522
 10
105.962497592
 20
140.139484522
 10
105.962978911
 20
140.139484522
 10
105.963480477
 20
140.139484522
 10
105.964000843
 20
140.139484522
 10
105.964538563
 20
140.139484522
 10
105.965092191
 20
140.139484522
 10
105.96566028
 20
140.139484522
 10
105.966241385
 20
140.139484522
 10
105.966834059
 20
140.139484522
 10
105.967436856
 20
140.139484522
 10
105.96804833
 20
140.139484522
 10
105.968667035
 20
140.139484522
 10
105.969291524
 20
140.139484522
 10
105.969920352
 20
140.139484522
 10
105.970552073
 20
140.139484522
 10
105.971185239
 20
140.139484522
  0
LINE
  5
27F
330
1F
100
AcDbEntity
  8
0
  6
Continuous
 62
     7
100
AcDbLine
 10
105.971185239
 20
140.139484522
 30
0.0
 11
105.746859433
 21
141.539484006
 31
0.0
  0
LWPOLYLINE
  5
281
330
1F
100
AcDbEntity
  8
0
  6
Continuous
 62
     7
100
AcDbPolyline
 90
    71
 70
   128
 43
0.0
 10
105.746859433
 20
141.539484006
 10
105.750051154
 20
141.539484006
 10
105.753249227
 20
141.539484006
 10
105.756460004
 20
141.539484006
 10
105.759689835
 20
141.539484006
 10
105.762945074
 20
141.539484006
 10
105.766232072
 20
141.539484006
 10
105.769557181
 20
141.539484006
 10
105.772926752
 20
141.539484006
 10
105.776347137
 20
141.539484006
 10
105.779824688
 20
141.539484006
 10
105.783365757
 20
141.539484006
 10
105.786976696
 20
141.539484006
 10
105.790663856
 20
141.539484006
 10
105.794433589
 20
141.539484006
 10
105.798292248
 20
141.539484006
 10
105.802246183
 20
141.539484006
 10
105.806301746
 20
141.539484006
 10
105.81046529
 20
141.539484006
 10
105.814743166
 20
141.539484006
 10
105.819141725
 20
141.539484006
 10
105.823667321
 20
141.539484006
 10
105.828326304
 20
141.539484006
 10
105.833125026
 20
141.539484006
 10
105.838069839
 20
141.539484006
 10
105.843167095
 20
141.539484006
 10
105.848423145
 20
141.539484006
 10
105.853844342
 20
141.539484006
 10
105.859437036
 20
141.539484006
 10
105.865207581
 20
141.539484006
 10
105.871162328
 20
141.539484006
 10
105.877307628
 20
141.539484006
 10
105.883649833
 20
141.539484006
 10
105.890195295
 20
141.539484006
 10
105.896950366
 20
141.539484006
 10
105.903921397
 20
141.539484006
 10
105.905689562
 20
141.539484006
 10
105.907471088
 20
141.539484006
 10
105.909265583
 20
141.539484006
 10
105.911072653
 20
141.539484006
 10
105.912891907
 20
141.539484006
 10
105.91472295
 20
141.539484006
 10
105.916565389
 20
141.539484006
 10
105.918418833
 20
141.539484006
 10
105.920282887
 20
141.539484006
 10
105.922157159
 20
141.539484006
 10
105.924041256
 20
141.539484006
 10
105.925934785
 20
141.539484006
 10
105.927837352
 20
141.539484006
 10
105.929748565
 20
141.539484006
 10
105.931668032
 20
141.539484006
 10
105.933595357
 20
141.539484006
 10
105.93553015
 20
141.539484006
 10
105.937472017
 20
141.539484006
 10
105.939420564
 20
141.539484006
 10
105.9413754
 20
141.539484006
 10
105.94333613
 20
141.539484006
 10
105.945302362
 20
141.539484006
 10
105.947273703
 20
141.539484006
 10
105.94924976
 20
141.539484006
 10
105.95123014
 20
141.539484006
 10
105.953214449
 20
141.539484006
 10
105.955202296
 20
141.539484006
 10
105.957193286
 20
141.539484006
 10
105.959187028
 20
141.539484006
 10
105.961183127
 20
141.539484006
 10
105.963181192
 20
141.539484006
 10
105.965180828
 20
141.539484006
 10
105.967181643
 20
141.539484006
 10
105.969183245
 20
141.539484006
 10
105.971185239
 20
141.539484006
  0
LINE
  5
282
330
1F
100
AcDbEntity
  8
0
  6
Continuous
 62
     7
100
AcDbLine
 10
105.971185239
 20
141.539484006
 30
0.0
 11
105.971185239
 21
142.33948451
 31
0.0
  0
LINE
  5
283
330
1F
100
AcDbEntity
  8
0
  6
Continuous
 62
     7
100
AcDbLine
 10
105.971185239
 20
142.33948451
 30
0.0
 11
105.746859433
 21
142.33948451
 31
0.0
  0
LWPOLYLINE
  5
285
330
1F
100
AcDbEntity
  8
0
  6
Continuous
 62
     7
100
AcDbPolyline
 90
    71
 70
   128
 43
0.0
 10
105.746859433
 20
142.33948451
 10
105.750051157
 20
142.371889006
 10
105.753249233
 20
142.404292285
 10
105.756460013
 20
142.436693127
 10
105.759689847
 20
142.469090316
 10
105.762945089
 20
142.501482632
 10
105.76623209
 20
142.533868858
 10
105.769557201
 20
142.566247775
 10
105.772926775
 20
142.598618166
 10
105.776347162
 20
142.630978813
 10
105.779824716
 20
142.663328498
 10
105.783365787
 20
142.695666001
 10
105.786976728
 20
142.727990106
 10
105.79066389
 20
142.760299595
 10
105.794433625
 20
142.792593249
 10
105.798292285
 20
142.82486985
 10
105.802246221
 20
142.857128181
 10
105.806301786
 20
142.889367022
 10
105.81046533
 20
142.921585157
 10
105.814743207
 20
142.953781366
 10
105.819141766
 20
142.985954433
 10
105.823667362
 20
143.018103139
 10
105.828326344
 20
143.050226266
 10
105.833125065
 20
143.082322595
 10
105.838069877
 20
143.114390909
 10
105.843167132
 20
143.14642999
 10
105.84842318
 20
143.17843862
 10
105.853844375
 20
143.21041558
 10
105.859437067
 20
143.242359653
 10
105.865207609
 20
143.274269621
 10
105.871162352
 20
143.306144265
 10
105.877307648
 20
143.337982367
 10
105.883649849
 20
143.36978271
 10
105.890195306
 20
143.401544075
 10
105.896950372
 20
143.433265245
 10
105.903921397
 20
143.464945
 10
105.905689562
 20
143.472818438
 10
105.907471088
 20
143.480689314
 10
105.909265583
 20
143.488557702
 10
105.911072654
 20
143.496423679
 10
105.912891907
 20
143.50428732
 10
105.91472295
 20
143.5121487
 10
105.91656539
 20
143.520007895
 10
105.918418833
 20
143.527864979
 10
105.920282888
 20
143.535720028
 10
105.92215716
 20
143.543573119
 10
105.924041257
 20
143.551424325
 10
105.925934785
 20
143.559273722
 10
105.927837353
 20
143.567121386
 10
105.929748566
 20
143.574967392
 10
105.931668032
 20
143.582811815
 10
105.933595358
 20
143.590654732
 10
105.935530151
 20
143.598496216
 10
105.937472017
 20
143.606336344
 10
105.939420565
 20
143.61417519
 10
105.9413754
 20
143.622012831
 10
105.94333613
 20
143.629849341
 10
105.945302362
 20
143.637684797
 10
105.947273703
 20
143.645519272
 10
105.94924976
 20
143.653352844
 10
105.95123014
 20
143.661185586
 10
105.95321445
 20
143.669017575
 10
105.955202296
 20
143.676848885
 10
105.957193287
 20
143.684679592
 10
105.959187028
 20
143.692509772
 10
105.961183128
 20
143.7003395
 10
105.963181192
 20
143.708168851
 10
105.965180828
 20
143.715997901
 10
105.967181644
 20
143.723826724
 10
105.969183245
 20
143.731655397
 10
105.971185239
 20
143.739483994
  0
LINE
  5
286
330
1F
100
AcDbEntity
  8
0
  6
Continuous
 62
     7
100
AcDbLine
 10
105.971185239
 20
143.739483994
 30
0.0
 11
105.959394695
 21
143.739483994
 31
0.0
  0
LINE
  5
287
330
1F
100
AcDbEntity
  8
0
  6
Continuous
 62
     7
100
AcDbLine
 10
105.971185239
 20
142.33948451
 30
0.0
 11
105.746859433
 21
142.33948451
 31
0.0
  0
LINE
  5
288
330
1F
100
AcDbEntity
  8
0
  6
Continuous
 62
     7
100
AcDbLine
 10
108.22396514
 20
130.839485419
 30
0.0
 11
108.22396514
 21
172.139483946
 31
0.0
  0
LINE
  5
289
330
1F
100
AcDbEntity
  8
0
  6
Continuous
 62
     7
100
AcDbLine
 10
108.22396514
 20
172.139483946
 30
0.0
 11
109.423963102
 21
172.139483946
 31
0.0
  0
LINE
  5
28A
330
1F
100
AcDbEntity
  8
0
  6
Continuous
 62
     7
100
AcDbLine
 10
95.423964532
 20
129.639483732
 30
0.0
 11
109.423963102
 21
129.639483732
 31
0.0
  0
LINE
  5
28B
330
1F
100
AcDbEntity
  8
0
  6
Continuous
 62
     7
100
AcDbLine
 10
95.423964532
 20
130.839485419
 30
0.0
 11
108.22396514
 21
130.839485419
 31
0.0
  0
LINE
  5
28C
330
1F
100
AcDbEntity
  8
0
  6
Continuous
 62
     7
100
AcDbLine
 10
95.423964532
 20
129.639483732
 30
0.0
 11
95.423964532
 21
130.839485419
 31
0.0
  0
LINE
  5
28D
330
1F
100
AcDbEntity
  8
0
  6
Continuous
 62
     7
100
AcDbLine
 10
109.423963102
 20
129.639483732
 30
0.0
 11
109.423963102
 21
172.139483946
 31
0.0
  0
LINE
  5
28E
330
1F
100
AcDbEntity
  8
0
  6
Continuous
 62
     7
100
AcDbLine
 10
106.781745078
 20
130.839485419
 30
0.0
 11
108.22396514
 21
133.002813649
 31
0.0
  0
LINE
  5
28F
330
1F
100
AcDbEntity
  8
0
  6
Continuous
 62
     7
100
AcDbLine
 10
120.623964565
 20
170.139483851
 30
0.0
 11
109.423963102
 21
170.139483851
 31
0.0
  0
LINE
  5
290
330
1F
100
AcDbEntity
  8
0
  6
Continuous
 62
     7
100
AcDbLine
 10
120.623964565
 20
139.139484358
 30
0.0
 11
120.623964565
 21
170.139483851
 31
0.0
  0
LINE
  5
291
330
1F
100
AcDbEntity
  8
0
  6
Continuous
 62
     7
100
AcDbLine
 10
109.423963102
 20
139.139484358
 30
0.0
 11
120.623964565
 21
139.139484358
 31
0.0
  0
LWPOLYLINE
  5
293
330
1F
100
AcDbEntity
  8
0
  6
Continuous
 62
     7
100
AcDbPolyline
 90
     3
 70
   128
 43
0.0
 10
115.023964765
 20
139.033239078
 10
114.418359222
 20
139.074129727
 10
114.054923626
 20
139.139484358
  0
LWPOLYLINE
  5
295
330
1F
100
AcDbEntity
  8
0
  6
Continuous
 62
     7
100
AcDbPolyline
 90
     3
 70
   128
 43
0.0
 10
115.993004041
 20
139.139484358
 10
115.629568445
 20
139.074129727
 10
115.023964765
 20
139.033239078
  0
ARC
  5
296
330
1F
100
AcDbEntity
  8
0
  6
Continuous
 62
     7
100
AcDbCircle
 10
115.023963918
 20
134.139483851
 30
0.0
 40
1.85
100
AcDbArc
 50
180.018975625
 51
270.000000019
  0
ARC
  5
297
330
1F
100
AcDbEntity
  8
0
  6
Continuous
 62
     7
100
AcDbCircle
 10
115.023963918
 20
134.139483851
 30
0.0
 40
1.85
100
AcDbArc
 50
270.000000019
 51
0.018975632
  0
LINE
  5
298
330
1F
100
AcDbEntity
  8
0
  6
LTYPE1
 62
     3
100
AcDbLine
 10
101.423963918
 20
126.469559362
 30
0.0
 11
101.423963918
 21
133.869559362
 31
0.0
  0
LINE
  5
299
330
1F
100
AcDbEntity
  8
0
  6
LTYPE1
 62
     3
100
AcDbLine
 10
120.623964565
 20
154.639483851
 30
0.0
 11
109.423963102
 21
154.639483851
 31
0.0
  0
LINE
  5
29A
330
1F
100
AcDbEntity
  8
0
  6
LTYPE1
 62
     3
100
AcDbLine
 10
115.023964565
 20
139.139484358
 30
0.0
 11
115.023964565
 21
170.139483851
 31
0.0
  0
LINE
  5
29B
330
1F
100
AcDbEntity
  8
0
  6
Continuous
 62
     3
100
AcDbLine
 10
94.423964532
 20
129.639483732
 30
0.0
 11
90.423963918
 21
129.639483732
 31
0.0
  0
LINE
  5
29C
330
1F
100
AcDbEntity
  8
0
  6
Continuous
 62
     3
100
AcDbLine
 10
92.423963918
 20
129.639483732
 30
0.0
 11
91.776916305
 21
127.224669166
 31
0.0
  0
LINE
  5
29D
330
1F
100
AcDbEntity
  8
0
  6
Continuous
 62
     3
100
AcDbLine
 10
92.423963918
 20
129.639483732
 30
0.0
 11
93.071011531
 21
127.224669166
 31
0.0
  0
LWPOLYLINE
  5
29F
330
1F
100
AcDbEntity
  8
0
  6
Continuous
 62
     3
100
AcDbPolyline
 90
     4
 70
   128
 43
0.0
 10
92.423963918
 20
125.889483732
 10
92.423963918
 20
129.639483732
 10
92.423963918
 20
130.839485419
 10
92.423963918
 20
140.589485419
  0
LINE
  5
2A0
330
1F
100
AcDbEntity
  8
0
  6
Continuous
 62
     3
100
AcDbLine
 10
92.423963918
 20
130.839485419
 30
0.0
 11
93.071011531
 21
133.254299984
 31
0.0
  0
LINE
  5
2A1
330
1F
100
AcDbEntity
  8
0
  6
Continuous
 62
     3
100
AcDbLine
 10
92.423963918
 20
130.839485419
 30
0.0
 11
91.776916305
 21
133.254299984
 31
0.0
  0
LINE
  5
2A2
330
1F
100
AcDbEntity
  8
0
  6
Continuous
 62
     3
100
AcDbLine
 10
94.423964532
 20
130.839485419
 30
0.0
 11
90.423963918
 21
130.839485419
 31
0.0
  0
MTEXT
  5
2A3
330
1F
100
AcDbEntity
  8
0
  6
Continuous
 62
     3
100
AcDbMText
 10
91.423963918
 20
134.589485419
 30
0.0
 40
3.0
 41
12.0
 71
     7
 72
     1
  1
\T1.167;\W0.600;１．２
  7
KANJI0
 11
0.0
 21
1.0
 31
0.0
 73
     1
 44
1.0
  0
LINE
  5
2A4
330
1F
100
AcDbEntity
  8
0
  6
Continuous
 62
     3
100
AcDbLine
 10
94.423964532
 20
129.639483732
 30
0.0
 11
84.823963102
 21
129.639483732
 31
0.0
  0
LINE
  5
2A5
330
1F
100
AcDbEntity
  8
0
  6
Continuous
 62
     3
100
AcDbLine
 10
86.823963102
 20
129.639483732
 30
0.0
 11
87.471010714
 21
132.054298298
 31
0.0
  0
LINE
  5
2A6
330
1F
100
AcDbEntity
  8
0
  6
Continuous
 62
     3
100
AcDbLine
 10
86.823963102
 20
129.639483732
 30
0.0
 11
86.176915489
 21
132.054298298
 31
0.0
  0
LWPOLYLINE
  5
2A8
330
1F
100
AcDbEntity
  8
0
  6
Continuous
 62
     3
100
AcDbPolyline
 90
     3
 70
   128
 43
0.0
 10
86.823963102
 20
129.639483732
 10
86.823963102
 20
154.639483851
 10
86.176915489
 20
152.224669285
  0
LINE
  5
2A9
330
1F
100
AcDbEntity
  8
0
  6
Continuous
 62
     3
100
AcDbLine
 10
86.823963102
 20
154.639483851
 30
0.0
 11
87.471010714
 21
152.224669285
 31
0.0
  0
MTEXT
  5
2AA
330
1F
100
AcDbEntity
  8
0
  6
Continuous
 62
     3
100
AcDbMText
 10
85.823963102
 20
140.189483792
 30
0.0
 40
3.0
 41
7.8
 71
     7
 72
     1
  1
\T1.167;\W0.600;２５
  7
KANJI0
 11
0.0
 21
1.0
 31
0.0
 73
     1
 44
1.0
  0
LINE
  5
2AB
330
1F
100
AcDbEntity
  8
0
  6
Continuous
 62
     3
100
AcDbLine
 10
94.423964532
 20
129.639483732
 30
0.0
 11
78.82396514
 21
129.639483732
 31
0.0
  0
LINE
  5
2AC
330
1F
100
AcDbEntity
  8
0
  6
Continuous
 62
     3
100
AcDbLine
 10
80.82396514
 20
129.639483732
 30
0.0
 11
81.471012753
 21
132.054298298
 31
0.0
  0
LINE
  5
2AD
330
1F
100
AcDbEntity
  8
0
  6
Continuous
 62
     3
100
AcDbLine
 10
80.82396514
 20
129.639483732
 30
0.0
 11
80.176917527
 21
132.054298298
 31
0.0
  0
MTEXT
  5
2AE
330
1F
100
AcDbEntity
  8
0
  6
Continuous
 62
     3
100
AcDbMText
 10
79.82396514
 20
146.839483839
 30
0.0
 40
3.0
 41
16.2
 71
     7
 72
     1
  1
\T1.167;\W0.600;４２．５
  7
KANJI0
 11
0.0
 21
1.0
 31
0.0
 73
     1
 44
1.0
  0
LINE
  5
2AF
330
1F
100
AcDbEntity
  8
0
  6
Continuous
 62
     3
100
AcDbLine
 10
80.82396514
 20
172.139483946
 30
0.0
 11
80.176917527
 21
169.72466938
 31
0.0
  0
LINE
  5
2B0
330
1F
100
AcDbEntity
  8
0
  6
Continuous
 62
     3
100
AcDbLine
 10
80.82396514
 20
129.639483732
 30
0.0
 11
80.82396514
 21
172.139483946
 31
0.0
  0
LINE
  5
2B1
330
1F
100
AcDbEntity
  8
0
  6
Continuous
 62
     3
100
AcDbLine
 10
80.82396514
 20
172.139483946
 30
0.0
 11
81.471012753
 21
169.72466938
 31
0.0
  0
LINE
  5
2B2
330
1F
100
AcDbEntity
  8
0
  6
Continuous
 62
     3
100
AcDbLine
 10
107.22396514
 20
172.139483946
 30
0.0
 11
78.82396514
 21
172.139483946
 31
0.0
  0
LINE
  5
2B3
330
1F
100
AcDbEntity
  8
0
  6
Continuous
 62
     7
100
AcDbLine
 10
170.791298352
 20
140.326742708
 30
0.0
 11
172.134801236
 21
138.983239824
 31
0.0
  0
LINE
  5
2B4
330
1F
100
AcDbEntity
  8
0
  6
Continuous
 62
     7
100
AcDbLine
 10
176.660284636
 20
143.508723224
 30
0.0
 11
175.316781752
 21
144.852226108
 31
0.0
  0
LINE
  5
2B5
330
1F
100
AcDbEntity
  8
0
  6
Continuous
 62
     7
100
AcDbLine
 10
171.504040052
 20
171.989484408
 30
0.0
 11
171.504040052
 21
171.789484408
 31
0.0
  0
LINE
  5
2B6
330
1F
100
AcDbEntity
  8
0
  6
Continuous
 62
     7
100
AcDbLine
 10
167.604040052
 20
171.989484408
 30
0.0
 11
167.604040052
 21
171.761055211
 31
0.0
  0
LINE
  5
2B7
330
1F
100
AcDbEntity
  8
0
  6
Continuous
 62
     7
100
AcDbLine
 10
169.804040052
 20
171.789484408
 30
0.0
 11
169.804040052
 21
171.989484408
 31
0.0
  0
LINE
  5
2B8
330
1F
100
AcDbEntity
  8
0
  6
Continuous
 62
     7
100
AcDbLine
 10
176.554040052
 20
146.089484414
 30
0.0
 11
176.554040052
 21
170.089484408
 31
0.0
  0
CIRCLE
  5
2B9
330
1F
100
AcDbEntity
  8
0
  6
Continuous
 62
     7
100
AcDbCircle
 10
159.554040052
 20
167.289484408
 30
0.0
 40
1.5
  0
LINE
  5
2BA
330
1F
100
AcDbEntity
  8
0
  6
Continuous
 62
     7
100
AcDbLine
 10
156.554040052
 20
170.089484408
 30
0.0
 11
156.554040052
 21
139.089484408
 31
0.0
  0
LINE
  5
2BB
330
1F
100
AcDbEntity
  8
0
  6
Continuous
 62
     7
100
AcDbLine
 10
176.554040052
 20
170.089484408
 30
0.0
 11
156.554040052
 21
170.089484408
 31
0.0
  0
CIRCLE
  5
2BC
330
1F
100
AcDbEntity
  8
0
  6
Continuous
 62
     7
100
AcDbCircle
 10
159.554040052
 20
141.889484408
 30
0.0
 40
1.5
  0
LINE
  5
2BD
330
1F
100
AcDbEntity
  8
0
  6
Continuous
 62
     7
100
AcDbLine
 10
169.554040052
 20
139.089484408
 30
0.0
 11
176.554040052
 21
146.089484414
 31
0.0
  0
LINE
  5
2BE
330
1F
100
AcDbEntity
  8
0
  6
Continuous
 62
     7
100
AcDbLine
 10
156.554040052
 20
139.089484408
 30
0.0
 11
169.554040052
 21
139.089484408
 31
0.0
  0
LWPOLYLINE
  5
2C0
330
1F
100
AcDbEntity
  8
0
  6
Continuous
 62
     7
100
AcDbPolyline
 90
    71
 70
   128
 43
0.0
 10
166.109094375
 20
171.583162356
 10
166.119178332
 20
171.561842201
 10
166.129261551
 20
171.540521698
 10
166.139344018
 20
171.519200838
 10
166.149425717
 20
171.497879614
 10
166.159506632
 20
171.476558019
 10
166.169586748
 20
171.455236045
 10
166.179666049
 20
171.433913686
 10
166.189744519
 20
171.412590935
 10
166.199822144
 20
171.391267783
 10
166.209898908
 20
171.369944224
 10
166.219974794
 20
171.34862025
 10
166.230049788
 20
171.327295855
 10
166.240123874
 20
171.30597103
 10
166.250197036
 20
171.284645769
 10
166.260269259
 20
171.263320065
 10
166.270340527
 20
171.24199391
 10
166.280410825
 20
171.220667297
 10
166.290480138
 20
171.199340218
 10
166.300548449
 20
171.178012667
 10
166.310615743
 20
171.156684636
 10
166.320682005
 20
171.135356118
 10
166.330747219
 20
171.114027105
 10
166.34081137
 20
171.092697591
 10
166.350874441
 20
171.071367568
 10
166.360936418
 20
171.050037029
 10
166.370997285
 20
171.028705967
 10
166.381057026
 20
171.007374374
 10
166.391115626
 20
170.986042244
 10
166.401173069
 20
170.964709568
 10
166.41122934
 20
170.94337634
 10
166.421284423
 20
170.922042552
 10
166.431338303
 20
170.900708198
 10
166.441390964
 20
170.879373269
 10
166.451442391
 20
170.858037759
 10
166.461492568
 20
170.836701661
 10
166.471541521
 20
170.815364884
 10
166.481589194
 20
170.794027502
 10
166.491635564
 20
170.772689505
 10
166.501680607
 20
170.751350882
 10
166.511724301
 20
170.730011622
 10
166.52176662
 20
170.708671715
 10
166.531807543
 20
170.687331149
 10
166.541847045
 20
170.665989914
 10
166.551885104
 20
170.644647999
 10
166.561921695
 20
170.623305393
 10
166.571956796
 20
170.601962087
 10
166.581990383
 20
170.580618068
 10
166.592022433
 20
170.559273326
 10
166.602052921
 20
170.537927851
 10
166.612081826
 20
170.516581632
 10
166.622109124
 20
170.495234657
 10
166.63213479
 20
170.473886917
 10
166.642158802
 20
170.4525384
 10
166.652181137
 20
170.431189096
 10
166.66220177
 20
170.409838993
 10
166.672220679
 20
170.388488082
 10
166.68223784
 20
170.367136352
 10
166.69225323
 20
170.345783791
 10
166.702266825
 20
170.324430389
 10
166.712278602
 20
170.303076136
 10
166.722288537
 20
170.28172102
 10
166.732296608
 20
170.26036503
 10
166.74230279
 20
170.239008157
 10
166.752307061
 20
170.217650389
 10
166.762309397
 20
170.196291716
 10
166.772309774
 20
170.174932126
 10
166.78230817
 20
170.153571609
 10
166.79230456
 20
170.132210155
 10
166.802298921
 20
170.110847752
 10
166.812291231
 20
170.08948439
  0
LINE
  5
2C1
330
1F
100
AcDbEntity
  8
0
  6
Continuous
 62
     7
100
AcDbLine
 10
168.504040111
 20
171.789484408
 30
0.0
 11
168.595884675
 21
170.089484408
 31
0.0
  0
LWPOLYLINE
  5
2C3
330
1F
100
AcDbEntity
  8
0
  6
Continuous
 62
     7
100
AcDbPolyline
 90
   141
 70
   128
 43
0.0
 10
168.504040173
 20
171.789484408
 10
168.483533389
 20
171.789469426
 10
168.463065771
 20
171.789424585
 10
168.442637266
 20
171.789350046
 10
168.422247822
 20
171.789245965
 10
168.401897386
 20
171.789112503
 10
168.381585907
 20
171.788949817
 10
168.361313331
 20
171.788758068
 10
168.341079608
 20
171.788537413
 10
168.320884684
 20
171.788288012
 10
168.300728507
 20
171.788010023
 10
168.280611026
 20
171.787703606
 10
168.260532187
 20
171.787368919
 10
168.240491938
 20
171.787006121
 10
168.220490228
 20
171.786615371
 10
168.200527004
 20
171.786196827
 10
168.180602213
 20
171.785750649
 10
168.160715804
 20
171.785276996
 10
168.140867723
 20
171.784776025
 10
168.12105792
 20
171.784247897
 10
168.101286341
 20
171.78369277
 10
168.081552935
 20
171.783110803
 10
168.061857648
 20
171.782502155
 10
168.042200429
 20
171.781866984
 10
168.022581226
 20
171.781205449
 10
168.002999986
 20
171.78051771
 10
167.983456657
 20
171.779803925
 10
167.963951186
 20
171.779064253
 10
167.944483522
 20
171.778298852
 10
167.925053612
 20
171.777507883
 10
167.905661403
 20
171.776691503
 10
167.886306845
 20
171.775849871
 10
167.866989883
 20
171.774983147
 10
167.847710467
 20
171.774091488
 10
167.828468543
 20
171.773175055
 10
167.80926406
 20
171.772234006
 10
167.7900935
 20
171.771268107
 10
167.770953885
 20
171.770277167
 10
167.751845972
 20
171.769261407
 10
167.732770516
 20
171.76822105
 10
167.713728274
 20
171.767156317
 10
167.694720003
 20
171.76606743
 10
167.675746458
 20
171.76495461
 10
167.656808397
 20
171.763818078
 10
167.637906576
 20
171.762658058
 10
167.61904175
 20
171.76147477
 10
167.600214677
 20
171.760268436
 10
167.581426112
 20
171.759039277
 10
167.562676813
 20
171.757787516
 10
167.543967535
 20
171.756513374
 10
167.525299035
 20
171.755217072
 10
167.506672069
 20
171.753898833
 10
167.488087394
 20
171.752558878
 10
167.469545766
 20
171.751197429
 10
167.451047942
 20
171.749814707
 10
167.432594677
 20
171.748410933
 10
167.414186728
 20
171.746986331
 10
167.395824851
 20
171.745541121
 10
167.377509804
 20
171.744075525
 10
167.359242342
 20
171.742589765
 10
167.341023221
 20
171.741084062
 10
167.322853199
 20
171.739558638
 10
167.304733031
 20
171.738013715
 10
167.286663473
 20
171.736449514
 10
167.268645283
 20
171.734866258
 10
167.250679216
 20
171.733264167
 10
167.23276603
 20
171.731643463
 10
167.214906479
 20
171.730004368
 10
167.197101321
 20
171.728347105
 10
167.179351312
 20
171.726671893
 10
167.161657209
 20
171.724978956
 10
167.144027369
 20
171.72326948
 10
167.126469696
 20
171.721544679
 10
167.108984264
 20
171.719804818
 10
167.091571145
 20
171.718050159
 10
167.074230413
 20
171.716280968
 10
167.056962142
 20
171.714497506
 10
167.039766405
 20
171.712700038
 10
167.022643275
 20
171.710888828
 10
167.005592827
 20
171.709064138
 10
166.988615133
 20
171.707226233
 10
166.971710268
 20
171.705375376
 10
166.954878303
 20
171.70351183
 10
166.938119314
 20
171.70163586
 10
166.921433373
 20
171.699747728
 10
166.904820554
 20
171.697847699
 10
166.88828093
 20
171.695936036
 10
166.871814575
 20
171.694013003
 10
166.855421563
 20
171.692078863
 10
166.839101966
 20
171.690133879
 10
166.822855858
 20
171.688178316
 10
166.806683313
 20
171.686212437
 10
166.790584405
 20
171.684236505
 10
166.774559205
 20
171.682250784
 10
166.758607789
 20
171.680255538
 10
166.74273023
 20
171.67825103
 10
166.726926601
 20
171.676237524
 10
166.711196975
 20
171.674215284
 10
166.695541426
 20
171.672184572
 10
166.679960027
 20
171.670145654
 10
166.664452853
 20
171.668098791
 10
166.649019976
 20
171.666044248
 10
166.63366147
 20
171.663982289
 10
166.618377408
 20
171.661913176
 10
166.603167863
 20
171.659837174
 10
166.588032911
 20
171.657754546
 10
166.572969972
 20
171.655665012
 10
166.557977103
 20
171.653568392
 10
166.543055321
 20
171.651465103
 10
166.528205647
 20
171.649355562
 10
166.5134291
 20
171.647240186
 10
166.4987267
 20
171.645119391
 10
166.484099466
 20
171.642993593
 10
166.469548417
 20
171.64086321
 10
166.455074572
 20
171.638728658
 10
166.440678952
 20
171.636590353
 10
166.426362576
 20
171.634448713
 10
166.412126463
 20
171.632304153
 10
166.397971633
 20
171.630157091
 10
166.383899105
 20
171.628007943
 10
166.369909898
 20
171.625857126
 10
166.356005032
 20
171.623705056
 10
166.342185527
 20
171.621552149
 10
166.328452402
 20
171.619398824
 10
166.314806676
 20
171.617245495
 10
166.301249369
 20
171.615092581
 10
166.2877815
 20
171.612940496
 10
166.274404089
 20
171.610789659
 10
166.261118155
 20
171.608640485
 10
166.247924718
 20
171.606493392
 10
166.234824796
 20
171.604348795
 10
166.221819411
 20
171.602207112
 10
166.20890958
 20
171.600068759
 10
166.196096324
 20
171.597934153
 10
166.183380662
 20
171.59580371
 10
166.170763613
 20
171.593677848
 10
166.158246197
 20
171.591556981
 10
166.145829433
 20
171.589441528
 10
166.133514341
 20
171.587331905
 10
166.12130194
 20
171.585228529
 10
166.10919325
 20
171.583131815
  0
ARC
  5
2C4
330
1F
100
AcDbEntity
  8
0
  6
Continuous
 62
     7
100
AcDbCircle
 10
165.197459775
 20
168.280743955
 30
0.0
 40
3.0
100
AcDbArc
 50
107.493536354
 51
110.688563399
  0
LINE
  5
2C5
330
1F
100
AcDbEntity
  8
0
  6
Continuous
 62
     7
100
AcDbLine
 10
164.137595427
 20
170.089484408
 30
0.0
 11
164.137595426
 21
171.087287659
 31
0.0
  0
ARC
  5
2C6
330
1F
100
AcDbEntity
  8
0
  6
Continuous
 62
     7
100
AcDbCircle
 10
168.504040052
 20
157.789484408
 30
0.0
 40
14.0
100
AcDbArc
 50
99.849263972
 51
107.493536355
  0
LWPOLYLINE
  5
2C8
330
1F
100
AcDbEntity
  8
0
  6
Continuous
 62
     7
100
AcDbPolyline
 90
    36
 70
   128
 43
0.0
 10
164.137595426
 20
171.087287658
 10
164.11904124
 20
171.080207245
 10
164.100573382
 20
171.073013571
 10
164.082194166
 20
171.065709526
 10
164.063905907
 20
171.058298
 10
164.045710918
 20
171.050781883
 10
164.027611514
 20
171.043164066
 10
164.009610009
 20
171.035447438
 10
163.991708718
 20
171.027634889
 10
163.973909955
 20
171.01972931
 10
163.956216035
 20
171.01173359
 10
163.93862927
 20
171.00365062
 10
163.921151977
 20
170.995483289
 10
163.903786469
 20
170.987234488
 10
163.88653506
 20
170.978907106
 10
163.869400065
 20
170.970504034
 10
163.852383798
 20
170.962028162
 10
163.835488573
 20
170.953482379
 10
163.818716705
 20
170.944869576
 10
163.802070508
 20
170.936192643
 10
163.785552296
 20
170.927454469
 10
163.769164384
 20
170.918657946
 10
163.752909086
 20
170.909805962
 10
163.736788716
 20
170.900901408
 10
163.720805588
 20
170.891947175
 10
163.704962018
 20
170.882946151
 10
163.689260318
 20
170.873901227
 10
163.673702804
 20
170.864815293
 10
163.658291789
 20
170.85569124
 10
163.643029589
 20
170.846531956
 10
163.627918517
 20
170.837340333
 10
163.612960887
 20
170.82811926
 10
163.598159015
 20
170.818871627
 10
163.583515213
 20
170.809600325
 10
163.569031797
 20
170.800308242
 10
163.554711082
 20
170.790998271
  0
LINE
  5
2C9
330
1F
100
AcDbEntity
  8
0
  6
Continuous
 62
     7
100
AcDbLine
 10
163.554711082
 20
170.790998271
 30
0.0
 11
163.554711082
 21
170.089484408
 31
0.0
  0
LWPOLYLINE
  5
2CB
330
1F
100
AcDbEntity
  8
0
  6
Continuous
 62
     7
100
AcDbPolyline
 90
   141
 70
   128
 43
0.0
 10
163.554711082
 20
170.790998271
 10
163.545262607
 20
170.784789778
 10
163.535873844
 20
170.778570175
 10
163.52654453
 20
170.772339809
 10
163.517274399
 20
170.766099026
 10
163.508063187
 20
170.759848174
 10
163.498910628
 20
170.753587598
 10
163.489816459
 20
170.747317646
 10
163.480780414
 20
170.741038664
 10
163.471802228
 20
170.734750999
 10
163.462881638
 20
170.728454998
 10
163.454018378
 20
170.722151007
 10
163.445212183
 20
170.715839373
 10
163.436462789
 20
170.709520443
 10
163.427769932
 20
170.703194564
 10
163.419133346
 20
170.696862082
 10
163.410552766
 20
170.690523344
 10
163.402027929
 20
170.684178696
 10
163.393558568
 20
170.677828486
 10
163.385144421
 20
170.67147306
 10
163.376785221
 20
170.665112765
 10
163.368480705
 20
170.658747947
 10
163.360230606
 20
170.652378954
 10
163.352034662
 20
170.646006132
 10
163.343892607
 20
170.639629827
 10
163.335804176
 20
170.633250387
 10
163.327769104
 20
170.626868157
 10
163.319787128
 20
170.620483486
 10
163.311857981
 20
170.614096719
 10
163.3039814
 20
170.607708204
 10
163.29615712
 20
170.601318286
 10
163.288384876
 20
170.594927313
 10
163.280664403
 20
170.588535631
 10
163.272995437
 20
170.582143588
 10
163.265377713
 20
170.575751529
 10
163.257810966
 20
170.569359802
 10
163.250293373
 20
170.562966634
 10
163.242823562
 20
170.556570689
 10
163.235401939
 20
170.550172969
 10
163.228028914
 20
170.543774473
 10
163.220704894
 20
170.537376203
 10
163.213430288
 20
170.53097916
 10
163.206205505
 20
170.524584344
 10
163.199030952
 20
170.518192758
 10
163.191907038
 20
170.511805401
 10
163.184834171
 20
170.505423275
 10
163.17781276
 20
170.499047381
 10
163.170843212
 20
170.49267872
 10
163.163925937
 20
170.486318292
 10
163.157061342
 20
170.479967098
 10
163.150249836
 20
170.47362614
 10
163.143491827
 20
170.467296419
 10
163.136787723
 20
170.460978935
 10
163.130137933
 20
170.454674689
 10
163.123542865
 20
170.448384682
 10
163.117002928
 20
170.442109916
 10
163.110518529
 20
170.435851392
 10
163.104090076
 20
170.429610109
 10
163.09771798
 20
170.42338707
 10
163.091402646
 20
170.417183274
 10
163.085144485
 20
170.410999724
 10
163.078943903
 20
170.40483742
 10
163.072801311
 20
170.398697363
 10
163.066717115
 20
170.392580554
 10
163.060691724
 20
170.386487994
 10
163.054725546
 20
170.380420683
 10
163.048818991
 20
170.374379624
 10
163.042972465
 20
170.368365816
 10
163.037186378
 20
170.362380261
 10
163.031461137
 20
170.35642396
 10
163.025797151
 20
170.350497913
 10
163.020193521
 20
170.344602015
 10
163.014649345
 20
170.338736374
 10
163.009165034
 20
170.332902312
 10
163.003740993
 20
170.32710115
 10
162.998377631
 20
170.321334211
 10
162.993075357
 20
170.315602815
 10
162.987834577
 20
170.309908285
 10
162.982655701
 20
170.304251943
 10
162.977539136
 20
170.298635109
 10
162.97248529
 20
170.293059107
 10
162.96749457
 20
170.287525258
 10
162.962567386
 20
170.282034884
 10
162.957704144
 20
170.276589306
 10
162.952905253
 20
170.271189846
 10
162.948171121
 20
170.265837826
 10
162.943502156
 20
170.260534568
 10
162.938898766
 20
170.255281393
 10
162.934361358
 20
170.250079624
 10
162.92989034
 20
170.244930582
 10
162.925486122
 20
170.239835588
 10
162.921149109
 20
170.234795966
 10
162.916879712
 20
170.229813036
 10
162.912678337
 20
170.22488812
 10
162.908545392
 20
170.22002254
 10
162.904481285
 20
170.215217618
 10
162.900486425
 20
170.210474675
 10
162.89656122
 20
170.205795034
 10
162.892706076
 20
170.201180016
 10
162.888921403
 20
170.196630942
 10
162.885207608
 20
170.192149136
 10
162.881565099
 20
170.187735918
 10
162.877994284
 20
170.18339261
 10
162.874495572
 20
170.179120534
 10
162.871069369
 20
170.174921012
 10
162.867716084
 20
170.170795366
 10
162.864439204
 20
170.166749929
 10
162.861242291
 20
170.162791051
 10
162.85812587
 20
170.158920071
 10
162.855090467
 20
170.15513833
 10
162.852136606
 20
170.151447171
 10
162.849264811
 20
170.147847934
 10
162.846475607
 20
170.14434196
 10
162.843769519
 20
170.14093059
 10
162.841147072
 20
170.137615165
 10
162.838608789
 20
170.134397027
 10
162.836155197
 20
170.131277516
 10
162.833786819
 20
170.128257974
 10
162.83150418
 20
170.125339742
 10
162.829307805
 20
170.122524161
 10
162.827198218
 20
170.119812572
 10
162.825175945
 20
170.117206315
 10
162.823241509
 20
170.114706733
 10
162.821395436
 20
170.112315167
 10
162.81963825
 20
170.110032956
 10
162.817970475
 20
170.107861444
 10
162.816392638
 20
170.105801969
 10
162.814905261
 20
170.103855875
 10
162.81350887
 20
170.102024502
 10
162.81220399
 20
170.10030919
 10
162.810991145
 20
170.098711281
 10
162.809870859
 20
170.097232117
 10
162.808843658
 20
170.095873038
 10
162.807910067
 20
170.094635385
 10
162.807070609
 20
170.0935205
 10
162.806325809
 20
170.092529724
 10
162.805676193
 20
170.091664397
 10
162.805122284
 20
170.090925861
 10
162.804664608
 20
170.090315457
 10
162.804303689
 20
170.089834526
 10
162.804040052
 20
170.089484409
  0
LINE
  5
2CC
330
1F
100
AcDbEntity
  8
0
  6
Continuous
 62
     7
100
AcDbLine
 10
176.660284636
 20
143.508723224
 30
0.0
 11
172.134801236
 21
138.983239824
 31
0.0
  0
LINE
  5
2CD
330
1F
100
AcDbEntity
  8
0
  6
Continuous
 62
     7
100
AcDbLine
 10
169.284665324
 20
171.789484408
 30
0.0
 11
168.504040111
 21
171.789484408
 31
0.0
  0
LINE
  5
2CE
330
1F
100
AcDbEntity
  8
0
  6
Continuous
 62
     7
100
AcDbLine
 10
169.284665324
 20
171.789484408
 30
0.0
 11
169.284665324
 21
170.089484408
 31
0.0
  0
LWPOLYLINE
  5
2D0
330
1F
100
AcDbEntity
  8
0
  6
Continuous
 62
     7
100
AcDbPolyline
 90
    32
 70
   128
 43
0.0
 10
174.004118481
 20
170.089484408
 10
174.000301864
 20
170.138073627
 10
173.996473317
 20
170.186662002
 10
173.992632686
 20
170.235249514
 10
173.988779815
 20
170.283836144
 10
173.984914552
 20
170.332421875
 10
173.981036742
 20
170.381006689
 10
173.977146231
 20
170.429590565
 10
173.973242865
 20
170.478173488
 10
173.969326489
 20
170.526755437
 10
173.96539695
 20
170.575336395
 10
173.961454093
 20
170.623916343
 10
173.957497764
 20
170.672495262
 10
173.95352781
 20
170.721073136
 10
173.949544075
 20
170.769649944
 10
173.945546407
 20
170.818225669
 10
173.94153465
 20
170.866800293
 10
173.937508651
 20
170.915373797
 10
173.933468255
 20
170.963946162
 10
173.929413309
 20
171.012517371
 10
173.925343657
 20
171.061087404
 10
173.921259147
 20
171.109656244
 10
173.917159624
 20
171.158223872
 10
173.913044934
 20
171.20679027
 10
173.908914922
 20
171.25535542
 10
173.904769435
 20
171.303919303
 10
173.900608318
 20
171.3524819
 10
173.896431418
 20
171.401043194
 10
173.89223858
 20
171.449603165
 10
173.888029649
 20
171.498161797
 10
173.883804473
 20
171.546719069
 10
173.879562896
 20
171.595274965
  0
LINE
  5
2D1
330
1F
100
AcDbEntity
  8
0
  6
Continuous
 62
     7
100
AcDbLine
 10
174.404275346
 20
171.789484408
 30
0.0
 11
174.804275346
 21
170.089484408
 31
0.0
  0
LINE
  5
2D2
330
1F
100
AcDbEntity
  8
0
  6
Continuous
 62
     7
100
AcDbLine
 10
169.284665324
 20
171.789484408
 30
0.0
 11
173.862429505
 21
171.789484408
 31
0.0
  0
LINE
  5
2D3
330
1F
100
AcDbEntity
  8
0
  6
Continuous
 62
     7
100
AcDbLine
 10
172.304040052
 20
171.989484408
 30
0.0
 11
172.304040052
 21
171.789484408
 31
0.0
  0
LINE
  5
2D4
330
1F
100
AcDbEntity
  8
0
  6
Continuous
 62
     7
100
AcDbLine
 10
168.404040052
 20
171.989484408
 30
0.0
 11
168.404040051
 21
171.78912726
 31
0.0
  0
LINE
  5
2D5
330
1F
100
AcDbEntity
  8
0
  6
Continuous
 62
     7
100
AcDbLine
 10
169.004040052
 20
171.989484408
 30
0.0
 11
169.004040052
 21
171.789484408
 31
0.0
  0
LWPOLYLINE
  5
2D7
330
1F
100
AcDbEntity
  8
0
  6
Continuous
 62
     7
100
AcDbPolyline
 90
    36
 70
   128
 43
0.0
 10
168.50404005
 20
171.789484408
 10
168.501155471
 20
171.789484109
 10
168.498272168
 20
171.789483215
 10
168.495390173
 20
171.789481726
 10
168.492509516
 20
171.789479644
 10
168.489630227
 20
171.789476969
 10
168.486752337
 20
171.789473703
 10
168.483875877
 20
171.789469847
 10
168.481000878
 20
171.789465403
 10
168.47812737
 20
171.789460371
 10
168.475255384
 20
171.789454753
 10
168.472384951
 20
171.78944855
 10
168.469516101
 20
171.789441762
 10
168.466648864
 20
171.789434393
 10
168.463783273
 20
171.789426441
 10
168.460919356
 20
171.789417909
 10
168.458057146
 20
171.789408799
 10
168.455196671
 20
171.78939911
 10
168.452337965
 20
171.789388845
 10
168.449481056
 20
171.789378004
 10
168.446625975
 20
171.789366588
 10
168.443772754
 20
171.7893546
 10
168.440921423
 20
171.78934204
 10
168.438072012
 20
171.789328909
 10
168.435224552
 20
171.789315209
 10
168.432379075
 20
171.78930094
 10
168.42953561
 20
171.789286104
 10
168.426694188
 20
171.789270702
 10
168.42385484
 20
171.789254736
 10
168.421017596
 20
171.789238206
 10
168.418182488
 20
171.789221114
 10
168.415349546
 20
171.789203461
 10
168.4125188
 20
171.789185247
 10
168.409690282
 20
171.789166475
 10
168.406864021
 20
171.789147146
 10
168.404040049
 20
171.78912726
  0
LINE
  5
2D8
330
1F
100
AcDbEntity
  8
0
  6
Continuous
 62
     7
100
AcDbLine
 10
156.054040052
 20
129.589484408
 30
0.0
 11
166.754040046
 21
129.589484408
 31
0.0
  0
LINE
  5
2D9
330
1F
100
AcDbEntity
  8
0
  6
Continuous
 62
     7
100
AcDbLine
 10
156.054040052
 20
129.589484408
 30
0.0
 11
156.054040052
 21
172.089484408
 31
0.0
  0
LINE
  5
2DA
330
1F
100
AcDbEntity
  8
0
  6
Continuous
 62
     7
100
AcDbLine
 10
156.054040052
 20
172.089484408
 30
0.0
 11
178.054040052
 21
172.089484408
 31
0.0
  0
LINE
  5
2DB
330
1F
100
AcDbEntity
  8
0
  6
Continuous
 62
     7
100
AcDbLine
 10
178.054040052
 20
172.089484408
 30
0.0
 11
178.054040052
 21
140.205779498
 31
0.0
  0
LINE
  5
2DC
330
1F
100
AcDbEntity
  8
0
  6
Continuous
 62
     7
100
AcDbLine
 10
169.354040057
 20
129.589484408
 30
0.0
 11
178.054040052
 21
129.589484408
 31
0.0
  0
LINE
  5
2DD
330
1F
100
AcDbEntity
  8
0
  6
Continuous
 62
     7
100
AcDbLine
 10
169.354040057
 20
129.589484408
 30
0.0
 11
169.072067808
 21
132.409206844
 31
0.0
  0
LINE
  5
2DE
330
1F
100
AcDbEntity
  8
0
  6
Continuous
 62
     7
100
AcDbLine
 10
167.054040052
 20
132.409206844
 30
0.0
 11
169.072067808
 21
132.409206844
 31
0.0
  0
LINE
  5
2DF
330
1F
100
AcDbEntity
  8
0
  6
Continuous
 62
     7
100
AcDbLine
 10
166.754040046
 20
129.589484408
 30
0.0
 11
167.054040052
 21
132.409206844
 31
0.0
  0
ARC
  5
2E0
330
1F
100
AcDbEntity
  8
0
  6
Continuous
 62
     7
100
AcDbCircle
 10
174.554040052
 20
142.089484408
 30
0.0
 40
1.7
100
AcDbArc
 50
357.24406505
 51
28.395912854
  0
LINE
  5
2E1
330
1F
100
AcDbEntity
  8
0
  6
Continuous
 62
     7
100
AcDbLine
 10
166.754040048
 20
129.589484408
 30
0.0
 11
169.354040057
 21
129.589484408
 31
0.0
  0
LINE
  5
2E2
330
1F
100
AcDbEntity
  8
0
  6
Continuous
 62
     7
100
AcDbLine
 10
178.054040806
 20
140.205778744
 30
0.0
 11
175.705690481
 21
142.554129069
 31
0.0
  0
LINE
  5
2E3
330
1F
100
AcDbEntity
  8
0
  6
Continuous
 62
     7
100
AcDbLine
 10
178.054040806
 20
140.205778744
 30
0.0
 11
178.054040806
 21
172.089484408
 31
0.0
  0
LWPOLYLINE
  5
2E5
330
1F
100
AcDbEntity
  8
0
  6
Continuous
 62
     7
100
AcDbPolyline
 90
     3
 70
   128
 43
0.0
 10
173.089395391
 20
139.937833978
 10
178.054040052
 20
134.973189317
 10
178.054040052
 20
129.589484408
  0
LINE
  5
2E6
330
1F
100
AcDbEntity
  8
0
  6
Continuous
 62
     7
100
AcDbLine
 10
120.623965141
 20
170.139483946
 30
0.0
 11
120.623965141
 21
139.139483946
 31
0.0
  0
LINE
  5
2E7
330
1F
100
AcDbEntity
  8
0
  6
Continuous
 62
     7
100
AcDbLine
 10
119.023965141
 20
146.639483947
 30
0.0
 11
119.023965141
 21
162.639483945
 31
0.0
  0
LINE
  5
2E8
330
1F
100
AcDbEntity
  8
0
  6
Continuous
 62
     7
100
AcDbLine
 10
119.023965141
 20
162.639483945
 30
0.0
 11
111.023965142
 21
162.639483945
 31
0.0
  0
LINE
  5
2E9
330
1F
100
AcDbEntity
  8
0
  6
Continuous
 62
     7
100
AcDbLine
 10
111.023965142
 20
162.639483945
 30
0.0
 11
111.023965142
 21
146.639483947
 31
0.0
  0
LINE
  5
2EA
330
1F
100
AcDbEntity
  8
0
  6
Continuous
 62
     7
100
AcDbLine
 10
111.023965142
 20
146.639483947
 30
0.0
 11
119.023965141
 21
146.639483947
 31
0.0
  0
LINE
  5
2EB
330
1F
100
AcDbEntity
  8
0
  6
Continuous
 62
     7
100
AcDbLine
 10
120.623965141
 20
170.139483946
 30
0.0
 11
109.423965141
 21
170.139483946
 31
0.0
  0
LINE
  5
2EC
330
1F
100
AcDbEntity
  8
0
  6
Continuous
 62
     7
100
AcDbLine
 10
120.623965141
 20
139.139483946
 30
0.0
 11
109.423965141
 21
139.139483946
 31
0.0
  0
LWPOLYLINE
  5
2EE
330
1F
100
AcDbEntity
  8
0
  6
Continuous
 62
     7
100
AcDbPolyline
 90
   106
 70
   128
 43
0.0
 10
112.844859914
 20
170.139483947
 10
112.831575374
 20
170.139834253
 10
112.81831785
 20
170.140315223
 10
112.805087771
 20
170.140925515
 10
112.791885567
 20
170.141663789
 10
112.778711667
 20
170.142528703
 10
112.765566501
 20
170.143518916
 10
112.752450497
 20
170.144633089
 10
112.739364087
 20
170.145869878
 10
112.726307699
 20
170.147227944
 10
112.713281763
 20
170.148705946
 10
112.700286709
 20
170.150302542
 10
112.687322965
 20
170.152016392
 10
112.674390963
 20
170.153846155
 10
112.66149113
 20
170.155790489
 10
112.648623897
 20
170.157848054
 10
112.635789694
 20
170.160017509
 10
112.622988949
 20
170.162297512
 10
112.610222093
 20
170.164686723
 10
112.597489555
 20
170.1671838
 10
112.584791765
 20
170.169787404
 10
112.572129151
 20
170.172496192
 10
112.559502145
 20
170.175308824
 10
112.546911174
 20
170.178223958
 10
112.53435667
 20
170.181240255
 10
112.521839061
 20
170.184356372
 10
112.509358776
 20
170.187570969
 10
112.496916247
 20
170.190882705
 10
112.484511901
 20
170.194290239
 10
112.472146169
 20
170.19779223
 10
112.45981948
 20
170.201387336
 10
112.447532264
 20
170.205074218
 10
112.435284951
 20
170.208851533
 10
112.423077969
 20
170.212717942
 10
112.410911748
 20
170.216672102
 10
112.398786719
 20
170.220712674
 10
112.386713097
 20
170.224832285
 10
112.374700407
 20
170.229023701
 10
112.362748041
 20
170.233285787
 10
112.350855388
 20
170.237617406
 10
112.339021841
 20
170.242017422
 10
112.327246791
 20
170.246484699
 10
112.315529629
 20
170.251018101
 10
112.303869747
 20
170.255616492
 10
112.292266534
 20
170.260278735
 10
112.280719384
 20
170.265003696
 10
112.269227686
 20
170.269790237
 10
112.257790832
 20
170.274637223
 10
112.246408214
 20
170.279543517
 10
112.235079222
 20
170.284507984
 10
112.223803248
 20
170.289529488
 10
112.212579682
 20
170.294606891
 10
112.201407917
 20
170.29973906
 10
112.190287344
 20
170.304924856
 10
112.179217353
 20
170.310163145
 10
112.168197336
 20
170.31545279
 10
112.157226683
 20
170.320792654
 10
112.146304788
 20
170.326181603
 10
112.135431039
 20
170.3316185
 10
112.124604829
 20
170.337102209
 10
112.11382555
 20
170.342631594
 10
112.103092591
 20
170.348205518
 10
112.092405345
 20
170.353822846
 10
112.081763202
 20
170.359482442
 10
112.071165554
 20
170.365183169
 10
112.060611792
 20
170.370923892
 10
112.050101307
 20
170.376703474
 10
112.039633491
 20
170.38252078
 10
112.029207734
 20
170.388374673
 10
112.018823428
 20
170.394264017
 10
112.008479964
 20
170.400187677
 10
111.987938924
 20
170.412113998
 10
111.967608417
 20
170.424128258
 10
111.947487887
 20
170.436226037
 10
111.927576779
 20
170.448402914
 10
111.907874537
 20
170.460654468
 10
111.888380605
 20
170.472976278
 10
111.869094429
 20
170.485363923
 10
111.850015452
 20
170.497812982
 10
111.83114312
 20
170.510319034
 10
111.812476876
 20
170.522877658
 10
111.794016165
 20
170.535484433
 10
111.775760432
 20
170.548134939
 10
111.757709121
 20
170.560824753
 10
111.739861677
 20
170.573549455
 10
111.722217544
 20
170.586304625
 10
111.704776166
 20
170.599085841
 10
111.687536988
 20
170.611888681
 10
111.670499455
 20
170.624708726
 10
111.653663011
 20
170.637541555
 10
111.637027101
 20
170.650382745
 10
111.620591168
 20
170.663227877
 10
111.604354658
 20
170.676072529
 10
111.588317015
 20
170.688912281
 10
111.572477683
 20
170.701742711
 10
111.556836108
 20
170.714559398
 10
111.541391732
 20
170.727357921
 10
111.526144002
 20
170.74013386
 10
111.511092361
 20
170.752882794
 10
111.496236254
 20
170.7656003
 10
111.481575126
 20
170.77828196
 10
111.46710842
 20
170.790923351
 10
111.452835582
 20
170.803520052
 10
111.438756056
 20
170.816067643
 10
111.424869286
 20
170.828561702
 10
111.411174717
 20
170.840997809
  0
LWPOLYLINE
  5
2F0
330
1F
100
AcDbEntity
  8
0
  6
Continuous
 62
     7
100
AcDbPolyline
 90
    71
 70
   128
 43
0.0
 10
111.411174717
 20
170.840997809
 10
111.406101997
 20
170.845653015
 10
111.401096184
 20
170.850302072
 10
111.39615729
 20
170.854944771
 10
111.391285327
 20
170.859580905
 10
111.386480307
 20
170.864210263
 10
111.381742241
 20
170.868832637
 10
111.377071142
 20
170.873447818
 10
111.372467021
 20
170.878055597
 10
111.36792989
 20
170.882655765
 10
111.363459761
 20
170.887248113
 10
111.359056646
 20
170.891832433
 10
111.354720556
 20
170.896408515
 10
111.350451504
 20
170.900976151
 10
111.346249502
 20
170.905535131
 10
111.34211456
 20
170.910085248
 10
111.338046692
 20
170.914626291
 10
111.334045909
 20
170.919158052
 10
111.330112222
 20
170.923680322
 10
111.326245644
 20
170.928192893
 10
111.322446187
 20
170.932695555
 10
111.318713861
 20
170.937188099
 10
111.31504868
 20
170.941670316
 10
111.311450655
 20
170.946141998
 10
111.307919798
 20
170.950602936
 10
111.304456121
 20
170.955052921
 10
111.301059635
 20
170.959491744
 10
111.297730353
 20
170.963919195
 10
111.294468286
 20
170.968335067
 10
111.291273446
 20
170.97273915
 10
111.288145845
 20
170.977131235
 10
111.285085495
 20
170.981511114
 10
111.282092407
 20
170.985878577
 10
111.279166595
 20
170.990233416
 10
111.276308068
 20
170.994575421
 10
111.27351684
 20
170.998904385
 10
111.270794985
 20
171.003218316
 10
111.268144854
 20
171.00751512
 10
111.265566877
 20
171.011794427
 10
111.26306148
 20
171.016055868
 10
111.260629092
 20
171.020299076
 10
111.258270142
 20
171.02452368
 10
111.255985056
 20
171.028729312
 10
111.253774264
 20
171.032915604
 10
111.251638193
 20
171.037082186
 10
111.249577272
 20
171.04122869
 10
111.247591928
 20
171.045354747
 10
111.245682589
 20
171.049459989
 10
111.243849684
 20
171.053544045
 10
111.24209364
 20
171.057606549
 10
111.240414886
 20
171.06164713
 10
111.23881385
 20
171.065665421
 10
111.237290959
 20
171.069661052
 10
111.235846643
 20
171.073633654
 10
111.234481328
 20
171.07758286
 10
111.233195443
 20
171.081508299
 10
111.231989416
 20
171.085409604
 10
111.230863676
 20
171.089286405
 10
111.229818649
 20
171.093138333
 10
111.228854765
 20
171.096965021
 10
111.227972451
 20
171.100766098
 10
111.227172135
 20
171.104541197
 10
111.226454245
 20
171.108289948
 10
111.22581921
 20
171.112011984
 10
111.225267458
 20
171.115706934
 10
111.224799416
 20
171.11937443
 10
111.224415513
 20
171.123014104
 10
111.224116176
 20
171.126625586
 10
111.223901834
 20
171.130208508
 10
111.223772915
 20
171.133762502
 10
111.223729847
 20
171.137287197
  0
LINE
  5
2F1
330
1F
100
AcDbEntity
  8
0
  6
Continuous
 62
     7
100
AcDbLine
 10
111.223729847
 20
171.137287197
 30
0.0
 11
111.223729847
 21
171.191996097
 31
0.0
  0
LINE
  5
2F2
330
1F
100
AcDbEntity
  8
0
  6
Continuous
 62
     7
100
AcDbLine
 10
118.824200435
 20
171.191996097
 30
0.0
 11
111.223729847
 21
171.191996097
 31
0.0
  0
LINE
  5
2F3
330
1F
100
AcDbEntity
  8
0
  6
Continuous
 62
     7
100
AcDbLine
 10
118.824200435
 20
171.191996097
 30
0.0
 11
118.824200435
 21
171.137287197
 31
0.0
  0
LWPOLYLINE
  5
2F5
330
1F
100
AcDbEntity
  8
0
  6
Continuous
 62
     7
100
AcDbPolyline
 90
    36
 70
   128
 43
0.0
 10
118.824200435
 20
171.137287197
 10
118.824033621
 20
171.130206783
 10
118.823534803
 20
171.123013109
 10
118.822706416
 20
171.115709064
 10
118.821550894
 20
171.108297538
 10
118.820070673
 20
171.100781421
 10
118.818268186
 20
171.093163604
 10
118.81614587
 20
171.085446976
 10
118.813706159
 20
171.077634427
 10
118.810951487
 20
171.069728848
 10
118.80788429
 20
171.061733128
 10
118.804507003
 20
171.053650158
 10
118.80082206
 20
171.045482827
 10
118.796831896
 20
171.037234026
 10
118.792538946
 20
171.028906644
 10
118.787945645
 20
171.020503572
 10
118.783054428
 20
171.0120277
 10
118.777867729
 20
171.003481917
 10
118.772387984
 20
170.994869114
 10
118.766617627
 20
170.986192181
 10
118.760559093
 20
170.977454008
 10
118.754214817
 20
170.968657484
 10
118.747587234
 20
170.959805501
 10
118.740678779
 20
170.950900947
 10
118.733491886
 20
170.941946713
 10
118.726028991
 20
170.932945689
 10
118.718292528
 20
170.923900766
 10
118.710284933
 20
170.914814832
 10
118.702008639
 20
170.905690778
 10
118.693466082
 20
170.896531495
 10
118.684659697
 20
170.887339872
 10
118.675591918
 20
170.878118798
 10
118.666265181
 20
170.868871166
 10
118.65668192
 20
170.859599863
 10
118.64684457
 20
170.850307781
 10
118.636755566
 20
170.840997809
  0
LWPOLYLINE
  5
2F7
330
1F
100
AcDbEntity
  8
0
  6
Continuous
 62
     7
100
AcDbPolyline
 90
   141
 70
   128
 43
0.0
 10
118.636755566
 20
170.840997809
 10
118.629932157
 20
170.834789316
 10
118.623060562
 20
170.828569713
 10
118.616140765
 20
170.822339347
 10
118.609172752
 20
170.816098565
 10
118.602156509
 20
170.809847712
 10
118.59509202
 20
170.803587136
 10
118.587979272
 20
170.797317184
 10
118.58081825
 20
170.791038202
 10
118.573608939
 20
170.784750537
 10
118.566351325
 20
170.778454536
 10
118.559045393
 20
170.772150545
 10
118.551691129
 20
170.765838911
 10
118.544288518
 20
170.759519982
 10
118.536837546
 20
170.753194102
 10
118.529338197
 20
170.74686162
 10
118.521790458
 20
170.740522882
 10
118.514194314
 20
170.734178235
 10
118.506549751
 20
170.727828024
 10
118.498856753
 20
170.721472598
 10
118.491115307
 20
170.715112303
 10
118.483325397
 20
170.708747486
 10
118.47548701
 20
170.702378492
 10
118.46760013
 20
170.69600567
 10
118.459664743
 20
170.689629365
 10
118.451680835
 20
170.683249925
 10
118.443648391
 20
170.676867696
 10
118.435567397
 20
170.670483025
 10
118.427437837
 20
170.664096258
 10
118.419259698
 20
170.657707742
 10
118.411032965
 20
170.651317824
 10
118.402757623
 20
170.644926851
 10
118.394433658
 20
170.63853517
 10
118.386061055
 20
170.632143126
 10
118.3776398
 20
170.625751068
 10
118.369169877
 20
170.619359341
 10
118.3606482
 20
170.612966173
 10
118.352071852
 20
170.606570228
 10
118.343441079
 20
170.600172507
 10
118.334756126
 20
170.593774011
 10
118.326017239
 20
170.587375741
 10
118.317224663
 20
170.580978698
 10
118.308378644
 20
170.574583883
 10
118.299479426
 20
170.568192296
 10
118.290527257
 20
170.56180494
 10
118.28152238
 20
170.555422814
 10
118.272465041
 20
170.54904692
 10
118.263355486
 20
170.542678258
 10
118.25419396
 20
170.53631783
 10
118.244980709
 20
170.529966636
 10
118.235715978
 20
170.523625678
 10
118.226400012
 20
170.517295957
 10
118.217033057
 20
170.510978473
 10
118.207615358
 20
170.504674227
 10
118.198147161
 20
170.498384221
 10
118.188628711
 20
170.492109455
 10
118.179060253
 20
170.48585093
 10
118.169442034
 20
170.479609647
 10
118.159774298
 20
170.473386608
 10
118.15005729
 20
170.467182813
 10
118.140291257
 20
170.460999263
 10
118.130476443
 20
170.454836959
 10
118.120613095
 20
170.448696901
 10
118.110701457
 20
170.442580092
 10
118.100741775
 20
170.436487532
 10
118.090734294
 20
170.430420222
 10
118.080679261
 20
170.424379162
 10
118.070576919
 20
170.418365354
 10
118.060427515
 20
170.412379799
 10
118.050231294
 20
170.406423498
 10
118.039988501
 20
170.400497452
 10
118.0296986
 20
170.394601554
 10
118.019360695
 20
170.388735913
 10
118.008974499
 20
170.382901851
 10
117.998539721
 20
170.377100689
 10
117.988056073
 20
170.371333749
 10
117.977523265
 20
170.365602353
 10
117.966941008
 20
170.359907823
 10
117.956309013
 20
170.354251481
 10
117.945626991
 20
170.348634648
 10
117.934894651
 20
170.343058646
 10
117.924111706
 20
170.337524797
 10
117.913277866
 20
170.332034422
 10
117.902392842
 20
170.326588844
 10
117.891456344
 20
170.321189384
 10
117.880468083
 20
170.315837364
 10
117.86942777
 20
170.310534106
 10
117.858335116
 20
170.305280932
 10
117.847189831
 20
170.300079162
 10
117.835991627
 20
170.29493012
 10
117.824740213
 20
170.289835127
 10
117.813435302
 20
170.284795504
 10
117.802076603
 20
170.279812574
 10
117.790663827
 20
170.274887658
 10
117.779196686
 20
170.270022078
 10
117.767674889
 20
170.265217156
 10
117.756098149
 20
170.260474213
 10
117.744466174
 20
170.255794572
 10
117.732778677
 20
170.251179554
 10
117.721035368
 20
170.246630481
 10
117.709235957
 20
170.242148674
 10
117.697380156
 20
170.237735456
 10
117.685467675
 20
170.233392148
 10
117.673498226
 20
170.229120073
 10
117.661471518
 20
170.224920551
 10
117.649387262
 20
170.220794904
 10
117.637252967
 20
170.216749468
 10
117.625076675
 20
170.212790589
 10
117.612858902
 20
170.208919609
 10
117.600600163
 20
170.205137869
 10
117.588300973
 20
170.201446709
 10
117.575961846
 20
170.197847472
 10
117.563583299
 20
170.194341498
 10
117.551165846
 20
170.190930128
 10
117.538710002
 20
170.187614703
 10
117.526216282
 20
170.184396565
 10
117.513685202
 20
170.181277055
 10
117.501117276
 20
170.178257513
 10
117.48851302
 20
170.175339281
 10
117.475872949
 20
170.172523699
 10
117.463197578
 20
170.16981211
 10
117.450487421
 20
170.167205854
 10
117.437742995
 20
170.164706272
 10
117.424964814
 20
170.162314705
 10
117.412153393
 20
170.160032495
 10
117.399309247
 20
170.157860982
 10
117.386432892
 20
170.155801508
 10
117.373524842
 20
170.153855413
 10
117.360585613
 20
170.15202404
 10
117.34761572
 20
170.150308728
 10
117.334615677
 20
170.14871082
 10
117.321586
 20
170.147231656
 10
117.308527205
 20
170.145872576
 10
117.295439805
 20
170.144634924
 10
117.282324317
 20
170.143520039
 10
117.269181255
 20
170.142529262
 10
117.256011135
 20
170.141663935
 10
117.242814471
 20
170.140925399
 10
117.229591778
 20
170.140314995
 10
117.216343573
 20
170.139834064
 10
117.203070369
 20
170.139483947
  0
LINE
  5
2F8
330
1F
100
AcDbEntity
  8
0
  6
Continuous
 62
     7
100
AcDbLine
 10
111.411174716
 20
170.139483946
 30
0.0
 11
111.411174717
 21
170.840997809
 31
0.0
  0
LINE
  5
2F9
330
1F
100
AcDbEntity
  8
0
  6
Continuous
 62
     7
100
AcDbLine
 10
118.636755566
 20
170.840997809
 30
0.0
 11
118.636755566
 21
170.139483946
 31
0.0
  0
LINE
  5
2FA
330
1F
100
AcDbEntity
  8
0
  6
Continuous
 62
     7
100
AcDbLine
 10
118.824200437
 20
170.139483946
 30
0.0
 11
118.824200435
 21
171.137287197
 31
0.0
  0
LINE
  5
2FB
330
1F
100
AcDbEntity
  8
0
  6
Continuous
 62
     7
100
AcDbLine
 10
111.223729845
 20
170.139483946
 30
0.0
 11
111.223729847
 21
171.137287197
 31
0.0
  0
LINE
  5
2FC
330
1F
100
AcDbEntity
  8
0
  6
Continuous
 62
     7
100
AcDbLine
 10
112.733259333
 20
171.839483946
 30
0.0
 11
113.942299759
 21
171.839483946
 31
0.0
  0
LWPOLYLINE
  5
2FE
330
1F
100
AcDbEntity
  8
0
  6
Continuous
 62
     7
100
AcDbPolyline
 90
    36
 70
   128
 43
0.0
 10
113.942299759
 20
171.839483946
 10
113.942837106
 20
171.839483648
 10
113.943382192
 20
171.839482753
 10
113.943935009
 20
171.839481265
 10
113.944495552
 20
171.839479182
 10
113.945063812
 20
171.839476507
 10
113.945639782
 20
171.839473242
 10
113.946223455
 20
171.839469386
 10
113.946814825
 20
171.839464941
 10
113.947413883
 20
171.83945991
 10
113.948020622
 20
171.839454291
 10
113.948635036
 20
171.839448088
 10
113.949257117
 20
171.839441301
 10
113.949886859
 20
171.839433931
 10
113.950524253
 20
171.83942598
 10
113.951169292
 20
171.839417448
 10
113.951821971
 20
171.839408337
 10
113.95248228
 20
171.839398648
 10
113.953150214
 20
171.839388383
 10
113.953825764
 20
171.839377542
 10
113.954508925
 20
171.839366127
 10
113.955199688
 20
171.839354139
 10
113.955898046
 20
171.839341578
 10
113.956603992
 20
171.839328447
 10
113.95731752
 20
171.839314747
 10
113.958038621
 20
171.839300478
 10
113.95876729
 20
171.839285643
 10
113.959503517
 20
171.839270241
 10
113.960247297
 20
171.839254274
 10
113.960998622
 20
171.839237745
 10
113.961757485
 20
171.839220652
 10
113.962523879
 20
171.839202999
 10
113.963297796
 20
171.839184786
 10
113.96407923
 20
171.839166014
 10
113.964868173
 20
171.839146684
 10
113.965664618
 20
171.839126799
  0
LWPOLYLINE
  5
300
330
1F
100
AcDbEntity
  8
0
  6
Continuous
 62
     7
100
AcDbPolyline
 90
   141
 70
   128
 43
0.0
 10
113.965664618
 20
171.839126799
 10
113.97144476
 20
171.838971702
 10
113.977582808
 20
171.838789222
 10
113.984075592
 20
171.838580226
 10
113.990919944
 20
171.838345586
 10
113.998112696
 20
171.83808617
 10
114.005650679
 20
171.837802849
 10
114.013530725
 20
171.837496494
 10
114.021749665
 20
171.837167973
 10
114.030304331
 20
171.836818156
 10
114.039191554
 20
171.836447914
 10
114.048408166
 20
171.836058117
 10
114.057950999
 20
171.835649634
 10
114.067816883
 20
171.835223335
 10
114.078002651
 20
171.834780091
 10
114.088505135
 20
171.83432077
 10
114.099321165
 20
171.833846244
 10
114.110447573
 20
171.833357381
 10
114.121881191
 20
171.832855053
 10
114.13361885
 20
171.832340128
 10
114.145657382
 20
171.831813476
 10
114.157993618
 20
171.831275969
 10
114.170624391
 20
171.830728474
 10
114.183546531
 20
171.830171863
 10
114.19675687
 20
171.829607006
 10
114.210252239
 20
171.829034772
 10
114.224029471
 20
171.82845603
 10
114.238085397
 20
171.827871652
 10
114.252416847
 20
171.827282507
 10
114.267020655
 20
171.826689464
 10
114.281893651
 20
171.826093395
 10
114.297032667
 20
171.825495168
 10
114.312434534
 20
171.824895653
 10
114.328096084
 20
171.824295721
 10
114.344014149
 20
171.823696242
 10
114.36018556
 20
171.823098084
 10
114.376591436
 20
171.822504346
 10
114.393211077
 20
171.821917934
 10
114.410038584
 20
171.821339438
 10
114.42706806
 20
171.820769444
 10
114.444293608
 20
171.820208542
 10
114.461709329
 20
171.819657319
 10
114.479309325
 20
171.819116363
 10
114.4970877
 20
171.818586263
 10
114.515038554
 20
171.818067606
 10
114.533155991
 20
171.817560979
 10
114.551434112
 20
171.817066973
 10
114.56986702
 20
171.816586173
 10
114.588448817
 20
171.816119169
 10
114.607173605
 20
171.815666548
 10
114.626035486
 20
171.815228898
 10
114.645028563
 20
171.814806808
 10
114.664146938
 20
171.814400866
 10
114.683384713
 20
171.814011659
 10
114.70273599
 20
171.813639775
 10
114.722194871
 20
171.813285803
 10
114.741755459
 20
171.81295033
 10
114.761411856
 20
171.812633945
 10
114.781158165
 20
171.812337235
 10
114.800988486
 20
171.812060789
 10
114.820896923
 20
171.811805194
 10
114.840877578
 20
171.81157104
 10
114.860924552
 20
171.811358912
 10
114.881031949
 20
171.811169401
 10
114.90119387
 20
171.811003093
 10
114.921404418
 20
171.810860577
 10
114.941657695
 20
171.810742441
 10
114.961947802
 20
171.810649272
 10
114.982268843
 20
171.810581659
 10
115.00261492
 20
171.81054019
 10
115.022980134
 20
171.810525453
 10
115.043348783
 20
171.810537955
 10
115.063704811
 20
171.810577409
 10
115.084041784
 20
171.81064321
 10
115.10435327
 20
171.810734754
 10
115.124632838
 20
171.810851436
 10
115.144874056
 20
171.810992654
 10
115.165070491
 20
171.811157801
 10
115.185215712
 20
171.811346275
 10
115.205303287
 20
171.81155747
 10
115.225326783
 20
171.811790783
 10
115.245279769
 20
171.812045608
 10
115.265155813
 20
171.812321343
 10
115.284948483
 20
171.812617383
 10
115.304651346
 20
171.812933122
 10
115.324257971
 20
171.813267958
 10
115.343761926
 20
171.813621286
 10
115.363156778
 20
171.813992501
 10
115.382436097
 20
171.814381
 10
115.401593449
 20
171.814786177
 10
115.420622403
 20
171.815207429
 10
115.439516527
 20
171.815644152
 10
115.458269389
 20
171.816095741
 10
115.476874556
 20
171.816561592
 10
115.495325598
 20
171.817041101
 10
115.513616082
 20
171.817533663
 10
115.531739575
 20
171.818038674
 10
115.549689647
 20
171.81855553
 10
115.567459864
 20
171.819083627
 10
115.585043795
 20
171.81962236
 10
115.602435009
 20
171.820171125
 10
115.619627072
 20
171.820729318
 10
115.636613554
 20
171.821296335
 10
115.653388021
 20
171.82187157
 10
115.669944043
 20
171.822454421
 10
115.686275187
 20
171.823044283
 10
115.702374195
 20
171.823638756
 10
115.718235448
 20
171.824235242
 10
115.733854972
 20
171.824832837
 10
115.749228793
 20
171.825430634
 10
115.764352937
 20
171.826027731
 10
115.77922343
 20
171.82662322
 10
115.793836297
 20
171.827216199
 10
115.808187564
 20
171.827805763
 10
115.822273258
 20
171.828391005
 10
115.836089403
 20
171.828971023
 10
115.849632027
 20
171.82954491
 10
115.862897154
 20
171.830111763
 10
115.875880812
 20
171.830670676
 10
115.888579025
 20
171.831220744
 10
115.900987819
 20
171.831761064
 10
115.913103221
 20
171.832290729
 10
115.924921256
 20
171.832808836
 10
115.93643795
 20
171.83331448
 10
115.947649329
 20
171.833806755
 10
115.958551419
 20
171.834284758
 10
115.969140245
 20
171.834747582
 10
115.979411835
 20
171.835194324
 10
115.989362212
 20
171.835624079
 10
115.998987404
 20
171.836035942
 10
116.008283437
 20
171.836429009
 10
116.017246335
 20
171.836802373
 10
116.025872126
 20
171.837155131
 10
116.034156834
 20
171.837486379
 10
116.042096486
 20
171.83779521
 10
116.049687107
 20
171.838080721
 10
116.056924724
 20
171.838342006
 10
116.063805363
 20
171.838578161
 10
116.070325048
 20
171.838788282
 10
116.076479807
 20
171.838971462
 10
116.082265665
 20
171.839126799
  0
LWPOLYLINE
  5
302
330
1F
100
AcDbEntity
  8
0
  6
Continuous
 62
     7
100
AcDbPolyline
 90
    36
 70
   128
 43
0.0
 10
116.082265665
 20
171.839126799
 10
116.08306211
 20
171.839146684
 10
116.083851053
 20
171.839166014
 10
116.084632486
 20
171.839184786
 10
116.085406404
 20
171.839202999
 10
116.086172797
 20
171.839220652
 10
116.08693166
 20
171.839237744
 10
116.087682985
 20
171.839254274
 10
116.088426765
 20
171.839270241
 10
116.089162993
 20
171.839285643
 10
116.089891661
 20
171.839300478
 10
116.090612762
 20
171.839314747
 10
116.09132629
 20
171.839328447
 10
116.092032236
 20
171.839341578
 10
116.092730595
 20
171.839354139
 10
116.093421358
 20
171.839366127
 10
116.094104518
 20
171.839377542
 10
116.094780068
 20
171.839388383
 10
116.095448002
 20
171.839398648
 10
116.096108312
 20
171.839408337
 10
116.09676099
 20
171.839417448
 10
116.09740603
 20
171.83942598
 10
116.098043424
 20
171.839433931
 10
116.098673165
 20
171.839441301
 10
116.099295246
 20
171.839448088
 10
116.09990966
 20
171.839454291
 10
116.1005164
 20
171.83945991
 10
116.101115458
 20
171.839464941
 10
116.101706827
 20
171.839469386
 10
116.1022905
 20
171.839473242
 10
116.10286647
 20
171.839476507
 10
116.10343473
 20
171.839479182
 10
116.103995273
 20
171.839481265
 10
116.104548091
 20
171.839482753
 10
116.105093176
 20
171.839483648
 10
116.105630523
 20
171.839483946
  0
LINE
  5
303
330
1F
100
AcDbEntity
  8
0
  6
Continuous
 62
     7
100
AcDbLine
 10
116.105630524
 20
171.839483946
 30
0.0
 11
117.315034147
 21
171.839483946
 31
0.0
  0
LWPOLYLINE
  5
305
330
1F
100
AcDbEntity
  8
0
  6
Continuous
 62
     7
100
AcDbPolyline
 90
   141
 70
   128
 43
0.0
 10
117.315034134
 20
171.839483946
 10
117.319268751
 20
171.839468964
 10
117.323602442
 20
171.839424124
 10
117.328035089
 20
171.839349584
 10
117.332566573
 20
171.839245503
 10
117.337196777
 20
171.839112041
 10
117.341925582
 20
171.838949356
 10
117.34675287
 20
171.838757606
 10
117.351678523
 20
171.838536952
 10
117.356702422
 20
171.83828755
 10
117.361824449
 20
171.838009562
 10
117.367044485
 20
171.837703145
 10
117.372362414
 20
171.837368457
 10
117.377778115
 20
171.837005659
 10
117.383291472
 20
171.836614909
 10
117.388902366
 20
171.836196365
 10
117.394610677
 20
171.835750187
 10
117.40041629
 20
171.835276534
 10
117.406319084
 20
171.834775564
 10
117.412318942
 20
171.834247436
 10
117.418415745
 20
171.833692309
 10
117.424609376
 20
171.833110341
 10
117.430899715
 20
171.832501693
 10
117.437286645
 20
171.831866522
 10
117.443770048
 20
171.831204987
 10
117.450349805
 20
171.830517248
 10
117.457025797
 20
171.829803463
 10
117.463797908
 20
171.829063791
 10
117.470666017
 20
171.828298391
 10
117.477630008
 20
171.827507421
 10
117.484689762
 20
171.826691041
 10
117.49184516
 20
171.82584941
 10
117.499096084
 20
171.824982685
 10
117.506442417
 20
171.824091027
 10
117.513884039
 20
171.823174594
 10
117.521420833
 20
171.822233544
 10
117.52905486
 20
171.821267645
 10
117.536788149
 20
171.820276705
 10
117.544620535
 20
171.819260946
 10
117.55255185
 20
171.818220589
 10
117.560581929
 20
171.817155855
 10
117.568710605
 20
171.816066968
 10
117.576937712
 20
171.814954148
 10
117.585263083
 20
171.813817617
 10
117.593686551
 20
171.812657596
 10
117.602207952
 20
171.811474308
 10
117.610827117
 20
171.810267974
 10
117.619543882
 20
171.809038815
 10
117.628358079
 20
171.807787054
 10
117.637269541
 20
171.806512912
 10
117.646278104
 20
171.805216611
 10
117.6553836
 20
171.803898372
 10
117.664585862
 20
171.802558416
 10
117.673884725
 20
171.801196967
 10
117.683280023
 20
171.799814245
 10
117.692771588
 20
171.798410472
 10
117.702359254
 20
171.79698587
 10
117.712042856
 20
171.79554066
 10
117.721822226
 20
171.794075064
 10
117.731697198
 20
171.792589303
 10
117.741667606
 20
171.7910836
 10
117.751733284
 20
171.789558177
 10
117.761894064
 20
171.788013253
 10
117.772149782
 20
171.786449053
 10
117.78250027
 20
171.784865796
 10
117.792945361
 20
171.783263705
 10
117.803484891
 20
171.781643001
 10
117.814118691
 20
171.780003907
 10
117.824846597
 20
171.778346643
 10
117.835668441
 20
171.776671432
 10
117.846584057
 20
171.774978494
 10
117.857587547
 20
171.773269018
 10
117.868673211
 20
171.771544217
 10
117.879841171
 20
171.769804356
 10
117.891091555
 20
171.768049698
 10
117.902424486
 20
171.766280506
 10
117.913840091
 20
171.764497045
 10
117.925338494
 20
171.762699577
 10
117.93691982
 20
171.760888366
 10
117.948584196
 20
171.759063676
 10
117.960331745
 20
171.757225771
 10
117.972162594
 20
171.755374914
 10
117.984076867
 20
171.753511369
 10
117.99607469
 20
171.751635398
 10
118.008156188
 20
171.749747267
 10
118.020321487
 20
171.747847238
 10
118.03257071
 20
171.745935575
 10
118.044903984
 20
171.744012541
 10
118.057321434
 20
171.742078401
 10
118.069823185
 20
171.740133417
 10
118.082409363
 20
171.738177854
 10
118.095080092
 20
171.736211975
 10
118.107835497
 20
171.734236043
 10
118.120675705
 20
171.732250322
 10
118.13360084
 20
171.730255076
 10
118.146611027
 20
171.728250569
 10
118.159706392
 20
171.726237063
 10
118.172887059
 20
171.724214822
 10
118.186153155
 20
171.722184111
 10
118.199504804
 20
171.720145192
 10
118.212942132
 20
171.718098329
 10
118.226465263
 20
171.716043786
 10
118.240074323
 20
171.713981827
 10
118.253769437
 20
171.711912714
 10
118.267550731
 20
171.709836712
 10
118.28141833
 20
171.707754085
 10
118.295376038
 20
171.70566455
 10
118.309427418
 20
171.70356793
 10
118.323572228
 20
171.701464642
 10
118.337810226
 20
171.699355101
 10
118.352141169
 20
171.697239724
 10
118.366564817
 20
171.695118929
 10
118.381080927
 20
171.692993132
 10
118.395689258
 20
171.690862749
 10
118.410389568
 20
171.688728196
 10
118.425181614
 20
171.686589892
 10
118.440065156
 20
171.684448251
 10
118.455039952
 20
171.682303692
 10
118.470105759
 20
171.68015663
 10
118.485262336
 20
171.678007482
 10
118.500509441
 20
171.675856664
 10
118.515846833
 20
171.673704594
 10
118.531274269
 20
171.671551688
 10
118.546791508
 20
171.669398362
 10
118.562398308
 20
171.667245034
 10
118.578094427
 20
171.665092119
 10
118.593879623
 20
171.662940035
 10
118.609753655
 20
171.660789197
 10
118.625716281
 20
171.658640024
 10
118.641767259
 20
171.65649293
 10
118.657906347
 20
171.654348334
 10
118.674133303
 20
171.652206651
 10
118.690447886
 20
171.650068298
 10
118.706849854
 20
171.647933692
 10
118.723338965
 20
171.645803249
 10
118.739914978
 20
171.643677386
 10
118.75657765
 20
171.64155652
 10
118.773326739
 20
171.639441067
 10
118.790162005
 20
171.637331444
 10
118.807083204
 20
171.635228067
 10
118.824090096
 20
171.633131353
  0
LWPOLYLINE
  5
307
330
1F
100
AcDbEntity
  8
0
  6
Continuous
 62
     7
100
AcDbPolyline
 90
   141
 70
   128
 43
0.0
 10
111.223729883
 20
171.633202246
 10
111.240702653
 20
171.63528973
 10
111.257580536
 20
171.637382531
 10
111.274363948
 20
171.639480332
 10
111.291053305
 20
171.641582815
 10
111.307649024
 20
171.643689664
 10
111.324151521
 20
171.64580056
 10
111.340561211
 20
171.647915189
 10
111.356878511
 20
171.650033231
 10
111.373103838
 20
171.652154371
 10
111.389237608
 20
171.654278291
 10
111.405280236
 20
171.656404675
 10
111.421232139
 20
171.658533204
 10
111.437093734
 20
171.660663563
 10
111.452865436
 20
171.662795434
 10
111.468547661
 20
171.6649285
 10
111.484140827
 20
171.667062444
 10
111.499645348
 20
171.669196949
 10
111.515061642
 20
171.671331699
 10
111.530390125
 20
171.673466375
 10
111.545631212
 20
171.675600661
 10
111.560785321
 20
171.677734241
 10
111.575852866
 20
171.679866796
 10
111.590834265
 20
171.68199801
 10
111.605729934
 20
171.684127566
 10
111.620540289
 20
171.686255147
 10
111.635265746
 20
171.688380436
 10
111.649906721
 20
171.690503115
 10
111.66446363
 20
171.692622869
 10
111.678936891
 20
171.694739379
 10
111.693326918
 20
171.696852328
 10
111.707634129
 20
171.698961401
 10
111.721858939
 20
171.701066279
 10
111.736001765
 20
171.703166645
 10
111.750063023
 20
171.705262184
 10
111.764043129
 20
171.707352577
 10
111.777944879
 20
171.709437998
 10
111.791770356
 20
171.711518572
 10
111.805518905
 20
171.71359391
 10
111.819189871
 20
171.71566362
 10
111.832782598
 20
171.717727312
 10
111.846296432
 20
171.719784595
 10
111.859730717
 20
171.72183508
 10
111.873084798
 20
171.723878375
 10
111.886358021
 20
171.72591409
 10
111.89954973
 20
171.727941835
 10
111.91265927
 20
171.729961219
 10
111.925685987
 20
171.731971852
 10
111.938629224
 20
171.733973343
 10
111.951488328
 20
171.735965302
 10
111.964262642
 20
171.737947339
 10
111.976951512
 20
171.739919062
 10
111.989554283
 20
171.741880081
 10
112.0020703
 20
171.743830007
 10
112.014498908
 20
171.745768448
 10
112.026839451
 20
171.747695014
 10
112.039091275
 20
171.749609315
 10
112.051253724
 20
171.75151096
 10
112.063326143
 20
171.753399558
 10
112.075307878
 20
171.75527472
 10
112.087198274
 20
171.757136054
 10
112.098996674
 20
171.758983171
 10
112.110702425
 20
171.760815679
 10
112.122314871
 20
171.762633189
 10
112.133833357
 20
171.764435309
 10
112.145257228
 20
171.76622165
 10
112.156585828
 20
171.767991821
 10
112.167818504
 20
171.769745432
 10
112.1789546
 20
171.771482091
 10
112.18999346
 20
171.773201409
 10
112.20093443
 20
171.774902995
 10
112.211778897
 20
171.776586803
 10
112.222528755
 20
171.778252921
 10
112.233184109
 20
171.779901156
 10
112.243745063
 20
171.781531318
 10
112.254211721
 20
171.783143215
 10
112.264584187
 20
171.784736656
 10
112.274862565
 20
171.786311449
 10
112.28504696
 20
171.787867402
 10
112.295137475
 20
171.789404325
 10
112.305134216
 20
171.790922027
 10
112.315037286
 20
171.792420315
 10
112.324846789
 20
171.793898998
 10
112.33456283
 20
171.795357886
 10
112.344185513
 20
171.796796786
 10
112.353714942
 20
171.798215507
 10
112.363151221
 20
171.799613858
 10
112.372494454
 20
171.800991647
 10
112.381744747
 20
171.802348684
 10
112.390902202
 20
171.803684776
 10
112.399966924
 20
171.804999732
 10
112.408939018
 20
171.806293361
 10
112.417818588
 20
171.807565472
 10
112.426605737
 20
171.808815873
 10
112.43530057
 20
171.810044372
 10
112.443903191
 20
171.811250779
 10
112.452413705
 20
171.812434901
 10
112.460832216
 20
171.813596549
 10
112.469158827
 20
171.814735529
 10
112.477393644
 20
171.815851651
 10
112.485536769
 20
171.816944724
 10
112.493588309
 20
171.818014556
 10
112.501548366
 20
171.819060955
 10
112.509417044
 20
171.82008373
 10
112.517194449
 20
171.821082691
 10
112.524880685
 20
171.822057645
 10
112.53247458
 20
171.823008157
 10
112.539974724
 20
171.823933814
 10
112.54738086
 20
171.824834454
 10
112.554692729
 20
171.825709917
 10
112.561910074
 20
171.826560041
 10
112.569032639
 20
171.827384667
 10
112.576060164
 20
171.828183633
 10
112.582992395
 20
171.828956778
 10
112.589829071
 20
171.829703942
 10
112.596569937
 20
171.830424964
 10
112.603214735
 20
171.831119682
 10
112.609763207
 20
171.831787937
 10
112.616215097
 20
171.832429568
 10
112.622570145
 20
171.833044413
 10
112.628828097
 20
171.833632311
 10
112.634988692
 20
171.834193103
 10
112.641051675
 20
171.834726627
 10
112.647016788
 20
171.835232722
 10
112.652883774
 20
171.835711228
 10
112.658652375
 20
171.836161984
 10
112.664322333
 20
171.836584829
 10
112.669893391
 20
171.836979601
 10
112.675365293
 20
171.837346142
 10
112.680737779
 20
171.837684288
 10
112.686010594
 20
171.837993881
 10
112.691183479
 20
171.838274758
 10
112.696256178
 20
171.83852676
 10
112.701228432
 20
171.838749725
 10
112.706099984
 20
171.838943492
 10
112.710870578
 20
171.839107902
 10
112.715539954
 20
171.839242792
 10
112.720107857
 20
171.839348002
 10
112.724574028
 20
171.839423372
 10
112.728938211
 20
171.83946874
 10
112.733200147
 20
171.839483946
  0
LINE
  5
308
330
1F
100
AcDbEntity
  8
0
  6
Continuous
 62
     7
100
AcDbLine
 10
118.824200435
 20
171.191996097
 30
0.0
 11
118.824200435
 21
171.633140536
 31
0.0
  0
LWPOLYLINE
  5
30A
330
1F
100
AcDbEntity
  8
0
  6
Continuous
 62
     7
100
AcDbPolyline
 90
     9
 70
   128
 43
0.0
 10
111.223729865
 20
171.633202246
 10
111.223729865
 20
171.591344903
 10
111.223729865
 20
171.545661372
 10
111.223729865
 20
171.496164365
 10
111.223729865
 20
171.442867653
 10
111.223729865
 20
171.385786064
 10
111.223729865
 20
171.324935481
 10
111.223729865
 20
171.260332833
 10
111.223729847
 20
171.191996097
  0
LINE
  5
30B
330
1F
100
AcDbEntity
  8
0
  6
Continuous
 62
     7
100
AcDbLine
 10
116.082265666
 20
172.039483946
 30
0.0
 11
116.082265665
 21
171.839126799
 31
0.0
  0
LINE
  5
30C
330
1F
100
AcDbEntity
  8
0
  6
Continuous
 62
     7
100
AcDbLine
 10
113.965664617
 20
171.839126799
 30
0.0
 11
113.965664617
 21
172.039483946
 31
0.0
  0
LINE
  5
30D
330
1F
100
AcDbEntity
  8
0
  6
Continuous
 62
     7
100
AcDbLine
 10
113.965664617
 20
172.039483946
 30
0.0
 11
116.082265666
 21
172.039483946
 31
0.0
  0
LINE
  5
30E
330
1F
100
AcDbEntity
  8
0
  6
Continuous
 62
     7
100
AcDbLine
 10
113.942299759
 20
171.839483946
 30
0.0
 11
113.965664617
 21
171.839483946
 31
0.0
  0
LINE
  5
30F
330
1F
100
AcDbEntity
  8
0
  6
Continuous
 62
     7
100
AcDbLine
 10
116.082265665
 20
171.839483946
 30
0.0
 11
116.105630524
 21
171.839483946
 31
0.0
  0
LWPOLYLINE
  5
311
330
1F
100
AcDbEntity
  8
0
  6
Continuous
 62
     7
100
AcDbPolyline
 90
     3
 70
   128
 43
0.0
 10
115.023965141
 20
139.033239362
 10
114.483162516
 20
139.065786842
 10
114.054924183
 20
139.139483946
  0
LWPOLYLINE
  5
313
330
1F
100
AcDbEntity
  8
0
  6
Continuous
 62
     7
100
AcDbPolyline
 90
     3
 70
   128
 43
0.0
 10
115.9930061
 20
139.139483946
 10
115.564767766
 20
139.065786842
 10
115.023965141
 20
139.033239362
  0
LINE
  5
314
330
1F
100
AcDbEntity
  8
0
  6
LTYPE1
 62
     3
100
AcDbLine
 10
120.623964565
 20
158.639483851
 30
0.0
 11
109.423963102
 21
158.639483851
 31
0.0
  0
LINE
  5
315
330
1F
100
AcDbEntity
  8
0
  6
LTYPE1
 62
     3
100
AcDbLine
 10
120.623964565
 20
150.639483851
 30
0.0
 11
109.423963102
 21
150.639483851
 31
0.0
  0
LINE
  5
316
330
1F
100
AcDbEntity
  8
0
  6
Continuous
 62
     3
100
AcDbLine
 10
108.423963102
 20
154.639483851
 30
0.0
 11
84.823963102
 21
154.639483851
 31
0.0
  0
LINE
  5
317
330
1F
100
AcDbEntity
  8
0
  6
Continuous
 62
     3
100
AcDbLine
 10
108.423963102
 20
158.639483851
 30
0.0
 11
96.923963102
 21
158.639483851
 31
0.0
  0
LINE
  5
318
330
1F
100
AcDbEntity
  8
0
  6
Continuous
 62
     3
100
AcDbLine
 10
98.923963102
 20
158.639483851
 30
0.0
 11
99.571010714
 21
161.054298417
 31
0.0
  0
LINE
  5
319
330
1F
100
AcDbEntity
  8
0
  6
Continuous
 62
     3
100
AcDbLine
 10
98.923963102
 20
158.639483851
 30
0.0
 11
98.276915489
 21
161.054298417
 31
0.0
  0
LWPOLYLINE
  5
31B
330
1F
100
AcDbEntity
  8
0
  6
Continuous
 62
     3
100
AcDbPolyline
 90
     4
 70
   128
 43
0.0
 10
98.923963102
 20
164.189483851
 10
98.923963102
 20
158.639483851
 10
98.923963102
 20
154.639483851
 10
98.923963102
 20
150.889483851
  0
LINE
  5
31C
330
1F
100
AcDbEntity
  8
0
  6
Continuous
 62
     3
100
AcDbLine
 10
108.423963102
 20
154.639483851
 30
0.0
 11
96.923963102
 21
154.639483851
 31
0.0
  0
MTEXT
  5
31D
330
1F
100
AcDbEntity
  8
0
  6
Continuous
 62
     3
100
AcDbMText
 10
97.923963102
 20
162.389483851
 30
0.0
 40
3.0
 41
3.6
 71
     7
 72
     1
  1
\T1.167;\W0.600;４
  7
KANJI0
 11
0.0
 21
1.0
 31
0.0
 73
     1
 44
1.0
  0
LINE
  5
31E
330
1F
100
AcDbEntity
  8
0
  6
Continuous
 62
     3
100
AcDbLine
 10
108.423963102
 20
150.639483851
 30
0.0
 11
96.923963102
 21
150.639483851
 31
0.0
  0
LINE
  5
31F
330
1F
100
AcDbEntity
  8
0
  6
Continuous
 62
     3
100
AcDbLine
 10
98.923963102
 20
150.639483851
 30
0.0
 11
98.276915489
 21
148.224669285
 31
0.0
  0
LINE
  5
320
330
1F
100
AcDbEntity
  8
0
  6
Continuous
 62
     3
100
AcDbLine
 10
98.923963102
 20
150.639483851
 30
0.0
 11
99.571010714
 21
148.224669285
 31
0.0
  0
LWPOLYLINE
  5
322
330
1F
100
AcDbEntity
  8
0
  6
Continuous
 62
     3
100
AcDbPolyline
 90
     4
 70
   128
 43
0.0
 10
98.923963102
 20
145.089483851
 10
98.923963102
 20
150.639483851
 10
98.923963102
 20
154.639483851
 10
98.923963102
 20
158.389483851
  0
LINE
  5
323
330
1F
100
AcDbEntity
  8
0
  6
Continuous
 62
     3
100
AcDbLine
 10
108.423963102
 20
154.639483851
 30
0.0
 11
96.923963102
 21
154.639483851
 31
0.0
  0
MTEXT
  5
324
330
1F
100
AcDbEntity
  8
0
  6
Continuous
 62
     3
100
AcDbMText
 10
97.923963102
 20
145.089483851
 30
0.0
 40
3.0
 41
3.6
 71
     7
 72
     1
  1
\T1.167;\W0.600;４
  7
KANJI0
 11
0.0
 21
1.0
 31
0.0
 73
     1
 44
1.0
  0
CIRCLE
  5
325
330
1F
100
AcDbEntity
  8
0
  6
Continuous
 62
     3
100
AcDbCircle
 10
98.923963102
 20
154.639483851
 30
0.0
 40
0.5
  0
LINE
  5
326
330
1F
100
AcDbEntity
  8
0
  6
Continuous
 62
     3
100
AcDbLine
 10
124.889028074
 20
159.589483851
 30
0.0
 11
136.589028074
 21
159.589483851
 31
0.0
  0
MTEXT
  5
327
330
1F
100
AcDbEntity
  8
0
  6
Continuous
 62
     3
100
AcDbMText
 10
124.889028074
 20
160.589483851
 30
0.0
 40
3.0
 41
23.4
 71
     7
 72
     1
  1
\T1.111;\W0.900;検出中心
  7
KANJI4
 73
     1
 44
1.0
  0
LINE
  5
328
330
1F
100
AcDbEntity
  8
0
  6
Continuous
 62
     3
100
AcDbLine
 10
124.889028074
 20
167.289483851
 30
0.0
 11
133.589028074
 21
167.289483851
 31
0.0
  0
MTEXT
  5
329
330
1F
100
AcDbEntity
  8
0
  6
Continuous
 62
     3
100
AcDbMText
 10
124.889028074
 20
168.289483851
 30
0.0
 40
3.0
 41
17.4
 71
     7
 72
     1
  1
\T1.111;\W0.900;受光部
  7
KANJI4
 73
     1
 44
1.0
  0
LINE
  5
32A
330
1F
100
AcDbEntity
  8
0
  6
Continuous
 62
     3
100
AcDbLine
 10
124.889028074
 20
144.789483851
 30
0.0
 11
133.589028074
 21
144.789483851
 31
0.0
  0
MTEXT
  5
32B
330
1F
100
AcDbEntity
  8
0
  6
Continuous
 62
     3
100
AcDbMText
 10
124.889028074
 20
145.789483851
 30
0.0
 40
3.0
 41
17.4
 71
     7
 72
     1
  1
\T1.111;\W0.900;投光部
  7
KANJI4
 73
     1
 44
1.0
  0
LINE
  5
32C
330
1F
100
AcDbEntity
  8
0
  6
Continuous
 62
     3
100
AcDbLine
 10
115.789028074
 20
159.289483851
 30
0.0
 11
118.029869398
 21
160.39791976
 31
0.0
  0
LINE
  5
32D
330
1F
100
AcDbEntity
  8
0
  6
Continuous
 62
     3
100
AcDbLine
 10
115.789028074
 20
159.289483851
 30
0.0
 11
117.175435632
 21
161.369838168
 31
0.0
  0
LINE
  5
32E
330
1F
100
AcDbEntity
  8
0
  6
Continuous
 62
     3
100
AcDbLine
 10
115.789028074
 20
159.289483851
 30
0.0
 11
124.889028074
 21
167.289483851
 31
0.0
  0
LINE
  5
32F
330
1F
100
AcDbEntity
  8
0
  6
Continuous
 62
     3
100
AcDbLine
 10
115.789028074
 20
155.389483851
 30
0.0
 11
118.252732214
 21
155.81393869
 31
0.0
  0
LINE
  5
330
330
1F
100
AcDbEntity
  8
0
  6
Continuous
 62
     3
100
AcDbLine
 10
115.789028074
 20
155.389483851
 30
0.0
 11
117.710431028
 21
156.988924594
 31
0.0
  0
LINE
  5
331
330
1F
100
AcDbEntity
  8
0
  6
Continuous
 62
     3
100
AcDbLine
 10
115.789028074
 20
155.389483851
 30
0.0
 11
124.889028074
 21
159.589483851
 31
0.0
  0
LINE
  5
332
330
1F
100
AcDbEntity
  8
0
  6
Continuous
 62
     3
100
AcDbLine
 10
115.489028074
 20
150.289483851
 30
0.0
 11
117.24651666
 21
148.511497948
 31
0.0
  0
LINE
  5
333
330
1F
100
AcDbEntity
  8
0
  6
Continuous
 62
     3
100
AcDbLine
 10
115.489028074
 20
150.289483851
 30
0.0
 11
117.900050788
 21
149.628447185
 31
0.0
  0
LINE
  5
334
330
1F
100
AcDbEntity
  8
0
  6
Continuous
 62
     3
100
AcDbLine
 10
115.489028074
 20
150.289483851
 30
0.0
 11
124.889028074
 21
144.789483851
 31
0.0
  0
MTEXT
  5
335
330
1F
100
AcDbEntity
  8
0
  6
Continuous
 62
     3
100
AcDbMText
 10
189.275107441
 20
164.674084458
 30
0.0
 40
3.0
 41
110.4
 71
     7
 72
     1
  1
\W0.800;ＣＸ－４２４　＜パナソニックデバイスＳＵＮＸ＞
  7
KANJI5
 73
     1
 44
1.0
  0
MTEXT
  5
336
330
1F
100
AcDbEntity
  8
0
  6
Continuous
 62
     3
100
AcDbMText
 10
185.151357441
 20
89.898834458
 30
0.0
 40
4.0
 41
19.2
 71
     7
 72
     1
  1
\W0.800;配線図
  7
KANJI6
 73
     1
 44
1.0
  0
LINE
  5
339
330
1F
100
AcDbEntity
  8
0
  6
LTYPE2
 62
     2
100
AcDbLine
 10
177.565107441
 20
95.165084458
 30
0.0
 11
177.565107441
 21
53.555084458
 31
0.0
  0
LINE
  5
33A
330
1F
100
AcDbEntity
  8
0
  6
LTYPE2
 62
     2
100
AcDbLine
 10
289.275107441
 20
95.165084458
 30
0.0
 11
177.565107441
 21
95.165084458
 31
0.0
  0
LINE
  5
33B
330
1F
100
AcDbEntity
  8
0
  6
LTYPE2
 62
     2
100
AcDbLine
 10
289.275107441
 20
53.555084458
 30
0.0
 11
289.275107441
 21
95.165084458
 31
0.0
  0
LINE
  5
33C
330
1F
100
AcDbEntity
  8
0
  6
LTYPE2
 62
     2
100
AcDbLine
 10
177.565107441
 20
53.555084458
 30
0.0
 11
289.275107441
 21
53.555084458
 31
0.0
  0
LINE
  5
33D
330
1F
100
AcDbEntity
  8
0
  6
Continuous
 62
     7
100
AcDbLine
 10
257.902542104
 20
83.449778282
 30
0.0
 11
257.902542104
 21
66.649778282
 31
0.0
  0
LINE
  5
33E
330
1F
100
AcDbEntity
  8
0
  6
Continuous
 62
     7
100
AcDbLine
 10
262.102542104
 20
83.449778282
 30
0.0
 11
262.102542104
 21
66.649778282
 31
0.0
  0
LINE
  5
33F
330
1F
100
AcDbEntity
  8
0
  6
Continuous
 62
     7
100
AcDbLine
 10
262.102542104
 20
70.849778282
 30
0.0
 11
257.902542104
 21
70.849778282
 31
0.0
  0
LINE
  5
340
330
1F
100
AcDbEntity
  8
0
  6
Continuous
 62
     7
100
AcDbLine
 10
262.102542104
 20
83.449778282
 30
0.0
 11
257.902542104
 21
83.449778282
 31
0.0
  0
LINE
  5
341
330
1F
100
AcDbEntity
  8
0
  6
Continuous
 62
     7
100
AcDbLine
 10
262.102542104
 20
79.249778282
 30
0.0
 11
257.902542104
 21
79.249778282
 31
0.0
  0
LINE
  5
342
330
1F
100
AcDbEntity
  8
0
  6
Continuous
 62
     7
100
AcDbLine
 10
262.102542104
 20
75.049778282
 30
0.0
 11
257.902542104
 21
75.049778282
 31
0.0
  0
LINE
  5
343
330
1F
100
AcDbEntity
  8
0
  6
Continuous
 62
     7
100
AcDbLine
 10
262.102542104
 20
66.649778282
 30
0.0
 11
257.902542104
 21
66.649778282
 31
0.0
  0
MTEXT
  5
344
330
1F
100
AcDbEntity
  8
0
  6
Continuous
 62
     3
100
AcDbMText
 10
258.840159254
 20
75.837278282
 30
0.0
 40
2.625
 41
5.25
 71
     7
 72
     1
  1
\W1.000;２
  7
KANJI7
 73
     1
 44
1.0
  0
MTEXT
  5
346
330
1F
100
AcDbEntity
  8
0
  6
Continuous
 62
     3
100
AcDbMText
 10
259.064924954
 20
71.637278282
 30
0.0
 40
2.625
 41
16.97426388
 71
     7
 72
     1
  1
\W0.808;３　０Ｖ
  7
KANJI8
 73
     1
 44
1.0
  0
MTEXT
  5
348
330
1F
100
AcDbEntity
  8
0
  6
Continuous
 62
     3
100
AcDbMText
 10
259.064924954
 20
67.437278282
 30
0.0
 40
2.625
 41
16.97426388
 71
     7
 72
     1
  1
\W0.808;４　信号
  7
KANJI8
 73
     1
 44
1.0
  0
MTEXT
  5
349
330
1F
100
AcDbEntity
  8
0
  6
Continuous
 62
     3
100
AcDbMText
 10
251.890907682
 20
82.084778282
 30
0.0
 40
2.835
 41
8.4
 71
     7
 72
     1
  1
\W0.741;チャ
  7
KANJI9
 73
     1
 44
1.0
  0
MTEXT
  5
34B
330
1F
100
AcDbEntity
  8
0
  6
Continuous
 62
     3
100
AcDbMText
 10
251.890907682
 20
73.684778282
 30
0.0
 40
2.835
 41
8.4
 71
     7
 72
     1
  1
\W0.741;アオ
  7
KANJI9
 73
     1
 44
1.0
  0
MTEXT
  5
34C
330
1F
100
AcDbEntity
  8
0
  6
Continuous
 62
     3
100
AcDbMText
 10
258.832714969
 20
80.037278282
 30
0.0
 40
2.625
 41
28.36488857
 71
     7
 72
     1
  1
\W0.900;１　＋２４Ｖ
  7
KANJI10
 73
     1
 44
1.0
  0
LINE
  5
34E
330
1F
100
AcDbEntity
  8
3
  6
Continuous
 62
     7
100
AcDbLine
 10
228.482607441
 20
80.031025739
 30
0.0
 11
228.482607441
 21
66.531025739
 31
0.0
  0
ELLIPSE
  5
34F
330
1F
100
AcDbEntity
  8
0
  6
Continuous
 62
     3
100
AcDbEllipse
 10
236.749284587
 20
73.398407356
 30
0.0
 11
0.0
 21
-8.4375
 31
0.0
 40
0.2
 41
5.576571105
 42
3.998298282
  0
MTEXT
  5
350
330
1F
100
AcDbEntity
  8
3
  6
Continuous
 62
     3
100
AcDbMText
 10
218.134661987
 20
71.874775739
 30
0.0
 40
2.8125
 41
22.733389125
 71
     7
 72
     1
  1
\W0.808;　０Ｖ　　
  7
KANJI11
 73
     1
 44
1.0
  0
MTEXT
  5
352
330
1F
100
AcDbEntity
  8
3
  6
Continuous
 62
     3
100
AcDbMText
 10
218.134661987
 20
67.374775739
 30
0.0
 40
2.8125
 41
22.733389125
 71
     7
 72
     1
  1
\W0.808;　信号　　
  7
KANJI11
 73
     1
 44
1.0
  0
MTEXT
  5
353
330
1F
100
AcDbEntity
  8
3
  6
Continuous
 62
     3
100
AcDbMText
 10
218.134661987
 20
76.374775739
 30
0.0
 40
2.8125
 41
22.733389125
 71
     7
 72
     1
  1
\W0.808;＋２４Ｖ　
  7
KANJI11
 73
     1
 44
1.0
  0
LINE
  5
354
330
1F
100
AcDbEntity
  8
3
  6
Continuous
 62
     7
100
AcDbLine
 10
228.482607441
 20
75.531025739
 30
0.0
 11
216.607607441
 21
75.531025739
 31
0.0
  0
LINE
  5
355
330
1F
100
AcDbEntity
  8
3
  6
Continuous
 62
     7
100
AcDbLine
 10
228.482607441
 20
71.031025739
 30
0.0
 11
216.607607441
 21
71.031025739
 31
0.0
  0
LINE
  5
356
330
1F
100
AcDbEntity
  8
3
  6
Continuous
 62
     7
100
AcDbLine
 10
216.607607441
 20
80.031025739
 30
0.0
 11
216.607607441
 21
66.531025739
 31
0.0
  0
LINE
  5
357
330
1F
100
AcDbEntity
  8
3
  6
Continuous
 62
     7
100
AcDbLine
 10
228.482607441
 20
66.531025739
 30
0.0
 11
199.107607441
 21
66.531025739
 31
0.0
  0
LINE
  5
358
330
1F
100
AcDbEntity
  8
3
  6
Continuous
 62
     7
100
AcDbLine
 10
199.107607441
 20
80.031025739
 30
0.0
 11
199.107607441
 21
66.531025739
 31
0.0
  0
LINE
  5
359
330
1F
100
AcDbEntity
  8
3
  6
Continuous
 62
     7
100
AcDbLine
 10
228.482607441
 20
80.031025739
 30
0.0
 11
199.107607441
 21
80.031025739
 31
0.0
  0
MTEXT
  5
35A
330
1F
100
AcDbEntity
  8
3
  6
Continuous
 62
     3
100
AcDbMText
 10
202.110934856
 20
73.703625833
 30
0.0
 40
3.0
 41
24.0
 71
     7
 72
     1
  1
\W0.800;光電センサ
  7
KANJI5
 73
     1
 44
1.0
  0
LINE
  5
35B
330
1F
100
AcDbEntity
  8
3
  6
Continuous
 62
     3
100
AcDbLine
 10
245.074284587
 20
81.691617155
 30
0.0
 11
257.573034587
 21
81.685907356
 31
0.0
  0
LINE
  5
35C
330
1F
100
AcDbEntity
  8
0
  6
Continuous
 62
     3
100
AcDbLine
 10
245.074284587
 20
81.691617155
 30
0.0
 11
245.074284587
 21
77.791617155
 31
0.0
  0
MTEXT
  5
35D
330
1F
100
AcDbEntity
  8
0
  6
Continuous
 62
     3
100
AcDbMText
 10
251.890907682
 20
69.284778282
 30
0.0
 40
2.835
 41
8.4
 71
     7
 72
     1
  1
\W0.741;クロ
  7
KANJI9
 73
     1
 44
1.0
  0
LINE
  5
35E
330
1F
100
AcDbEntity
  8
3
  6
Continuous
 62
     3
100
AcDbLine
 10
228.567784587
 20
77.799157813
 30
0.0
 11
245.074284587
 21
77.791617155
 31
0.0
  0
LINE
  5
35F
330
1F
100
AcDbEntity
  8
3
  6
Continuous
 62
     3
100
AcDbLine
 10
228.467784587
 20
73.299203496
 30
0.0
 11
257.573034587
 21
73.285907356
 31
0.0
  0
LINE
  5
360
330
1F
100
AcDbEntity
  8
0
  6
Continuous
 62
     3
100
AcDbLine
 10
228.485107441
 20
68.759185255
 30
0.0
 11
257.732607441
 21
68.785834458
 31
0.0
  0
LINE
  5
361
330
1F
100
AcDbEntity
  8
0
  6
LTYPE2
 62
     2
100
AcDbLine
 10
156.054040052
 20
130.78948588
 30
0.0
 11
178.054040806
 21
130.78948588
 31
0.0
  0
LINE
  5
362
330
1F
100
AcDbEntity
  8
0
  6
LTYPE1
 62
     3
100
AcDbLine
 10
155.154040076
 20
203.439484498
 30
0.0
 11
170.354039629
 21
203.439484498
 31
0.0
  0
LINE
  5
363
330
1F
100
AcDbEntity
  8
0
  6
Continuous
 62
     7
100
AcDbLine
 10
171.643576766
 20
202.903285915
 30
0.0
 11
173.140239674
 21
204.399948823
 31
0.0
  0
LINE
  5
364
330
1F
100
AcDbEntity
  8
0
  6
Continuous
 62
     7
100
AcDbLine
 10
173.564503022
 20
203.975685475
 30
0.0
 11
172.067840114
 21
202.479022567
 31
0.0
  0
CIRCLE
  5
365
330
1F
100
AcDbEntity
  8
0
  6
Continuous
 62
     3
100
AcDbCircle
 10
172.454206454
 20
204.167136595
 30
0.0
 40
0.25
  0
CIRCLE
  5
366
330
1F
100
AcDbEntity
  8
0
  6
Continuous
 62
     3
100
AcDbCircle
 10
173.317379252
 20
203.253963797
 30
0.0
 40
0.25
  0
LINE
  5
367
330
1F
100
AcDbEntity
  8
0
  6
Continuous
 62
     4
100
AcDbLine
 10
179.926460837
 20
206.947833919
 30
0.0
 11
201.726460837
 21
213.426135806
 31
0.0
  0
MTEXT
  5
368
330
1F
100
AcDbEntity
  8
0
  6
Continuous
 62
     1
100
AcDbMText
 10
13.088408963
 20
275.330666488
 30
0.0
 40
10.0
 41
143.6
 71
     7
 72
     1
  1
\T1.030;\W1.000;ＳＵＣ－５５６
  7
KANJI12
 73
     1
 44
1.0
  0
MTEXT
  5
36A
330
1F
100
AcDbEntity
  8
0
  6
Continuous
 62
     1
100
AcDbMText
 10
13.088408963
 20
265.330666488
 30
0.0
 40
10.0
 41
205.4
 71
     7
 72
     1
  1
\T1.030;\W1.000;光電センサ（反射型）
  7
KANJI12
 73
     1
 44
1.0
  0
ENDSEC
  0
SECTION
  2
OBJECTS
  0
DICTIONARY
  5
C
330
0
100
AcDbDictionary
280
     0
281
     1
  3
ACAD_GROUP
350
D
  3
ACAD_LAYOUT
350
1A
  3
ACAD_MLINESTYLE
350
17
  3
ACAD_PLOTSETTINGS
350
19
  3
ACAD_PLOTSTYLENAME
350
E
  0
DICTIONARY
  5
D
102
{ACAD_REACTORS
330
C
102
}
330
C
100
AcDbDictionary
280
     0
281
     1
  0
DICTIONARY
  5
1A
102
{ACAD_REACTORS
330
C
102
}
330
C
100
AcDbDictionary
280
     0
281
     1
  3
Model
350
22
  3
ﾚｲｱｳﾄ1
350
1E
  3
ﾚｲｱｳﾄ2
350
26
  0
LAYOUT
  5
22
102
{ACAD_REACTORS
330
1A
102
}
330
1A
100
AcDbPlotSettings
  1

  2

  4

  6

 40
0.0
 41
0.0
 42
0.0
 43
0.0
 44
0.0
 45
0.0
 46
0.0
 47
0.0
 48
0.0
 49
0.0
140
0.0
141
0.0
142
1.0
143
1.0
 70
  1712
 72
     0
 73
     0
 74
     0
  7

 75
     0
147
1.0
148
0.0
149
0.0
100
AcDbLayout
  1
Model
 70
     1
 71
     0
 10
0.0
 20
0.0
 11
0.0
 21
0.0
 12
0.0
 22
0.0
 32
0.0
 14
0.0
 24
0.0
 34
0.0
 15
0.0
 25
0.0
 35
0.0
146
0.0
 13
0.0
 23
0.0
 33
0.0
 16
1.0
 26
0.0
 36
0.0
 17
0.0
 27
1.0
 37
0.0
 76
     0
330
1F
331
0
345
0
346
0
  0
LAYOUT
  5
1E
102
{ACAD_REACTORS
330
1A
102
}
330
1A
100
AcDbPlotSettings
  1

  2

  4

  6

 40
0.0
 41
0.0
 42
0.0
 43
0.0
 44
0.0
 45
0.0
 46
0.0
 47
0.0
 48
0.0
 49
0.0
140
0.0
141
0.0
142
1.0
143
1.0
 70
   688
 72
     0
 73
     0
 74
     5
  7

 75
    16
147
1.0
148
0.0
149
0.0
100
AcDbLayout
  1
ﾚｲｱｳﾄ1
 70
     1
 71
     1
 10
0.0
 20
0.0
 11
0.0
 21
0.0
 12
0.0
 22
0.0
 32
0.0
 14
0.0
 24
0.0
 34
0.0
 15
0.0
 25
0.0
 35
0.0
146
0.0
 13
0.0
 23
0.0
 33
0.0
 16
1.0
 26
0.0
 36
0.0
 17
0.0
 27
1.0
 37
0.0
 76
     0
330
1B
331
0
345
0
346
0
  0
LAYOUT
  5
26
102
{ACAD_REACTORS
330
1A
102
}
330
1A
100
AcDbPlotSettings
  1

  2

  4

  6

 40
0.0
 41
0.0
 42
0.0
 43
0.0
 44
0.0
 45
0.0
 46
0.0
 47
0.0
 48
0.0
 49
0.0
140
0.0
141
0.0
142
1.0
143
1.0
 70
   688
 72
     0
 73
     0
 74
     5
  7

 75
    16
147
1.0
148
0.0
149
0.0
100
AcDbLayout
  1
ﾚｲｱｳﾄ2
 70
     1
 71
     2
 10
0.0
 20
0.0
 11
0.0
 21
0.0
 12
0.0
 22
0.0
 32
0.0
 14
0.0
 24
0.0
 34
0.0
 15
0.0
 25
0.0
 35
0.0
146
0.0
 13
0.0
 23
0.0
 33
0.0
 16
1.0
 26
0.0
 36
0.0
 17
0.0
 27
1.0
 37
0.0
 76
     0
330
23
331
0
345
0
346
0
  0
DICTIONARY
  5
17
102
{ACAD_REACTORS
330
C
102
}
330
C
100
AcDbDictionary
280
     0
281
     1
  3
Standard
350
18
  0
MLINESTYLE
  5
18
102
{ACAD_REACTORS
330
17
102
}
330
17
100
AcDbMlineStyle
  2
STANDARD
 70
     0
  3

 62
   256
 51
90.0
 52
90.0
 71
     2
 49
0.5
 62
   256
  6
ByLayer
 49
-0.5
 62
   256
  6
ByLayer
  0
DICTIONARY
  5
19
102
{ACAD_REACTORS
330
C
102
}
330
C
100
AcDbDictionary
280
     0
281
     1
  0
ACDBDICTIONARYWDFLT
  5
E
330
C
100
AcDbDictionary
281
     0
  3
Normal
350
F
100
AcDbDictionaryWithDefault
340
F
  0
ACDBPLACEHOLDER
  5
F
102
{ACAD_REACTORS
330
E
102
}
330
E
  0
ENDSEC
  0
EOF
