  0
SECTION
  2
HEADER
  9
$ACADVER
  1
AC1015
  9
$ACADMAINTVER
 70
     6
  9
$DWGCODEPAGE
  3
ANSI_932
  9
$INSBASE
 10
0.0
 20
0.0
 30
0.0
  9
$EXTMIN
 10
0.0
 20
0.0
 30
0.0
  9
$EXTMAX
 10
420.0
 20
297.0
 30
0.0
  9
$LIMMIN
 10
0.0
 20
0.0
  9
$LIMMAX
 10
420.0
 20
297.0
  9
$ORTHOMODE
 70
     0
  9
$REGENMODE
 70
     1
  9
$FILLMODE
 70
     1
  9
$QTEXTMODE
 70
     0
  9
$MIRRTEXT
 70
     1
  9
$LTSCALE
 40
1.0
  9
$ATTMODE
 70
     1
  9
$TEXTSIZE
 40
2.5
  9
$TRACEWID
 40
1.0
  9
$TEXTSTYLE
  7
Standard
  9
$CLAYER
  8
0
  9
$CELTYPE
  6
ByLayer
  9
$CECOLOR
 62
   256
  9
$CELTSCALE
 40
1.0
  9
$DISPSILH
 70
     0
  9
$DIMSCALE
 40
1.0
  9
$DIMASZ
 40
2.5
  9
$DIMEXO
 40
0.625
  9
$DIMDLI
 40
3.75
  9
$DIMRND
 40
0.0
  9
$DIMDLE
 40
0.0
  9
$DIMEXE
 40
1.25
  9
$DIMTP
 40
0.0
  9
$DIMTM
 40
0.0
  9
$DIMTXT
 40
2.5
  9
$DIMCEN
 40
2.5
  9
$DIMTSZ
 40
0.0
  9
$DIMTOL
 70
     0
  9
$DIMLIM
 70
     0
  9
$DIMTIH
 70
     0
  9
$DIMTOH
 70
     0
  9
$DIMSE1
 70
     0
  9
$DIMSE2
 70
     0
  9
$DIMTAD
 70
     1
  9
$DIMZIN
 70
     8
  9
$DIMBLK
  1

  9
$DIMASO
 70
     1
  9
$DIMSHO
 70
     1
  9
$DIMPOST
  1

  9
$DIMAPOST
  1

  9
$DIMALT
 70
     0
  9
$DIMALTD
 70
     3
  9
$DIMALTF
 40
0.03937007874016
  9
$DIMLFAC
 40
1.0
  9
$DIMTOFL
 70
     1
  9
$DIMTVP
 40
0.0
  9
$DIMTIX
 70
     0
  9
$DIMSOXD
 70
     0
  9
$DIMSAH
 70
     0
  9
$DIMBLK1
  1

  9
$DIMBLK2
  1

  9
$DIMSTYLE
  2
ISO-25
  9
$DIMCLRD
 70
     0
  9
$DIMCLRE
 70
     0
  9
$DIMCLRT
 70
     0
  9
$DIMTFAC
 40
1.0
  9
$DIMGAP
 40
0.625
  9
$DIMJUST
 70
     0
  9
$DIMSD1
 70
     0
  9
$DIMSD2
 70
     0
  9
$DIMTOLJ
 70
     0
  9
$DIMTZIN
 70
     8
  9
$DIMALTZ
 70
     0
  9
$DIMALTTZ
 70
     0
  9
$DIMUPT
 70
     0
  9
$DIMDEC
 70
     2
  9
$DIMTDEC
 70
     2
  9
$DIMALTU
 70
     2
  9
$DIMALTTD
 70
     3
  9
$DIMTXSTY
  7
Standard
  9
$DIMAUNIT
 70
     0
  9
$DIMADEC
 70
     0
  9
$DIMALTRND
 40
0.0
  9
$DIMAZIN
 70
     0
  9
$DIMDSEP
 70
    46
  9
$DIMATFIT
 70
     3
  9
$DIMFRAC
 70
     0
  9
$DIMLDRBLK
  1

  9
$DIMLUNIT
 70
     2
  9
$DIMLWD
 70
    -2
  9
$DIMLWE
 70
    -2
  9
$DIMTMOVE
 70
     0
  9
$LUNITS
 70
     2
  9
$LUPREC
 70
     4
  9
$SKETCHINC
 40
1.0
  9
$FILLETRAD
 40
10.0
  9
$AUNITS
 70
     0
  9
$AUPREC
 70
     0
  9
$MENU
  1
.
  9
$ELEVATION
 40
0.0
  9
$PELEVATION
 40
0.0
  9
$THICKNESS
 40
0.0
  9
$LIMCHECK
 70
     0
  9
$CHAMFERA
 40
10.0
  9
$CHAMFERB
 40
10.0
  9
$CHAMFERC
 40
20.0
  9
$CHAMFERD
 40
0.0
  9
$SKPOLY
 70
     0
  9
$TDCREATE
 40
2458998.000000
  9
$TDUCREATE
 40
0.000000000
  9
$TDUPDATE
 40
2458998.000000
  9
$TDUUPDATE
 40
2458998.000000
  9
$TDINDWG
 40
0.0
  9
$TDUSRTIMER
 40
0.0
  9
$USRTIMER
 70
     1
  9
$ANGBASE
 50
0.0
  9
$ANGDIR
 70
     0
  9
$PDMODE
 70
     0
  9
$PDSIZE
 40
0.0
  9
$PLINEWID
 40
0.0
  9
$SPLFRAME
 70
     0
  9
$SPLINETYPE
 70
     6
  9
$SPLINESEGS
 70
     8
  9
$HANDSEED
  5
0432
  9
$SURFTAB1
 70
     6
  9
$SURFTAB2
 70
     6
  9
$SURFTYPE
 70
     6
  9
$SURFU
 70
     6
  9
$SURFV
 70
     6
  9
$UCSBASE
  2

  9
$UCSNAME
  2

  9
$UCSORG
 10
0.0
 20
0.0
 30
0.0
  9
$UCSXDIR
 10
1.0
 20
0.0
 30
0.0
  9
$UCSYDIR
 10
0.0
 20
1.0
 30
0.0
  9
$UCSORTHOREF
  2

  9
$UCSORTHOVIEW
 70
     0
  9
$UCSORGTOP
 10
0.0
 20
0.0
 30
0.0
  9
$UCSORGBOTTOM
 10
0.0
 20
0.0
 30
0.0
  9
$UCSORGLEFT
 10
0.0
 20
0.0
 30
0.0
  9
$UCSORGRIGHT
 10
0.0
 20
0.0
 30
0.0
  9
$UCSORGFRONT
 10
0.0
 20
0.0
 30
0.0
  9
$UCSORGBACK
 10
0.0
 20
0.0
 30
0.0
  9
$PUCSBASE
  2

  9
$PUCSNAME
  2

  9
$PUCSORG
 10
0.0
 20
0.0
 30
0.0
  9
$PUCSXDIR
 10
1.0
 20
0.0
 30
0.0
  9
$PUCSYDIR
 10
0.0
 20
1.0
 30
0.0
  9
$PUCSORTHOREF
  2

  9
$PUCSORTHOVIEW
 70
     0
  9
$PUCSORGTOP
 10
0.0
 20
0.0
 30
0.0
  9
$PUCSORGBOTTOM
 10
0.0
 20
0.0
 30
0.0
  9
$PUCSORGLEFT
 10
0.0
 20
0.0
 30
0.0
  9
$PUCSORGRIGHT
 10
0.0
 20
0.0
 30
0.0
  9
$PUCSORGFRONT
 10
0.0
 20
0.0
 30
0.0
  9
$PUCSORGBACK
 10
0.0
 20
0.0
 30
0.0
  9
$USERI1
 70
     0
  9
$USERI2
 70
     0
  9
$USERI3
 70
     0
  9
$USERI4
 70
     0
  9
$USERI5
 70
     0
  9
$USERR1
 40
0.0
  9
$USERR2
 40
0.0
  9
$USERR3
 40
0.0
  9
$USERR4
 40
0.0
  9
$USERR5
 40
0.0
  9
$WORLDVIEW
 70
     1
  9
$SHADEDGE
 70
     3
  9
$SHADEDIF
 70
    70
  9
$TILEMODE
 70
     1
  9
$MAXACTVP
 70
    64
  9
$PINSBASE
 10
0.0
 20
0.0
 30
0.0
  9
$PLIMCHECK
 70
     0
  9
$PEXTMIN
 10
1.000000E+20
 20
1.000000E+20
 30
1.000000E+20
  9
$PEXTMAX
 10
-1.000000E+20
 20
-1.000000E+20
 30
-1.000000E+20
  9
$PLIMMIN
 10
0.0
 20
0.0
  9
$PLIMMAX
 10
0.0
 20
0.0
  9
$UNITMODE
 70
     0
  9
$VISRETAIN
 70
     0
  9
$PLINEGEN
 70
     0
  9
$PSLTSCALE
 70
     1
  9
$TREEDEPTH
 70
  3020
  9
$CMLSTYLE
  2
STANDARD
  9
$CMLJUST
 70
     0
  9
$CMLSCALE
 40
20.0
  9
$PROXYGRAPHICS
 70
     1
  9
$MEASUREMENT
 70
     1
  9
$CELWEIGHT
370
    -1
  9
$ENDCAPS
280
     0
  9
$JOINSTYLE
280
     0
  9
$LWDISPLAY
290
     0
  9
$INSUNITS
 70
     4
  9
$HYPERLINKBASE
  1

  9
$STYLESHEET
  1

  9
$XEDIT
290
     1
  9
$CEPSNTYPE
380
     0
  9
$PSTYLEMODE
290
     1
  9
$FINGERPRINTGUID
  2
{BE91666A-80CC-7250-F923-69BA0A415462}
  9
$VERSIONGUID
  2
{BE91666A-80CC-7250-F923-69BA0A415462}
  9
$EXTNAMES
290
     1
  9
$PSVPSCALE
 40
0.0
  0
ENDSEC
  0
SECTION
  2
CLASSES
  0
ENDSEC
  0
SECTION
  2
TABLES
  0
TABLE
  2
VPORT
  5
8
330
0
100
AcDbSymbolTable
 70
     3
  0
VPORT
  5
29
330
8
100
AcDbSymbolTableRecord
100
AcDbViewportTableRecord
  2
*Active
 70
     0
 10
0.0
 20
0.0
 11
1.0
 21
1.0
 12
210.0
 22
148.5
 13
0.0
 23
0.0
 14
10.0
 24
10.0
 15
0.0
 25
0.0
 16
0.0
 26
0.0
 36
1.0
 17
0.0
 27
0.0
 37
0.0
 40
297.0
 41
1.414141414
 42
50.0
 43
0.0
 44
0.0
 50
0.0
 51
0.0
 71
     0
 72
  1000
 73
     1
 74
     3
 75
     0
 76
     0
 77
     0
 78
     0
281
     0
 65
     0
110
0.0
120
0.0
130
0.0
111
1.0
121
0.0
131
0.0
112
0.0
122
1.0
132
0.0
 79
     0
146
0.0
  0
ENDTAB
  0
TABLE
  2
LTYPE
  5
5
330
0
100
AcDbSymbolTable
 70
     6
  0
LTYPE
  5
14
330
5
100
AcDbSymbolTableRecord
100
AcDbLinetypeTableRecord
  2
ByBlock
 70
     0
  3

 72
    65
 73
     0
 40
0.0
  0
LTYPE
  5
15
330
5
100
AcDbSymbolTableRecord
100
AcDbLinetypeTableRecord
  2
ByLayer
 70
     0
  3

 72
    65
 73
     0
 40
0.0
  0
LTYPE
  5
16
330
5
100
AcDbSymbolTableRecord
100
AcDbLinetypeTableRecord
  2
Continuous
 70
     0
  3
Solid line
 72
    65
 73
     0
 40
0.0
  0
LTYPE
  5
AB
330
5
100
AcDbSymbolTableRecord
100
AcDbLinetypeTableRecord
  2
LTYPE1
 70
     0
  3
HIDDEN
 72
    65
 73
     2
 40
3.0
 49
1.8
 74
     0
 49
-1.2
 74
     0
  0
LTYPE
  5
DB
330
5
100
AcDbSymbolTableRecord
100
AcDbLinetypeTableRecord
  2
LTYPE2
 70
     0
  3
CENTER
 72
    65
 73
     4
 40
15.0
 49
10.5
 74
     0
 49
-1.5
 74
     0
 49
1.5
 74
     0
 49
-1.5
 74
     0
  0
LTYPE
  5
103
330
5
100
AcDbSymbolTableRecord
100
AcDbLinetypeTableRecord
  2
LTYPE3
 70
     0
  3
PHANTOM
 72
    65
 73
     6
 40
2.5
 49
1.875
 74
     0
 49
-0.125
 74
     0
 49
0.125
 74
     0
 49
-0.125
 74
     0
 49
0.125
 74
     0
 49
-0.125
 74
     0
  0
ENDTAB
  0
TABLE
  2
LAYER
  5
2
330
0
100
AcDbSymbolTable
 70
   128
  0
LAYER
  5
10
330
2
100
AcDbSymbolTableRecord
100
AcDbLayerTableRecord
  2
0
 70
     0
 62
     7
  6
Continuous
290
     1
370
    -3
390
F
  0
LAYER
  5
2A
330
2
100
AcDbSymbolTableRecord
100
AcDbLayerTableRecord
  2
2
 70
     0
 62
     7
  6
Continuous
290
     1
370
    -3
390
F
  0
LAYER
  5
2B
330
2
100
AcDbSymbolTableRecord
100
AcDbLayerTableRecord
  2
3
 70
     0
 62
     7
  6
Continuous
290
     1
370
    -3
390
F
  0
LAYER
  5
2C
330
2
100
AcDbSymbolTableRecord
100
AcDbLayerTableRecord
  2
4
 70
     0
 62
     7
  6
Continuous
290
     1
370
    -3
390
F
  0
LAYER
  5
2D
330
2
100
AcDbSymbolTableRecord
100
AcDbLayerTableRecord
  2
5
 70
     0
 62
     7
  6
Continuous
290
     1
370
    -3
390
F
  0
LAYER
  5
2E
330
2
100
AcDbSymbolTableRecord
100
AcDbLayerTableRecord
  2
6
 70
     0
 62
     7
  6
Continuous
290
     1
370
    -3
390
F
  0
LAYER
  5
2F
330
2
100
AcDbSymbolTableRecord
100
AcDbLayerTableRecord
  2
7
 70
     0
 62
     7
  6
Continuous
290
     1
370
    -3
390
F
  0
LAYER
  5
30
330
2
100
AcDbSymbolTableRecord
100
AcDbLayerTableRecord
  2
8
 70
     0
 62
     7
  6
Continuous
290
     1
370
    -3
390
F
  0
LAYER
  5
31
330
2
100
AcDbSymbolTableRecord
100
AcDbLayerTableRecord
  2
9
 70
     0
 62
     7
  6
Continuous
290
     1
370
    -3
390
F
  0
LAYER
  5
32
330
2
100
AcDbSymbolTableRecord
100
AcDbLayerTableRecord
  2
10
 70
     0
 62
     7
  6
Continuous
290
     1
370
    -3
390
F
  0
LAYER
  5
33
330
2
100
AcDbSymbolTableRecord
100
AcDbLayerTableRecord
  2
11
 70
     0
 62
     7
  6
Continuous
290
     1
370
    -3
390
F
  0
LAYER
  5
34
330
2
100
AcDbSymbolTableRecord
100
AcDbLayerTableRecord
  2
12
 70
     0
 62
     7
  6
Continuous
290
     1
370
    -3
390
F
  0
LAYER
  5
35
330
2
100
AcDbSymbolTableRecord
100
AcDbLayerTableRecord
  2
13
 70
     0
 62
     7
  6
Continuous
290
     1
370
    -3
390
F
  0
LAYER
  5
36
330
2
100
AcDbSymbolTableRecord
100
AcDbLayerTableRecord
  2
14
 70
     0
 62
     7
  6
Continuous
290
     1
370
    -3
390
F
  0
LAYER
  5
37
330
2
100
AcDbSymbolTableRecord
100
AcDbLayerTableRecord
  2
15
 70
     0
 62
     7
  6
Continuous
290
     1
370
    -3
390
F
  0
LAYER
  5
38
330
2
100
AcDbSymbolTableRecord
100
AcDbLayerTableRecord
  2
16
 70
     0
 62
     7
  6
Continuous
290
     1
370
    -3
390
F
  0
LAYER
  5
39
330
2
100
AcDbSymbolTableRecord
100
AcDbLayerTableRecord
  2
17
 70
     0
 62
     7
  6
Continuous
290
     1
370
    -3
390
F
  0
LAYER
  5
3A
330
2
100
AcDbSymbolTableRecord
100
AcDbLayerTableRecord
  2
18
 70
     0
 62
     7
  6
Continuous
290
     1
370
    -3
390
F
  0
LAYER
  5
3B
330
2
100
AcDbSymbolTableRecord
100
AcDbLayerTableRecord
  2
19
 70
     0
 62
     7
  6
Continuous
290
     1
370
    -3
390
F
  0
LAYER
  5
3C
330
2
100
AcDbSymbolTableRecord
100
AcDbLayerTableRecord
  2
20
 70
     0
 62
     7
  6
Continuous
290
     1
370
    -3
390
F
  0
LAYER
  5
3D
330
2
100
AcDbSymbolTableRecord
100
AcDbLayerTableRecord
  2
21
 70
     0
 62
     7
  6
Continuous
290
     1
370
    -3
390
F
  0
LAYER
  5
3E
330
2
100
AcDbSymbolTableRecord
100
AcDbLayerTableRecord
  2
22
 70
     0
 62
     7
  6
Continuous
290
     1
370
    -3
390
F
  0
LAYER
  5
3F
330
2
100
AcDbSymbolTableRecord
100
AcDbLayerTableRecord
  2
23
 70
     0
 62
     7
  6
Continuous
290
     1
370
    -3
390
F
  0
LAYER
  5
40
330
2
100
AcDbSymbolTableRecord
100
AcDbLayerTableRecord
  2
24
 70
     0
 62
     7
  6
Continuous
290
     1
370
    -3
390
F
  0
LAYER
  5
41
330
2
100
AcDbSymbolTableRecord
100
AcDbLayerTableRecord
  2
25
 70
     0
 62
     7
  6
Continuous
290
     1
370
    -3
390
F
  0
LAYER
  5
42
330
2
100
AcDbSymbolTableRecord
100
AcDbLayerTableRecord
  2
26
 70
     0
 62
     7
  6
Continuous
290
     1
370
    -3
390
F
  0
LAYER
  5
43
330
2
100
AcDbSymbolTableRecord
100
AcDbLayerTableRecord
  2
27
 70
     0
 62
     7
  6
Continuous
290
     1
370
    -3
390
F
  0
LAYER
  5
44
330
2
100
AcDbSymbolTableRecord
100
AcDbLayerTableRecord
  2
28
 70
     0
 62
     7
  6
Continuous
290
     1
370
    -3
390
F
  0
LAYER
  5
45
330
2
100
AcDbSymbolTableRecord
100
AcDbLayerTableRecord
  2
29
 70
     0
 62
     7
  6
Continuous
290
     1
370
    -3
390
F
  0
LAYER
  5
46
330
2
100
AcDbSymbolTableRecord
100
AcDbLayerTableRecord
  2
30
 70
     0
 62
     7
  6
Continuous
290
     1
370
    -3
390
F
  0
LAYER
  5
47
330
2
100
AcDbSymbolTableRecord
100
AcDbLayerTableRecord
  2
31
 70
     0
 62
     7
  6
Continuous
290
     1
370
    -3
390
F
  0
LAYER
  5
48
330
2
100
AcDbSymbolTableRecord
100
AcDbLayerTableRecord
  2
32
 70
     0
 62
     7
  6
Continuous
290
     1
370
    -3
390
F
  0
LAYER
  5
49
330
2
100
AcDbSymbolTableRecord
100
AcDbLayerTableRecord
  2
33
 70
     0
 62
     7
  6
Continuous
290
     1
370
    -3
390
F
  0
LAYER
  5
4A
330
2
100
AcDbSymbolTableRecord
100
AcDbLayerTableRecord
  2
34
 70
     0
 62
     7
  6
Continuous
290
     1
370
    -3
390
F
  0
LAYER
  5
4B
330
2
100
AcDbSymbolTableRecord
100
AcDbLayerTableRecord
  2
35
 70
     0
 62
     7
  6
Continuous
290
     1
370
    -3
390
F
  0
LAYER
  5
4C
330
2
100
AcDbSymbolTableRecord
100
AcDbLayerTableRecord
  2
36
 70
     0
 62
     7
  6
Continuous
290
     1
370
    -3
390
F
  0
LAYER
  5
4D
330
2
100
AcDbSymbolTableRecord
100
AcDbLayerTableRecord
  2
37
 70
     0
 62
     7
  6
Continuous
290
     1
370
    -3
390
F
  0
LAYER
  5
4E
330
2
100
AcDbSymbolTableRecord
100
AcDbLayerTableRecord
  2
38
 70
     0
 62
     7
  6
Continuous
290
     1
370
    -3
390
F
  0
LAYER
  5
4F
330
2
100
AcDbSymbolTableRecord
100
AcDbLayerTableRecord
  2
39
 70
     0
 62
     7
  6
Continuous
290
     1
370
    -3
390
F
  0
LAYER
  5
50
330
2
100
AcDbSymbolTableRecord
100
AcDbLayerTableRecord
  2
40
 70
     0
 62
     7
  6
Continuous
290
     1
370
    -3
390
F
  0
LAYER
  5
51
330
2
100
AcDbSymbolTableRecord
100
AcDbLayerTableRecord
  2
41
 70
     0
 62
     7
  6
Continuous
290
     1
370
    -3
390
F
  0
LAYER
  5
52
330
2
100
AcDbSymbolTableRecord
100
AcDbLayerTableRecord
  2
42
 70
     0
 62
     7
  6
Continuous
290
     1
370
    -3
390
F
  0
LAYER
  5
53
330
2
100
AcDbSymbolTableRecord
100
AcDbLayerTableRecord
  2
43
 70
     0
 62
     7
  6
Continuous
290
     1
370
    -3
390
F
  0
LAYER
  5
54
330
2
100
AcDbSymbolTableRecord
100
AcDbLayerTableRecord
  2
44
 70
     0
 62
     7
  6
Continuous
290
     1
370
    -3
390
F
  0
LAYER
  5
55
330
2
100
AcDbSymbolTableRecord
100
AcDbLayerTableRecord
  2
45
 70
     0
 62
     7
  6
Continuous
290
     1
370
    -3
390
F
  0
LAYER
  5
56
330
2
100
AcDbSymbolTableRecord
100
AcDbLayerTableRecord
  2
46
 70
     0
 62
     7
  6
Continuous
290
     1
370
    -3
390
F
  0
LAYER
  5
57
330
2
100
AcDbSymbolTableRecord
100
AcDbLayerTableRecord
  2
47
 70
     0
 62
     7
  6
Continuous
290
     1
370
    -3
390
F
  0
LAYER
  5
58
330
2
100
AcDbSymbolTableRecord
100
AcDbLayerTableRecord
  2
48
 70
     0
 62
     7
  6
Continuous
290
     1
370
    -3
390
F
  0
LAYER
  5
59
330
2
100
AcDbSymbolTableRecord
100
AcDbLayerTableRecord
  2
49
 70
     0
 62
     7
  6
Continuous
290
     1
370
    -3
390
F
  0
LAYER
  5
5A
330
2
100
AcDbSymbolTableRecord
100
AcDbLayerTableRecord
  2
50
 70
     0
 62
     7
  6
Continuous
290
     1
370
    -3
390
F
  0
LAYER
  5
5B
330
2
100
AcDbSymbolTableRecord
100
AcDbLayerTableRecord
  2
51
 70
     0
 62
     7
  6
Continuous
290
     1
370
    -3
390
F
  0
LAYER
  5
5C
330
2
100
AcDbSymbolTableRecord
100
AcDbLayerTableRecord
  2
52
 70
     0
 62
     7
  6
Continuous
290
     1
370
    -3
390
F
  0
LAYER
  5
5D
330
2
100
AcDbSymbolTableRecord
100
AcDbLayerTableRecord
  2
53
 70
     0
 62
     7
  6
Continuous
290
     1
370
    -3
390
F
  0
LAYER
  5
5E
330
2
100
AcDbSymbolTableRecord
100
AcDbLayerTableRecord
  2
54
 70
     0
 62
     7
  6
Continuous
290
     1
370
    -3
390
F
  0
LAYER
  5
5F
330
2
100
AcDbSymbolTableRecord
100
AcDbLayerTableRecord
  2
55
 70
     0
 62
     7
  6
Continuous
290
     1
370
    -3
390
F
  0
LAYER
  5
60
330
2
100
AcDbSymbolTableRecord
100
AcDbLayerTableRecord
  2
56
 70
     0
 62
     7
  6
Continuous
290
     1
370
    -3
390
F
  0
LAYER
  5
61
330
2
100
AcDbSymbolTableRecord
100
AcDbLayerTableRecord
  2
57
 70
     0
 62
     7
  6
Continuous
290
     1
370
    -3
390
F
  0
LAYER
  5
62
330
2
100
AcDbSymbolTableRecord
100
AcDbLayerTableRecord
  2
58
 70
     0
 62
     7
  6
Continuous
290
     1
370
    -3
390
F
  0
LAYER
  5
63
330
2
100
AcDbSymbolTableRecord
100
AcDbLayerTableRecord
  2
59
 70
     0
 62
     7
  6
Continuous
290
     1
370
    -3
390
F
  0
LAYER
  5
64
330
2
100
AcDbSymbolTableRecord
100
AcDbLayerTableRecord
  2
60
 70
     0
 62
     7
  6
Continuous
290
     1
370
    -3
390
F
  0
LAYER
  5
65
330
2
100
AcDbSymbolTableRecord
100
AcDbLayerTableRecord
  2
61
 70
     0
 62
     7
  6
Continuous
290
     1
370
    -3
390
F
  0
LAYER
  5
66
330
2
100
AcDbSymbolTableRecord
100
AcDbLayerTableRecord
  2
62
 70
     0
 62
     7
  6
Continuous
290
     1
370
    -3
390
F
  0
LAYER
  5
67
330
2
100
AcDbSymbolTableRecord
100
AcDbLayerTableRecord
  2
63
 70
     0
 62
     7
  6
Continuous
290
     1
370
    -3
390
F
  0
LAYER
  5
68
330
2
100
AcDbSymbolTableRecord
100
AcDbLayerTableRecord
  2
64
 70
     0
 62
     7
  6
Continuous
290
     1
370
    -3
390
F
  0
LAYER
  5
69
330
2
100
AcDbSymbolTableRecord
100
AcDbLayerTableRecord
  2
65
 70
     0
 62
     7
  6
Continuous
290
     1
370
    -3
390
F
  0
LAYER
  5
6A
330
2
100
AcDbSymbolTableRecord
100
AcDbLayerTableRecord
  2
66
 70
     0
 62
     7
  6
Continuous
290
     1
370
    -3
390
F
  0
LAYER
  5
6B
330
2
100
AcDbSymbolTableRecord
100
AcDbLayerTableRecord
  2
67
 70
     0
 62
     7
  6
Continuous
290
     1
370
    -3
390
F
  0
LAYER
  5
6C
330
2
100
AcDbSymbolTableRecord
100
AcDbLayerTableRecord
  2
68
 70
     0
 62
     7
  6
Continuous
290
     1
370
    -3
390
F
  0
LAYER
  5
6D
330
2
100
AcDbSymbolTableRecord
100
AcDbLayerTableRecord
  2
69
 70
     0
 62
     7
  6
Continuous
290
     1
370
    -3
390
F
  0
LAYER
  5
6E
330
2
100
AcDbSymbolTableRecord
100
AcDbLayerTableRecord
  2
70
 70
     0
 62
     7
  6
Continuous
290
     1
370
    -3
390
F
  0
LAYER
  5
6F
330
2
100
AcDbSymbolTableRecord
100
AcDbLayerTableRecord
  2
71
 70
     0
 62
     7
  6
Continuous
290
     1
370
    -3
390
F
  0
LAYER
  5
70
330
2
100
AcDbSymbolTableRecord
100
AcDbLayerTableRecord
  2
72
 70
     0
 62
     7
  6
Continuous
290
     1
370
    -3
390
F
  0
LAYER
  5
71
330
2
100
AcDbSymbolTableRecord
100
AcDbLayerTableRecord
  2
73
 70
     0
 62
     7
  6
Continuous
290
     1
370
    -3
390
F
  0
LAYER
  5
72
330
2
100
AcDbSymbolTableRecord
100
AcDbLayerTableRecord
  2
74
 70
     0
 62
     7
  6
Continuous
290
     1
370
    -3
390
F
  0
LAYER
  5
73
330
2
100
AcDbSymbolTableRecord
100
AcDbLayerTableRecord
  2
75
 70
     0
 62
     7
  6
Continuous
290
     1
370
    -3
390
F
  0
LAYER
  5
74
330
2
100
AcDbSymbolTableRecord
100
AcDbLayerTableRecord
  2
76
 70
     0
 62
     7
  6
Continuous
290
     1
370
    -3
390
F
  0
LAYER
  5
75
330
2
100
AcDbSymbolTableRecord
100
AcDbLayerTableRecord
  2
77
 70
     0
 62
     7
  6
Continuous
290
     1
370
    -3
390
F
  0
LAYER
  5
76
330
2
100
AcDbSymbolTableRecord
100
AcDbLayerTableRecord
  2
78
 70
     0
 62
     7
  6
Continuous
290
     1
370
    -3
390
F
  0
LAYER
  5
77
330
2
100
AcDbSymbolTableRecord
100
AcDbLayerTableRecord
  2
79
 70
     0
 62
     7
  6
Continuous
290
     1
370
    -3
390
F
  0
LAYER
  5
78
330
2
100
AcDbSymbolTableRecord
100
AcDbLayerTableRecord
  2
80
 70
     0
 62
     7
  6
Continuous
290
     1
370
    -3
390
F
  0
LAYER
  5
79
330
2
100
AcDbSymbolTableRecord
100
AcDbLayerTableRecord
  2
81
 70
     0
 62
     7
  6
Continuous
290
     1
370
    -3
390
F
  0
LAYER
  5
7A
330
2
100
AcDbSymbolTableRecord
100
AcDbLayerTableRecord
  2
82
 70
     0
 62
     7
  6
Continuous
290
     1
370
    -3
390
F
  0
LAYER
  5
7B
330
2
100
AcDbSymbolTableRecord
100
AcDbLayerTableRecord
  2
83
 70
     0
 62
     7
  6
Continuous
290
     1
370
    -3
390
F
  0
LAYER
  5
7C
330
2
100
AcDbSymbolTableRecord
100
AcDbLayerTableRecord
  2
84
 70
     0
 62
     7
  6
Continuous
290
     1
370
    -3
390
F
  0
LAYER
  5
7D
330
2
100
AcDbSymbolTableRecord
100
AcDbLayerTableRecord
  2
85
 70
     0
 62
     7
  6
Continuous
290
     1
370
    -3
390
F
  0
LAYER
  5
7E
330
2
100
AcDbSymbolTableRecord
100
AcDbLayerTableRecord
  2
86
 70
     0
 62
     7
  6
Continuous
290
     1
370
    -3
390
F
  0
LAYER
  5
7F
330
2
100
AcDbSymbolTableRecord
100
AcDbLayerTableRecord
  2
87
 70
     0
 62
     7
  6
Continuous
290
     1
370
    -3
390
F
  0
LAYER
  5
80
330
2
100
AcDbSymbolTableRecord
100
AcDbLayerTableRecord
  2
88
 70
     0
 62
     7
  6
Continuous
290
     1
370
    -3
390
F
  0
LAYER
  5
81
330
2
100
AcDbSymbolTableRecord
100
AcDbLayerTableRecord
  2
89
 70
     0
 62
     7
  6
Continuous
290
     1
370
    -3
390
F
  0
LAYER
  5
82
330
2
100
AcDbSymbolTableRecord
100
AcDbLayerTableRecord
  2
90
 70
     0
 62
     7
  6
Continuous
290
     1
370
    -3
390
F
  0
LAYER
  5
83
330
2
100
AcDbSymbolTableRecord
100
AcDbLayerTableRecord
  2
91
 70
     0
 62
     7
  6
Continuous
290
     1
370
    -3
390
F
  0
LAYER
  5
84
330
2
100
AcDbSymbolTableRecord
100
AcDbLayerTableRecord
  2
92
 70
     0
 62
     7
  6
Continuous
290
     1
370
    -3
390
F
  0
LAYER
  5
85
330
2
100
AcDbSymbolTableRecord
100
AcDbLayerTableRecord
  2
93
 70
     0
 62
     7
  6
Continuous
290
     1
370
    -3
390
F
  0
LAYER
  5
86
330
2
100
AcDbSymbolTableRecord
100
AcDbLayerTableRecord
  2
94
 70
     0
 62
     7
  6
Continuous
290
     1
370
    -3
390
F
  0
LAYER
  5
87
330
2
100
AcDbSymbolTableRecord
100
AcDbLayerTableRecord
  2
95
 70
     0
 62
     7
  6
Continuous
290
     1
370
    -3
390
F
  0
LAYER
  5
88
330
2
100
AcDbSymbolTableRecord
100
AcDbLayerTableRecord
  2
96
 70
     0
 62
     7
  6
Continuous
290
     1
370
    -3
390
F
  0
LAYER
  5
89
330
2
100
AcDbSymbolTableRecord
100
AcDbLayerTableRecord
  2
97
 70
     0
 62
     7
  6
Continuous
290
     1
370
    -3
390
F
  0
LAYER
  5
8A
330
2
100
AcDbSymbolTableRecord
100
AcDbLayerTableRecord
  2
98
 70
     0
 62
     7
  6
Continuous
290
     1
370
    -3
390
F
  0
LAYER
  5
8B
330
2
100
AcDbSymbolTableRecord
100
AcDbLayerTableRecord
  2
99
 70
     0
 62
     7
  6
Continuous
290
     1
370
    -3
390
F
  0
LAYER
  5
8C
330
2
100
AcDbSymbolTableRecord
100
AcDbLayerTableRecord
  2
100
 70
     0
 62
     7
  6
Continuous
290
     1
370
    -3
390
F
  0
LAYER
  5
8D
330
2
100
AcDbSymbolTableRecord
100
AcDbLayerTableRecord
  2
101
 70
     0
 62
     7
  6
Continuous
290
     1
370
    -3
390
F
  0
LAYER
  5
8E
330
2
100
AcDbSymbolTableRecord
100
AcDbLayerTableRecord
  2
102
 70
     0
 62
     7
  6
Continuous
290
     1
370
    -3
390
F
  0
LAYER
  5
8F
330
2
100
AcDbSymbolTableRecord
100
AcDbLayerTableRecord
  2
103
 70
     0
 62
     7
  6
Continuous
290
     1
370
    -3
390
F
  0
LAYER
  5
90
330
2
100
AcDbSymbolTableRecord
100
AcDbLayerTableRecord
  2
104
 70
     0
 62
     7
  6
Continuous
290
     1
370
    -3
390
F
  0
LAYER
  5
91
330
2
100
AcDbSymbolTableRecord
100
AcDbLayerTableRecord
  2
105
 70
     0
 62
     7
  6
Continuous
290
     1
370
    -3
390
F
  0
LAYER
  5
92
330
2
100
AcDbSymbolTableRecord
100
AcDbLayerTableRecord
  2
106
 70
     0
 62
     7
  6
Continuous
290
     1
370
    -3
390
F
  0
LAYER
  5
93
330
2
100
AcDbSymbolTableRecord
100
AcDbLayerTableRecord
  2
107
 70
     0
 62
     7
  6
Continuous
290
     1
370
    -3
390
F
  0
LAYER
  5
94
330
2
100
AcDbSymbolTableRecord
100
AcDbLayerTableRecord
  2
108
 70
     0
 62
     7
  6
Continuous
290
     1
370
    -3
390
F
  0
LAYER
  5
95
330
2
100
AcDbSymbolTableRecord
100
AcDbLayerTableRecord
  2
109
 70
     0
 62
     7
  6
Continuous
290
     1
370
    -3
390
F
  0
LAYER
  5
96
330
2
100
AcDbSymbolTableRecord
100
AcDbLayerTableRecord
  2
110
 70
     0
 62
     7
  6
Continuous
290
     1
370
    -3
390
F
  0
LAYER
  5
97
330
2
100
AcDbSymbolTableRecord
100
AcDbLayerTableRecord
  2
111
 70
     0
 62
     7
  6
Continuous
290
     1
370
    -3
390
F
  0
LAYER
  5
98
330
2
100
AcDbSymbolTableRecord
100
AcDbLayerTableRecord
  2
112
 70
     0
 62
     7
  6
Continuous
290
     1
370
    -3
390
F
  0
LAYER
  5
99
330
2
100
AcDbSymbolTableRecord
100
AcDbLayerTableRecord
  2
113
 70
     0
 62
     7
  6
Continuous
290
     1
370
    -3
390
F
  0
LAYER
  5
9A
330
2
100
AcDbSymbolTableRecord
100
AcDbLayerTableRecord
  2
114
 70
     0
 62
     7
  6
Continuous
290
     1
370
    -3
390
F
  0
LAYER
  5
9B
330
2
100
AcDbSymbolTableRecord
100
AcDbLayerTableRecord
  2
115
 70
     0
 62
     7
  6
Continuous
290
     1
370
    -3
390
F
  0
LAYER
  5
9C
330
2
100
AcDbSymbolTableRecord
100
AcDbLayerTableRecord
  2
116
 70
     0
 62
     7
  6
Continuous
290
     1
370
    -3
390
F
  0
LAYER
  5
9D
330
2
100
AcDbSymbolTableRecord
100
AcDbLayerTableRecord
  2
117
 70
     0
 62
     7
  6
Continuous
290
     1
370
    -3
390
F
  0
LAYER
  5
9E
330
2
100
AcDbSymbolTableRecord
100
AcDbLayerTableRecord
  2
118
 70
     0
 62
     7
  6
Continuous
290
     1
370
    -3
390
F
  0
LAYER
  5
9F
330
2
100
AcDbSymbolTableRecord
100
AcDbLayerTableRecord
  2
119
 70
     0
 62
     7
  6
Continuous
290
     1
370
    -3
390
F
  0
LAYER
  5
A0
330
2
100
AcDbSymbolTableRecord
100
AcDbLayerTableRecord
  2
120
 70
     0
 62
     7
  6
Continuous
290
     1
370
    -3
390
F
  0
LAYER
  5
A1
330
2
100
AcDbSymbolTableRecord
100
AcDbLayerTableRecord
  2
121
 70
     0
 62
     7
  6
Continuous
290
     1
370
    -3
390
F
  0
LAYER
  5
A2
330
2
100
AcDbSymbolTableRecord
100
AcDbLayerTableRecord
  2
122
 70
     0
 62
     7
  6
Continuous
290
     1
370
    -3
390
F
  0
LAYER
  5
A3
330
2
100
AcDbSymbolTableRecord
100
AcDbLayerTableRecord
  2
123
 70
     0
 62
     7
  6
Continuous
290
     1
370
    -3
390
F
  0
LAYER
  5
A4
330
2
100
AcDbSymbolTableRecord
100
AcDbLayerTableRecord
  2
124
 70
     0
 62
     7
  6
Continuous
290
     1
370
    -3
390
F
  0
LAYER
  5
A5
330
2
100
AcDbSymbolTableRecord
100
AcDbLayerTableRecord
  2
125
 70
     0
 62
     7
  6
Continuous
290
     1
370
    -3
390
F
  0
LAYER
  5
A6
330
2
100
AcDbSymbolTableRecord
100
AcDbLayerTableRecord
  2
126
 70
     0
 62
     7
  6
Continuous
290
     1
370
    -3
390
F
  0
LAYER
  5
A7
330
2
100
AcDbSymbolTableRecord
100
AcDbLayerTableRecord
  2
127
 70
     0
 62
     7
  6
Continuous
290
     1
370
    -3
390
F
  0
LAYER
  5
A8
330
2
100
AcDbSymbolTableRecord
100
AcDbLayerTableRecord
  2
128
 70
     0
 62
     7
  6
Continuous
290
     1
370
    -3
390
F
  0
ENDTAB
  0
TABLE
  2
STYLE
  5
3
330
0
100
AcDbSymbolTable
 70
    16
  0
STYLE
  5
11
330
3
100
AcDbSymbolTableRecord
100
AcDbTextStyleTableRecord
  2
Standard
 70
     0
 40
0.0
 41
1.0
 50
0.0
 71
     0
 42
2.5
  3
txt.shx
  4
extfont.shx
  0
STYLE
  5
AA
330
3
100
AcDbSymbolTableRecord
100
AcDbTextStyleTableRecord
  2
KANJI0
 70
     0
 40
4.0
 41
0.8
 50
0.0
 71
     0
 42
4.0
  3
txt.shx
  4
extfont.shx
  0
STYLE
  5
B5
330
3
100
AcDbSymbolTableRecord
100
AcDbTextStyleTableRecord
  2
KANJI1
 70
     0
 40
2.625
 41
1.0
 50
0.0
 71
     0
 42
2.625
  3
txt.shx
  4
extfont.shx
  0
STYLE
  5
B7
330
3
100
AcDbSymbolTableRecord
100
AcDbTextStyleTableRecord
  2
KANJI2
 70
     0
 40
2.625
 41
0.80829828
 50
0.0
 71
     0
 42
2.625
  3
txt.shx
  4
extfont.shx
  0
STYLE
  5
BA
330
3
100
AcDbSymbolTableRecord
100
AcDbTextStyleTableRecord
  2
KANJI3
 70
     0
 40
2.835
 41
0.740740741
 50
0.0
 71
     0
 42
2.835
  3
txt.shx
  4
extfont.shx
  0
STYLE
  5
BD
330
3
100
AcDbSymbolTableRecord
100
AcDbTextStyleTableRecord
  2
KANJI4
 70
     0
 40
2.625
 41
0.900472653
 50
0.0
 71
     0
 42
2.625
  3
txt.shx
  4
extfont.shx
  0
STYLE
  5
C1
330
3
100
AcDbSymbolTableRecord
100
AcDbTextStyleTableRecord
  2
KANJI5
 70
     0
 40
2.8125
 41
0.80829828
 50
0.0
 71
     0
 42
2.8125
  3
txt.shx
  4
extfont.shx
  0
STYLE
  5
CB
330
3
100
AcDbSymbolTableRecord
100
AcDbTextStyleTableRecord
  2
KANJI6
 70
     0
 40
3.0
 41
0.8
 50
0.0
 71
     0
 42
3.0
  3
txt.shx
  4
extfont.shx
  0
STYLE
  5
120
330
3
100
AcDbSymbolTableRecord
100
AcDbTextStyleTableRecord
  2
KANJI7
 70
     0
 40
3.0
 41
0.6
 50
0.0
 71
     0
 42
3.0
  3
txt.shx
  4
extfont.shx
  0
STYLE
  5
1D0
330
3
100
AcDbSymbolTableRecord
100
AcDbTextStyleTableRecord
  2
KANJI8
 70
     0
 40
3.0
 41
0.8
 50
0.0
 71
     0
 42
3.0
  3
txt.shx
  4
extfont.shx
  0
STYLE
  5
1D7
330
3
100
AcDbSymbolTableRecord
100
AcDbTextStyleTableRecord
  2
KANJI9
 70
     0
 40
3.0
 41
0.9
 50
0.0
 71
     0
 42
3.0
  3
txt.shx
  4
extfont.shx
  0
STYLE
  5
22E
330
3
100
AcDbSymbolTableRecord
100
AcDbTextStyleTableRecord
  2
KANJI10
 70
     0
 40
1.75
 41
0.8
 50
0.0
 71
     0
 42
1.75
  3
txt.shx
  4
extfont.shx
  0
STYLE
  5
277
330
3
100
AcDbSymbolTableRecord
100
AcDbTextStyleTableRecord
  2
KANJI11
 70
     0
 40
3.0
 41
0.9
 50
0.0
 71
     0
 42
3.0
  3
txt.shx
  4
extfont.shx
  0
STYLE
  5
3FC
330
3
100
AcDbSymbolTableRecord
100
AcDbTextStyleTableRecord
  2
KANJI12
 70
     0
 40
3.5
 41
0.8
 50
0.0
 71
     0
 42
3.5
  3
txt.shx
  4
extfont.shx
  0
STYLE
  5
404
330
3
100
AcDbSymbolTableRecord
100
AcDbTextStyleTableRecord
  2
KANJI13
 70
     0
 40
3.0
 41
0.8
 50
0.0
 71
     0
 42
3.0
  3
txt.shx
  4
extfont.shx
  0
STYLE
  5
430
330
3
100
AcDbSymbolTableRecord
100
AcDbTextStyleTableRecord
  2
KANJI14
 70
     0
 40
10.0
 41
1.0
 50
0.0
 71
     0
 42
10.0
  3
txt.shx
  4
extfont.shx
  0
ENDTAB
  0
TABLE
  2
VIEW
  5
6
330
0
100
AcDbSymbolTable
 70
     0
  0
ENDTAB
  0
TABLE
  2
UCS
  5
7
330
0
100
AcDbSymbolTable
 70
     0
  0
ENDTAB
  0
TABLE
  2
APPID
  5
9
330
0
100
AcDbSymbolTable
 70
     1
  0
APPID
  5
12
330
9
100
AcDbSymbolTableRecord
100
AcDbRegAppTableRecord
  2
ACAD
 70
     0
  0
ENDTAB
  0
TABLE
  2
DIMSTYLE
  5
A
330
0
100
AcDbSymbolTable
 70
     1
100
AcDbDimStyleTable
 71
     0
  0
DIMSTYLE
105
27
330
A
100
AcDbSymbolTableRecord
100
AcDbDimStyleTableRecord
  2
ISO-25
 70
    64
  3

  4

 40
1.0
 41
2.5
 42
0.625
 43
3.75
 44
1.25
 45
0.0
 46
0.0
 47
0.0
 48
0.0
 71
     0
 72
     0
 73
     0
 74
     0
 75
     0
 76
     0
 77
     1
 78
     8
 79
     0
140
2.5
141
2.5
142
0.0
143
0.039370079
144
1.0
145
0.0
146
1.0
147
0.625
148
0.0
170
     0
171
     3
172
     1
173
     0
174
     0
175
     0
176
     0
177
     0
178
     0
179
     0
270
     2
271
     2
272
     2
273
     2
274
     3
275
     0
276
     0
277
     2
278
    46
279
     0
280
     0
281
     0
282
     0
283
     1
284
     8
285
     0
286
     0
288
     0
289
     3
340
11
341
0
342
0
343
0
344
0
371
    -2
372
    -2
  0
ENDTAB
  0
TABLE
  2
BLOCK_RECORD
  5
1
330
0
100
AcDbSymbolTable
 70
     3
  0
BLOCK_RECORD
  5
1F
330
1
100
AcDbSymbolTableRecord
100
AcDbBlockTableRecord
  2
*Model_Space
340
22
  0
BLOCK_RECORD
  5
1B
330
1
100
AcDbSymbolTableRecord
100
AcDbBlockTableRecord
  2
*Paper_Space
340
1E
  0
BLOCK_RECORD
  5
23
330
1
100
AcDbSymbolTableRecord
100
AcDbBlockTableRecord
  2
*Paper_Space0
340
26
  0
ENDTAB
  0
ENDSEC
  0
SECTION
  2
BLOCKS
  0
BLOCK
  5
1C
330
1B
100
AcDbEntity
 67
     1
  8
0
100
AcDbBlockBegin
  2
*Paper_Space
 70
     0
 10
0.0
 20
0.0
 30
0.0
  3
*Paper_Space
  1

  0
ENDBLK
  5
1D
330
1B
100
AcDbEntity
  8
0
100
AcDbBlockEnd
  0
BLOCK
  5
20
330
1F
100
AcDbEntity
  8
0
100
AcDbBlockBegin
  2
*Model_Space
 70
     0
 10
0.0
 20
0.0
 30
0.0
  3
*Model_Space
  1

  0
ENDBLK
  5
21
330
1F
100
AcDbEntity
  8
0
100
AcDbBlockEnd
  0
BLOCK
  5
24
330
23
100
AcDbEntity
 67
     1
  8
0
100
AcDbBlockBegin
  2
*Paper_Space0
 70
     0
 10
0.0
 20
0.0
 30
0.0
  3
*Paper_Space0
  1

  0
ENDBLK
  5
25
330
23
100
AcDbEntity
  8
0
100
AcDbBlockEnd
  0
ENDSEC
  0
SECTION
  2
ENTITIES
  0
MTEXT
  5
A9
330
1F
100
AcDbEntity
  8
0
  6
Continuous
 62
     3
100
AcDbMText
 10
199.471463349
 20
89.665562428
 30
0.0
 40
4.0
 41
19.2
 71
     7
 72
     1
  1
\W0.800;配線図
  7
KANJI0
 73
     1
 44
1.0
  0
LINE
  5
AC
330
1F
100
AcDbEntity
  8
0
  6
LTYPE1
 62
     2
100
AcDbLine
 10
191.885213349
 20
94.931812428
 30
0.0
 11
191.885213349
 21
53.321812428
 31
0.0
  0
LINE
  5
AD
330
1F
100
AcDbEntity
  8
0
  6
Continuous
 62
     7
100
AcDbLine
 10
272.942648013
 20
82.916506252
 30
0.0
 11
272.942648013
 21
66.116506252
 31
0.0
  0
LINE
  5
AE
330
1F
100
AcDbEntity
  8
0
  6
Continuous
 62
     7
100
AcDbLine
 10
277.142648013
 20
82.916506252
 30
0.0
 11
277.142648013
 21
66.116506252
 31
0.0
  0
LINE
  5
AF
330
1F
100
AcDbEntity
  8
0
  6
Continuous
 62
     7
100
AcDbLine
 10
277.142648013
 20
70.316506252
 30
0.0
 11
272.942648013
 21
70.316506252
 31
0.0
  0
LINE
  5
B0
330
1F
100
AcDbEntity
  8
0
  6
Continuous
 62
     7
100
AcDbLine
 10
277.142648013
 20
82.916506252
 30
0.0
 11
272.942648013
 21
82.916506252
 31
0.0
  0
LINE
  5
B1
330
1F
100
AcDbEntity
  8
0
  6
Continuous
 62
     7
100
AcDbLine
 10
277.142648013
 20
78.716506252
 30
0.0
 11
272.942648013
 21
78.716506252
 31
0.0
  0
LINE
  5
B2
330
1F
100
AcDbEntity
  8
0
  6
Continuous
 62
     7
100
AcDbLine
 10
277.142648013
 20
74.516506252
 30
0.0
 11
272.942648013
 21
74.516506252
 31
0.0
  0
LINE
  5
B3
330
1F
100
AcDbEntity
  8
0
  6
Continuous
 62
     7
100
AcDbLine
 10
277.142648013
 20
66.116506252
 30
0.0
 11
272.942648013
 21
66.116506252
 31
0.0
  0
MTEXT
  5
B4
330
1F
100
AcDbEntity
  8
0
  6
Continuous
 62
     3
100
AcDbMText
 10
273.880265163
 20
75.304006252
 30
0.0
 40
2.625
 41
5.25
 71
     7
 72
     1
  1
\W1.000;２
  7
KANJI1
 73
     1
 44
1.0
  0
MTEXT
  5
B6
330
1F
100
AcDbEntity
  8
0
  6
Continuous
 62
     3
100
AcDbMText
 10
274.105030863
 20
71.104006252
 30
0.0
 40
2.625
 41
16.97426388
 71
     7
 72
     1
  1
\W0.808;３　０Ｖ
  7
KANJI2
 73
     1
 44
1.0
  0
MTEXT
  5
B8
330
1F
100
AcDbEntity
  8
0
  6
Continuous
 62
     3
100
AcDbMText
 10
274.105030863
 20
66.904006252
 30
0.0
 40
2.625
 41
16.97426388
 71
     7
 72
     1
  1
\W0.808;４　信号
  7
KANJI2
 73
     1
 44
1.0
  0
MTEXT
  5
B9
330
1F
100
AcDbEntity
  8
0
  6
Continuous
 62
     3
100
AcDbMText
 10
266.931013591
 20
81.551506252
 30
0.0
 40
2.835
 41
8.4
 71
     7
 72
     1
  1
\W0.741;チャ
  7
KANJI3
 73
     1
 44
1.0
  0
MTEXT
  5
BB
330
1F
100
AcDbEntity
  8
0
  6
Continuous
 62
     3
100
AcDbMText
 10
266.931013591
 20
73.151506252
 30
0.0
 40
2.835
 41
8.4
 71
     7
 72
     1
  1
\W0.741;アオ
  7
KANJI3
 73
     1
 44
1.0
  0
MTEXT
  5
BC
330
1F
100
AcDbEntity
  8
0
  6
Continuous
 62
     3
100
AcDbMText
 10
273.872820878
 20
79.504006252
 30
0.0
 40
2.625
 41
28.36488857
 71
     7
 72
     1
  1
\W0.900;１　＋２４Ｖ
  7
KANJI4
 73
     1
 44
1.0
  0
LINE
  5
BE
330
1F
100
AcDbEntity
  8
3
  6
Continuous
 62
     7
100
AcDbLine
 10
243.522713349
 20
79.497753708
 30
0.0
 11
243.522713349
 21
65.997753708
 31
0.0
  0
ELLIPSE
  5
BF
330
1F
100
AcDbEntity
  8
0
  6
Continuous
 62
     3
100
AcDbEllipse
 10
251.789390495
 20
72.865135325
 30
0.0
 11
0.0
 21
-8.4375
 31
0.0
 40
0.2
 41
5.576571105
 42
3.998298282
  0
MTEXT
  5
C0
330
1F
100
AcDbEntity
  8
3
  6
Continuous
 62
     3
100
AcDbMText
 10
233.174767896
 20
71.341503708
 30
0.0
 40
2.8125
 41
22.733389125
 71
     7
 72
     1
  1
\W0.808;　０Ｖ　　
  7
KANJI5
 73
     1
 44
1.0
  0
MTEXT
  5
C2
330
1F
100
AcDbEntity
  8
3
  6
Continuous
 62
     3
100
AcDbMText
 10
233.174767896
 20
66.841503708
 30
0.0
 40
2.8125
 41
22.733389125
 71
     7
 72
     1
  1
\W0.808;　信号　　
  7
KANJI5
 73
     1
 44
1.0
  0
MTEXT
  5
C3
330
1F
100
AcDbEntity
  8
3
  6
Continuous
 62
     3
100
AcDbMText
 10
233.174767896
 20
75.841503708
 30
0.0
 40
2.8125
 41
22.733389125
 71
     7
 72
     1
  1
\W0.808;＋２４Ｖ　
  7
KANJI5
 73
     1
 44
1.0
  0
LINE
  5
C4
330
1F
100
AcDbEntity
  8
3
  6
Continuous
 62
     7
100
AcDbLine
 10
243.522713349
 20
74.997753708
 30
0.0
 11
231.647713349
 21
74.997753708
 31
0.0
  0
LINE
  5
C5
330
1F
100
AcDbEntity
  8
3
  6
Continuous
 62
     7
100
AcDbLine
 10
243.522713349
 20
70.497753708
 30
0.0
 11
231.647713349
 21
70.497753708
 31
0.0
  0
LINE
  5
C6
330
1F
100
AcDbEntity
  8
3
  6
Continuous
 62
     7
100
AcDbLine
 10
231.647713349
 20
79.497753708
 30
0.0
 11
231.647713349
 21
65.997753708
 31
0.0
  0
LINE
  5
C7
330
1F
100
AcDbEntity
  8
3
  6
Continuous
 62
     7
100
AcDbLine
 10
243.522713349
 20
65.997753708
 30
0.0
 11
214.147713349
 21
65.997753708
 31
0.0
  0
LINE
  5
C8
330
1F
100
AcDbEntity
  8
3
  6
Continuous
 62
     7
100
AcDbLine
 10
214.147713349
 20
79.497753708
 30
0.0
 11
214.147713349
 21
65.997753708
 31
0.0
  0
LINE
  5
C9
330
1F
100
AcDbEntity
  8
3
  6
Continuous
 62
     7
100
AcDbLine
 10
243.522713349
 20
79.497753708
 30
0.0
 11
214.147713349
 21
79.497753708
 31
0.0
  0
MTEXT
  5
CA
330
1F
100
AcDbEntity
  8
3
  6
Continuous
 62
     3
100
AcDbMText
 10
217.151040764
 20
73.170353802
 30
0.0
 40
3.0
 41
24.0
 71
     7
 72
     1
  1
\W0.800;光電センサ
  7
KANJI6
 73
     1
 44
1.0
  0
LINE
  5
CC
330
1F
100
AcDbEntity
  8
3
  6
Continuous
 62
     3
100
AcDbLine
 10
260.114390495
 20
81.158345124
 30
0.0
 11
272.613140495
 21
81.152635325
 31
0.0
  0
LINE
  5
CD
330
1F
100
AcDbEntity
  8
0
  6
Continuous
 62
     3
100
AcDbLine
 10
260.114390495
 20
81.158345124
 30
0.0
 11
260.114390495
 21
77.258345124
 31
0.0
  0
MTEXT
  5
CE
330
1F
100
AcDbEntity
  8
0
  6
Continuous
 62
     3
100
AcDbMText
 10
266.931013591
 20
68.751506252
 30
0.0
 40
2.835
 41
8.4
 71
     7
 72
     1
  1
\W0.741;クロ
  7
KANJI3
 73
     1
 44
1.0
  0
LINE
  5
CF
330
1F
100
AcDbEntity
  8
3
  6
Continuous
 62
     3
100
AcDbLine
 10
243.607890495
 20
77.265885782
 30
0.0
 11
260.114390495
 21
77.258345124
 31
0.0
  0
LINE
  5
D0
330
1F
100
AcDbEntity
  8
3
  6
Continuous
 62
     3
100
AcDbLine
 10
243.507890495
 20
72.765931465
 30
0.0
 11
272.613140495
 21
72.752635325
 31
0.0
  0
LINE
  5
D1
330
1F
100
AcDbEntity
  8
0
  6
Continuous
 62
     3
100
AcDbLine
 10
243.525213349
 20
68.225913225
 30
0.0
 11
272.772713349
 21
68.252562428
 31
0.0
  0
LINE
  5
D2
330
1F
100
AcDbEntity
  8
0
  6
LTYPE1
 62
     2
100
AcDbLine
 10
303.855213349
 20
94.931812428
 30
0.0
 11
191.885213349
 21
94.931812428
 31
0.0
  0
LINE
  5
D3
330
1F
100
AcDbEntity
  8
0
  6
LTYPE1
 62
     2
100
AcDbLine
 10
303.855213349
 20
53.321812428
 30
0.0
 11
303.855213349
 21
94.931812428
 31
0.0
  0
LINE
  5
D4
330
1F
100
AcDbEntity
  8
0
  6
LTYPE1
 62
     2
100
AcDbLine
 10
191.885213349
 20
53.321812428
 30
0.0
 11
303.855213349
 21
53.321812428
 31
0.0
  0
POINT
  5
D5
330
1F
100
AcDbEntity
  8
10
  6
Continuous
 62
     7
100
AcDbPoint
 10
231.419216928
 20
267.71862346
 30
0.0
  0
LINE
  5
D6
330
1F
100
AcDbEntity
  8
0
  6
Continuous
 62
     2
100
AcDbLine
 10
231.171341645
 20
221.332132071
 30
0.0
 11
228.504674978
 21
217.332132071
 31
0.0
  0
LINE
  5
D7
330
1F
100
AcDbEntity
  8
0
  6
Continuous
 62
     2
100
AcDbLine
 10
233.171341645
 20
221.332132071
 30
0.0
 11
230.504674978
 21
217.332132071
 31
0.0
  0
LWPOLYLINE
  5
D9
330
1F
100
AcDbEntity
  8
0
  6
Continuous
 62
     7
100
AcDbPolyline
 90
     3
 70
   128
 43
0.0
 10
229.40186832
 20
219.032132071
 10
209.15186832
 20
219.032132071
 10
205.580800508
 20
219.032132071
  0
LINE
  5
DA
330
1F
100
AcDbEntity
  8
0
  6
Continuous
 62
     7
100
AcDbLine
 10
205.580800508
 20
222.432132071
 30
0.0
 11
185.580800508
 21
222.432132071
 31
0.0
  0
LINE
  5
DC
330
1F
100
AcDbEntity
  8
0
  6
LTYPE2
 62
     3
100
AcDbLine
 10
188.580800508
 20
209.674148984
 30
0.0
 11
188.580800508
 21
224.674148984
 31
0.0
  0
POINT
  5
DD
330
1F
100
AcDbEntity
  8
10
  6
Continuous
 62
     7
100
AcDbPoint
 10
204.830800449
 20
232.432132287
 30
0.0
  0
POINT
  5
DE
330
1F
100
AcDbEntity
  8
10
  6
Continuous
 62
     7
100
AcDbPoint
 10
201.330800378
 20
232.432132287
 30
0.0
  0
POINT
  5
DF
330
1F
100
AcDbEntity
  8
10
  6
Continuous
 62
     7
100
AcDbPoint
 10
207.080800389
 20
236.432132503
 30
0.0
  0
POINT
  5
E0
330
1F
100
AcDbEntity
  8
10
  6
Continuous
 62
     7
100
AcDbPoint
 10
185.080800508
 20
236.432132503
 30
0.0
  0
POINT
  5
E1
330
1F
100
AcDbEntity
  8
10
  6
Continuous
 62
     7
100
AcDbPoint
 10
189.080800449
 20
228.682132287
 30
0.0
  0
POINT
  5
E2
330
1F
100
AcDbEntity
  8
10
  6
Continuous
 62
     7
100
AcDbPoint
 10
189.080800449
 20
232.182132272
 30
0.0
  0
LINE
  5
E3
330
1F
100
AcDbEntity
  8
10
  6
LTYPE2
 62
     3
100
AcDbLine
 10
183.266882438
 20
230.432132287
 30
0.0
 11
183.266882438
 21
230.432132287
 31
0.0
  0
LINE
  5
E4
330
1F
100
AcDbEntity
  8
5
  6
LTYPE2
 62
     3
100
AcDbLine
 10
208.86525816
 20
230.432132287
 30
0.0
 11
183.266882438
 21
230.432132287
 31
0.0
  0
LINE
  5
E5
330
1F
100
AcDbEntity
  8
10
  6
LTYPE2
 62
     3
100
AcDbLine
 10
189.080800449
 20
233.93888611
 30
0.0
 11
189.080800449
 21
233.93888611
 31
0.0
  0
LINE
  5
E6
330
1F
100
AcDbEntity
  8
5
  6
LTYPE2
 62
     3
100
AcDbLine
 10
189.080800449
 20
226.925378464
 30
0.0
 11
189.080800449
 21
233.93888611
 31
0.0
  0
LINE
  5
E7
330
1F
100
AcDbEntity
  8
5
  6
LTYPE2
 62
     3
100
AcDbLine
 10
196.080800449
 20
226.722088387
 30
0.0
 11
196.080800449
 21
234.142176187
 31
0.0
  0
LWPOLYLINE
  5
E9
330
1F
100
AcDbEntity
  8
10
  6
LTYPE2
 62
     3
100
AcDbPolyline
 90
     2
 70
   129
 43
0.0
 10
196.080800449
 20
234.142176187
 10
196.080800449
 20
234.142176187
  0
LINE
  5
EA
330
1F
100
AcDbEntity
  8
5
  6
LTYPE2
 62
     3
100
AcDbLine
 10
203.080800449
 20
225.197412812
 30
0.0
 11
203.080800449
 21
235.666851762
 31
0.0
  0
LWPOLYLINE
  5
EC
330
1F
100
AcDbEntity
  8
10
  6
LTYPE2
 62
     3
100
AcDbPolyline
 90
     2
 70
   129
 43
0.0
 10
203.080800449
 20
235.666851762
 10
203.080800449
 20
235.666851762
  0
LINE
  5
ED
330
1F
100
AcDbEntity
  8
5
  6
LTYPE2
 62
     3
100
AcDbLine
 10
199.924123223
 20
228.432132287
 30
0.0
 11
206.237477675
 21
228.432132287
 31
0.0
  0
LINE
  5
EE
330
1F
100
AcDbEntity
  8
10
  6
LTYPE2
 62
     3
100
AcDbLine
 10
206.237477675
 20
228.432132287
 30
0.0
 11
206.237477675
 21
228.432132287
 31
0.0
  0
LINE
  5
EF
330
1F
100
AcDbEntity
  8
10
  6
LTYPE2
 62
     3
100
AcDbLine
 10
206.30911954
 20
232.432132287
 30
0.0
 11
206.30911954
 21
232.432132287
 31
0.0
  0
LINE
  5
F0
330
1F
100
AcDbEntity
  8
5
  6
LTYPE2
 62
     3
100
AcDbLine
 10
199.859825263
 20
232.432132287
 30
0.0
 11
206.30911954
 21
232.432132287
 31
0.0
  0
LINE
  5
F1
330
1F
100
AcDbEntity
  8
2
  6
Continuous
 62
     1
100
AcDbLine
 10
197.380800452
 20
225.632132223
 30
0.0
 11
194.780800445
 21
225.632132223
 31
0.0
  0
LINE
  5
F2
330
1F
100
AcDbEntity
  8
2
  6
Continuous
 62
     1
100
AcDbLine
 10
185.080800508
 20
222.432132071
 30
0.0
 11
207.080800389
 21
222.432132071
 31
0.0
  0
LINE
  5
F3
330
1F
100
AcDbEntity
  8
2
  6
Continuous
 62
     1
100
AcDbLine
 10
207.080800389
 20
223.632132361
 30
0.0
 11
185.080800508
 21
223.632132361
 31
0.0
  0
LINE
  5
F4
330
1F
100
AcDbEntity
  8
2
  6
Continuous
 62
     1
100
AcDbLine
 10
197.380800452
 20
225.632132223
 30
0.0
 11
197.380800452
 21
223.632132361
 31
0.0
  0
LINE
  5
F5
330
1F
100
AcDbEntity
  8
2
  6
Continuous
 62
     1
100
AcDbLine
 10
185.080800508
 20
236.432132503
 30
0.0
 11
185.080800508
 21
222.432132071
 31
0.0
  0
LINE
  5
F6
330
1F
100
AcDbEntity
  8
2
  6
Continuous
 62
     1
100
AcDbLine
 10
194.780800445
 20
225.632132223
 30
0.0
 11
194.780800445
 21
223.632132361
 31
0.0
  0
POINT
  5
F7
330
1F
100
AcDbEntity
  8
10
  6
Continuous
 62
     1
100
AcDbPoint
 10
185.080800508
 20
222.432132071
 30
0.0
  0
POINT
  5
F8
330
1F
100
AcDbEntity
  8
10
  6
Continuous
 62
     1
100
AcDbPoint
 10
185.080800508
 20
222.432132071
 30
0.0
  0
LINE
  5
F9
330
1F
100
AcDbEntity
  8
2
  6
Continuous
 62
     1
100
AcDbLine
 10
207.080800389
 20
236.432132503
 30
0.0
 11
185.080800508
 21
236.432132503
 31
0.0
  0
LINE
  5
FA
330
1F
100
AcDbEntity
  8
2
  6
Continuous
 62
     1
100
AcDbLine
 10
196.080800449
 20
232.182132272
 30
0.0
 11
189.080800233
 21
232.182132272
 31
0.0
  0
ARC
  5
FB
330
1F
100
AcDbEntity
  8
2
  6
Continuous
 62
     1
100
AcDbCircle
 10
196.080800449
 20
230.432132287
 30
0.0
 40
1.75
100
AcDbArc
 50
270.0
 51
90.0
  0
LINE
  5
FC
330
1F
100
AcDbEntity
  8
2
  6
Continuous
 62
     1
100
AcDbLine
 10
189.080800233
 20
228.68213228
 30
0.0
 11
196.080800449
 21
228.68213228
 31
0.0
  0
ARC
  5
FD
330
1F
100
AcDbEntity
  8
2
  6
Continuous
 62
     1
100
AcDbCircle
 10
189.080800449
 20
230.432132287
 30
0.0
 40
1.75
100
AcDbArc
 50
90.0
 51
270.0
  0
LINE
  5
FE
330
1F
100
AcDbEntity
  8
2
  6
Continuous
 62
     1
100
AcDbLine
 10
207.080800389
 20
222.432132071
 30
0.0
 11
207.080800389
 21
236.432132503
 31
0.0
  0
LWPOLYLINE
  5
100
330
1F
100
AcDbEntity
  8
2
  6
Continuous
 62
     1
100
AcDbPolyline
 90
     3
 70
   128
 43
0.0
 10
204.830800449
 20
232.432132287
 42
1.0
 10
201.330800449
 20
232.432132287
 42
0.0
 10
201.330800378
 20
228.43213224
 42
0.0
  0
LINE
  5
101
330
1F
100
AcDbEntity
  8
2
  6
Continuous
 62
     1
100
AcDbLine
 10
204.830800486
 20
228.43213224
 30
0.0
 11
204.830800486
 21
232.432132313
 31
0.0
  0
ARC
  5
102
330
1F
100
AcDbEntity
  8
2
  6
Continuous
 62
     1
100
AcDbCircle
 10
203.080800449
 20
228.432132287
 30
0.0
 40
1.75
100
AcDbArc
 50
180.0
 51
0.0
  0
ARC
  5
104
330
1F
100
AcDbEntity
  8
7
  6
LTYPE3
 62
     3
100
AcDbCircle
 10
186.78080039
 20
225.804246581
 30
0.0
 40
1.0
100
AcDbArc
 50
116.74368395
 51
180.0
  0
LINE
  5
105
330
1F
100
AcDbEntity
  8
7
  6
LTYPE3
 62
     3
100
AcDbLine
 10
188.58080039
 20
227.232132361
 30
0.0
 11
190.38080039
 21
226.156957114
 31
0.0
  0
LINE
  5
106
330
1F
100
AcDbEntity
  8
7
  6
LTYPE3
 62
     3
100
AcDbLine
 10
188.58080039
 20
227.232132361
 30
0.0
 11
186.78080039
 21
226.156957114
 31
0.0
  0
LINE
  5
107
330
1F
100
AcDbEntity
  8
7
  6
LTYPE3
 62
     3
100
AcDbLine
 10
185.78080039
 20
225.804246581
 30
0.0
 11
185.78080039
 21
224.832132361
 31
0.0
  0
ARC
  5
108
330
1F
100
AcDbEntity
  8
7
  6
LTYPE3
 62
     3
100
AcDbCircle
 10
188.58080039
 20
222.232132361
 30
0.0
 40
5.0
100
AcDbArc
 50
63.25631605
 51
116.74368395
  0
LINE
  5
109
330
1F
100
AcDbEntity
  8
7
  6
LTYPE3
 62
     3
100
AcDbLine
 10
191.38080039
 20
225.804246581
 30
0.0
 11
191.38080039
 21
224.832132361
 31
0.0
  0
ARC
  5
10A
330
1F
100
AcDbEntity
  8
7
  6
LTYPE3
 62
     3
100
AcDbCircle
 10
190.38080039
 20
225.804246581
 30
0.0
 40
1.0
100
AcDbArc
 50
0.0
 51
63.25631605
  0
LINE
  5
10B
330
1F
100
AcDbEntity
  8
7
  6
LTYPE3
 62
     3
100
AcDbLine
 10
188.782872984
 20
224.132132361
 30
0.0
 11
188.378727796
 21
224.832132361
 31
0.0
  0
LINE
  5
10C
330
1F
100
AcDbEntity
  8
7
  6
LTYPE3
 62
     3
100
AcDbLine
 10
185.63080039
 20
224.132132361
 30
0.0
 11
185.63080039
 21
224.832132361
 31
0.0
  0
LWPOLYLINE
  5
10E
330
1F
100
AcDbEntity
  8
7
  6
LTYPE3
 62
     3
100
AcDbPolyline
 90
     3
 70
   128
 43
0.0
 10
185.58080039
 20
223.632132361
 10
185.58080039
 20
224.132132361
 10
191.58080039
 20
224.132132361
  0
LWPOLYLINE
  5
110
330
1F
100
AcDbEntity
  8
7
  6
LTYPE3
 62
     3
100
AcDbPolyline
 90
     3
 70
   128
 43
0.0
 10
185.63080039
 20
224.832132361
 10
191.53080039
 20
224.832132361
 10
191.53080039
 20
224.132132361
  0
LINE
  5
111
330
1F
100
AcDbEntity
  8
7
  6
LTYPE3
 62
     3
100
AcDbLine
 10
191.58080039
 20
224.132132361
 30
0.0
 11
191.58080039
 21
223.632132361
 31
0.0
  0
LINE
  5
112
330
1F
100
AcDbEntity
  8
0
  6
Continuous
 62
     7
100
AcDbLine
 10
205.580800508
 20
215.032132071
 30
0.0
 11
231.408376997
 21
215.032132071
 31
0.0
  0
LWPOLYLINE
  5
114
330
1F
100
AcDbEntity
  8
0
  6
Continuous
 62
     2
100
AcDbPolyline
 90
     3
 70
   128
 43
0.0
 10
228.504674978
 20
217.332132071
 10
231.787120738
 20
214.732132071
 10
229.120454072
 20
210.732132071
  0
LWPOLYLINE
  5
116
330
1F
100
AcDbEntity
  8
0
  6
Continuous
 62
     2
100
AcDbPolyline
 90
     3
 70
   128
 43
0.0
 10
230.504674978
 20
217.332132071
 10
233.787120738
 20
214.732132071
 10
231.120454072
 20
210.732132071
  0
LINE
  5
117
330
1F
100
AcDbEntity
  8
0
  6
Continuous
 62
     3
100
AcDbLine
 10
201.330800378
 20
233.432132287
 30
0.0
 11
201.330800378
 21
242.432132287
 31
0.0
  0
LINE
  5
118
330
1F
100
AcDbEntity
  8
0
  6
Continuous
 62
     3
100
AcDbLine
 10
201.330800378
 20
240.432132287
 30
0.0
 11
198.915985812
 21
241.0791799
 31
0.0
  0
LINE
  5
119
330
1F
100
AcDbEntity
  8
0
  6
Continuous
 62
     3
100
AcDbLine
 10
201.330800378
 20
240.432132287
 30
0.0
 11
198.915985812
 21
239.785084674
 31
0.0
  0
LWPOLYLINE
  5
11B
330
1F
100
AcDbEntity
  8
0
  6
Continuous
 62
     3
100
AcDbPolyline
 90
     4
 70
   128
 43
0.0
 10
197.580800378
 20
240.432132287
 10
201.330800378
 20
240.432132287
 10
204.830800449
 20
240.432132287
 10
214.580800449
 20
240.432132287
  0
LINE
  5
11C
330
1F
100
AcDbEntity
  8
0
  6
Continuous
 62
     3
100
AcDbLine
 10
204.830800449
 20
240.432132287
 30
0.0
 11
207.245615015
 21
239.785084674
 31
0.0
  0
LINE
  5
11D
330
1F
100
AcDbEntity
  8
0
  6
Continuous
 62
     3
100
AcDbLine
 10
204.830800449
 20
240.432132287
 30
0.0
 11
207.245615015
 21
241.0791799
 31
0.0
  0
LINE
  5
11E
330
1F
100
AcDbEntity
  8
0
  6
Continuous
 62
     3
100
AcDbLine
 10
204.830800449
 20
233.432132287
 30
0.0
 11
204.830800449
 21
242.432132287
 31
0.0
  0
MTEXT
  5
11F
330
1F
100
AcDbEntity
  8
0
  6
Continuous
 62
     3
100
AcDbMText
 10
208.580800449
 20
241.432132287
 30
0.0
 40
3.0
 41
12.0
 71
     7
 72
     1
  1
\T1.167;\W0.600;３．５
  7
KANJI7
 73
     1
 44
1.0
  0
LINE
  5
121
330
1F
100
AcDbEntity
  8
0
  6
Continuous
 62
     3
100
AcDbLine
 10
196.080800449
 20
235.142176187
 30
0.0
 11
196.080800449
 21
248.33888611
 31
0.0
  0
LINE
  5
122
330
1F
100
AcDbEntity
  8
0
  6
Continuous
 62
     3
100
AcDbLine
 10
196.080800449
 20
246.33888611
 30
0.0
 11
193.665985883
 21
246.985933723
 31
0.0
  0
LINE
  5
123
330
1F
100
AcDbEntity
  8
0
  6
Continuous
 62
     3
100
AcDbLine
 10
196.080800449
 20
246.33888611
 30
0.0
 11
193.665985883
 21
245.691838497
 31
0.0
  0
LWPOLYLINE
  5
125
330
1F
100
AcDbEntity
  8
0
  6
Continuous
 62
     3
100
AcDbPolyline
 90
     3
 70
   128
 43
0.0
 10
196.080800449
 20
246.33888611
 10
189.080800449
 20
246.33888611
 10
191.495615015
 20
245.691838497
  0
LINE
  5
126
330
1F
100
AcDbEntity
  8
0
  6
Continuous
 62
     3
100
AcDbLine
 10
189.080800449
 20
246.33888611
 30
0.0
 11
191.495615015
 21
246.985933723
 31
0.0
  0
LINE
  5
127
330
1F
100
AcDbEntity
  8
0
  6
Continuous
 62
     3
100
AcDbLine
 10
189.080800449
 20
234.93888611
 30
0.0
 11
189.080800449
 21
248.33888611
 31
0.0
  0
MTEXT
  5
128
330
1F
100
AcDbEntity
  8
0
  6
Continuous
 62
     3
100
AcDbMText
 10
191.680800449
 20
247.33888611
 30
0.0
 40
3.0
 41
3.6
 71
     7
 72
     1
  1
\T1.167;\W0.600;７
  7
KANJI7
 73
     1
 44
1.0
  0
LINE
  5
129
330
1F
100
AcDbEntity
  8
0
  6
Continuous
 62
     3
100
AcDbLine
 10
196.080800449
 20
235.142176187
 30
0.0
 11
196.080800449
 21
248.366851762
 31
0.0
  0
LINE
  5
12A
330
1F
100
AcDbEntity
  8
0
  6
Continuous
 62
     3
100
AcDbLine
 10
196.080800449
 20
246.366851762
 30
0.0
 11
198.495615015
 21
245.719804149
 31
0.0
  0
LINE
  5
12B
330
1F
100
AcDbEntity
  8
0
  6
Continuous
 62
     3
100
AcDbLine
 10
196.080800449
 20
246.366851762
 30
0.0
 11
198.495615015
 21
247.013899375
 31
0.0
  0
LWPOLYLINE
  5
12D
330
1F
100
AcDbEntity
  8
0
  6
Continuous
 62
     3
100
AcDbPolyline
 90
     3
 70
   128
 43
0.0
 10
196.080800449
 20
246.366851762
 10
203.080800449
 20
246.366851762
 10
200.665985883
 20
247.013899375
  0
LINE
  5
12E
330
1F
100
AcDbEntity
  8
0
  6
Continuous
 62
     3
100
AcDbLine
 10
203.080800449
 20
246.366851762
 30
0.0
 11
200.665985883
 21
245.719804149
 31
0.0
  0
LINE
  5
12F
330
1F
100
AcDbEntity
  8
0
  6
Continuous
 62
     3
100
AcDbLine
 10
203.080800449
 20
236.666851762
 30
0.0
 11
203.080800449
 21
248.366851762
 31
0.0
  0
MTEXT
  5
130
330
1F
100
AcDbEntity
  8
0
  6
Continuous
 62
     3
100
AcDbMText
 10
198.680800449
 20
247.366851762
 30
0.0
 40
3.0
 41
3.6
 71
     7
 72
     1
  1
\T1.167;\W0.600;７
  7
KANJI7
 73
     1
 44
1.0
  0
LINE
  5
131
330
1F
100
AcDbEntity
  8
0
  6
Continuous
 62
     3
100
AcDbLine
 10
189.080800449
 20
234.93888611
 30
0.0
 11
189.080800449
 21
248.33888611
 31
0.0
  0
LINE
  5
132
330
1F
100
AcDbEntity
  8
0
  6
Continuous
 62
     3
100
AcDbLine
 10
189.080800449
 20
246.33888611
 30
0.0
 11
191.495615015
 21
245.691838497
 31
0.0
  0
LINE
  5
133
330
1F
100
AcDbEntity
  8
0
  6
Continuous
 62
     3
100
AcDbLine
 10
189.080800449
 20
246.33888611
 30
0.0
 11
191.495615015
 21
246.985933723
 31
0.0
  0
LWPOLYLINE
  5
135
330
1F
100
AcDbEntity
  8
0
  6
Continuous
 62
     3
100
AcDbPolyline
 90
     4
 70
   128
 43
0.0
 10
192.830800449
 20
246.33888611
 10
189.080800449
 20
246.33888611
 10
185.080800508
 20
246.33888611
 10
179.530800508
 20
246.33888611
  0
LINE
  5
136
330
1F
100
AcDbEntity
  8
0
  6
Continuous
 62
     3
100
AcDbLine
 10
185.080800508
 20
246.33888611
 30
0.0
 11
182.665985943
 21
246.985933723
 31
0.0
  0
LINE
  5
137
330
1F
100
AcDbEntity
  8
0
  6
Continuous
 62
     3
100
AcDbLine
 10
185.080800508
 20
246.33888611
 30
0.0
 11
182.665985943
 21
245.691838497
 31
0.0
  0
LINE
  5
138
330
1F
100
AcDbEntity
  8
0
  6
Continuous
 62
     3
100
AcDbLine
 10
185.080800508
 20
237.432132503
 30
0.0
 11
185.080800508
 21
248.33888611
 31
0.0
  0
MTEXT
  5
139
330
1F
100
AcDbEntity
  8
0
  6
Continuous
 62
     3
100
AcDbMText
 10
179.530800508
 20
247.33888611
 30
0.0
 40
3.0
 41
3.6
 71
     7
 72
     1
  1
\T1.167;\W0.600;４
  7
KANJI7
 73
     1
 44
1.0
  0
LINE
  5
13A
330
1F
100
AcDbEntity
  8
0
  6
Continuous
 62
     3
100
AcDbLine
 10
185.080800508
 20
237.432132503
 30
0.0
 11
185.080800508
 21
254.732132503
 31
0.0
  0
LINE
  5
13B
330
1F
100
AcDbEntity
  8
0
  6
Continuous
 62
     3
100
AcDbLine
 10
207.080800389
 20
237.432132503
 30
0.0
 11
207.080800389
 21
254.732132503
 31
0.0
  0
LINE
  5
13C
330
1F
100
AcDbEntity
  8
0
  6
Continuous
 62
     3
100
AcDbLine
 10
207.30911954
 20
232.432132287
 30
0.0
 11
216.037477675
 21
232.432132287
 31
0.0
  0
LINE
  5
13D
330
1F
100
AcDbEntity
  8
0
  6
Continuous
 62
     3
100
AcDbLine
 10
214.037477675
 20
232.432132287
 30
0.0
 11
214.684525288
 21
234.846946853
 31
0.0
  0
LINE
  5
13E
330
1F
100
AcDbEntity
  8
0
  6
Continuous
 62
     3
100
AcDbLine
 10
214.037477675
 20
232.432132287
 30
0.0
 11
213.390430062
 21
234.846946853
 31
0.0
  0
LWPOLYLINE
  5
140
330
1F
100
AcDbEntity
  8
0
  6
Continuous
 62
     3
100
AcDbPolyline
 90
     4
 70
   128
 43
0.0
 10
214.037477675
 20
237.982132287
 10
214.037477675
 20
232.432132287
 10
214.037477675
 20
228.432132287
 10
214.037477675
 20
224.682132287
  0
LINE
  5
141
330
1F
100
AcDbEntity
  8
0
  6
Continuous
 62
     3
100
AcDbLine
 10
214.037477675
 20
228.432132287
 30
0.0
 11
213.390430062
 21
226.017317721
 31
0.0
  0
LINE
  5
142
330
1F
100
AcDbEntity
  8
0
  6
Continuous
 62
     3
100
AcDbLine
 10
214.037477675
 20
228.432132287
 30
0.0
 11
214.684525288
 21
226.017317721
 31
0.0
  0
LINE
  5
143
330
1F
100
AcDbEntity
  8
0
  6
Continuous
 62
     3
100
AcDbLine
 10
207.237477675
 20
228.432132287
 30
0.0
 11
216.037477675
 21
228.432132287
 31
0.0
  0
MTEXT
  5
144
330
1F
100
AcDbEntity
  8
0
  6
Continuous
 62
     3
100
AcDbMText
 10
213.037477675
 20
236.182132287
 30
0.0
 40
3.0
 41
3.6
 71
     7
 72
     1
  1
\T1.167;\W0.600;４
  7
KANJI7
 11
0.0
 21
1.0
 31
0.0
 73
     1
 44
1.0
  0
LINE
  5
145
330
1F
100
AcDbEntity
  8
0
  6
Continuous
 62
     3
100
AcDbLine
 10
182.266882438
 20
230.432132287
 30
0.0
 11
178.280800508
 21
230.432132287
 31
0.0
  0
LINE
  5
146
330
1F
100
AcDbEntity
  8
0
  6
Continuous
 62
     3
100
AcDbLine
 10
180.280800508
 20
230.432132287
 30
0.0
 11
179.633752896
 21
228.017317721
 31
0.0
  0
LINE
  5
147
330
1F
100
AcDbEntity
  8
0
  6
Continuous
 62
     3
100
AcDbLine
 10
180.280800508
 20
230.432132287
 30
0.0
 11
180.927848121
 21
228.017317721
 31
0.0
  0
LWPOLYLINE
  5
149
330
1F
100
AcDbEntity
  8
0
  6
Continuous
 62
     3
100
AcDbPolyline
 90
     3
 70
   128
 43
0.0
 10
180.280800508
 20
230.432132287
 10
180.280800508
 20
217.032132071
 10
180.927848121
 20
219.446946637
  0
LINE
  5
14A
330
1F
100
AcDbEntity
  8
0
  6
Continuous
 62
     3
100
AcDbLine
 10
180.280800508
 20
217.032132071
 30
0.0
 11
179.633752896
 21
219.446946637
 31
0.0
  0
LINE
  5
14B
330
1F
100
AcDbEntity
  8
0
  6
Continuous
 62
     3
100
AcDbLine
 10
182.380800508
 20
217.032132071
 30
0.0
 11
178.280800508
 21
217.032132071
 31
0.0
  0
MTEXT
  5
14C
330
1F
100
AcDbEntity
  8
0
  6
Continuous
 62
     3
100
AcDbMText
 10
179.280800508
 20
219.682132179
 30
0.0
 40
3.0
 41
16.2
 71
     7
 72
     1
  1
\T1.167;\W0.600;１３．４
  7
KANJI7
 11
0.0
 21
1.0
 31
0.0
 73
     1
 44
1.0
  0
LINE
  5
14D
330
1F
100
AcDbEntity
  8
0
  6
Continuous
 62
     3
100
AcDbLine
 10
184.080800508
 20
236.432132503
 30
0.0
 11
170.580800508
 21
236.432132503
 31
0.0
  0
LINE
  5
14E
330
1F
100
AcDbEntity
  8
0
  6
Continuous
 62
     3
100
AcDbLine
 10
172.580800508
 20
236.432132503
 30
0.0
 11
171.933752896
 21
234.017317937
 31
0.0
  0
LINE
  5
14F
330
1F
100
AcDbEntity
  8
0
  6
Continuous
 62
     3
100
AcDbLine
 10
172.580800508
 20
236.432132503
 30
0.0
 11
173.227848121
 21
234.017317937
 31
0.0
  0
LWPOLYLINE
  5
151
330
1F
100
AcDbEntity
  8
0
  6
Continuous
 62
     3
100
AcDbPolyline
 90
     3
 70
   128
 43
0.0
 10
172.580800508
 20
236.432132503
 10
172.580800508
 20
217.032132071
 10
173.227848121
 20
219.446946637
  0
LINE
  5
152
330
1F
100
AcDbEntity
  8
0
  6
Continuous
 62
     3
100
AcDbLine
 10
172.580800508
 20
217.032132071
 30
0.0
 11
171.933752896
 21
219.446946637
 31
0.0
  0
LINE
  5
153
330
1F
100
AcDbEntity
  8
0
  6
Continuous
 62
     3
100
AcDbLine
 10
182.380800508
 20
217.032132071
 30
0.0
 11
170.580800508
 21
217.032132071
 31
0.0
  0
MTEXT
  5
154
330
1F
100
AcDbEntity
  8
0
  6
Continuous
 62
     3
100
AcDbMText
 10
171.580800508
 20
222.682132287
 30
0.0
 40
3.0
 41
16.2
 71
     7
 72
     1
  1
\T1.167;\W0.600;１９．４
  7
KANJI7
 11
0.0
 21
1.0
 31
0.0
 73
     1
 44
1.0
  0
LINE
  5
155
330
1F
100
AcDbEntity
  8
0
  6
Continuous
 62
     3
100
AcDbLine
 10
182.380800508
 20
217.032132071
 30
0.0
 11
170.580800508
 21
217.032132071
 31
0.0
  0
LINE
  5
156
330
1F
100
AcDbEntity
  8
0
  6
Continuous
 62
     3
100
AcDbLine
 10
172.580800508
 20
217.032132071
 30
0.0
 11
173.227848121
 21
219.446946637
 31
0.0
  0
LINE
  5
157
330
1F
100
AcDbEntity
  8
0
  6
Continuous
 62
     3
100
AcDbLine
 10
172.580800508
 20
217.032132071
 30
0.0
 11
171.933752896
 21
219.446946637
 31
0.0
  0
LWPOLYLINE
  5
159
330
1F
100
AcDbEntity
  8
0
  6
Continuous
 62
     3
100
AcDbPolyline
 90
     4
 70
   128
 43
0.0
 10
172.580800508
 20
220.782132071
 10
172.580800508
 20
217.032132071
 10
172.580800508
 20
211.632132071
 10
172.580800508
 20
201.882132071
  0
LINE
  5
15A
330
1F
100
AcDbEntity
  8
0
  6
Continuous
 62
     3
100
AcDbLine
 10
172.580800508
 20
211.632132071
 30
0.0
 11
171.933752896
 21
209.217317505
 31
0.0
  0
LINE
  5
15B
330
1F
100
AcDbEntity
  8
0
  6
Continuous
 62
     3
100
AcDbLine
 10
172.580800508
 20
211.632132071
 30
0.0
 11
173.227848121
 21
209.217317505
 31
0.0
  0
LINE
  5
15C
330
1F
100
AcDbEntity
  8
0
  6
Continuous
 62
     3
100
AcDbLine
 10
184.580800508
 20
211.632132071
 30
0.0
 11
170.580800508
 21
211.632132071
 31
0.0
  0
MTEXT
  5
15D
330
1F
100
AcDbEntity
  8
0
  6
Continuous
 62
     3
100
AcDbMText
 10
171.580800508
 20
201.882132071
 30
0.0
 40
3.0
 41
12.0
 71
     7
 72
     1
  1
\T1.167;\W0.600;５．４
  7
KANJI7
 11
0.0
 21
1.0
 31
0.0
 73
     1
 44
1.0
  0
LINE
  5
15E
330
1F
100
AcDbEntity
  8
0
  6
Continuous
 62
     3
100
AcDbLine
 10
185.080800508
 20
252.732132503
 30
0.0
 11
187.495615074
 21
252.08508489
 31
0.0
  0
LINE
  5
15F
330
1F
100
AcDbEntity
  8
0
  6
Continuous
 62
     3
100
AcDbLine
 10
185.080800508
 20
252.732132503
 30
0.0
 11
187.495615074
 21
253.379180116
 31
0.0
  0
LWPOLYLINE
  5
161
330
1F
100
AcDbEntity
  8
0
  6
Continuous
 62
     3
100
AcDbPolyline
 90
     3
 70
   128
 43
0.0
 10
185.080800508
 20
252.732132503
 10
207.080800389
 20
252.732132503
 10
204.665985824
 20
253.379180116
  0
LINE
  5
162
330
1F
100
AcDbEntity
  8
0
  6
Continuous
 62
     3
100
AcDbLine
 10
207.080800389
 20
252.732132503
 30
0.0
 11
204.665985824
 21
252.08508489
 31
0.0
  0
MTEXT
  5
163
330
1F
100
AcDbEntity
  8
0
  6
Continuous
 62
     3
100
AcDbMText
 10
194.130800449
 20
253.732132503
 30
0.0
 40
3.0
 41
7.8
 71
     7
 72
     1
  1
\T1.167;\W0.600;２２
  7
KANJI7
 73
     1
 44
1.0
  0
LINE
  5
164
330
1F
100
AcDbEntity
  8
2
  6
Continuous
 62
     7
100
AcDbLine
 10
186.080800508
 20
222.232142674
 30
0.0
 11
205.080800108
 21
222.232142674
 31
0.0
  0
LINE
  5
165
330
1F
100
AcDbEntity
  8
2
  6
Continuous
 62
     7
100
AcDbLine
 10
185.580800508
 20
212.832133674
 30
0.0
 11
185.580800508
 21
212.332133674
 31
0.0
  0
LINE
  5
166
330
1F
100
AcDbEntity
  8
2
  6
Continuous
 62
     7
100
AcDbLine
 10
205.580800108
 20
221.732142674
 30
0.0
 11
205.580800108
 21
212.332133674
 31
0.0
  0
LINE
  5
167
330
1F
100
AcDbEntity
  8
2
  6
Continuous
 62
     7
100
AcDbLine
 10
205.580800108
 20
215.032130674
 30
0.0
 11
214.143483108
 21
215.032130674
 31
0.0
  0
ARC
  5
168
330
1F
100
AcDbEntity
  8
2
  6
Continuous
 62
     7
100
AcDbCircle
 10
205.080800108
 20
212.332133674
 30
0.0
 40
0.5
100
AcDbArc
 50
270.0
 51
0.0
  0
LINE
  5
169
330
1F
100
AcDbEntity
  8
2
  6
Continuous
 62
     7
100
AcDbLine
 10
214.143483108
 20
219.032130674
 30
0.0
 11
205.580800108
 21
219.032130674
 31
0.0
  0
ARC
  5
16A
330
1F
100
AcDbEntity
  8
2
  6
Continuous
 62
     7
100
AcDbCircle
 10
205.080800108
 20
221.732142674
 30
0.0
 40
0.5
100
AcDbArc
 50
0.0
 51
90.000003
  0
LINE
  5
16B
330
1F
100
AcDbEntity
  8
2
  6
Continuous
 62
     7
100
AcDbLine
 10
186.580800512
 20
222.432132071
 30
0.0
 11
190.580800512
 21
222.432132071
 31
0.0
  0
ARC
  5
16C
330
1F
100
AcDbEntity
  8
2
  6
Continuous
 62
     7
100
AcDbCircle
 10
186.580800512
 20
222.232135123
 30
0.0
 40
0.200000003
100
AcDbArc
 50
90.000002504
 51
180.000005009
  0
ARC
  5
16D
330
1F
100
AcDbEntity
  8
2
  6
Continuous
 62
     7
100
AcDbCircle
 10
190.580800512
 20
222.232135123
 30
0.0
 40
0.200000003
100
AcDbArc
 50
0.0
 51
90.000002504
  0
LINE
  5
16E
330
1F
100
AcDbEntity
  8
5
  6
LTYPE2
 62
     3
100
AcDbLine
 10
188.580800508
 20
209.343463778
 30
0.0
 11
188.580800508
 21
223.943463778
 31
0.0
  0
POINT
  5
16F
330
1F
100
AcDbEntity
  8
10
  6
Continuous
 62
     7
100
AcDbPoint
 10
188.556675441
 20
191.191486558
 30
0.0
  0
POINT
  5
170
330
1F
100
AcDbEntity
  8
10
  6
Continuous
 62
     7
100
AcDbPoint
 10
188.556675441
 20
160.191486458
 30
0.0
  0
POINT
  5
171
330
1F
100
AcDbEntity
  8
10
  6
Continuous
 62
     7
100
AcDbPoint
 10
188.556675441
 20
191.191486558
 30
0.0
  0
LINE
  5
172
330
1F
100
AcDbEntity
  8
2
  6
Continuous
 62
     7
100
AcDbLine
 10
194.174073741
 20
160.829357458
 30
0.0
 11
193.751344641
 21
160.406658458
 31
0.0
  0
LINE
  5
173
330
1F
100
AcDbEntity
  8
2
  6
Continuous
 62
     7
100
AcDbLine
 10
191.556690241
 20
160.191488458
 30
0.0
 11
198.675491441
 21
160.564565458
 31
0.0
  0
LINE
  5
174
330
1F
100
AcDbEntity
  8
2
  6
Continuous
 62
     7
100
AcDbLine
 10
205.056669441
 20
172.914008458
 30
0.0
 11
192.905500941
 21
160.762870458
 31
0.0
  0
LINE
  5
175
330
1F
100
AcDbEntity
  8
2
  6
Continuous
 62
     7
100
AcDbLine
 10
193.577086441
 20
160.798046458
 30
0.0
 11
205.056675441
 21
172.277633458
 31
0.0
  0
LINE
  5
176
330
1F
100
AcDbEntity
  8
2
  6
Continuous
 62
     7
100
AcDbLine
 10
192.308537941
 20
160.731577458
 30
0.0
 11
205.056679441
 21
173.479718458
 31
0.0
  0
LINE
  5
177
330
1F
100
AcDbEntity
  8
2
  6
Continuous
 62
     7
100
AcDbLine
 10
185.556675441
 20
163.191486458
 30
0.0
 11
185.556675441
 21
188.191486508
 31
0.0
  0
LINE
  5
178
330
1F
100
AcDbEntity
  8
2
  6
Continuous
 62
     7
100
AcDbLine
 10
191.556675441
 20
160.191486458
 30
0.0
 11
188.556675441
 21
160.191486458
 31
0.0
  0
ARC
  5
179
330
1F
100
AcDbEntity
  8
2
  6
Continuous
 62
     7
100
AcDbCircle
 10
188.556675441
 20
163.191486458
 30
0.0
 40
3.0
100
AcDbArc
 50
180.00001
 51
270.0
  0
LINE
  5
17A
330
1F
100
AcDbEntity
  8
2
  6
Continuous
 62
     7
100
AcDbLine
 10
192.905498941
 20
160.762870458
 30
0.0
 11
192.482784541
 21
160.340156458
 31
0.0
  0
LINE
  5
17B
330
1F
100
AcDbEntity
  8
2
  6
Continuous
 62
     7
100
AcDbLine
 10
192.482783041
 20
160.340168458
 30
0.0
 11
191.885824641
 21
160.308870458
 31
0.0
  0
LINE
  5
17C
330
1F
100
AcDbEntity
  8
2
  6
Continuous
 62
     7
100
AcDbLine
 10
191.885844941
 20
160.308883458
 30
0.0
 11
192.308537941
 21
160.731577458
 31
0.0
  0
LINE
  5
17D
330
1F
100
AcDbEntity
  8
2
  6
Continuous
 62
     7
100
AcDbLine
 10
193.154393641
 20
160.375353458
 30
0.0
 11
193.577086441
 21
160.798046458
 31
0.0
  0
LINE
  5
17E
330
1F
100
AcDbEntity
  8
2
  6
Continuous
 62
     7
100
AcDbLine
 10
193.751336141
 20
160.406656458
 30
0.0
 11
193.154377441
 21
160.375360458
 31
0.0
  0
ARC
  5
17F
330
1F
100
AcDbEntity
  8
2
  6
Continuous
 62
     7
100
AcDbCircle
 10
188.556675441
 20
188.191486508
 30
0.0
 40
3.0
100
AcDbArc
 50
90.000003
 51
180.00001
  0
LINE
  5
180
330
1F
100
AcDbEntity
  8
2
  6
Continuous
 62
     7
100
AcDbLine
 10
204.561167441
 20
164.767551458
 30
0.0
 11
201.050075441
 21
161.256473458
 31
0.0
  0
LINE
  5
181
330
1F
100
AcDbEntity
  8
2
  6
Continuous
 62
     7
100
AcDbLine
 10
199.133831441
 20
160.768640458
 30
0.0
 11
205.351620441
 21
166.986461458
 31
0.0
  0
LINE
  5
182
330
1F
100
AcDbEntity
  8
2
  6
Continuous
 62
     7
100
AcDbLine
 10
205.056669441
 20
168.105692458
 30
0.0
 11
197.979774941
 21
161.028797458
 31
0.0
  0
LINE
  5
183
330
1F
100
AcDbEntity
  8
2
  6
Continuous
 62
     7
100
AcDbLine
 10
194.845646841
 20
160.864528458
 30
0.0
 11
205.056688441
 21
171.075554458
 31
0.0
  0
LINE
  5
184
330
1F
100
AcDbEntity
  8
2
  6
Continuous
 62
     7
100
AcDbLine
 10
205.056679441
 20
171.711950458
 30
0.0
 11
194.174080341
 21
160.829351458
 31
0.0
  0
LINE
  5
185
330
1F
100
AcDbEntity
  8
2
  6
Continuous
 62
     7
100
AcDbLine
 10
196.114232541
 20
160.931022458
 30
0.0
 11
205.056669441
 21
169.873459458
 31
0.0
  0
LINE
  5
186
330
1F
100
AcDbEntity
  8
2
  6
Continuous
 62
     7
100
AcDbLine
 10
205.056667441
 20
170.509849458
 30
0.0
 11
195.442635041
 21
160.895832458
 31
0.0
  0
LINE
  5
187
330
1F
100
AcDbEntity
  8
2
  6
Continuous
 62
     7
100
AcDbLine
 10
205.056671441
 20
169.307779458
 30
0.0
 11
196.711194541
 21
160.962316458
 31
0.0
  0
LINE
  5
188
330
1F
100
AcDbEntity
  8
2
  6
Continuous
 62
     7
100
AcDbLine
 10
197.382775741
 20
160.997495458
 30
0.0
 11
205.056679441
 21
168.671400458
 31
0.0
  0
LINE
  5
189
330
1F
100
AcDbEntity
  8
2
  6
Continuous
 62
     7
100
AcDbLine
 10
196.288474041
 20
160.539606458
 30
0.0
 11
195.691545941
 21
160.508312458
 31
0.0
  0
LINE
  5
18A
330
1F
100
AcDbEntity
  8
2
  6
Continuous
 62
     7
100
AcDbLine
 10
195.442623641
 20
160.895826458
 30
0.0
 11
195.019930341
 21
160.473133458
 31
0.0
  0
LINE
  5
18B
330
1F
100
AcDbEntity
  8
2
  6
Continuous
 62
     7
100
AcDbLine
 10
194.422936941
 20
160.441827458
 30
0.0
 11
194.845651641
 21
160.864542458
 31
0.0
  0
LINE
  5
18C
330
1F
100
AcDbEntity
  8
2
  6
Continuous
 62
     7
100
AcDbLine
 10
195.019945641
 20
160.473131458
 30
0.0
 11
194.422956941
 21
160.441835458
 31
0.0
  0
LINE
  5
18D
330
1F
100
AcDbEntity
  8
2
  6
Continuous
 62
     7
100
AcDbLine
 10
195.691539341
 20
160.508329458
 30
0.0
 11
196.114232541
 21
160.931022458
 31
0.0
  0
LINE
  5
18E
330
1F
100
AcDbEntity
  8
2
  6
Continuous
 62
     7
100
AcDbLine
 10
197.557027341
 20
160.606096458
 30
0.0
 11
196.960098741
 21
160.574802458
 31
0.0
  0
LINE
  5
18F
330
1F
100
AcDbEntity
  8
2
  6
Continuous
 62
     7
100
AcDbLine
 10
196.711188841
 20
160.962322458
 30
0.0
 11
196.288473641
 21
160.539608458
 31
0.0
  0
LINE
  5
190
330
1F
100
AcDbEntity
  8
2
  6
Continuous
 62
     7
100
AcDbLine
 10
196.960082541
 20
160.574804458
 30
0.0
 11
197.382775741
 21
160.997495458
 31
0.0
  0
LINE
  5
191
330
1F
100
AcDbEntity
  8
2
  6
Continuous
 62
     7
100
AcDbLine
 10
197.979770141
 20
161.028801458
 30
0.0
 11
197.557039741
 21
160.606100458
 31
0.0
  0
ARC
  5
192
330
1F
100
AcDbEntity
  8
2
  6
Continuous
 62
     7
100
AcDbCircle
 10
200.908665441
 20
161.397907458
 30
0.0
 40
0.2
100
AcDbArc
 50
208.61046
 51
315.0
  0
LINE
  5
193
330
1F
100
AcDbEntity
  8
2
  6
Continuous
 62
     7
100
AcDbLine
 10
199.133823441
 20
160.768634458
 30
0.0
 11
198.923557441
 21
160.624134458
 31
0.0
  0
LINE
  5
194
330
1F
100
AcDbEntity
  8
2
  6
Continuous
 62
     7
100
AcDbLine
 10
198.923557441
 20
160.624134458
 30
0.0
 11
198.679508441
 21
160.564792458
 31
0.0
  0
LINE
  5
195
330
1F
100
AcDbEntity
  8
2
  6
Continuous
 62
     7
100
AcDbLine
 10
200.436794441
 20
161.845287458
 30
0.0
 11
200.733089441
 21
161.302122458
 31
0.0
  0
LINE
  5
196
330
1F
100
AcDbEntity
  8
2
  6
Continuous
 62
     7
100
AcDbLine
 10
200.323640441
 20
161.958460458
 30
0.0
 11
200.436799441
 21
161.845285458
 31
0.0
  0
LINE
  5
197
330
1F
100
AcDbEntity
  8
2
  6
Continuous
 62
     7
100
AcDbLine
 10
205.356663441
 20
171.375553458
 30
0.0
 11
205.356663441
 21
170.809864458
 31
0.0
  0
LINE
  5
198
330
1F
100
AcDbEntity
  8
2
  6
Continuous
 62
     7
100
AcDbLine
 10
205.056669441
 20
171.075548458
 30
0.0
 11
205.556681441
 21
171.575559458
 31
0.0
  0
LINE
  5
199
330
1F
100
AcDbEntity
  8
2
  6
Continuous
 62
     7
100
AcDbLine
 10
205.556675441
 20
167.481434458
 30
0.0
 11
205.556675441
 21
168.605701458
 31
0.0
  0
LINE
  5
19A
330
1F
100
AcDbEntity
  8
2
  6
Continuous
 62
     7
100
AcDbLine
 10
205.503391441
 20
167.213566458
 30
0.0
 11
205.354496441
 21
166.989322458
 31
0.0
  0
LINE
  5
19B
330
1F
100
AcDbEntity
  8
2
  6
Continuous
 62
     7
100
AcDbLine
 10
204.515511441
 20
165.084566458
 30
0.0
 11
203.972365441
 21
165.380842458
 31
0.0
  0
LINE
  5
19C
330
1F
100
AcDbEntity
  8
2
  6
Continuous
 62
     7
100
AcDbLine
 10
203.972362441
 20
165.380851458
 30
0.0
 11
203.859171441
 21
165.494026458
 31
0.0
  0
ARC
  5
19D
330
1F
100
AcDbEntity
  8
2
  6
Continuous
 62
     7
100
AcDbCircle
 10
204.419743441
 20
164.908985458
 30
0.0
 40
0.2
100
AcDbArc
 50
315.0
 51
61.389542
  0
LINE
  5
19E
330
1F
100
AcDbEntity
  8
2
  6
Continuous
 62
     7
100
AcDbLine
 10
205.556675441
 20
167.481434458
 30
0.0
 11
205.503391441
 21
167.213566458
 31
0.0
  0
LINE
  5
19F
330
1F
100
AcDbEntity
  8
2
  6
Continuous
 62
     7
100
AcDbLine
 10
205.556669441
 20
171.009851458
 30
0.0
 11
205.056679441
 21
170.509861458
 31
0.0
  0
LINE
  5
1A0
330
1F
100
AcDbEntity
  8
2
  6
Continuous
 62
     7
100
AcDbLine
 10
205.556681441
 20
169.807792458
 30
0.0
 11
205.056669441
 21
169.307781458
 31
0.0
  0
LINE
  5
1A1
330
1F
100
AcDbEntity
  8
2
  6
Continuous
 62
     7
100
AcDbLine
 10
205.056679441
 20
168.671400458
 30
0.0
 11
205.556669441
 21
169.171390458
 31
0.0
  0
LINE
  5
1A2
330
1F
100
AcDbEntity
  8
2
  6
Continuous
 62
     7
100
AcDbLine
 10
205.556681441
 20
168.605703458
 30
0.0
 11
205.056669441
 21
168.105692458
 31
0.0
  0
LINE
  5
1A3
330
1F
100
AcDbEntity
  8
2
  6
Continuous
 62
     7
100
AcDbLine
 10
205.056669441
 20
169.873459458
 30
0.0
 11
205.556681441
 21
170.373470458
 31
0.0
  0
LINE
  5
1A4
330
1F
100
AcDbEntity
  8
2
  6
Continuous
 62
     7
100
AcDbLine
 10
205.356663441
 20
168.971393458
 30
0.0
 11
205.356663441
 21
168.405704458
 31
0.0
  0
LINE
  5
1A5
330
1F
100
AcDbEntity
  8
2
  6
Continuous
 62
     7
100
AcDbLine
 10
205.356663441
 20
170.173465458
 30
0.0
 11
205.356663441
 21
169.607776458
 31
0.0
  0
LINE
  5
1A6
330
1F
100
AcDbEntity
  8
2
  6
Continuous
 62
     7
100
AcDbLine
 10
205.556675441
 20
169.171390458
 30
0.0
 11
205.556675441
 21
169.807789458
 31
0.0
  0
LINE
  5
1A7
330
1F
100
AcDbEntity
  8
2
  6
Continuous
 62
     7
100
AcDbLine
 10
205.556675441
 20
170.373462458
 30
0.0
 11
205.556675441
 21
171.009861458
 31
0.0
  0
LINE
  5
1A8
330
1F
100
AcDbEntity
  8
2
  6
Continuous
 62
     7
100
AcDbLine
 10
205.556675441
 20
173.414025458
 30
0.0
 11
205.056664441
 21
172.914015458
 31
0.0
  0
LINE
  5
1A9
330
1F
100
AcDbEntity
  8
2
  6
Continuous
 62
     7
100
AcDbLine
 10
205.056679441
 20
173.479718458
 30
0.0
 11
205.556669441
 21
173.979707458
 31
0.0
  0
LINE
  5
1AA
330
1F
100
AcDbEntity
  8
2
  6
Continuous
 62
     7
100
AcDbLine
 10
205.556669441
 20
172.211940458
 30
0.0
 11
205.056679441
 21
171.711950458
 31
0.0
  0
LINE
  5
1AB
330
1F
100
AcDbEntity
  8
2
  6
Continuous
 62
     7
100
AcDbLine
 10
205.056675441
 20
172.277633458
 30
0.0
 11
205.556686441
 21
172.777645458
 31
0.0
  0
LINE
  5
1AC
330
1F
100
AcDbEntity
  8
2
  6
Continuous
 62
     7
100
AcDbLine
 10
205.356663441
 20
172.577625458
 30
0.0
 11
205.356663441
 21
172.011951458
 31
0.0
  0
LINE
  5
1AD
330
1F
100
AcDbEntity
  8
2
  6
Continuous
 62
     7
100
AcDbLine
 10
205.356663441
 20
173.779712458
 30
0.0
 11
205.356663441
 21
173.214023458
 31
0.0
  0
LINE
  5
1AE
330
1F
100
AcDbEntity
  8
2
  6
Continuous
 62
     7
100
AcDbLine
 10
205.556675441
 20
172.777637458
 30
0.0
 11
205.556675441
 21
173.414020458
 31
0.0
  0
LINE
  5
1AF
330
1F
100
AcDbEntity
  8
2
  6
Continuous
 62
     7
100
AcDbLine
 10
205.556675441
 20
171.575550458
 30
0.0
 11
205.556675441
 21
172.211948458
 31
0.0
  0
ARC
  5
1B0
330
1F
100
AcDbEntity
  8
2
  6
Continuous
 62
     7
100
AcDbCircle
 10
188.556675441
 20
188.391570483
 30
0.0
 40
2.2
100
AcDbArc
 50
0.0
 51
179.999991
  0
ARC
  5
1B1
330
1F
100
AcDbEntity
  8
2
  6
Continuous
 62
     7
100
AcDbCircle
 10
188.556675441
 20
188.191571174
 30
0.0
 40
2.2
100
AcDbArc
 50
180.000009
 51
0.0
  0
CIRCLE
  5
1B2
330
1F
100
AcDbEntity
  8
2
  6
Continuous
 62
     7
100
AcDbCircle
 10
188.556675441
 20
188.391578483
 30
0.0
 40
1.2
  0
CIRCLE
  5
1B3
330
1F
100
AcDbEntity
  8
11
  6
Continuous
 62
     2
100
AcDbCircle
 10
188.556675441
 20
188.391570483
 30
0.0
 40
1.5
  0
LINE
  5
1B4
330
1F
100
AcDbEntity
  8
2
  6
Continuous
 62
     7
100
AcDbLine
 10
190.756675441
 20
188.391570829
 30
0.0
 11
190.756675441
 21
188.191570829
 31
0.0
  0
LINE
  5
1B5
330
1F
100
AcDbEntity
  8
2
  6
Continuous
 62
     7
100
AcDbLine
 10
186.356675441
 20
188.391555174
 30
0.0
 11
186.356675441
 21
188.191555174
 31
0.0
  0
ARC
  5
1B6
330
1F
100
AcDbEntity
  8
2
  6
Continuous
 62
     7
100
AcDbCircle
 10
188.556675441
 20
163.191575792
 30
0.0
 40
2.2
100
AcDbArc
 50
0.0
 51
179.999991
  0
CIRCLE
  5
1B7
330
1F
100
AcDbEntity
  8
2
  6
Continuous
 62
     7
100
AcDbCircle
 10
188.556675441
 20
162.991576483
 30
0.0
 40
1.2
  0
ARC
  5
1B8
330
1F
100
AcDbEntity
  8
2
  6
Continuous
 62
     7
100
AcDbCircle
 10
188.556675441
 20
162.991576483
 30
0.0
 40
2.2
100
AcDbArc
 50
180.000009
 51
0.0
  0
CIRCLE
  5
1B9
330
1F
100
AcDbEntity
  8
11
  6
Continuous
 62
     2
100
AcDbCircle
 10
188.556675441
 20
162.991576483
 30
0.0
 40
1.5
  0
LINE
  5
1BA
330
1F
100
AcDbEntity
  8
2
  6
Continuous
 62
     7
100
AcDbLine
 10
190.756675441
 20
162.991576138
 30
0.0
 11
190.756675441
 21
163.191576138
 31
0.0
  0
LINE
  5
1BB
330
1F
100
AcDbEntity
  8
2
  6
Continuous
 62
     7
100
AcDbLine
 10
186.356675441
 20
162.991576138
 30
0.0
 11
186.356675441
 21
163.191576138
 31
0.0
  0
LINE
  5
1BC
330
1F
100
AcDbEntity
  8
5
  6
LTYPE2
 62
     3
100
AcDbLine
 10
188.556675441
 20
185.713053482
 30
0.0
 11
188.556675441
 21
190.752816562
 31
0.0
  0
LINE
  5
1BD
330
1F
100
AcDbEntity
  8
5
  6
LTYPE2
 62
     3
100
AcDbLine
 10
191.14236105
 20
188.391586483
 30
0.0
 11
186.214338627
 21
188.391586483
 31
0.0
  0
LINE
  5
1BE
330
1F
100
AcDbEntity
  8
5
  6
LTYPE2
 62
     3
100
AcDbLine
 10
191.39371204
 20
162.991584483
 30
0.0
 11
185.947849441
 21
162.991584483
 31
0.0
  0
LINE
  5
1BF
330
1F
100
AcDbEntity
  8
5
  6
LTYPE2
 62
     3
100
AcDbLine
 10
188.556675441
 20
160.313043482
 30
0.0
 11
188.556675441
 21
166.04345521
 31
0.0
  0
LINE
  5
1C0
330
1F
100
AcDbEntity
  8
0
  6
LTYPE2
 62
     3
100
AcDbLine
 10
184.806675441
 20
188.391570483
 30
0.0
 11
192.306675441
 21
188.391570483
 31
0.0
  0
LINE
  5
1C1
330
1F
100
AcDbEntity
  8
0
  6
LTYPE2
 62
     3
100
AcDbLine
 10
188.556675441
 20
184.641570483
 30
0.0
 11
188.556675441
 21
192.141570483
 31
0.0
  0
LINE
  5
1C2
330
1F
100
AcDbEntity
  8
0
  6
LTYPE2
 62
     3
100
AcDbLine
 10
184.806675441
 20
162.991570483
 30
0.0
 11
192.306675441
 21
162.991570483
 31
0.0
  0
LINE
  5
1C3
330
1F
100
AcDbEntity
  8
0
  6
LTYPE2
 62
     3
100
AcDbLine
 10
188.556675441
 20
159.241570483
 30
0.0
 11
188.556675441
 21
166.741570483
 31
0.0
  0
LINE
  5
1C4
330
1F
100
AcDbEntity
  8
0
  6
LTYPE2
 62
     3
100
AcDbLine
 10
184.806675441
 20
188.391570483
 30
0.0
 11
192.306675441
 21
188.391570483
 31
0.0
  0
LINE
  5
1C5
330
1F
100
AcDbEntity
  8
0
  6
LTYPE2
 62
     3
100
AcDbLine
 10
188.556675441
 20
184.641570483
 30
0.0
 11
188.556675441
 21
192.141570483
 31
0.0
  0
LINE
  5
1C6
330
1F
100
AcDbEntity
  8
0
  6
LTYPE2
 62
     3
100
AcDbLine
 10
184.806675441
 20
162.991570483
 30
0.0
 11
192.306675441
 21
162.991570483
 31
0.0
  0
LINE
  5
1C7
330
1F
100
AcDbEntity
  8
0
  6
LTYPE2
 62
     3
100
AcDbLine
 10
188.556675441
 20
159.241570483
 30
0.0
 11
188.556675441
 21
166.741570483
 31
0.0
  0
LINE
  5
1C8
330
1F
100
AcDbEntity
  8
2
  6
Continuous
 62
     1
100
AcDbLine
 10
185.0566755
 20
193.991571049
 30
0.0
 11
185.0566755
 21
152.991569917
 31
0.0
  0
LINE
  5
1C9
330
1F
100
AcDbEntity
  8
2
  6
Continuous
 62
     1
100
AcDbLine
 10
185.0566755
 20
193.991571049
 30
0.0
 11
207.056675381
 21
193.991571049
 31
0.0
  0
LINE
  5
1CA
330
1F
100
AcDbEntity
  8
2
  6
Continuous
 62
     1
100
AcDbLine
 10
207.056675381
 20
152.991569917
 30
0.0
 11
185.0566755
 21
152.991569917
 31
0.0
  0
LINE
  5
1CB
330
1F
100
AcDbEntity
  8
2
  6
LTYPE1
 62
     1
100
AcDbLine
 10
207.056675381
 20
154.191569917
 30
0.0
 11
185.0566755
 21
154.191569917
 31
0.0
  0
LINE
  5
1CC
330
1F
100
AcDbEntity
  8
2
  6
Continuous
 62
     1
100
AcDbLine
 10
207.056675381
 20
193.991571049
 30
0.0
 11
207.056675381
 21
161.58939253
 31
0.0
  0
LINE
  5
1CD
330
1F
100
AcDbEntity
  8
2
  6
Continuous
 62
     7
100
AcDbLine
 10
204.561167441
 20
164.767551458
 30
0.0
 11
201.391412121
 21
161.597808778
 31
0.0
  0
LINE
  5
1CE
330
1F
100
AcDbEntity
  8
2
  6
Continuous
 62
     1
100
AcDbLine
 10
207.056675381
 20
155.932530996
 30
0.0
 11
207.056675381
 21
152.991569917
 31
0.0
  0
MTEXT
  5
1CF
330
1F
100
AcDbEntity
  8
0
  6
Continuous
 62
     3
100
AcDbMText
 10
177.615107441
 20
199.715084458
 30
0.0
 40
3.0
 41
14.4
 71
     7
 72
     1
  1
\W0.800;センサ
  7
KANJI8
 73
     1
 44
1.0
  0
MTEXT
  5
1D1
330
1F
100
AcDbEntity
  8
0
  6
Continuous
 62
     3
100
AcDbMText
 10
166.216133068
 20
145.487131622
 30
0.0
 40
3.0
 41
24.0
 71
     7
 72
     1
  1
\W0.800;センサ金具
  7
KANJI8
 73
     1
 44
1.0
  0
MTEXT
  5
1D2
330
1F
100
AcDbEntity
  8
0
  6
Continuous
 62
     3
100
AcDbMText
 10
166.216133068
 20
141.487131622
 30
0.0
 40
3.0
 41
72.0
 71
     7
 72
     1
  1
\W0.800;Ｅ３９－Ｌ１５３　＜オムロン＞
  7
KANJI8
 73
     1
 44
1.0
  0
CIRCLE
  5
1D3
330
1F
100
AcDbEntity
  8
0
  6
Continuous
 62
     4
100
AcDbCircle
 10
196.180800508
 20
225.682132071
 30
0.0
 40
16.829735589
  0
LINE
  5
1D4
330
1F
100
AcDbEntity
  8
0
  6
Continuous
 62
     4
100
AcDbLine
 10
212.730800449
 20
221.83888611
 30
0.0
 11
232.430800449
 21
235.43888611
 31
0.0
  0
LINE
  5
1D5
330
1F
100
AcDbEntity
  8
0
  6
Continuous
 62
     4
100
AcDbLine
 10
232.430800449
 20
235.43888611
 30
0.0
 11
235.530800449
 21
235.43888611
 31
0.0
  0
MTEXT
  5
1D6
330
1F
100
AcDbEntity
  8
0
  6
Continuous
 62
     3
100
AcDbMText
 10
232.430800449
 20
236.43888611
 30
0.0
 40
3.0
 41
5.4
 71
     7
 72
     1
  1
\T1.111;\W0.900;Ａ
  7
KANJI9
 73
     1
 44
1.0
  0
LINE
  5
1D8
330
1F
100
AcDbEntity
  8
2
  6
Continuous
 62
     7
100
AcDbLine
 10
194.392006004
 20
191.591204512
 30
0.0
 11
203.856735994
 21
191.591204512
 31
0.0
  0
LINE
  5
1D9
330
1F
100
AcDbEntity
  8
2
  6
Continuous
 62
     7
100
AcDbLine
 10
197.950924433
 20
192.291204512
 30
0.0
 11
195.56242645
 21
192.291204512
 31
0.0
  0
ARC
  5
1DA
330
1F
100
AcDbEntity
  8
2
  6
Continuous
 62
     7
100
AcDbCircle
 10
192.956735994
 20
190.891496608
 30
0.0
 40
2.4
100
AcDbArc
 50
16.950473164
 51
172.819487249
  0
LINE
  5
1DB
330
1F
100
AcDbEntity
  8
2
  6
Continuous
 62
     7
100
AcDbLine
 10
194.392006004
 20
191.591204512
 30
0.0
 11
194.392006004
 21
191.191204512
 31
0.0
  0
LINE
  5
1DC
330
1F
100
AcDbEntity
  8
2
  6
Continuous
 62
     7
100
AcDbLine
 10
195.548331399
 20
191.591204512
 30
0.0
 11
195.56242645
 21
192.291204512
 31
0.0
  0
LINE
  5
1DD
330
1F
100
AcDbEntity
  8
2
  6
Continuous
 62
     7
100
AcDbLine
 10
202.450924433
 20
192.291204512
 30
0.0
 11
200.06242645
 21
192.291204512
 31
0.0
  0
LINE
  5
1DE
330
1F
100
AcDbEntity
  8
2
  6
Continuous
 62
     7
100
AcDbLine
 10
197.965019484
 20
191.591204512
 30
0.0
 11
197.950924433
 21
192.291204512
 31
0.0
  0
LINE
  5
1DF
330
1F
100
AcDbEntity
  8
2
  6
Continuous
 62
     7
100
AcDbLine
 10
200.048331399
 20
191.591204512
 30
0.0
 11
200.06242645
 21
192.291204512
 31
0.0
  0
LINE
  5
1E0
330
1F
100
AcDbEntity
  8
2
  6
Continuous
 62
     7
100
AcDbLine
 10
202.465019484
 20
191.591204512
 30
0.0
 11
202.450924433
 21
192.291204512
 31
0.0
  0
LINE
  5
1E1
330
1F
100
AcDbEntity
  8
2
  6
Continuous
 62
     7
100
AcDbLine
 10
203.856735994
 20
191.591204512
 30
0.0
 11
203.856735994
 21
191.191204512
 31
0.0
  0
LINE
  5
1E2
330
1F
100
AcDbEntity
  8
2
  6
Continuous
 62
     7
100
AcDbLine
 10
205.556675441
 20
173.979709458
 30
0.0
 11
205.556675441
 21
191.188290547
 31
0.0
  0
LINE
  5
1E3
330
1F
100
AcDbEntity
  8
2
  6
Continuous
 62
     7
100
AcDbLine
 10
188.556675441
 20
191.191486508
 30
0.0
 11
205.556675443
 21
191.188290547
 31
0.0
  0
LINE
  5
1E4
330
1F
100
AcDbEntity
  8
2
  6
Continuous
 62
     7
100
AcDbLine
 10
186.356675441
 20
184.991899994
 30
0.0
 11
186.356675441
 21
166.391899665
 31
0.0
  0
LINE
  5
1E5
330
1F
100
AcDbEntity
  8
2
  6
Continuous
 62
     7
100
AcDbLine
 10
187.956675441
 20
184.991599197
 30
0.0
 11
187.956675441
 21
166.391598869
 31
0.0
  0
LINE
  5
1E6
330
1F
100
AcDbEntity
  8
2
  6
Continuous
 62
     7
100
AcDbLine
 10
186.356675441
 20
184.991899994
 30
0.0
 11
186.356675441
 21
166.391899665
 31
0.0
  0
LINE
  5
1E7
330
1F
100
AcDbEntity
  8
2
  6
Continuous
 62
     7
100
AcDbLine
 10
187.956675441
 20
184.991599197
 30
0.0
 11
187.956675441
 21
166.391598869
 31
0.0
  0
LINE
  5
1E8
330
1F
100
AcDbEntity
  8
2
  6
Continuous
 62
     7
100
AcDbLine
 10
187.956675441
 20
166.391598869
 30
0.0
 11
185.556675441
 21
166.392050063
 31
0.0
  0
LINE
  5
1E9
330
1F
100
AcDbEntity
  8
2
  6
Continuous
 62
     7
100
AcDbLine
 10
185.556675441
 20
184.992050392
 30
0.0
 11
187.956675441
 21
184.991599197
 31
0.0
  0
LWPOLYLINE
  5
1EB
330
1F
100
AcDbEntity
  8
7
  6
LTYPE3
 62
     3
100
AcDbPolyline
 90
     3
 70
   128
 43
0.0
 10
182.556675441
 20
180.496209178
 10
185.556675441
 20
179.692361608
 10
182.556675441
 20
178.888514038
  0
LINE
  5
1EC
330
1F
100
AcDbEntity
  8
7
  6
LTYPE3
 62
     3
100
AcDbLine
 10
185.556675441
 20
179.692361608
 30
0.0
 11
182.556675441
 21
179.692361608
 31
0.0
  0
LINE
  5
1ED
330
1F
100
AcDbEntity
  8
7
  6
LTYPE3
 62
     3
100
AcDbLine
 10
185.556675441
 20
179.692361608
 30
0.0
 11
175.226310696
 21
179.692361608
 31
0.0
  0
LWPOLYLINE
  5
1EF
330
1F
100
AcDbEntity
  8
7
  6
LTYPE3
 62
     3
100
AcDbPolyline
 90
     3
 70
   128
 43
0.0
 10
178.226310696
 20
170.888514338
 10
175.226310696
 20
171.692361908
 10
178.226310696
 20
172.496209478
  0
LINE
  5
1F0
330
1F
100
AcDbEntity
  8
7
  6
LTYPE3
 62
     3
100
AcDbLine
 10
175.226310696
 20
171.692361908
 30
0.0
 11
178.226310696
 21
171.692361908
 31
0.0
  0
LINE
  5
1F1
330
1F
100
AcDbEntity
  8
7
  6
LTYPE3
 62
     3
100
AcDbLine
 10
175.226310696
 20
171.692361908
 30
0.0
 11
185.556675441
 21
171.692361908
 31
0.0
  0
CIRCLE
  5
1F2
330
1F
100
AcDbEntity
  8
2
  6
Continuous
 62
     7
100
AcDbCircle
 10
196.780800509
 20
217.032132069
 30
0.0
 40
1.2
  0
LINE
  5
1F3
330
1F
100
AcDbEntity
  8
2
  6
Continuous
 62
     7
100
AcDbLine
 10
197.10194039
 20
218.188362659
 30
0.0
 11
195.940045386
 21
216.175901479
 31
0.0
  0
LINE
  5
1F4
330
1F
100
AcDbEntity
  8
2
  6
Continuous
 62
     7
100
AcDbLine
 10
194.416070519
 20
213.53213207
 30
0.0
 11
203.180800509
 21
213.53213207
 31
0.0
  0
LINE
  5
1F5
330
1F
100
AcDbEntity
  8
2
  6
Continuous
 62
     7
100
AcDbLine
 10
203.180800509
 20
220.53213207
 30
0.0
 11
194.416070519
 21
220.53213207
 31
0.0
  0
POINT
  5
1F6
330
1F
100
AcDbEntity
  8
10
  6
Continuous
 62
     7
100
AcDbPoint
 10
185.580800508
 20
221.732132071
 30
0.0
  0
POINT
  5
1F7
330
1F
100
AcDbEntity
  8
10
  6
Continuous
 62
     7
100
AcDbPoint
 10
205.580800508
 20
221.732132071
 30
0.0
  0
LINE
  5
1F8
330
1F
100
AcDbEntity
  8
2
  6
Continuous
 62
     7
100
AcDbLine
 10
190.080800508
 20
212.532132071
 30
0.0
 11
204.880800508
 21
212.532132071
 31
0.0
  0
LINE
  5
1F9
330
1F
100
AcDbEntity
  8
2
  6
Continuous
 62
     7
100
AcDbLine
 10
204.880800508
 20
221.532132071
 30
0.0
 11
190.080800508
 21
221.532132071
 31
0.0
  0
LINE
  5
1FA
330
1F
100
AcDbEntity
  8
2
  6
Continuous
 62
     7
100
AcDbLine
 10
205.080800508
 20
211.832132071
 30
0.0
 11
186.080800508
 21
211.832132071
 31
0.0
  0
LINE
  5
1FB
330
1F
100
AcDbEntity
  8
2
  6
Continuous
 62
     7
100
AcDbLine
 10
205.080800508
 20
222.232132071
 30
0.0
 11
186.080800508
 21
222.232132071
 31
0.0
  0
POINT
  5
1FC
330
1F
100
AcDbEntity
  8
10
  6
Continuous
 62
     7
100
AcDbPoint
 10
186.780800509
 20
211.632132071
 30
0.0
  0
POINT
  5
1FD
330
1F
100
AcDbEntity
  8
10
  6
Continuous
 62
     7
100
AcDbPoint
 10
186.780800509
 20
222.432132071
 30
0.0
  0
POINT
  5
1FE
330
1F
100
AcDbEntity
  8
10
  6
Continuous
 62
     7
100
AcDbPoint
 10
186.080800508
 20
211.832132071
 30
0.0
  0
POINT
  5
1FF
330
1F
100
AcDbEntity
  8
10
  6
Continuous
 62
     7
100
AcDbPoint
 10
186.080800508
 20
222.232132071
 30
0.0
  0
LINE
  5
200
330
1F
100
AcDbEntity
  8
2
  6
Continuous
 62
     7
100
AcDbLine
 10
190.59962433
 20
218.63213207
 30
0.0
 11
190.59962433
 21
215.432132071
 31
0.0
  0
LINE
  5
201
330
1F
100
AcDbEntity
  8
2
  6
Continuous
 62
     7
100
AcDbLine
 10
195.361976689
 20
218.632132071
 30
0.0
 11
195.361976689
 21
215.43213207
 31
0.0
  0
ARC
  5
202
330
1F
100
AcDbEntity
  8
2
  6
Continuous
 62
     7
100
AcDbCircle
 10
192.980800509
 20
215.43213207
 30
0.0
 40
2.38117618
100
AcDbArc
 50
180.0
 51
0.000000024
  0
LINE
  5
203
330
1F
100
AcDbEntity
  8
2
  6
Continuous
 62
     7
100
AcDbLine
 10
190.080800508
 20
221.532132071
 30
0.0
 11
190.080800508
 21
212.532132071
 31
0.0
  0
LINE
  5
204
330
1F
100
AcDbEntity
  8
2
  6
Continuous
 62
     7
100
AcDbLine
 10
185.580800508
 20
221.732132071
 30
0.0
 11
185.580800508
 21
212.332132071
 31
0.0
  0
LINE
  5
205
330
1F
100
AcDbEntity
  8
2
  6
Continuous
 62
     7
100
AcDbLine
 10
189.580800508
 20
214.832132071
 30
0.0
 11
188.580800508
 21
214.832132071
 31
0.0
  0
LINE
  5
206
330
1F
100
AcDbEntity
  8
2
  6
Continuous
 62
     7
100
AcDbLine
 10
189.580800508
 20
212.632132071
 30
0.0
 11
188.580800508
 21
212.632132071
 31
0.0
  0
LINE
  5
207
330
1F
100
AcDbEntity
  8
2
  6
Continuous
 62
     7
100
AcDbLine
 10
186.580800506
 20
211.632132071
 30
0.0
 11
190.580800506
 21
211.632132071
 31
0.0
  0
POINT
  5
208
330
1F
100
AcDbEntity
  8
2
  6
Continuous
 62
     7
100
AcDbPoint
 10
186.380800506
 20
211.832132071
 30
0.0
  0
ARC
  5
209
330
1F
100
AcDbEntity
  8
2
  6
Continuous
 62
     7
100
AcDbCircle
 10
186.080800508
 20
212.332132071
 30
0.0
 40
0.5
100
AcDbArc
 50
180.0
 51
270.0
  0
LINE
  5
20A
330
1F
100
AcDbEntity
  8
2
  6
Continuous
 62
     7
100
AcDbLine
 10
189.580800508
 20
212.632132071
 30
0.0
 11
189.580800508
 21
214.832132071
 31
0.0
  0
POINT
  5
20B
330
1F
100
AcDbEntity
  8
2
  6
Continuous
 62
     7
100
AcDbPoint
 10
190.780800506
 20
211.832132071
 30
0.0
  0
LINE
  5
20C
330
1F
100
AcDbEntity
  8
2
  6
Continuous
 62
     7
100
AcDbLine
 10
189.580800508
 20
221.432132073
 30
0.0
 11
188.580800508
 21
221.432132073
 31
0.0
  0
LINE
  5
20D
330
1F
100
AcDbEntity
  8
2
  6
Continuous
 62
     7
100
AcDbLine
 10
189.580800508
 20
219.232132073
 30
0.0
 11
188.580800508
 21
219.232132073
 31
0.0
  0
LINE
  5
20E
330
1F
100
AcDbEntity
  8
2
  6
Continuous
 62
     7
100
AcDbLine
 10
186.580800506
 20
222.432132071
 30
0.0
 11
190.580800506
 21
222.432132071
 31
0.0
  0
ARC
  5
20F
330
1F
100
AcDbEntity
  8
2
  6
Continuous
 62
     7
100
AcDbCircle
 10
186.080800508
 20
221.732132071
 30
0.0
 40
0.5
100
AcDbArc
 50
90.0
 51
180.0
  0
LINE
  5
210
330
1F
100
AcDbEntity
  8
2
  6
Continuous
 62
     7
100
AcDbLine
 10
186.380800506
 20
222.232132071
 30
0.0
 11
186.380800506
 21
222.232132071
 31
0.0
  0
ARC
  5
211
330
1F
100
AcDbEntity
  8
2
  6
Continuous
 62
     7
100
AcDbCircle
 10
192.980800509
 20
218.63213207
 30
0.0
 40
2.38117618
100
AcDbArc
 50
0.000000024
 51
180.0
  0
LINE
  5
212
330
1F
100
AcDbEntity
  8
2
  6
Continuous
 62
     7
100
AcDbLine
 10
189.580800508
 20
221.432132073
 30
0.0
 11
189.580800508
 21
219.232132073
 31
0.0
  0
LINE
  5
213
330
1F
100
AcDbEntity
  8
2
  6
Continuous
 62
     7
100
AcDbLine
 10
190.780800506
 20
222.232132071
 30
0.0
 11
190.780800506
 21
222.232132071
 31
0.0
  0
LINE
  5
214
330
1F
100
AcDbEntity
  8
2
  6
Continuous
 62
     7
100
AcDbLine
 10
203.880800509
 20
214.23213207
 30
0.0
 11
203.880800509
 21
219.83213207
 31
0.0
  0
LINE
  5
215
330
1F
100
AcDbEntity
  8
2
  6
Continuous
 62
     7
100
AcDbLine
 10
197.621555632
 20
217.888362659
 30
0.0
 11
196.459660628
 21
215.875901479
 31
0.0
  0
CIRCLE
  5
216
330
1F
100
AcDbEntity
  8
2
  6
Continuous
 62
     7
100
AcDbCircle
 10
201.280800509
 20
217.03213207
 30
0.0
 40
1.2
  0
LINE
  5
217
330
1F
100
AcDbEntity
  8
2
  6
Continuous
 62
     7
100
AcDbLine
 10
204.880800508
 20
212.532132071
 30
0.0
 11
204.880800508
 21
221.532132071
 31
0.0
  0
LINE
  5
218
330
1F
100
AcDbEntity
  8
2
  6
Continuous
 62
     7
100
AcDbLine
 10
205.580800508
 20
221.732132071
 30
0.0
 11
205.580800508
 21
212.332132071
 31
0.0
  0
ARC
  5
219
330
1F
100
AcDbEntity
  8
2
  6
Continuous
 62
     7
100
AcDbCircle
 10
203.180800509
 20
214.23213207
 30
0.0
 40
0.7
100
AcDbArc
 50
270.0
 51
0.0
  0
LINE
  5
21A
330
1F
100
AcDbEntity
  8
2
  6
Continuous
 62
     7
100
AcDbLine
 10
205.580800511
 20
215.032132071
 30
0.0
 11
208.460743057
 21
215.032132071
 31
0.0
  0
ARC
  5
21B
330
1F
100
AcDbEntity
  8
2
  6
Continuous
 62
     7
100
AcDbCircle
 10
205.080800508
 20
212.332132071
 30
0.0
 40
0.5
100
AcDbArc
 50
270.0
 51
0.0
  0
ARC
  5
21C
330
1F
100
AcDbEntity
  8
2
  6
Continuous
 62
     7
100
AcDbCircle
 10
203.180800509
 20
219.83213207
 30
0.0
 40
0.7
100
AcDbArc
 50
0.0
 51
90.0
  0
ARC
  5
21D
330
1F
100
AcDbEntity
  8
2
  6
Continuous
 62
     7
100
AcDbCircle
 10
205.080800508
 20
221.732132071
 30
0.0
 40
0.5
100
AcDbArc
 50
0.0
 51
90.0
  0
LINE
  5
21E
330
1F
100
AcDbEntity
  8
2
  6
Continuous
 62
     7
100
AcDbLine
 10
208.460743057
 20
219.032132071
 30
0.0
 11
205.580800511
 21
219.032132071
 31
0.0
  0
ARC
  5
21F
330
1F
100
AcDbEntity
  8
2
  6
Continuous
 62
     7
100
AcDbCircle
 10
186.580800506
 20
222.232132071
 30
0.0
 40
0.2
100
AcDbArc
 50
90.0
 51
180.0
  0
ARC
  5
220
330
1F
100
AcDbEntity
  8
2
  6
Continuous
 62
     7
100
AcDbCircle
 10
190.580800506
 20
222.232132071
 30
0.0
 40
0.2
100
AcDbArc
 50
0.0
 51
90.0
  0
ARC
  5
221
330
1F
100
AcDbEntity
  8
2
  6
Continuous
 62
     7
100
AcDbCircle
 10
186.580800506
 20
211.832132071
 30
0.0
 40
0.2
100
AcDbArc
 50
180.0
 51
270.0
  0
ARC
  5
222
330
1F
100
AcDbEntity
  8
2
  6
Continuous
 62
     7
100
AcDbCircle
 10
190.580800506
 20
211.832132071
 30
0.0
 40
0.2
100
AcDbArc
 50
270.0
 51
0.0
  0
LINE
  5
223
330
1F
100
AcDbEntity
  8
2
  6
Continuous
 62
     7
100
AcDbLine
 10
188.580800508
 20
221.432132073
 30
0.0
 11
188.580800508
 21
219.232132073
 31
0.0
  0
LINE
  5
224
330
1F
100
AcDbEntity
  8
2
  6
Continuous
 62
     7
100
AcDbLine
 10
188.580800508
 20
212.632132071
 30
0.0
 11
188.580800508
 21
214.832132071
 31
0.0
  0
LINE
  5
225
330
1F
100
AcDbEntity
  8
5
  6
LTYPE2
 62
     3
100
AcDbLine
 10
189.230800508
 20
218.632132071
 30
0.0
 11
197.030800508
 21
218.632132071
 31
0.0
  0
LINE
  5
226
330
1F
100
AcDbEntity
  8
5
  6
LTYPE2
 62
     3
100
AcDbLine
 10
189.230800508
 20
215.432132071
 30
0.0
 11
197.030800508
 21
215.432132071
 31
0.0
  0
LINE
  5
227
330
1F
100
AcDbEntity
  8
5
  6
LTYPE2
 62
     3
100
AcDbLine
 10
204.080800509
 20
217.03213207
 30
0.0
 11
193.980800509
 21
217.03213207
 31
0.0
  0
LINE
  5
228
330
1F
100
AcDbEntity
  8
5
  6
LTYPE2
 62
     3
100
AcDbLine
 10
192.980800509
 20
224.13213207
 30
0.0
 11
192.980800509
 21
210.822144584
 31
0.0
  0
CIRCLE
  5
229
330
1F
100
AcDbEntity
  8
8
  6
LTYPE2
 62
     3
100
AcDbCircle
 10
192.980800509
 20
218.632132071
 30
0.0
 40
1.5
  0
CIRCLE
  5
22A
330
1F
100
AcDbEntity
  8
8
  6
LTYPE2
 62
     3
100
AcDbCircle
 10
192.980800509
 20
215.432132071
 30
0.0
 40
1.5
  0
LINE
  5
22B
330
1F
100
AcDbEntity
  8
5
  6
LTYPE2
 62
     3
100
AcDbLine
 10
196.780800509
 20
214.23213207
 30
0.0
 11
196.780800509
 21
219.83213207
 31
0.0
  0
LINE
  5
22C
330
1F
100
AcDbEntity
  8
5
  6
LTYPE2
 62
     3
100
AcDbLine
 10
201.280800509
 20
214.23213207
 30
0.0
 11
201.280800509
 21
219.83213207
 31
0.0
  0
MTEXT
  5
22D
330
1F
100
AcDbEntity
  8
0
  6
Continuous
 62
     3
100
AcDbMText
 10
203.755580749
 20
218.553253258
 30
0.0
 40
1.75
 41
2.8
 71
     7
 72
     1
  1
\W0.800;Ｌ
  7
KANJI10
 11
0.0
 21
1.0
 31
0.0
 73
     1
 44
1.0
  0
MTEXT
  5
22F
330
1F
100
AcDbEntity
  8
0
  6
Continuous
 62
     3
100
AcDbMText
 10
203.755580749
 20
214.161032091
 30
0.0
 40
1.75
 41
2.8
 71
     7
 72
     1
  1
\W0.800;Ｄ
  7
KANJI10
 11
0.0
 21
1.0
 31
0.0
 73
     1
 44
1.0
  0
MTEXT
  5
230
330
1F
100
AcDbEntity
  8
0
  6
Continuous
 62
     3
100
AcDbMText
 10
177.615107441
 20
195.715084458
 30
0.0
 40
3.0
 41
79.2
 71
     7
 72
     1
  1
\W0.776;Ｅ３Ｚ－Ｒ６１　２Ｍ　＜オムロン＞
  7
KANJI8
 73
     1
 44
1.0
  0
LINE
  5
231
330
1F
100
AcDbEntity
  8
2
  6
Continuous
 62
     7
100
AcDbLine
 10
201.60194039
 20
215.87590148
 30
0.0
 11
200.440045386
 21
217.88836266
 31
0.0
  0
LINE
  5
232
330
1F
100
AcDbEntity
  8
2
  6
Continuous
 62
     7
100
AcDbLine
 10
202.121555633
 20
216.17590148
 30
0.0
 11
200.959660629
 21
218.18836266
 31
0.0
  0
LINE
  5
233
330
1F
100
AcDbEntity
  8
0
  6
Continuous
 62
     2
100
AcDbLine
 10
295.646294264
 20
158.812532329
 30
0.0
 11
275.146294264
 21
158.812532329
 31
0.0
  0
LINE
  5
234
330
1F
100
AcDbEntity
  8
0
  6
Continuous
 62
     2
100
AcDbLine
 10
275.146294264
 20
152.812532329
 30
0.0
 11
295.646294264
 21
152.812532329
 31
0.0
  0
LINE
  5
235
330
1F
100
AcDbEntity
  8
0
  6
Continuous
 62
     2
100
AcDbLine
 10
237.311385486
 20
154.012532329
 30
0.0
 11
234.644718819
 21
150.012532329
 31
0.0
  0
LINE
  5
236
330
1F
100
AcDbEntity
  8
0
  6
Continuous
 62
     2
100
AcDbLine
 10
234.028939725
 20
156.612532329
 30
0.0
 11
237.311385486
 21
154.012532329
 31
0.0
  0
LINE
  5
237
330
1F
100
AcDbEntity
  8
0
  6
Continuous
 62
     2
100
AcDbLine
 10
236.695606392
 20
160.612532329
 30
0.0
 11
234.028939725
 21
156.612532329
 31
0.0
  0
LINE
  5
238
330
1F
100
AcDbEntity
  8
0
  6
Continuous
 62
     7
100
AcDbLine
 10
275.146294264
 20
157.812532329
 30
0.0
 11
236.828939725
 21
157.812532329
 31
0.0
  0
LWPOLYLINE
  5
23A
330
1F
100
AcDbEntity
  8
0
  6
Continuous
 62
     2
100
AcDbPolyline
 90
     3
 70
   128
 43
0.0
 10
238.695606392
 20
160.612532329
 10
236.028939725
 20
156.612532329
 10
239.311385486
 20
154.012532329
  0
LINE
  5
23B
330
1F
100
AcDbEntity
  8
0
  6
Continuous
 62
     7
100
AcDbLine
 10
239.178052152
 20
153.812532329
 30
0.0
 11
275.146294264
 21
153.812532329
 31
0.0
  0
LINE
  5
23C
330
1F
100
AcDbEntity
  8
0
  6
Continuous
 62
     2
100
AcDbLine
 10
239.178052152
 20
153.812532329
 30
0.0
 11
236.644718819
 21
150.012532329
 31
0.0
  0
LINE
  5
23D
330
1F
100
AcDbEntity
  8
0
  6
Continuous
 62
     2
100
AcDbLine
 10
298.646294264
 20
158.312532329
 30
0.0
 11
295.646294264
 21
158.812532329
 31
0.0
  0
LINE
  5
23E
330
1F
100
AcDbEntity
  8
0
  6
Continuous
 62
     2
100
AcDbLine
 10
305.146294264
 20
158.312532329
 30
0.0
 11
298.646294264
 21
158.312532329
 31
0.0
  0
LINE
  5
23F
330
1F
100
AcDbEntity
  8
0
  6
Continuous
 62
     2
100
AcDbLine
 10
298.646294264
 20
153.312532329
 30
0.0
 11
295.646294264
 21
152.812532329
 31
0.0
  0
LINE
  5
240
330
1F
100
AcDbEntity
  8
0
  6
Continuous
 62
     2
100
AcDbLine
 10
298.646294264
 20
153.312532329
 30
0.0
 11
305.146294264
 21
153.312532329
 31
0.0
  0
LINE
  5
241
330
1F
100
AcDbEntity
  8
0
  6
Continuous
 62
     3
100
AcDbLine
 10
295.646294264
 20
158.862532329
 30
0.0
 11
295.646294264
 21
152.812532329
 31
0.0
  0
LINE
  5
242
330
1F
100
AcDbEntity
  8
0
  6
Continuous
 62
     2
100
AcDbLine
 10
305.146294264
 20
158.312532329
 30
0.0
 11
305.146294264
 21
153.312532329
 31
0.0
  0
LINE
  5
243
330
1F
100
AcDbEntity
  8
0
  6
Continuous
 62
     2
100
AcDbLine
 10
275.146294264
 20
158.712532329
 30
0.0
 11
275.146294264
 21
152.912532329
 31
0.0
  0
LWPOLYLINE
  5
245
330
1F
100
AcDbEntity
  8
0
  6
Continuous
 62
     7
100
AcDbPolyline
 90
     4
 70
   128
 43
0.0
 10
345.746294264
 20
161.670986026
 10
345.561751177
 20
162.226697095
 10
345.192664757
 20
162.534433822
 10
344.516006361
 20
162.780623113
  0
LINE
  5
246
330
1F
100
AcDbEntity
  8
0
  6
Continuous
 62
     7
100
AcDbLine
 10
342.393759752
 20
161.949734311
 30
0.0
 11
339.748640858
 21
162.257470589
 31
0.0
  0
LWPOLYLINE
  5
248
330
1F
100
AcDbEntity
  8
0
  6
Continuous
 62
     7
100
AcDbPolyline
 90
     3
 70
   128
 43
0.0
 10
342.393759752
 20
161.949734311
 10
342.540511612
 20
161.854564731
 10
342.607672323
 20
161.670986026
  0
LINE
  5
249
330
1F
100
AcDbEntity
  8
0
  6
Continuous
 62
     7
100
AcDbLine
 10
344.516006361
 20
162.780623113
 30
0.0
 11
339.410311905
 21
163.303775189
 31
0.0
  0
LINE
  5
24A
330
1F
100
AcDbEntity
  8
0
  6
Continuous
 62
     7
100
AcDbLine
 10
338.500017104
 20
163.888474701
 30
0.0
 11
337.318822518
 21
163.888474701
 31
0.0
  0
LINE
  5
24B
330
1F
100
AcDbEntity
  8
0
  6
Continuous
 62
     7
100
AcDbLine
 10
337.318822518
 20
163.303775189
 30
0.0
 11
337.318822518
 21
163.888474701
 31
0.0
  0
LINE
  5
24C
330
1F
100
AcDbEntity
  8
0
  6
Continuous
 62
     7
100
AcDbLine
 10
330.146294264
 20
162.693225629
 30
0.0
 11
330.146294264
 21
163.888474701
 31
0.0
  0
LINE
  5
24D
330
1F
100
AcDbEntity
  8
0
  6
Continuous
 62
     7
100
AcDbLine
 10
332.428428126
 20
162.257470589
 30
0.0
 11
330.146294264
 21
162.693225629
 31
0.0
  0
LINE
  5
24E
330
1F
100
AcDbEntity
  8
0
  6
Continuous
 62
     7
100
AcDbLine
 10
333.504930165
 20
163.303775189
 30
0.0
 11
330.146294264
 21
163.888474701
 31
0.0
  0
LINE
  5
24F
330
1F
100
AcDbEntity
  8
0
  6
Continuous
 62
     7
100
AcDbLine
 10
339.748640858
 20
162.257470589
 30
0.0
 11
332.428428126
 21
162.257470589
 31
0.0
  0
LINE
  5
250
330
1F
100
AcDbEntity
  8
0
  6
Continuous
 62
     7
100
AcDbLine
 10
339.410311905
 20
163.303775189
 30
0.0
 11
333.504930165
 21
163.303775189
 31
0.0
  0
LINE
  5
251
330
1F
100
AcDbEntity
  8
0
  6
Continuous
 62
     7
100
AcDbLine
 10
339.410311905
 20
163.303775189
 30
0.0
 11
338.500017104
 21
163.888474701
 31
0.0
  0
LINE
  5
252
330
1F
100
AcDbEntity
  8
0
  6
Continuous
 62
     7
100
AcDbLine
 10
344.946607225
 20
159.610935818
 30
0.0
 11
340.88665734
 21
159.610935818
 31
0.0
  0
LINE
  5
253
330
1F
100
AcDbEntity
  8
0
  6
Continuous
 62
     7
100
AcDbLine
 10
344.946607225
 20
150.471158989
 30
0.0
 11
340.88665734
 21
150.471158989
 31
0.0
  0
LINE
  5
254
330
1F
100
AcDbEntity
  8
0
  6
Continuous
 62
     7
100
AcDbLine
 10
340.117727278
 20
149.886459478
 30
0.0
 11
340.117727278
 21
160.411051127
 31
0.0
  0
LINE
  5
255
330
1F
100
AcDbEntity
  8
0
  6
Continuous
 62
     7
100
AcDbLine
 10
340.88665734
 20
150.471158989
 30
0.0
 11
340.88665734
 21
159.610935818
 31
0.0
  0
LINE
  5
256
330
1F
100
AcDbEntity
  8
0
  6
Continuous
 62
     7
100
AcDbLine
 10
344.946607225
 20
150.471158989
 30
0.0
 11
344.946607225
 21
159.610935818
 31
0.0
  0
LINE
  5
257
330
1F
100
AcDbEntity
  8
0
  6
Continuous
 62
     7
100
AcDbLine
 10
331.646091331
 20
148.932475806
 30
0.0
 11
331.923694615
 21
149.270986026
 31
0.0
  0
LINE
  5
258
330
1F
100
AcDbEntity
  8
0
  6
Continuous
 62
     7
100
AcDbLine
 10
345.746294264
 20
149.270986026
 30
0.0
 11
331.923694615
 21
149.270986026
 31
0.0
  0
LINE
  5
259
330
1F
100
AcDbEntity
  8
0
  6
Continuous
 62
     7
100
AcDbLine
 10
340.117727278
 20
149.886459478
 30
0.0
 11
330.146294264
 21
149.886459478
 31
0.0
  0
LINE
  5
25A
330
1F
100
AcDbEntity
  8
0
  6
Continuous
 62
     7
100
AcDbLine
 10
340.117727278
 20
160.411051127
 30
0.0
 11
330.146294264
 21
160.411051127
 31
0.0
  0
LINE
  5
25B
330
1F
100
AcDbEntity
  8
0
  6
Continuous
 62
     7
100
AcDbLine
 10
345.746294264
 20
149.270986026
 30
0.0
 11
345.746294264
 21
161.670986026
 31
0.0
  0
LINE
  5
25C
330
1F
100
AcDbEntity
  8
0
  6
Continuous
 62
     7
100
AcDbLine
 10
340.117727278
 20
149.270986026
 30
0.0
 11
340.117727278
 21
161.670986026
 31
0.0
  0
LINE
  5
25D
330
1F
100
AcDbEntity
  8
0
  6
Continuous
 62
     3
100
AcDbLine
 10
305.329974354
 20
157.634940735
 30
0.0
 11
330.146294264
 21
159.28036147
 31
0.0
  0
LINE
  5
25E
330
1F
100
AcDbEntity
  8
0
  6
Continuous
 62
     3
100
AcDbLine
 10
305.396133068
 20
156.637131623
 30
0.0
 11
330.146294264
 21
158.278165772
 31
0.0
  0
LINE
  5
25F
330
1F
100
AcDbEntity
  8
0
  6
Continuous
 62
     7
100
AcDbLine
 10
345.746294264
 20
161.670986026
 30
0.0
 11
330.146294264
 21
161.670986026
 31
0.0
  0
LINE
  5
260
330
1F
100
AcDbEntity
  8
0
  6
Continuous
 62
     3
100
AcDbLine
 10
330.146294264
 20
155.316269696
 30
0.0
 11
305.185713165
 21
156.300953689
 31
0.0
  0
LINE
  5
261
330
1F
100
AcDbEntity
  8
0
  6
Continuous
 62
     3
100
AcDbLine
 10
330.146294264
 20
154.315491865
 30
0.0
 11
305.146294264
 21
155.301730916
 31
0.0
  0
LINE
  5
262
330
1F
100
AcDbEntity
  8
0
  6
Continuous
 62
     3
100
AcDbLine
 10
330.146294264
 20
152.65000466
 30
0.0
 11
305.146294264
 21
155.301730916
 31
0.0
  0
LINE
  5
263
330
1F
100
AcDbEntity
  8
0
  6
Continuous
 62
     3
100
AcDbLine
 10
330.146294264
 20
151.644395072
 30
0.0
 11
305.040816899
 21
154.307309212
 31
0.0
  0
LINE
  5
264
330
1F
100
AcDbEntity
  8
0
  6
Continuous
 62
     7
100
AcDbLine
 10
330.146294264
 20
148.932475806
 30
0.0
 11
330.146294264
 21
161.670986026
 31
0.0
  0
LINE
  5
265
330
1F
100
AcDbEntity
  8
0
  6
Continuous
 62
     7
100
AcDbLine
 10
331.646091331
 20
148.932475806
 30
0.0
 11
330.146294264
 21
148.932475806
 31
0.0
  0
LINE
  5
266
330
1F
100
AcDbEntity
  8
0
  6
Continuous
 62
     3
100
AcDbLine
 10
305.146294264
 20
130.825788544
 30
0.0
 11
302.731479699
 21
131.472836157
 31
0.0
  0
LWPOLYLINE
  5
268
330
1F
100
AcDbEntity
  8
0
  6
Continuous
 62
     3
100
AcDbPolyline
 90
     3
 70
   128
 43
0.0
 10
305.146294264
 20
130.825788544
 10
275.146294264
 20
130.825788544
 10
277.56110883
 20
131.472836157
  0
LINE
  5
269
330
1F
100
AcDbEntity
  8
0
  6
Continuous
 62
     3
100
AcDbLine
 10
305.146294264
 20
130.825788544
 30
0.0
 11
302.731479699
 21
130.178740932
 31
0.0
  0
LINE
  5
26A
330
1F
100
AcDbEntity
  8
0
  6
Continuous
 62
     3
100
AcDbLine
 10
275.146294264
 20
130.825788544
 30
0.0
 11
277.56110883
 21
130.178740932
 31
0.0
  0
LINE
  5
26B
330
1F
100
AcDbEntity
  8
0
  6
Continuous
 62
     3
100
AcDbLine
 10
305.146294264
 20
152.912532329
 30
0.0
 11
305.146294264
 21
128.825788544
 31
0.0
  0
LINE
  5
26C
330
1F
100
AcDbEntity
  8
0
  6
Continuous
 62
     3
100
AcDbLine
 10
275.146294264
 20
152.112532329
 30
0.0
 11
275.146294264
 21
128.825788544
 31
0.0
  0
LINE
  5
26D
330
1F
100
AcDbEntity
  8
0
  6
Continuous
 62
     3
100
AcDbLine
 10
305.146294264
 20
152.312532329
 30
0.0
 11
305.146294264
 21
128.832475806
 31
0.0
  0
LINE
  5
26E
330
1F
100
AcDbEntity
  8
0
  6
Continuous
 62
     3
100
AcDbLine
 10
305.146294264
 20
130.832475806
 30
0.0
 11
307.56110883
 21
130.185428193
 31
0.0
  0
LINE
  5
26F
330
1F
100
AcDbEntity
  8
0
  6
Continuous
 62
     3
100
AcDbLine
 10
305.146294264
 20
130.832475806
 30
0.0
 11
307.56110883
 21
131.479523419
 31
0.0
  0
LWPOLYLINE
  5
271
330
1F
100
AcDbEntity
  8
0
  6
Continuous
 62
     3
100
AcDbPolyline
 90
     3
 70
   128
 43
0.0
 10
305.146294264
 20
130.832475806
 10
330.146294264
 20
130.832475806
 10
327.731479699
 20
131.479523419
  0
LINE
  5
272
330
1F
100
AcDbEntity
  8
0
  6
Continuous
 62
     3
100
AcDbLine
 10
330.146294264
 20
130.832475806
 30
0.0
 11
327.731479699
 21
130.185428193
 31
0.0
  0
LINE
  5
273
330
1F
100
AcDbEntity
  8
0
  6
Continuous
 62
     3
100
AcDbLine
 10
330.146294264
 20
147.932475806
 30
0.0
 11
330.146294264
 21
128.832475806
 31
0.0
  0
MTEXT
  5
274
330
1F
100
AcDbEntity
  8
0
  6
Continuous
 62
     3
100
AcDbMText
 10
286.096294264
 20
131.825788544
 30
0.0
 40
3.0
 41
16.2
 71
     7
 72
     1
  1
\T1.167;\W0.600;（１５）
  7
KANJI7
 73
     1
 44
1.0
  0
MTEXT
  5
275
330
1F
100
AcDbEntity
  8
0
  6
Continuous
 62
     3
100
AcDbMText
 10
313.596294264
 20
131.832475806
 30
0.0
 40
3.0
 41
16.2
 71
     7
 72
     1
  1
\T1.167;\W0.600;（１５）
  7
KANJI7
 73
     1
 44
1.0
  0
MTEXT
  5
276
330
1F
100
AcDbEntity
  8
0
  6
Continuous
 62
     3
100
AcDbMText
 10
348.795107441
 20
187.695084458
 30
0.0
 40
3.0
 41
104.4
 71
     7
 72
     1
  1
\T1.222;\W0.900;３７１０４－３１２２－０００ＦＬ
  7
KANJI11
 73
     1
 44
1.0
  0
MTEXT
  5
278
330
1F
100
AcDbEntity
  8
0
  6
Continuous
 62
     3
100
AcDbMText
 10
348.795107441
 20
191.695084458
 30
0.0
 40
3.0
 41
91.2
 71
     7
 72
     1
  1
\T1.222;\W0.900;ｅ－ＣＯＮプラグ４極＜３Ｍ＞
  7
KANJI11
 73
     1
 44
1.0
  0
LINE
  5
279
330
1F
100
AcDbEntity
  8
0
  6
Continuous
 62
     3
100
AcDbLine
 10
398.926016531
 20
182.735084458
 30
0.0
 11
348.585107441
 21
182.735084458
 31
0.0
  0
MTEXT
  5
27A
330
1F
100
AcDbEntity
  8
0
  6
Continuous
 62
     3
100
AcDbMText
 10
348.795107441
 20
178.695084458
 30
0.0
 40
3.0
 41
84.6
 71
     7
 72
     1
  1
\T1.222;\W0.900;ボディ色：黒、カバー色：黄
  7
KANJI11
 73
     1
 44
1.0
  0
LINE
  5
27B
330
1F
100
AcDbEntity
  8
0
  6
Continuous
 62
     3
100
AcDbLine
 10
338.500017104
 20
163.888474701
 30
0.0
 11
340.209853459
 21
165.712333149
 31
0.0
  0
LINE
  5
27C
330
1F
100
AcDbEntity
  8
0
  6
Continuous
 62
     3
100
AcDbLine
 10
338.500017104
 20
163.888474701
 30
0.0
 11
339.0688496
 21
166.322900627
 31
0.0
  0
LINE
  5
27D
330
1F
100
AcDbEntity
  8
0
  6
Continuous
 62
     3
100
AcDbLine
 10
338.500017104
 20
163.888474701
 30
0.0
 11
348.585107441
 21
182.735084458
 31
0.0
  0
LINE
  5
27E
330
1F
100
AcDbEntity
  8
2
  6
Continuous
 62
     7
100
AcDbLine
 10
210.833540922
 20
157.812532329
 30
0.0
 11
204.219830441
 21
164.426233458
 31
0.0
  0
LINE
  5
27F
330
1F
100
AcDbEntity
  8
0
  6
Continuous
 62
     7
100
AcDbLine
 10
234.828939725
 20
157.812532329
 30
0.0
 11
210.833540922
 21
157.812532329
 31
0.0
  0
LINE
  5
280
330
1F
100
AcDbEntity
  8
2
  6
Continuous
 62
     7
100
AcDbLine
 10
201.391417441
 20
161.597803458
 30
0.0
 11
209.176668614
 21
153.812532329
 31
0.0
  0
LINE
  5
281
330
1F
100
AcDbEntity
  8
0
  6
Continuous
 62
     7
100
AcDbLine
 10
209.176668614
 20
153.812532329
 30
0.0
 11
237.178052152
 21
153.812532329
 31
0.0
  0
LINE
  5
282
330
1F
100
AcDbEntity
  8
2
  6
Continuous
 62
     7
100
AcDbLine
 10
149.956669441
 20
160.691486458
 30
0.0
 11
149.956669441
 21
190.691486558
 31
0.0
  0
ARC
  5
283
330
1F
100
AcDbEntity
  8
2
  6
Continuous
 62
     7
100
AcDbCircle
 10
150.456669441
 20
190.691486558
 30
0.0
 40
0.5
100
AcDbArc
 50
90.000003
 51
180.00001
  0
ARC
  5
284
330
1F
100
AcDbEntity
  8
2
  6
Continuous
 62
     7
100
AcDbCircle
 10
149.956666441
 20
190.392361345
 30
0.0
 40
0.2
100
AcDbArc
 50
90.0
 51
180.0
  0
ARC
  5
285
330
1F
100
AcDbEntity
  8
2
  6
Continuous
 62
     7
100
AcDbCircle
 10
149.956666441
 20
186.192361345
 30
0.0
 40
0.2
100
AcDbArc
 50
180.0
 51
270.0
  0
POINT
  5
286
330
1F
100
AcDbEntity
  8
2
  6
Continuous
 62
     7
100
AcDbPoint
 10
149.956666441
 20
185.992361345
 30
0.0
  0
LINE
  5
287
330
1F
100
AcDbEntity
  8
2
  6
Continuous
 62
     7
100
AcDbLine
 10
149.756666441
 20
186.192361345
 30
0.0
 11
149.756666441
 21
190.392361345
 31
0.0
  0
POINT
  5
288
330
1F
100
AcDbEntity
  8
2
  6
Continuous
 62
     7
100
AcDbPoint
 10
149.956666441
 20
190.592361345
 30
0.0
  0
LINE
  5
289
330
1F
100
AcDbEntity
  8
2
  6
Continuous
 62
     7
100
AcDbLine
 10
149.756666441
 20
160.992361345
 30
0.0
 11
149.756666441
 21
165.192361345
 31
0.0
  0
POINT
  5
28A
330
1F
100
AcDbEntity
  8
2
  6
Continuous
 62
     7
100
AcDbPoint
 10
149.956666441
 20
160.792361345
 30
0.0
  0
ARC
  5
28B
330
1F
100
AcDbEntity
  8
2
  6
Continuous
 62
     7
100
AcDbCircle
 10
149.956666441
 20
160.992361345
 30
0.0
 40
0.2
100
AcDbArc
 50
180.0
 51
270.0
  0
POINT
  5
28C
330
1F
100
AcDbEntity
  8
2
  6
Continuous
 62
     7
100
AcDbPoint
 10
149.956666441
 20
165.392361345
 30
0.0
  0
ARC
  5
28D
330
1F
100
AcDbEntity
  8
2
  6
Continuous
 62
     7
100
AcDbCircle
 10
149.956666441
 20
165.192361345
 30
0.0
 40
0.2
100
AcDbArc
 50
90.0
 51
180.0
  0
LINE
  5
28E
330
1F
100
AcDbEntity
  8
5
  6
LTYPE2
 62
     3
100
AcDbLine
 10
162.24236105
 20
188.391586483
 30
0.0
 11
147.064338627
 21
188.391586483
 31
0.0
  0
LINE
  5
28F
330
1F
100
AcDbEntity
  8
5
  6
LTYPE2
 62
     3
100
AcDbLine
 10
162.29371204
 20
162.991584483
 30
0.0
 11
147.497849441
 21
162.991584483
 31
0.0
  0
LINE
  5
290
330
1F
100
AcDbEntity
  8
0
  6
Continuous
 62
     7
100
AcDbLine
 10
149.756666441
 20
191.191586483
 30
0.0
 11
149.756666441
 21
160.191586483
 31
0.0
  0
LINE
  5
291
330
1F
100
AcDbEntity
  8
0
  6
LTYPE2
 62
     3
100
AcDbLine
 10
147.954506117
 20
188.391586483
 30
0.0
 11
162.654506117
 21
188.391586483
 31
0.0
  0
LINE
  5
292
330
1F
100
AcDbEntity
  8
0
  6
LTYPE2
 62
     3
100
AcDbLine
 10
148.454506117
 20
162.991586483
 30
0.0
 11
162.454506117
 21
162.991586483
 31
0.0
  0
LWPOLYLINE
  5
294
330
1F
100
AcDbEntity
  8
7
  6
LTYPE3
 62
     3
100
AcDbPolyline
 90
     3
 70
   128
 43
0.0
 10
148.056666151
 20
160.041501653
 10
148.056666151
 20
165.941501653
 10
147.356666151
 20
165.941501653
  0
LINE
  5
295
330
1F
100
AcDbEntity
  8
7
  6
LTYPE3
 62
     3
100
AcDbLine
 10
148.556666151
 20
165.991501653
 30
0.0
 11
148.056666151
 21
165.991501653
 31
0.0
  0
LINE
  5
296
330
1F
100
AcDbEntity
  8
7
  6
LTYPE3
 62
     3
100
AcDbLine
 10
147.356666151
 20
165.941501653
 30
0.0
 11
147.356666151
 21
160.041501653
 31
0.0
  0
LINE
  5
297
330
1F
100
AcDbEntity
  8
7
  6
LTYPE3
 62
     3
100
AcDbLine
 10
148.056666151
 20
159.991501653
 30
0.0
 11
148.556666151
 21
159.991501653
 31
0.0
  0
LINE
  5
298
330
1F
100
AcDbEntity
  8
7
  6
LTYPE3
 62
     3
100
AcDbLine
 10
147.356666151
 20
160.041501653
 30
0.0
 11
148.056666151
 21
160.041501653
 31
0.0
  0
LINE
  5
299
330
1F
100
AcDbEntity
  8
7
  6
LTYPE3
 62
     3
100
AcDbLine
 10
148.056666151
 20
191.341544625
 30
0.0
 11
147.356666151
 21
191.341544625
 31
0.0
  0
LWPOLYLINE
  5
29B
330
1F
100
AcDbEntity
  8
7
  6
LTYPE3
 62
     3
100
AcDbPolyline
 90
     3
 70
   128
 43
0.0
 10
148.556666151
 20
191.391544625
 10
148.056666151
 20
191.391544625
 10
148.056666151
 20
185.391544625
  0
LWPOLYLINE
  5
29D
330
1F
100
AcDbEntity
  8
7
  6
LTYPE3
 62
     3
100
AcDbPolyline
 90
     3
 70
   128
 43
0.0
 10
147.356666151
 20
191.341544625
 10
147.356666151
 20
185.441544625
 10
148.056666151
 20
185.441544625
  0
LINE
  5
29E
330
1F
100
AcDbEntity
  8
7
  6
LTYPE3
 62
     3
100
AcDbLine
 10
148.056666151
 20
185.391544625
 30
0.0
 11
148.556666151
 21
185.391544625
 31
0.0
  0
LINE
  5
29F
330
1F
100
AcDbEntity
  8
7
  6
LTYPE3
 62
     3
100
AcDbLine
 10
148.056666151
 20
188.18947203
 30
0.0
 11
147.356666151
 21
188.593617219
 31
0.0
  0
LINE
  5
2A0
330
1F
100
AcDbEntity
  8
7
  6
LTYPE3
 62
     3
100
AcDbLine
 10
148.056666151
 20
162.789429059
 30
0.0
 11
147.356666151
 21
163.193574247
 31
0.0
  0
ARC
  5
2A1
330
1F
100
AcDbEntity
  8
7
  6
LTYPE3
 62
     3
100
AcDbCircle
 10
146.384551931
 20
186.591544625
 30
0.0
 40
1.0
100
AcDbArc
 50
206.74368395
 51
270.0
  0
LINE
  5
2A2
330
1F
100
AcDbEntity
  8
7
  6
LTYPE3
 62
     3
100
AcDbLine
 10
146.384551931
 20
185.591544625
 30
0.0
 11
147.356666151
 21
185.591544625
 31
0.0
  0
ARC
  5
2A3
330
1F
100
AcDbEntity
  8
7
  6
LTYPE3
 62
     3
100
AcDbCircle
 10
149.956666151
 20
188.391544625
 30
0.0
 40
5.0
100
AcDbArc
 50
153.25631605
 51
206.74368395
  0
LINE
  5
2A4
330
1F
100
AcDbEntity
  8
7
  6
LTYPE3
 62
     3
100
AcDbLine
 10
146.384551931
 20
191.191544625
 30
0.0
 11
147.356666151
 21
191.191544625
 31
0.0
  0
LINE
  5
2A5
330
1F
100
AcDbEntity
  8
7
  6
LTYPE3
 62
     3
100
AcDbLine
 10
144.956666151
 20
188.391544625
 30
0.0
 11
146.031841397
 21
190.191544625
 31
0.0
  0
LINE
  5
2A6
330
1F
100
AcDbEntity
  8
7
  6
LTYPE3
 62
     3
100
AcDbLine
 10
144.956666151
 20
188.391544625
 30
0.0
 11
146.031841397
 21
186.591544625
 31
0.0
  0
ARC
  5
2A7
330
1F
100
AcDbEntity
  8
7
  6
LTYPE3
 62
     3
100
AcDbCircle
 10
146.384551931
 20
190.191544625
 30
0.0
 40
1.0
100
AcDbArc
 50
90.0
 51
153.25631605
  0
ARC
  5
2A8
330
1F
100
AcDbEntity
  8
7
  6
LTYPE3
 62
     3
100
AcDbCircle
 10
146.384551931
 20
161.191501653
 30
0.0
 40
1.0
100
AcDbArc
 50
206.74368395
 51
270.0
  0
LINE
  5
2A9
330
1F
100
AcDbEntity
  8
7
  6
LTYPE3
 62
     3
100
AcDbLine
 10
146.384551931
 20
160.191501653
 30
0.0
 11
147.356666151
 21
160.191501653
 31
0.0
  0
ARC
  5
2AA
330
1F
100
AcDbEntity
  8
7
  6
LTYPE3
 62
     3
100
AcDbCircle
 10
149.956666151
 20
162.991501653
 30
0.0
 40
5.0
100
AcDbArc
 50
153.25631605
 51
206.74368395
  0
LINE
  5
2AB
330
1F
100
AcDbEntity
  8
7
  6
LTYPE3
 62
     3
100
AcDbLine
 10
146.384551931
 20
165.791501653
 30
0.0
 11
147.356666151
 21
165.791501653
 31
0.0
  0
LINE
  5
2AC
330
1F
100
AcDbEntity
  8
7
  6
LTYPE3
 62
     3
100
AcDbLine
 10
144.956666151
 20
162.991501653
 30
0.0
 11
146.031841397
 21
164.791501653
 31
0.0
  0
LINE
  5
2AD
330
1F
100
AcDbEntity
  8
7
  6
LTYPE3
 62
     3
100
AcDbLine
 10
144.956666151
 20
162.991501653
 30
0.0
 11
146.031841397
 21
161.191501653
 31
0.0
  0
ARC
  5
2AE
330
1F
100
AcDbEntity
  8
7
  6
LTYPE3
 62
     3
100
AcDbCircle
 10
146.384551931
 20
164.791501653
 30
0.0
 40
1.0
100
AcDbArc
 50
90.0
 51
153.25631605
  0
LINE
  5
2AF
330
1F
100
AcDbEntity
  8
2
  6
Continuous
 62
     1
100
AcDbLine
 10
147.556666452
 20
154.191543316
 30
0.0
 11
135.756666008
 21
154.191543316
 31
0.0
  0
LINE
  5
2B0
330
1F
100
AcDbEntity
  8
2
  6
Continuous
 62
     1
100
AcDbLine
 10
147.556666452
 20
152.991543492
 30
0.0
 11
135.756666008
 21
152.991543492
 31
0.0
  0
LINE
  5
2B1
330
1F
100
AcDbEntity
  8
2
  6
Continuous
 62
     1
100
AcDbLine
 10
146.556666289
 20
154.191543316
 30
0.0
 11
148.556666151
 21
156.191543644
 31
0.0
  0
ARC
  5
2B2
330
1F
100
AcDbEntity
  8
2
  6
Continuous
 62
     1
100
AcDbCircle
 10
147.556666224
 20
155.191544058
 30
0.0
 40
2.2
100
AcDbArc
 50
270.0
 51
0.0
  0
ARC
  5
2B3
330
1F
100
AcDbEntity
  8
2
  6
Continuous
 62
     1
100
AcDbCircle
 10
147.556666224
 20
155.191544058
 30
0.0
 40
1.0
100
AcDbArc
 50
270.0
 51
0.0
  0
LINE
  5
2B4
330
1F
100
AcDbEntity
  8
2
  6
Continuous
 62
     1
100
AcDbLine
 10
135.756666008
 20
154.191543316
 30
0.0
 11
135.756666008
 21
152.991543492
 31
0.0
  0
POINT
  5
2B5
330
1F
100
AcDbEntity
  8
10
  6
Continuous
 62
     1
100
AcDbPoint
 10
149.756666441
 20
155.19154348
 30
0.0
  0
POINT
  5
2B6
330
1F
100
AcDbEntity
  8
10
  6
Continuous
 62
     1
100
AcDbPoint
 10
135.756666008
 20
154.191543316
 30
0.0
  0
POINT
  5
2B7
330
1F
100
AcDbEntity
  8
10
  6
Continuous
 62
     1
100
AcDbPoint
 10
135.756666008
 20
152.991543492
 30
0.0
  0
POINT
  5
2B8
330
1F
100
AcDbEntity
  8
10
  6
Continuous
 62
     1
100
AcDbPoint
 10
135.756666008
 20
152.991543492
 30
0.0
  0
LINE
  5
2B9
330
1F
100
AcDbEntity
  8
2
  6
Continuous
 62
     1
100
AcDbLine
 10
149.756666441
 20
193.991544625
 30
0.0
 11
148.556666151
 21
193.991544625
 31
0.0
  0
LINE
  5
2BA
330
1F
100
AcDbEntity
  8
2
  6
Continuous
 62
     1
100
AcDbLine
 10
149.756666441
 20
193.991544625
 30
0.0
 11
149.756666441
 21
155.19154348
 31
0.0
  0
LINE
  5
2BB
330
1F
100
AcDbEntity
  8
2
  6
Continuous
 62
     1
100
AcDbLine
 10
148.556666151
 20
193.991544625
 30
0.0
 11
148.556666151
 21
155.19154348
 31
0.0
  0
LINE
  5
2BC
330
1F
100
AcDbEntity
  8
5
  6
LTYPE2
 62
     3
100
AcDbLine
 10
161.030023741
 20
188.391586483
 30
0.0
 11
143.150638445
 21
188.391586483
 31
0.0
  0
LINE
  5
2BD
330
1F
100
AcDbEntity
  8
10
  6
LTYPE2
 62
     3
100
AcDbLine
 10
143.150638445
 20
162.991543511
 30
0.0
 11
143.150638445
 21
162.991543511
 31
0.0
  0
LINE
  5
2BE
330
1F
100
AcDbEntity
  8
5
  6
LTYPE2
 62
     3
100
AcDbLine
 10
161.030023741
 20
162.991543511
 30
0.0
 11
143.150638445
 21
162.991543511
 31
0.0
  0
LINE
  5
2BF
330
1F
100
AcDbEntity
  8
0
  6
Continuous
 62
     3
100
AcDbLine
 10
131.606666008
 20
152.991543492
 30
0.0
 11
132.253713621
 21
150.576728926
 31
0.0
  0
LWPOLYLINE
  5
2C1
330
1F
100
AcDbEntity
  8
0
  6
Continuous
 62
     3
100
AcDbPolyline
 90
     4
 70
   128
 43
0.0
 10
131.606666008
 20
149.241543492
 10
131.606666008
 20
152.991543492
 10
131.606666008
 20
154.191543316
 10
131.606666008
 20
163.941543316
  0
LINE
  5
2C2
330
1F
100
AcDbEntity
  8
0
  6
Continuous
 62
     3
100
AcDbLine
 10
131.606666008
 20
154.191543316
 30
0.0
 11
132.253713621
 21
156.606357882
 31
0.0
  0
LINE
  5
2C3
330
1F
100
AcDbEntity
  8
0
  6
Continuous
 62
     3
100
AcDbLine
 10
119.356666151
 20
152.991543492
 30
0.0
 11
120.003713763
 21
155.406358058
 31
0.0
  0
LINE
  5
2C4
330
1F
100
AcDbEntity
  8
0
  6
Continuous
 62
     3
100
AcDbLine
 10
119.356666151
 20
152.991543492
 30
0.0
 11
118.709618538
 21
155.406358058
 31
0.0
  0
LWPOLYLINE
  5
2C6
330
1F
100
AcDbEntity
  8
0
  6
Continuous
 62
     3
100
AcDbPolyline
 90
     3
 70
   128
 43
0.0
 10
119.356666151
 20
152.991543492
 10
119.356666151
 20
193.991544625
 10
118.709618538
 20
191.576730059
  0
LINE
  5
2C7
330
1F
100
AcDbEntity
  8
0
  6
Continuous
 62
     3
100
AcDbLine
 10
119.356666151
 20
193.991544625
 30
0.0
 11
120.003713763
 21
191.576730059
 31
0.0
  0
LINE
  5
2C8
330
1F
100
AcDbEntity
  8
0
  6
Continuous
 62
     3
100
AcDbLine
 10
147.556666151
 20
193.991544625
 30
0.0
 11
117.356666151
 21
193.991544625
 31
0.0
  0
MTEXT
  5
2C9
330
1F
100
AcDbEntity
  8
0
  6
Continuous
 62
     3
100
AcDbMText
 10
118.356666151
 20
171.541544058
 30
0.0
 40
3.0
 41
7.8
 71
     7
 72
     1
  1
\T1.167;\W0.600;４１
  7
KANJI7
 11
0.0
 21
1.0
 31
0.0
 73
     1
 44
1.0
  0
ARC
  5
2CA
330
1F
100
AcDbEntity
  8
2
  6
Continuous
 62
     7
100
AcDbCircle
 10
155.156666441
 20
171.59246137
 30
0.0
 40
3.6
100
AcDbArc
 50
180.0
 51
0.0
  0
ARC
  5
2CB
330
1F
100
AcDbEntity
  8
2
  6
Continuous
 62
     7
100
AcDbCircle
 10
155.156666441
 20
179.79246137
 30
0.0
 40
3.6
100
AcDbArc
 50
0.0
 51
180.0
  0
LINE
  5
2CC
330
1F
100
AcDbEntity
  8
2
  6
Continuous
 62
     7
100
AcDbLine
 10
149.956666441
 20
166.39246137
 30
0.0
 11
160.356666441
 21
166.39246137
 31
0.0
  0
LINE
  5
2CD
330
1F
100
AcDbEntity
  8
2
  6
Continuous
 62
     7
100
AcDbLine
 10
149.956666441
 20
184.99246137
 30
0.0
 11
160.356666441
 21
184.99246137
 31
0.0
  0
LINE
  5
2CE
330
1F
100
AcDbEntity
  8
2
  6
Continuous
 62
     7
100
AcDbLine
 10
150.456666441
 20
160.191586483
 30
0.0
 11
159.856666441
 21
160.191586483
 31
0.0
  0
LINE
  5
2CF
330
1F
100
AcDbEntity
  8
2
  6
Continuous
 62
     7
100
AcDbLine
 10
150.456666441
 20
191.191586483
 30
0.0
 11
159.856666441
 21
191.191586483
 31
0.0
  0
ARC
  5
2D0
330
1F
100
AcDbEntity
  8
2
  6
Continuous
 62
     7
100
AcDbCircle
 10
154.156666441
 20
157.023946082
 30
0.0
 40
1.04714669
100
AcDbArc
 50
197.258480709
 51
342.741519291
  0
LINE
  5
2D1
330
1F
100
AcDbEntity
  8
2
  6
Continuous
 62
     7
100
AcDbLine
 10
153.556666441
 20
193.291596583
 30
0.0
 11
156.756666441
 21
193.291596583
 31
0.0
  0
LINE
  5
2D2
330
1F
100
AcDbEntity
  8
2
  6
Continuous
 62
     7
100
AcDbLine
 10
151.556666441
 20
179.79246137
 30
0.0
 11
151.556666441
 21
171.59246137
 31
0.0
  0
LINE
  5
2D3
330
1F
100
AcDbEntity
  8
2
  6
Continuous
 62
     7
100
AcDbLine
 10
149.956666441
 20
160.691586483
 30
0.0
 11
149.956666441
 21
190.691586483
 31
0.0
  0
LINE
  5
2D4
330
1F
100
AcDbEntity
  8
2
  6
Continuous
 62
     7
100
AcDbLine
 10
153.156666441
 20
160.191586483
 30
0.0
 11
153.156666441
 21
156.713275534
 31
0.0
  0
ARC
  5
2D5
330
1F
100
AcDbEntity
  8
2
  6
Continuous
 62
     7
100
AcDbCircle
 10
150.456666441
 20
160.691586483
 30
0.0
 40
0.5
100
AcDbArc
 50
180.0
 51
270.0
  0
ARC
  5
2D6
330
1F
100
AcDbEntity
  8
2
  6
Continuous
 62
     7
100
AcDbCircle
 10
153.556666441
 20
190.891596583
 30
0.0
 40
2.4
100
AcDbArc
 50
90.0
 51
172.819244219
  0
ARC
  5
2D7
330
1F
100
AcDbEntity
  8
2
  6
Continuous
 62
     7
100
AcDbCircle
 10
150.456666441
 20
190.691586483
 30
0.0
 40
0.5
100
AcDbArc
 50
90.0
 51
180.0
  0
LINE
  5
2D8
330
1F
100
AcDbEntity
  8
2
  6
Continuous
 62
     7
100
AcDbLine
 10
158.756666441
 20
171.59246137
 30
0.0
 11
158.756666441
 21
179.79246137
 31
0.0
  0
LINE
  5
2D9
330
1F
100
AcDbEntity
  8
2
  6
Continuous
 62
     7
100
AcDbLine
 10
160.356666441
 20
190.691586483
 30
0.0
 11
160.356666441
 21
160.691586483
 31
0.0
  0
POINT
  5
2DA
330
1F
100
AcDbEntity
  8
10
  6
Continuous
 62
     7
100
AcDbPoint
 10
159.856666441
 20
160.191586483
 30
0.0
  0
ARC
  5
2DB
330
1F
100
AcDbEntity
  8
2
  6
Continuous
 62
     7
100
AcDbCircle
 10
156.156666441
 20
156.402604986
 30
0.0
 40
1.04714669
100
AcDbArc
 50
17.258480709
 51
162.741519291
  0
LINE
  5
2DC
330
1F
100
AcDbEntity
  8
2
  6
Continuous
 62
     7
100
AcDbLine
 10
157.156666441
 20
160.191586483
 30
0.0
 11
157.156666441
 21
156.713275534
 31
0.0
  0
ARC
  5
2DD
330
1F
100
AcDbEntity
  8
2
  6
Continuous
 62
     7
100
AcDbCircle
 10
156.156666441
 20
157.023946082
 30
0.0
 40
1.04714669
100
AcDbArc
 50
197.258480709
 51
342.741519291
  0
ARC
  5
2DE
330
1F
100
AcDbEntity
  8
2
  6
Continuous
 62
     7
100
AcDbCircle
 10
159.856666441
 20
160.691586483
 30
0.0
 40
0.5
100
AcDbArc
 50
270.0
 51
0.0
  0
ARC
  5
2DF
330
1F
100
AcDbEntity
  8
2
  6
Continuous
 62
     7
100
AcDbCircle
 10
156.756666441
 20
190.891596583
 30
0.0
 40
2.4
100
AcDbArc
 50
7.180755781
 51
90.0
  0
POINT
  5
2E0
330
1F
100
AcDbEntity
  8
2
  6
Continuous
 62
     7
100
AcDbPoint
 10
155.156666441
 20
183.39246137
 30
0.0
  0
ARC
  5
2E1
330
1F
100
AcDbEntity
  8
2
  6
Continuous
 62
     7
100
AcDbCircle
 10
159.856666441
 20
190.691586483
 30
0.0
 40
0.5
100
AcDbArc
 50
0.0
 51
90.0
  0
LINE
  5
2E2
330
1F
100
AcDbEntity
  8
2
  6
Continuous
 62
     7
100
AcDbLine
 10
149.756666441
 20
186.19246137
 30
0.0
 11
149.756666441
 21
190.39246137
 31
0.0
  0
ARC
  5
2E3
330
1F
100
AcDbEntity
  8
2
  6
Continuous
 62
     7
100
AcDbCircle
 10
149.956666441
 20
186.19246137
 30
0.0
 40
0.2
100
AcDbArc
 50
180.0
 51
270.0
  0
POINT
  5
2E4
330
1F
100
AcDbEntity
  8
2
  6
Continuous
 62
     7
100
AcDbPoint
 10
149.956666441
 20
185.99246137
 30
0.0
  0
ARC
  5
2E5
330
1F
100
AcDbEntity
  8
2
  6
Continuous
 62
     7
100
AcDbCircle
 10
149.956666441
 20
190.39246137
 30
0.0
 40
0.2
100
AcDbArc
 50
90.0
 51
180.0
  0
POINT
  5
2E6
330
1F
100
AcDbEntity
  8
2
  6
Continuous
 62
     7
100
AcDbPoint
 10
149.956666441
 20
190.59246137
 30
0.0
  0
LINE
  5
2E7
330
1F
100
AcDbEntity
  8
2
  6
Continuous
 62
     7
100
AcDbLine
 10
160.556666441
 20
186.19246137
 30
0.0
 11
160.556666441
 21
190.39246137
 31
0.0
  0
ARC
  5
2E8
330
1F
100
AcDbEntity
  8
2
  6
Continuous
 62
     7
100
AcDbCircle
 10
160.356666441
 20
186.19246137
 30
0.0
 40
0.2
100
AcDbArc
 50
270.0
 51
0.0
  0
LINE
  5
2E9
330
1F
100
AcDbEntity
  8
2
  6
Continuous
 62
     7
100
AcDbLine
 10
160.356666441
 20
185.99246137
 30
0.0
 11
160.356666441
 21
185.99246137
 31
0.0
  0
ARC
  5
2EA
330
1F
100
AcDbEntity
  8
2
  6
Continuous
 62
     7
100
AcDbCircle
 10
160.356666441
 20
190.39246137
 30
0.0
 40
0.2
100
AcDbArc
 50
0.0
 51
90.0
  0
LINE
  5
2EB
330
1F
100
AcDbEntity
  8
2
  6
Continuous
 62
     7
100
AcDbLine
 10
160.356666441
 20
190.59246137
 30
0.0
 11
160.356666441
 21
190.59246137
 31
0.0
  0
ARC
  5
2EC
330
1F
100
AcDbEntity
  8
2
  6
Continuous
 62
     7
100
AcDbCircle
 10
149.956666441
 20
165.19246137
 30
0.0
 40
0.2
100
AcDbArc
 50
90.0
 51
180.0
  0
ARC
  5
2ED
330
1F
100
AcDbEntity
  8
2
  6
Continuous
 62
     7
100
AcDbCircle
 10
149.956666441
 20
160.99246137
 30
0.0
 40
0.2
100
AcDbArc
 50
180.0
 51
270.0
  0
LINE
  5
2EE
330
1F
100
AcDbEntity
  8
2
  6
Continuous
 62
     7
100
AcDbLine
 10
149.756666441
 20
160.99246137
 30
0.0
 11
149.756666441
 21
165.19246137
 31
0.0
  0
POINT
  5
2EF
330
1F
100
AcDbEntity
  8
2
  6
Continuous
 62
     7
100
AcDbPoint
 10
149.956666441
 20
160.79246137
 30
0.0
  0
POINT
  5
2F0
330
1F
100
AcDbEntity
  8
2
  6
Continuous
 62
     7
100
AcDbPoint
 10
149.956666441
 20
165.39246137
 30
0.0
  0
LINE
  5
2F1
330
1F
100
AcDbEntity
  8
2
  6
Continuous
 62
     7
100
AcDbLine
 10
160.556666441
 20
160.99246137
 30
0.0
 11
160.556666441
 21
165.19246137
 31
0.0
  0
LINE
  5
2F2
330
1F
100
AcDbEntity
  8
2
  6
Continuous
 62
     7
100
AcDbLine
 10
160.356666441
 20
160.79246137
 30
0.0
 11
160.356666441
 21
160.79246137
 31
0.0
  0
ARC
  5
2F3
330
1F
100
AcDbEntity
  8
2
  6
Continuous
 62
     7
100
AcDbCircle
 10
160.356666441
 20
160.99246137
 30
0.0
 40
0.2
100
AcDbArc
 50
270.0
 51
0.0
  0
LINE
  5
2F4
330
1F
100
AcDbEntity
  8
2
  6
Continuous
 62
     7
100
AcDbLine
 10
160.356666441
 20
165.39246137
 30
0.0
 11
160.356666441
 21
165.39246137
 31
0.0
  0
ARC
  5
2F5
330
1F
100
AcDbEntity
  8
2
  6
Continuous
 62
     7
100
AcDbCircle
 10
160.356666441
 20
165.19246137
 30
0.0
 40
0.2
100
AcDbArc
 50
0.0
 51
90.0
  0
LINE
  5
2F6
330
1F
100
AcDbEntity
  8
5
  6
LTYPE2
 62
     3
100
AcDbLine
 10
151.021186904
 20
179.69246137
 30
0.0
 11
159.292145977
 21
179.69246137
 31
0.0
  0
CIRCLE
  5
2F7
330
1F
100
AcDbEntity
  8
8
  6
LTYPE2
 62
     3
100
AcDbCircle
 10
155.156666441
 20
171.69246137
 30
0.0
 40
3.5
  0
LINE
  5
2F8
330
1F
100
AcDbEntity
  8
5
  6
LTYPE2
 62
     3
100
AcDbLine
 10
149.28330885
 20
175.69246137
 30
0.0
 11
163.40231102
 21
175.69246137
 31
0.0
  0
CIRCLE
  5
2F9
330
1F
100
AcDbEntity
  8
8
  6
LTYPE2
 62
     3
100
AcDbCircle
 10
155.156666441
 20
179.69246137
 30
0.0
 40
3.5
  0
LINE
  5
2FA
330
1F
100
AcDbEntity
  8
5
  6
LTYPE2
 62
     3
100
AcDbLine
 10
151.021186904
 20
171.69246137
 30
0.0
 11
158.948849425
 21
171.69246137
 31
0.0
  0
LINE
  5
2FB
330
1F
100
AcDbEntity
  8
5
  6
LTYPE2
 62
     3
100
AcDbLine
 10
155.156666441
 20
183.827940906
 30
0.0
 11
155.156666441
 21
167.556981834
 31
0.0
  0
LINE
  5
2FC
330
1F
100
AcDbEntity
  8
2
  6
Continuous
 62
     7
100
AcDbLine
 10
50.316294264
 20
131.401569917
 30
0.0
 11
50.316294264
 21
72.00157602
 31
0.0
  0
LINE
  5
2FD
330
1F
100
AcDbEntity
  8
2
  6
Continuous
 62
     7
100
AcDbLine
 10
51.316294264
 20
71.00157602
 30
0.0
 11
100.916285109
 21
71.00157602
 31
0.0
  0
LINE
  5
2FE
330
1F
100
AcDbEntity
  8
2
  6
Continuous
 62
     7
100
AcDbLine
 10
101.916285109
 20
72.00157602
 30
0.0
 11
101.916285109
 21
131.401569917
 31
0.0
  0
LINE
  5
2FF
330
1F
100
AcDbEntity
  8
2
  6
Continuous
 62
     7
100
AcDbLine
 10
100.916285109
 20
132.401569917
 30
0.0
 11
51.316294264
 21
132.401569917
 31
0.0
  0
LINE
  5
300
330
1F
100
AcDbEntity
  8
2
  6
Continuous
 62
     7
100
AcDbLine
 10
51.316294264
 20
81.00157602
 30
0.0
 11
100.916285109
 21
81.00157602
 31
0.0
  0
LINE
  5
301
330
1F
100
AcDbEntity
  8
2
  6
Continuous
 62
     7
100
AcDbLine
 10
61.116297316
 20
71.00157602
 30
0.0
 11
61.116297316
 21
81.00157602
 31
0.0
  0
LINE
  5
302
330
1F
100
AcDbEntity
  8
2
  6
Continuous
 62
     7
100
AcDbLine
 10
91.116297316
 20
71.00157602
 30
0.0
 11
91.116297316
 21
81.00157602
 31
0.0
  0
LINE
  5
303
330
1F
100
AcDbEntity
  8
2
  6
Continuous
 62
     7
100
AcDbLine
 10
99.616297316
 20
129.901569917
 30
0.0
 11
99.616297316
 21
82.901569917
 31
0.0
  0
LINE
  5
304
330
1F
100
AcDbEntity
  8
2
  6
Continuous
 62
     7
100
AcDbLine
 10
52.616297316
 20
129.901569917
 30
0.0
 11
52.616297316
 21
82.901569917
 31
0.0
  0
LINE
  5
305
330
1F
100
AcDbEntity
  8
2
  6
Continuous
 62
     7
100
AcDbLine
 10
52.616297316
 20
129.901569917
 30
0.0
 11
99.616297316
 21
129.901569917
 31
0.0
  0
LINE
  5
306
330
1F
100
AcDbEntity
  8
2
  6
Continuous
 62
     7
100
AcDbLine
 10
52.616297316
 20
82.901569917
 30
0.0
 11
99.616297316
 21
82.901569917
 31
0.0
  0
ARC
  5
307
330
1F
100
AcDbEntity
  8
2
  6
Continuous
 62
     7
100
AcDbCircle
 10
51.316294264
 20
131.401569917
 30
0.0
 40
1.0
100
AcDbArc
 50
90.000002504
 51
180.000005009
  0
ARC
  5
308
330
1F
100
AcDbEntity
  8
2
  6
Continuous
 62
     7
100
AcDbCircle
 10
51.316294264
 20
72.00157602
 30
0.0
 40
1.0
100
AcDbArc
 50
180.000008651
 51
269.999997496
  0
ARC
  5
309
330
1F
100
AcDbEntity
  8
2
  6
Continuous
 62
     7
100
AcDbCircle
 10
100.916285109
 20
72.00157602
 30
0.0
 40
1.0
100
AcDbArc
 50
269.999997496
 51
0.0
  0
ARC
  5
30A
330
1F
100
AcDbEntity
  8
2
  6
Continuous
 62
     7
100
AcDbCircle
 10
100.916285109
 20
131.401569917
 30
0.0
 40
1.0
100
AcDbArc
 50
0.0
 51
90.000002504
  0
ARC
  5
30B
330
1F
100
AcDbEntity
  8
2
  6
Continuous
 62
     7
100
AcDbCircle
 10
51.316294264
 20
82.00157602
 30
0.0
 40
1.0
100
AcDbArc
 50
180.000008651
 51
269.999997496
  0
ARC
  5
30C
330
1F
100
AcDbEntity
  8
2
  6
Continuous
 62
     7
100
AcDbCircle
 10
100.916285109
 20
82.00157602
 30
0.0
 40
1.0
100
AcDbArc
 50
269.999997496
 51
0.0
  0
CIRCLE
  5
30D
330
1F
100
AcDbEntity
  8
2
  6
Continuous
 62
     7
100
AcDbCircle
 10
96.116297316
 20
76.00157602
 30
0.0
 40
2.0
  0
CIRCLE
  5
30E
330
1F
100
AcDbEntity
  8
2
  6
Continuous
 62
     7
100
AcDbCircle
 10
56.116297316
 20
76.00157602
 30
0.0
 40
2.0
  0
POINT
  5
30F
330
1F
100
AcDbEntity
  8
10
  6
Continuous
 62
     7
100
AcDbPoint
 10
61.116297316
 20
71.00157602
 30
0.0
  0
POINT
  5
310
330
1F
100
AcDbEntity
  8
10
  6
Continuous
 62
     7
100
AcDbPoint
 10
91.116297316
 20
71.00157602
 30
0.0
  0
POINT
  5
311
330
1F
100
AcDbEntity
  8
10
  6
Continuous
 62
     7
100
AcDbPoint
 10
56.116297316
 20
71.00157602
 30
0.0
  0
POINT
  5
312
330
1F
100
AcDbEntity
  8
10
  6
Continuous
 62
     7
100
AcDbPoint
 10
96.116297316
 20
71.00157602
 30
0.0
  0
POINT
  5
313
330
1F
100
AcDbEntity
  8
10
  6
Continuous
 62
     7
100
AcDbPoint
 10
50.316294264
 20
72.00157602
 30
0.0
  0
POINT
  5
314
330
1F
100
AcDbEntity
  8
10
  6
Continuous
 62
     7
100
AcDbPoint
 10
51.316294264
 20
71.00157602
 30
0.0
  0
POINT
  5
315
330
1F
100
AcDbEntity
  8
10
  6
Continuous
 62
     7
100
AcDbPoint
 10
51.316294264
 20
132.401569917
 30
0.0
  0
POINT
  5
316
330
1F
100
AcDbEntity
  8
10
  6
Continuous
 62
     7
100
AcDbPoint
 10
52.616297316
 20
129.901569917
 30
0.0
  0
POINT
  5
317
330
1F
100
AcDbEntity
  8
10
  6
Continuous
 62
     7
100
AcDbPoint
 10
99.616297316
 20
129.901569917
 30
0.0
  0
POINT
  5
318
330
1F
100
AcDbEntity
  8
2
  6
Continuous
 62
     7
100
AcDbPoint
 10
95.314339712
 20
77.833750685
 30
0.0
  0
POINT
  5
319
330
1F
100
AcDbEntity
  8
2
  6
Continuous
 62
     7
100
AcDbPoint
 10
96.918254921
 20
74.169401356
 30
0.0
  0
POINT
  5
31A
330
1F
100
AcDbEntity
  8
10
  6
Continuous
 62
     7
100
AcDbPoint
 10
51.316294221
 20
71.00157602
 30
0.0
  0
LINE
  5
31B
330
1F
100
AcDbEntity
  8
5
  6
LTYPE2
 62
     3
100
AcDbLine
 10
76.116297316
 20
135.401569917
 30
0.0
 11
76.116297316
 21
68.00157602
 31
0.0
  0
LINE
  5
31C
330
1F
100
AcDbEntity
  8
5
  6
LTYPE2
 62
     3
100
AcDbLine
 10
49.616297316
 20
106.401569917
 30
0.0
 11
102.616297316
 21
106.401569917
 31
0.0
  0
LINE
  5
31D
330
1F
100
AcDbEntity
  8
5
  6
LTYPE2
 62
     3
100
AcDbLine
 10
56.116297316
 20
71.00157602
 30
0.0
 11
56.116297316
 21
81.00157602
 31
0.0
  0
LINE
  5
31E
330
1F
100
AcDbEntity
  8
5
  6
LTYPE2
 62
     3
100
AcDbLine
 10
51.116297316
 20
76.00157602
 30
0.0
 11
61.116297316
 21
76.00157602
 31
0.0
  0
LINE
  5
31F
330
1F
100
AcDbEntity
  8
5
  6
LTYPE2
 62
     3
100
AcDbLine
 10
96.116297316
 20
71.00157602
 30
0.0
 11
96.116297316
 21
81.00157602
 31
0.0
  0
LINE
  5
320
330
1F
100
AcDbEntity
  8
5
  6
LTYPE2
 62
     3
100
AcDbLine
 10
91.116297316
 20
76.00157602
 30
0.0
 11
101.116297316
 21
76.00157602
 31
0.0
  0
LINE
  5
321
330
1F
100
AcDbEntity
  8
0
  6
Continuous
 62
     3
100
AcDbLine
 10
52.616297316
 20
130.901569917
 30
0.0
 11
52.616297316
 21
140.711569917
 31
0.0
  0
LINE
  5
322
330
1F
100
AcDbEntity
  8
0
  6
Continuous
 62
     3
100
AcDbLine
 10
52.616297316
 20
138.711569917
 30
0.0
 11
55.031111882
 21
138.064522304
 31
0.0
  0
LINE
  5
323
330
1F
100
AcDbEntity
  8
0
  6
Continuous
 62
     3
100
AcDbLine
 10
52.616297316
 20
138.711569917
 30
0.0
 11
55.031111882
 21
139.35861753
 31
0.0
  0
LWPOLYLINE
  5
325
330
1F
100
AcDbEntity
  8
0
  6
Continuous
 62
     3
100
AcDbPolyline
 90
     3
 70
   128
 43
0.0
 10
52.616297316
 20
138.711569917
 10
99.616297316
 20
138.711569917
 10
97.20148275
 20
139.35861753
  0
LINE
  5
326
330
1F
100
AcDbEntity
  8
0
  6
Continuous
 62
     3
100
AcDbLine
 10
99.616297316
 20
138.711569917
 30
0.0
 11
97.20148275
 21
138.064522304
 31
0.0
  0
LINE
  5
327
330
1F
100
AcDbEntity
  8
0
  6
Continuous
 62
     3
100
AcDbLine
 10
99.616297316
 20
130.901569917
 30
0.0
 11
99.616297316
 21
140.711569917
 31
0.0
  0
LINE
  5
328
330
1F
100
AcDbEntity
  8
0
  6
Continuous
 62
     3
100
AcDbLine
 10
50.116297316
 20
76.00157602
 30
0.0
 11
41.366294264
 21
76.00157602
 31
0.0
  0
LINE
  5
329
330
1F
100
AcDbEntity
  8
0
  6
Continuous
 62
     3
100
AcDbLine
 10
43.366294264
 20
76.00157602
 30
0.0
 11
44.013341877
 21
78.416390586
 31
0.0
  0
LINE
  5
32A
330
1F
100
AcDbEntity
  8
0
  6
Continuous
 62
     3
100
AcDbLine
 10
43.366294264
 20
76.00157602
 30
0.0
 11
42.719246652
 21
78.416390586
 31
0.0
  0
LWPOLYLINE
  5
32C
330
1F
100
AcDbEntity
  8
0
  6
Continuous
 62
     3
100
AcDbPolyline
 90
     4
 70
   128
 43
0.0
 10
43.366294264
 20
79.75157602
 10
43.366294264
 20
76.00157602
 10
43.366294264
 20
71.00157602
 10
43.366294264
 20
65.45157602
  0
LINE
  5
32D
330
1F
100
AcDbEntity
  8
0
  6
Continuous
 62
     3
100
AcDbLine
 10
43.366294264
 20
71.00157602
 30
0.0
 11
42.719246652
 21
68.586761455
 31
0.0
  0
LINE
  5
32E
330
1F
100
AcDbEntity
  8
0
  6
Continuous
 62
     3
100
AcDbLine
 10
43.366294264
 20
71.00157602
 30
0.0
 11
44.013341877
 21
68.586761455
 31
0.0
  0
LINE
  5
32F
330
1F
100
AcDbEntity
  8
0
  6
Continuous
 62
     3
100
AcDbLine
 10
50.316294264
 20
71.00157602
 30
0.0
 11
41.366294264
 21
71.00157602
 31
0.0
  0
MTEXT
  5
330
330
1F
100
AcDbEntity
  8
0
  6
Continuous
 62
     3
100
AcDbMText
 10
42.366294264
 20
65.45157602
 30
0.0
 40
3.0
 41
3.6
 71
     7
 72
     1
  1
\T1.167;\W0.600;５
  7
KANJI7
 11
0.0
 21
1.0
 31
0.0
 73
     1
 44
1.0
  0
LINE
  5
331
330
1F
100
AcDbEntity
  8
0
  6
Continuous
 62
     3
100
AcDbLine
 10
50.116297316
 20
76.00157602
 30
0.0
 11
41.366294264
 21
76.00157602
 31
0.0
  0
LINE
  5
332
330
1F
100
AcDbEntity
  8
0
  6
Continuous
 62
     3
100
AcDbLine
 10
43.366294264
 20
76.00157602
 30
0.0
 11
44.013341877
 21
78.416390586
 31
0.0
  0
LINE
  5
333
330
1F
100
AcDbEntity
  8
0
  6
Continuous
 62
     3
100
AcDbLine
 10
43.366294264
 20
76.00157602
 30
0.0
 11
42.719246652
 21
78.416390586
 31
0.0
  0
LWPOLYLINE
  5
335
330
1F
100
AcDbEntity
  8
0
  6
Continuous
 62
     3
100
AcDbPolyline
 90
     3
 70
   128
 43
0.0
 10
43.366294264
 20
76.00157602
 10
43.366294264
 20
106.401569917
 10
42.719246652
 20
103.986755351
  0
LINE
  5
336
330
1F
100
AcDbEntity
  8
0
  6
Continuous
 62
     3
100
AcDbLine
 10
43.366294264
 20
106.401569917
 30
0.0
 11
44.013341877
 21
103.986755351
 31
0.0
  0
LINE
  5
337
330
1F
100
AcDbEntity
  8
0
  6
Continuous
 62
     3
100
AcDbLine
 10
48.616297316
 20
106.401569917
 30
0.0
 11
41.366294264
 21
106.401569917
 31
0.0
  0
LINE
  5
338
330
1F
100
AcDbEntity
  8
0
  6
Continuous
 62
     3
100
AcDbLine
 10
50.316294264
 20
71.00157602
 30
0.0
 11
35.226294264
 21
71.00157602
 31
0.0
  0
LINE
  5
339
330
1F
100
AcDbEntity
  8
0
  6
Continuous
 62
     3
100
AcDbLine
 10
37.226294264
 20
71.00157602
 30
0.0
 11
37.873341877
 21
73.416390586
 31
0.0
  0
LINE
  5
33A
330
1F
100
AcDbEntity
  8
0
  6
Continuous
 62
     3
100
AcDbLine
 10
37.226294264
 20
71.00157602
 30
0.0
 11
36.579246652
 21
73.416390586
 31
0.0
  0
LWPOLYLINE
  5
33C
330
1F
100
AcDbEntity
  8
0
  6
Continuous
 62
     3
100
AcDbPolyline
 90
     3
 70
   128
 43
0.0
 10
37.226294264
 20
71.00157602
 10
37.226294264
 20
132.401569917
 10
36.579246652
 20
129.986755351
  0
LINE
  5
33D
330
1F
100
AcDbEntity
  8
0
  6
Continuous
 62
     3
100
AcDbLine
 10
37.226294264
 20
132.401569917
 30
0.0
 11
37.873341877
 21
129.986755351
 31
0.0
  0
LINE
  5
33E
330
1F
100
AcDbEntity
  8
0
  6
Continuous
 62
     3
100
AcDbLine
 10
50.316294264
 20
132.401569917
 30
0.0
 11
35.226294264
 21
132.401569917
 31
0.0
  0
MTEXT
  5
33F
330
1F
100
AcDbEntity
  8
0
  6
Continuous
 62
     3
100
AcDbMText
 10
36.226294264
 20
97.651572969
 30
0.0
 40
3.0
 41
16.2
 71
     7
 72
     1
  1
\T1.167;\W0.600;６１．４
  7
KANJI7
 11
0.0
 21
1.0
 31
0.0
 73
     1
 44
1.0
  0
LINE
  5
340
330
1F
100
AcDbEntity
  8
0
  6
Continuous
 62
     3
100
AcDbLine
 10
61.116297316
 20
70.00157602
 30
0.0
 11
61.116297316
 21
60.81157602
 31
0.0
  0
LINE
  5
341
330
1F
100
AcDbEntity
  8
0
  6
Continuous
 62
     3
100
AcDbLine
 10
61.116297316
 20
62.81157602
 30
0.0
 11
63.531111882
 21
62.164528408
 31
0.0
  0
LINE
  5
342
330
1F
100
AcDbEntity
  8
0
  6
Continuous
 62
     3
100
AcDbLine
 10
61.116297316
 20
62.81157602
 30
0.0
 11
63.531111882
 21
63.458623633
 31
0.0
  0
LWPOLYLINE
  5
344
330
1F
100
AcDbEntity
  8
0
  6
Continuous
 62
     3
100
AcDbPolyline
 90
     3
 70
   128
 43
0.0
 10
61.116297316
 20
62.81157602
 10
91.116297316
 20
62.81157602
 10
88.70148275
 20
63.458623633
  0
LINE
  5
345
330
1F
100
AcDbEntity
  8
0
  6
Continuous
 62
     3
100
AcDbLine
 10
91.116297316
 20
62.81157602
 30
0.0
 11
88.70148275
 21
62.164528408
 31
0.0
  0
LINE
  5
346
330
1F
100
AcDbEntity
  8
0
  6
Continuous
 62
     3
100
AcDbLine
 10
91.116297316
 20
70.00157602
 30
0.0
 11
91.116297316
 21
60.81157602
 31
0.0
  0
MTEXT
  5
347
330
1F
100
AcDbEntity
  8
0
  6
Continuous
 62
     3
100
AcDbMText
 10
74.166297316
 20
63.81157602
 30
0.0
 40
3.0
 41
7.8
 71
     7
 72
     1
  1
\T1.167;\W0.600;３０
  7
KANJI7
 73
     1
 44
1.0
  0
LINE
  5
348
330
1F
100
AcDbEntity
  8
0
  6
Continuous
 62
     3
100
AcDbLine
 10
56.116297316
 20
70.00157602
 30
0.0
 11
56.116297316
 21
53.98157602
 31
0.0
  0
LINE
  5
349
330
1F
100
AcDbEntity
  8
0
  6
Continuous
 62
     3
100
AcDbLine
 10
56.116297316
 20
55.98157602
 30
0.0
 11
58.531111882
 21
55.334528408
 31
0.0
  0
LINE
  5
34A
330
1F
100
AcDbEntity
  8
0
  6
Continuous
 62
     3
100
AcDbLine
 10
56.116297316
 20
55.98157602
 30
0.0
 11
58.531111882
 21
56.628623633
 31
0.0
  0
LWPOLYLINE
  5
34C
330
1F
100
AcDbEntity
  8
0
  6
Continuous
 62
     3
100
AcDbPolyline
 90
     3
 70
   128
 43
0.0
 10
56.116297316
 20
55.98157602
 10
96.116297316
 20
55.98157602
 10
93.70148275
 20
56.628623633
  0
LINE
  5
34D
330
1F
100
AcDbEntity
  8
0
  6
Continuous
 62
     3
100
AcDbLine
 10
96.116297316
 20
55.98157602
 30
0.0
 11
93.70148275
 21
55.334528408
 31
0.0
  0
LINE
  5
34E
330
1F
100
AcDbEntity
  8
0
  6
Continuous
 62
     3
100
AcDbLine
 10
96.116297316
 20
70.00157602
 30
0.0
 11
96.116297316
 21
53.98157602
 31
0.0
  0
MTEXT
  5
34F
330
1F
100
AcDbEntity
  8
0
  6
Continuous
 62
     3
100
AcDbMText
 10
74.166297316
 20
56.98157602
 30
0.0
 40
3.0
 41
7.8
 71
     7
 72
     1
  1
\T1.167;\W0.600;４０
  7
KANJI7
 73
     1
 44
1.0
  0
LINE
  5
350
330
1F
100
AcDbEntity
  8
0
  6
Continuous
 62
     3
100
AcDbLine
 10
50.316294264
 20
71.00157602
 30
0.0
 11
50.316294264
 21
46.82157602
 31
0.0
  0
LINE
  5
351
330
1F
100
AcDbEntity
  8
0
  6
Continuous
 62
     3
100
AcDbLine
 10
50.316294264
 20
48.82157602
 30
0.0
 11
52.73110883
 21
48.174528408
 31
0.0
  0
LINE
  5
352
330
1F
100
AcDbEntity
  8
0
  6
Continuous
 62
     3
100
AcDbLine
 10
50.316294264
 20
48.82157602
 30
0.0
 11
52.73110883
 21
49.468623633
 31
0.0
  0
LWPOLYLINE
  5
354
330
1F
100
AcDbEntity
  8
0
  6
Continuous
 62
     3
100
AcDbPolyline
 90
     3
 70
   128
 43
0.0
 10
50.316294264
 20
48.82157602
 10
101.916285109
 20
48.82157602
 10
99.501470543
 20
49.468623633
  0
LINE
  5
355
330
1F
100
AcDbEntity
  8
0
  6
Continuous
 62
     3
100
AcDbLine
 10
101.916285109
 20
48.82157602
 30
0.0
 11
99.501470543
 21
48.174528408
 31
0.0
  0
MTEXT
  5
356
330
1F
100
AcDbEntity
  8
0
  6
Continuous
 62
     3
100
AcDbMText
 10
72.066289687
 20
49.82157602
 30
0.0
 40
3.0
 41
16.2
 71
     7
 72
     1
  1
\T1.167;\W0.600;５１．６
  7
KANJI7
 73
     1
 44
1.0
  0
LINE
  5
357
330
1F
100
AcDbEntity
  8
2
  6
Continuous
 62
     7
100
AcDbLine
 10
128.425043654
 20
132.401569917
 30
0.0
 11
128.425043654
 21
81.00157602
 31
0.0
  0
LINE
  5
358
330
1F
100
AcDbEntity
  8
2
  6
Continuous
 62
     7
100
AcDbLine
 10
128.425043654
 20
81.00157602
 30
0.0
 11
132.925043654
 21
81.00157602
 31
0.0
  0
LINE
  5
359
330
1F
100
AcDbEntity
  8
2
  6
Continuous
 62
     7
100
AcDbLine
 10
132.925043654
 20
132.401569917
 30
0.0
 11
132.925043654
 21
71.00157602
 31
0.0
  0
LINE
  5
35A
330
1F
100
AcDbEntity
  8
2
  6
Continuous
 62
     7
100
AcDbLine
 10
130.925043654
 20
71.00157602
 30
0.0
 11
136.625040602
 21
71.00157602
 31
0.0
  0
LINE
  5
35B
330
1F
100
AcDbEntity
  8
2
  6
Continuous
 62
     7
100
AcDbLine
 10
136.425043654
 20
71.00157602
 30
0.0
 11
136.425043654
 21
132.401569917
 31
0.0
  0
LINE
  5
35C
330
1F
100
AcDbEntity
  8
2
  6
Continuous
 62
     7
100
AcDbLine
 10
136.425043654
 20
132.401569917
 30
0.0
 11
128.425043654
 21
132.401569917
 31
0.0
  0
LINE
  5
35D
330
1F
100
AcDbEntity
  8
2
  6
Continuous
 62
     7
100
AcDbLine
 10
130.925043654
 20
132.401569917
 30
0.0
 11
130.925043654
 21
71.00157602
 31
0.0
  0
LINE
  5
35E
330
1F
100
AcDbEntity
  8
2
  6
Continuous
 62
     7
100
AcDbLine
 10
136.425043654
 20
81.00157602
 30
0.0
 11
136.625040602
 21
81.00157602
 31
0.0
  0
LINE
  5
35F
330
1F
100
AcDbEntity
  8
2
  6
Continuous
 62
     7
100
AcDbLine
 10
136.625040602
 20
81.00157602
 30
0.0
 11
136.625040602
 21
71.00157602
 31
0.0
  0
POINT
  5
360
330
1F
100
AcDbEntity
  8
10
  6
Continuous
 62
     7
100
AcDbPoint
 10
128.425043654
 20
81.00157602
 30
0.0
  0
POINT
  5
361
330
1F
100
AcDbEntity
  8
10
  6
Continuous
 62
     7
100
AcDbPoint
 10
130.925043654
 20
71.00157602
 30
0.0
  0
POINT
  5
362
330
1F
100
AcDbEntity
  8
10
  6
Continuous
 62
     7
100
AcDbPoint
 10
136.425043654
 20
71.00157602
 30
0.0
  0
POINT
  5
363
330
1F
100
AcDbEntity
  8
10
  6
Continuous
 62
     7
100
AcDbPoint
 10
130.925043654
 20
71.00157602
 30
0.0
  0
POINT
  5
364
330
1F
100
AcDbEntity
  8
10
  6
Continuous
 62
     7
100
AcDbPoint
 10
136.425043654
 20
71.00157602
 30
0.0
  0
POINT
  5
365
330
1F
100
AcDbEntity
  8
10
  6
Continuous
 62
     7
100
AcDbPoint
 10
128.425043654
 20
81.00157602
 30
0.0
  0
LINE
  5
366
330
1F
100
AcDbEntity
  8
5
  6
LTYPE2
 62
     3
100
AcDbLine
 10
125.425043654
 20
106.401569917
 30
0.0
 11
139.425043654
 21
106.401569917
 31
0.0
  0
LINE
  5
367
330
1F
100
AcDbEntity
  8
0
  6
Continuous
 62
     3
100
AcDbLine
 10
127.425043654
 20
81.00157602
 30
0.0
 11
121.715043654
 21
81.00157602
 31
0.0
  0
LINE
  5
368
330
1F
100
AcDbEntity
  8
0
  6
Continuous
 62
     3
100
AcDbLine
 10
123.715043654
 20
81.00157602
 30
0.0
 11
123.067996041
 21
78.586761455
 31
0.0
  0
LINE
  5
369
330
1F
100
AcDbEntity
  8
0
  6
Continuous
 62
     3
100
AcDbLine
 10
123.715043654
 20
81.00157602
 30
0.0
 11
124.362091267
 21
78.586761455
 31
0.0
  0
LWPOLYLINE
  5
36B
330
1F
100
AcDbEntity
  8
0
  6
Continuous
 62
     3
100
AcDbPolyline
 90
     3
 70
   128
 43
0.0
 10
123.715043654
 20
81.00157602
 10
123.715043654
 20
71.00157602
 10
124.362091267
 20
73.416390586
  0
LINE
  5
36C
330
1F
100
AcDbEntity
  8
0
  6
Continuous
 62
     3
100
AcDbLine
 10
123.715043654
 20
71.00157602
 30
0.0
 11
123.067996041
 21
73.416390586
 31
0.0
  0
LINE
  5
36D
330
1F
100
AcDbEntity
  8
0
  6
Continuous
 62
     3
100
AcDbLine
 10
129.925043654
 20
71.00157602
 30
0.0
 11
121.715043654
 21
71.00157602
 31
0.0
  0
MTEXT
  5
36E
330
1F
100
AcDbEntity
  8
0
  6
Continuous
 62
     3
100
AcDbMText
 10
122.715043654
 20
74.05157602
 30
0.0
 40
3.0
 41
7.8
 71
     7
 72
     1
  1
\T1.167;\W0.600;１０
  7
KANJI7
 11
0.0
 21
1.0
 31
0.0
 73
     1
 44
1.0
  0
LINE
  5
36F
330
1F
100
AcDbEntity
  8
5
  6
LTYPE2
 62
     3
100
AcDbLine
 10
129.116297316
 20
76.00157602
 30
0.0
 11
139.116297316
 21
76.00157602
 31
0.0
  0
LINE
  5
370
330
1F
100
AcDbEntity
  8
0
  6
Continuous
 62
     3
100
AcDbLine
 10
132.925043654
 20
70.00157602
 30
0.0
 11
132.925043654
 21
60.82157602
 31
0.0
  0
LINE
  5
371
330
1F
100
AcDbEntity
  8
0
  6
Continuous
 62
     3
100
AcDbLine
 10
132.925043654
 20
62.82157602
 30
0.0
 11
130.510229088
 21
63.468623633
 31
0.0
  0
LINE
  5
372
330
1F
100
AcDbEntity
  8
0
  6
Continuous
 62
     3
100
AcDbLine
 10
132.925043654
 20
62.82157602
 30
0.0
 11
130.510229088
 21
62.174528408
 31
0.0
  0
LWPOLYLINE
  5
374
330
1F
100
AcDbEntity
  8
0
  6
Continuous
 62
     3
100
AcDbPolyline
 90
     4
 70
   128
 43
0.0
 10
129.175043654
 20
62.82157602
 10
132.925043654
 20
62.82157602
 10
136.425043654
 20
62.82157602
 10
146.175043654
 20
62.82157602
  0
LINE
  5
375
330
1F
100
AcDbEntity
  8
0
  6
Continuous
 62
     3
100
AcDbLine
 10
136.425043654
 20
62.82157602
 30
0.0
 11
138.83985822
 21
62.174528408
 31
0.0
  0
LINE
  5
376
330
1F
100
AcDbEntity
  8
0
  6
Continuous
 62
     3
100
AcDbLine
 10
136.425043654
 20
62.82157602
 30
0.0
 11
138.83985822
 21
63.468623633
 31
0.0
  0
LINE
  5
377
330
1F
100
AcDbEntity
  8
0
  6
Continuous
 62
     3
100
AcDbLine
 10
136.425043654
 20
70.00157602
 30
0.0
 11
136.425043654
 21
60.82157602
 31
0.0
  0
MTEXT
  5
378
330
1F
100
AcDbEntity
  8
0
  6
Continuous
 62
     3
100
AcDbMText
 10
140.175043654
 20
63.82157602
 30
0.0
 40
3.0
 41
12.0
 71
     7
 72
     1
  1
\T1.167;\W0.600;３．５
  7
KANJI7
 73
     1
 44
1.0
  0
LINE
  5
379
330
1F
100
AcDbEntity
  8
0
  6
Continuous
 62
     3
100
AcDbLine
 10
130.925043654
 20
70.00157602
 30
0.0
 11
130.925043654
 21
54.03157602
 31
0.0
  0
LINE
  5
37A
330
1F
100
AcDbEntity
  8
0
  6
Continuous
 62
     3
100
AcDbLine
 10
130.925043654
 20
56.03157602
 30
0.0
 11
128.510229088
 21
56.678623633
 31
0.0
  0
LINE
  5
37B
330
1F
100
AcDbEntity
  8
0
  6
Continuous
 62
     3
100
AcDbLine
 10
130.925043654
 20
56.03157602
 30
0.0
 11
128.510229088
 21
55.384528408
 31
0.0
  0
LWPOLYLINE
  5
37D
330
1F
100
AcDbEntity
  8
0
  6
Continuous
 62
     3
100
AcDbPolyline
 90
     4
 70
   128
 43
0.0
 10
127.175043654
 20
56.03157602
 10
130.925043654
 20
56.03157602
 10
136.425043654
 20
56.03157602
 10
146.175043654
 20
56.03157602
  0
LINE
  5
37E
330
1F
100
AcDbEntity
  8
0
  6
Continuous
 62
     3
100
AcDbLine
 10
136.425043654
 20
56.03157602
 30
0.0
 11
138.83985822
 21
55.384528408
 31
0.0
  0
LINE
  5
37F
330
1F
100
AcDbEntity
  8
0
  6
Continuous
 62
     3
100
AcDbLine
 10
136.425043654
 20
56.03157602
 30
0.0
 11
138.83985822
 21
56.678623633
 31
0.0
  0
LINE
  5
380
330
1F
100
AcDbEntity
  8
0
  6
Continuous
 62
     3
100
AcDbLine
 10
136.425043654
 20
70.00157602
 30
0.0
 11
136.425043654
 21
54.03157602
 31
0.0
  0
MTEXT
  5
381
330
1F
100
AcDbEntity
  8
0
  6
Continuous
 62
     3
100
AcDbMText
 10
140.175043654
 20
57.03157602
 30
0.0
 40
3.0
 41
12.0
 71
     7
 72
     1
  1
\T1.167;\W0.600;５．５
  7
KANJI7
 73
     1
 44
1.0
  0
LINE
  5
382
330
1F
100
AcDbEntity
  8
0
  6
Continuous
 62
     3
100
AcDbLine
 10
136.425043654
 20
70.00157602
 30
0.0
 11
136.425043654
 21
46.90157602
 31
0.0
  0
LINE
  5
383
330
1F
100
AcDbEntity
  8
0
  6
Continuous
 62
     3
100
AcDbLine
 10
136.425043654
 20
48.90157602
 30
0.0
 11
134.010229088
 21
49.548623633
 31
0.0
  0
LINE
  5
384
330
1F
100
AcDbEntity
  8
0
  6
Continuous
 62
     3
100
AcDbLine
 10
136.425043654
 20
48.90157602
 30
0.0
 11
134.010229088
 21
48.254528408
 31
0.0
  0
LWPOLYLINE
  5
386
330
1F
100
AcDbEntity
  8
0
  6
Continuous
 62
     3
100
AcDbPolyline
 90
     3
 70
   128
 43
0.0
 10
136.425043654
 20
48.90157602
 10
128.425043654
 20
48.90157602
 10
130.83985822
 20
48.254528408
  0
LINE
  5
387
330
1F
100
AcDbEntity
  8
0
  6
Continuous
 62
     3
100
AcDbLine
 10
128.425043654
 20
48.90157602
 30
0.0
 11
130.83985822
 21
49.548623633
 31
0.0
  0
LINE
  5
388
330
1F
100
AcDbEntity
  8
0
  6
Continuous
 62
     3
100
AcDbLine
 10
128.425043654
 20
80.00157602
 30
0.0
 11
128.425043654
 21
46.90157602
 31
0.0
  0
MTEXT
  5
389
330
1F
100
AcDbEntity
  8
0
  6
Continuous
 62
     3
100
AcDbMText
 10
131.525043654
 20
49.90157602
 30
0.0
 40
3.0
 41
3.6
 71
     7
 72
     1
  1
\T1.167;\W0.600;８
  7
KANJI7
 73
     1
 44
1.0
  0
LINE
  5
38A
330
1F
100
AcDbEntity
  8
0
  6
Continuous
 62
     3
100
AcDbLine
 10
101.916285109
 20
71.00157602
 30
0.0
 11
101.916285109
 21
46.82157602
 31
0.0
  0
LINE
  5
38B
330
1F
100
AcDbEntity
  8
0
  6
Continuous
 62
     3
100
AcDbLine
 10
105.306285109
 20
62.79157602
 30
0.0
 11
117.006285109
 21
62.79157602
 31
0.0
  0
MTEXT
  5
38C
330
1F
100
AcDbEntity
  8
0
  6
Continuous
 62
     3
100
AcDbMText
 10
105.306285109
 20
63.79157602
 30
0.0
 40
3.0
 41
23.4
 71
     7
 72
     1
  1
\T1.111;\W0.900;２－φ４
  7
KANJI9
 73
     1
 44
1.0
  0
LINE
  5
38D
330
1F
100
AcDbEntity
  8
0
  6
Continuous
 62
     3
100
AcDbLine
 10
97.836285109
 20
74.40157602
 30
0.0
 11
98.598764535
 21
72.020688555
 31
0.0
  0
LINE
  5
38E
330
1F
100
AcDbEntity
  8
0
  6
Continuous
 62
     3
100
AcDbLine
 10
97.836285109
 20
74.40157602
 30
0.0
 11
99.687055395
 21
72.720906705
 31
0.0
  0
LINE
  5
38F
330
1F
100
AcDbEntity
  8
0
  6
Continuous
 62
     3
100
AcDbLine
 10
97.836285109
 20
74.40157602
 30
0.0
 11
105.306285109
 21
62.79157602
 31
0.0
  0
MTEXT
  5
390
330
1F
100
AcDbEntity
  8
0
  6
Continuous
 62
     3
100
AcDbMText
 10
73.116297316
 20
139.711569917
 30
0.0
 40
3.0
 41
12.0
 71
     7
 72
     1
  1
\T1.167;\W0.600;□４７
  7
KANJI7
 73
     1
 44
1.0
  0
LINE
  5
391
330
1F
100
AcDbEntity
  8
0
  6
Continuous
 62
     3
100
AcDbLine
 10
330.146294264
 20
147.932475806
 30
0.0
 11
330.146294264
 21
115.081569917
 31
0.0
  0
LINE
  5
392
330
1F
100
AcDbEntity
  8
0
  6
Continuous
 62
     3
100
AcDbLine
 10
330.146294264
 20
117.081569917
 30
0.0
 11
327.731479699
 21
117.72861753
 31
0.0
  0
LINE
  5
393
330
1F
100
AcDbEntity
  8
0
  6
Continuous
 62
     3
100
AcDbLine
 10
330.146294264
 20
117.081569917
 30
0.0
 11
327.731479699
 21
116.434522304
 31
0.0
  0
LWPOLYLINE
  5
395
330
1F
100
AcDbEntity
  8
0
  6
Continuous
 62
     3
100
AcDbPolyline
 90
     3
 70
   128
 43
0.0
 10
330.146294264
 20
117.081569917
 10
207.056675381
 20
117.081569917
 10
209.471489947
 20
116.434522304
  0
LINE
  5
396
330
1F
100
AcDbEntity
  8
0
  6
Continuous
 62
     3
100
AcDbLine
 10
207.056675381
 20
117.081569917
 30
0.0
 11
209.471489947
 21
117.72861753
 31
0.0
  0
LINE
  5
397
330
1F
100
AcDbEntity
  8
0
  6
Continuous
 62
     3
100
AcDbLine
 10
207.056675381
 20
151.991569917
 30
0.0
 11
207.056675381
 21
115.081569917
 31
0.0
  0
MTEXT
  5
398
330
1F
100
AcDbEntity
  8
0
  6
Continuous
 62
     3
100
AcDbMText
 10
262.451484823
 20
118.081569917
 30
0.0
 40
3.0
 41
24.6
 71
     7
 72
     1
  1
\T1.167;\W0.600;（２０００）
  7
KANJI7
 73
     1
 44
1.0
  0
LINE
  5
399
330
1F
100
AcDbEntity
  8
0
  6
Continuous
 62
     3
100
AcDbLine
 10
150.021186904
 20
179.69246137
 30
0.0
 11
138.421186904
 21
179.69246137
 31
0.0
  0
LINE
  5
39A
330
1F
100
AcDbEntity
  8
0
  6
Continuous
 62
     3
100
AcDbLine
 10
140.421186904
 20
179.69246137
 30
0.0
 11
141.068234517
 21
182.107275936
 31
0.0
  0
LINE
  5
39B
330
1F
100
AcDbEntity
  8
0
  6
Continuous
 62
     3
100
AcDbLine
 10
140.421186904
 20
179.69246137
 30
0.0
 11
139.774139292
 21
182.107275936
 31
0.0
  0
LWPOLYLINE
  5
39D
330
1F
100
AcDbEntity
  8
0
  6
Continuous
 62
     3
100
AcDbPolyline
 90
     4
 70
   128
 43
0.0
 10
140.421186904
 20
185.24246137
 10
140.421186904
 20
179.69246137
 10
140.421186904
 20
171.69246137
 10
140.421186904
 20
167.94246137
  0
LINE
  5
39E
330
1F
100
AcDbEntity
  8
0
  6
Continuous
 62
     3
100
AcDbLine
 10
140.421186904
 20
171.69246137
 30
0.0
 11
139.774139292
 21
169.277646804
 31
0.0
  0
LINE
  5
39F
330
1F
100
AcDbEntity
  8
0
  6
Continuous
 62
     3
100
AcDbLine
 10
140.421186904
 20
171.69246137
 30
0.0
 11
141.068234517
 21
169.277646804
 31
0.0
  0
LINE
  5
3A0
330
1F
100
AcDbEntity
  8
0
  6
Continuous
 62
     3
100
AcDbLine
 10
150.021186904
 20
171.69246137
 30
0.0
 11
138.421186904
 21
171.69246137
 31
0.0
  0
MTEXT
  5
3A1
330
1F
100
AcDbEntity
  8
0
  6
Continuous
 62
     3
100
AcDbMText
 10
139.421186904
 20
183.44246137
 30
0.0
 40
3.0
 41
3.6
 71
     7
 72
     1
  1
\T1.167;\W0.600;８
  7
KANJI7
 11
0.0
 21
1.0
 31
0.0
 73
     1
 44
1.0
  0
LINE
  5
3A2
330
1F
100
AcDbEntity
  8
0
  6
Continuous
 62
     3
100
AcDbLine
 10
134.756666008
 20
152.991543492
 30
0.0
 11
129.606666008
 21
152.991543492
 31
0.0
  0
LINE
  5
3A3
330
1F
100
AcDbEntity
  8
0
  6
Continuous
 62
     3
100
AcDbLine
 10
131.606666008
 20
152.991543492
 30
0.0
 11
130.959618396
 21
150.576728926
 31
0.0
  0
LINE
  5
3A4
330
1F
100
AcDbEntity
  8
0
  6
Continuous
 62
     3
100
AcDbLine
 10
131.606666008
 20
154.191543316
 30
0.0
 11
130.959618396
 21
156.606357882
 31
0.0
  0
LINE
  5
3A5
330
1F
100
AcDbEntity
  8
0
  6
Continuous
 62
     3
100
AcDbLine
 10
134.756666008
 20
154.191543316
 30
0.0
 11
129.606666008
 21
154.191543316
 31
0.0
  0
MTEXT
  5
3A6
330
1F
100
AcDbEntity
  8
0
  6
Continuous
 62
     3
100
AcDbMText
 10
130.606666008
 20
157.941543316
 30
0.0
 40
3.0
 41
12.0
 71
     7
 72
     1
  1
\T1.167;\W0.600;１．２
  7
KANJI7
 11
0.0
 21
1.0
 31
0.0
 73
     1
 44
1.0
  0
LINE
  5
3A7
330
1F
100
AcDbEntity
  8
0
  6
Continuous
 62
     3
100
AcDbLine
 10
134.756666008
 20
152.991543492
 30
0.0
 11
123.756666441
 21
152.991543492
 31
0.0
  0
LINE
  5
3A8
330
1F
100
AcDbEntity
  8
0
  6
Continuous
 62
     3
100
AcDbLine
 10
134.756666008
 20
152.991543492
 30
0.0
 11
117.356666151
 21
152.991543492
 31
0.0
  0
LINE
  5
3A9
330
1F
100
AcDbEntity
  8
0
  6
Continuous
 62
     3
100
AcDbLine
 10
134.756666008
 20
152.991543492
 30
0.0
 11
123.906657441
 21
152.991543492
 31
0.0
  0
LINE
  5
3AA
330
1F
100
AcDbEntity
  8
0
  6
Continuous
 62
     3
100
AcDbLine
 10
134.756666008
 20
152.991543492
 30
0.0
 11
123.74330885
 21
152.991543492
 31
0.0
  0
LINE
  5
3AB
330
1F
100
AcDbEntity
  8
0
  6
Continuous
 62
     3
100
AcDbLine
 10
125.74330885
 20
152.991543492
 30
0.0
 11
126.390356463
 21
155.406358058
 31
0.0
  0
LINE
  5
3AC
330
1F
100
AcDbEntity
  8
0
  6
Continuous
 62
     3
100
AcDbLine
 10
125.74330885
 20
152.991543492
 30
0.0
 11
125.096261237
 21
155.406358058
 31
0.0
  0
LWPOLYLINE
  5
3AE
330
1F
100
AcDbEntity
  8
0
  6
Continuous
 62
     3
100
AcDbPolyline
 90
     3
 70
   128
 43
0.0
 10
125.74330885
 20
152.991543492
 10
125.74330885
 20
175.69246137
 10
125.096261237
 20
173.277646804
  0
LINE
  5
3AF
330
1F
100
AcDbEntity
  8
0
  6
Continuous
 62
     3
100
AcDbLine
 10
125.74330885
 20
175.69246137
 30
0.0
 11
126.390356463
 21
173.277646804
 31
0.0
  0
MTEXT
  5
3B0
330
1F
100
AcDbEntity
  8
0
  6
Continuous
 62
     3
100
AcDbMText
 10
124.74330885
 20
160.292002431
 30
0.0
 40
3.0
 41
16.2
 71
     7
 72
     1
  1
\T1.167;\W0.600;２２．７
  7
KANJI7
 11
0.0
 21
1.0
 31
0.0
 73
     1
 44
1.0
  0
LINE
  5
3B1
330
1F
100
AcDbEntity
  8
0
  6
Continuous
 62
     3
100
AcDbLine
 10
148.28330885
 20
175.69246137
 30
0.0
 11
123.74330885
 21
175.69246137
 31
0.0
  0
LWPOLYLINE
  5
3B3
330
1F
100
AcDbEntity
  8
10
  6
LTYPE2
 62
     3
100
AcDbPolyline
 90
     2
 70
   129
 43
0.0
 10
260.859216689
 20
268.34862346
 10
260.859216689
 20
268.34862346
  0
POINT
  5
3B4
330
1F
100
AcDbEntity
  8
10
  6
Continuous
 62
     7
100
AcDbPoint
 10
261.14921657
 20
260.679184942
 30
0.0
  0
LINE
  5
3B5
330
1F
100
AcDbEntity
  8
0
  6
Continuous
 62
     7
100
AcDbLine
 10
319.520950726
 20
225.371078611
 30
0.0
 11
312.378815102
 21
225.371078611
 31
0.0
  0
LINE
  5
3B6
330
1F
100
AcDbEntity
  8
0
  6
Continuous
 62
     7
100
AcDbLine
 10
312.378815102
 20
232.171078611
 30
0.0
 11
272.378815102
 21
232.171078611
 31
0.0
  0
LINE
  5
3B7
330
1F
100
AcDbEntity
  8
0
  6
LTYPE2
 62
     3
100
AcDbLine
 10
278.378815102
 20
206.655112437
 30
0.0
 11
278.378815102
 21
236.655112437
 31
0.0
  0
POINT
  5
3B8
330
1F
100
AcDbEntity
  8
10
  6
Continuous
 62
     7
100
AcDbPoint
 10
310.878814983
 20
252.171079044
 30
0.0
  0
POINT
  5
3B9
330
1F
100
AcDbEntity
  8
10
  6
Continuous
 62
     7
100
AcDbPoint
 10
303.878814841
 20
252.171079044
 30
0.0
  0
POINT
  5
3BA
330
1F
100
AcDbEntity
  8
10
  6
Continuous
 62
     7
100
AcDbPoint
 10
279.378814983
 20
244.671079044
 30
0.0
  0
POINT
  5
3BB
330
1F
100
AcDbEntity
  8
10
  6
Continuous
 62
     7
100
AcDbPoint
 10
279.378814983
 20
251.671079014
 30
0.0
  0
LINE
  5
3BC
330
1F
100
AcDbEntity
  8
10
  6
LTYPE2
 62
     3
100
AcDbLine
 10
267.750978962
 20
248.171079044
 30
0.0
 11
267.750978962
 21
248.171079044
 31
0.0
  0
LINE
  5
3BD
330
1F
100
AcDbEntity
  8
5
  6
LTYPE2
 62
     3
100
AcDbLine
 10
318.947730406
 20
248.171079044
 30
0.0
 11
267.750978962
 21
248.171079044
 31
0.0
  0
LINE
  5
3BE
330
1F
100
AcDbEntity
  8
10
  6
LTYPE2
 62
     3
100
AcDbLine
 10
279.378814983
 20
255.18458669
 30
0.0
 11
279.378814983
 21
255.18458669
 31
0.0
  0
LINE
  5
3BF
330
1F
100
AcDbEntity
  8
5
  6
LTYPE2
 62
     3
100
AcDbLine
 10
279.378814983
 20
241.157571397
 30
0.0
 11
279.378814983
 21
255.18458669
 31
0.0
  0
LINE
  5
3C0
330
1F
100
AcDbEntity
  8
5
  6
LTYPE2
 62
     3
100
AcDbLine
 10
293.378814983
 20
240.750991244
 30
0.0
 11
293.378814983
 21
255.591166843
 31
0.0
  0
LWPOLYLINE
  5
3C2
330
1F
100
AcDbEntity
  8
10
  6
LTYPE2
 62
     3
100
AcDbPolyline
 90
     2
 70
   129
 43
0.0
 10
293.378814983
 20
255.591166843
 10
293.378814983
 20
255.591166843
  0
LINE
  5
3C3
330
1F
100
AcDbEntity
  8
5
  6
LTYPE2
 62
     3
100
AcDbLine
 10
307.378814983
 20
237.701640093
 30
0.0
 11
307.378814983
 21
258.640517994
 31
0.0
  0
LINE
  5
3C4
330
1F
100
AcDbEntity
  8
5
  6
LTYPE2
 62
     3
100
AcDbLine
 10
301.06546053
 20
244.171079044
 30
0.0
 11
313.692169436
 21
244.171079044
 31
0.0
  0
LINE
  5
3C5
330
1F
100
AcDbEntity
  8
10
  6
LTYPE2
 62
     3
100
AcDbLine
 10
313.692169436
 20
244.171079044
 30
0.0
 11
313.692169436
 21
244.171079044
 31
0.0
  0
LINE
  5
3C6
330
1F
100
AcDbEntity
  8
10
  6
LTYPE2
 62
     3
100
AcDbLine
 10
313.835453165
 20
252.171079044
 30
0.0
 11
313.835453165
 21
252.171079044
 31
0.0
  0
LINE
  5
3C7
330
1F
100
AcDbEntity
  8
5
  6
LTYPE2
 62
     3
100
AcDbLine
 10
300.936864612
 20
252.171079044
 30
0.0
 11
313.835453165
 21
252.171079044
 31
0.0
  0
LINE
  5
3C8
330
1F
100
AcDbEntity
  8
2
  6
Continuous
 62
     1
100
AcDbLine
 10
295.97881499
 20
238.571078915
 30
0.0
 11
290.778814976
 21
238.571078915
 31
0.0
  0
LINE
  5
3C9
330
1F
100
AcDbEntity
  8
2
  6
Continuous
 62
     1
100
AcDbLine
 10
271.378815102
 20
232.171078611
 30
0.0
 11
315.378814864
 21
232.171078611
 31
0.0
  0
LINE
  5
3CA
330
1F
100
AcDbEntity
  8
2
  6
Continuous
 62
     1
100
AcDbLine
 10
315.378814864
 20
234.571079191
 30
0.0
 11
271.378815102
 21
234.571079191
 31
0.0
  0
LINE
  5
3CB
330
1F
100
AcDbEntity
  8
2
  6
Continuous
 62
     1
100
AcDbLine
 10
295.97881499
 20
238.571078915
 30
0.0
 11
295.97881499
 21
234.571079191
 31
0.0
  0
LINE
  5
3CC
330
1F
100
AcDbEntity
  8
2
  6
Continuous
 62
     1
100
AcDbLine
 10
271.378815102
 20
260.171079476
 30
0.0
 11
271.378815102
 21
232.171078611
 31
0.0
  0
LINE
  5
3CD
330
1F
100
AcDbEntity
  8
2
  6
Continuous
 62
     1
100
AcDbLine
 10
290.778814976
 20
238.571078915
 30
0.0
 11
290.778814976
 21
234.571079191
 31
0.0
  0
POINT
  5
3CE
330
1F
100
AcDbEntity
  8
10
  6
Continuous
 62
     1
100
AcDbPoint
 10
271.378815102
 20
232.171078611
 30
0.0
  0
POINT
  5
3CF
330
1F
100
AcDbEntity
  8
10
  6
Continuous
 62
     1
100
AcDbPoint
 10
271.378815102
 20
232.171078611
 30
0.0
  0
LINE
  5
3D0
330
1F
100
AcDbEntity
  8
2
  6
Continuous
 62
     1
100
AcDbLine
 10
293.378814983
 20
251.671079014
 30
0.0
 11
279.378814551
 21
251.671079014
 31
0.0
  0
ARC
  5
3D1
330
1F
100
AcDbEntity
  8
2
  6
Continuous
 62
     1
100
AcDbCircle
 10
293.378814983
 20
248.171079044
 30
0.0
 40
3.5
100
AcDbArc
 50
270.0
 51
90.0
  0
LINE
  5
3D2
330
1F
100
AcDbEntity
  8
2
  6
Continuous
 62
     1
100
AcDbLine
 10
279.378814551
 20
244.671079031
 30
0.0
 11
293.378814983
 21
244.671079031
 31
0.0
  0
ARC
  5
3D3
330
1F
100
AcDbEntity
  8
2
  6
Continuous
 62
     1
100
AcDbCircle
 10
279.378814983
 20
248.171079044
 30
0.0
 40
3.5
100
AcDbArc
 50
90.0
 51
270.0
  0
LINE
  5
3D4
330
1F
100
AcDbEntity
  8
2
  6
Continuous
 62
     1
100
AcDbLine
 10
315.378814864
 20
232.171078611
 30
0.0
 11
315.378814864
 21
260.171079476
 31
0.0
  0
ARC
  5
3D5
330
1F
100
AcDbEntity
  8
2
  6
Continuous
 62
     1
100
AcDbCircle
 10
307.378814983
 20
252.171079044
 30
0.0
 40
3.5
100
AcDbArc
 50
0.0
 51
180.0
  0
LINE
  5
3D6
330
1F
100
AcDbEntity
  8
2
  6
Continuous
 62
     1
100
AcDbLine
 10
303.878814841
 20
252.171079096
 30
0.0
 11
303.878814841
 21
244.171078949
 31
0.0
  0
LINE
  5
3D7
330
1F
100
AcDbEntity
  8
2
  6
Continuous
 62
     1
100
AcDbLine
 10
310.878815057
 20
244.171078949
 30
0.0
 11
310.878815057
 21
252.171079096
 31
0.0
  0
ARC
  5
3D8
330
1F
100
AcDbEntity
  8
2
  6
Continuous
 62
     1
100
AcDbCircle
 10
307.378814983
 20
244.171079044
 30
0.0
 40
3.5
100
AcDbArc
 50
180.0
 51
0.0
  0
ARC
  5
3D9
330
1F
100
AcDbEntity
  8
7
  6
LTYPE3
 62
     3
100
AcDbCircle
 10
274.778814865
 20
238.915307631
 30
0.0
 40
2.0
100
AcDbArc
 50
116.74368395
 51
180.0
  0
LINE
  5
3DA
330
1F
100
AcDbEntity
  8
7
  6
LTYPE3
 62
     3
100
AcDbLine
 10
278.378814865
 20
241.771079191
 30
0.0
 11
281.978814865
 21
239.620728698
 31
0.0
  0
LINE
  5
3DB
330
1F
100
AcDbEntity
  8
7
  6
LTYPE3
 62
     3
100
AcDbLine
 10
278.378814865
 20
241.771079191
 30
0.0
 11
274.778814865
 21
239.620728698
 31
0.0
  0
LINE
  5
3DC
330
1F
100
AcDbEntity
  8
7
  6
LTYPE3
 62
     3
100
AcDbLine
 10
272.778814865
 20
238.915307631
 30
0.0
 11
272.778814865
 21
236.971079191
 31
0.0
  0
ARC
  5
3DD
330
1F
100
AcDbEntity
  8
7
  6
LTYPE3
 62
     3
100
AcDbCircle
 10
278.378814865
 20
231.771079191
 30
0.0
 40
10.0
100
AcDbArc
 50
63.25631605
 51
116.74368395
  0
LINE
  5
3DE
330
1F
100
AcDbEntity
  8
7
  6
LTYPE3
 62
     3
100
AcDbLine
 10
283.978814865
 20
238.915307631
 30
0.0
 11
283.978814865
 21
236.971079191
 31
0.0
  0
ARC
  5
3DF
330
1F
100
AcDbEntity
  8
7
  6
LTYPE3
 62
     3
100
AcDbCircle
 10
281.978814865
 20
238.915307631
 30
0.0
 40
2.0
100
AcDbArc
 50
0.0
 51
63.25631605
  0
LINE
  5
3E0
330
1F
100
AcDbEntity
  8
7
  6
LTYPE3
 62
     3
100
AcDbLine
 10
278.782960054
 20
235.571079191
 30
0.0
 11
277.974669677
 21
236.971079191
 31
0.0
  0
LINE
  5
3E1
330
1F
100
AcDbEntity
  8
7
  6
LTYPE3
 62
     3
100
AcDbLine
 10
272.478814865
 20
235.571079191
 30
0.0
 11
272.478814865
 21
236.971079191
 31
0.0
  0
LWPOLYLINE
  5
3E3
330
1F
100
AcDbEntity
  8
7
  6
LTYPE3
 62
     3
100
AcDbPolyline
 90
     3
 70
   128
 43
0.0
 10
272.378814865
 20
234.571079191
 10
272.378814865
 20
235.571079191
 10
284.378814865
 20
235.571079191
  0
LWPOLYLINE
  5
3E5
330
1F
100
AcDbEntity
  8
7
  6
LTYPE3
 62
     3
100
AcDbPolyline
 90
     3
 70
   128
 43
0.0
 10
272.478814865
 20
236.971079191
 10
284.278814865
 20
236.971079191
 10
284.278814865
 20
235.571079191
  0
LINE
  5
3E6
330
1F
100
AcDbEntity
  8
7
  6
LTYPE3
 62
     3
100
AcDbLine
 10
284.378814865
 20
235.571079191
 30
0.0
 11
284.378814865
 21
234.571079191
 31
0.0
  0
LINE
  5
3E7
330
1F
100
AcDbEntity
  8
2
  6
Continuous
 62
     7
100
AcDbLine
 10
273.378815102
 20
231.771099818
 30
0.0
 11
311.378814302
 21
231.771099818
 31
0.0
  0
LINE
  5
3E8
330
1F
100
AcDbEntity
  8
2
  6
Continuous
 62
     7
100
AcDbLine
 10
311.378814302
 20
210.971081818
 30
0.0
 11
273.378815102
 21
210.971081818
 31
0.0
  0
LINE
  5
3E9
330
1F
100
AcDbEntity
  8
2
  6
Continuous
 62
     7
100
AcDbLine
 10
272.378815102
 20
212.971081818
 30
0.0
 11
272.378815102
 21
229.771099818
 31
0.0
  0
LINE
  5
3EA
330
1F
100
AcDbEntity
  8
2
  6
Continuous
 62
     7
100
AcDbLine
 10
272.378815102
 20
212.971081818
 30
0.0
 11
272.378815102
 21
211.971081818
 31
0.0
  0
ARC
  5
3EB
330
1F
100
AcDbEntity
  8
2
  6
Continuous
 62
     7
100
AcDbCircle
 10
273.378815102
 20
211.971081818
 30
0.0
 40
1.0
100
AcDbArc
 50
180.00001
 51
270.0
  0
LINE
  5
3EC
330
1F
100
AcDbEntity
  8
2
  6
Continuous
 62
     7
100
AcDbLine
 10
278.378815062
 20
212.371075818
 30
0.0
 11
280.378815062
 21
212.371075818
 31
0.0
  0
ARC
  5
3ED
330
1F
100
AcDbEntity
  8
2
  6
Continuous
 62
     7
100
AcDbCircle
 10
273.378815102
 20
230.771099818
 30
0.0
 40
1.0
100
AcDbArc
 50
90.000003
 51
180.00001
  0
LINE
  5
3EE
330
1F
100
AcDbEntity
  8
2
  6
Continuous
 62
     7
100
AcDbLine
 10
272.378815102
 20
229.771099818
 30
0.0
 11
272.378815102
 21
230.771099818
 31
0.0
  0
LINE
  5
3EF
330
1F
100
AcDbEntity
  8
2
  6
Continuous
 62
     7
100
AcDbLine
 10
312.378814302
 20
230.771099818
 30
0.0
 11
312.378814302
 21
211.971081818
 31
0.0
  0
ARC
  5
3F0
330
1F
100
AcDbEntity
  8
2
  6
Continuous
 62
     7
100
AcDbCircle
 10
311.378814302
 20
211.971081818
 30
0.0
 40
1.0
100
AcDbArc
 50
270.0
 51
0.0
  0
ARC
  5
3F1
330
1F
100
AcDbEntity
  8
2
  6
Continuous
 62
     7
100
AcDbCircle
 10
311.378814302
 20
230.771099818
 30
0.0
 40
1.0
100
AcDbArc
 50
0.0
 51
90.000003
  0
LINE
  5
3F2
330
1F
100
AcDbEntity
  8
2
  6
Continuous
 62
     7
100
AcDbLine
 10
274.378815108
 20
232.171078611
 30
0.0
 11
282.378815108
 21
232.171078611
 31
0.0
  0
ARC
  5
3F3
330
1F
100
AcDbEntity
  8
2
  6
Continuous
 62
     7
100
AcDbCircle
 10
274.378815108
 20
231.771084715
 30
0.0
 40
0.400000006
100
AcDbArc
 50
90.000002504
 51
180.000005009
  0
ARC
  5
3F4
330
1F
100
AcDbEntity
  8
2
  6
Continuous
 62
     7
100
AcDbCircle
 10
282.378815108
 20
231.771084715
 30
0.0
 40
0.400000006
100
AcDbArc
 50
0.0
 51
90.000002504
  0
LINE
  5
3F5
330
1F
100
AcDbEntity
  8
2
  6
Continuous
 62
     7
100
AcDbLine
 10
274.378815108
 20
210.571072508
 30
0.0
 11
282.378815108
 21
210.571072508
 31
0.0
  0
ARC
  5
3F6
330
1F
100
AcDbEntity
  8
2
  6
Continuous
 62
     7
100
AcDbCircle
 10
274.378815108
 20
210.971096922
 30
0.0
 40
0.400000006
100
AcDbArc
 50
180.000008651
 51
269.999997496
  0
ARC
  5
3F7
330
1F
100
AcDbEntity
  8
2
  6
Continuous
 62
     7
100
AcDbCircle
 10
282.378815108
 20
210.971096922
 30
0.0
 40
0.400000006
100
AcDbArc
 50
269.999997496
 51
0.0
  0
LINE
  5
3F8
330
1F
100
AcDbEntity
  8
5
  6
LTYPE2
 62
     3
100
AcDbLine
 10
278.378815102
 20
205.993742026
 30
0.0
 11
278.378815102
 21
235.193742026
 31
0.0
  0
LINE
  5
3F9
330
1F
100
AcDbEntity
  8
0
  6
Continuous
 62
     7
100
AcDbLine
 10
326.464103844
 20
225.371078611
 30
0.0
 11
319.520950726
 21
225.371078611
 31
0.0
  0
LINE
  5
3FA
330
1F
100
AcDbEntity
  8
0
  6
Continuous
 62
     7
100
AcDbLine
 10
312.378815102
 20
217.371078611
 30
0.0
 11
321.344151506
 21
217.371078611
 31
0.0
  0
MTEXT
  5
3FB
330
1F
100
AcDbEntity
  8
0
  6
Continuous
 62
     3
100
AcDbMText
 10
308.728375583
 20
224.413320985
 30
0.0
 40
3.5
 41
5.6
 71
     7
 72
     1
  1
\W0.800;Ｌ
  7
KANJI12
 11
0.0
 21
1.0
 31
0.0
 73
     1
 44
1.0
  0
MTEXT
  5
3FD
330
1F
100
AcDbEntity
  8
0
  6
Continuous
 62
     3
100
AcDbMText
 10
308.728375583
 20
215.628878652
 30
0.0
 40
3.5
 41
5.6
 71
     7
 72
     1
  1
\W0.800;Ｄ
  7
KANJI12
 11
0.0
 21
1.0
 31
0.0
 73
     1
 44
1.0
  0
MTEXT
  5
3FE
330
1F
100
AcDbEntity
  8
0
  6
Continuous
 62
     3
100
AcDbMText
 10
330.414711538
 20
243.091234352
 30
0.0
 40
3.0
 41
53.4
 71
     7
 72
     1
  1
\T1.111;\W0.900;動作切替スイッチは
  7
KANJI9
 73
     1
 44
1.0
  0
LINE
  5
3FF
330
1F
100
AcDbEntity
  8
0
  6
Continuous
 62
     3
100
AcDbLine
 10
330.414711538
 20
238.091234352
 30
0.0
 11
357.114711538
 21
238.091234352
 31
0.0
  0
LINE
  5
400
330
1F
100
AcDbEntity
  8
0
  6
Continuous
 62
     3
100
AcDbLine
 10
305.964711538
 20
222.591234352
 30
0.0
 11
308.35067059
 21
223.337692254
 31
0.0
  0
LINE
  5
401
330
1F
100
AcDbEntity
  8
0
  6
Continuous
 62
     3
100
AcDbLine
 10
305.964711538
 20
222.591234352
 30
0.0
 11
307.657783739
 21
224.430665384
 31
0.0
  0
LINE
  5
402
330
1F
100
AcDbEntity
  8
0
  6
Continuous
 62
     3
100
AcDbLine
 10
305.964711538
 20
222.591234352
 30
0.0
 11
330.414711538
 21
238.091234352
 31
0.0
  0
MTEXT
  5
403
330
1F
100
AcDbEntity
  8
0
  6
Continuous
 62
     2
100
AcDbMText
 10
282.998880537
 20
200.463278915
 30
0.0
 40
3.0
 41
48.0
 71
     7
 72
     1
  1
\T1.125;\W0.800;Ｓｃａｌｅ　２：１
  7
KANJI13
 73
     1
 44
1.0
  0
MTEXT
  5
405
330
1F
100
AcDbEntity
  8
0
  6
Continuous
 62
     2
100
AcDbMText
 10
284.398880537
 20
204.463278915
 30
0.0
 40
3.0
 41
40.2
 71
     7
 72
     1
  1
\T1.125;\W0.755;Ｄｅｔａｉｌ　Ａ
  7
KANJI13
 73
     1
 44
1.0
  0
LINE
  5
406
330
1F
100
AcDbEntity
  8
0
  6
LTYPE2
 62
     3
100
AcDbLine
 10
278.378815102
 20
206.655112437
 30
0.0
 11
278.378815102
 21
236.655112437
 31
0.0
  0
LINE
  5
407
330
1F
100
AcDbEntity
  8
5
  6
LTYPE2
 62
     3
100
AcDbLine
 10
278.378815102
 20
205.993742026
 30
0.0
 11
278.378815102
 21
235.193742026
 31
0.0
  0
CIRCLE
  5
408
330
1F
100
AcDbEntity
  8
2
  6
Continuous
 62
     7
100
AcDbCircle
 10
294.778815103
 20
221.371078608
 30
0.0
 40
2.4
  0
LINE
  5
409
330
1F
100
AcDbEntity
  8
2
  6
Continuous
 62
     7
100
AcDbLine
 10
295.421094865
 20
223.683539787
 30
0.0
 11
293.097304857
 21
219.658617428
 31
0.0
  0
LINE
  5
40A
330
1F
100
AcDbEntity
  8
2
  6
Continuous
 62
     7
100
AcDbLine
 10
290.049355123
 20
214.371078609
 30
0.0
 11
307.578815104
 21
214.371078609
 31
0.0
  0
LINE
  5
40B
330
1F
100
AcDbEntity
  8
2
  6
Continuous
 62
     7
100
AcDbLine
 10
307.578815104
 20
228.371078609
 30
0.0
 11
290.049355123
 21
228.371078609
 31
0.0
  0
LINE
  5
40C
330
1F
100
AcDbEntity
  8
2
  6
Continuous
 62
     7
100
AcDbLine
 10
282.416462744
 20
224.571078609
 30
0.0
 11
282.416462744
 21
218.171078611
 31
0.0
  0
LINE
  5
40D
330
1F
100
AcDbEntity
  8
2
  6
Continuous
 62
     7
100
AcDbLine
 10
291.941167464
 20
224.571078611
 30
0.0
 11
291.941167464
 21
218.171078609
 31
0.0
  0
ARC
  5
40E
330
1F
100
AcDbEntity
  8
2
  6
Continuous
 62
     7
100
AcDbCircle
 10
287.178815104
 20
218.171078609
 30
0.0
 40
4.76235236
100
AcDbArc
 50
180.0
 51
0.000000024
  0
LINE
  5
40F
330
1F
100
AcDbEntity
  8
2
  6
Continuous
 62
     7
100
AcDbLine
 10
281.378815102
 20
230.371078611
 30
0.0
 11
281.378815102
 21
212.371078611
 31
0.0
  0
LINE
  5
410
330
1F
100
AcDbEntity
  8
2
  6
Continuous
 62
     7
100
AcDbLine
 10
280.378815102
 20
216.971078611
 30
0.0
 11
278.378815102
 21
216.971078611
 31
0.0
  0
LINE
  5
411
330
1F
100
AcDbEntity
  8
2
  6
Continuous
 62
     7
100
AcDbLine
 10
280.378815102
 20
212.571078611
 30
0.0
 11
278.378815102
 21
212.571078611
 31
0.0
  0
LINE
  5
412
330
1F
100
AcDbEntity
  8
2
  6
Continuous
 62
     7
100
AcDbLine
 10
280.378815102
 20
212.571078611
 30
0.0
 11
280.378815102
 21
216.971078611
 31
0.0
  0
LINE
  5
413
330
1F
100
AcDbEntity
  8
2
  6
Continuous
 62
     7
100
AcDbLine
 10
280.378815102
 20
230.171078615
 30
0.0
 11
278.378815102
 21
230.171078615
 31
0.0
  0
LINE
  5
414
330
1F
100
AcDbEntity
  8
2
  6
Continuous
 62
     7
100
AcDbLine
 10
280.378815102
 20
225.771078615
 30
0.0
 11
278.378815102
 21
225.771078615
 31
0.0
  0
ARC
  5
415
330
1F
100
AcDbEntity
  8
2
  6
Continuous
 62
     7
100
AcDbCircle
 10
287.178815104
 20
224.571078609
 30
0.0
 40
4.76235236
100
AcDbArc
 50
0.000000024
 51
180.0
  0
LINE
  5
416
330
1F
100
AcDbEntity
  8
2
  6
Continuous
 62
     7
100
AcDbLine
 10
280.378815102
 20
230.171078615
 30
0.0
 11
280.378815102
 21
225.771078615
 31
0.0
  0
LINE
  5
417
330
1F
100
AcDbEntity
  8
2
  6
Continuous
 62
     7
100
AcDbLine
 10
308.978815104
 20
215.771078609
 30
0.0
 11
308.978815104
 21
226.971078609
 31
0.0
  0
LINE
  5
418
330
1F
100
AcDbEntity
  8
2
  6
Continuous
 62
     7
100
AcDbLine
 10
296.460325349
 20
223.083539787
 30
0.0
 11
294.136535342
 21
219.058617428
 31
0.0
  0
CIRCLE
  5
419
330
1F
100
AcDbEntity
  8
2
  6
Continuous
 62
     7
100
AcDbCircle
 10
303.778815104
 20
221.371078609
 30
0.0
 40
2.4
  0
ARC
  5
41A
330
1F
100
AcDbEntity
  8
2
  6
Continuous
 62
     7
100
AcDbCircle
 10
307.578815104
 20
215.771078609
 30
0.0
 40
1.4
100
AcDbArc
 50
270.0
 51
0.0
  0
ARC
  5
41B
330
1F
100
AcDbEntity
  8
2
  6
Continuous
 62
     7
100
AcDbCircle
 10
307.578815104
 20
226.971078609
 30
0.0
 40
1.4
100
AcDbArc
 50
0.0
 51
90.0
  0
LINE
  5
41C
330
1F
100
AcDbEntity
  8
5
  6
LTYPE2
 62
     3
100
AcDbLine
 10
279.678815102
 20
224.571078611
 30
0.0
 11
295.278815102
 21
224.571078611
 31
0.0
  0
LINE
  5
41D
330
1F
100
AcDbEntity
  8
5
  6
LTYPE2
 62
     3
100
AcDbLine
 10
279.678815102
 20
218.171078611
 30
0.0
 11
295.278815102
 21
218.171078611
 31
0.0
  0
LINE
  5
41E
330
1F
100
AcDbEntity
  8
5
  6
LTYPE2
 62
     3
100
AcDbLine
 10
309.378815104
 20
221.371078609
 30
0.0
 11
289.178815104
 21
221.371078609
 31
0.0
  0
LINE
  5
41F
330
1F
100
AcDbEntity
  8
5
  6
LTYPE2
 62
     3
100
AcDbLine
 10
287.178815104
 20
235.571078609
 30
0.0
 11
287.178815104
 21
208.951103637
 31
0.0
  0
CIRCLE
  5
420
330
1F
100
AcDbEntity
  8
8
  6
LTYPE2
 62
     3
100
AcDbCircle
 10
287.178815104
 20
224.571078611
 30
0.0
 40
3.0
  0
CIRCLE
  5
421
330
1F
100
AcDbEntity
  8
8
  6
LTYPE2
 62
     3
100
AcDbCircle
 10
287.178815104
 20
218.171078611
 30
0.0
 40
3.0
  0
LINE
  5
422
330
1F
100
AcDbEntity
  8
5
  6
LTYPE2
 62
     3
100
AcDbLine
 10
294.778815104
 20
215.771078609
 30
0.0
 11
294.778815104
 21
226.971078609
 31
0.0
  0
LINE
  5
423
330
1F
100
AcDbEntity
  8
5
  6
LTYPE2
 62
     3
100
AcDbLine
 10
303.778815104
 20
215.771078609
 30
0.0
 11
303.778815104
 21
226.971078609
 31
0.0
  0
LINE
  5
424
330
1F
100
AcDbEntity
  8
2
  6
Continuous
 62
     7
100
AcDbLine
 10
278.378815102
 20
230.171078615
 30
0.0
 11
278.378815102
 21
225.771078615
 31
0.0
  0
LINE
  5
425
330
1F
100
AcDbEntity
  8
2
  6
Continuous
 62
     7
100
AcDbLine
 10
278.378815102
 20
212.571078611
 30
0.0
 11
278.378815102
 21
216.971078611
 31
0.0
  0
LINE
  5
426
330
1F
100
AcDbEntity
  8
2
  6
Continuous
 62
     7
100
AcDbLine
 10
310.978815102
 20
230.371078611
 30
0.0
 11
281.378815102
 21
230.371078611
 31
0.0
  0
LINE
  5
427
330
1F
100
AcDbEntity
  8
2
  6
Continuous
 62
     7
100
AcDbLine
 10
310.978815102
 20
212.371078611
 30
0.0
 11
310.978815102
 21
230.371078611
 31
0.0
  0
LINE
  5
428
330
1F
100
AcDbEntity
  8
2
  6
Continuous
 62
     7
100
AcDbLine
 10
281.378815102
 20
212.371078611
 30
0.0
 11
310.978815102
 21
212.371078611
 31
0.0
  0
LINE
  5
429
330
1F
100
AcDbEntity
  8
2
  6
Continuous
 62
     7
100
AcDbLine
 10
304.421094866
 20
219.05861743
 30
0.0
 11
302.097304858
 21
223.083539789
 31
0.0
  0
LINE
  5
42A
330
1F
100
AcDbEntity
  8
2
  6
Continuous
 62
     7
100
AcDbLine
 10
305.46032535
 20
219.65861743
 30
0.0
 11
303.136535343
 21
223.683539789
 31
0.0
  0
MTEXT
  5
42B
330
1F
100
AcDbEntity
  8
0
  6
Continuous
 62
     3
100
AcDbMText
 10
330.414711538
 20
239.091234352
 30
0.0
 40
3.0
 41
47.4
 71
     7
 72
     1
  1
\T1.111;\W0.900;「Ｄ」に設定する
  7
KANJI9
 73
     1
 44
1.0
  0
LINE
  5
42C
330
1F
100
AcDbEntity
  8
2
  6
Continuous
 62
     1
100
AcDbLine
 10
315.378814864
 20
260.171079476
 30
0.0
 11
271.378815102
 21
260.171079476
 31
0.0
  0
MTEXT
  5
42D
330
1F
100
AcDbEntity
  8
0
  6
Continuous
 62
     3
100
AcDbMText
 10
42.366294264
 20
85.051572969
 30
0.0
 40
3.0
 41
24.6
 71
     7
 72
     1
  1
\T1.167;\W0.600;（３０．４）
  7
KANJI7
 11
0.0
 21
1.0
 31
0.0
 73
     1
 44
1.0
  0
MTEXT
  5
42E
330
1F
100
AcDbEntity
  8
0
  6
Continuous
 62
     3
100
AcDbMText
 10
40.185472477
 20
150.906832324
 30
0.0
 40
4.0
 41
121.6
 71
     7
 72
     1
  1
\W0.800;＜付属品＞　反射ミラー　Ｅ３９－Ｒ１０
  7
KANJI0
 73
     1
 44
1.0
  0
MTEXT
  5
42F
330
1F
100
AcDbEntity
  8
0
  6
Continuous
 62
     1
100
AcDbMText
 10
21.0
 20
270.0
 30
0.0
 40
10.0
 41
143.6
 71
     7
 72
     1
  1
\T1.030;\W1.000;ＳＵＣ－５５３
  7
KANJI14
 73
     1
 44
1.0
  0
MTEXT
  5
431
330
1F
100
AcDbEntity
  8
0
  6
Continuous
 62
     1
100
AcDbMText
 10
21.0
 20
260.0
 30
0.0
 40
10.0
 41
246.6
 71
     7
 72
     1
  1
\T1.030;\W1.000;光電センサ（回帰反射型）
  7
KANJI14
 73
     1
 44
1.0
  0
ENDSEC
  0
SECTION
  2
OBJECTS
  0
DICTIONARY
  5
C
330
0
100
AcDbDictionary
280
     0
281
     1
  3
ACAD_GROUP
350
D
  3
ACAD_LAYOUT
350
1A
  3
ACAD_MLINESTYLE
350
17
  3
ACAD_PLOTSETTINGS
350
19
  3
ACAD_PLOTSTYLENAME
350
E
  0
DICTIONARY
  5
D
102
{ACAD_REACTORS
330
C
102
}
330
C
100
AcDbDictionary
280
     0
281
     1
  0
DICTIONARY
  5
1A
102
{ACAD_REACTORS
330
C
102
}
330
C
100
AcDbDictionary
280
     0
281
     1
  3
Model
350
22
  3
ﾚｲｱｳﾄ1
350
1E
  3
ﾚｲｱｳﾄ2
350
26
  0
LAYOUT
  5
22
102
{ACAD_REACTORS
330
1A
102
}
330
1A
100
AcDbPlotSettings
  1

  2

  4

  6

 40
0.0
 41
0.0
 42
0.0
 43
0.0
 44
0.0
 45
0.0
 46
0.0
 47
0.0
 48
0.0
 49
0.0
140
0.0
141
0.0
142
1.0
143
1.0
 70
  1712
 72
     0
 73
     0
 74
     0
  7

 75
     0
147
1.0
148
0.0
149
0.0
100
AcDbLayout
  1
Model
 70
     1
 71
     0
 10
0.0
 20
0.0
 11
0.0
 21
0.0
 12
0.0
 22
0.0
 32
0.0
 14
0.0
 24
0.0
 34
0.0
 15
0.0
 25
0.0
 35
0.0
146
0.0
 13
0.0
 23
0.0
 33
0.0
 16
1.0
 26
0.0
 36
0.0
 17
0.0
 27
1.0
 37
0.0
 76
     0
330
1F
331
0
345
0
346
0
  0
LAYOUT
  5
1E
102
{ACAD_REACTORS
330
1A
102
}
330
1A
100
AcDbPlotSettings
  1

  2

  4

  6

 40
0.0
 41
0.0
 42
0.0
 43
0.0
 44
0.0
 45
0.0
 46
0.0
 47
0.0
 48
0.0
 49
0.0
140
0.0
141
0.0
142
1.0
143
1.0
 70
   688
 72
     0
 73
     0
 74
     5
  7

 75
    16
147
1.0
148
0.0
149
0.0
100
AcDbLayout
  1
ﾚｲｱｳﾄ1
 70
     1
 71
     1
 10
0.0
 20
0.0
 11
0.0
 21
0.0
 12
0.0
 22
0.0
 32
0.0
 14
0.0
 24
0.0
 34
0.0
 15
0.0
 25
0.0
 35
0.0
146
0.0
 13
0.0
 23
0.0
 33
0.0
 16
1.0
 26
0.0
 36
0.0
 17
0.0
 27
1.0
 37
0.0
 76
     0
330
1B
331
0
345
0
346
0
  0
LAYOUT
  5
26
102
{ACAD_REACTORS
330
1A
102
}
330
1A
100
AcDbPlotSettings
  1

  2

  4

  6

 40
0.0
 41
0.0
 42
0.0
 43
0.0
 44
0.0
 45
0.0
 46
0.0
 47
0.0
 48
0.0
 49
0.0
140
0.0
141
0.0
142
1.0
143
1.0
 70
   688
 72
     0
 73
     0
 74
     5
  7

 75
    16
147
1.0
148
0.0
149
0.0
100
AcDbLayout
  1
ﾚｲｱｳﾄ2
 70
     1
 71
     2
 10
0.0
 20
0.0
 11
0.0
 21
0.0
 12
0.0
 22
0.0
 32
0.0
 14
0.0
 24
0.0
 34
0.0
 15
0.0
 25
0.0
 35
0.0
146
0.0
 13
0.0
 23
0.0
 33
0.0
 16
1.0
 26
0.0
 36
0.0
 17
0.0
 27
1.0
 37
0.0
 76
     0
330
23
331
0
345
0
346
0
  0
DICTIONARY
  5
17
102
{ACAD_REACTORS
330
C
102
}
330
C
100
AcDbDictionary
280
     0
281
     1
  3
Standard
350
18
  0
MLINESTYLE
  5
18
102
{ACAD_REACTORS
330
17
102
}
330
17
100
AcDbMlineStyle
  2
STANDARD
 70
     0
  3

 62
   256
 51
90.0
 52
90.0
 71
     2
 49
0.5
 62
   256
  6
ByLayer
 49
-0.5
 62
   256
  6
ByLayer
  0
DICTIONARY
  5
19
102
{ACAD_REACTORS
330
C
102
}
330
C
100
AcDbDictionary
280
     0
281
     1
  0
ACDBDICTIONARYWDFLT
  5
E
330
C
100
AcDbDictionary
281
     0
  3
Normal
350
F
100
AcDbDictionaryWithDefault
340
F
  0
ACDBPLACEHOLDER
  5
F
102
{ACAD_REACTORS
330
E
102
}
330
E
  0
ENDSEC
  0
EOF
