  0
SECTION
  2
HEADER
  9
$ACADVER
  1
AC1015
  9
$ACADMAINTVER
 70
     6
  9
$DWGCODEPAGE
  3
ANSI_932
  9
$INSBASE
 10
0.0
 20
0.0
 30
0.0
  9
$EXTMIN
 10
0.0
 20
0.0
 30
0.0
  9
$EXTMAX
 10
420.0
 20
297.0
 30
0.0
  9
$LIMMIN
 10
0.0
 20
0.0
  9
$LIMMAX
 10
420.0
 20
297.0
  9
$ORTHOMODE
 70
     0
  9
$REGENMODE
 70
     1
  9
$FILLMODE
 70
     1
  9
$QTEXTMODE
 70
     0
  9
$MIRRTEXT
 70
     1
  9
$LTSCALE
 40
1.0
  9
$ATTMODE
 70
     1
  9
$TEXTSIZE
 40
2.5
  9
$TRACEWID
 40
1.0
  9
$TEXTSTYLE
  7
Standard
  9
$CLAYER
  8
0
  9
$CELTYPE
  6
ByLayer
  9
$CECOLOR
 62
   256
  9
$CELTSCALE
 40
1.0
  9
$DISPSILH
 70
     0
  9
$DIMSCALE
 40
1.0
  9
$DIMASZ
 40
2.5
  9
$DIMEXO
 40
0.625
  9
$DIMDLI
 40
3.75
  9
$DIMRND
 40
0.0
  9
$DIMDLE
 40
0.0
  9
$DIMEXE
 40
1.25
  9
$DIMTP
 40
0.0
  9
$DIMTM
 40
0.0
  9
$DIMTXT
 40
2.5
  9
$DIMCEN
 40
2.5
  9
$DIMTSZ
 40
0.0
  9
$DIMTOL
 70
     0
  9
$DIMLIM
 70
     0
  9
$DIMTIH
 70
     0
  9
$DIMTOH
 70
     0
  9
$DIMSE1
 70
     0
  9
$DIMSE2
 70
     0
  9
$DIMTAD
 70
     1
  9
$DIMZIN
 70
     8
  9
$DIMBLK
  1

  9
$DIMASO
 70
     1
  9
$DIMSHO
 70
     1
  9
$DIMPOST
  1

  9
$DIMAPOST
  1

  9
$DIMALT
 70
     0
  9
$DIMALTD
 70
     3
  9
$DIMALTF
 40
0.03937007874016
  9
$DIMLFAC
 40
1.0
  9
$DIMTOFL
 70
     1
  9
$DIMTVP
 40
0.0
  9
$DIMTIX
 70
     0
  9
$DIMSOXD
 70
     0
  9
$DIMSAH
 70
     0
  9
$DIMBLK1
  1

  9
$DIMBLK2
  1

  9
$DIMSTYLE
  2
ISO-25
  9
$DIMCLRD
 70
     0
  9
$DIMCLRE
 70
     0
  9
$DIMCLRT
 70
     0
  9
$DIMTFAC
 40
1.0
  9
$DIMGAP
 40
0.625
  9
$DIMJUST
 70
     0
  9
$DIMSD1
 70
     0
  9
$DIMSD2
 70
     0
  9
$DIMTOLJ
 70
     0
  9
$DIMTZIN
 70
     8
  9
$DIMALTZ
 70
     0
  9
$DIMALTTZ
 70
     0
  9
$DIMUPT
 70
     0
  9
$DIMDEC
 70
     2
  9
$DIMTDEC
 70
     2
  9
$DIMALTU
 70
     2
  9
$DIMALTTD
 70
     3
  9
$DIMTXSTY
  7
Standard
  9
$DIMAUNIT
 70
     0
  9
$DIMADEC
 70
     0
  9
$DIMALTRND
 40
0.0
  9
$DIMAZIN
 70
     0
  9
$DIMDSEP
 70
    46
  9
$DIMATFIT
 70
     3
  9
$DIMFRAC
 70
     0
  9
$DIMLDRBLK
  1

  9
$DIMLUNIT
 70
     2
  9
$DIMLWD
 70
    -2
  9
$DIMLWE
 70
    -2
  9
$DIMTMOVE
 70
     0
  9
$LUNITS
 70
     2
  9
$LUPREC
 70
     4
  9
$SKETCHINC
 40
1.0
  9
$FILLETRAD
 40
10.0
  9
$AUNITS
 70
     0
  9
$AUPREC
 70
     0
  9
$MENU
  1
.
  9
$ELEVATION
 40
0.0
  9
$PELEVATION
 40
0.0
  9
$THICKNESS
 40
0.0
  9
$LIMCHECK
 70
     0
  9
$CHAMFERA
 40
10.0
  9
$CHAMFERB
 40
10.0
  9
$CHAMFERC
 40
20.0
  9
$CHAMFERD
 40
0.0
  9
$SKPOLY
 70
     0
  9
$TDCREATE
 40
2458998.000000
  9
$TDUCREATE
 40
0.000000000
  9
$TDUPDATE
 40
2458998.000000
  9
$TDUUPDATE
 40
2458998.000000
  9
$TDINDWG
 40
0.0
  9
$TDUSRTIMER
 40
0.0
  9
$USRTIMER
 70
     1
  9
$ANGBASE
 50
0.0
  9
$ANGDIR
 70
     0
  9
$PDMODE
 70
     0
  9
$PDSIZE
 40
0.0
  9
$PLINEWID
 40
0.0
  9
$SPLFRAME
 70
     0
  9
$SPLINETYPE
 70
     6
  9
$SPLINESEGS
 70
     8
  9
$HANDSEED
  5
05AC
  9
$SURFTAB1
 70
     6
  9
$SURFTAB2
 70
     6
  9
$SURFTYPE
 70
     6
  9
$SURFU
 70
     6
  9
$SURFV
 70
     6
  9
$UCSBASE
  2

  9
$UCSNAME
  2

  9
$UCSORG
 10
0.0
 20
0.0
 30
0.0
  9
$UCSXDIR
 10
1.0
 20
0.0
 30
0.0
  9
$UCSYDIR
 10
0.0
 20
1.0
 30
0.0
  9
$UCSORTHOREF
  2

  9
$UCSORTHOVIEW
 70
     0
  9
$UCSORGTOP
 10
0.0
 20
0.0
 30
0.0
  9
$UCSORGBOTTOM
 10
0.0
 20
0.0
 30
0.0
  9
$UCSORGLEFT
 10
0.0
 20
0.0
 30
0.0
  9
$UCSORGRIGHT
 10
0.0
 20
0.0
 30
0.0
  9
$UCSORGFRONT
 10
0.0
 20
0.0
 30
0.0
  9
$UCSORGBACK
 10
0.0
 20
0.0
 30
0.0
  9
$PUCSBASE
  2

  9
$PUCSNAME
  2

  9
$PUCSORG
 10
0.0
 20
0.0
 30
0.0
  9
$PUCSXDIR
 10
1.0
 20
0.0
 30
0.0
  9
$PUCSYDIR
 10
0.0
 20
1.0
 30
0.0
  9
$PUCSORTHOREF
  2

  9
$PUCSORTHOVIEW
 70
     0
  9
$PUCSORGTOP
 10
0.0
 20
0.0
 30
0.0
  9
$PUCSORGBOTTOM
 10
0.0
 20
0.0
 30
0.0
  9
$PUCSORGLEFT
 10
0.0
 20
0.0
 30
0.0
  9
$PUCSORGRIGHT
 10
0.0
 20
0.0
 30
0.0
  9
$PUCSORGFRONT
 10
0.0
 20
0.0
 30
0.0
  9
$PUCSORGBACK
 10
0.0
 20
0.0
 30
0.0
  9
$USERI1
 70
     0
  9
$USERI2
 70
     0
  9
$USERI3
 70
     0
  9
$USERI4
 70
     0
  9
$USERI5
 70
     0
  9
$USERR1
 40
0.0
  9
$USERR2
 40
0.0
  9
$USERR3
 40
0.0
  9
$USERR4
 40
0.0
  9
$USERR5
 40
0.0
  9
$WORLDVIEW
 70
     1
  9
$SHADEDGE
 70
     3
  9
$SHADEDIF
 70
    70
  9
$TILEMODE
 70
     1
  9
$MAXACTVP
 70
    64
  9
$PINSBASE
 10
0.0
 20
0.0
 30
0.0
  9
$PLIMCHECK
 70
     0
  9
$PEXTMIN
 10
1.000000E+20
 20
1.000000E+20
 30
1.000000E+20
  9
$PEXTMAX
 10
-1.000000E+20
 20
-1.000000E+20
 30
-1.000000E+20
  9
$PLIMMIN
 10
0.0
 20
0.0
  9
$PLIMMAX
 10
0.0
 20
0.0
  9
$UNITMODE
 70
     0
  9
$VISRETAIN
 70
     0
  9
$PLINEGEN
 70
     0
  9
$PSLTSCALE
 70
     1
  9
$TREEDEPTH
 70
  3020
  9
$CMLSTYLE
  2
STANDARD
  9
$CMLJUST
 70
     0
  9
$CMLSCALE
 40
20.0
  9
$PROXYGRAPHICS
 70
     1
  9
$MEASUREMENT
 70
     1
  9
$CELWEIGHT
370
    -1
  9
$ENDCAPS
280
     0
  9
$JOINSTYLE
280
     0
  9
$LWDISPLAY
290
     0
  9
$INSUNITS
 70
     4
  9
$HYPERLINKBASE
  1

  9
$STYLESHEET
  1

  9
$XEDIT
290
     1
  9
$CEPSNTYPE
380
     0
  9
$PSTYLEMODE
290
     1
  9
$FINGERPRINTGUID
  2
{2257DADB-6980-A7DC-6E98-2C27413D20E3}
  9
$VERSIONGUID
  2
{2257DADB-6980-A7DC-6E98-2C27413D20E3}
  9
$EXTNAMES
290
     1
  9
$PSVPSCALE
 40
0.0
  0
ENDSEC
  0
SECTION
  2
CLASSES
  0
ENDSEC
  0
SECTION
  2
TABLES
  0
TABLE
  2
VPORT
  5
8
330
0
100
AcDbSymbolTable
 70
     3
  0
VPORT
  5
29
330
8
100
AcDbSymbolTableRecord
100
AcDbViewportTableRecord
  2
*Active
 70
     0
 10
0.0
 20
0.0
 11
1.0
 21
1.0
 12
210.0
 22
148.5
 13
0.0
 23
0.0
 14
10.0
 24
10.0
 15
0.0
 25
0.0
 16
0.0
 26
0.0
 36
1.0
 17
0.0
 27
0.0
 37
0.0
 40
297.0
 41
1.414141414
 42
50.0
 43
0.0
 44
0.0
 50
0.0
 51
0.0
 71
     0
 72
  1000
 73
     1
 74
     3
 75
     0
 76
     0
 77
     0
 78
     0
281
     0
 65
     0
110
0.0
120
0.0
130
0.0
111
1.0
121
0.0
131
0.0
112
0.0
122
1.0
132
0.0
 79
     0
146
0.0
  0
ENDTAB
  0
TABLE
  2
LTYPE
  5
5
330
0
100
AcDbSymbolTable
 70
     5
  0
LTYPE
  5
14
330
5
100
AcDbSymbolTableRecord
100
AcDbLinetypeTableRecord
  2
ByBlock
 70
     0
  3

 72
    65
 73
     0
 40
0.0
  0
LTYPE
  5
15
330
5
100
AcDbSymbolTableRecord
100
AcDbLinetypeTableRecord
  2
ByLayer
 70
     0
  3

 72
    65
 73
     0
 40
0.0
  0
LTYPE
  5
16
330
5
100
AcDbSymbolTableRecord
100
AcDbLinetypeTableRecord
  2
Continuous
 70
     0
  3
Solid line
 72
    65
 73
     0
 40
0.0
  0
LTYPE
  5
140
330
5
100
AcDbSymbolTableRecord
100
AcDbLinetypeTableRecord
  2
LTYPE1
 70
     0
  3
CENTER
 72
    65
 73
     4
 40
15.0
 49
10.5
 74
     0
 49
-1.5
 74
     0
 49
1.5
 74
     0
 49
-1.5
 74
     0
  0
LTYPE
  5
293
330
5
100
AcDbSymbolTableRecord
100
AcDbLinetypeTableRecord
  2
LTYPE2
 70
     0
  3
HIDDEN
 72
    65
 73
     2
 40
3.0
 49
1.8
 74
     0
 49
-1.2
 74
     0
  0
ENDTAB
  0
TABLE
  2
LAYER
  5
2
330
0
100
AcDbSymbolTable
 70
   128
  0
LAYER
  5
10
330
2
100
AcDbSymbolTableRecord
100
AcDbLayerTableRecord
  2
0
 70
     0
 62
     7
  6
Continuous
290
     1
370
    -3
390
F
  0
LAYER
  5
2A
330
2
100
AcDbSymbolTableRecord
100
AcDbLayerTableRecord
  2
2
 70
     0
 62
     7
  6
Continuous
290
     1
370
    -3
390
F
  0
LAYER
  5
2B
330
2
100
AcDbSymbolTableRecord
100
AcDbLayerTableRecord
  2
3
 70
     0
 62
     7
  6
Continuous
290
     1
370
    -3
390
F
  0
LAYER
  5
2C
330
2
100
AcDbSymbolTableRecord
100
AcDbLayerTableRecord
  2
4
 70
     0
 62
     7
  6
Continuous
290
     1
370
    -3
390
F
  0
LAYER
  5
2D
330
2
100
AcDbSymbolTableRecord
100
AcDbLayerTableRecord
  2
5
 70
     0
 62
     7
  6
Continuous
290
     1
370
    -3
390
F
  0
LAYER
  5
2E
330
2
100
AcDbSymbolTableRecord
100
AcDbLayerTableRecord
  2
6
 70
     0
 62
     7
  6
Continuous
290
     1
370
    -3
390
F
  0
LAYER
  5
2F
330
2
100
AcDbSymbolTableRecord
100
AcDbLayerTableRecord
  2
7
 70
     0
 62
     7
  6
Continuous
290
     1
370
    -3
390
F
  0
LAYER
  5
30
330
2
100
AcDbSymbolTableRecord
100
AcDbLayerTableRecord
  2
8
 70
     0
 62
     7
  6
Continuous
290
     1
370
    -3
390
F
  0
LAYER
  5
31
330
2
100
AcDbSymbolTableRecord
100
AcDbLayerTableRecord
  2
9
 70
     0
 62
     7
  6
Continuous
290
     1
370
    -3
390
F
  0
LAYER
  5
32
330
2
100
AcDbSymbolTableRecord
100
AcDbLayerTableRecord
  2
10
 70
     0
 62
     7
  6
Continuous
290
     1
370
    -3
390
F
  0
LAYER
  5
33
330
2
100
AcDbSymbolTableRecord
100
AcDbLayerTableRecord
  2
11
 70
     0
 62
     7
  6
Continuous
290
     1
370
    -3
390
F
  0
LAYER
  5
34
330
2
100
AcDbSymbolTableRecord
100
AcDbLayerTableRecord
  2
12
 70
     0
 62
     7
  6
Continuous
290
     1
370
    -3
390
F
  0
LAYER
  5
35
330
2
100
AcDbSymbolTableRecord
100
AcDbLayerTableRecord
  2
13
 70
     0
 62
     7
  6
Continuous
290
     1
370
    -3
390
F
  0
LAYER
  5
36
330
2
100
AcDbSymbolTableRecord
100
AcDbLayerTableRecord
  2
14
 70
     0
 62
     7
  6
Continuous
290
     1
370
    -3
390
F
  0
LAYER
  5
37
330
2
100
AcDbSymbolTableRecord
100
AcDbLayerTableRecord
  2
15
 70
     0
 62
     7
  6
Continuous
290
     1
370
    -3
390
F
  0
LAYER
  5
38
330
2
100
AcDbSymbolTableRecord
100
AcDbLayerTableRecord
  2
16
 70
     0
 62
     7
  6
Continuous
290
     1
370
    -3
390
F
  0
LAYER
  5
39
330
2
100
AcDbSymbolTableRecord
100
AcDbLayerTableRecord
  2
17
 70
     0
 62
     7
  6
Continuous
290
     1
370
    -3
390
F
  0
LAYER
  5
3A
330
2
100
AcDbSymbolTableRecord
100
AcDbLayerTableRecord
  2
18
 70
     0
 62
     7
  6
Continuous
290
     1
370
    -3
390
F
  0
LAYER
  5
3B
330
2
100
AcDbSymbolTableRecord
100
AcDbLayerTableRecord
  2
19
 70
     0
 62
     7
  6
Continuous
290
     1
370
    -3
390
F
  0
LAYER
  5
3C
330
2
100
AcDbSymbolTableRecord
100
AcDbLayerTableRecord
  2
20
 70
     0
 62
     7
  6
Continuous
290
     1
370
    -3
390
F
  0
LAYER
  5
3D
330
2
100
AcDbSymbolTableRecord
100
AcDbLayerTableRecord
  2
21
 70
     0
 62
     7
  6
Continuous
290
     1
370
    -3
390
F
  0
LAYER
  5
3E
330
2
100
AcDbSymbolTableRecord
100
AcDbLayerTableRecord
  2
22
 70
     0
 62
     7
  6
Continuous
290
     1
370
    -3
390
F
  0
LAYER
  5
3F
330
2
100
AcDbSymbolTableRecord
100
AcDbLayerTableRecord
  2
23
 70
     0
 62
     7
  6
Continuous
290
     1
370
    -3
390
F
  0
LAYER
  5
40
330
2
100
AcDbSymbolTableRecord
100
AcDbLayerTableRecord
  2
24
 70
     0
 62
     7
  6
Continuous
290
     1
370
    -3
390
F
  0
LAYER
  5
41
330
2
100
AcDbSymbolTableRecord
100
AcDbLayerTableRecord
  2
25
 70
     0
 62
     7
  6
Continuous
290
     1
370
    -3
390
F
  0
LAYER
  5
42
330
2
100
AcDbSymbolTableRecord
100
AcDbLayerTableRecord
  2
26
 70
     0
 62
     7
  6
Continuous
290
     1
370
    -3
390
F
  0
LAYER
  5
43
330
2
100
AcDbSymbolTableRecord
100
AcDbLayerTableRecord
  2
27
 70
     0
 62
     7
  6
Continuous
290
     1
370
    -3
390
F
  0
LAYER
  5
44
330
2
100
AcDbSymbolTableRecord
100
AcDbLayerTableRecord
  2
28
 70
     0
 62
     7
  6
Continuous
290
     1
370
    -3
390
F
  0
LAYER
  5
45
330
2
100
AcDbSymbolTableRecord
100
AcDbLayerTableRecord
  2
29
 70
     0
 62
     7
  6
Continuous
290
     1
370
    -3
390
F
  0
LAYER
  5
46
330
2
100
AcDbSymbolTableRecord
100
AcDbLayerTableRecord
  2
30
 70
     0
 62
     7
  6
Continuous
290
     1
370
    -3
390
F
  0
LAYER
  5
47
330
2
100
AcDbSymbolTableRecord
100
AcDbLayerTableRecord
  2
31
 70
     0
 62
     7
  6
Continuous
290
     1
370
    -3
390
F
  0
LAYER
  5
48
330
2
100
AcDbSymbolTableRecord
100
AcDbLayerTableRecord
  2
32
 70
     0
 62
     7
  6
Continuous
290
     1
370
    -3
390
F
  0
LAYER
  5
49
330
2
100
AcDbSymbolTableRecord
100
AcDbLayerTableRecord
  2
33
 70
     0
 62
     7
  6
Continuous
290
     1
370
    -3
390
F
  0
LAYER
  5
4A
330
2
100
AcDbSymbolTableRecord
100
AcDbLayerTableRecord
  2
34
 70
     0
 62
     7
  6
Continuous
290
     1
370
    -3
390
F
  0
LAYER
  5
4B
330
2
100
AcDbSymbolTableRecord
100
AcDbLayerTableRecord
  2
35
 70
     0
 62
     7
  6
Continuous
290
     1
370
    -3
390
F
  0
LAYER
  5
4C
330
2
100
AcDbSymbolTableRecord
100
AcDbLayerTableRecord
  2
36
 70
     0
 62
     7
  6
Continuous
290
     1
370
    -3
390
F
  0
LAYER
  5
4D
330
2
100
AcDbSymbolTableRecord
100
AcDbLayerTableRecord
  2
37
 70
     0
 62
     7
  6
Continuous
290
     1
370
    -3
390
F
  0
LAYER
  5
4E
330
2
100
AcDbSymbolTableRecord
100
AcDbLayerTableRecord
  2
38
 70
     0
 62
     7
  6
Continuous
290
     1
370
    -3
390
F
  0
LAYER
  5
4F
330
2
100
AcDbSymbolTableRecord
100
AcDbLayerTableRecord
  2
39
 70
     0
 62
     7
  6
Continuous
290
     1
370
    -3
390
F
  0
LAYER
  5
50
330
2
100
AcDbSymbolTableRecord
100
AcDbLayerTableRecord
  2
40
 70
     0
 62
     7
  6
Continuous
290
     1
370
    -3
390
F
  0
LAYER
  5
51
330
2
100
AcDbSymbolTableRecord
100
AcDbLayerTableRecord
  2
41
 70
     0
 62
     7
  6
Continuous
290
     1
370
    -3
390
F
  0
LAYER
  5
52
330
2
100
AcDbSymbolTableRecord
100
AcDbLayerTableRecord
  2
42
 70
     0
 62
     7
  6
Continuous
290
     1
370
    -3
390
F
  0
LAYER
  5
53
330
2
100
AcDbSymbolTableRecord
100
AcDbLayerTableRecord
  2
43
 70
     0
 62
     7
  6
Continuous
290
     1
370
    -3
390
F
  0
LAYER
  5
54
330
2
100
AcDbSymbolTableRecord
100
AcDbLayerTableRecord
  2
44
 70
     0
 62
     7
  6
Continuous
290
     1
370
    -3
390
F
  0
LAYER
  5
55
330
2
100
AcDbSymbolTableRecord
100
AcDbLayerTableRecord
  2
45
 70
     0
 62
     7
  6
Continuous
290
     1
370
    -3
390
F
  0
LAYER
  5
56
330
2
100
AcDbSymbolTableRecord
100
AcDbLayerTableRecord
  2
46
 70
     0
 62
     7
  6
Continuous
290
     1
370
    -3
390
F
  0
LAYER
  5
57
330
2
100
AcDbSymbolTableRecord
100
AcDbLayerTableRecord
  2
47
 70
     0
 62
     7
  6
Continuous
290
     1
370
    -3
390
F
  0
LAYER
  5
58
330
2
100
AcDbSymbolTableRecord
100
AcDbLayerTableRecord
  2
48
 70
     0
 62
     7
  6
Continuous
290
     1
370
    -3
390
F
  0
LAYER
  5
59
330
2
100
AcDbSymbolTableRecord
100
AcDbLayerTableRecord
  2
49
 70
     0
 62
     7
  6
Continuous
290
     1
370
    -3
390
F
  0
LAYER
  5
5A
330
2
100
AcDbSymbolTableRecord
100
AcDbLayerTableRecord
  2
50
 70
     0
 62
     7
  6
Continuous
290
     1
370
    -3
390
F
  0
LAYER
  5
5B
330
2
100
AcDbSymbolTableRecord
100
AcDbLayerTableRecord
  2
51
 70
     0
 62
     7
  6
Continuous
290
     1
370
    -3
390
F
  0
LAYER
  5
5C
330
2
100
AcDbSymbolTableRecord
100
AcDbLayerTableRecord
  2
52
 70
     0
 62
     7
  6
Continuous
290
     1
370
    -3
390
F
  0
LAYER
  5
5D
330
2
100
AcDbSymbolTableRecord
100
AcDbLayerTableRecord
  2
53
 70
     0
 62
     7
  6
Continuous
290
     1
370
    -3
390
F
  0
LAYER
  5
5E
330
2
100
AcDbSymbolTableRecord
100
AcDbLayerTableRecord
  2
54
 70
     0
 62
     7
  6
Continuous
290
     1
370
    -3
390
F
  0
LAYER
  5
5F
330
2
100
AcDbSymbolTableRecord
100
AcDbLayerTableRecord
  2
55
 70
     0
 62
     7
  6
Continuous
290
     1
370
    -3
390
F
  0
LAYER
  5
60
330
2
100
AcDbSymbolTableRecord
100
AcDbLayerTableRecord
  2
56
 70
     0
 62
     7
  6
Continuous
290
     1
370
    -3
390
F
  0
LAYER
  5
61
330
2
100
AcDbSymbolTableRecord
100
AcDbLayerTableRecord
  2
57
 70
     0
 62
     7
  6
Continuous
290
     1
370
    -3
390
F
  0
LAYER
  5
62
330
2
100
AcDbSymbolTableRecord
100
AcDbLayerTableRecord
  2
58
 70
     0
 62
     7
  6
Continuous
290
     1
370
    -3
390
F
  0
LAYER
  5
63
330
2
100
AcDbSymbolTableRecord
100
AcDbLayerTableRecord
  2
59
 70
     0
 62
     7
  6
Continuous
290
     1
370
    -3
390
F
  0
LAYER
  5
64
330
2
100
AcDbSymbolTableRecord
100
AcDbLayerTableRecord
  2
60
 70
     0
 62
     7
  6
Continuous
290
     1
370
    -3
390
F
  0
LAYER
  5
65
330
2
100
AcDbSymbolTableRecord
100
AcDbLayerTableRecord
  2
61
 70
     0
 62
     7
  6
Continuous
290
     1
370
    -3
390
F
  0
LAYER
  5
66
330
2
100
AcDbSymbolTableRecord
100
AcDbLayerTableRecord
  2
62
 70
     0
 62
     7
  6
Continuous
290
     1
370
    -3
390
F
  0
LAYER
  5
67
330
2
100
AcDbSymbolTableRecord
100
AcDbLayerTableRecord
  2
63
 70
     0
 62
     7
  6
Continuous
290
     1
370
    -3
390
F
  0
LAYER
  5
68
330
2
100
AcDbSymbolTableRecord
100
AcDbLayerTableRecord
  2
64
 70
     0
 62
     7
  6
Continuous
290
     1
370
    -3
390
F
  0
LAYER
  5
69
330
2
100
AcDbSymbolTableRecord
100
AcDbLayerTableRecord
  2
65
 70
     0
 62
     7
  6
Continuous
290
     1
370
    -3
390
F
  0
LAYER
  5
6A
330
2
100
AcDbSymbolTableRecord
100
AcDbLayerTableRecord
  2
66
 70
     0
 62
     7
  6
Continuous
290
     1
370
    -3
390
F
  0
LAYER
  5
6B
330
2
100
AcDbSymbolTableRecord
100
AcDbLayerTableRecord
  2
67
 70
     0
 62
     7
  6
Continuous
290
     1
370
    -3
390
F
  0
LAYER
  5
6C
330
2
100
AcDbSymbolTableRecord
100
AcDbLayerTableRecord
  2
68
 70
     0
 62
     7
  6
Continuous
290
     1
370
    -3
390
F
  0
LAYER
  5
6D
330
2
100
AcDbSymbolTableRecord
100
AcDbLayerTableRecord
  2
69
 70
     0
 62
     7
  6
Continuous
290
     1
370
    -3
390
F
  0
LAYER
  5
6E
330
2
100
AcDbSymbolTableRecord
100
AcDbLayerTableRecord
  2
70
 70
     0
 62
     7
  6
Continuous
290
     1
370
    -3
390
F
  0
LAYER
  5
6F
330
2
100
AcDbSymbolTableRecord
100
AcDbLayerTableRecord
  2
71
 70
     0
 62
     7
  6
Continuous
290
     1
370
    -3
390
F
  0
LAYER
  5
70
330
2
100
AcDbSymbolTableRecord
100
AcDbLayerTableRecord
  2
72
 70
     0
 62
     7
  6
Continuous
290
     1
370
    -3
390
F
  0
LAYER
  5
71
330
2
100
AcDbSymbolTableRecord
100
AcDbLayerTableRecord
  2
73
 70
     0
 62
     7
  6
Continuous
290
     1
370
    -3
390
F
  0
LAYER
  5
72
330
2
100
AcDbSymbolTableRecord
100
AcDbLayerTableRecord
  2
74
 70
     0
 62
     7
  6
Continuous
290
     1
370
    -3
390
F
  0
LAYER
  5
73
330
2
100
AcDbSymbolTableRecord
100
AcDbLayerTableRecord
  2
75
 70
     0
 62
     7
  6
Continuous
290
     1
370
    -3
390
F
  0
LAYER
  5
74
330
2
100
AcDbSymbolTableRecord
100
AcDbLayerTableRecord
  2
76
 70
     0
 62
     7
  6
Continuous
290
     1
370
    -3
390
F
  0
LAYER
  5
75
330
2
100
AcDbSymbolTableRecord
100
AcDbLayerTableRecord
  2
77
 70
     0
 62
     7
  6
Continuous
290
     1
370
    -3
390
F
  0
LAYER
  5
76
330
2
100
AcDbSymbolTableRecord
100
AcDbLayerTableRecord
  2
78
 70
     0
 62
     7
  6
Continuous
290
     1
370
    -3
390
F
  0
LAYER
  5
77
330
2
100
AcDbSymbolTableRecord
100
AcDbLayerTableRecord
  2
79
 70
     0
 62
     7
  6
Continuous
290
     1
370
    -3
390
F
  0
LAYER
  5
78
330
2
100
AcDbSymbolTableRecord
100
AcDbLayerTableRecord
  2
80
 70
     0
 62
     7
  6
Continuous
290
     1
370
    -3
390
F
  0
LAYER
  5
79
330
2
100
AcDbSymbolTableRecord
100
AcDbLayerTableRecord
  2
81
 70
     0
 62
     7
  6
Continuous
290
     1
370
    -3
390
F
  0
LAYER
  5
7A
330
2
100
AcDbSymbolTableRecord
100
AcDbLayerTableRecord
  2
82
 70
     0
 62
     7
  6
Continuous
290
     1
370
    -3
390
F
  0
LAYER
  5
7B
330
2
100
AcDbSymbolTableRecord
100
AcDbLayerTableRecord
  2
83
 70
     0
 62
     7
  6
Continuous
290
     1
370
    -3
390
F
  0
LAYER
  5
7C
330
2
100
AcDbSymbolTableRecord
100
AcDbLayerTableRecord
  2
84
 70
     0
 62
     7
  6
Continuous
290
     1
370
    -3
390
F
  0
LAYER
  5
7D
330
2
100
AcDbSymbolTableRecord
100
AcDbLayerTableRecord
  2
85
 70
     0
 62
     7
  6
Continuous
290
     1
370
    -3
390
F
  0
LAYER
  5
7E
330
2
100
AcDbSymbolTableRecord
100
AcDbLayerTableRecord
  2
86
 70
     0
 62
     7
  6
Continuous
290
     1
370
    -3
390
F
  0
LAYER
  5
7F
330
2
100
AcDbSymbolTableRecord
100
AcDbLayerTableRecord
  2
87
 70
     0
 62
     7
  6
Continuous
290
     1
370
    -3
390
F
  0
LAYER
  5
80
330
2
100
AcDbSymbolTableRecord
100
AcDbLayerTableRecord
  2
88
 70
     0
 62
     7
  6
Continuous
290
     1
370
    -3
390
F
  0
LAYER
  5
81
330
2
100
AcDbSymbolTableRecord
100
AcDbLayerTableRecord
  2
89
 70
     0
 62
     7
  6
Continuous
290
     1
370
    -3
390
F
  0
LAYER
  5
82
330
2
100
AcDbSymbolTableRecord
100
AcDbLayerTableRecord
  2
90
 70
     0
 62
     7
  6
Continuous
290
     1
370
    -3
390
F
  0
LAYER
  5
83
330
2
100
AcDbSymbolTableRecord
100
AcDbLayerTableRecord
  2
91
 70
     0
 62
     7
  6
Continuous
290
     1
370
    -3
390
F
  0
LAYER
  5
84
330
2
100
AcDbSymbolTableRecord
100
AcDbLayerTableRecord
  2
92
 70
     0
 62
     7
  6
Continuous
290
     1
370
    -3
390
F
  0
LAYER
  5
85
330
2
100
AcDbSymbolTableRecord
100
AcDbLayerTableRecord
  2
93
 70
     0
 62
     7
  6
Continuous
290
     1
370
    -3
390
F
  0
LAYER
  5
86
330
2
100
AcDbSymbolTableRecord
100
AcDbLayerTableRecord
  2
94
 70
     0
 62
     7
  6
Continuous
290
     1
370
    -3
390
F
  0
LAYER
  5
87
330
2
100
AcDbSymbolTableRecord
100
AcDbLayerTableRecord
  2
95
 70
     0
 62
     7
  6
Continuous
290
     1
370
    -3
390
F
  0
LAYER
  5
88
330
2
100
AcDbSymbolTableRecord
100
AcDbLayerTableRecord
  2
96
 70
     0
 62
     7
  6
Continuous
290
     1
370
    -3
390
F
  0
LAYER
  5
89
330
2
100
AcDbSymbolTableRecord
100
AcDbLayerTableRecord
  2
97
 70
     0
 62
     7
  6
Continuous
290
     1
370
    -3
390
F
  0
LAYER
  5
8A
330
2
100
AcDbSymbolTableRecord
100
AcDbLayerTableRecord
  2
98
 70
     0
 62
     7
  6
Continuous
290
     1
370
    -3
390
F
  0
LAYER
  5
8B
330
2
100
AcDbSymbolTableRecord
100
AcDbLayerTableRecord
  2
99
 70
     0
 62
     7
  6
Continuous
290
     1
370
    -3
390
F
  0
LAYER
  5
8C
330
2
100
AcDbSymbolTableRecord
100
AcDbLayerTableRecord
  2
100
 70
     0
 62
     7
  6
Continuous
290
     1
370
    -3
390
F
  0
LAYER
  5
8D
330
2
100
AcDbSymbolTableRecord
100
AcDbLayerTableRecord
  2
101
 70
     0
 62
     7
  6
Continuous
290
     1
370
    -3
390
F
  0
LAYER
  5
8E
330
2
100
AcDbSymbolTableRecord
100
AcDbLayerTableRecord
  2
102
 70
     0
 62
     7
  6
Continuous
290
     1
370
    -3
390
F
  0
LAYER
  5
8F
330
2
100
AcDbSymbolTableRecord
100
AcDbLayerTableRecord
  2
103
 70
     0
 62
     7
  6
Continuous
290
     1
370
    -3
390
F
  0
LAYER
  5
90
330
2
100
AcDbSymbolTableRecord
100
AcDbLayerTableRecord
  2
104
 70
     0
 62
     7
  6
Continuous
290
     1
370
    -3
390
F
  0
LAYER
  5
91
330
2
100
AcDbSymbolTableRecord
100
AcDbLayerTableRecord
  2
105
 70
     0
 62
     7
  6
Continuous
290
     1
370
    -3
390
F
  0
LAYER
  5
92
330
2
100
AcDbSymbolTableRecord
100
AcDbLayerTableRecord
  2
106
 70
     0
 62
     7
  6
Continuous
290
     1
370
    -3
390
F
  0
LAYER
  5
93
330
2
100
AcDbSymbolTableRecord
100
AcDbLayerTableRecord
  2
107
 70
     0
 62
     7
  6
Continuous
290
     1
370
    -3
390
F
  0
LAYER
  5
94
330
2
100
AcDbSymbolTableRecord
100
AcDbLayerTableRecord
  2
108
 70
     0
 62
     7
  6
Continuous
290
     1
370
    -3
390
F
  0
LAYER
  5
95
330
2
100
AcDbSymbolTableRecord
100
AcDbLayerTableRecord
  2
109
 70
     0
 62
     7
  6
Continuous
290
     1
370
    -3
390
F
  0
LAYER
  5
96
330
2
100
AcDbSymbolTableRecord
100
AcDbLayerTableRecord
  2
110
 70
     0
 62
     7
  6
Continuous
290
     1
370
    -3
390
F
  0
LAYER
  5
97
330
2
100
AcDbSymbolTableRecord
100
AcDbLayerTableRecord
  2
111
 70
     0
 62
     7
  6
Continuous
290
     1
370
    -3
390
F
  0
LAYER
  5
98
330
2
100
AcDbSymbolTableRecord
100
AcDbLayerTableRecord
  2
112
 70
     0
 62
     7
  6
Continuous
290
     1
370
    -3
390
F
  0
LAYER
  5
99
330
2
100
AcDbSymbolTableRecord
100
AcDbLayerTableRecord
  2
113
 70
     0
 62
     7
  6
Continuous
290
     1
370
    -3
390
F
  0
LAYER
  5
9A
330
2
100
AcDbSymbolTableRecord
100
AcDbLayerTableRecord
  2
114
 70
     0
 62
     7
  6
Continuous
290
     1
370
    -3
390
F
  0
LAYER
  5
9B
330
2
100
AcDbSymbolTableRecord
100
AcDbLayerTableRecord
  2
115
 70
     0
 62
     7
  6
Continuous
290
     1
370
    -3
390
F
  0
LAYER
  5
9C
330
2
100
AcDbSymbolTableRecord
100
AcDbLayerTableRecord
  2
116
 70
     0
 62
     7
  6
Continuous
290
     1
370
    -3
390
F
  0
LAYER
  5
9D
330
2
100
AcDbSymbolTableRecord
100
AcDbLayerTableRecord
  2
117
 70
     0
 62
     7
  6
Continuous
290
     1
370
    -3
390
F
  0
LAYER
  5
9E
330
2
100
AcDbSymbolTableRecord
100
AcDbLayerTableRecord
  2
118
 70
     0
 62
     7
  6
Continuous
290
     1
370
    -3
390
F
  0
LAYER
  5
9F
330
2
100
AcDbSymbolTableRecord
100
AcDbLayerTableRecord
  2
119
 70
     0
 62
     7
  6
Continuous
290
     1
370
    -3
390
F
  0
LAYER
  5
A0
330
2
100
AcDbSymbolTableRecord
100
AcDbLayerTableRecord
  2
120
 70
     0
 62
     7
  6
Continuous
290
     1
370
    -3
390
F
  0
LAYER
  5
A1
330
2
100
AcDbSymbolTableRecord
100
AcDbLayerTableRecord
  2
121
 70
     0
 62
     7
  6
Continuous
290
     1
370
    -3
390
F
  0
LAYER
  5
A2
330
2
100
AcDbSymbolTableRecord
100
AcDbLayerTableRecord
  2
122
 70
     0
 62
     7
  6
Continuous
290
     1
370
    -3
390
F
  0
LAYER
  5
A3
330
2
100
AcDbSymbolTableRecord
100
AcDbLayerTableRecord
  2
123
 70
     0
 62
     7
  6
Continuous
290
     1
370
    -3
390
F
  0
LAYER
  5
A4
330
2
100
AcDbSymbolTableRecord
100
AcDbLayerTableRecord
  2
124
 70
     0
 62
     7
  6
Continuous
290
     1
370
    -3
390
F
  0
LAYER
  5
A5
330
2
100
AcDbSymbolTableRecord
100
AcDbLayerTableRecord
  2
125
 70
     0
 62
     7
  6
Continuous
290
     1
370
    -3
390
F
  0
LAYER
  5
A6
330
2
100
AcDbSymbolTableRecord
100
AcDbLayerTableRecord
  2
126
 70
     0
 62
     7
  6
Continuous
290
     1
370
    -3
390
F
  0
LAYER
  5
A7
330
2
100
AcDbSymbolTableRecord
100
AcDbLayerTableRecord
  2
127
 70
     0
 62
     7
  6
Continuous
290
     1
370
    -3
390
F
  0
LAYER
  5
A8
330
2
100
AcDbSymbolTableRecord
100
AcDbLayerTableRecord
  2
128
 70
     0
 62
     7
  6
Continuous
290
     1
370
    -3
390
F
  0
ENDTAB
  0
TABLE
  2
STYLE
  5
3
330
0
100
AcDbSymbolTable
 70
    16
  0
STYLE
  5
11
330
3
100
AcDbSymbolTableRecord
100
AcDbTextStyleTableRecord
  2
Standard
 70
     0
 40
0.0
 41
1.0
 50
0.0
 71
     0
 42
2.5
  3
txt.shx
  4
extfont.shx
  0
STYLE
  5
15D
330
3
100
AcDbSymbolTableRecord
100
AcDbTextStyleTableRecord
  2
KANJI0
 70
     0
 40
3.0
 41
0.6
 50
0.0
 71
     0
 42
3.0
  3
txt.shx
  4
extfont.shx
  0
STYLE
  5
205
330
3
100
AcDbSymbolTableRecord
100
AcDbTextStyleTableRecord
  2
KANJI1
 70
     0
 40
3.0
 41
0.9
 50
0.0
 71
     0
 42
3.0
  3
txt.shx
  4
extfont.shx
  0
STYLE
  5
272
330
3
100
AcDbSymbolTableRecord
100
AcDbTextStyleTableRecord
  2
KANJI2
 70
     0
 40
3.0
 41
0.9
 50
0.0
 71
     0
 42
3.0
  3
txt.shx
  4
extfont.shx
  0
STYLE
  5
4DD
330
3
100
AcDbSymbolTableRecord
100
AcDbTextStyleTableRecord
  2
KANJI3
 70
     0
 40
1.89
 41
0.740740741
 50
0.0
 71
     0
 42
1.89
  3
txt.shx
  4
extfont.shx
  0
STYLE
  5
4EA
330
3
100
AcDbSymbolTableRecord
100
AcDbTextStyleTableRecord
  2
KANJI4
 70
     0
 40
3.0
 41
0.8
 50
0.0
 71
     0
 42
3.0
  3
txt.shx
  4
extfont.shx
  0
STYLE
  5
56C
330
3
100
AcDbSymbolTableRecord
100
AcDbTextStyleTableRecord
  2
KANJI5
 70
     0
 40
3.0
 41
0.8
 50
0.0
 71
     0
 42
3.0
  3
txt.shx
  4
extfont.shx
  0
STYLE
  5
575
330
3
100
AcDbSymbolTableRecord
100
AcDbTextStyleTableRecord
  2
KANJI6
 70
     0
 40
3.78
 41
0.740740741
 50
0.0
 71
     0
 42
3.78
  3
txt.shx
  4
extfont.shx
  0
STYLE
  5
57E
330
3
100
AcDbSymbolTableRecord
100
AcDbTextStyleTableRecord
  2
KANJI7
 70
     0
 40
4.0
 41
0.8
 50
0.0
 71
     0
 42
4.0
  3
txt.shx
  4
extfont.shx
  0
STYLE
  5
588
330
3
100
AcDbSymbolTableRecord
100
AcDbTextStyleTableRecord
  2
KANJI8
 70
     0
 40
2.625
 41
1.0
 50
0.0
 71
     0
 42
2.625
  3
txt.shx
  4
extfont.shx
  0
STYLE
  5
58A
330
3
100
AcDbSymbolTableRecord
100
AcDbTextStyleTableRecord
  2
KANJI9
 70
     0
 40
2.625
 41
0.80829828
 50
0.0
 71
     0
 42
2.625
  3
txt.shx
  4
extfont.shx
  0
STYLE
  5
58D
330
3
100
AcDbSymbolTableRecord
100
AcDbTextStyleTableRecord
  2
KANJI10
 70
     0
 40
2.835
 41
0.740740741
 50
0.0
 71
     0
 42
2.835
  3
txt.shx
  4
extfont.shx
  0
STYLE
  5
590
330
3
100
AcDbSymbolTableRecord
100
AcDbTextStyleTableRecord
  2
KANJI11
 70
     0
 40
2.625
 41
0.900472653
 50
0.0
 71
     0
 42
2.625
  3
txt.shx
  4
extfont.shx
  0
STYLE
  5
594
330
3
100
AcDbSymbolTableRecord
100
AcDbTextStyleTableRecord
  2
KANJI12
 70
     0
 40
2.8125
 41
0.80829828
 50
0.0
 71
     0
 42
2.8125
  3
txt.shx
  4
extfont.shx
  0
STYLE
  5
59E
330
3
100
AcDbSymbolTableRecord
100
AcDbTextStyleTableRecord
  2
KANJI13
 70
     0
 40
3.0
 41
0.8
 50
0.0
 71
     0
 42
3.0
  3
txt.shx
  4
extfont.shx
  0
STYLE
  5
5A9
330
3
100
AcDbSymbolTableRecord
100
AcDbTextStyleTableRecord
  2
KANJI14
 70
     0
 40
10.0
 41
1.0
 50
0.0
 71
     0
 42
10.0
  3
txt.shx
  4
extfont.shx
  0
ENDTAB
  0
TABLE
  2
VIEW
  5
6
330
0
100
AcDbSymbolTable
 70
     0
  0
ENDTAB
  0
TABLE
  2
UCS
  5
7
330
0
100
AcDbSymbolTable
 70
     0
  0
ENDTAB
  0
TABLE
  2
APPID
  5
9
330
0
100
AcDbSymbolTable
 70
     1
  0
APPID
  5
12
330
9
100
AcDbSymbolTableRecord
100
AcDbRegAppTableRecord
  2
ACAD
 70
     0
  0
ENDTAB
  0
TABLE
  2
DIMSTYLE
  5
A
330
0
100
AcDbSymbolTable
 70
     1
100
AcDbDimStyleTable
 71
     0
  0
DIMSTYLE
105
27
330
A
100
AcDbSymbolTableRecord
100
AcDbDimStyleTableRecord
  2
ISO-25
 70
    64
  3

  4

 40
1.0
 41
2.5
 42
0.625
 43
3.75
 44
1.25
 45
0.0
 46
0.0
 47
0.0
 48
0.0
 71
     0
 72
     0
 73
     0
 74
     0
 75
     0
 76
     0
 77
     1
 78
     8
 79
     0
140
2.5
141
2.5
142
0.0
143
0.039370079
144
1.0
145
0.0
146
1.0
147
0.625
148
0.0
170
     0
171
     3
172
     1
173
     0
174
     0
175
     0
176
     0
177
     0
178
     0
179
     0
270
     2
271
     2
272
     2
273
     2
274
     3
275
     0
276
     0
277
     2
278
    46
279
     0
280
     0
281
     0
282
     0
283
     1
284
     8
285
     0
286
     0
288
     0
289
     3
340
11
341
0
342
0
343
0
344
0
371
    -2
372
    -2
  0
ENDTAB
  0
TABLE
  2
BLOCK_RECORD
  5
1
330
0
100
AcDbSymbolTable
 70
     3
  0
BLOCK_RECORD
  5
1F
330
1
100
AcDbSymbolTableRecord
100
AcDbBlockTableRecord
  2
*Model_Space
340
22
  0
BLOCK_RECORD
  5
1B
330
1
100
AcDbSymbolTableRecord
100
AcDbBlockTableRecord
  2
*Paper_Space
340
1E
  0
BLOCK_RECORD
  5
23
330
1
100
AcDbSymbolTableRecord
100
AcDbBlockTableRecord
  2
*Paper_Space0
340
26
  0
ENDTAB
  0
ENDSEC
  0
SECTION
  2
BLOCKS
  0
BLOCK
  5
1C
330
1B
100
AcDbEntity
 67
     1
  8
0
100
AcDbBlockBegin
  2
*Paper_Space
 70
     0
 10
0.0
 20
0.0
 30
0.0
  3
*Paper_Space
  1

  0
ENDBLK
  5
1D
330
1B
100
AcDbEntity
  8
0
100
AcDbBlockEnd
  0
BLOCK
  5
20
330
1F
100
AcDbEntity
  8
0
100
AcDbBlockBegin
  2
*Model_Space
 70
     0
 10
0.0
 20
0.0
 30
0.0
  3
*Model_Space
  1

  0
ENDBLK
  5
21
330
1F
100
AcDbEntity
  8
0
100
AcDbBlockEnd
  0
BLOCK
  5
24
330
23
100
AcDbEntity
 67
     1
  8
0
100
AcDbBlockBegin
  2
*Paper_Space0
 70
     0
 10
0.0
 20
0.0
 30
0.0
  3
*Paper_Space0
  1

  0
ENDBLK
  5
25
330
23
100
AcDbEntity
  8
0
100
AcDbBlockEnd
  0
ENDSEC
  0
SECTION
  2
ENTITIES
  0
LINE
  5
A9
330
1F
100
AcDbEntity
  8
2
  6
Continuous
 62
     1
100
AcDbLine
 10
246.124443021
 20
211.720901295
 30
0.0
 11
229.024443021
 21
211.720901295
 31
0.0
  0
ARC
  5
AA
330
1F
100
AcDbEntity
  8
2
  6
Continuous
 62
     1
100
AcDbCircle
 10
244.624443021
 20
224.720901295
 30
0.0
 40
1.5
100
AcDbArc
 50
0.0
 51
90.0
  0
LINE
  5
AB
330
1F
100
AcDbEntity
  8
2
  6
Continuous
 62
     2
100
AcDbLine
 10
229.024443021
 20
211.720901295
 30
0.0
 11
218.124443021
 21
211.720901295
 31
0.0
  0
LINE
  5
AC
330
1F
100
AcDbEntity
  8
2
  6
Continuous
 62
     1
100
AcDbLine
 10
244.624443021
 20
226.220901295
 30
0.0
 11
218.624443021
 21
226.220901295
 31
0.0
  0
LINE
  5
AD
330
1F
100
AcDbEntity
  8
2
  6
Continuous
 62
     1
100
AcDbLine
 10
217.624443021
 20
199.670901295
 30
0.0
 11
217.624443021
 21
210.670901295
 31
0.0
  0
LINE
  5
AE
330
1F
100
AcDbEntity
  8
2
  6
Continuous
 62
     2
100
AcDbLine
 10
233.524443021
 20
199.670901295
 30
0.0
 11
217.624443021
 21
199.670901295
 31
0.0
  0
LINE
  5
AF
330
1F
100
AcDbEntity
  8
2
  6
Continuous
 62
     1
100
AcDbLine
 10
229.024443021
 20
198.620901295
 30
0.0
 11
218.124443021
 21
198.620901295
 31
0.0
  0
LINE
  5
B0
330
1F
100
AcDbEntity
  8
2
  6
Continuous
 62
     1
100
AcDbLine
 10
218.124443021
 20
198.620901295
 30
0.0
 11
217.624443021
 21
199.670901295
 31
0.0
  0
LINE
  5
B1
330
1F
100
AcDbEntity
  8
2
  6
Continuous
 62
     2
100
AcDbLine
 10
222.724443021
 20
202.120901295
 30
0.0
 11
222.724443021
 21
208.220901295
 31
0.0
  0
LINE
  5
B2
330
1F
100
AcDbEntity
  8
2
  6
Continuous
 62
     2
100
AcDbLine
 10
221.624443021
 20
208.220901295
 30
0.0
 11
221.624443021
 21
202.120901295
 31
0.0
  0
LINE
  5
B3
330
1F
100
AcDbEntity
  8
2
  6
Continuous
 62
     2
100
AcDbLine
 10
221.624443021
 20
202.120901295
 30
0.0
 11
222.724443021
 21
202.120901295
 31
0.0
  0
LINE
  5
B4
330
1F
100
AcDbEntity
  8
2
  6
Continuous
 62
     2
100
AcDbLine
 10
222.724443021
 20
208.220901295
 30
0.0
 11
221.624443021
 21
208.220901295
 31
0.0
  0
LINE
  5
B5
330
1F
100
AcDbEntity
  8
2
  6
Continuous
 62
     2
100
AcDbLine
 10
226.324443021
 20
209.320901295
 30
0.0
 11
226.924443021
 21
209.320901295
 31
0.0
  0
LINE
  5
B6
330
1F
100
AcDbEntity
  8
2
  6
Continuous
 62
     2
100
AcDbLine
 10
225.817263344
 20
208.813721618
 30
0.0
 11
227.431622698
 21
208.813721618
 31
0.0
  0
LINE
  5
B7
330
1F
100
AcDbEntity
  8
2
  6
Continuous
 62
     2
100
AcDbLine
 10
227.431622698
 20
209.828080972
 30
0.0
 11
225.817263344
 21
209.828080972
 31
0.0
  0
LINE
  5
B8
330
1F
100
AcDbEntity
  8
2
  6
Continuous
 62
     2
100
AcDbLine
 10
225.524443021
 20
208.520901295
 30
0.0
 11
227.724443021
 21
208.520901295
 31
0.0
  0
LINE
  5
B9
330
1F
100
AcDbEntity
  8
2
  6
Continuous
 62
     2
100
AcDbLine
 10
227.724443021
 20
210.120901295
 30
0.0
 11
225.524443021
 21
210.120901295
 31
0.0
  0
LINE
  5
BA
330
1F
100
AcDbEntity
  8
2
  6
Continuous
 62
     2
100
AcDbLine
 10
226.324443021
 20
209.320901295
 30
0.0
 11
225.524443021
 21
208.520901295
 31
0.0
  0
LINE
  5
BB
330
1F
100
AcDbEntity
  8
2
  6
Continuous
 62
     2
100
AcDbLine
 10
225.524443021
 20
210.120901295
 30
0.0
 11
226.324443021
 21
209.320901295
 31
0.0
  0
LINE
  5
BC
330
1F
100
AcDbEntity
  8
2
  6
Continuous
 62
     2
100
AcDbLine
 10
225.817263344
 20
209.828080972
 30
0.0
 11
225.817263344
 21
208.813721618
 31
0.0
  0
LINE
  5
BD
330
1F
100
AcDbEntity
  8
2
  6
Continuous
 62
     2
100
AcDbLine
 10
225.524443021
 20
210.120901295
 30
0.0
 11
225.524443021
 21
208.520901295
 31
0.0
  0
LINE
  5
BE
330
1F
100
AcDbEntity
  8
2
  6
Continuous
 62
     2
100
AcDbLine
 10
226.924443021
 20
209.320901295
 30
0.0
 11
227.724443021
 21
210.120901295
 31
0.0
  0
LINE
  5
BF
330
1F
100
AcDbEntity
  8
2
  6
Continuous
 62
     2
100
AcDbLine
 10
226.924443021
 20
209.320901295
 30
0.0
 11
227.724443021
 21
208.520901295
 31
0.0
  0
LINE
  5
C0
330
1F
100
AcDbEntity
  8
2
  6
Continuous
 62
     2
100
AcDbLine
 10
227.431622698
 20
208.813721618
 30
0.0
 11
227.431622698
 21
209.828080972
 31
0.0
  0
LINE
  5
C1
330
1F
100
AcDbEntity
  8
2
  6
Continuous
 62
     2
100
AcDbLine
 10
227.724443021
 20
208.520901295
 30
0.0
 11
227.724443021
 21
210.120901295
 31
0.0
  0
LINE
  5
C2
330
1F
100
AcDbEntity
  8
2
  6
Continuous
 62
     2
100
AcDbLine
 10
224.074443021
 20
213.470901295
 30
0.0
 11
217.174443021
 21
213.470901295
 31
0.0
  0
LINE
  5
C3
330
1F
100
AcDbEntity
  8
2
  6
Continuous
 62
     2
100
AcDbLine
 10
218.899443021
 20
216.070901295
 30
0.0
 11
222.349443021
 21
216.070901295
 31
0.0
  0
LINE
  5
C4
330
1F
100
AcDbEntity
  8
2
  6
Continuous
 62
     2
100
AcDbLine
 10
223.124443021
 20
214.270901295
 30
0.0
 11
218.124443021
 21
214.270901295
 31
0.0
  0
LINE
  5
C5
330
1F
100
AcDbEntity
  8
2
  6
Continuous
 62
     2
100
AcDbLine
 10
237.624443021
 20
210.670901295
 30
0.0
 11
217.624443021
 21
210.670901295
 31
0.0
  0
LINE
  5
C6
330
1F
100
AcDbEntity
  8
2
  6
Continuous
 62
     1
100
AcDbLine
 10
217.124443021
 20
224.720901295
 30
0.0
 11
217.124443021
 21
211.720901295
 31
0.0
  0
ARC
  5
C7
330
1F
100
AcDbEntity
  8
2
  6
Continuous
 62
     2
100
AcDbCircle
 10
218.899443021
 20
215.170901295
 30
0.0
 40
0.9
100
AcDbArc
 50
90.0
 51
180.0
  0
LINE
  5
C8
330
1F
100
AcDbEntity
  8
2
  6
Continuous
 62
     1
100
AcDbLine
 10
218.124443021
 20
211.720901295
 30
0.0
 11
217.124443021
 21
211.720901295
 31
0.0
  0
LINE
  5
C9
330
1F
100
AcDbEntity
  8
2
  6
Continuous
 62
     2
100
AcDbLine
 10
217.124443021
 20
212.920901295
 30
0.0
 11
246.124443021
 21
212.920901295
 31
0.0
  0
LINE
  5
CA
330
1F
100
AcDbEntity
  8
2
  6
Continuous
 62
     2
100
AcDbLine
 10
218.124443021
 20
214.270901295
 30
0.0
 11
218.124443021
 21
213.470901295
 31
0.0
  0
LINE
  5
CB
330
1F
100
AcDbEntity
  8
2
  6
Continuous
 62
     2
100
AcDbLine
 10
217.999443021
 20
215.170901295
 30
0.0
 11
217.999443021
 21
214.728476425
 31
0.0
  0
LINE
  5
CC
330
1F
100
AcDbEntity
  8
2
  6
Continuous
 62
     2
100
AcDbLine
 10
217.174443021
 20
213.470901295
 30
0.0
 11
217.174443021
 21
212.920901295
 31
0.0
  0
ARC
  5
CD
330
1F
100
AcDbEntity
  8
2
  6
Continuous
 62
     2
100
AcDbCircle
 10
218.899443021
 20
214.728476425
 30
0.0
 40
0.9
100
AcDbArc
 50
180.0
 51
210.558431786
  0
LINE
  5
CE
330
1F
100
AcDbEntity
  8
2
  6
Continuous
 62
     1
100
AcDbLine
 10
217.624443021
 20
210.670901295
 30
0.0
 11
218.124443021
 21
211.720901295
 31
0.0
  0
ARC
  5
CF
330
1F
100
AcDbEntity
  8
2
  6
Continuous
 62
     1
100
AcDbCircle
 10
218.624443021
 20
224.720901295
 30
0.0
 40
1.5
100
AcDbArc
 50
90.0
 51
180.0
  0
ARC
  5
D0
330
1F
100
AcDbEntity
  8
2
  6
Continuous
 62
     2
100
AcDbCircle
 10
222.349443021
 20
215.170901295
 30
0.0
 40
0.9
100
AcDbArc
 50
0.0
 51
90.0
  0
LINE
  5
D1
330
1F
100
AcDbEntity
  8
2
  6
Continuous
 62
     2
100
AcDbLine
 10
223.124443021
 20
214.270901295
 30
0.0
 11
223.124443021
 21
213.470901295
 31
0.0
  0
LINE
  5
D2
330
1F
100
AcDbEntity
  8
2
  6
Continuous
 62
     2
100
AcDbLine
 10
223.249443021
 20
215.170901295
 30
0.0
 11
223.249443021
 21
214.728476425
 31
0.0
  0
LINE
  5
D3
330
1F
100
AcDbEntity
  8
2
  6
Continuous
 62
     2
100
AcDbLine
 10
224.074443021
 20
213.470901295
 30
0.0
 11
224.074443021
 21
212.920901295
 31
0.0
  0
ARC
  5
D4
330
1F
100
AcDbEntity
  8
2
  6
Continuous
 62
     2
100
AcDbCircle
 10
222.349443021
 20
214.728476425
 30
0.0
 40
0.9
100
AcDbArc
 50
329.441568214
 51
0.0
  0
LINE
  5
D5
330
1F
100
AcDbEntity
  8
2
  6
Continuous
 62
     1
100
AcDbLine
 10
237.624443021
 20
207.870901295
 30
0.0
 11
237.624443021
 21
210.670901295
 31
0.0
  0
LINE
  5
D6
330
1F
100
AcDbEntity
  8
2
  6
Continuous
 62
     2
100
AcDbLine
 10
237.124443021
 20
210.670901295
 30
0.0
 11
237.124443021
 21
199.670901295
 31
0.0
  0
LINE
  5
D7
330
1F
100
AcDbEntity
  8
2
  6
Continuous
 62
     1
100
AcDbLine
 10
237.624443021
 20
199.670901295
 30
0.0
 11
236.624443021
 21
199.170901295
 31
0.0
  0
LINE
  5
D8
330
1F
100
AcDbEntity
  8
2
  6
Continuous
 62
     2
100
AcDbLine
 10
236.624443021
 20
199.170901295
 30
0.0
 11
237.124443021
 21
199.670901295
 31
0.0
  0
LINE
  5
D9
330
1F
100
AcDbEntity
  8
2
  6
Continuous
 62
     2
100
AcDbLine
 10
237.624443021
 20
203.050901295
 30
0.0
 11
233.524443021
 21
203.050901295
 31
0.0
  0
LINE
  5
DA
330
1F
100
AcDbEntity
  8
2
  6
Continuous
 62
     2
100
AcDbLine
 10
233.524443021
 20
202.550901295
 30
0.0
 11
237.124443021
 21
202.550901295
 31
0.0
  0
LINE
  5
DB
330
1F
100
AcDbEntity
  8
2
  6
Continuous
 62
     2
100
AcDbLine
 10
237.624443021
 20
199.670901295
 30
0.0
 11
234.124443021
 21
199.670901295
 31
0.0
  0
LINE
  5
DC
330
1F
100
AcDbEntity
  8
2
  6
Continuous
 62
     2
100
AcDbLine
 10
229.024443021
 20
199.170901295
 30
0.0
 11
229.024443021
 21
199.670901295
 31
0.0
  0
LINE
  5
DD
330
1F
100
AcDbEntity
  8
2
  6
Continuous
 62
     1
100
AcDbLine
 10
229.024443021
 20
199.170901295
 30
0.0
 11
236.624443021
 21
199.170901295
 31
0.0
  0
LINE
  5
DE
330
1F
100
AcDbEntity
  8
2
  6
Continuous
 62
     2
100
AcDbLine
 10
231.454443021
 20
210.170901295
 30
0.0
 11
235.924443021
 21
210.170901295
 31
0.0
  0
ARC
  5
DF
330
1F
100
AcDbEntity
  8
2
  6
Continuous
 62
     2
100
AcDbCircle
 10
232.524443021
 20
200.770901295
 30
0.0
 40
0.6
100
AcDbArc
 50
270.0
 51
0.0
  0
LINE
  5
E0
330
1F
100
AcDbEntity
  8
2
  6
Continuous
 62
     2
100
AcDbLine
 10
230.854443021
 20
200.770901295
 30
0.0
 11
230.854443021
 21
209.570901295
 31
0.0
  0
LINE
  5
E1
330
1F
100
AcDbEntity
  8
2
  6
Continuous
 62
     2
100
AcDbLine
 10
232.524443021
 20
200.170901295
 30
0.0
 11
231.454443021
 21
200.170901295
 31
0.0
  0
ARC
  5
E2
330
1F
100
AcDbEntity
  8
2
  6
Continuous
 62
     2
100
AcDbCircle
 10
231.454443021
 20
200.770901295
 30
0.0
 40
0.6
100
AcDbArc
 50
180.0
 51
270.0
  0
ARC
  5
E3
330
1F
100
AcDbEntity
  8
2
  6
Continuous
 62
     2
100
AcDbCircle
 10
231.454443021
 20
209.570901295
 30
0.0
 40
0.6
100
AcDbArc
 50
90.0
 51
180.0
  0
LINE
  5
E4
330
1F
100
AcDbEntity
  8
2
  6
Continuous
 62
     2
100
AcDbLine
 10
236.524443021
 20
209.570901295
 30
0.0
 11
236.524443021
 21
204.150901295
 31
0.0
  0
LINE
  5
E5
330
1F
100
AcDbEntity
  8
2
  6
Continuous
 62
     2
100
AcDbLine
 10
235.924443021
 20
203.550901295
 30
0.0
 11
233.124443021
 21
203.550901295
 31
0.0
  0
LINE
  5
E6
330
1F
100
AcDbEntity
  8
2
  6
Continuous
 62
     2
100
AcDbLine
 10
234.124443021
 20
202.020901295
 30
0.0
 11
233.524443021
 21
202.020901295
 31
0.0
  0
LINE
  5
E7
330
1F
100
AcDbEntity
  8
2
  6
Continuous
 62
     2
100
AcDbLine
 10
234.124443021
 20
199.520901295
 30
0.0
 11
233.524443021
 21
199.520901295
 31
0.0
  0
LINE
  5
E8
330
1F
100
AcDbEntity
  8
2
  6
Continuous
 62
     2
100
AcDbLine
 10
233.124443021
 20
203.550901295
 30
0.0
 11
233.124443021
 21
200.770901295
 31
0.0
  0
LINE
  5
E9
330
1F
100
AcDbEntity
  8
2
  6
Continuous
 62
     2
100
AcDbLine
 10
233.524443021
 20
199.170901295
 30
0.0
 11
233.524443021
 21
203.050901295
 31
0.0
  0
LINE
  5
EA
330
1F
100
AcDbEntity
  8
2
  6
Continuous
 62
     2
100
AcDbLine
 10
234.124443021
 20
202.020901295
 30
0.0
 11
234.124443021
 21
199.520901295
 31
0.0
  0
ARC
  5
EB
330
1F
100
AcDbEntity
  8
2
  6
Continuous
 62
     2
100
AcDbCircle
 10
235.924443021
 20
204.150901295
 30
0.0
 40
0.6
100
AcDbArc
 50
270.0
 51
0.0
  0
ARC
  5
EC
330
1F
100
AcDbEntity
  8
2
  6
Continuous
 62
     2
100
AcDbCircle
 10
235.924443021
 20
209.570901295
 30
0.0
 40
0.6
100
AcDbArc
 50
0.0
 51
90.0
  0
LINE
  5
ED
330
1F
100
AcDbEntity
  8
2
  6
Continuous
 62
     2
100
AcDbLine
 10
237.124443021
 20
202.550901295
 30
0.0
 11
237.624443021
 21
203.050901295
 31
0.0
  0
LINE
  5
EE
330
1F
100
AcDbEntity
  8
2
  6
Continuous
 62
     1
100
AcDbLine
 10
237.624443021
 20
199.670901295
 30
0.0
 11
237.624443021
 21
200.370901295
 31
0.0
  0
LINE
  5
EF
330
1F
100
AcDbEntity
  8
2
  6
Continuous
 62
     2
100
AcDbLine
 10
237.124443021
 20
210.670901295
 30
0.0
 11
236.624443021
 21
211.170901295
 31
0.0
  0
LINE
  5
F0
330
1F
100
AcDbEntity
  8
2
  6
Continuous
 62
     1
100
AcDbLine
 10
236.624443021
 20
211.170901295
 30
0.0
 11
237.624443021
 21
210.670901295
 31
0.0
  0
LINE
  5
F1
330
1F
100
AcDbEntity
  8
2
  6
Continuous
 62
     1
100
AcDbLine
 10
236.624443021
 20
211.170901295
 30
0.0
 11
229.024443021
 21
211.170901295
 31
0.0
  0
LINE
  5
F2
330
1F
100
AcDbEntity
  8
2
  6
Continuous
 62
     1
100
AcDbLine
 10
229.024443021
 20
211.170901295
 30
0.0
 11
229.024443021
 21
211.720901295
 31
0.0
  0
LINE
  5
F3
330
1F
100
AcDbEntity
  8
2
  6
Continuous
 62
     1
100
AcDbLine
 10
246.124443021
 20
224.720901295
 30
0.0
 11
246.124443021
 21
211.720901295
 31
0.0
  0
LINE
  5
F4
330
1F
100
AcDbEntity
  8
2
  6
Continuous
 62
     2
100
AcDbLine
 10
239.274443087
 20
206.477564212
 30
0.0
 11
237.624443021
 21
206.764913734
 31
0.0
  0
LINE
  5
F5
330
1F
100
AcDbEntity
  8
2
  6
Continuous
 62
     2
100
AcDbLine
 10
237.624443021
 20
206.355337735
 30
0.0
 11
239.274443021
 21
206.067988313
 31
0.0
  0
LINE
  5
F6
330
1F
100
AcDbEntity
  8
2
  6
Continuous
 62
     2
100
AcDbLine
 10
237.624443021
 20
206.062239643
 30
0.0
 11
238.974443021
 21
205.774713361
 31
0.0
  0
LINE
  5
F7
330
1F
100
AcDbEntity
  8
2
  6
Continuous
 62
     1
100
AcDbLine
 10
238.974443021
 20
200.870901295
 30
0.0
 11
237.624443021
 21
200.370901295
 31
0.0
  0
LINE
  5
F8
330
1F
100
AcDbEntity
  8
2
  6
Continuous
 62
     1
100
AcDbLine
 10
238.974443021
 20
207.370901295
 30
0.0
 11
237.624443021
 21
207.870901295
 31
0.0
  0
LINE
  5
F9
330
1F
100
AcDbEntity
  8
2
  6
Continuous
 62
     2
100
AcDbLine
 10
238.974443075
 20
201.123099562
 30
0.0
 11
238.974443021
 21
205.774713361
 31
0.0
  0
LINE
  5
FA
330
1F
100
AcDbEntity
  8
2
  6
Continuous
 62
     2
100
AcDbLine
 10
239.174443021
 20
205.435073213
 30
0.0
 11
239.174443021
 21
202.335901295
 31
0.0
  0
LINE
  5
FB
330
1F
100
AcDbEntity
  8
2
  6
Continuous
 62
     2
100
AcDbLine
 10
239.374443021
 20
203.220901295
 30
0.0
 11
239.374443021
 21
205.256409929
 31
0.0
  0
LINE
  5
FC
330
1F
100
AcDbEntity
  8
2
  6
Continuous
 62
     2
100
AcDbLine
 10
239.174443021
 20
203.273761657
 30
0.0
 11
239.274443021
 21
203.288258405
 31
0.0
  0
LINE
  5
FD
330
1F
100
AcDbEntity
  8
2
  6
Continuous
 62
     2
100
AcDbLine
 10
239.274443021
 20
203.012106949
 30
0.0
 11
239.174443021
 21
202.997610201
 31
0.0
  0
LINE
  5
FE
330
1F
100
AcDbEntity
  8
2
  6
Continuous
 62
     2
100
AcDbLine
 10
239.274443021
 20
202.415755286
 30
0.0
 11
239.174443021
 21
202.415755286
 31
0.0
  0
LINE
  5
FF
330
1F
100
AcDbEntity
  8
2
  6
Continuous
 62
     2
100
AcDbLine
 10
239.274443021
 20
203.522824645
 30
0.0
 11
239.174443021
 21
203.522824645
 31
0.0
  0
LINE
  5
100
330
1F
100
AcDbEntity
  8
2
  6
Continuous
 62
     2
100
AcDbLine
 10
238.974443021
 20
201.751390276
 30
0.0
 11
239.274443021
 21
201.855302243
 31
0.0
  0
LINE
  5
101
330
1F
100
AcDbEntity
  8
2
  6
Continuous
 62
     2
100
AcDbLine
 10
239.274443021
 20
201.747791858
 30
0.0
 11
238.974443021
 21
201.643879891
 31
0.0
  0
LINE
  5
102
330
1F
100
AcDbEntity
  8
2
  6
Continuous
 62
     1
100
AcDbLine
 10
239.274443021
 20
201.205751062
 30
0.0
 11
239.274443021
 21
202.850901295
 31
0.0
  0
LINE
  5
103
330
1F
100
AcDbEntity
  8
2
  6
Continuous
 62
     1
100
AcDbLine
 10
239.274443087
 20
201.205750939
 30
0.0
 11
238.974443075
 21
201.123099562
 31
0.0
  0
LINE
  5
104
330
1F
100
AcDbEntity
  8
2
  6
Continuous
 62
     2
100
AcDbLine
 10
238.974443021
 20
202.335901295
 30
0.0
 11
239.174443021
 21
202.335901295
 31
0.0
  0
LINE
  5
105
330
1F
100
AcDbEntity
  8
2
  6
Continuous
 62
     2
100
AcDbLine
 10
239.274443021
 20
202.872922733
 30
0.0
 11
239.374443021
 21
202.872922733
 31
0.0
  0
LINE
  5
106
330
1F
100
AcDbEntity
  8
2
  6
Continuous
 62
     2
100
AcDbLine
 10
239.374443021
 20
203.120298082
 30
0.0
 11
239.274443021
 21
203.120298082
 31
0.0
  0
LINE
  5
107
330
1F
100
AcDbEntity
  8
2
  6
Continuous
 62
     1
100
AcDbLine
 10
239.374443021
 20
202.850901295
 30
0.0
 11
239.274443021
 21
202.850901295
 31
0.0
  0
LINE
  5
108
330
1F
100
AcDbEntity
  8
2
  6
Continuous
 62
     1
100
AcDbLine
 10
239.374443021
 20
202.850901295
 30
0.0
 11
239.374443021
 21
203.220901295
 31
0.0
  0
LINE
  5
109
330
1F
100
AcDbEntity
  8
2
  6
Continuous
 62
     1
100
AcDbLine
 10
238.974443075
 20
201.123099562
 30
0.0
 11
238.974443021
 21
200.870901295
 31
0.0
  0
LINE
  5
10A
330
1F
100
AcDbEntity
  8
2
  6
Continuous
 62
     1
100
AcDbLine
 10
238.974443021
 20
207.120901295
 30
0.0
 11
238.974443021
 21
207.370901295
 31
0.0
  0
LINE
  5
10B
330
1F
100
AcDbEntity
  8
2
  6
Continuous
 62
     2
100
AcDbLine
 10
239.174443021
 20
205.244192389
 30
0.0
 11
239.274443021
 21
205.229695641
 31
0.0
  0
LINE
  5
10C
330
1F
100
AcDbEntity
  8
2
  6
Continuous
 62
     2
100
AcDbLine
 10
238.974443021
 20
206.597922699
 30
0.0
 11
239.274443021
 21
206.494010732
 31
0.0
  0
LINE
  5
10D
330
1F
100
AcDbEntity
  8
2
  6
Continuous
 62
     2
100
AcDbLine
 10
239.274443021
 20
204.953544185
 30
0.0
 11
239.174443021
 21
204.968040933
 31
0.0
  0
LINE
  5
10E
330
1F
100
AcDbEntity
  8
2
  6
Continuous
 62
     2
100
AcDbLine
 10
239.174443021
 20
204.718977945
 30
0.0
 11
239.274443021
 21
204.718977945
 31
0.0
  0
LINE
  5
10F
330
1F
100
AcDbEntity
  8
2
  6
Continuous
 62
     2
100
AcDbLine
 10
238.974443075
 20
207.118703064
 30
0.0
 11
239.274443087
 21
207.036051389
 31
0.0
  0
LINE
  5
110
330
1F
100
AcDbEntity
  8
2
  6
Continuous
 62
     2
100
AcDbLine
 10
238.974443021
 20
205.435073213
 30
0.0
 11
239.274443021
 21
205.435073213
 31
0.0
  0
LINE
  5
111
330
1F
100
AcDbEntity
  8
2
  6
Continuous
 62
     2
100
AcDbLine
 10
239.274443021
 20
205.256409929
 30
0.0
 11
239.374443021
 21
205.256409929
 31
0.0
  0
LINE
  5
112
330
1F
100
AcDbEntity
  8
2
  6
Continuous
 62
     2
100
AcDbLine
 10
228.124443021
 20
218.970901295
 30
0.0
 11
221.124443021
 21
218.970901295
 31
0.0
  0
LINE
  5
113
330
1F
100
AcDbEntity
  8
2
  6
Continuous
 62
     2
100
AcDbLine
 10
221.124443021
 20
222.470901295
 30
0.0
 11
228.124443021
 21
222.470901295
 31
0.0
  0
ARC
  5
114
330
1F
100
AcDbEntity
  8
2
  6
Continuous
 62
     2
100
AcDbCircle
 10
228.124443021
 20
220.720901295
 30
0.0
 40
1.75
100
AcDbArc
 50
270.0
 51
90.0
  0
LINE
  5
115
330
1F
100
AcDbEntity
  8
2
  6
Continuous
 62
     2
100
AcDbLine
 10
233.374443021
 20
218.220901295
 30
0.0
 11
233.374443021
 21
223.220901295
 31
0.0
  0
LINE
  5
116
330
1F
100
AcDbEntity
  8
2
  6
Continuous
 62
     2
100
AcDbLine
 10
236.874443021
 20
223.220901295
 30
0.0
 11
236.874443021
 21
218.220901295
 31
0.0
  0
LINE
  5
117
330
1F
100
AcDbEntity
  8
2
  6
Continuous
 62
     2
100
AcDbLine
 10
240.374443021
 20
218.220901295
 30
0.0
 11
240.374443021
 21
223.220901295
 31
0.0
  0
LINE
  5
118
330
1F
100
AcDbEntity
  8
2
  6
Continuous
 62
     2
100
AcDbLine
 10
243.874443021
 20
223.220901295
 30
0.0
 11
243.874443021
 21
218.220901295
 31
0.0
  0
ARC
  5
119
330
1F
100
AcDbEntity
  8
2
  6
Continuous
 62
     2
100
AcDbCircle
 10
242.124443021
 20
223.220901295
 30
0.0
 40
1.75
100
AcDbArc
 50
0.0
 51
180.0
  0
ARC
  5
11A
330
1F
100
AcDbEntity
  8
2
  6
Continuous
 62
     2
100
AcDbCircle
 10
235.124443021
 20
223.220901295
 30
0.0
 40
1.75
100
AcDbArc
 50
0.0
 51
180.0
  0
ARC
  5
11B
330
1F
100
AcDbEntity
  8
2
  6
Continuous
 62
     2
100
AcDbCircle
 10
242.124443021
 20
218.220901295
 30
0.0
 40
1.75
100
AcDbArc
 50
180.0
 51
0.0
  0
ARC
  5
11C
330
1F
100
AcDbEntity
  8
2
  6
Continuous
 62
     2
100
AcDbCircle
 10
235.124443021
 20
218.220901295
 30
0.0
 40
1.75
100
AcDbArc
 50
180.0
 51
0.0
  0
ARC
  5
11D
330
1F
100
AcDbEntity
  8
2
  6
Continuous
 62
     2
100
AcDbCircle
 10
230.85206202
 20
212.423678877
 30
0.0
 40
1.509754421
100
AcDbArc
 50
34.752839269
 51
59.229949629
  0
ARC
  5
11E
330
1F
100
AcDbEntity
  8
2
  6
Continuous
 62
     2
100
AcDbCircle
 10
231.928180734
 20
213.170287984
 30
0.0
 40
0.2
100
AcDbArc
 50
288.470546113
 51
34.752839269
  0
ARC
  5
11F
330
1F
100
AcDbEntity
  8
2
  6
Continuous
 62
     2
100
AcDbCircle
 10
231.320705309
 20
213.170287984
 30
0.0
 40
0.2
100
AcDbArc
 50
145.247160731
 51
251.529453887
  0
ARC
  5
120
330
1F
100
AcDbEntity
  8
2
  6
Continuous
 62
     2
100
AcDbCircle
 10
232.396824023
 20
212.423678877
 30
0.0
 40
1.509754421
100
AcDbArc
 50
120.770050371
 51
145.247160731
  0
ARC
  5
121
330
1F
100
AcDbEntity
  8
2
  6
Continuous
 62
     2
100
AcDbCircle
 10
231.624443021
 20
214.079617539
 30
0.0
 40
1.158716244
100
AcDbArc
 50
251.529453887
 51
288.470546113
  0
LINE
  5
122
330
1F
100
AcDbEntity
  8
2
  6
Continuous
 62
     2
100
AcDbLine
 10
231.624443021
 20
213.720901295
 30
0.0
 11
231.624443021
 21
212.920901295
 31
0.0
  0
ARC
  5
123
330
1F
100
AcDbEntity
  8
2
  6
Continuous
 62
     2
100
AcDbCircle
 10
221.124443021
 20
220.720901295
 30
0.0
 40
1.75
100
AcDbArc
 50
90.0
 51
270.0
  0
LINE
  5
124
330
1F
100
AcDbEntity
  8
2
  6
Continuous
 62
     2
100
AcDbLine
 10
229.024443021
 20
211.170901295
 30
0.0
 11
229.024443021
 21
210.670901295
 31
0.0
  0
LINE
  5
125
330
1F
100
AcDbEntity
  8
2
  6
Continuous
 62
     1
100
AcDbLine
 10
229.024443021
 20
199.170901295
 30
0.0
 11
229.024443021
 21
198.620901295
 31
0.0
  0
LINE
  5
126
330
1F
100
AcDbEntity
  8
2
  6
Continuous
 62
     2
100
AcDbLine
 10
225.524443021
 20
206.920901295
 30
0.0
 11
226.324443021
 21
206.120901295
 31
0.0
  0
LINE
  5
127
330
1F
100
AcDbEntity
  8
2
  6
Continuous
 62
     2
100
AcDbLine
 10
226.324443021
 20
206.120901295
 30
0.0
 11
225.524443021
 21
205.320901295
 31
0.0
  0
LINE
  5
128
330
1F
100
AcDbEntity
  8
2
  6
Continuous
 62
     2
100
AcDbLine
 10
226.924443021
 20
206.120901295
 30
0.0
 11
227.724443021
 21
205.320901295
 31
0.0
  0
LINE
  5
129
330
1F
100
AcDbEntity
  8
2
  6
Continuous
 62
     2
100
AcDbLine
 10
226.924443021
 20
206.120901295
 30
0.0
 11
227.724443021
 21
206.920901295
 31
0.0
  0
LINE
  5
12A
330
1F
100
AcDbEntity
  8
2
  6
Continuous
 62
     2
100
AcDbLine
 10
226.324443021
 20
206.120901295
 30
0.0
 11
226.924443021
 21
206.120901295
 31
0.0
  0
LINE
  5
12B
330
1F
100
AcDbEntity
  8
2
  6
Continuous
 62
     2
100
AcDbLine
 10
225.817263344
 20
206.628080972
 30
0.0
 11
225.817263344
 21
205.613721618
 31
0.0
  0
LINE
  5
12C
330
1F
100
AcDbEntity
  8
2
  6
Continuous
 62
     2
100
AcDbLine
 10
227.431622698
 20
206.628080972
 30
0.0
 11
225.817263344
 21
206.628080972
 31
0.0
  0
LINE
  5
12D
330
1F
100
AcDbEntity
  8
2
  6
Continuous
 62
     2
100
AcDbLine
 10
227.431622698
 20
205.613721618
 30
0.0
 11
227.431622698
 21
206.628080972
 31
0.0
  0
LINE
  5
12E
330
1F
100
AcDbEntity
  8
2
  6
Continuous
 62
     2
100
AcDbLine
 10
225.817263344
 20
205.613721618
 30
0.0
 11
227.431622698
 21
205.613721618
 31
0.0
  0
LINE
  5
12F
330
1F
100
AcDbEntity
  8
2
  6
Continuous
 62
     2
100
AcDbLine
 10
225.524443021
 20
205.320901295
 30
0.0
 11
227.724443021
 21
205.320901295
 31
0.0
  0
LINE
  5
130
330
1F
100
AcDbEntity
  8
2
  6
Continuous
 62
     2
100
AcDbLine
 10
225.524443021
 20
206.920901295
 30
0.0
 11
225.524443021
 21
205.320901295
 31
0.0
  0
LINE
  5
131
330
1F
100
AcDbEntity
  8
2
  6
Continuous
 62
     2
100
AcDbLine
 10
227.724443021
 20
205.320901295
 30
0.0
 11
227.724443021
 21
206.920901295
 31
0.0
  0
LINE
  5
132
330
1F
100
AcDbEntity
  8
2
  6
Continuous
 62
     2
100
AcDbLine
 10
227.724443021
 20
206.920901295
 30
0.0
 11
225.524443021
 21
206.920901295
 31
0.0
  0
POINT
  5
133
330
1F
100
AcDbEntity
  8
3
  6
Continuous
 62
     2
100
AcDbPoint
 10
217.124443021
 20
211.720901295
 30
0.0
  0
POINT
  5
134
330
1F
100
AcDbEntity
  8
3
  6
Continuous
 62
     2
100
AcDbPoint
 10
217.624443021
 20
199.670901295
 30
0.0
  0
POINT
  5
135
330
1F
100
AcDbEntity
  8
3
  6
Continuous
 62
     2
100
AcDbPoint
 10
215.624443021
 20
205.170901295
 30
0.0
  0
POINT
  5
136
330
1F
100
AcDbEntity
  8
3
  6
Continuous
 62
     2
100
AcDbPoint
 10
218.124443021
 20
198.620901295
 30
0.0
  0
POINT
  5
137
330
1F
100
AcDbEntity
  8
3
  6
Continuous
 62
     2
100
AcDbPoint
 10
215.624443021
 20
205.170901295
 30
0.0
  0
POINT
  5
138
330
1F
100
AcDbEntity
  8
3
  6
Continuous
 62
     2
100
AcDbPoint
 10
218.624443021
 20
226.220901295
 30
0.0
  0
POINT
  5
139
330
1F
100
AcDbEntity
  8
3
  6
Continuous
 62
     2
100
AcDbPoint
 10
218.374443021
 20
220.720901295
 30
0.0
  0
POINT
  5
13A
330
1F
100
AcDbEntity
  8
3
  6
Continuous
 62
     2
100
AcDbPoint
 10
215.624443021
 20
205.170901295
 30
0.0
  0
POINT
  5
13B
330
1F
100
AcDbEntity
  8
3
  6
Continuous
 62
     2
100
AcDbPoint
 10
244.624443021
 20
226.220901295
 30
0.0
  0
POINT
  5
13C
330
1F
100
AcDbEntity
  8
3
  6
Continuous
 62
     2
100
AcDbPoint
 10
246.124443021
 20
211.720901295
 30
0.0
  0
POINT
  5
13D
330
1F
100
AcDbEntity
  8
3
  6
Continuous
 62
     2
100
AcDbPoint
 10
246.124443021
 20
211.720901295
 30
0.0
  0
POINT
  5
13E
330
1F
100
AcDbEntity
  8
3
  6
Continuous
 62
     2
100
AcDbPoint
 10
229.024443021
 20
198.620901295
 30
0.0
  0
LINE
  5
13F
330
1F
100
AcDbEntity
  8
2
  6
Continuous
 62
     2
100
AcDbLine
 10
237.624443021
 20
207.870901295
 30
0.0
 11
237.624443021
 21
200.370901295
 31
0.0
  0
LINE
  5
141
330
1F
100
AcDbEntity
  8
2
  6
LTYPE1
 62
     3
100
AcDbLine
 10
218.374443021
 20
220.720901295
 30
0.0
 11
230.874443021
 21
220.720901295
 31
0.0
  0
LINE
  5
142
330
1F
100
AcDbEntity
  8
2
  6
LTYPE1
 62
     3
100
AcDbLine
 10
228.124443021
 20
217.970901295
 30
0.0
 11
228.124443021
 21
223.470901295
 31
0.0
  0
LINE
  5
143
330
1F
100
AcDbEntity
  8
2
  6
LTYPE1
 62
     3
100
AcDbLine
 10
221.124443021
 20
217.970901295
 30
0.0
 11
221.124443021
 21
223.470901295
 31
0.0
  0
LINE
  5
144
330
1F
100
AcDbEntity
  8
2
  6
LTYPE1
 62
     3
100
AcDbLine
 10
235.124443021
 20
225.970901295
 30
0.0
 11
235.124443021
 21
215.470901295
 31
0.0
  0
LINE
  5
145
330
1F
100
AcDbEntity
  8
2
  6
LTYPE1
 62
     3
100
AcDbLine
 10
237.874443021
 20
223.220901295
 30
0.0
 11
232.374443021
 21
223.220901295
 31
0.0
  0
LINE
  5
146
330
1F
100
AcDbEntity
  8
2
  6
LTYPE1
 62
     3
100
AcDbLine
 10
237.874443021
 20
218.220901295
 30
0.0
 11
232.374443021
 21
218.220901295
 31
0.0
  0
LINE
  5
147
330
1F
100
AcDbEntity
  8
2
  6
LTYPE1
 62
     3
100
AcDbLine
 10
242.124443021
 20
225.970901295
 30
0.0
 11
242.124443021
 21
215.470901295
 31
0.0
  0
LINE
  5
148
330
1F
100
AcDbEntity
  8
2
  6
LTYPE1
 62
     3
100
AcDbLine
 10
244.874443021
 20
223.220901295
 30
0.0
 11
239.374443021
 21
223.220901295
 31
0.0
  0
LINE
  5
149
330
1F
100
AcDbEntity
  8
2
  6
LTYPE1
 62
     3
100
AcDbLine
 10
244.874443021
 20
218.220901295
 30
0.0
 11
239.374443021
 21
218.220901295
 31
0.0
  0
LINE
  5
14A
330
1F
100
AcDbEntity
  8
2
  6
LTYPE1
 62
     3
100
AcDbLine
 10
220.624443021
 20
217.021726136
 30
0.0
 11
220.624443021
 21
197.405215608
 31
0.0
  0
LINE
  5
14B
330
1F
100
AcDbEntity
  8
2
  6
LTYPE1
 62
     3
100
AcDbLine
 10
245.394516468
 20
205.170901295
 30
0.0
 11
215.624443021
 21
205.170901295
 31
0.0
  0
LINE
  5
14C
330
1F
100
AcDbEntity
  8
2
  6
Continuous
 62
     2
100
AcDbLine
 10
239.274443021
 20
202.850901295
 30
0.0
 11
239.274443021
 21
203.275485165
 31
0.0
  0
LINE
  5
14D
330
1F
100
AcDbEntity
  8
2
  6
Continuous
 62
     2
100
AcDbLine
 10
238.974443021
 20
207.075485165
 30
0.0
 11
238.974443021
 21
206.529820551
 31
0.0
  0
LINE
  5
14E
330
1F
100
AcDbEntity
  8
0
  6
Continuous
 62
     3
100
AcDbLine
 10
240.320107441
 20
225.430084458
 30
0.0
 11
240.320107441
 21
231.230084458
 31
0.0
  0
LINE
  5
14F
330
1F
100
AcDbEntity
  8
0
  6
Continuous
 62
     3
100
AcDbLine
 10
240.320107441
 20
229.230084458
 30
0.0
 11
237.905292875
 21
229.877132071
 31
0.0
  0
LINE
  5
150
330
1F
100
AcDbEntity
  8
0
  6
Continuous
 62
     3
100
AcDbLine
 10
240.320107441
 20
229.230084458
 30
0.0
 11
237.905292875
 21
228.583036845
 31
0.0
  0
LWPOLYLINE
  5
152
330
1F
100
AcDbEntity
  8
0
  6
Continuous
 62
     3
100
AcDbPolyline
 90
     4
 70
   128
 43
0.0
 10
236.570107441
 20
229.230084458
 10
240.320107441
 20
229.230084458
 10
243.820107441
 20
229.230084458
 10
246.234922006
 20
228.583036845
  0
LINE
  5
153
330
1F
100
AcDbEntity
  8
0
  6
Continuous
 62
     3
100
AcDbLine
 10
243.820107441
 20
229.230084458
 30
0.0
 11
246.234922006
 21
229.877132071
 31
0.0
  0
LINE
  5
154
330
1F
100
AcDbEntity
  8
0
  6
Continuous
 62
     3
100
AcDbLine
 10
243.820107441
 20
225.430084458
 30
0.0
 11
243.820107441
 21
231.230084458
 31
0.0
  0
LINE
  5
155
330
1F
100
AcDbEntity
  8
0
  6
Continuous
 62
     3
100
AcDbLine
 10
235.120107441
 20
227.730084458
 30
0.0
 11
235.120107441
 21
235.930084458
 31
0.0
  0
LINE
  5
156
330
1F
100
AcDbEntity
  8
0
  6
Continuous
 62
     3
100
AcDbLine
 10
235.120107441
 20
233.930084458
 30
0.0
 11
237.534922006
 21
233.283036845
 31
0.0
  0
LINE
  5
157
330
1F
100
AcDbEntity
  8
0
  6
Continuous
 62
     3
100
AcDbLine
 10
235.120107441
 20
233.930084458
 30
0.0
 11
237.534922006
 21
234.577132071
 31
0.0
  0
LWPOLYLINE
  5
159
330
1F
100
AcDbEntity
  8
0
  6
Continuous
 62
     3
100
AcDbPolyline
 90
     3
 70
   128
 43
0.0
 10
235.120107441
 20
233.930084458
 10
242.120107441
 20
233.930084458
 10
239.705292875
 20
234.577132071
  0
LINE
  5
15A
330
1F
100
AcDbEntity
  8
0
  6
Continuous
 62
     3
100
AcDbLine
 10
242.120107441
 20
233.930084458
 30
0.0
 11
239.705292875
 21
233.283036845
 31
0.0
  0
LINE
  5
15B
330
1F
100
AcDbEntity
  8
0
  6
Continuous
 62
     3
100
AcDbLine
 10
242.120107441
 20
227.830084458
 30
0.0
 11
242.120107441
 21
235.930084458
 31
0.0
  0
MTEXT
  5
15C
330
1F
100
AcDbEntity
  8
0
  6
Continuous
 62
     3
100
AcDbMText
 10
237.720107441
 20
234.930084458
 30
0.0
 40
3.0
 41
3.6
 71
     7
 72
     1
  1
\T1.167;\W0.600;７
  7
KANJI0
 73
     1
 44
1.0
  0
LINE
  5
15E
330
1F
100
AcDbEntity
  8
0
  6
Continuous
 62
     3
100
AcDbLine
 10
235.120107441
 20
227.630084458
 30
0.0
 11
235.120107441
 21
235.930084458
 31
0.0
  0
LINE
  5
15F
330
1F
100
AcDbEntity
  8
0
  6
Continuous
 62
     3
100
AcDbLine
 10
235.120107441
 20
233.930084458
 30
0.0
 11
232.705292875
 21
234.577132071
 31
0.0
  0
LINE
  5
160
330
1F
100
AcDbEntity
  8
0
  6
Continuous
 62
     3
100
AcDbLine
 10
235.120107441
 20
233.930084458
 30
0.0
 11
232.705292875
 21
233.283036845
 31
0.0
  0
LWPOLYLINE
  5
162
330
1F
100
AcDbEntity
  8
0
  6
Continuous
 62
     3
100
AcDbPolyline
 90
     3
 70
   128
 43
0.0
 10
235.120107441
 20
233.930084458
 10
228.120107441
 20
233.930084458
 10
230.534922006
 20
233.283036845
  0
LINE
  5
163
330
1F
100
AcDbEntity
  8
0
  6
Continuous
 62
     3
100
AcDbLine
 10
228.120107441
 20
233.930084458
 30
0.0
 11
230.534922006
 21
234.577132071
 31
0.0
  0
LINE
  5
164
330
1F
100
AcDbEntity
  8
0
  6
Continuous
 62
     3
100
AcDbLine
 10
228.120107441
 20
225.130084458
 30
0.0
 11
228.120107441
 21
235.930084458
 31
0.0
  0
MTEXT
  5
165
330
1F
100
AcDbEntity
  8
0
  6
Continuous
 62
     3
100
AcDbMText
 10
230.720107441
 20
234.930084458
 30
0.0
 40
3.0
 41
3.6
 71
     7
 72
     1
  1
\T1.167;\W0.600;７
  7
KANJI0
 73
     1
 44
1.0
  0
LINE
  5
166
330
1F
100
AcDbEntity
  8
0
  6
Continuous
 62
     3
100
AcDbLine
 10
228.120107441
 20
225.030084458
 30
0.0
 11
228.120107441
 21
235.930084458
 31
0.0
  0
LINE
  5
167
330
1F
100
AcDbEntity
  8
0
  6
Continuous
 62
     3
100
AcDbLine
 10
228.120107441
 20
233.930084458
 30
0.0
 11
225.705292875
 21
234.577132071
 31
0.0
  0
LINE
  5
168
330
1F
100
AcDbEntity
  8
0
  6
Continuous
 62
     3
100
AcDbLine
 10
228.120107441
 20
233.930084458
 30
0.0
 11
225.705292875
 21
233.283036845
 31
0.0
  0
LWPOLYLINE
  5
16A
330
1F
100
AcDbEntity
  8
0
  6
Continuous
 62
     3
100
AcDbPolyline
 90
     3
 70
   128
 43
0.0
 10
228.120107441
 20
233.930084458
 10
221.120107441
 20
233.930084458
 10
223.534922006
 20
233.283036845
  0
LINE
  5
16B
330
1F
100
AcDbEntity
  8
0
  6
Continuous
 62
     3
100
AcDbLine
 10
221.120107441
 20
233.930084458
 30
0.0
 11
223.534922006
 21
234.577132071
 31
0.0
  0
LINE
  5
16C
330
1F
100
AcDbEntity
  8
0
  6
Continuous
 62
     3
100
AcDbLine
 10
221.120107441
 20
225.130084458
 30
0.0
 11
221.120107441
 21
235.930084458
 31
0.0
  0
MTEXT
  5
16D
330
1F
100
AcDbEntity
  8
0
  6
Continuous
 62
     3
100
AcDbMText
 10
223.720107441
 20
234.930084458
 30
0.0
 40
3.0
 41
3.6
 71
     7
 72
     1
  1
\T1.167;\W0.600;７
  7
KANJI0
 73
     1
 44
1.0
  0
LINE
  5
16E
330
1F
100
AcDbEntity
  8
0
  6
Continuous
 62
     3
100
AcDbLine
 10
221.120107441
 20
225.330084458
 30
0.0
 11
221.120107441
 21
235.930084458
 31
0.0
  0
LINE
  5
16F
330
1F
100
AcDbEntity
  8
0
  6
Continuous
 62
     3
100
AcDbLine
 10
221.120107441
 20
233.930084458
 30
0.0
 11
223.534922006
 21
233.283036845
 31
0.0
  0
LINE
  5
170
330
1F
100
AcDbEntity
  8
0
  6
Continuous
 62
     3
100
AcDbLine
 10
221.120107441
 20
233.930084458
 30
0.0
 11
223.534922006
 21
234.577132071
 31
0.0
  0
LWPOLYLINE
  5
172
330
1F
100
AcDbEntity
  8
0
  6
Continuous
 62
     3
100
AcDbPolyline
 90
     4
 70
   128
 43
0.0
 10
224.870107441
 20
233.930084458
 10
221.120107441
 20
233.930084458
 10
217.120107441
 20
233.930084458
 10
214.705292875
 20
234.577132071
  0
LINE
  5
173
330
1F
100
AcDbEntity
  8
0
  6
Continuous
 62
     3
100
AcDbLine
 10
217.120107441
 20
233.930084458
 30
0.0
 11
214.705292875
 21
233.283036845
 31
0.0
  0
LINE
  5
174
330
1F
100
AcDbEntity
  8
0
  6
Continuous
 62
     3
100
AcDbLine
 10
217.120107441
 20
227.130084458
 30
0.0
 11
217.120107441
 21
235.930084458
 31
0.0
  0
LINE
  5
175
330
1F
100
AcDbEntity
  8
0
  6
Continuous
 62
     3
100
AcDbLine
 10
217.120107441
 20
227.330084458
 30
0.0
 11
217.120107441
 21
242.730084458
 31
0.0
  0
LINE
  5
176
330
1F
100
AcDbEntity
  8
0
  6
Continuous
 62
     3
100
AcDbLine
 10
217.120107441
 20
240.730084458
 30
0.0
 11
219.534922006
 21
240.083036845
 31
0.0
  0
LINE
  5
177
330
1F
100
AcDbEntity
  8
0
  6
Continuous
 62
     3
100
AcDbLine
 10
217.120107441
 20
240.730084458
 30
0.0
 11
219.534922006
 21
241.377132071
 31
0.0
  0
LWPOLYLINE
  5
179
330
1F
100
AcDbEntity
  8
0
  6
Continuous
 62
     3
100
AcDbPolyline
 90
     3
 70
   128
 43
0.0
 10
217.120107441
 20
240.730084458
 10
246.120107441
 20
240.730084458
 10
243.705292875
 20
241.377132071
  0
LINE
  5
17A
330
1F
100
AcDbEntity
  8
0
  6
Continuous
 62
     3
100
AcDbLine
 10
246.120107441
 20
240.730084458
 30
0.0
 11
243.705292875
 21
240.083036845
 31
0.0
  0
LINE
  5
17B
330
1F
100
AcDbEntity
  8
0
  6
Continuous
 62
     3
100
AcDbLine
 10
246.120107441
 20
227.330084458
 30
0.0
 11
246.120107441
 21
242.730084458
 31
0.0
  0
MTEXT
  5
17C
330
1F
100
AcDbEntity
  8
0
  6
Continuous
 62
     3
100
AcDbMText
 10
229.670107441
 20
241.730084458
 30
0.0
 40
3.0
 41
7.8
 71
     7
 72
     1
  1
\T1.167;\W0.600;２９
  7
KANJI0
 73
     1
 44
1.0
  0
LINE
  5
17D
330
1F
100
AcDbEntity
  8
0
  6
Continuous
 62
     3
100
AcDbLine
 10
251.220107441
 20
218.230084458
 30
0.0
 11
251.867155053
 21
220.644899024
 31
0.0
  0
LINE
  5
17E
330
1F
100
AcDbEntity
  8
0
  6
Continuous
 62
     3
100
AcDbLine
 10
251.220107441
 20
218.230084458
 30
0.0
 11
250.573059828
 21
220.644899024
 31
0.0
  0
LWPOLYLINE
  5
180
330
1F
100
AcDbEntity
  8
0
  6
Continuous
 62
     3
100
AcDbPolyline
 90
     3
 70
   128
 43
0.0
 10
251.220107441
 20
218.230084458
 10
251.220107441
 20
223.230084458
 10
250.573059828
 20
220.815269892
  0
LINE
  5
181
330
1F
100
AcDbEntity
  8
0
  6
Continuous
 62
     3
100
AcDbLine
 10
251.220107441
 20
223.230084458
 30
0.0
 11
251.867155053
 21
220.815269892
 31
0.0
  0
LINE
  5
182
330
1F
100
AcDbEntity
  8
0
  6
Continuous
 62
     3
100
AcDbLine
 10
243.820107441
 20
229.230084458
 30
0.0
 11
254.120107441
 21
229.230084458
 31
0.0
  0
MTEXT
  5
183
330
1F
100
AcDbEntity
  8
0
  6
Continuous
 62
     3
100
AcDbMText
 10
247.070107441
 20
230.230084458
 30
0.0
 40
3.0
 41
12.0
 71
     7
 72
     1
  1
\T1.167;\W0.600;３．５
  7
KANJI0
 73
     1
 44
1.0
  0
MTEXT
  5
184
330
1F
100
AcDbEntity
  8
0
  6
Continuous
 62
     3
100
AcDbMText
 10
250.220107441
 20
219.830084458
 30
0.0
 40
3.0
 41
3.6
 71
     7
 72
     1
  1
\T1.167;\W0.600;５
  7
KANJI0
 11
0.0
 21
1.0
 31
0.0
 73
     1
 44
1.0
  0
LINE
  5
185
330
1F
100
AcDbEntity
  8
0
  6
Continuous
 62
     3
100
AcDbLine
 10
246.520107441
 20
218.230084458
 30
0.0
 11
253.220107441
 21
218.230084458
 31
0.0
  0
LINE
  5
186
330
1F
100
AcDbEntity
  8
0
  6
Continuous
 62
     3
100
AcDbLine
 10
246.520107441
 20
223.230084458
 30
0.0
 11
253.220107441
 21
223.230084458
 31
0.0
  0
LINE
  5
187
330
1F
100
AcDbEntity
  8
0
  6
Continuous
 62
     3
100
AcDbLine
 10
214.420107441
 20
205.130084458
 30
0.0
 11
207.820107441
 21
205.130084458
 31
0.0
  0
LINE
  5
188
330
1F
100
AcDbEntity
  8
0
  6
Continuous
 62
     3
100
AcDbLine
 10
209.820107441
 20
205.130084458
 30
0.0
 11
210.467155053
 21
207.544899024
 31
0.0
  0
LINE
  5
189
330
1F
100
AcDbEntity
  8
0
  6
Continuous
 62
     3
100
AcDbLine
 10
209.820107441
 20
205.130084458
 30
0.0
 11
209.173059828
 21
207.544899024
 31
0.0
  0
LWPOLYLINE
  5
18B
330
1F
100
AcDbEntity
  8
0
  6
Continuous
 62
     3
100
AcDbPolyline
 90
     3
 70
   128
 43
0.0
 10
209.820107441
 20
205.130084458
 10
209.820107441
 20
220.730084458
 10
209.173059828
 20
218.315269892
  0
LINE
  5
18C
330
1F
100
AcDbEntity
  8
0
  6
Continuous
 62
     3
100
AcDbLine
 10
209.820107441
 20
220.730084458
 30
0.0
 11
210.467155053
 21
218.315269892
 31
0.0
  0
LINE
  5
18D
330
1F
100
AcDbEntity
  8
0
  6
Continuous
 62
     3
100
AcDbLine
 10
216.920107441
 20
220.730084458
 30
0.0
 11
207.820107441
 21
220.730084458
 31
0.0
  0
MTEXT
  5
18E
330
1F
100
AcDbEntity
  8
0
  6
Continuous
 62
     3
100
AcDbMText
 10
208.820107441
 20
208.880084458
 30
0.0
 40
3.0
 41
16.2
 71
     7
 72
     1
  1
\T1.167;\W0.600;１５．６
  7
KANJI0
 11
0.0
 21
1.0
 31
0.0
 73
     1
 44
1.0
  0
LINE
  5
18F
330
1F
100
AcDbEntity
  8
0
  6
Continuous
 62
     3
100
AcDbLine
 10
213.420107441
 20
205.130084458
 30
0.0
 11
199.720107441
 21
205.130084458
 31
0.0
  0
LINE
  5
190
330
1F
100
AcDbEntity
  8
0
  6
Continuous
 62
     3
100
AcDbLine
 10
201.720107441
 20
205.130084458
 30
0.0
 11
202.367155053
 21
207.544899024
 31
0.0
  0
LINE
  5
191
330
1F
100
AcDbEntity
  8
0
  6
Continuous
 62
     3
100
AcDbLine
 10
201.720107441
 20
205.130084458
 30
0.0
 11
201.073059828
 21
207.544899024
 31
0.0
  0
LWPOLYLINE
  5
193
330
1F
100
AcDbEntity
  8
0
  6
Continuous
 62
     3
100
AcDbPolyline
 90
     3
 70
   128
 43
0.0
 10
201.720107441
 20
205.130084458
 10
201.720107441
 20
226.230084458
 10
201.073059828
 20
223.815269892
  0
LINE
  5
194
330
1F
100
AcDbEntity
  8
0
  6
Continuous
 62
     3
100
AcDbLine
 10
201.720107441
 20
226.230084458
 30
0.0
 11
202.367155053
 21
223.815269892
 31
0.0
  0
LINE
  5
195
330
1F
100
AcDbEntity
  8
0
  6
Continuous
 62
     3
100
AcDbLine
 10
215.420107441
 20
226.230084458
 30
0.0
 11
199.720107441
 21
226.230084458
 31
0.0
  0
MTEXT
  5
196
330
1F
100
AcDbEntity
  8
0
  6
Continuous
 62
     3
100
AcDbMText
 10
200.720107441
 20
211.630084458
 30
0.0
 40
3.0
 41
16.2
 71
     7
 72
     1
  1
\T1.167;\W0.600;２１．１
  7
KANJI0
 11
0.0
 21
1.0
 31
0.0
 73
     1
 44
1.0
  0
LINE
  5
197
330
1F
100
AcDbEntity
  8
0
  6
Continuous
 62
     3
100
AcDbLine
 10
213.420107441
 20
205.130084458
 30
0.0
 11
199.720107441
 21
205.130084458
 31
0.0
  0
LINE
  5
198
330
1F
100
AcDbEntity
  8
0
  6
Continuous
 62
     3
100
AcDbLine
 10
201.720107441
 20
205.130084458
 30
0.0
 11
201.073059828
 21
202.715269892
 31
0.0
  0
LINE
  5
199
330
1F
100
AcDbEntity
  8
0
  6
Continuous
 62
     3
100
AcDbLine
 10
201.720107441
 20
205.130084458
 30
0.0
 11
202.367155053
 21
202.715269892
 31
0.0
  0
LWPOLYLINE
  5
19B
330
1F
100
AcDbEntity
  8
0
  6
Continuous
 62
     3
100
AcDbPolyline
 90
     3
 70
   128
 43
0.0
 10
201.720107441
 20
205.130084458
 10
201.720107441
 20
198.530084458
 10
202.367155053
 20
200.944899024
  0
LINE
  5
19C
330
1F
100
AcDbEntity
  8
0
  6
Continuous
 62
     3
100
AcDbLine
 10
201.720107441
 20
198.530084458
 30
0.0
 11
201.073059828
 21
200.944899024
 31
0.0
  0
LINE
  5
19D
330
1F
100
AcDbEntity
  8
0
  6
Continuous
 62
     3
100
AcDbLine
 10
216.520107441
 20
198.530084458
 30
0.0
 11
199.720107441
 21
198.530084458
 31
0.0
  0
MTEXT
  5
19E
330
1F
100
AcDbEntity
  8
0
  6
Continuous
 62
     3
100
AcDbMText
 10
200.720107441
 20
198.830084458
 30
0.0
 40
3.0
 41
12.0
 71
     7
 72
     1
  1
\T1.167;\W0.600;６．６
  7
KANJI0
 11
0.0
 21
1.0
 31
0.0
 73
     1
 44
1.0
  0
MTEXT
  5
19F
330
1F
100
AcDbEntity
  8
0
  6
Continuous
 62
     3
100
AcDbMText
 10
211.220107441
 20
234.930084458
 30
0.0
 40
3.0
 41
3.6
 71
     7
 72
     1
  1
\T1.167;\W0.600;４
  7
KANJI0
 73
     1
 44
1.0
  0
LINE
  5
1A0
330
1F
100
AcDbEntity
  8
0
  6
Continuous
 62
     3
100
AcDbLine
 10
217.120107441
 20
233.930084458
 30
0.0
 11
211.020107441
 21
233.930084458
 31
0.0
  0
LINE
  5
1A1
330
1F
100
AcDbEntity
  8
0
  6
Continuous
 62
     2
100
AcDbLine
 10
278.039580765
 20
209.678208865
 30
0.0
 11
275.372914098
 21
205.678208865
 31
0.0
  0
LINE
  5
1A2
330
1F
100
AcDbEntity
  8
0
  6
Continuous
 62
     2
100
AcDbLine
 10
276.655359858
 20
203.078208865
 30
0.0
 11
273.988693192
 21
199.078208865
 31
0.0
  0
LINE
  5
1A3
330
1F
100
AcDbEntity
  8
0
  6
Continuous
 62
     2
100
AcDbLine
 10
278.655359858
 20
203.078208865
 30
0.0
 11
275.988693192
 21
199.078208865
 31
0.0
  0
LINE
  5
1A4
330
1F
100
AcDbEntity
  8
0
  6
Continuous
 62
     2
100
AcDbLine
 10
275.372914098
 20
205.678208865
 30
0.0
 11
278.655359858
 21
203.078208865
 31
0.0
  0
LINE
  5
1A5
330
1F
100
AcDbEntity
  8
0
  6
Continuous
 62
     7
100
AcDbLine
 10
274.304431632
 20
207.075485165
 30
0.0
 11
239.020107441
 21
207.075485165
 31
0.0
  0
LINE
  5
1A6
330
1F
100
AcDbEntity
  8
0
  6
Continuous
 62
     2
100
AcDbLine
 10
276.039580765
 20
209.678208865
 30
0.0
 11
273.372914098
 21
205.678208865
 31
0.0
  0
LINE
  5
1A7
330
1F
100
AcDbEntity
  8
0
  6
Continuous
 62
     7
100
AcDbLine
 10
239.220107441
 20
203.275485165
 30
0.0
 11
276.406302645
 21
203.275485165
 31
0.0
  0
LINE
  5
1A8
330
1F
100
AcDbEntity
  8
0
  6
Continuous
 62
     2
100
AcDbLine
 10
273.372914098
 20
205.678208865
 30
0.0
 11
276.406302645
 21
203.275485165
 31
0.0
  0
POINT
  5
1A9
330
1F
100
AcDbEntity
  8
3
  6
Continuous
 62
     7
100
AcDbPoint
 10
46.052542104
 20
116.884028282
 30
0.0
  0
POINT
  5
1AA
330
1F
100
AcDbEntity
  8
3
  6
Continuous
 62
     7
100
AcDbPoint
 10
97.252542104
 20
116.884028282
 30
0.0
  0
POINT
  5
1AB
330
1F
100
AcDbEntity
  8
3
  6
Continuous
 62
     7
100
AcDbPoint
 10
48.152542104
 20
174.784028282
 30
0.0
  0
POINT
  5
1AC
330
1F
100
AcDbEntity
  8
3
  6
Continuous
 62
     7
100
AcDbPoint
 10
95.152542104
 20
174.784028282
 30
0.0
  0
LINE
  5
1AD
330
1F
100
AcDbEntity
  8
2
  6
Continuous
 62
     2
100
AcDbLine
 10
48.152542104
 20
174.784028282
 30
0.0
 11
95.152542104
 21
174.784028282
 31
0.0
  0
LINE
  5
1AE
330
1F
100
AcDbEntity
  8
2
  6
Continuous
 62
     1
100
AcDbLine
 10
47.052542104
 20
176.884028282
 30
0.0
 11
96.252542104
 21
176.884028282
 31
0.0
  0
LINE
  5
1AF
330
1F
100
AcDbEntity
  8
2
  6
Continuous
 62
     2
100
AcDbLine
 10
47.052542104
 20
125.684028282
 30
0.0
 11
96.252542104
 21
125.684028282
 31
0.0
  0
LINE
  5
1B0
330
1F
100
AcDbEntity
  8
2
  6
Continuous
 62
     1
100
AcDbLine
 10
96.252542104
 20
115.884028282
 30
0.0
 11
47.052542104
 21
115.884028282
 31
0.0
  0
CIRCLE
  5
1B1
330
1F
100
AcDbEntity
  8
2
  6
Continuous
 62
     2
100
AcDbCircle
 10
91.652542104
 20
120.884028282
 30
0.0
 40
2.25
  0
LINE
  5
1B2
330
1F
100
AcDbEntity
  8
2
  6
Continuous
 62
     2
100
AcDbLine
 10
95.152542104
 20
127.784028282
 30
0.0
 11
48.152542104
 21
127.784028282
 31
0.0
  0
POINT
  5
1B3
330
1F
100
AcDbEntity
  8
3
  6
Continuous
 62
     7
100
AcDbPoint
 10
47.052542104
 20
176.884028282
 30
0.0
  0
POINT
  5
1B4
330
1F
100
AcDbEntity
  8
3
  6
Continuous
 62
     7
100
AcDbPoint
 10
47.052542104
 20
115.884028282
 30
0.0
  0
POINT
  5
1B5
330
1F
100
AcDbEntity
  8
3
  6
Continuous
 62
     7
100
AcDbPoint
 10
48.152542104
 20
174.784028282
 30
0.0
  0
POINT
  5
1B6
330
1F
100
AcDbEntity
  8
3
  6
Continuous
 62
     7
100
AcDbPoint
 10
48.152542104
 20
127.784028282
 30
0.0
  0
LINE
  5
1B7
330
1F
100
AcDbEntity
  8
2
  6
Continuous
 62
     2
100
AcDbLine
 10
48.152542104
 20
127.784028282
 30
0.0
 11
48.152542104
 21
174.784028282
 31
0.0
  0
LINE
  5
1B8
330
1F
100
AcDbEntity
  8
2
  6
Continuous
 62
     1
100
AcDbLine
 10
46.052542104
 20
116.884028282
 30
0.0
 11
46.052542104
 21
175.884028282
 31
0.0
  0
POINT
  5
1B9
330
1F
100
AcDbEntity
  8
3
  6
Continuous
 62
     7
100
AcDbPoint
 10
51.652542104
 20
117.634028282
 30
0.0
  0
POINT
  5
1BA
330
1F
100
AcDbEntity
  8
3
  6
Continuous
 62
     7
100
AcDbPoint
 10
91.652542104
 20
117.634028282
 30
0.0
  0
POINT
  5
1BB
330
1F
100
AcDbEntity
  8
3
  6
Continuous
 62
     7
100
AcDbPoint
 10
56.652542104
 20
115.884028282
 30
0.0
  0
POINT
  5
1BC
330
1F
100
AcDbEntity
  8
3
  6
Continuous
 62
     7
100
AcDbPoint
 10
86.652542104
 20
115.884028282
 30
0.0
  0
CIRCLE
  5
1BD
330
1F
100
AcDbEntity
  8
2
  6
Continuous
 62
     2
100
AcDbCircle
 10
51.652542104
 20
120.884028282
 30
0.0
 40
2.25
  0
LINE
  5
1BE
330
1F
100
AcDbEntity
  8
2
  6
Continuous
 62
     2
100
AcDbLine
 10
56.652542104
 20
115.884028282
 30
0.0
 11
56.652542104
 21
125.684028282
 31
0.0
  0
ARC
  5
1BF
330
1F
100
AcDbEntity
  8
2
  6
Continuous
 62
     1
100
AcDbCircle
 10
47.052542104
 20
116.884028282
 30
0.0
 40
1.0
100
AcDbArc
 50
180.0
 51
270.0
  0
ARC
  5
1C0
330
1F
100
AcDbEntity
  8
2
  6
Continuous
 62
     2
100
AcDbCircle
 10
47.052542104
 20
126.684028282
 30
0.0
 40
1.0
100
AcDbArc
 50
180.0
 51
270.0
  0
LINE
  5
1C1
330
1F
100
AcDbEntity
  8
2
  6
Continuous
 62
     2
100
AcDbLine
 10
86.652542104
 20
115.884028282
 30
0.0
 11
86.652542104
 21
125.684028282
 31
0.0
  0
ARC
  5
1C2
330
1F
100
AcDbEntity
  8
2
  6
Continuous
 62
     1
100
AcDbCircle
 10
47.052542104
 20
175.884028282
 30
0.0
 40
1.0
100
AcDbArc
 50
90.0
 51
180.0
  0
POINT
  5
1C3
330
1F
100
AcDbEntity
  8
3
  6
Continuous
 62
     7
100
AcDbPoint
 10
101.252542104
 20
151.284028282
 30
0.0
  0
POINT
  5
1C4
330
1F
100
AcDbEntity
  8
3
  6
Continuous
 62
     7
100
AcDbPoint
 10
94.902542104
 20
120.884028282
 30
0.0
  0
LINE
  5
1C5
330
1F
100
AcDbEntity
  8
2
  6
Continuous
 62
     2
100
AcDbLine
 10
95.152542104
 20
174.784028282
 30
0.0
 11
95.152542104
 21
127.784028282
 31
0.0
  0
LINE
  5
1C6
330
1F
100
AcDbEntity
  8
2
  6
Continuous
 62
     1
100
AcDbLine
 10
97.252542104
 20
175.884028282
 30
0.0
 11
97.252542104
 21
116.884028282
 31
0.0
  0
ARC
  5
1C7
330
1F
100
AcDbEntity
  8
2
  6
Continuous
 62
     1
100
AcDbCircle
 10
96.252542104
 20
116.884028282
 30
0.0
 40
1.0
100
AcDbArc
 50
270.0
 51
0.0
  0
ARC
  5
1C8
330
1F
100
AcDbEntity
  8
2
  6
Continuous
 62
     2
100
AcDbCircle
 10
96.252542104
 20
126.684028282
 30
0.0
 40
1.0
100
AcDbArc
 50
270.0
 51
0.0
  0
ARC
  5
1C9
330
1F
100
AcDbEntity
  8
2
  6
Continuous
 62
     1
100
AcDbCircle
 10
96.252542104
 20
175.884028282
 30
0.0
 40
1.0
100
AcDbArc
 50
0.0
 51
90.0
  0
POINT
  5
1CA
330
1F
100
AcDbEntity
  8
3
  6
Continuous
 62
     2
100
AcDbPoint
 10
96.252542104
 20
176.884028282
 30
0.0
  0
POINT
  5
1CB
330
1F
100
AcDbEntity
  8
3
  6
Continuous
 62
     2
100
AcDbPoint
 10
101.252542104
 20
151.284028282
 30
0.0
  0
LINE
  5
1CC
330
1F
100
AcDbEntity
  8
2
  6
LTYPE1
 62
     3
100
AcDbLine
 10
42.052542104
 20
151.284028282
 30
0.0
 11
101.252542104
 21
151.284028282
 31
0.0
  0
LINE
  5
1CD
330
1F
100
AcDbEntity
  8
2
  6
LTYPE1
 62
     3
100
AcDbLine
 10
71.652542104
 20
180.884028282
 30
0.0
 11
71.652542104
 21
111.884028282
 31
0.0
  0
LINE
  5
1CE
330
1F
100
AcDbEntity
  8
2
  6
LTYPE1
 62
     3
100
AcDbLine
 10
51.652542104
 20
117.634028282
 30
0.0
 11
51.652542104
 21
124.134028282
 31
0.0
  0
LINE
  5
1CF
330
1F
100
AcDbEntity
  8
2
  6
LTYPE1
 62
     3
100
AcDbLine
 10
91.652542104
 20
117.634028282
 30
0.0
 11
91.652542104
 21
124.134028282
 31
0.0
  0
LINE
  5
1D0
330
1F
100
AcDbEntity
  8
2
  6
LTYPE1
 62
     3
100
AcDbLine
 10
48.402542104
 20
120.884028282
 30
0.0
 11
94.902542104
 21
120.884028282
 31
0.0
  0
POINT
  5
1D1
330
1F
100
AcDbEntity
  8
3
  6
Continuous
 62
     7
100
AcDbPoint
 10
123.552542104
 20
176.884028282
 30
0.0
  0
POINT
  5
1D2
330
1F
100
AcDbEntity
  8
3
  6
Continuous
 62
     7
100
AcDbPoint
 10
123.552542104
 20
125.684028282
 30
0.0
  0
LINE
  5
1D3
330
1F
100
AcDbEntity
  8
2
  6
Continuous
 62
     2
100
AcDbLine
 10
126.052542104
 20
125.684028282
 30
0.0
 11
126.052542104
 21
176.884028282
 31
0.0
  0
LINE
  5
1D4
330
1F
100
AcDbEntity
  8
2
  6
Continuous
 62
     2
100
AcDbLine
 10
128.052542104
 20
176.884028282
 30
0.0
 11
128.052542104
 21
115.884028282
 31
0.0
  0
LINE
  5
1D5
330
1F
100
AcDbEntity
  8
2
  6
Continuous
 62
     1
100
AcDbLine
 10
123.552542104
 20
176.884028282
 30
0.0
 11
123.552542104
 21
125.684028282
 31
0.0
  0
POINT
  5
1D6
330
1F
100
AcDbEntity
  8
3
  6
Continuous
 62
     7
100
AcDbPoint
 10
126.052542104
 20
115.884028282
 30
0.0
  0
POINT
  5
1D7
330
1F
100
AcDbEntity
  8
3
  6
Continuous
 62
     7
100
AcDbPoint
 10
123.552542104
 20
125.684028282
 30
0.0
  0
POINT
  5
1D8
330
1F
100
AcDbEntity
  8
3
  6
Continuous
 62
     7
100
AcDbPoint
 10
128.052542104
 20
115.884028282
 30
0.0
  0
LINE
  5
1D9
330
1F
100
AcDbEntity
  8
2
  6
Continuous
 62
     1
100
AcDbLine
 10
126.052542104
 20
115.884028282
 30
0.0
 11
126.052542104
 21
125.684028282
 31
0.0
  0
LINE
  5
1DA
330
1F
100
AcDbEntity
  8
2
  6
Continuous
 62
     1
100
AcDbLine
 10
131.552542104
 20
115.884028282
 30
0.0
 11
126.052542104
 21
115.884028282
 31
0.0
  0
LINE
  5
1DB
330
1F
100
AcDbEntity
  8
2
  6
Continuous
 62
     1
100
AcDbLine
 10
123.552542104
 20
125.684028282
 30
0.0
 11
126.052542104
 21
125.684028282
 31
0.0
  0
LINE
  5
1DC
330
1F
100
AcDbEntity
  8
2
  6
Continuous
 62
     1
100
AcDbLine
 10
123.552542104
 20
176.884028282
 30
0.0
 11
131.552542104
 21
176.884028282
 31
0.0
  0
LINE
  5
1DD
330
1F
100
AcDbEntity
  8
2
  6
Continuous
 62
     1
100
AcDbLine
 10
131.552542104
 20
176.884028282
 30
0.0
 11
131.552542104
 21
115.884028282
 31
0.0
  0
POINT
  5
1DE
330
1F
100
AcDbEntity
  8
3
  6
Continuous
 62
     7
100
AcDbPoint
 10
131.552542104
 20
115.884028282
 30
0.0
  0
POINT
  5
1DF
330
1F
100
AcDbEntity
  8
3
  6
Continuous
 62
     7
100
AcDbPoint
 10
131.552542104
 20
115.884028282
 30
0.0
  0
POINT
  5
1E0
330
1F
100
AcDbEntity
  8
3
  6
Continuous
 62
     7
100
AcDbPoint
 10
131.552542104
 20
115.884028282
 30
0.0
  0
LINE
  5
1E1
330
1F
100
AcDbEntity
  8
2
  6
LTYPE1
 62
     3
100
AcDbLine
 10
119.602628104
 20
151.284028282
 30
0.0
 11
135.552542104
 21
151.284028282
 31
0.0
  0
LINE
  5
1E2
330
1F
100
AcDbEntity
  8
2
  6
LTYPE1
 62
     3
100
AcDbLine
 10
122.052542104
 20
120.884028282
 30
0.0
 11
135.552542104
 21
120.884028282
 31
0.0
  0
LINE
  5
1E3
330
1F
100
AcDbEntity
  8
0
  6
Continuous
 62
     3
100
AcDbLine
 10
48.152542104
 20
175.784028282
 30
0.0
 11
48.152542104
 21
186.204028282
 31
0.0
  0
LINE
  5
1E4
330
1F
100
AcDbEntity
  8
0
  6
Continuous
 62
     3
100
AcDbLine
 10
48.152542104
 20
184.204028282
 30
0.0
 11
50.56735667
 21
183.55698067
 31
0.0
  0
LINE
  5
1E5
330
1F
100
AcDbEntity
  8
0
  6
Continuous
 62
     3
100
AcDbLine
 10
48.152542104
 20
184.204028282
 30
0.0
 11
50.56735667
 21
184.851075895
 31
0.0
  0
LWPOLYLINE
  5
1E7
330
1F
100
AcDbEntity
  8
0
  6
Continuous
 62
     3
100
AcDbPolyline
 90
     3
 70
   128
 43
0.0
 10
48.152542104
 20
184.204028282
 10
95.152542104
 20
184.204028282
 10
92.737727538
 20
184.851075895
  0
LINE
  5
1E8
330
1F
100
AcDbEntity
  8
0
  6
Continuous
 62
     3
100
AcDbLine
 10
95.152542104
 20
184.204028282
 30
0.0
 11
92.737727538
 21
183.55698067
 31
0.0
  0
LINE
  5
1E9
330
1F
100
AcDbEntity
  8
0
  6
Continuous
 62
     3
100
AcDbLine
 10
95.152542104
 20
175.784028282
 30
0.0
 11
95.152542104
 21
186.204028282
 31
0.0
  0
MTEXT
  5
1EA
330
1F
100
AcDbEntity
  8
0
  6
Continuous
 62
     3
100
AcDbMText
 10
69.702542104
 20
185.204028282
 30
0.0
 40
3.0
 41
7.8
 71
     7
 72
     1
  1
\T1.167;\W0.600;４７
  7
KANJI0
 73
     1
 44
1.0
  0
LINE
  5
1EB
330
1F
100
AcDbEntity
  8
0
  6
Continuous
 62
     3
100
AcDbLine
 10
105.912542104
 20
176.884028282
 30
0.0
 11
105.265494491
 21
174.469213717
 31
0.0
  0
LINE
  5
1EC
330
1F
100
AcDbEntity
  8
0
  6
Continuous
 62
     3
100
AcDbLine
 10
105.912542104
 20
176.884028282
 30
0.0
 11
106.559589717
 21
174.469213717
 31
0.0
  0
LINE
  5
1ED
330
1F
100
AcDbEntity
  8
0
  6
Continuous
 62
     3
100
AcDbLine
 10
97.252542104
 20
176.884028282
 30
0.0
 11
107.912542104
 21
176.884028282
 31
0.0
  0
MTEXT
  5
1EE
330
1F
100
AcDbEntity
  8
0
  6
Continuous
 62
     3
100
AcDbMText
 10
104.912542104
 20
160.034028282
 30
0.0
 40
3.0
 41
16.2
 71
     7
 72
     1
  1
\T1.167;\W0.600;２５．６
  7
KANJI0
 11
0.0
 21
1.0
 31
0.0
 73
     1
 44
1.0
  0
LINE
  5
1EF
330
1F
100
AcDbEntity
  8
0
  6
Continuous
 62
     3
100
AcDbLine
 10
122.552542104
 20
176.884028282
 30
0.0
 11
116.602542104
 21
176.884028282
 31
0.0
  0
LINE
  5
1F0
330
1F
100
AcDbEntity
  8
0
  6
Continuous
 62
     3
100
AcDbLine
 10
118.602542104
 20
176.884028282
 30
0.0
 11
117.955494491
 21
174.469213717
 31
0.0
  0
LINE
  5
1F1
330
1F
100
AcDbEntity
  8
0
  6
Continuous
 62
     3
100
AcDbLine
 10
118.602542104
 20
176.884028282
 30
0.0
 11
119.249589717
 21
174.469213717
 31
0.0
  0
LINE
  5
1F2
330
1F
100
AcDbEntity
  8
0
  6
Continuous
 62
     3
100
AcDbLine
 10
118.602542104
 20
125.684028282
 30
0.0
 11
119.249589717
 21
128.098842848
 31
0.0
  0
LINE
  5
1F3
330
1F
100
AcDbEntity
  8
0
  6
Continuous
 62
     3
100
AcDbLine
 10
118.602542104
 20
125.684028282
 30
0.0
 11
117.955494491
 21
128.098842848
 31
0.0
  0
LINE
  5
1F4
330
1F
100
AcDbEntity
  8
0
  6
Continuous
 62
     3
100
AcDbLine
 10
122.552542104
 20
125.684028282
 30
0.0
 11
116.602542104
 21
125.684028282
 31
0.0
  0
MTEXT
  5
1F5
330
1F
100
AcDbEntity
  8
0
  6
Continuous
 62
     3
100
AcDbMText
 10
117.602542104
 20
147.234028282
 30
0.0
 40
3.0
 41
16.2
 71
     7
 72
     1
  1
\T1.167;\W0.600;５１．２
  7
KANJI0
 11
0.0
 21
1.0
 31
0.0
 73
     1
 44
1.0
  0
LINE
  5
1F6
330
1F
100
AcDbEntity
  8
0
  6
Continuous
 62
     3
100
AcDbLine
 10
118.602542104
 20
176.884028282
 30
0.0
 11
118.602542104
 21
125.684028282
 31
0.0
  0
LINE
  5
1F7
330
1F
100
AcDbEntity
  8
0
  6
Continuous
 62
     3
100
AcDbLine
 10
102.252542104
 20
151.284028282
 30
0.0
 11
107.912542104
 21
151.284028282
 31
0.0
  0
LINE
  5
1F8
330
1F
100
AcDbEntity
  8
0
  6
Continuous
 62
     3
100
AcDbLine
 10
105.912542104
 20
151.284028282
 30
0.0
 11
106.559589717
 21
153.698842848
 31
0.0
  0
LINE
  5
1F9
330
1F
100
AcDbEntity
  8
0
  6
Continuous
 62
     3
100
AcDbLine
 10
105.912542104
 20
151.284028282
 30
0.0
 11
105.265494491
 21
153.698842848
 31
0.0
  0
LINE
  5
1FA
330
1F
100
AcDbEntity
  8
0
  6
Continuous
 62
     3
100
AcDbLine
 10
102.252542104
 20
151.284028282
 30
0.0
 11
107.862542104
 21
151.284028282
 31
0.0
  0
LINE
  5
1FB
330
1F
100
AcDbEntity
  8
0
  6
Continuous
 62
     3
100
AcDbLine
 10
105.862542104
 20
151.284028282
 30
0.0
 11
105.215494491
 21
148.869213717
 31
0.0
  0
LINE
  5
1FC
330
1F
100
AcDbEntity
  8
0
  6
Continuous
 62
     3
100
AcDbLine
 10
105.862542104
 20
151.284028282
 30
0.0
 11
106.509589717
 21
148.869213717
 31
0.0
  0
LINE
  5
1FD
330
1F
100
AcDbEntity
  8
0
  6
Continuous
 62
     3
100
AcDbLine
 10
105.912542104
 20
151.284028282
 30
0.0
 11
105.912542104
 21
176.884028282
 31
0.0
  0
LINE
  5
1FE
330
1F
100
AcDbEntity
  8
0
  6
Continuous
 62
     3
100
AcDbLine
 10
105.862542104
 20
120.884028282
 30
0.0
 11
106.509589717
 21
123.298842848
 31
0.0
  0
LINE
  5
1FF
330
1F
100
AcDbEntity
  8
0
  6
Continuous
 62
     3
100
AcDbLine
 10
105.862542104
 20
120.884028282
 30
0.0
 11
105.215494491
 21
123.298842848
 31
0.0
  0
LINE
  5
200
330
1F
100
AcDbEntity
  8
0
  6
Continuous
 62
     3
100
AcDbLine
 10
95.902542104
 20
120.884028282
 30
0.0
 11
107.862542104
 21
120.884028282
 31
0.0
  0
MTEXT
  5
201
330
1F
100
AcDbEntity
  8
0
  6
Continuous
 62
     3
100
AcDbMText
 10
104.862542104
 20
132.034028282
 30
0.0
 40
3.0
 41
16.2
 71
     7
 72
     1
  1
\T1.167;\W0.600;３０．４
  7
KANJI0
 11
0.0
 21
1.0
 31
0.0
 73
     1
 44
1.0
  0
LINE
  5
202
330
1F
100
AcDbEntity
  8
0
  6
Continuous
 62
     3
100
AcDbLine
 10
105.862542104
 20
151.284028282
 30
0.0
 11
105.862542104
 21
120.884028282
 31
0.0
  0
LINE
  5
203
330
1F
100
AcDbEntity
  8
0
  6
Continuous
 62
     3
100
AcDbLine
 10
101.802542104
 20
106.864028282
 30
0.0
 11
119.502542104
 21
106.864028282
 31
0.0
  0
MTEXT
  5
204
330
1F
100
AcDbEntity
  8
0
  6
Continuous
 62
     3
100
AcDbMText
 10
101.802542104
 20
107.864028282
 30
0.0
 40
3.0
 41
35.4
 71
     7
 72
     1
  1
\T1.111;\W0.900;２－φ４．５
  7
KANJI1
 73
     1
 44
1.0
  0
LINE
  5
206
330
1F
100
AcDbEntity
  8
0
  6
Continuous
 62
     3
100
AcDbLine
 10
128.052542104
 20
114.884028282
 30
0.0
 11
128.052542104
 21
104.704028282
 31
0.0
  0
LINE
  5
207
330
1F
100
AcDbEntity
  8
0
  6
Continuous
 62
     3
100
AcDbLine
 10
128.052542104
 20
106.704028282
 30
0.0
 11
125.637727538
 21
107.351075895
 31
0.0
  0
LINE
  5
208
330
1F
100
AcDbEntity
  8
0
  6
Continuous
 62
     3
100
AcDbLine
 10
128.052542104
 20
106.704028282
 30
0.0
 11
125.637727538
 21
106.05698067
 31
0.0
  0
LWPOLYLINE
  5
20A
330
1F
100
AcDbEntity
  8
0
  6
Continuous
 62
     3
100
AcDbPolyline
 90
     4
 70
   128
 43
0.0
 10
124.302542104
 20
106.704028282
 10
128.052542104
 20
106.704028282
 10
131.552542104
 20
106.704028282
 10
141.302542104
 20
106.704028282
  0
LINE
  5
20B
330
1F
100
AcDbEntity
  8
0
  6
Continuous
 62
     3
100
AcDbLine
 10
131.552542104
 20
106.704028282
 30
0.0
 11
133.96735667
 21
106.05698067
 31
0.0
  0
LINE
  5
20C
330
1F
100
AcDbEntity
  8
0
  6
Continuous
 62
     3
100
AcDbLine
 10
131.552542104
 20
106.704028282
 30
0.0
 11
133.96735667
 21
107.351075895
 31
0.0
  0
LINE
  5
20D
330
1F
100
AcDbEntity
  8
0
  6
Continuous
 62
     3
100
AcDbLine
 10
131.552542104
 20
114.884028282
 30
0.0
 11
131.552542104
 21
104.704028282
 31
0.0
  0
MTEXT
  5
20E
330
1F
100
AcDbEntity
  8
0
  6
Continuous
 62
     3
100
AcDbMText
 10
135.302542104
 20
107.704028282
 30
0.0
 40
3.0
 41
12.0
 71
     7
 72
     1
  1
\T1.167;\W0.600;３．５
  7
KANJI0
 73
     1
 44
1.0
  0
LINE
  5
20F
330
1F
100
AcDbEntity
  8
0
  6
Continuous
 62
     3
100
AcDbLine
 10
126.052542104
 20
114.884028282
 30
0.0
 11
126.052542104
 21
97.504028282
 31
0.0
  0
LINE
  5
210
330
1F
100
AcDbEntity
  8
0
  6
Continuous
 62
     3
100
AcDbLine
 10
126.052542104
 20
99.504028282
 30
0.0
 11
123.637727538
 21
100.151075895
 31
0.0
  0
LINE
  5
211
330
1F
100
AcDbEntity
  8
0
  6
Continuous
 62
     3
100
AcDbLine
 10
126.052542104
 20
99.504028282
 30
0.0
 11
123.637727538
 21
98.85698067
 31
0.0
  0
LWPOLYLINE
  5
213
330
1F
100
AcDbEntity
  8
0
  6
Continuous
 62
     3
100
AcDbPolyline
 90
     4
 70
   128
 43
0.0
 10
122.302542104
 20
99.504028282
 10
126.052542104
 20
99.504028282
 10
131.552542104
 20
99.504028282
 10
141.302542104
 20
99.504028282
  0
LINE
  5
214
330
1F
100
AcDbEntity
  8
0
  6
Continuous
 62
     3
100
AcDbLine
 10
131.552542104
 20
99.504028282
 30
0.0
 11
133.96735667
 21
98.85698067
 31
0.0
  0
LINE
  5
215
330
1F
100
AcDbEntity
  8
0
  6
Continuous
 62
     3
100
AcDbLine
 10
131.552542104
 20
99.504028282
 30
0.0
 11
133.96735667
 21
100.151075895
 31
0.0
  0
LINE
  5
216
330
1F
100
AcDbEntity
  8
0
  6
Continuous
 62
     3
100
AcDbLine
 10
131.552542104
 20
114.884028282
 30
0.0
 11
131.552542104
 21
97.504028282
 31
0.0
  0
MTEXT
  5
217
330
1F
100
AcDbEntity
  8
0
  6
Continuous
 62
     3
100
AcDbMText
 10
135.302542104
 20
100.504028282
 30
0.0
 40
3.0
 41
12.0
 71
     7
 72
     1
  1
\T1.167;\W0.600;５．５
  7
KANJI0
 73
     1
 44
1.0
  0
LINE
  5
218
330
1F
100
AcDbEntity
  8
0
  6
Continuous
 62
     3
100
AcDbLine
 10
123.552542104
 20
124.684028282
 30
0.0
 11
123.552542104
 21
90.984028282
 31
0.0
  0
LINE
  5
219
330
1F
100
AcDbEntity
  8
0
  6
Continuous
 62
     3
100
AcDbLine
 10
123.552542104
 20
92.984028282
 30
0.0
 11
121.137727538
 21
93.631075895
 31
0.0
  0
LINE
  5
21A
330
1F
100
AcDbEntity
  8
0
  6
Continuous
 62
     3
100
AcDbLine
 10
123.552542104
 20
92.984028282
 30
0.0
 11
121.137727538
 21
92.33698067
 31
0.0
  0
LWPOLYLINE
  5
21C
330
1F
100
AcDbEntity
  8
0
  6
Continuous
 62
     3
100
AcDbPolyline
 90
     4
 70
   128
 43
0.0
 10
119.802542104
 20
92.984028282
 10
123.552542104
 20
92.984028282
 10
131.552542104
 20
92.984028282
 10
137.102542104
 20
92.984028282
  0
LINE
  5
21D
330
1F
100
AcDbEntity
  8
0
  6
Continuous
 62
     3
100
AcDbLine
 10
131.552542104
 20
92.984028282
 30
0.0
 11
133.96735667
 21
92.33698067
 31
0.0
  0
LINE
  5
21E
330
1F
100
AcDbEntity
  8
0
  6
Continuous
 62
     3
100
AcDbLine
 10
131.552542104
 20
92.984028282
 30
0.0
 11
133.96735667
 21
93.631075895
 31
0.0
  0
LINE
  5
21F
330
1F
100
AcDbEntity
  8
0
  6
Continuous
 62
     3
100
AcDbLine
 10
131.552542104
 20
114.884028282
 30
0.0
 11
131.552542104
 21
90.984028282
 31
0.0
  0
MTEXT
  5
220
330
1F
100
AcDbEntity
  8
0
  6
Continuous
 62
     3
100
AcDbMText
 10
135.302542104
 20
93.984028282
 30
0.0
 40
3.0
 41
3.6
 71
     7
 72
     1
  1
\T1.167;\W0.600;８
  7
KANJI0
 73
     1
 44
1.0
  0
LINE
  5
221
330
1F
100
AcDbEntity
  8
0
  6
Continuous
 62
     3
100
AcDbLine
 10
56.652542104
 20
114.884028282
 30
0.0
 11
56.652542104
 21
104.734028282
 31
0.0
  0
LINE
  5
222
330
1F
100
AcDbEntity
  8
0
  6
Continuous
 62
     3
100
AcDbLine
 10
56.652542104
 20
106.734028282
 30
0.0
 11
59.06735667
 21
106.08698067
 31
0.0
  0
LINE
  5
223
330
1F
100
AcDbEntity
  8
0
  6
Continuous
 62
     3
100
AcDbLine
 10
56.652542104
 20
106.734028282
 30
0.0
 11
59.06735667
 21
107.381075895
 31
0.0
  0
LWPOLYLINE
  5
225
330
1F
100
AcDbEntity
  8
0
  6
Continuous
 62
     3
100
AcDbPolyline
 90
     3
 70
   128
 43
0.0
 10
56.652542104
 20
106.734028282
 10
86.652542104
 20
106.734028282
 10
84.237727538
 20
107.381075895
  0
LINE
  5
226
330
1F
100
AcDbEntity
  8
0
  6
Continuous
 62
     3
100
AcDbLine
 10
86.652542104
 20
106.734028282
 30
0.0
 11
84.237727538
 21
106.08698067
 31
0.0
  0
LINE
  5
227
330
1F
100
AcDbEntity
  8
0
  6
Continuous
 62
     3
100
AcDbLine
 10
86.652542104
 20
114.884028282
 30
0.0
 11
86.652542104
 21
104.734028282
 31
0.0
  0
MTEXT
  5
228
330
1F
100
AcDbEntity
  8
0
  6
Continuous
 62
     3
100
AcDbMText
 10
69.702542104
 20
107.734028282
 30
0.0
 40
3.0
 41
7.8
 71
     7
 72
     1
  1
\T1.167;\W0.600;３０
  7
KANJI0
 73
     1
 44
1.0
  0
LINE
  5
229
330
1F
100
AcDbEntity
  8
0
  6
Continuous
 62
     3
100
AcDbLine
 10
51.652542104
 20
116.634028282
 30
0.0
 11
51.652542104
 21
97.564028282
 31
0.0
  0
LINE
  5
22A
330
1F
100
AcDbEntity
  8
0
  6
Continuous
 62
     3
100
AcDbLine
 10
51.652542104
 20
99.564028282
 30
0.0
 11
54.06735667
 21
98.91698067
 31
0.0
  0
LINE
  5
22B
330
1F
100
AcDbEntity
  8
0
  6
Continuous
 62
     3
100
AcDbLine
 10
51.652542104
 20
99.564028282
 30
0.0
 11
54.06735667
 21
100.211075895
 31
0.0
  0
LWPOLYLINE
  5
22D
330
1F
100
AcDbEntity
  8
0
  6
Continuous
 62
     3
100
AcDbPolyline
 90
     3
 70
   128
 43
0.0
 10
51.652542104
 20
99.564028282
 10
91.652542104
 20
99.564028282
 10
89.237727538
 20
100.211075895
  0
LINE
  5
22E
330
1F
100
AcDbEntity
  8
0
  6
Continuous
 62
     3
100
AcDbLine
 10
91.652542104
 20
99.564028282
 30
0.0
 11
89.237727538
 21
98.91698067
 31
0.0
  0
LINE
  5
22F
330
1F
100
AcDbEntity
  8
0
  6
Continuous
 62
     3
100
AcDbLine
 10
91.652542104
 20
116.634028282
 30
0.0
 11
91.652542104
 21
97.564028282
 31
0.0
  0
MTEXT
  5
230
330
1F
100
AcDbEntity
  8
0
  6
Continuous
 62
     3
100
AcDbMText
 10
69.702542104
 20
100.564028282
 30
0.0
 40
3.0
 41
7.8
 71
     7
 72
     1
  1
\T1.167;\W0.600;４０
  7
KANJI0
 73
     1
 44
1.0
  0
LINE
  5
231
330
1F
100
AcDbEntity
  8
0
  6
Continuous
 62
     3
100
AcDbLine
 10
46.052542104
 20
115.884028282
 30
0.0
 11
46.052542104
 21
91.034028282
 31
0.0
  0
LINE
  5
232
330
1F
100
AcDbEntity
  8
0
  6
Continuous
 62
     3
100
AcDbLine
 10
46.052542104
 20
93.034028282
 30
0.0
 11
48.46735667
 21
92.38698067
 31
0.0
  0
LINE
  5
233
330
1F
100
AcDbEntity
  8
0
  6
Continuous
 62
     3
100
AcDbLine
 10
46.052542104
 20
93.034028282
 30
0.0
 11
48.46735667
 21
93.681075895
 31
0.0
  0
LWPOLYLINE
  5
235
330
1F
100
AcDbEntity
  8
0
  6
Continuous
 62
     3
100
AcDbPolyline
 90
     3
 70
   128
 43
0.0
 10
46.052542104
 20
93.034028282
 10
97.252542104
 20
93.034028282
 10
94.837727538
 20
93.681075895
  0
LINE
  5
236
330
1F
100
AcDbEntity
  8
0
  6
Continuous
 62
     3
100
AcDbLine
 10
97.252542104
 20
93.034028282
 30
0.0
 11
94.837727538
 21
92.38698067
 31
0.0
  0
LINE
  5
237
330
1F
100
AcDbEntity
  8
0
  6
Continuous
 62
     3
100
AcDbLine
 10
97.252542104
 20
115.884028282
 30
0.0
 11
97.252542104
 21
91.034028282
 31
0.0
  0
MTEXT
  5
238
330
1F
100
AcDbEntity
  8
0
  6
Continuous
 62
     3
100
AcDbMText
 10
67.602542104
 20
94.034028282
 30
0.0
 40
3.0
 41
16.2
 71
     7
 72
     1
  1
\T1.167;\W0.600;５１．２
  7
KANJI0
 73
     1
 44
1.0
  0
LINE
  5
239
330
1F
100
AcDbEntity
  8
0
  6
Continuous
 62
     3
100
AcDbLine
 10
93.772542104
 20
119.094028282
 30
0.0
 11
94.55703394
 21
116.720302822
 31
0.0
  0
LINE
  5
23A
330
1F
100
AcDbEntity
  8
0
  6
Continuous
 62
     3
100
AcDbLine
 10
93.772542104
 20
119.094028282
 30
0.0
 11
95.638794693
 21
117.43056765
 31
0.0
  0
LINE
  5
23B
330
1F
100
AcDbEntity
  8
0
  6
Continuous
 62
     3
100
AcDbLine
 10
93.772542104
 20
119.094028282
 30
0.0
 11
101.802542104
 21
106.864028282
 31
0.0
  0
LINE
  5
23C
330
1F
100
AcDbEntity
  8
0
  6
Continuous
 62
     3
100
AcDbLine
 10
47.152542104
 20
174.784028282
 30
0.0
 11
36.622542104
 21
174.784028282
 31
0.0
  0
LINE
  5
23D
330
1F
100
AcDbEntity
  8
0
  6
Continuous
 62
     3
100
AcDbLine
 10
38.622542104
 20
174.784028282
 30
0.0
 11
37.975494491
 21
172.369213717
 31
0.0
  0
LINE
  5
23E
330
1F
100
AcDbEntity
  8
0
  6
Continuous
 62
     3
100
AcDbLine
 10
38.622542104
 20
174.784028282
 30
0.0
 11
39.269589717
 21
172.369213717
 31
0.0
  0
LWPOLYLINE
  5
240
330
1F
100
AcDbEntity
  8
0
  6
Continuous
 62
     3
100
AcDbPolyline
 90
     3
 70
   128
 43
0.0
 10
38.622542104
 20
174.784028282
 10
38.622542104
 20
127.784028282
 10
39.269589717
 20
130.198842848
  0
LINE
  5
241
330
1F
100
AcDbEntity
  8
0
  6
Continuous
 62
     3
100
AcDbLine
 10
38.622542104
 20
127.784028282
 30
0.0
 11
37.975494491
 21
130.198842848
 31
0.0
  0
LINE
  5
242
330
1F
100
AcDbEntity
  8
0
  6
Continuous
 62
     3
100
AcDbLine
 10
47.152542104
 20
127.784028282
 30
0.0
 11
36.622542104
 21
127.784028282
 31
0.0
  0
MTEXT
  5
243
330
1F
100
AcDbEntity
  8
0
  6
Continuous
 62
     3
100
AcDbMText
 10
37.622542104
 20
149.334028282
 30
0.0
 40
3.0
 41
7.8
 71
     7
 72
     1
  1
\T1.167;\W0.600;４７
  7
KANJI0
 11
0.0
 21
1.0
 31
0.0
 73
     1
 44
1.0
  0
LINE
  5
244
330
1F
100
AcDbEntity
  8
0
  6
Continuous
 62
     3
100
AcDbLine
 10
46.052542104
 20
115.884028282
 30
0.0
 11
29.782542104
 21
115.884028282
 31
0.0
  0
LINE
  5
245
330
1F
100
AcDbEntity
  8
0
  6
Continuous
 62
     3
100
AcDbLine
 10
31.782542104
 20
115.884028282
 30
0.0
 11
32.429589717
 21
118.298842848
 31
0.0
  0
LINE
  5
246
330
1F
100
AcDbEntity
  8
0
  6
Continuous
 62
     3
100
AcDbLine
 10
31.782542104
 20
115.884028282
 30
0.0
 11
31.135494491
 21
118.298842848
 31
0.0
  0
LWPOLYLINE
  5
248
330
1F
100
AcDbEntity
  8
0
  6
Continuous
 62
     3
100
AcDbPolyline
 90
     3
 70
   128
 43
0.0
 10
31.782542104
 20
115.884028282
 10
31.782542104
 20
176.884028282
 10
31.135494491
 20
174.469213717
  0
LINE
  5
249
330
1F
100
AcDbEntity
  8
0
  6
Continuous
 62
     3
100
AcDbLine
 10
31.782542104
 20
176.884028282
 30
0.0
 11
32.429589717
 21
174.469213717
 31
0.0
  0
LINE
  5
24A
330
1F
100
AcDbEntity
  8
0
  6
Continuous
 62
     3
100
AcDbLine
 10
46.052542104
 20
176.884028282
 30
0.0
 11
29.782542104
 21
176.884028282
 31
0.0
  0
MTEXT
  5
24B
330
1F
100
AcDbEntity
  8
0
  6
Continuous
 62
     3
100
AcDbMText
 10
30.782542104
 20
144.434028282
 30
0.0
 40
3.0
 41
7.8
 71
     7
 72
     1
  1
\T1.167;\W0.600;６１
  7
KANJI0
 11
0.0
 21
1.0
 31
0.0
 73
     1
 44
1.0
  0
LINE
  5
24C
330
1F
100
AcDbEntity
  8
0
  6
Continuous
 62
     2
100
AcDbLine
 10
313.036255788
 20
123.078208864
 30
0.0
 11
310.036255788
 21
122.578208864
 31
0.0
  0
LINE
  5
24D
330
1F
100
AcDbEntity
  8
0
  6
Continuous
 62
     2
100
AcDbLine
 10
313.036255788
 20
123.078208864
 30
0.0
 11
319.536255788
 21
123.078208864
 31
0.0
  0
LINE
  5
24E
330
1F
100
AcDbEntity
  8
0
  6
Continuous
 62
     2
100
AcDbLine
 10
313.036255788
 20
127.878208865
 30
0.0
 11
310.036255788
 21
128.378208865
 31
0.0
  0
LINE
  5
24F
330
1F
100
AcDbEntity
  8
0
  6
Continuous
 62
     3
100
AcDbLine
 10
310.036255788
 20
128.378208865
 30
0.0
 11
310.036255788
 21
122.578208864
 31
0.0
  0
LINE
  5
250
330
1F
100
AcDbEntity
  8
0
  6
Continuous
 62
     2
100
AcDbLine
 10
319.536255788
 20
127.878208865
 30
0.0
 11
319.536255788
 21
123.078208864
 31
0.0
  0
LINE
  5
251
330
1F
100
AcDbEntity
  8
0
  6
Continuous
 62
     2
100
AcDbLine
 10
319.536255788
 20
127.878208865
 30
0.0
 11
313.036255788
 21
127.878208865
 31
0.0
  0
LINE
  5
252
330
1F
100
AcDbEntity
  8
0
  6
Continuous
 62
     7
100
AcDbLine
 10
360.136255788
 20
131.13666256
 30
0.0
 11
359.951712701
 21
131.69237363
 31
0.0
  0
LINE
  5
253
330
1F
100
AcDbEntity
  8
0
  6
Continuous
 62
     7
100
AcDbLine
 10
359.951712701
 20
131.69237363
 30
0.0
 11
359.582626281
 21
132.000110356
 31
0.0
  0
LINE
  5
254
330
1F
100
AcDbEntity
  8
0
  6
Continuous
 62
     7
100
AcDbLine
 10
359.582626281
 20
132.000110356
 30
0.0
 11
358.905967885
 21
132.246299648
 31
0.0
  0
LINE
  5
255
330
1F
100
AcDbEntity
  8
0
  6
Continuous
 62
     7
100
AcDbLine
 10
356.783721276
 20
131.415410845
 30
0.0
 11
354.138602381
 21
131.723147124
 31
0.0
  0
LINE
  5
256
330
1F
100
AcDbEntity
  8
0
  6
Continuous
 62
     7
100
AcDbLine
 10
356.783721276
 20
131.415410845
 30
0.0
 11
356.930473135
 21
131.320241266
 31
0.0
  0
LINE
  5
257
330
1F
100
AcDbEntity
  8
0
  6
Continuous
 62
     7
100
AcDbLine
 10
356.930473135
 20
131.320241266
 30
0.0
 11
356.997633847
 21
131.13666256
 31
0.0
  0
LINE
  5
258
330
1F
100
AcDbEntity
  8
0
  6
Continuous
 62
     7
100
AcDbLine
 10
358.905967885
 20
132.246299648
 30
0.0
 11
353.800273429
 21
132.769451724
 31
0.0
  0
LINE
  5
259
330
1F
100
AcDbEntity
  8
0
  6
Continuous
 62
     7
100
AcDbLine
 10
352.889978628
 20
133.354151235
 30
0.0
 11
351.708784042
 21
133.354151235
 31
0.0
  0
LINE
  5
25A
330
1F
100
AcDbEntity
  8
0
  6
Continuous
 62
     7
100
AcDbLine
 10
351.708784042
 20
132.769451724
 30
0.0
 11
351.708784042
 21
133.354151235
 31
0.0
  0
LINE
  5
25B
330
1F
100
AcDbEntity
  8
0
  6
Continuous
 62
     7
100
AcDbLine
 10
344.536255788
 20
132.158902163
 30
0.0
 11
344.536255788
 21
133.354151235
 31
0.0
  0
LINE
  5
25C
330
1F
100
AcDbEntity
  8
0
  6
Continuous
 62
     7
100
AcDbLine
 10
346.81838965
 20
131.723147124
 30
0.0
 11
344.536255788
 21
132.158902163
 31
0.0
  0
LINE
  5
25D
330
1F
100
AcDbEntity
  8
0
  6
Continuous
 62
     7
100
AcDbLine
 10
347.894891688
 20
132.769451724
 30
0.0
 11
344.536255788
 21
133.354151235
 31
0.0
  0
LINE
  5
25E
330
1F
100
AcDbEntity
  8
0
  6
Continuous
 62
     7
100
AcDbLine
 10
354.138602381
 20
131.723147124
 30
0.0
 11
346.81838965
 21
131.723147124
 31
0.0
  0
LINE
  5
25F
330
1F
100
AcDbEntity
  8
0
  6
Continuous
 62
     7
100
AcDbLine
 10
353.800273429
 20
132.769451724
 30
0.0
 11
347.894891688
 21
132.769451724
 31
0.0
  0
LINE
  5
260
330
1F
100
AcDbEntity
  8
0
  6
Continuous
 62
     7
100
AcDbLine
 10
353.800273429
 20
132.769451724
 30
0.0
 11
352.889978628
 21
133.354151235
 31
0.0
  0
LINE
  5
261
330
1F
100
AcDbEntity
  8
0
  6
Continuous
 62
     7
100
AcDbLine
 10
359.336568749
 20
129.076612353
 30
0.0
 11
355.276618864
 21
129.076612353
 31
0.0
  0
LINE
  5
262
330
1F
100
AcDbEntity
  8
0
  6
Continuous
 62
     7
100
AcDbLine
 10
359.336568749
 20
119.936835524
 30
0.0
 11
355.276618864
 21
119.936835524
 31
0.0
  0
LINE
  5
263
330
1F
100
AcDbEntity
  8
0
  6
Continuous
 62
     7
100
AcDbLine
 10
354.507688801
 20
119.352136013
 30
0.0
 11
354.507688801
 21
129.876727662
 31
0.0
  0
LINE
  5
264
330
1F
100
AcDbEntity
  8
0
  6
Continuous
 62
     7
100
AcDbLine
 10
355.276618864
 20
119.936835524
 30
0.0
 11
355.276618864
 21
129.076612353
 31
0.0
  0
LINE
  5
265
330
1F
100
AcDbEntity
  8
0
  6
Continuous
 62
     7
100
AcDbLine
 10
359.336568749
 20
119.936835524
 30
0.0
 11
359.336568749
 21
129.076612353
 31
0.0
  0
LINE
  5
266
330
1F
100
AcDbEntity
  8
0
  6
Continuous
 62
     7
100
AcDbLine
 10
346.036052855
 20
118.398152341
 30
0.0
 11
346.313656139
 21
118.73666256
 31
0.0
  0
LINE
  5
267
330
1F
100
AcDbEntity
  8
0
  6
Continuous
 62
     7
100
AcDbLine
 10
360.136255788
 20
118.73666256
 30
0.0
 11
346.313656139
 21
118.73666256
 31
0.0
  0
LINE
  5
268
330
1F
100
AcDbEntity
  8
0
  6
Continuous
 62
     7
100
AcDbLine
 10
354.507688801
 20
119.352136013
 30
0.0
 11
344.536255788
 21
119.352136013
 31
0.0
  0
LINE
  5
269
330
1F
100
AcDbEntity
  8
0
  6
Continuous
 62
     7
100
AcDbLine
 10
354.507688801
 20
129.876727662
 30
0.0
 11
344.536255788
 21
129.876727662
 31
0.0
  0
LINE
  5
26A
330
1F
100
AcDbEntity
  8
0
  6
Continuous
 62
     7
100
AcDbLine
 10
360.136255788
 20
118.73666256
 30
0.0
 11
360.136255788
 21
131.13666256
 31
0.0
  0
LINE
  5
26B
330
1F
100
AcDbEntity
  8
0
  6
Continuous
 62
     7
100
AcDbLine
 10
354.507688801
 20
118.73666256
 30
0.0
 11
354.507688801
 21
131.13666256
 31
0.0
  0
LINE
  5
26C
330
1F
100
AcDbEntity
  8
0
  6
Continuous
 62
     7
100
AcDbLine
 10
360.136255788
 20
131.13666256
 30
0.0
 11
344.536255788
 21
131.13666256
 31
0.0
  0
LINE
  5
26D
330
1F
100
AcDbEntity
  8
0
  6
Continuous
 62
     7
100
AcDbLine
 10
344.536255788
 20
118.398152341
 30
0.0
 11
344.536255788
 21
131.13666256
 31
0.0
  0
LINE
  5
26E
330
1F
100
AcDbEntity
  8
0
  6
Continuous
 62
     7
100
AcDbLine
 10
346.036052855
 20
118.398152341
 30
0.0
 11
344.536255788
 21
118.398152341
 31
0.0
  0
LINE
  5
26F
330
1F
100
AcDbEntity
  8
0
  6
Continuous
 62
     3
100
AcDbLine
 10
352.866094591
 20
133.632808157
 30
0.0
 11
352.538596397
 21
136.111264317
 31
0.0
  0
LINE
  5
270
330
1F
100
AcDbEntity
  8
0
  6
Continuous
 62
     3
100
AcDbLine
 10
352.866094591
 20
133.632808157
 30
0.0
 11
351.343244756
 21
135.615465056
 31
0.0
  0
MTEXT
  5
271
330
1F
100
AcDbEntity
  8
0
  6
Continuous
 62
     3
100
AcDbMText
 10
293.776094591
 20
164.192808157
 30
0.0
 40
3.0
 41
91.2
 71
     7
 72
     1
  1
\T1.222;\W0.900;ｅ－ＣＯＮプラグ４極＜３Ｍ＞
  7
KANJI2
 73
     1
 44
1.0
  0
LINE
  5
273
330
1F
100
AcDbEntity
  8
0
  6
Continuous
 62
     3
100
AcDbLine
 10
343.907003682
 20
155.232808157
 30
0.0
 11
293.566094591
 21
155.232808157
 31
0.0
  0
LINE
  5
274
330
1F
100
AcDbEntity
  8
0
  6
Continuous
 62
     3
100
AcDbLine
 10
352.866094591
 20
133.632808157
 30
0.0
 11
343.907003682
 21
155.232808157
 31
0.0
  0
LINE
  5
275
330
1F
100
AcDbEntity
  8
0
  6
Continuous
 62
     2
100
AcDbLine
 10
299.536255788
 20
122.578208864
 30
0.0
 11
310.036255788
 21
122.578208864
 31
0.0
  0
LWPOLYLINE
  5
277
330
1F
100
AcDbEntity
  8
0
  6
Continuous
 62
     2
100
AcDbPolyline
 90
     3
 70
   128
 43
0.0
 10
310.036255788
 20
128.378208865
 10
299.536255788
 20
128.378208865
 10
299.536255788
 20
122.578208864
  0
MTEXT
  5
278
330
1F
100
AcDbEntity
  8
0
  6
Continuous
 62
     3
100
AcDbMText
 10
293.776094591
 20
160.192808157
 30
0.0
 40
3.0
 41
104.4
 71
     7
 72
     1
  1
\T1.222;\W0.900;３７１０４－２１６５－０００ＦＬ
  7
KANJI2
 73
     1
 44
1.0
  0
MTEXT
  5
279
330
1F
100
AcDbEntity
  8
0
  6
Continuous
 62
     3
100
AcDbMText
 10
293.776094591
 20
151.192808157
 30
0.0
 40
3.0
 41
84.6
 71
     7
 72
     1
  1
\T1.222;\W0.900;ボディ色：黒、カバー色：青
  7
KANJI2
 73
     1
 44
1.0
  0
LINE
  5
27A
330
1F
100
AcDbEntity
  8
2
  6
Continuous
 62
     1
100
AcDbLine
 10
217.124443021
 20
134.720901295
 30
0.0
 11
217.124443021
 21
121.720901295
 31
0.0
  0
LINE
  5
27B
330
1F
100
AcDbEntity
  8
2
  6
Continuous
 62
     1
100
AcDbLine
 10
217.124443021
 20
161.520901295
 30
0.0
 11
217.124443021
 21
121.720901295
 31
0.0
  0
LINE
  5
27C
330
1F
100
AcDbEntity
  8
2
  6
Continuous
 62
     1
100
AcDbLine
 10
217.124443021
 20
121.720901295
 30
0.0
 11
246.124443021
 21
121.720901295
 31
0.0
  0
LINE
  5
27D
330
1F
100
AcDbEntity
  8
2
  6
Continuous
 62
     2
100
AcDbLine
 10
242.624443021
 20
129.470901295
 30
0.0
 11
239.624443021
 21
129.470901295
 31
0.0
  0
LINE
  5
27E
330
1F
100
AcDbEntity
  8
2
  6
Continuous
 62
     2
100
AcDbLine
 10
239.624443021
 20
132.970901295
 30
0.0
 11
242.624443021
 21
132.970901295
 31
0.0
  0
ARC
  5
27F
330
1F
100
AcDbEntity
  8
2
  6
Continuous
 62
     2
100
AcDbCircle
 10
239.624443021
 20
131.220901295
 30
0.0
 40
1.75
100
AcDbArc
 50
90.0
 51
192.715914457
  0
ARC
  5
280
330
1F
100
AcDbEntity
  8
2
  6
Continuous
 62
     2
100
AcDbCircle
 10
239.624443021
 20
131.220901295
 30
0.0
 40
1.75
100
AcDbArc
 50
257.284085543
 51
270.0
  0
ARC
  5
281
330
1F
100
AcDbEntity
  8
2
  6
Continuous
 62
     2
100
AcDbCircle
 10
242.624443021
 20
131.220901295
 30
0.0
 40
1.75
100
AcDbArc
 50
270.0
 51
90.0
  0
ARC
  5
282
330
1F
100
AcDbEntity
  8
2
  6
Continuous
 62
     1
100
AcDbCircle
 10
244.624443021
 20
161.520901295
 30
0.0
 40
1.5
100
AcDbArc
 50
0.0
 51
90.0
  0
LINE
  5
283
330
1F
100
AcDbEntity
  8
2
  6
Continuous
 62
     1
100
AcDbLine
 10
244.624443021
 20
163.020901295
 30
0.0
 11
218.624443021
 21
163.020901295
 31
0.0
  0
ARC
  5
284
330
1F
100
AcDbEntity
  8
2
  6
Continuous
 62
     1
100
AcDbCircle
 10
218.624443021
 20
161.520901295
 30
0.0
 40
1.5
100
AcDbArc
 50
90.0
 51
180.0
  0
LINE
  5
285
330
1F
100
AcDbEntity
  8
2
  6
Continuous
 62
     2
100
AcDbLine
 10
242.624443021
 20
154.870901295
 30
0.0
 11
239.624443021
 21
154.870901295
 31
0.0
  0
LINE
  5
286
330
1F
100
AcDbEntity
  8
2
  6
Continuous
 62
     2
100
AcDbLine
 10
239.624443021
 20
158.370901295
 30
0.0
 11
242.624443021
 21
158.370901295
 31
0.0
  0
ARC
  5
287
330
1F
100
AcDbEntity
  8
2
  6
Continuous
 62
     2
100
AcDbCircle
 10
239.624443021
 20
156.620901295
 30
0.0
 40
1.75
100
AcDbArc
 50
90.0
 51
224.634397146
  0
ARC
  5
288
330
1F
100
AcDbEntity
  8
2
  6
Continuous
 62
     2
100
AcDbCircle
 10
242.624443021
 20
156.620901295
 30
0.0
 40
1.75
100
AcDbArc
 50
270.0
 51
90.0
  0
ARC
  5
289
330
1F
100
AcDbEntity
  8
2
  6
Continuous
 62
     2
100
AcDbCircle
 10
239.624443021
 20
156.620901295
 30
0.0
 40
1.75
100
AcDbArc
 50
258.463040967
 51
270.0
  0
LINE
  5
28A
330
1F
100
AcDbEntity
  8
2
  6
LTYPE1
 62
     3
100
AcDbLine
 10
242.624443021
 20
133.970901295
 30
0.0
 11
242.624443021
 21
128.470901295
 31
0.0
  0
LINE
  5
28B
330
1F
100
AcDbEntity
  8
2
  6
LTYPE1
 62
     3
100
AcDbLine
 10
239.624443021
 20
133.970901295
 30
0.0
 11
239.624443021
 21
128.470901295
 31
0.0
  0
LINE
  5
28C
330
1F
100
AcDbEntity
  8
2
  6
LTYPE1
 62
     3
100
AcDbLine
 10
236.874443021
 20
156.620901295
 30
0.0
 11
245.374443021
 21
156.620901295
 31
0.0
  0
LINE
  5
28D
330
1F
100
AcDbEntity
  8
2
  6
LTYPE1
 62
     3
100
AcDbLine
 10
242.624443021
 20
159.370901295
 30
0.0
 11
242.624443021
 21
153.870901295
 31
0.0
  0
LINE
  5
28E
330
1F
100
AcDbEntity
  8
2
  6
LTYPE1
 62
     3
100
AcDbLine
 10
239.624443021
 20
159.370901295
 30
0.0
 11
239.624443021
 21
153.870901295
 31
0.0
  0
LINE
  5
28F
330
1F
100
AcDbEntity
  8
2
  6
LTYPE1
 62
     3
100
AcDbLine
 10
220.624443021
 20
160.870901295
 30
0.0
 11
220.624443021
 21
152.370901295
 31
0.0
  0
LINE
  5
290
330
1F
100
AcDbEntity
  8
2
  6
LTYPE1
 62
     3
100
AcDbLine
 10
224.874443021
 20
156.620901295
 30
0.0
 11
216.374443021
 21
156.620901295
 31
0.0
  0
LINE
  5
291
330
1F
100
AcDbEntity
  8
2
  6
LTYPE1
 62
     3
100
AcDbLine
 10
220.624443021
 20
135.470901295
 30
0.0
 11
220.624443021
 21
126.970901295
 31
0.0
  0
LINE
  5
292
330
1F
100
AcDbEntity
  8
2
  6
LTYPE1
 62
     3
100
AcDbLine
 10
224.874443021
 20
131.220901295
 30
0.0
 11
216.374443021
 21
131.220901295
 31
0.0
  0
LINE
  5
294
330
1F
100
AcDbEntity
  8
2
  6
LTYPE2
 62
     3
100
AcDbLine
 10
237.124443021
 20
159.420901295
 30
0.0
 11
237.624443021
 21
158.920901295
 31
0.0
  0
LINE
  5
295
330
1F
100
AcDbEntity
  8
2
  6
LTYPE2
 62
     3
100
AcDbLine
 10
237.124443021
 20
159.420901295
 30
0.0
 11
237.124443021
 21
156.040901295
 31
0.0
  0
LINE
  5
296
330
1F
100
AcDbEntity
  8
2
  6
LTYPE2
 62
     3
100
AcDbLine
 10
236.624443021
 20
155.540901295
 30
0.0
 11
237.124443021
 21
156.040901295
 31
0.0
  0
LINE
  5
297
330
1F
100
AcDbEntity
  8
2
  6
LTYPE2
 62
     3
100
AcDbLine
 10
237.624443021
 20
155.670900904
 30
0.0
 11
238.974443021
 21
155.170901295
 31
0.0
  0
LINE
  5
298
330
1F
100
AcDbEntity
  8
2
  6
LTYPE2
 62
     3
100
AcDbLine
 10
237.124443021
 20
156.040901295
 30
0.0
 11
237.624443021
 21
155.540901295
 31
0.0
  0
LINE
  5
299
330
1F
100
AcDbEntity
  8
2
  6
LTYPE2
 62
     3
100
AcDbLine
 10
238.974443021
 20
153.946806781
 30
0.0
 11
239.274443021
 21
153.946806781
 31
0.0
  0
LINE
  5
29A
330
1F
100
AcDbEntity
  8
2
  6
LTYPE2
 62
     3
100
AcDbLine
 10
238.974443021
 20
154.233594999
 30
0.0
 11
239.274443021
 21
154.233594999
 31
0.0
  0
LINE
  5
29B
330
1F
100
AcDbEntity
  8
2
  6
LTYPE2
 62
     3
100
AcDbLine
 10
239.274443021
 20
153.946806781
 30
0.0
 11
239.274443021
 21
155.137491437
 31
0.0
  0
LINE
  5
29C
330
1F
100
AcDbEntity
  8
2
  6
LTYPE2
 62
     3
100
AcDbLine
 10
238.974443021
 20
153.705901295
 30
0.0
 11
239.174443021
 21
153.705901295
 31
0.0
  0
LINE
  5
29D
330
1F
100
AcDbEntity
  8
2
  6
LTYPE2
 62
     3
100
AcDbLine
 10
238.635552299
 20
155.296416279
 30
0.0
 11
239.274443087
 21
155.137491223
 31
0.0
  0
LINE
  5
29E
330
1F
100
AcDbEntity
  8
2
  6
LTYPE2
 62
     3
100
AcDbLine
 10
238.974443021
 20
141.320901295
 30
0.0
 11
237.624443021
 21
140.820901295
 31
0.0
  0
LINE
  5
29F
330
1F
100
AcDbEntity
  8
2
  6
LTYPE2
 62
     3
100
AcDbLine
 10
238.974443021
 20
142.030901295
 30
0.0
 11
239.274443021
 21
142.030901295
 31
0.0
  0
LINE
  5
2A0
330
1F
100
AcDbEntity
  8
2
  6
LTYPE2
 62
     3
100
AcDbLine
 10
236.874443021
 20
131.220901295
 30
0.0
 11
245.374443021
 21
131.220901295
 31
0.0
  0
LINE
  5
2A1
330
1F
100
AcDbEntity
  8
2
  6
Continuous
 62
     2
100
AcDbLine
 10
220.624443021
 20
129.120901295
 30
0.0
 11
229.024443021
 21
129.120901295
 31
0.0
  0
LINE
  5
2A2
330
1F
100
AcDbEntity
  8
2
  6
Continuous
 62
     1
100
AcDbLine
 10
220.624443021
 20
159.620901295
 30
0.0
 11
225.524443021
 21
159.620901295
 31
0.0
  0
LINE
  5
2A3
330
1F
100
AcDbEntity
  8
2
  6
Continuous
 62
     1
100
AcDbLine
 10
234.746015897
 20
128.620901295
 30
0.0
 11
220.624443021
 21
128.620901295
 31
0.0
  0
LINE
  5
2A4
330
1F
100
AcDbEntity
  8
2
  6
Continuous
 62
     2
100
AcDbLine
 10
229.024443021
 20
159.120901295
 30
0.0
 11
220.624443021
 21
159.120901295
 31
0.0
  0
LINE
  5
2A5
330
1F
100
AcDbEntity
  8
2
  6
Continuous
 62
     2
100
AcDbLine
 10
223.124443021
 20
154.320901295
 30
0.0
 11
218.124443021
 21
154.320901295
 31
0.0
  0
LINE
  5
2A6
330
1F
100
AcDbEntity
  8
2
  6
Continuous
 62
     2
100
AcDbLine
 10
217.624443021
 20
153.820901295
 30
0.0
 11
223.124443021
 21
153.820901295
 31
0.0
  0
LINE
  5
2A7
330
1F
100
AcDbEntity
  8
2
  6
Continuous
 62
     2
100
AcDbLine
 10
223.124443021
 20
134.420901295
 30
0.0
 11
217.624443021
 21
134.420901295
 31
0.0
  0
LINE
  5
2A8
330
1F
100
AcDbEntity
  8
2
  6
Continuous
 62
     2
100
AcDbLine
 10
218.124443021
 20
133.920901295
 30
0.0
 11
223.124443021
 21
133.920901295
 31
0.0
  0
LINE
  5
2A9
330
1F
100
AcDbEntity
  8
2
  6
Continuous
 62
     2
100
AcDbLine
 10
218.124443021
 20
133.920901295
 30
0.0
 11
218.624443021
 21
134.420901295
 31
0.0
  0
LINE
  5
2AA
330
1F
100
AcDbEntity
  8
2
  6
Continuous
 62
     2
100
AcDbLine
 10
217.624443021
 20
134.420901295
 30
0.0
 11
218.124443021
 21
133.920901295
 31
0.0
  0
LINE
  5
2AB
330
1F
100
AcDbEntity
  8
2
  6
Continuous
 62
     2
100
AcDbLine
 10
218.124443021
 20
131.620901295
 30
0.0
 11
218.124443021
 21
133.920901295
 31
0.0
  0
ARC
  5
2AC
330
1F
100
AcDbEntity
  8
2
  6
Continuous
 62
     2
100
AcDbCircle
 10
220.624443021
 20
131.620901295
 30
0.0
 40
2.5
100
AcDbArc
 50
180.0
 51
270.0
  0
ARC
  5
2AD
330
1F
100
AcDbEntity
  8
2
  6
Continuous
 62
     1
100
AcDbCircle
 10
220.624443021
 20
131.620901295
 30
0.0
 40
3.0
100
AcDbArc
 50
180.0
 51
270.0
  0
LINE
  5
2AE
330
1F
100
AcDbEntity
  8
2
  6
Continuous
 62
     2
100
AcDbLine
 10
218.624443021
 20
134.420901295
 30
0.0
 11
218.624443021
 21
153.820901295
 31
0.0
  0
LINE
  5
2AF
330
1F
100
AcDbEntity
  8
2
  6
Continuous
 62
     2
100
AcDbLine
 10
218.624443021
 20
153.820901295
 30
0.0
 11
218.124443021
 21
154.320901295
 31
0.0
  0
LINE
  5
2B0
330
1F
100
AcDbEntity
  8
2
  6
Continuous
 62
     2
100
AcDbLine
 10
218.124443021
 20
154.320901295
 30
0.0
 11
218.124443021
 21
156.620901295
 31
0.0
  0
LINE
  5
2B1
330
1F
100
AcDbEntity
  8
2
  6
Continuous
 62
     2
100
AcDbLine
 10
218.124443021
 20
154.320901295
 30
0.0
 11
217.624443021
 21
153.820901295
 31
0.0
  0
LINE
  5
2B2
330
1F
100
AcDbEntity
  8
2
  6
Continuous
 62
     1
100
AcDbLine
 10
217.624443021
 20
131.620901295
 30
0.0
 11
217.624443021
 21
156.620901295
 31
0.0
  0
ARC
  5
2B3
330
1F
100
AcDbEntity
  8
2
  6
Continuous
 62
     1
100
AcDbCircle
 10
220.624443021
 20
156.620901295
 30
0.0
 40
3.0
100
AcDbArc
 50
90.0
 51
180.0
  0
ARC
  5
2B4
330
1F
100
AcDbEntity
  8
2
  6
Continuous
 62
     2
100
AcDbCircle
 10
220.624443021
 20
156.620901295
 30
0.0
 40
2.5
100
AcDbArc
 50
90.0
 51
180.0
  0
LINE
  5
2B5
330
1F
100
AcDbEntity
  8
2
  6
Continuous
 62
     2
100
AcDbLine
 10
236.224443021
 20
135.020901295
 30
0.0
 11
236.224443021
 21
133.220901295
 31
0.0
  0
LINE
  5
2B6
330
1F
100
AcDbEntity
  8
2
  6
Continuous
 62
     2
100
AcDbLine
 10
236.024443021
 20
133.320901295
 30
0.0
 11
236.024443021
 21
135.020901295
 31
0.0
  0
ARC
  5
2B7
330
1F
100
AcDbEntity
  8
2
  6
Continuous
 62
     2
100
AcDbCircle
 10
226.624443021
 20
131.170901295
 30
0.0
 40
1.0
100
AcDbArc
 50
180.0
 51
270.0
  0
ARC
  5
2B8
330
1F
100
AcDbEntity
  8
2
  6
Continuous
 62
     2
100
AcDbCircle
 10
226.624443021
 20
131.170901295
 30
0.0
 40
0.5
100
AcDbArc
 50
180.0
 51
270.0
  0
LINE
  5
2B9
330
1F
100
AcDbEntity
  8
2
  6
Continuous
 62
     2
100
AcDbLine
 10
225.624443021
 20
131.420901295
 30
0.0
 11
225.624443021
 21
131.170901295
 31
0.0
  0
LINE
  5
2BA
330
1F
100
AcDbEntity
  8
2
  6
Continuous
 62
     2
100
AcDbLine
 10
226.124443021
 20
131.170901295
 30
0.0
 11
226.124443021
 21
131.420901295
 31
0.0
  0
ARC
  5
2BB
330
1F
100
AcDbEntity
  8
2
  6
Continuous
 62
     2
100
AcDbCircle
 10
223.124443021
 20
131.420901295
 30
0.0
 40
3.0
100
AcDbArc
 50
0.0
 51
90.0
  0
ARC
  5
2BC
330
1F
100
AcDbEntity
  8
2
  6
Continuous
 62
     2
100
AcDbCircle
 10
223.124443021
 20
131.420901295
 30
0.0
 40
2.5
100
AcDbArc
 50
0.0
 51
90.0
  0
LINE
  5
2BD
330
1F
100
AcDbEntity
  8
2
  6
Continuous
 62
     2
100
AcDbLine
 10
226.624443021
 20
130.170901295
 30
0.0
 11
229.024443021
 21
130.170901295
 31
0.0
  0
LINE
  5
2BE
330
1F
100
AcDbEntity
  8
2
  6
Continuous
 62
     2
100
AcDbLine
 10
229.024443021
 20
130.670901295
 30
0.0
 11
226.624443021
 21
130.670901295
 31
0.0
  0
LINE
  5
2BF
330
1F
100
AcDbEntity
  8
2
  6
Continuous
 62
     2
100
AcDbLine
 10
236.224443021
 20
133.220901295
 30
0.0
 11
231.324443021
 21
133.220901295
 31
0.0
  0
LINE
  5
2C0
330
1F
100
AcDbEntity
  8
2
  6
Continuous
 62
     2
100
AcDbLine
 10
234.650610051
 20
131.665444943
 30
0.0
 11
236.245584798
 21
130.070470196
 31
0.0
  0
LINE
  5
2C1
330
1F
100
AcDbEntity
  8
2
  6
Continuous
 62
     2
100
AcDbLine
 10
237.624443021
 20
132.320705971
 30
0.0
 11
233.524443021
 21
132.320705971
 31
0.0
  0
LINE
  5
2C2
330
1F
100
AcDbEntity
  8
2
  6
Continuous
 62
     2
100
AcDbLine
 10
233.524443021
 20
131.820705971
 30
0.0
 11
237.124443021
 21
131.820705971
 31
0.0
  0
LINE
  5
2C3
330
1F
100
AcDbEntity
  8
2
  6
Continuous
 62
     2
100
AcDbLine
 10
236.12487412
 20
129.999759518
 30
0.0
 11
234.529899373
 21
131.594734265
 31
0.0
  0
LINE
  5
2C4
330
1F
100
AcDbEntity
  8
2
  6
Continuous
 62
     2
100
AcDbLine
 10
236.12487412
 20
129.999759518
 30
0.0
 11
234.781371236
 21
128.656256634
 31
0.0
  0
LINE
  5
2C5
330
1F
100
AcDbEntity
  8
2
  6
Continuous
 62
     2
100
AcDbLine
 10
231.324443021
 20
133.320901295
 30
0.0
 11
236.024443021
 21
133.320901295
 31
0.0
  0
LINE
  5
2C6
330
1F
100
AcDbEntity
  8
2
  6
Continuous
 62
     2
100
AcDbLine
 10
233.524443021
 20
129.620901295
 30
0.0
 11
229.024443021
 21
129.620901295
 31
0.0
  0
LINE
  5
2C7
330
1F
100
AcDbEntity
  8
2
  6
Continuous
 62
     2
100
AcDbLine
 10
231.324443021
 20
128.620901295
 30
0.0
 11
231.324443021
 21
133.320901295
 31
0.0
  0
ARC
  5
2C8
330
1F
100
AcDbEntity
  8
2
  6
Continuous
 62
     2
100
AcDbCircle
 10
232.706066403
 20
129.720901295
 30
0.0
 40
2.75
100
AcDbArc
 50
45.0
 51
49.77952633
  0
LINE
  5
2C9
330
1F
100
AcDbEntity
  8
2
  6
Continuous
 62
     2
100
AcDbLine
 10
233.524443021
 20
128.620901295
 30
0.0
 11
233.524443021
 21
132.320705971
 31
0.0
  0
ARC
  5
2CA
330
1F
100
AcDbEntity
  8
2
  6
Continuous
 62
     2
100
AcDbCircle
 10
232.656066403
 20
129.720901295
 30
0.0
 40
2.65
100
AcDbArc
 50
45.0
 51
52.408403387
  0
LINE
  5
2CB
330
1F
100
AcDbEntity
  8
2
  6
Continuous
 62
     2
100
AcDbLine
 10
233.524443021
 20
131.499429428
 30
0.0
 11
234.625204211
 21
131.499429428
 31
0.0
  0
LINE
  5
2CC
330
1F
100
AcDbEntity
  8
2
  6
Continuous
 62
     2
100
AcDbLine
 10
234.124443021
 20
131.470901295
 30
0.0
 11
233.524443021
 21
131.470901295
 31
0.0
  0
LINE
  5
2CD
330
1F
100
AcDbEntity
  8
2
  6
Continuous
 62
     2
100
AcDbLine
 10
234.124443021
 20
128.970901295
 30
0.0
 11
233.524443021
 21
128.970901295
 31
0.0
  0
LINE
  5
2CE
330
1F
100
AcDbEntity
  8
2
  6
Continuous
 62
     2
100
AcDbLine
 10
234.124443021
 20
131.470901295
 30
0.0
 11
234.124443021
 21
128.970901295
 31
0.0
  0
LINE
  5
2CF
330
1F
100
AcDbEntity
  8
2
  6
Continuous
 62
     2
100
AcDbLine
 10
237.564087682
 20
131.388973081
 30
0.0
 11
236.245584798
 21
130.070470196
 31
0.0
  0
LINE
  5
2D0
330
1F
100
AcDbEntity
  8
2
  6
Continuous
 62
     2
100
AcDbLine
 10
237.124443021
 20
131.820705971
 30
0.0
 11
236.624443021
 21
132.320705971
 31
0.0
  0
LINE
  5
2D1
330
1F
100
AcDbEntity
  8
2
  6
Continuous
 62
     2
100
AcDbLine
 10
235.004945772
 20
131.311109222
 30
0.0
 11
234.909235094
 21
131.215398544
 31
0.0
  0
LINE
  5
2D2
330
1F
100
AcDbEntity
  8
2
  6
Continuous
 62
     2
100
AcDbLine
 10
236.224443021
 20
133.461093674
 30
0.0
 11
236.024443021
 21
133.461093674
 31
0.0
  0
LINE
  5
2D3
330
1F
100
AcDbEntity
  8
2
  6
Continuous
 62
     2
100
AcDbLine
 10
237.124443021
 20
131.820705971
 30
0.0
 11
237.124443021
 21
130.94932842
 31
0.0
  0
LINE
  5
2D4
330
1F
100
AcDbEntity
  8
2
  6
Continuous
 62
     2
100
AcDbLine
 10
237.624443021
 20
132.320705971
 30
0.0
 11
237.124443021
 21
131.820705971
 31
0.0
  0
LINE
  5
2D5
330
1F
100
AcDbEntity
  8
2
  6
Continuous
 62
     1
100
AcDbLine
 10
238.635552299
 20
155.496416279
 30
0.0
 11
239.274443087
 21
155.337491223
 31
0.0
  0
LINE
  5
2D6
330
1F
100
AcDbEntity
  8
2
  6
Continuous
 62
     1
100
AcDbLine
 10
238.635552299
 20
155.496416279
 30
0.0
 11
237.624443021
 21
155.870901295
 31
0.0
  0
LINE
  5
2D7
330
1F
100
AcDbEntity
  8
2
  6
Continuous
 62
     1
100
AcDbLine
 10
238.635552299
 20
148.745386788
 30
0.0
 11
237.624443021
 21
148.370901295
 31
0.0
  0
LINE
  5
2D8
330
1F
100
AcDbEntity
  8
2
  6
Continuous
 62
     1
100
AcDbLine
 10
239.274443087
 20
148.904311844
 30
0.0
 11
238.635552299
 21
148.745386788
 31
0.0
  0
LINE
  5
2D9
330
1F
100
AcDbEntity
  8
2
  6
Continuous
 62
     1
100
AcDbLine
 10
238.974443021
 20
146.720901295
 30
0.0
 11
237.624443021
 21
147.220901295
 31
0.0
  0
LINE
  5
2DA
330
1F
100
AcDbEntity
  8
2
  6
Continuous
 62
     1
100
AcDbLine
 10
238.974443021
 20
141.520901295
 30
0.0
 11
237.624443021
 21
141.020901295
 31
0.0
  0
LINE
  5
2DB
330
1F
100
AcDbEntity
  8
2
  6
Continuous
 62
     2
100
AcDbLine
 10
234.124443021
 20
159.270901295
 30
0.0
 11
234.124443021
 21
156.770901295
 31
0.0
  0
LINE
  5
2DC
330
1F
100
AcDbEntity
  8
2
  6
Continuous
 62
     2
100
AcDbLine
 10
233.524443021
 20
155.740901295
 30
0.0
 11
233.524443021
 21
159.620901295
 31
0.0
  0
ARC
  5
2DD
330
1F
100
AcDbEntity
  8
2
  6
Continuous
 62
     2
100
AcDbCircle
 10
226.624443021
 20
157.070901295
 30
0.0
 40
0.5
100
AcDbArc
 50
90.0
 51
180.0
  0
ARC
  5
2DE
330
1F
100
AcDbEntity
  8
2
  6
Continuous
 62
     2
100
AcDbCircle
 10
226.624443021
 20
157.070901295
 30
0.0
 40
1.0
100
AcDbArc
 50
90.0
 51
180.0
  0
LINE
  5
2DF
330
1F
100
AcDbEntity
  8
2
  6
Continuous
 62
     2
100
AcDbLine
 10
226.124443021
 20
156.820901295
 30
0.0
 11
226.124443021
 21
157.070901295
 31
0.0
  0
LINE
  5
2E0
330
1F
100
AcDbEntity
  8
2
  6
Continuous
 62
     2
100
AcDbLine
 10
225.624443021
 20
157.070901295
 30
0.0
 11
225.624443021
 21
156.820901295
 31
0.0
  0
ARC
  5
2E1
330
1F
100
AcDbEntity
  8
2
  6
Continuous
 62
     2
100
AcDbCircle
 10
223.124443021
 20
156.820901295
 30
0.0
 40
2.5
100
AcDbArc
 50
270.0
 51
0.0
  0
ARC
  5
2E2
330
1F
100
AcDbEntity
  8
2
  6
Continuous
 62
     2
100
AcDbCircle
 10
223.124443021
 20
156.820901295
 30
0.0
 40
3.0
100
AcDbArc
 50
270.0
 51
0.0
  0
LINE
  5
2E3
330
1F
100
AcDbEntity
  8
2
  6
Continuous
 62
     2
100
AcDbLine
 10
237.624443021
 20
141.020901295
 30
0.0
 11
237.624443021
 21
147.220901295
 31
0.0
  0
LINE
  5
2E4
330
1F
100
AcDbEntity
  8
2
  6
Continuous
 62
     2
100
AcDbLine
 10
236.624443021
 20
155.740901295
 30
0.0
 11
236.624443021
 21
132.320705971
 31
0.0
  0
LINE
  5
2E5
330
1F
100
AcDbEntity
  8
2
  6
Continuous
 62
     2
100
AcDbLine
 10
236.024443021
 20
135.020901295
 30
0.0
 11
237.624443021
 21
135.020901295
 31
0.0
  0
LINE
  5
2E6
330
1F
100
AcDbEntity
  8
2
  6
Continuous
 62
     2
100
AcDbLine
 10
236.024443021
 20
134.220901295
 30
0.0
 11
236.224443021
 21
134.220901295
 31
0.0
  0
LINE
  5
2E7
330
1F
100
AcDbEntity
  8
2
  6
Continuous
 62
     2
100
AcDbLine
 10
236.224443021
 20
134.320901295
 30
0.0
 11
236.024443021
 21
134.320901295
 31
0.0
  0
LINE
  5
2E8
330
1F
100
AcDbEntity
  8
2
  6
Continuous
 62
     2
100
AcDbLine
 10
236.024443021
 20
133.980708916
 30
0.0
 11
236.224443021
 21
133.980708916
 31
0.0
  0
LINE
  5
2E9
330
1F
100
AcDbEntity
  8
2
  6
Continuous
 62
     2
100
AcDbLine
 10
237.124443021
 20
156.240901295
 30
0.0
 11
233.524443021
 21
156.240901295
 31
0.0
  0
LINE
  5
2EA
330
1F
100
AcDbEntity
  8
2
  6
Continuous
 62
     2
100
AcDbLine
 10
233.524443021
 20
155.740901295
 30
0.0
 11
237.624443021
 21
155.740901295
 31
0.0
  0
LINE
  5
2EB
330
1F
100
AcDbEntity
  8
2
  6
Continuous
 62
     2
100
AcDbLine
 10
234.124443021
 20
156.770901295
 30
0.0
 11
233.524443021
 21
156.770901295
 31
0.0
  0
LINE
  5
2EC
330
1F
100
AcDbEntity
  8
2
  6
Continuous
 62
     2
100
AcDbLine
 10
236.624443021
 20
155.740901295
 30
0.0
 11
237.124443021
 21
156.240901295
 31
0.0
  0
LINE
  5
2ED
330
1F
100
AcDbEntity
  8
2
  6
Continuous
 62
     2
100
AcDbLine
 10
237.124443021
 20
156.240901295
 30
0.0
 11
237.624443021
 21
155.740901295
 31
0.0
  0
LINE
  5
2EE
330
1F
100
AcDbEntity
  8
2
  6
Continuous
 62
     2
100
AcDbLine
 10
229.024443021
 20
158.620901295
 30
0.0
 11
233.524443021
 21
158.620901295
 31
0.0
  0
LINE
  5
2EF
330
1F
100
AcDbEntity
  8
2
  6
Continuous
 62
     1
100
AcDbLine
 10
225.817263344
 20
160.128080972
 30
0.0
 11
227.431622698
 21
160.128080972
 31
0.0
  0
LINE
  5
2F0
330
1F
100
AcDbEntity
  8
2
  6
Continuous
 62
     1
100
AcDbLine
 10
225.817263344
 20
160.128080972
 30
0.0
 11
225.524443021
 21
159.620901295
 31
0.0
  0
LINE
  5
2F1
330
1F
100
AcDbEntity
  8
2
  6
Continuous
 62
     2
100
AcDbLine
 10
226.624443021
 20
157.570901295
 30
0.0
 11
229.024443021
 21
157.570901295
 31
0.0
  0
LINE
  5
2F2
330
1F
100
AcDbEntity
  8
2
  6
Continuous
 62
     2
100
AcDbLine
 10
229.024443021
 20
158.070901295
 30
0.0
 11
226.624443021
 21
158.070901295
 31
0.0
  0
LINE
  5
2F3
330
1F
100
AcDbEntity
  8
2
  6
Continuous
 62
     1
100
AcDbLine
 10
227.724443021
 20
159.620901295
 30
0.0
 11
227.431622698
 21
160.128080972
 31
0.0
  0
LINE
  5
2F4
330
1F
100
AcDbEntity
  8
2
  6
Continuous
 62
     2
100
AcDbLine
 10
234.124443021
 20
159.120901295
 30
0.0
 11
237.624443021
 21
159.120901295
 31
0.0
  0
LINE
  5
2F5
330
1F
100
AcDbEntity
  8
2
  6
Continuous
 62
     2
100
AcDbLine
 10
234.124443021
 20
159.270901295
 30
0.0
 11
233.524443021
 21
159.270901295
 31
0.0
  0
LINE
  5
2F6
330
1F
100
AcDbEntity
  8
2
  6
Continuous
 62
     2
100
AcDbLine
 10
237.124443021
 20
159.620901295
 30
0.0
 11
237.124443021
 21
156.240901295
 31
0.0
  0
LINE
  5
2F7
330
1F
100
AcDbEntity
  8
2
  6
Continuous
 62
     1
100
AcDbLine
 10
237.624443021
 20
155.870901295
 30
0.0
 11
237.624443021
 21
159.120901295
 31
0.0
  0
LINE
  5
2F8
330
1F
100
AcDbEntity
  8
2
  6
Continuous
 62
     1
100
AcDbLine
 10
237.124443021
 20
159.620901295
 30
0.0
 11
237.624443021
 21
159.120901295
 31
0.0
  0
LINE
  5
2F9
330
1F
100
AcDbEntity
  8
2
  6
Continuous
 62
     2
100
AcDbLine
 10
238.974443021
 20
146.451617971
 30
0.0
 11
238.974443021
 21
145.191143105
 31
0.0
  0
LINE
  5
2FA
330
1F
100
AcDbEntity
  8
2
  6
Continuous
 62
     1
100
AcDbLine
 10
239.374443021
 20
145.390901295
 30
0.0
 11
239.274443021
 21
145.390901295
 31
0.0
  0
LINE
  5
2FB
330
1F
100
AcDbEntity
  8
2
  6
Continuous
 62
     1
100
AcDbLine
 10
239.374443021
 20
142.850901295
 30
0.0
 11
239.274443021
 21
142.850901295
 31
0.0
  0
LINE
  5
2FC
330
1F
100
AcDbEntity
  8
2
  6
Continuous
 62
     1
100
AcDbLine
 10
239.374443021
 20
142.850901295
 30
0.0
 11
239.374443021
 21
145.390901295
 31
0.0
  0
LINE
  5
2FD
330
1F
100
AcDbEntity
  8
2
  6
Continuous
 62
     2
100
AcDbLine
 10
239.374443021
 20
144.903009478
 30
0.0
 11
239.274443021
 21
144.903009478
 31
0.0
  0
LINE
  5
2FE
330
1F
100
AcDbEntity
  8
2
  6
Continuous
 62
     2
100
AcDbLine
 10
239.274443021
 20
144.35637849
 30
0.0
 11
239.374443021
 21
144.35637849
 31
0.0
  0
LINE
  5
2FF
330
1F
100
AcDbEntity
  8
2
  6
Continuous
 62
     2
100
AcDbLine
 10
238.974443021
 20
144.911068977
 30
0.0
 11
238.974443021
 21
143.253762103
 31
0.0
  0
LINE
  5
300
330
1F
100
AcDbEntity
  8
2
  6
Continuous
 62
     1
100
AcDbLine
 10
238.974443021
 20
142.230901295
 30
0.0
 11
238.974443021
 21
141.520901295
 31
0.0
  0
LINE
  5
301
330
1F
100
AcDbEntity
  8
2
  6
Continuous
 62
     2
100
AcDbLine
 10
239.274443021
 20
144.87118091
 30
0.0
 11
238.974443021
 21
144.911068977
 31
0.0
  0
LINE
  5
302
330
1F
100
AcDbEntity
  8
2
  6
Continuous
 62
     2
100
AcDbLine
 10
238.974443021
 20
145.191143105
 30
0.0
 11
239.274443021
 21
145.151255038
 31
0.0
  0
LINE
  5
303
330
1F
100
AcDbEntity
  8
2
  6
Continuous
 62
     1
100
AcDbLine
 10
238.974443021
 20
142.230901295
 30
0.0
 11
239.274443021
 21
142.230901295
 31
0.0
  0
LINE
  5
304
330
1F
100
AcDbEntity
  8
2
  6
Continuous
 62
     2
100
AcDbLine
 10
239.274443021
 20
143.555748299
 30
0.0
 11
238.974443021
 21
143.555748299
 31
0.0
  0
LINE
  5
305
330
1F
100
AcDbEntity
  8
2
  6
Continuous
 62
     2
100
AcDbLine
 10
238.974443021
 20
144.656043143
 30
0.0
 11
239.274443021
 21
144.656043143
 31
0.0
  0
LINE
  5
306
330
1F
100
AcDbEntity
  8
2
  6
Continuous
 62
     1
100
AcDbLine
 10
239.274443021
 20
142.230901295
 30
0.0
 11
239.274443021
 21
142.850901295
 31
0.0
  0
LINE
  5
307
330
1F
100
AcDbEntity
  8
2
  6
Continuous
 62
     1
100
AcDbLine
 10
239.174443021
 20
153.905901295
 30
0.0
 11
239.174443021
 21
150.094995809
 31
0.0
  0
LINE
  5
308
330
1F
100
AcDbEntity
  8
2
  6
Continuous
 62
     2
100
AcDbLine
 10
238.974443021
 20
155.370901295
 30
0.0
 11
238.974443021
 21
154.146806781
 31
0.0
  0
LINE
  5
309
330
1F
100
AcDbEntity
  8
2
  6
Continuous
 62
     2
100
AcDbLine
 10
239.174443021
 20
149.845628571
 30
0.0
 11
239.174443021
 21
150.094995809
 31
0.0
  0
LINE
  5
30A
330
1F
100
AcDbEntity
  8
2
  6
Continuous
 62
     2
100
AcDbLine
 10
238.974443021
 20
149.845628571
 30
0.0
 11
239.174443021
 21
149.845628571
 31
0.0
  0
LINE
  5
30B
330
1F
100
AcDbEntity
  8
2
  6
Continuous
 62
     2
100
AcDbLine
 10
238.974443021
 20
150.335901295
 30
0.0
 11
239.174443021
 21
150.335901295
 31
0.0
  0
LINE
  5
30C
330
1F
100
AcDbEntity
  8
2
  6
Continuous
 62
     2
100
AcDbLine
 10
238.974443021
 20
149.808207591
 30
0.0
 11
239.274443021
 21
149.808207591
 31
0.0
  0
LINE
  5
30D
330
1F
100
AcDbEntity
  8
2
  6
Continuous
 62
     1
100
AcDbLine
 10
239.274443021
 20
148.904311152
 30
0.0
 11
239.274443021
 21
150.094995809
 31
0.0
  0
LINE
  5
30E
330
1F
100
AcDbEntity
  8
2
  6
Continuous
 62
     1
100
AcDbLine
 10
239.274443021
 20
150.094995809
 30
0.0
 11
239.174443021
 21
150.094995809
 31
0.0
  0
LINE
  5
30F
330
1F
100
AcDbEntity
  8
2
  6
Continuous
 62
     1
100
AcDbLine
 10
238.974443021
 20
146.720901295
 30
0.0
 11
238.974443021
 21
146.56883731
 31
0.0
  0
LINE
  5
310
330
1F
100
AcDbEntity
  8
2
  6
Continuous
 62
     2
100
AcDbLine
 10
238.974443021
 20
145.796557948
 30
0.0
 11
239.274443021
 21
145.796557948
 31
0.0
  0
LINE
  5
311
330
1F
100
AcDbEntity
  8
2
  6
Continuous
 62
     2
100
AcDbLine
 10
239.274443021
 20
146.349161378
 30
0.0
 11
238.974443021
 21
146.451617971
 31
0.0
  0
LINE
  5
312
330
1F
100
AcDbEntity
  8
2
  6
Continuous
 62
     1
100
AcDbLine
 10
238.974443021
 20
146.56883731
 30
0.0
 11
239.274443021
 21
146.466380717
 31
0.0
  0
LINE
  5
313
330
1F
100
AcDbEntity
  8
2
  6
Continuous
 62
     1
100
AcDbLine
 10
239.274443021
 20
145.390901295
 30
0.0
 11
239.274443021
 21
146.466380717
 31
0.0
  0
LINE
  5
314
330
1F
100
AcDbEntity
  8
2
  6
Continuous
 62
     1
100
AcDbLine
 10
238.974443021
 20
153.905901295
 30
0.0
 11
239.174443021
 21
153.905901295
 31
0.0
  0
LINE
  5
315
330
1F
100
AcDbEntity
  8
2
  6
Continuous
 62
     1
100
AcDbLine
 10
239.274443021
 20
154.146806781
 30
0.0
 11
239.274443021
 21
155.337491437
 31
0.0
  0
LINE
  5
316
330
1F
100
AcDbEntity
  8
2
  6
Continuous
 62
     2
100
AcDbLine
 10
238.974443021
 20
154.433594999
 30
0.0
 11
239.274443021
 21
154.433594999
 31
0.0
  0
LINE
  5
317
330
1F
100
AcDbEntity
  8
2
  6
Continuous
 62
     1
100
AcDbLine
 10
238.974443021
 20
154.146806781
 30
0.0
 11
239.274443021
 21
154.146806781
 31
0.0
  0
LINE
  5
318
330
1F
100
AcDbEntity
  8
2
  6
Continuous
 62
     2
100
AcDbLine
 10
229.024443021
 20
159.620901295
 30
0.0
 11
229.024443021
 21
128.620901295
 31
0.0
  0
LINE
  5
319
330
1F
100
AcDbEntity
  8
2
  6
Continuous
 62
     1
100
AcDbLine
 10
234.781371236
 20
128.656256634
 30
0.0
 11
234.746015897
 21
128.620901295
 31
0.0
  0
LINE
  5
31A
330
1F
100
AcDbEntity
  8
2
  6
Continuous
 62
     1
100
AcDbLine
 10
237.624443021
 20
141.020901295
 30
0.0
 11
237.624443021
 21
131.44932842
 31
0.0
  0
LINE
  5
31B
330
1F
100
AcDbEntity
  8
2
  6
Continuous
 62
     1
100
AcDbLine
 10
237.564087682
 20
131.388973081
 30
0.0
 11
237.624443021
 21
131.44932842
 31
0.0
  0
LINE
  5
31C
330
1F
100
AcDbEntity
  8
2
  6
Continuous
 62
     2
100
AcDbLine
 10
238.635552299
 20
155.496416279
 30
0.0
 11
238.974443021
 21
155.370901295
 31
0.0
  0
LINE
  5
31D
330
1F
100
AcDbEntity
  8
2
  6
Continuous
 62
     2
100
AcDbLine
 10
238.974443021
 20
153.905901295
 30
0.0
 11
238.974443021
 21
148.870901295
 31
0.0
  0
LINE
  5
31E
330
1F
100
AcDbEntity
  8
2
  6
Continuous
 62
     1
100
AcDbLine
 10
238.974443021
 20
154.146806781
 30
0.0
 11
238.974443021
 21
153.905901295
 31
0.0
  0
LINE
  5
31F
330
1F
100
AcDbEntity
  8
2
  6
Continuous
 62
     2
100
AcDbLine
 10
238.635552299
 20
148.745386788
 30
0.0
 11
238.974443021
 21
148.870901295
 31
0.0
  0
LINE
  5
320
330
1F
100
AcDbEntity
  8
2
  6
Continuous
 62
     2
100
AcDbLine
 10
237.624443021
 20
148.370901295
 30
0.0
 11
237.624443021
 21
155.740901295
 31
0.0
  0
LINE
  5
321
330
1F
100
AcDbEntity
  8
2
  6
Continuous
 62
     1
100
AcDbLine
 10
237.624443021
 20
148.370901295
 30
0.0
 11
237.624443021
 21
147.220901295
 31
0.0
  0
LINE
  5
322
330
1F
100
AcDbEntity
  8
2
  6
Continuous
 62
     2
100
AcDbLine
 10
239.274443021
 20
142.850901295
 30
0.0
 11
239.274443021
 21
145.390901295
 31
0.0
  0
LINE
  5
323
330
1F
100
AcDbEntity
  8
2
  6
Continuous
 62
     2
100
AcDbLine
 10
239.274443087
 20
142.584234663
 30
0.0
 11
237.624443021
 21
142.372335383
 31
0.0
  0
LINE
  5
324
330
1F
100
AcDbEntity
  8
2
  6
Continuous
 62
     2
100
AcDbLine
 10
237.624443021
 20
142.825489231
 30
0.0
 11
239.274443087
 21
143.037388512
 31
0.0
  0
LINE
  5
325
330
1F
100
AcDbEntity
  8
2
  6
Continuous
 62
     2
100
AcDbLine
 10
238.974443021
 20
143.253762103
 30
0.0
 11
237.624443021
 21
143.041628786
 31
0.0
  0
LINE
  5
326
330
1F
100
AcDbEntity
  8
2
  6
Continuous
 62
     2
100
AcDbLine
 10
238.974443021
 20
142.230901295
 30
0.0
 11
238.974443021
 21
142.545707514
 31
0.0
  0
LINE
  5
327
330
1F
100
AcDbEntity
  8
2
  6
Continuous
 62
     1
100
AcDbLine
 10
227.724443021
 20
159.620901295
 30
0.0
 11
237.124443021
 21
159.620901295
 31
0.0
  0
LINE
  5
328
330
1F
100
AcDbEntity
  8
2
  6
Continuous
 62
     2
100
AcDbLine
 10
225.524443021
 20
159.620901295
 30
0.0
 11
227.724443021
 21
159.620901295
 31
0.0
  0
POINT
  5
329
330
1F
100
AcDbEntity
  8
3
  6
Continuous
 62
     2
100
AcDbPoint
 10
217.624443021
 20
131.620901295
 30
0.0
  0
POINT
  5
32A
330
1F
100
AcDbEntity
  8
3
  6
Continuous
 62
     2
100
AcDbPoint
 10
220.624443021
 20
127.670901295
 30
0.0
  0
POINT
  5
32B
330
1F
100
AcDbEntity
  8
3
  6
Continuous
 62
     2
100
AcDbPoint
 10
216.874443021
 20
131.420901295
 30
0.0
  0
POINT
  5
32C
330
1F
100
AcDbEntity
  8
3
  6
Continuous
 62
     2
100
AcDbPoint
 10
220.624443021
 20
128.620901295
 30
0.0
  0
POINT
  5
32D
330
1F
100
AcDbEntity
  8
3
  6
Continuous
 62
     2
100
AcDbPoint
 10
216.874443021
 20
131.420901295
 30
0.0
  0
POINT
  5
32E
330
1F
100
AcDbEntity
  8
3
  6
Continuous
 62
     2
100
AcDbPoint
 10
216.874443021
 20
156.820901295
 30
0.0
  0
POINT
  5
32F
330
1F
100
AcDbEntity
  8
3
  6
Continuous
 62
     2
100
AcDbPoint
 10
220.624443021
 20
159.620901295
 30
0.0
  0
POINT
  5
330
330
1F
100
AcDbEntity
  8
3
  6
Continuous
 62
     2
100
AcDbPoint
 10
220.624443021
 20
128.620901295
 30
0.0
  0
POINT
  5
331
330
1F
100
AcDbEntity
  8
3
  6
Continuous
 62
     2
100
AcDbPoint
 10
220.624443021
 20
159.620901295
 30
0.0
  0
POINT
  5
332
330
1F
100
AcDbEntity
  8
3
  6
Continuous
 62
     2
100
AcDbPoint
 10
225.817263344
 20
160.128080972
 30
0.0
  0
POINT
  5
333
330
1F
100
AcDbEntity
  8
3
  6
Continuous
 62
     2
100
AcDbPoint
 10
217.624443021
 20
156.620901295
 30
0.0
  0
POINT
  5
334
330
1F
100
AcDbEntity
  8
3
  6
Continuous
 62
     2
100
AcDbPoint
 10
237.624443021
 20
159.120901295
 30
0.0
  0
POINT
  5
335
330
1F
100
AcDbEntity
  8
3
  6
Continuous
 62
     2
100
AcDbPoint
 10
237.624443021
 20
159.120901295
 30
0.0
  0
POINT
  5
336
330
1F
100
AcDbEntity
  8
3
  6
Continuous
 62
     2
100
AcDbPoint
 10
239.374443021
 20
145.390901295
 30
0.0
  0
LINE
  5
337
330
1F
100
AcDbEntity
  8
2
  6
LTYPE1
 62
     3
100
AcDbLine
 10
224.374443021
 20
156.820901295
 30
0.0
 11
216.874443021
 21
156.820901295
 31
0.0
  0
LINE
  5
338
330
1F
100
AcDbEntity
  8
2
  6
LTYPE1
 62
     3
100
AcDbLine
 10
224.374443021
 20
131.420901295
 30
0.0
 11
216.874443021
 21
131.420901295
 31
0.0
  0
LINE
  5
339
330
1F
100
AcDbEntity
  8
2
  6
LTYPE1
 62
     3
100
AcDbLine
 10
220.624443021
 20
160.570901295
 30
0.0
 11
220.624443021
 21
127.670901295
 31
0.0
  0
CIRCLE
  5
33A
330
1F
100
AcDbEntity
  8
2
  6
Continuous
 62
     3
100
AcDbCircle
 10
220.624443021
 20
131.420901295
 30
0.0
 40
1.2295
  0
CIRCLE
  5
33B
330
1F
100
AcDbEntity
  8
2
  6
Continuous
 62
     3
100
AcDbCircle
 10
220.624443021
 20
131.420901295
 30
0.0
 40
1.75
  0
CIRCLE
  5
33C
330
1F
100
AcDbEntity
  8
2
  6
Continuous
 62
     3
100
AcDbCircle
 10
220.624443021
 20
131.420901295
 30
0.0
 40
1.5295
  0
CIRCLE
  5
33D
330
1F
100
AcDbEntity
  8
2
  6
Continuous
 62
     3
100
AcDbCircle
 10
220.624443021
 20
156.820901295
 30
0.0
 40
1.75
  0
CIRCLE
  5
33E
330
1F
100
AcDbEntity
  8
2
  6
Continuous
 62
     3
100
AcDbCircle
 10
220.624443021
 20
156.820901295
 30
0.0
 40
1.2295
  0
CIRCLE
  5
33F
330
1F
100
AcDbEntity
  8
2
  6
Continuous
 62
     3
100
AcDbCircle
 10
220.624443021
 20
156.820901295
 30
0.0
 40
1.5295
  0
LINE
  5
340
330
1F
100
AcDbEntity
  8
2
  6
LTYPE1
 62
     3
100
AcDbLine
 10
234.944590433
 20
131.250753883
 30
0.0
 11
243.217395157
 21
122.977949159
 31
0.0
  0
LINE
  5
341
330
1F
100
AcDbEntity
  8
2
  6
Continuous
 62
     1
100
AcDbLine
 10
246.124443021
 20
123.160901295
 30
0.0
 11
246.124443021
 21
121.720901295
 31
0.0
  0
LINE
  5
342
330
1F
100
AcDbEntity
  8
2
  6
Continuous
 62
     1
100
AcDbLine
 10
246.124443021
 20
161.520901295
 30
0.0
 11
246.124443021
 21
127.900901295
 31
0.0
  0
LINE
  5
343
330
1F
100
AcDbEntity
  8
2
  6
LTYPE2
 62
     1
100
AcDbLine
 10
217.124443021
 20
122.920901295
 30
0.0
 11
246.124443021
 21
122.920901295
 31
0.0
  0
LINE
  5
344
330
1F
100
AcDbEntity
  8
0
  6
Continuous
 62
     2
100
AcDbLine
 10
276.039580765
 20
129.678208865
 30
0.0
 11
273.372914098
 21
125.678208865
 31
0.0
  0
LINE
  5
345
330
1F
100
AcDbEntity
  8
0
  6
Continuous
 62
     2
100
AcDbLine
 10
278.039580765
 20
129.678208865
 30
0.0
 11
275.372914098
 21
125.678208865
 31
0.0
  0
LINE
  5
346
330
1F
100
AcDbEntity
  8
0
  6
Continuous
 62
     2
100
AcDbLine
 10
276.655359858
 20
123.078208865
 30
0.0
 11
273.988693192
 21
119.078208865
 31
0.0
  0
LINE
  5
347
330
1F
100
AcDbEntity
  8
0
  6
Continuous
 62
     2
100
AcDbLine
 10
278.655359858
 20
123.078208865
 30
0.0
 11
275.988693192
 21
119.078208865
 31
0.0
  0
LINE
  5
348
330
1F
100
AcDbEntity
  8
0
  6
Continuous
 62
     2
100
AcDbLine
 10
273.372914098
 20
125.678208865
 30
0.0
 11
276.655359858
 21
123.078208865
 31
0.0
  0
LINE
  5
349
330
1F
100
AcDbEntity
  8
0
  6
Continuous
 62
     2
100
AcDbLine
 10
275.372914098
 20
125.678208865
 30
0.0
 11
278.655359858
 21
123.078208865
 31
0.0
  0
LINE
  5
34A
330
1F
100
AcDbEntity
  8
2
  6
Continuous
 62
     1
100
AcDbLine
 10
237.564087682
 20
131.388973081
 30
0.0
 11
241.574851898
 21
127.378208865
 31
0.0
  0
LINE
  5
34B
330
1F
100
AcDbEntity
  8
0
  6
Continuous
 62
     7
100
AcDbLine
 10
274.370107441
 20
127.378208865
 30
0.0
 11
241.574851898
 21
127.378208865
 31
0.0
  0
LINE
  5
34C
330
1F
100
AcDbEntity
  8
0
  6
Continuous
 62
     7
100
AcDbLine
 10
239.859419006
 20
123.578208864
 30
0.0
 11
276.070107441
 21
123.578208864
 31
0.0
  0
LINE
  5
34D
330
1F
100
AcDbEntity
  8
2
  6
Continuous
 62
     1
100
AcDbLine
 10
234.781371236
 20
128.656256634
 30
0.0
 11
239.859419006
 21
123.578208864
 31
0.0
  0
LINE
  5
34E
330
1F
100
AcDbEntity
  8
2
  6
Continuous
 62
     1
100
AcDbLine
 10
177.124443021
 20
122.920901295
 30
0.0
 11
177.124443021
 21
121.720901295
 31
0.0
  0
LINE
  5
34F
330
1F
100
AcDbEntity
  8
2
  6
Continuous
 62
     1
100
AcDbLine
 10
200.124443021
 20
128.420901295
 30
0.0
 11
200.124443021
 21
123.979686071
 31
0.0
  0
LINE
  5
350
330
1F
100
AcDbEntity
  8
2
  6
Continuous
 62
     1
100
AcDbLine
 10
196.224443021
 20
128.420901295
 30
0.0
 11
196.224443021
 21
123.979686071
 31
0.0
  0
ARC
  5
351
330
1F
100
AcDbEntity
  8
2
  6
Continuous
 62
     1
100
AcDbCircle
 10
199.011694502
 20
123.979686071
 30
0.0
 40
1.112748519
100
AcDbArc
 50
305.264389683
 51
0.0
  0
ARC
  5
352
330
1F
100
AcDbEntity
  8
2
  6
Continuous
 62
     1
100
AcDbCircle
 10
197.337191541
 20
123.979686071
 30
0.0
 40
1.112748519
100
AcDbArc
 50
180.0
 51
234.735610317
  0
ARC
  5
353
330
1F
100
AcDbEntity
  8
2
  6
Continuous
 62
     1
100
AcDbCircle
 10
198.174443021
 20
125.163738471
 30
0.0
 40
2.562910623
100
AcDbArc
 50
234.735610317
 51
305.264389683
  0
LINE
  5
354
330
1F
100
AcDbEntity
  8
2
  6
Continuous
 62
     2
100
AcDbLine
 10
203.674443021
 20
128.420901295
 30
0.0
 11
203.674443021
 21
159.420901295
 31
0.0
  0
LINE
  5
355
330
1F
100
AcDbEntity
  8
2
  6
Continuous
 62
     2
100
AcDbLine
 10
202.174443021
 20
136.770901295
 30
0.0
 11
202.174443021
 21
151.070901295
 31
0.0
  0
LINE
  5
356
330
1F
100
AcDbEntity
  8
2
  6
Continuous
 62
     1
100
AcDbLine
 10
204.174443021
 20
134.220901295
 30
0.0
 11
204.174443021
 21
153.620901295
 31
0.0
  0
LINE
  5
357
330
1F
100
AcDbEntity
  8
2
  6
Continuous
 62
     2
100
AcDbLine
 10
192.674443021
 20
128.420901295
 30
0.0
 11
192.674443021
 21
159.420901295
 31
0.0
  0
LINE
  5
358
330
1F
100
AcDbEntity
  8
2
  6
Continuous
 62
     2
100
AcDbLine
 10
194.174443021
 20
150.220901295
 30
0.0
 11
194.174443021
 21
136.770901295
 31
0.0
  0
LINE
  5
359
330
1F
100
AcDbEntity
  8
2
  6
Continuous
 62
     2
100
AcDbLine
 10
192.174443021
 20
153.620901295
 30
0.0
 11
192.174443021
 21
134.220901295
 31
0.0
  0
ARC
  5
35A
330
1F
100
AcDbEntity
  8
2
  6
Continuous
 62
     2
100
AcDbCircle
 10
194.324443021
 20
136.770901295
 30
0.0
 40
0.15
100
AcDbArc
 50
180.0
 51
270.0
  0
LINE
  5
35B
330
1F
100
AcDbEntity
  8
2
  6
Continuous
 62
     1
100
AcDbLine
 10
192.674443021
 20
128.420901295
 30
0.0
 11
196.224443021
 21
128.420901295
 31
0.0
  0
LINE
  5
35C
330
1F
100
AcDbEntity
  8
2
  6
Continuous
 62
     1
100
AcDbLine
 10
191.624443021
 20
128.920901295
 30
0.0
 11
192.674443021
 21
128.420901295
 31
0.0
  0
LINE
  5
35D
330
1F
100
AcDbEntity
  8
2
  6
Continuous
 62
     2
100
AcDbLine
 10
192.674443021
 20
134.220901295
 30
0.0
 11
192.174443021
 21
134.220901295
 31
0.0
  0
LINE
  5
35E
330
1F
100
AcDbEntity
  8
2
  6
Continuous
 62
     2
100
AcDbLine
 10
192.174443021
 20
134.220901295
 30
0.0
 11
191.624443021
 21
133.720901295
 31
0.0
  0
LINE
  5
35F
330
1F
100
AcDbEntity
  8
2
  6
Continuous
 62
     2
100
AcDbLine
 10
191.624443021
 20
133.720901295
 30
0.0
 11
192.674443021
 21
134.220901295
 31
0.0
  0
LINE
  5
360
330
1F
100
AcDbEntity
  8
2
  6
Continuous
 62
     2
100
AcDbLine
 10
196.224443021
 20
128.420901295
 30
0.0
 11
200.124443021
 21
128.420901295
 31
0.0
  0
LINE
  5
361
330
1F
100
AcDbEntity
  8
2
  6
Continuous
 62
     1
100
AcDbLine
 10
204.724443021
 20
128.920901295
 30
0.0
 11
204.724443021
 21
133.720901295
 31
0.0
  0
LINE
  5
362
330
1F
100
AcDbEntity
  8
2
  6
Continuous
 62
     1
100
AcDbLine
 10
200.124443021
 20
128.420901295
 30
0.0
 11
203.674443021
 21
128.420901295
 31
0.0
  0
LINE
  5
363
330
1F
100
AcDbEntity
  8
2
  6
Continuous
 62
     1
100
AcDbLine
 10
203.674443021
 20
128.420901295
 30
0.0
 11
204.724443021
 21
128.920901295
 31
0.0
  0
LINE
  5
364
330
1F
100
AcDbEntity
  8
2
  6
Continuous
 62
     2
100
AcDbLine
 10
204.174443021
 20
134.220901295
 30
0.0
 11
203.674443021
 21
134.220901295
 31
0.0
  0
LINE
  5
365
330
1F
100
AcDbEntity
  8
2
  6
Continuous
 62
     2
100
AcDbLine
 10
203.674443021
 20
134.220901295
 30
0.0
 11
204.724443021
 21
133.720901295
 31
0.0
  0
LINE
  5
366
330
1F
100
AcDbEntity
  8
2
  6
Continuous
 62
     1
100
AcDbLine
 10
204.724443021
 20
133.720901295
 30
0.0
 11
204.174443021
 21
134.220901295
 31
0.0
  0
LINE
  5
367
330
1F
100
AcDbEntity
  8
2
  6
Continuous
 62
     2
100
AcDbLine
 10
194.324443021
 20
136.620901295
 30
0.0
 11
202.024443021
 21
136.620901295
 31
0.0
  0
ARC
  5
368
330
1F
100
AcDbEntity
  8
2
  6
Continuous
 62
     2
100
AcDbCircle
 10
202.024443021
 20
136.770901295
 30
0.0
 40
0.15
100
AcDbArc
 50
270.0
 51
0.0
  0
LINE
  5
369
330
1F
100
AcDbEntity
  8
2
  6
Continuous
 62
     2
100
AcDbLine
 10
193.224443021
 20
159.420901295
 30
0.0
 11
194.824443021
 21
159.420901295
 31
0.0
  0
LINE
  5
36A
330
1F
100
AcDbEntity
  8
2
  6
Continuous
 62
     1
100
AcDbLine
 10
193.517263344
 20
159.928080972
 30
0.0
 11
194.531622698
 21
159.928080972
 31
0.0
  0
LINE
  5
36B
330
1F
100
AcDbEntity
  8
2
  6
Continuous
 62
     2
100
AcDbLine
 10
195.174443021
 20
151.220901295
 30
0.0
 11
194.174443021
 21
150.220901295
 31
0.0
  0
LINE
  5
36C
330
1F
100
AcDbEntity
  8
2
  6
Continuous
 62
     2
100
AcDbLine
 10
192.174443021
 20
153.620901295
 30
0.0
 11
192.674443021
 21
153.620901295
 31
0.0
  0
LINE
  5
36D
330
1F
100
AcDbEntity
  8
2
  6
Continuous
 62
     2
100
AcDbLine
 10
192.674443021
 20
153.620901295
 30
0.0
 11
191.624443021
 21
154.120901295
 31
0.0
  0
LINE
  5
36E
330
1F
100
AcDbEntity
  8
2
  6
Continuous
 62
     2
100
AcDbLine
 10
191.624443021
 20
154.120901295
 30
0.0
 11
192.174443021
 21
153.620901295
 31
0.0
  0
LINE
  5
36F
330
1F
100
AcDbEntity
  8
2
  6
Continuous
 62
     1
100
AcDbLine
 10
193.224443021
 20
159.420901295
 30
0.0
 11
192.674443021
 21
159.420901295
 31
0.0
  0
LINE
  5
370
330
1F
100
AcDbEntity
  8
2
  6
Continuous
 62
     1
100
AcDbLine
 10
193.224443021
 20
159.420901295
 30
0.0
 11
193.517263344
 21
159.928080972
 31
0.0
  0
LINE
  5
371
330
1F
100
AcDbEntity
  8
2
  6
Continuous
 62
     1
100
AcDbLine
 10
192.674443021
 20
159.420901295
 30
0.0
 11
191.624443021
 21
158.920901295
 31
0.0
  0
LINE
  5
372
330
1F
100
AcDbEntity
  8
2
  6
Continuous
 62
     2
100
AcDbLine
 10
202.024443021
 20
151.220901295
 30
0.0
 11
195.174443021
 21
151.220901295
 31
0.0
  0
ARC
  5
373
330
1F
100
AcDbEntity
  8
2
  6
Continuous
 62
     2
100
AcDbCircle
 10
202.024443021
 20
151.070901295
 30
0.0
 40
0.15
100
AcDbArc
 50
0.0
 51
90.0
  0
LINE
  5
374
330
1F
100
AcDbEntity
  8
2
  6
Continuous
 62
     1
100
AcDbLine
 10
203.674443021
 20
159.420901295
 30
0.0
 11
198.024443021
 21
159.420901295
 31
0.0
  0
LINE
  5
375
330
1F
100
AcDbEntity
  8
2
  6
Continuous
 62
     2
100
AcDbLine
 10
196.424443021
 20
159.420901295
 30
0.0
 11
198.024443021
 21
159.420901295
 31
0.0
  0
LINE
  5
376
330
1F
100
AcDbEntity
  8
2
  6
Continuous
 62
     1
100
AcDbLine
 10
196.717263344
 20
159.928080972
 30
0.0
 11
197.731622698
 21
159.928080972
 31
0.0
  0
LINE
  5
377
330
1F
100
AcDbEntity
  8
2
  6
Continuous
 62
     1
100
AcDbLine
 10
196.424443021
 20
159.420901295
 30
0.0
 11
194.824443021
 21
159.420901295
 31
0.0
  0
LINE
  5
378
330
1F
100
AcDbEntity
  8
2
  6
Continuous
 62
     1
100
AcDbLine
 10
196.424443021
 20
159.420901295
 30
0.0
 11
196.717263344
 21
159.928080972
 31
0.0
  0
LINE
  5
379
330
1F
100
AcDbEntity
  8
2
  6
Continuous
 62
     1
100
AcDbLine
 10
194.531622698
 20
159.928080972
 30
0.0
 11
194.824443021
 21
159.420901295
 31
0.0
  0
LINE
  5
37A
330
1F
100
AcDbEntity
  8
2
  6
Continuous
 62
     1
100
AcDbLine
 10
197.731622698
 20
159.928080972
 30
0.0
 11
198.024443021
 21
159.420901295
 31
0.0
  0
LINE
  5
37B
330
1F
100
AcDbEntity
  8
2
  6
Continuous
 62
     1
100
AcDbLine
 10
204.724443021
 20
158.920901295
 30
0.0
 11
204.724443021
 21
154.120901295
 31
0.0
  0
LINE
  5
37C
330
1F
100
AcDbEntity
  8
2
  6
Continuous
 62
     2
100
AcDbLine
 10
203.674443021
 20
153.620901295
 30
0.0
 11
204.174443021
 21
153.620901295
 31
0.0
  0
LINE
  5
37D
330
1F
100
AcDbEntity
  8
2
  6
Continuous
 62
     1
100
AcDbLine
 10
204.174443021
 20
153.620901295
 30
0.0
 11
204.724443021
 21
154.120901295
 31
0.0
  0
LINE
  5
37E
330
1F
100
AcDbEntity
  8
2
  6
Continuous
 62
     2
100
AcDbLine
 10
204.724443021
 20
154.120901295
 30
0.0
 11
203.674443021
 21
153.620901295
 31
0.0
  0
LINE
  5
37F
330
1F
100
AcDbEntity
  8
2
  6
Continuous
 62
     1
100
AcDbLine
 10
204.724443021
 20
158.920901295
 30
0.0
 11
203.674443021
 21
159.420901295
 31
0.0
  0
LINE
  5
380
330
1F
100
AcDbEntity
  8
2
  6
Continuous
 62
     1
100
AcDbLine
 10
190.424443021
 20
123.720901295
 30
0.0
 11
190.424443021
 21
127.770901295
 31
0.0
  0
LINE
  5
381
330
1F
100
AcDbEntity
  8
2
  6
Continuous
 62
     1
100
AcDbLine
 10
191.624443021
 20
163.020901295
 30
0.0
 11
191.624443021
 21
158.920901295
 31
0.0
  0
LINE
  5
382
330
1F
100
AcDbEntity
  8
2
  6
Continuous
 62
     1
100
AcDbLine
 10
177.124443021
 20
122.920901295
 30
0.0
 11
189.624443021
 21
122.920901295
 31
0.0
  0
LINE
  5
383
330
1F
100
AcDbEntity
  8
2
  6
Continuous
 62
     1
100
AcDbLine
 10
189.624443021
 20
121.720901295
 30
0.0
 11
177.124443021
 21
121.720901295
 31
0.0
  0
ARC
  5
384
330
1F
100
AcDbEntity
  8
2
  6
Continuous
 62
     1
100
AcDbCircle
 10
189.624443021
 20
123.720901295
 30
0.0
 40
2.0
100
AcDbArc
 50
270.0
 51
0.0
  0
LINE
  5
385
330
1F
100
AcDbEntity
  8
2
  6
Continuous
 62
     1
100
AcDbLine
 10
190.424443021
 20
123.720901295
 30
0.0
 11
189.624443021
 21
122.920901295
 31
0.0
  0
ARC
  5
386
330
1F
100
AcDbEntity
  8
2
  6
Continuous
 62
     2
100
AcDbCircle
 10
189.624443021
 20
123.720901295
 30
0.0
 40
0.8
100
AcDbArc
 50
270.0
 51
0.0
  0
LINE
  5
387
330
1F
100
AcDbEntity
  8
2
  6
Continuous
 62
     1
100
AcDbLine
 10
191.624443021
 20
163.020901295
 30
0.0
 11
190.424443021
 21
163.020901295
 31
0.0
  0
LINE
  5
388
330
1F
100
AcDbEntity
  8
2
  6
Continuous
 62
     1
100
AcDbLine
 10
191.624443021
 20
128.920901295
 30
0.0
 11
191.624443021
 21
123.720901295
 31
0.0
  0
LINE
  5
389
330
1F
100
AcDbEntity
  8
2
  6
Continuous
 62
     2
100
AcDbLine
 10
191.624443021
 20
158.920901295
 30
0.0
 11
191.624443021
 21
128.920901295
 31
0.0
  0
LINE
  5
38A
330
1F
100
AcDbEntity
  8
2
  6
Continuous
 62
     1
100
AcDbLine
 10
190.424443021
 20
134.670901295
 30
0.0
 11
190.424443021
 21
153.170901295
 31
0.0
  0
LINE
  5
38B
330
1F
100
AcDbEntity
  8
2
  6
Continuous
 62
     2
100
AcDbLine
 10
190.424443021
 20
134.670901295
 30
0.0
 11
190.424443021
 21
127.770901295
 31
0.0
  0
LINE
  5
38C
330
1F
100
AcDbEntity
  8
2
  6
Continuous
 62
     1
100
AcDbLine
 10
190.424443021
 20
160.070901295
 30
0.0
 11
190.424443021
 21
163.020901295
 31
0.0
  0
LINE
  5
38D
330
1F
100
AcDbEntity
  8
2
  6
Continuous
 62
     2
100
AcDbLine
 10
190.424443021
 20
160.070901295
 30
0.0
 11
190.424443021
 21
153.170901295
 31
0.0
  0
POINT
  5
38E
330
1F
100
AcDbEntity
  8
3
  6
Continuous
 62
     2
100
AcDbPoint
 10
205.279589912
 20
156.620901295
 30
0.0
  0
POINT
  5
38F
330
1F
100
AcDbEntity
  8
3
  6
Continuous
 62
     2
100
AcDbPoint
 10
205.706669878
 20
131.220901295
 30
0.0
  0
POINT
  5
390
330
1F
100
AcDbEntity
  8
3
  6
Continuous
 62
     2
100
AcDbPoint
 10
205.706669878
 20
131.220901295
 30
0.0
  0
POINT
  5
391
330
1F
100
AcDbEntity
  8
3
  6
Continuous
 62
     2
100
AcDbPoint
 10
189.624443021
 20
121.720901295
 30
0.0
  0
POINT
  5
392
330
1F
100
AcDbEntity
  8
3
  6
Continuous
 62
     2
100
AcDbPoint
 10
203.674443021
 20
159.420901295
 30
0.0
  0
POINT
  5
393
330
1F
100
AcDbEntity
  8
3
  6
Continuous
 62
     2
100
AcDbPoint
 10
189.624443021
 20
121.720901295
 30
0.0
  0
POINT
  5
394
330
1F
100
AcDbEntity
  8
3
  6
Continuous
 62
     2
100
AcDbPoint
 10
191.174443021
 20
143.920901295
 30
0.0
  0
POINT
  5
395
330
1F
100
AcDbEntity
  8
3
  6
Continuous
 62
     2
100
AcDbPoint
 10
177.124443021
 20
121.720901295
 30
0.0
  0
POINT
  5
396
330
1F
100
AcDbEntity
  8
3
  6
Continuous
 62
     2
100
AcDbPoint
 10
190.424443021
 20
163.020901295
 30
0.0
  0
POINT
  5
397
330
1F
100
AcDbEntity
  8
3
  6
Continuous
 62
     2
100
AcDbPoint
 10
177.124443021
 20
121.720901295
 30
0.0
  0
POINT
  5
398
330
1F
100
AcDbEntity
  8
3
  6
Continuous
 62
     2
100
AcDbPoint
 10
203.674443021
 20
128.420901295
 30
0.0
  0
POINT
  5
399
330
1F
100
AcDbEntity
  8
3
  6
Continuous
 62
     2
100
AcDbPoint
 10
190.624443021
 20
121.720901295
 30
0.0
  0
LINE
  5
39A
330
1F
100
AcDbEntity
  8
2
  6
LTYPE1
 62
     3
100
AcDbLine
 10
191.174443021
 20
143.920901295
 30
0.0
 11
205.174443021
 21
143.920901295
 31
0.0
  0
LINE
  5
39B
330
1F
100
AcDbEntity
  8
2
  6
LTYPE1
 62
     3
100
AcDbLine
 10
186.476066765
 20
156.620901295
 30
0.0
 11
205.279589912
 21
156.620901295
 31
0.0
  0
LINE
  5
39C
330
1F
100
AcDbEntity
  8
2
  6
LTYPE1
 62
     3
100
AcDbLine
 10
198.174443021
 20
161.420901295
 30
0.0
 11
198.174443021
 21
120.600827848
 31
0.0
  0
LINE
  5
39D
330
1F
100
AcDbEntity
  8
2
  6
LTYPE1
 62
     3
100
AcDbLine
 10
186.580660433
 20
131.220901295
 30
0.0
 11
205.706669878
 21
131.220901295
 31
0.0
  0
LINE
  5
39E
330
1F
100
AcDbEntity
  8
0
  6
Continuous
 62
     3
100
AcDbLine
 10
175.326607991
 20
121.682808157
 30
0.0
 11
160.526607991
 21
121.682808157
 31
0.0
  0
LINE
  5
39F
330
1F
100
AcDbEntity
  8
0
  6
Continuous
 62
     3
100
AcDbLine
 10
162.526607991
 20
121.682808157
 30
0.0
 11
163.173655603
 21
124.097622723
 31
0.0
  0
LINE
  5
3A0
330
1F
100
AcDbEntity
  8
0
  6
Continuous
 62
     3
100
AcDbLine
 10
162.526607991
 20
121.682808157
 30
0.0
 11
161.879560378
 21
124.097622723
 31
0.0
  0
LWPOLYLINE
  5
3A2
330
1F
100
AcDbEntity
  8
0
  6
Continuous
 62
     3
100
AcDbPolyline
 90
     3
 70
   128
 43
0.0
 10
162.526607991
 20
121.682808157
 10
162.526607991
 20
162.982808157
 10
161.879560378
 20
160.567993592
  0
LINE
  5
3A3
330
1F
100
AcDbEntity
  8
0
  6
Continuous
 62
     3
100
AcDbLine
 10
162.526607991
 20
162.982808157
 30
0.0
 11
163.173655603
 21
160.567993592
 31
0.0
  0
LINE
  5
3A4
330
1F
100
AcDbEntity
  8
0
  6
Continuous
 62
     3
100
AcDbLine
 10
188.026607991
 20
162.982808157
 30
0.0
 11
160.526607991
 21
162.982808157
 31
0.0
  0
MTEXT
  5
3A5
330
1F
100
AcDbEntity
  8
0
  6
Continuous
 62
     3
100
AcDbMText
 10
161.526607991
 20
138.282808157
 30
0.0
 40
3.0
 41
16.2
 71
     7
 72
     1
  1
\T1.167;\W0.600;４１．３
  7
KANJI0
 11
0.0
 21
1.0
 31
0.0
 73
     1
 44
1.0
  0
LINE
  5
3A6
330
1F
100
AcDbEntity
  8
0
  6
Continuous
 62
     3
100
AcDbLine
 10
175.526607991
 20
121.682808157
 30
0.0
 11
167.226607991
 21
121.682808157
 31
0.0
  0
LINE
  5
3A7
330
1F
100
AcDbEntity
  8
0
  6
Continuous
 62
     3
100
AcDbLine
 10
169.226607991
 20
121.682808157
 30
0.0
 11
169.873655603
 21
124.097622723
 31
0.0
  0
LINE
  5
3A8
330
1F
100
AcDbEntity
  8
0
  6
Continuous
 62
     3
100
AcDbLine
 10
169.226607991
 20
121.682808157
 30
0.0
 11
168.579560378
 21
124.097622723
 31
0.0
  0
LWPOLYLINE
  5
3AA
330
1F
100
AcDbEntity
  8
0
  6
Continuous
 62
     3
100
AcDbPolyline
 90
     3
 70
   128
 43
0.0
 10
169.226607991
 20
121.682808157
 10
169.226607991
 20
143.882808157
 10
168.579560378
 20
141.467993592
  0
LINE
  5
3AB
330
1F
100
AcDbEntity
  8
0
  6
Continuous
 62
     3
100
AcDbLine
 10
169.226607991
 20
143.882808157
 30
0.0
 11
169.873655603
 21
141.467993592
 31
0.0
  0
MTEXT
  5
3AC
330
1F
100
AcDbEntity
  8
0
  6
Continuous
 62
     3
100
AcDbMText
 10
168.226607991
 20
128.732808157
 30
0.0
 40
3.0
 41
16.2
 71
     7
 72
     1
  1
\T1.167;\W0.600;２２．２
  7
KANJI0
 11
0.0
 21
1.0
 31
0.0
 73
     1
 44
1.0
  0
LINE
  5
3AD
330
1F
100
AcDbEntity
  8
0
  6
Continuous
 62
     3
100
AcDbLine
 10
175.526607991
 20
121.682808157
 30
0.0
 11
172.026607991
 21
121.682808157
 31
0.0
  0
LINE
  5
3AE
330
1F
100
AcDbEntity
  8
0
  6
Continuous
 62
     3
100
AcDbLine
 10
174.026607991
 20
121.682808157
 30
0.0
 11
173.379560378
 21
119.267993592
 31
0.0
  0
LINE
  5
3AF
330
1F
100
AcDbEntity
  8
0
  6
Continuous
 62
     3
100
AcDbLine
 10
174.026607991
 20
121.682808157
 30
0.0
 11
174.673655603
 21
119.267993592
 31
0.0
  0
LWPOLYLINE
  5
3B1
330
1F
100
AcDbEntity
  8
0
  6
Continuous
 62
     3
100
AcDbPolyline
 90
     4
 70
   128
 43
0.0
 10
174.026607991
 20
117.932808157
 10
174.026607991
 20
121.682808157
 10
174.026607991
 20
122.882808157
 10
174.673655603
 20
125.297622723
  0
LINE
  5
3B2
330
1F
100
AcDbEntity
  8
0
  6
Continuous
 62
     3
100
AcDbLine
 10
174.026607991
 20
122.882808157
 30
0.0
 11
173.379560378
 21
125.297622723
 31
0.0
  0
LINE
  5
3B3
330
1F
100
AcDbEntity
  8
0
  6
Continuous
 62
     3
100
AcDbLine
 10
175.526607991
 20
122.882808157
 30
0.0
 11
172.026607991
 21
122.882808157
 31
0.0
  0
MTEXT
  5
3B4
330
1F
100
AcDbEntity
  8
0
  6
Continuous
 62
     3
100
AcDbMText
 10
173.026607991
 20
126.282808157
 30
0.0
 40
3.0
 41
12.0
 71
     7
 72
     1
  1
\T1.167;\W0.600;１．２
  7
KANJI0
 11
0.0
 21
1.0
 31
0.0
 73
     1
 44
1.0
  0
LINE
  5
3B5
330
1F
100
AcDbEntity
  8
0
  6
Continuous
 62
     3
100
AcDbLine
 10
174.026607991
 20
122.882808157
 30
0.0
 11
174.026607991
 21
132.582808157
 31
0.0
  0
LINE
  5
3B6
330
1F
100
AcDbEntity
  8
2
  6
Continuous
 62
     2
100
AcDbLine
 10
189.874443021
 20
134.670901295
 30
0.0
 11
189.874443021
 21
133.720901295
 31
0.0
  0
LINE
  5
3B7
330
1F
100
AcDbEntity
  8
2
  6
Continuous
 62
     2
100
AcDbLine
 10
189.074443021
 20
133.720901295
 30
0.0
 11
189.874443021
 21
133.720901295
 31
0.0
  0
LINE
  5
3B8
330
1F
100
AcDbEntity
  8
2
  6
Continuous
 62
     2
100
AcDbLine
 10
188.174443021
 20
133.845901295
 30
0.0
 11
188.616867891
 21
133.845901295
 31
0.0
  0
ARC
  5
3B9
330
1F
100
AcDbEntity
  8
2
  6
Continuous
 62
     2
100
AcDbCircle
 10
188.616867891
 20
132.945901295
 30
0.0
 40
0.9
100
AcDbArc
 50
59.441568214
 51
90.0
  0
LINE
  5
3BA
330
1F
100
AcDbEntity
  8
2
  6
Continuous
 62
     2
100
AcDbLine
 10
189.874443021
 20
134.670901295
 30
0.0
 11
190.424443021
 21
134.670901295
 31
0.0
  0
ARC
  5
3BB
330
1F
100
AcDbEntity
  8
2
  6
Continuous
 62
     2
100
AcDbCircle
 10
188.174443021
 20
132.945901295
 30
0.0
 40
0.9
100
AcDbArc
 50
90.0
 51
180.0
  0
ARC
  5
3BC
330
1F
100
AcDbEntity
  8
2
  6
Continuous
 62
     2
100
AcDbCircle
 10
188.174443021
 20
129.495901295
 30
0.0
 40
0.9
100
AcDbArc
 50
180.0
 51
270.0
  0
LINE
  5
3BD
330
1F
100
AcDbEntity
  8
2
  6
Continuous
 62
     2
100
AcDbLine
 10
189.874443021
 20
127.770901295
 30
0.0
 11
190.424443021
 21
127.770901295
 31
0.0
  0
LINE
  5
3BE
330
1F
100
AcDbEntity
  8
2
  6
Continuous
 62
     2
100
AcDbLine
 10
189.074443021
 20
128.720901295
 30
0.0
 11
189.874443021
 21
128.720901295
 31
0.0
  0
LINE
  5
3BF
330
1F
100
AcDbEntity
  8
2
  6
Continuous
 62
     2
100
AcDbLine
 10
188.174443021
 20
128.595901295
 30
0.0
 11
188.616867891
 21
128.595901295
 31
0.0
  0
ARC
  5
3C0
330
1F
100
AcDbEntity
  8
2
  6
Continuous
 62
     2
100
AcDbCircle
 10
188.616867891
 20
129.495901295
 30
0.0
 40
0.9
100
AcDbArc
 50
270.0
 51
300.558431786
  0
LINE
  5
3C1
330
1F
100
AcDbEntity
  8
2
  6
Continuous
 62
     2
100
AcDbLine
 10
189.874443021
 20
128.720901295
 30
0.0
 11
189.874443021
 21
127.770901295
 31
0.0
  0
LINE
  5
3C2
330
1F
100
AcDbEntity
  8
2
  6
Continuous
 62
     2
100
AcDbLine
 10
189.074443021
 20
133.720901295
 30
0.0
 11
189.074443021
 21
128.720901295
 31
0.0
  0
LINE
  5
3C3
330
1F
100
AcDbEntity
  8
2
  6
Continuous
 62
     2
100
AcDbLine
 10
189.874443021
 20
128.720901295
 30
0.0
 11
189.874443021
 21
133.720901295
 31
0.0
  0
LINE
  5
3C4
330
1F
100
AcDbEntity
  8
2
  6
Continuous
 62
     2
100
AcDbLine
 10
187.274443021
 20
129.495901295
 30
0.0
 11
187.274443021
 21
132.945901295
 31
0.0
  0
ARC
  5
3C5
330
1F
100
AcDbEntity
  8
2
  6
Continuous
 62
     2
100
AcDbCircle
 10
188.174443021
 20
158.345901295
 30
0.0
 40
0.9
100
AcDbArc
 50
90.0
 51
180.0
  0
LINE
  5
3C6
330
1F
100
AcDbEntity
  8
2
  6
Continuous
 62
     2
100
AcDbLine
 10
187.274443021
 20
154.895901295
 30
0.0
 11
187.274443021
 21
158.345901295
 31
0.0
  0
LINE
  5
3C7
330
1F
100
AcDbEntity
  8
2
  6
Continuous
 62
     2
100
AcDbLine
 10
189.874443021
 20
160.070901295
 30
0.0
 11
189.874443021
 21
159.120901295
 31
0.0
  0
LINE
  5
3C8
330
1F
100
AcDbEntity
  8
2
  6
Continuous
 62
     2
100
AcDbLine
 10
189.074443021
 20
159.120901295
 30
0.0
 11
189.874443021
 21
159.120901295
 31
0.0
  0
LINE
  5
3C9
330
1F
100
AcDbEntity
  8
2
  6
Continuous
 62
     2
100
AcDbLine
 10
188.174443021
 20
159.245901295
 30
0.0
 11
188.616867891
 21
159.245901295
 31
0.0
  0
ARC
  5
3CA
330
1F
100
AcDbEntity
  8
2
  6
Continuous
 62
     2
100
AcDbCircle
 10
188.616867891
 20
158.345901295
 30
0.0
 40
0.9
100
AcDbArc
 50
59.441568214
 51
90.0
  0
LINE
  5
3CB
330
1F
100
AcDbEntity
  8
2
  6
Continuous
 62
     2
100
AcDbLine
 10
189.874443021
 20
160.070901295
 30
0.0
 11
190.424443021
 21
160.070901295
 31
0.0
  0
ARC
  5
3CC
330
1F
100
AcDbEntity
  8
2
  6
Continuous
 62
     2
100
AcDbCircle
 10
188.174443021
 20
154.895901295
 30
0.0
 40
0.9
100
AcDbArc
 50
180.0
 51
270.0
  0
LINE
  5
3CD
330
1F
100
AcDbEntity
  8
2
  6
Continuous
 62
     2
100
AcDbLine
 10
189.074443021
 20
154.120901295
 30
0.0
 11
189.874443021
 21
154.120901295
 31
0.0
  0
LINE
  5
3CE
330
1F
100
AcDbEntity
  8
2
  6
Continuous
 62
     2
100
AcDbLine
 10
188.174443021
 20
153.995901295
 30
0.0
 11
188.616867891
 21
153.995901295
 31
0.0
  0
ARC
  5
3CF
330
1F
100
AcDbEntity
  8
2
  6
Continuous
 62
     2
100
AcDbCircle
 10
188.616867891
 20
154.895901295
 30
0.0
 40
0.9
100
AcDbArc
 50
270.0
 51
300.558431786
  0
LINE
  5
3D0
330
1F
100
AcDbEntity
  8
2
  6
Continuous
 62
     2
100
AcDbLine
 10
189.874443021
 20
153.170901295
 30
0.0
 11
190.424443021
 21
153.170901295
 31
0.0
  0
LINE
  5
3D1
330
1F
100
AcDbEntity
  8
2
  6
Continuous
 62
     2
100
AcDbLine
 10
189.874443021
 20
154.120901295
 30
0.0
 11
189.874443021
 21
153.170901295
 31
0.0
  0
LINE
  5
3D2
330
1F
100
AcDbEntity
  8
2
  6
Continuous
 62
     2
100
AcDbLine
 10
189.074443021
 20
159.120901295
 30
0.0
 11
189.074443021
 21
154.120901295
 31
0.0
  0
LINE
  5
3D3
330
1F
100
AcDbEntity
  8
2
  6
Continuous
 62
     2
100
AcDbLine
 10
189.874443021
 20
154.120901295
 30
0.0
 11
189.874443021
 21
159.120901295
 31
0.0
  0
LINE
  5
3D4
330
1F
100
AcDbEntity
  8
2
  6
LTYPE1
 62
     3
100
AcDbLine
 10
191.174443021
 20
147.920901295
 30
0.0
 11
205.174443021
 21
147.920901295
 31
0.0
  0
LINE
  5
3D5
330
1F
100
AcDbEntity
  8
2
  6
LTYPE1
 62
     3
100
AcDbLine
 10
191.174443021
 20
139.920901295
 30
0.0
 11
205.174443021
 21
139.920901295
 31
0.0
  0
LINE
  5
3D6
330
1F
100
AcDbEntity
  8
0
  6
Continuous
 62
     3
100
AcDbLine
 10
189.726607991
 20
143.882808157
 30
0.0
 11
167.226607991
 21
143.882808157
 31
0.0
  0
LINE
  5
3D7
330
1F
100
AcDbEntity
  8
0
  6
Continuous
 62
     3
100
AcDbLine
 10
190.174443021
 20
143.920901295
 30
0.0
 11
178.664443021
 21
143.920901295
 31
0.0
  0
LINE
  5
3D8
330
1F
100
AcDbEntity
  8
0
  6
Continuous
 62
     3
100
AcDbLine
 10
180.664443021
 20
143.920901295
 30
0.0
 11
180.017395409
 21
141.506086729
 31
0.0
  0
LINE
  5
3D9
330
1F
100
AcDbEntity
  8
0
  6
Continuous
 62
     3
100
AcDbLine
 10
180.664443021
 20
143.920901295
 30
0.0
 11
181.311490634
 21
141.506086729
 31
0.0
  0
LWPOLYLINE
  5
3DB
330
1F
100
AcDbEntity
  8
0
  6
Continuous
 62
     3
100
AcDbPolyline
 90
     4
 70
   128
 43
0.0
 10
180.664443021
 20
140.170901295
 10
180.664443021
 20
143.920901295
 10
180.664443021
 20
147.920901295
 10
180.664443021
 20
153.470901295
  0
LINE
  5
3DC
330
1F
100
AcDbEntity
  8
0
  6
Continuous
 62
     3
100
AcDbLine
 10
180.664443021
 20
147.920901295
 30
0.0
 11
181.311490634
 21
150.335715861
 31
0.0
  0
LINE
  5
3DD
330
1F
100
AcDbEntity
  8
0
  6
Continuous
 62
     3
100
AcDbLine
 10
180.664443021
 20
147.920901295
 30
0.0
 11
180.017395409
 21
150.335715861
 31
0.0
  0
LINE
  5
3DE
330
1F
100
AcDbEntity
  8
0
  6
Continuous
 62
     3
100
AcDbLine
 10
190.174443021
 20
147.920901295
 30
0.0
 11
178.664443021
 21
147.920901295
 31
0.0
  0
MTEXT
  5
3DF
330
1F
100
AcDbEntity
  8
0
  6
Continuous
 62
     3
100
AcDbMText
 10
179.664443021
 20
151.670901295
 30
0.0
 40
3.0
 41
3.6
 71
     7
 72
     1
  1
\T1.167;\W0.600;４
  7
KANJI0
 11
0.0
 21
1.0
 31
0.0
 73
     1
 44
1.0
  0
LINE
  5
3E0
330
1F
100
AcDbEntity
  8
0
  6
Continuous
 62
     3
100
AcDbLine
 10
190.174443021
 20
143.920901295
 30
0.0
 11
178.644443021
 21
143.920901295
 31
0.0
  0
LINE
  5
3E1
330
1F
100
AcDbEntity
  8
0
  6
Continuous
 62
     3
100
AcDbLine
 10
180.644443021
 20
143.920901295
 30
0.0
 11
181.291490634
 21
146.335715861
 31
0.0
  0
LINE
  5
3E2
330
1F
100
AcDbEntity
  8
0
  6
Continuous
 62
     3
100
AcDbLine
 10
180.644443021
 20
143.920901295
 30
0.0
 11
179.997395409
 21
146.335715861
 31
0.0
  0
LWPOLYLINE
  5
3E4
330
1F
100
AcDbEntity
  8
0
  6
Continuous
 62
     3
100
AcDbPolyline
 90
     4
 70
   128
 43
0.0
 10
180.644443021
 20
147.670901295
 10
180.644443021
 20
143.920901295
 10
180.644443021
 20
139.920901295
 10
180.644443021
 20
134.370901295
  0
LINE
  5
3E5
330
1F
100
AcDbEntity
  8
0
  6
Continuous
 62
     3
100
AcDbLine
 10
180.644443021
 20
139.920901295
 30
0.0
 11
179.997395409
 21
137.506086729
 31
0.0
  0
LINE
  5
3E6
330
1F
100
AcDbEntity
  8
0
  6
Continuous
 62
     3
100
AcDbLine
 10
180.644443021
 20
139.920901295
 30
0.0
 11
181.291490634
 21
137.506086729
 31
0.0
  0
LINE
  5
3E7
330
1F
100
AcDbEntity
  8
0
  6
Continuous
 62
     3
100
AcDbLine
 10
190.174443021
 20
139.920901295
 30
0.0
 11
178.644443021
 21
139.920901295
 31
0.0
  0
MTEXT
  5
3E8
330
1F
100
AcDbEntity
  8
0
  6
Continuous
 62
     3
100
AcDbMText
 10
179.644443021
 20
134.370901295
 30
0.0
 40
3.0
 41
3.6
 71
     7
 72
     1
  1
\T1.167;\W0.600;４
  7
KANJI0
 11
0.0
 21
1.0
 31
0.0
 73
     1
 44
1.0
  0
LINE
  5
3E9
330
1F
100
AcDbEntity
  8
2
  6
Continuous
 62
     1
100
AcDbLine
 10
399.358249744
 20
122.920901295
 30
0.0
 11
399.358249744
 21
121.720901295
 31
0.0
  0
LINE
  5
3EA
330
1F
100
AcDbEntity
  8
2
  6
Continuous
 62
     1
100
AcDbLine
 10
386.058249744
 20
123.720901295
 30
0.0
 11
386.058249744
 21
127.770901295
 31
0.0
  0
LINE
  5
3EB
330
1F
100
AcDbEntity
  8
2
  6
Continuous
 62
     1
100
AcDbLine
 10
384.858249744
 20
163.020901295
 30
0.0
 11
384.858249744
 21
158.920901295
 31
0.0
  0
LINE
  5
3EC
330
1F
100
AcDbEntity
  8
2
  6
Continuous
 62
     1
100
AcDbLine
 10
399.358249744
 20
122.920901295
 30
0.0
 11
386.858249744
 21
122.920901295
 31
0.0
  0
LINE
  5
3ED
330
1F
100
AcDbEntity
  8
2
  6
Continuous
 62
     1
100
AcDbLine
 10
386.858249744
 20
121.720901295
 30
0.0
 11
399.358249744
 21
121.720901295
 31
0.0
  0
ARC
  5
3EE
330
1F
100
AcDbEntity
  8
2
  6
Continuous
 62
     1
100
AcDbCircle
 10
386.858249744
 20
123.720901295
 30
0.0
 40
2.0
100
AcDbArc
 50
180.0
 51
270.0
  0
LINE
  5
3EF
330
1F
100
AcDbEntity
  8
2
  6
Continuous
 62
     1
100
AcDbLine
 10
386.058249744
 20
123.720901295
 30
0.0
 11
386.858249744
 21
122.920901295
 31
0.0
  0
LINE
  5
3F0
330
1F
100
AcDbEntity
  8
2
  6
Continuous
 62
     1
100
AcDbLine
 10
384.858249744
 20
163.020901295
 30
0.0
 11
386.058249744
 21
163.020901295
 31
0.0
  0
LINE
  5
3F1
330
1F
100
AcDbEntity
  8
2
  6
Continuous
 62
     1
100
AcDbLine
 10
384.858249744
 20
128.920901295
 30
0.0
 11
384.858249744
 21
123.720901295
 31
0.0
  0
LINE
  5
3F2
330
1F
100
AcDbEntity
  8
2
  6
Continuous
 62
     2
100
AcDbLine
 10
384.858249744
 20
158.920901295
 30
0.0
 11
384.858249744
 21
128.920901295
 31
0.0
  0
LINE
  5
3F3
330
1F
100
AcDbEntity
  8
2
  6
Continuous
 62
     1
100
AcDbLine
 10
386.058249744
 20
134.670901295
 30
0.0
 11
386.058249744
 21
153.170901295
 31
0.0
  0
LINE
  5
3F4
330
1F
100
AcDbEntity
  8
2
  6
Continuous
 62
     2
100
AcDbLine
 10
386.058249744
 20
134.670901295
 30
0.0
 11
386.058249744
 21
127.770901295
 31
0.0
  0
LINE
  5
3F5
330
1F
100
AcDbEntity
  8
2
  6
Continuous
 62
     1
100
AcDbLine
 10
386.058249744
 20
160.070901295
 30
0.0
 11
386.058249744
 21
163.020901295
 31
0.0
  0
LINE
  5
3F6
330
1F
100
AcDbEntity
  8
2
  6
Continuous
 62
     2
100
AcDbLine
 10
386.058249744
 20
160.070901295
 30
0.0
 11
386.058249744
 21
153.170901295
 31
0.0
  0
POINT
  5
3F7
330
1F
100
AcDbEntity
  8
3
  6
Continuous
 62
     2
100
AcDbPoint
 10
371.203102854
 20
156.620901295
 30
0.0
  0
POINT
  5
3F8
330
1F
100
AcDbEntity
  8
3
  6
Continuous
 62
     2
100
AcDbPoint
 10
370.776022888
 20
131.220901295
 30
0.0
  0
POINT
  5
3F9
330
1F
100
AcDbEntity
  8
3
  6
Continuous
 62
     2
100
AcDbPoint
 10
370.776022888
 20
131.220901295
 30
0.0
  0
POINT
  5
3FA
330
1F
100
AcDbEntity
  8
3
  6
Continuous
 62
     2
100
AcDbPoint
 10
399.358249744
 20
121.720901295
 30
0.0
  0
POINT
  5
3FB
330
1F
100
AcDbEntity
  8
3
  6
Continuous
 62
     2
100
AcDbPoint
 10
386.058249744
 20
163.020901295
 30
0.0
  0
POINT
  5
3FC
330
1F
100
AcDbEntity
  8
3
  6
Continuous
 62
     2
100
AcDbPoint
 10
399.358249744
 20
121.720901295
 30
0.0
  0
LINE
  5
3FD
330
1F
100
AcDbEntity
  8
2
  6
LTYPE1
 62
     3
100
AcDbLine
 10
390.006626001
 20
156.620901295
 30
0.0
 11
371.203102854
 21
156.620901295
 31
0.0
  0
LINE
  5
3FE
330
1F
100
AcDbEntity
  8
2
  6
LTYPE1
 62
     3
100
AcDbLine
 10
378.308249744
 20
161.420901295
 30
0.0
 11
378.308249744
 21
120.600827848
 31
0.0
  0
LINE
  5
3FF
330
1F
100
AcDbEntity
  8
2
  6
LTYPE1
 62
     3
100
AcDbLine
 10
389.902032333
 20
131.220901295
 30
0.0
 11
370.776022888
 21
131.220901295
 31
0.0
  0
LINE
  5
400
330
1F
100
AcDbEntity
  8
2
  6
Continuous
 62
     1
100
AcDbLine
 10
371.758249744
 20
133.720901295
 30
0.0
 11
372.308249744
 21
134.220901295
 31
0.0
  0
LINE
  5
401
330
1F
100
AcDbEntity
  8
2
  6
Continuous
 62
     1
100
AcDbLine
 10
384.308249744
 20
134.220901295
 30
0.0
 11
384.858249744
 21
133.720901295
 31
0.0
  0
LINE
  5
402
330
1F
100
AcDbEntity
  8
2
  6
Continuous
 62
     2
100
AcDbLine
 10
381.108249744
 20
131.620705971
 30
0.0
 11
383.808249744
 21
131.620705971
 31
0.0
  0
LINE
  5
403
330
1F
100
AcDbEntity
  8
2
  6
Continuous
 62
     2
100
AcDbLine
 10
384.308249744
 20
132.120705971
 30
0.0
 11
380.608249744
 21
132.120705971
 31
0.0
  0
LINE
  5
404
330
1F
100
AcDbEntity
  8
2
  6
Continuous
 62
     1
100
AcDbLine
 10
383.808249744
 20
128.420901295
 30
0.0
 11
380.258249744
 21
128.420901295
 31
0.0
  0
CIRCLE
  5
405
330
1F
100
AcDbEntity
  8
2
  6
Continuous
 62
     2
100
AcDbCircle
 10
382.708249744
 20
130.020901295
 30
0.0
 40
1.25
  0
ARC
  5
406
330
1F
100
AcDbEntity
  8
2
  6
Continuous
 62
     2
100
AcDbCircle
 10
382.708249744
 20
130.520901295
 30
0.0
 40
0.15
100
AcDbArc
 50
21.317812547
 51
158.682187453
  0
ARC
  5
407
330
1F
100
AcDbEntity
  8
2
  6
Continuous
 62
     2
100
AcDbCircle
 10
382.708249744
 20
129.520901295
 30
0.0
 40
0.15
100
AcDbArc
 50
201.317812547
 51
338.682187453
  0
LINE
  5
408
330
1F
100
AcDbEntity
  8
2
  6
Continuous
 62
     2
100
AcDbLine
 10
376.008249744
 20
132.120705971
 30
0.0
 11
372.308249744
 21
132.120705971
 31
0.0
  0
LINE
  5
409
330
1F
100
AcDbEntity
  8
2
  6
Continuous
 62
     2
100
AcDbLine
 10
372.808249744
 20
131.620705971
 30
0.0
 11
375.508249744
 21
131.620705971
 31
0.0
  0
LINE
  5
40A
330
1F
100
AcDbEntity
  8
2
  6
Continuous
 62
     1
100
AcDbLine
 10
376.358249744
 20
128.420901295
 30
0.0
 11
372.808249744
 21
128.420901295
 31
0.0
  0
CIRCLE
  5
40B
330
1F
100
AcDbEntity
  8
2
  6
Continuous
 62
     2
100
AcDbCircle
 10
373.908249744
 20
130.020901295
 30
0.0
 40
1.25
  0
ARC
  5
40C
330
1F
100
AcDbEntity
  8
2
  6
Continuous
 62
     2
100
AcDbCircle
 10
374.341262446
 20
129.770901295
 30
0.0
 40
0.15
100
AcDbArc
 50
261.317812547
 51
38.682187453
  0
ARC
  5
40D
330
1F
100
AcDbEntity
  8
2
  6
Continuous
 62
     2
100
AcDbCircle
 10
374.341262446
 20
130.270901295
 30
0.0
 40
0.15
100
AcDbArc
 50
321.317812547
 51
98.682187453
  0
LINE
  5
40E
330
1F
100
AcDbEntity
  8
2
  6
Continuous
 62
     2
100
AcDbLine
 10
372.808249744
 20
128.420901295
 30
0.0
 11
372.308249744
 21
129.420901295
 31
0.0
  0
LINE
  5
40F
330
1F
100
AcDbEntity
  8
2
  6
Continuous
 62
     2
100
AcDbLine
 10
372.808249744
 20
131.620705971
 30
0.0
 11
372.308249744
 21
132.120705971
 31
0.0
  0
LINE
  5
410
330
1F
100
AcDbEntity
  8
2
  6
Continuous
 62
     1
100
AcDbLine
 10
372.808249744
 20
128.420901295
 30
0.0
 11
371.758249744
 21
128.920901295
 31
0.0
  0
LINE
  5
411
330
1F
100
AcDbEntity
  8
2
  6
Continuous
 62
     2
100
AcDbLine
 10
372.308249744
 20
134.220901295
 30
0.0
 11
372.308249744
 21
129.420901295
 31
0.0
  0
LINE
  5
412
330
1F
100
AcDbEntity
  8
2
  6
Continuous
 62
     1
100
AcDbLine
 10
371.758249744
 20
128.920901295
 30
0.0
 11
371.758249744
 21
133.720901295
 31
0.0
  0
LINE
  5
413
330
1F
100
AcDbEntity
  8
2
  6
Continuous
 62
     2
100
AcDbLine
 10
371.758249744
 20
129.970901295
 30
0.0
 11
372.308249744
 21
130.470901295
 31
0.0
  0
ARC
  5
414
330
1F
100
AcDbEntity
  8
2
  6
Continuous
 62
     2
100
AcDbCircle
 10
373.908249744
 20
130.520901295
 30
0.0
 40
0.15
100
AcDbArc
 50
21.317812547
 51
158.682187453
  0
ARC
  5
415
330
1F
100
AcDbEntity
  8
2
  6
Continuous
 62
     2
100
AcDbCircle
 10
373.535618443
 20
130.666317641
 30
0.0
 40
0.25
100
AcDbArc
 50
261.317812547
 51
338.682187453
  0
ARC
  5
416
330
1F
100
AcDbEntity
  8
2
  6
Continuous
 62
     2
100
AcDbCircle
 10
373.475237043
 20
130.270901295
 30
0.0
 40
0.15
100
AcDbArc
 50
81.317812547
 51
218.682187453
  0
ARC
  5
417
330
1F
100
AcDbEntity
  8
2
  6
Continuous
 62
     2
100
AcDbCircle
 10
373.162987143
 20
130.020901295
 30
0.0
 40
0.25
100
AcDbArc
 50
321.317812547
 51
38.682187453
  0
ARC
  5
418
330
1F
100
AcDbEntity
  8
2
  6
Continuous
 62
     2
100
AcDbCircle
 10
373.475237043
 20
129.770901295
 30
0.0
 40
0.15
100
AcDbArc
 50
141.317812547
 51
278.682187453
  0
ARC
  5
419
330
1F
100
AcDbEntity
  8
2
  6
Continuous
 62
     2
100
AcDbCircle
 10
373.535618443
 20
129.375484949
 30
0.0
 40
0.25
100
AcDbArc
 50
21.317812547
 51
98.682187453
  0
ARC
  5
41A
330
1F
100
AcDbEntity
  8
2
  6
Continuous
 62
     2
100
AcDbCircle
 10
373.908249744
 20
129.520901295
 30
0.0
 40
0.15
100
AcDbArc
 50
201.317812547
 51
338.682187453
  0
ARC
  5
41B
330
1F
100
AcDbEntity
  8
2
  6
Continuous
 62
     2
100
AcDbCircle
 10
374.280881045
 20
129.375484949
 30
0.0
 40
0.25
100
AcDbArc
 50
81.317812547
 51
158.682187453
  0
ARC
  5
41C
330
1F
100
AcDbEntity
  8
2
  6
Continuous
 62
     2
100
AcDbCircle
 10
374.653512346
 20
130.020901295
 30
0.0
 40
0.25
100
AcDbArc
 50
141.317812547
 51
218.682187453
  0
ARC
  5
41D
330
1F
100
AcDbEntity
  8
2
  6
Continuous
 62
     2
100
AcDbCircle
 10
374.280881045
 20
130.666317641
 30
0.0
 40
0.25
100
AcDbArc
 50
201.317812547
 51
278.682187453
  0
LINE
  5
41E
330
1F
100
AcDbEntity
  8
2
  6
Continuous
 62
     2
100
AcDbLine
 10
380.608249744
 20
131.24932842
 30
0.0
 11
376.008249744
 21
131.24932842
 31
0.0
  0
LINE
  5
41F
330
1F
100
AcDbEntity
  8
2
  6
Continuous
 62
     2
100
AcDbLine
 10
376.358249744
 20
130.149359985
 30
0.0
 11
376.358249744
 21
128.420901295
 31
0.0
  0
LINE
  5
420
330
1F
100
AcDbEntity
  8
2
  6
Continuous
 62
     2
100
AcDbLine
 10
375.508249744
 20
129.870470196
 30
0.0
 11
376.308874842
 21
129.870470196
 31
0.0
  0
LINE
  5
421
330
1F
100
AcDbEntity
  8
2
  6
Continuous
 62
     2
100
AcDbLine
 10
375.508249744
 20
130.74932842
 30
0.0
 11
376.008249744
 21
131.24932842
 31
0.0
  0
LINE
  5
422
330
1F
100
AcDbEntity
  8
2
  6
Continuous
 62
     2
100
AcDbLine
 10
376.008249744
 20
131.24932842
 30
0.0
 11
376.008249744
 21
132.120705971
 31
0.0
  0
LINE
  5
423
330
1F
100
AcDbEntity
  8
2
  6
Continuous
 62
     2
100
AcDbLine
 10
376.008249744
 20
132.120705971
 30
0.0
 11
375.508249744
 21
131.620705971
 31
0.0
  0
LINE
  5
424
330
1F
100
AcDbEntity
  8
2
  6
Continuous
 62
     2
100
AcDbLine
 10
375.508249744
 20
131.620705971
 30
0.0
 11
375.508249744
 21
128.420901295
 31
0.0
  0
LINE
  5
425
330
1F
100
AcDbEntity
  8
2
  6
Continuous
 62
     2
100
AcDbLine
 10
375.433298576
 20
131.620705971
 30
0.0
 11
375.508249744
 21
131.320901295
 31
0.0
  0
LINE
  5
426
330
1F
100
AcDbEntity
  8
2
  6
Continuous
 62
     2
100
AcDbLine
 10
376.308874842
 20
129.799759518
 30
0.0
 11
375.608249744
 21
129.799759518
 31
0.0
  0
LINE
  5
427
330
1F
100
AcDbEntity
  8
2
  6
Continuous
 62
     2
100
AcDbLine
 10
375.608249744
 20
129.870470196
 30
0.0
 11
375.608249744
 21
128.420901295
 31
0.0
  0
LINE
  5
428
330
1F
100
AcDbEntity
  8
2
  6
Continuous
 62
     2
100
AcDbLine
 10
380.258249744
 20
130.149359985
 30
0.0
 11
380.258249744
 21
128.420901295
 31
0.0
  0
LINE
  5
429
330
1F
100
AcDbEntity
  8
2
  6
Continuous
 62
     2
100
AcDbLine
 10
380.307624647
 20
129.870470196
 30
0.0
 11
381.108249744
 21
129.870470196
 31
0.0
  0
LINE
  5
42A
330
1F
100
AcDbEntity
  8
2
  6
Continuous
 62
     2
100
AcDbLine
 10
380.608249744
 20
131.24932842
 30
0.0
 11
381.108249744
 21
130.74932842
 31
0.0
  0
LINE
  5
42B
330
1F
100
AcDbEntity
  8
2
  6
Continuous
 62
     2
100
AcDbLine
 10
380.608249744
 20
132.120705971
 30
0.0
 11
381.108249744
 21
131.620705971
 31
0.0
  0
LINE
  5
42C
330
1F
100
AcDbEntity
  8
2
  6
Continuous
 62
     2
100
AcDbLine
 10
381.008249744
 20
129.799759518
 30
0.0
 11
380.307624647
 21
129.799759518
 31
0.0
  0
LINE
  5
42D
330
1F
100
AcDbEntity
  8
2
  6
Continuous
 62
     2
100
AcDbLine
 10
380.608249744
 20
132.120705971
 30
0.0
 11
380.608249744
 21
131.24932842
 31
0.0
  0
LINE
  5
42E
330
1F
100
AcDbEntity
  8
2
  6
Continuous
 62
     2
100
AcDbLine
 10
381.108249744
 20
128.420901295
 30
0.0
 11
381.108249744
 21
131.620705971
 31
0.0
  0
LINE
  5
42F
330
1F
100
AcDbEntity
  8
2
  6
Continuous
 62
     2
100
AcDbLine
 10
381.108249744
 20
131.320901295
 30
0.0
 11
381.183200913
 21
131.620705971
 31
0.0
  0
LINE
  5
430
330
1F
100
AcDbEntity
  8
2
  6
Continuous
 62
     2
100
AcDbLine
 10
381.008249744
 20
129.870470196
 30
0.0
 11
381.008249744
 21
128.420901295
 31
0.0
  0
ARC
  5
431
330
1F
100
AcDbEntity
  8
2
  6
Continuous
 62
     2
100
AcDbCircle
 10
382.335618443
 20
130.666317641
 30
0.0
 40
0.25
100
AcDbArc
 50
261.317812547
 51
338.682187453
  0
ARC
  5
432
330
1F
100
AcDbEntity
  8
2
  6
Continuous
 62
     2
100
AcDbCircle
 10
382.275237043
 20
130.270901295
 30
0.0
 40
0.15
100
AcDbArc
 50
81.317812547
 51
218.682187453
  0
ARC
  5
433
330
1F
100
AcDbEntity
  8
2
  6
Continuous
 62
     2
100
AcDbCircle
 10
381.962987143
 20
130.020901295
 30
0.0
 40
0.25
100
AcDbArc
 50
321.317812547
 51
38.682187453
  0
ARC
  5
434
330
1F
100
AcDbEntity
  8
2
  6
Continuous
 62
     2
100
AcDbCircle
 10
382.275237043
 20
129.770901295
 30
0.0
 40
0.15
100
AcDbArc
 50
141.317812547
 51
278.682187453
  0
ARC
  5
435
330
1F
100
AcDbEntity
  8
2
  6
Continuous
 62
     2
100
AcDbCircle
 10
382.335618443
 20
129.375484949
 30
0.0
 40
0.25
100
AcDbArc
 50
21.317812547
 51
98.682187453
  0
LINE
  5
436
330
1F
100
AcDbEntity
  8
2
  6
Continuous
 62
     1
100
AcDbLine
 10
384.858249744
 20
128.920901295
 30
0.0
 11
383.808249744
 21
128.420901295
 31
0.0
  0
LINE
  5
437
330
1F
100
AcDbEntity
  8
2
  6
Continuous
 62
     2
100
AcDbLine
 10
384.308249744
 20
130.470901295
 30
0.0
 11
384.858249744
 21
129.970901295
 31
0.0
  0
LINE
  5
438
330
1F
100
AcDbEntity
  8
2
  6
Continuous
 62
     2
100
AcDbLine
 10
384.308249744
 20
129.420901295
 30
0.0
 11
383.808249744
 21
128.420901295
 31
0.0
  0
LINE
  5
439
330
1F
100
AcDbEntity
  8
2
  6
Continuous
 62
     2
100
AcDbLine
 10
384.308249744
 20
132.120705971
 30
0.0
 11
383.808249744
 21
131.620705971
 31
0.0
  0
LINE
  5
43A
330
1F
100
AcDbEntity
  8
2
  6
Continuous
 62
     2
100
AcDbLine
 10
384.308249744
 20
134.220901295
 30
0.0
 11
384.308249744
 21
129.420901295
 31
0.0
  0
ARC
  5
43B
330
1F
100
AcDbEntity
  8
2
  6
Continuous
 62
     2
100
AcDbCircle
 10
383.080881045
 20
129.375484949
 30
0.0
 40
0.25
100
AcDbArc
 50
81.317812547
 51
158.682187453
  0
ARC
  5
43C
330
1F
100
AcDbEntity
  8
2
  6
Continuous
 62
     2
100
AcDbCircle
 10
383.141262446
 20
129.770901295
 30
0.0
 40
0.15
100
AcDbArc
 50
261.317812547
 51
38.682187453
  0
ARC
  5
43D
330
1F
100
AcDbEntity
  8
2
  6
Continuous
 62
     2
100
AcDbCircle
 10
383.453512346
 20
130.020901295
 30
0.0
 40
0.25
100
AcDbArc
 50
141.317812547
 51
218.682187453
  0
ARC
  5
43E
330
1F
100
AcDbEntity
  8
2
  6
Continuous
 62
     2
100
AcDbCircle
 10
383.141262446
 20
130.270901295
 30
0.0
 40
0.15
100
AcDbArc
 50
321.317812547
 51
98.682187453
  0
ARC
  5
43F
330
1F
100
AcDbEntity
  8
2
  6
Continuous
 62
     2
100
AcDbCircle
 10
383.080881045
 20
130.666317641
 30
0.0
 40
0.25
100
AcDbArc
 50
201.317812547
 51
278.682187453
  0
LINE
  5
440
330
1F
100
AcDbEntity
  8
2
  6
Continuous
 62
     1
100
AcDbLine
 10
384.858249744
 20
133.720901295
 30
0.0
 11
384.858249744
 21
128.920901295
 31
0.0
  0
LINE
  5
441
330
1F
100
AcDbEntity
  8
2
  6
Continuous
 62
     2
100
AcDbLine
 10
375.688249744
 20
158.920901295
 30
0.0
 11
383.808249744
 21
158.920901295
 31
0.0
  0
LINE
  5
442
330
1F
100
AcDbEntity
  8
2
  6
Continuous
 62
     1
100
AcDbLine
 10
381.951070067
 20
159.928080972
 30
0.0
 11
382.965429421
 21
159.928080972
 31
0.0
  0
CIRCLE
  5
443
330
1F
100
AcDbEntity
  8
2
  6
Continuous
 62
     2
100
AcDbCircle
 10
373.908249744
 20
157.820901295
 30
0.0
 40
1.25
  0
ARC
  5
444
330
1F
100
AcDbEntity
  8
2
  6
Continuous
 62
     2
100
AcDbCircle
 10
374.308249744
 20
157.420901295
 30
0.0
 40
1.38
100
AcDbArc
 50
270.0
 51
0.0
  0
ARC
  5
445
330
1F
100
AcDbEntity
  8
2
  6
Continuous
 62
     2
100
AcDbCircle
 10
374.308249744
 20
157.420901295
 30
0.0
 40
1.88
100
AcDbArc
 50
270.0
 51
0.0
  0
LINE
  5
446
330
1F
100
AcDbEntity
  8
2
  6
Continuous
 62
     2
100
AcDbLine
 10
372.308249744
 20
153.620901295
 30
0.0
 11
372.308249744
 21
158.420901295
 31
0.0
  0
ARC
  5
447
330
1F
100
AcDbEntity
  8
2
  6
Continuous
 62
     2
100
AcDbCircle
 10
377.258249744
 20
151.920901295
 30
0.0
 40
3.25
100
AcDbArc
 50
59.411725786
 51
300.588274214
  0
ARC
  5
448
330
1F
100
AcDbEntity
  8
2
  6
Continuous
 62
     2
100
AcDbCircle
 10
377.258249744
 20
151.920901295
 30
0.0
 40
3.75
100
AcDbArc
 50
58.822553729
 51
301.177446271
  0
ARC
  5
449
330
1F
100
AcDbEntity
  8
2
  6
Continuous
 62
     2
100
AcDbCircle
 10
377.258249744
 20
143.920901295
 30
0.0
 40
3.1
100
AcDbArc
 50
339.62565058
 51
200.37434942
  0
ARC
  5
44A
330
1F
100
AcDbEntity
  8
2
  6
Continuous
 62
     2
100
AcDbCircle
 10
377.258249744
 20
143.920901295
 30
0.0
 40
3.11
100
AcDbArc
 50
200.389255137
 51
209.610744863
  0
LINE
  5
44B
330
1F
100
AcDbEntity
  8
2
  6
Continuous
 62
     2
100
AcDbLine
 10
373.888678959
 20
142.625489113
 30
0.0
 11
375.454724837
 21
143.355748299
 31
0.0
  0
LINE
  5
44C
330
1F
100
AcDbEntity
  8
2
  6
Continuous
 62
     2
100
AcDbLine
 10
372.808249744
 20
131.620705971
 30
0.0
 11
372.808249744
 21
156.040901295
 31
0.0
  0
LINE
  5
44D
330
1F
100
AcDbEntity
  8
2
  6
Continuous
 62
     1
100
AcDbLine
 10
372.308249744
 20
153.620901295
 30
0.0
 11
372.308249744
 21
134.220901295
 31
0.0
  0
ARC
  5
44E
330
1F
100
AcDbEntity
  8
2
  6
Continuous
 62
     2
100
AcDbCircle
 10
377.258249744
 20
143.920901295
 30
0.0
 40
3.61
100
AcDbArc
 50
201.028969832
 51
208.971030168
  0
LINE
  5
44F
330
1F
100
AcDbEntity
  8
2
  6
Continuous
 62
     2
100
AcDbLine
 10
372.308249744
 20
155.540901295
 30
0.0
 11
372.808249744
 21
156.040901295
 31
0.0
  0
LINE
  5
450
330
1F
100
AcDbEntity
  8
2
  6
Continuous
 62
     1
100
AcDbLine
 10
372.308249744
 20
153.620901295
 30
0.0
 11
371.758249744
 21
154.120901295
 31
0.0
  0
LINE
  5
451
330
1F
100
AcDbEntity
  8
2
  6
Continuous
 62
     2
100
AcDbLine
 10
374.308249744
 20
156.040901295
 30
0.0
 11
372.808249744
 21
156.040901295
 31
0.0
  0
LINE
  5
452
330
1F
100
AcDbEntity
  8
2
  6
Continuous
 62
     2
100
AcDbLine
 10
372.308249744
 20
155.540901295
 30
0.0
 11
374.308249744
 21
155.540901295
 31
0.0
  0
ARC
  5
453
330
1F
100
AcDbEntity
  8
2
  6
Continuous
 62
     2
100
AcDbCircle
 10
377.258249744
 20
143.920901295
 30
0.0
 40
2.6
100
AcDbArc
 50
116.30736218
 51
155.69263782
  0
ARC
  5
454
330
1F
100
AcDbEntity
  8
2
  6
Continuous
 62
     2
100
AcDbCircle
 10
377.258249744
 20
143.920901295
 30
0.0
 40
2.6
100
AcDbArc
 50
24.30736218
 51
63.69263782
  0
ARC
  5
455
330
1F
100
AcDbEntity
  8
2
  6
Continuous
 62
     2
100
AcDbCircle
 10
377.258249744
 20
143.920901295
 30
0.0
 40
1.89
100
AcDbArc
 50
25.552071421
 51
62.447928579
  0
ARC
  5
456
330
1F
100
AcDbEntity
  8
2
  6
Continuous
 62
     2
100
AcDbCircle
 10
377.258249744
 20
143.920901295
 30
0.0
 40
1.89
100
AcDbArc
 50
117.552071421
 51
154.447928579
  0
CIRCLE
  5
457
330
1F
100
AcDbEntity
  8
2
  6
Continuous
 62
     2
100
AcDbCircle
 10
377.258249744
 20
143.920901295
 30
0.0
 40
1.49
  0
ARC
  5
458
330
1F
100
AcDbEntity
  8
2
  6
Continuous
 62
     2
100
AcDbCircle
 10
378.308249744
 20
132.220901295
 30
0.0
 40
3.0
100
AcDbArc
 50
60.073565133
 51
119.926434867
  0
ARC
  5
459
330
1F
100
AcDbEntity
  8
2
  6
Continuous
 62
     2
100
AcDbCircle
 10
378.308249744
 20
132.220901295
 30
0.0
 40
3.1
100
AcDbArc
 50
57.004114526
 51
122.995885474
  0
ARC
  5
45A
330
1F
100
AcDbEntity
  8
2
  6
Continuous
 62
     2
100
AcDbCircle
 10
377.258249744
 20
143.920901295
 30
0.0
 40
3.1
100
AcDbArc
 50
209.62565058
 51
330.37434942
  0
ARC
  5
45B
330
1F
100
AcDbEntity
  8
2
  6
Continuous
 62
     2
100
AcDbCircle
 10
377.258249744
 20
143.920901295
 30
0.0
 40
2.6
100
AcDbArc
 50
210.517734374
 51
329.482265626
  0
ARC
  5
45C
330
1F
100
AcDbEntity
  8
2
  6
Continuous
 62
     2
100
AcDbCircle
 10
377.258249744
 20
143.920901295
 30
0.0
 40
1.89
100
AcDbArc
 50
212.601083357
 51
327.398916643
  0
LINE
  5
45D
330
1F
100
AcDbEntity
  8
2
  6
Continuous
 62
     2
100
AcDbLine
 10
376.010271183
 20
144.15637849
 30
0.0
 11
378.258852958
 21
143.138793112
 31
0.0
  0
LINE
  5
45E
330
1F
100
AcDbEntity
  8
2
  6
Continuous
 62
     2
100
AcDbLine
 10
378.506228306
 20
143.6854241
 30
0.0
 11
376.257646531
 21
144.703009478
 31
0.0
  0
CIRCLE
  5
45F
330
1F
100
AcDbEntity
  8
2
  6
Continuous
 62
     2
100
AcDbCircle
 10
377.258249744
 20
143.920901295
 30
0.0
 40
1.32
  0
ARC
  5
460
330
1F
100
AcDbEntity
  8
2
  6
Continuous
 62
     2
100
AcDbCircle
 10
377.258249744
 20
143.920901295
 30
0.0
 40
2.6
100
AcDbArc
 50
162.30736218
 51
199.482265626
  0
LINE
  5
461
330
1F
100
AcDbEntity
  8
2
  6
Continuous
 62
     2
100
AcDbLine
 10
375.666033968
 20
142.902594405
 30
0.0
 11
374.09998809
 21
142.172335219
 31
0.0
  0
LINE
  5
462
330
1F
100
AcDbEntity
  8
2
  6
Continuous
 62
     2
100
AcDbLine
 10
375.445593351
 20
144.456043143
 30
0.0
 11
374.781228341
 21
144.711068977
 31
0.0
  0
LINE
  5
463
330
1F
100
AcDbEntity
  8
2
  6
Continuous
 62
     2
100
AcDbLine
 10
374.888738726
 20
144.991143105
 30
0.0
 11
375.553103735
 21
144.736117271
 31
0.0
  0
ARC
  5
464
330
1F
100
AcDbEntity
  8
2
  6
Continuous
 62
     2
100
AcDbCircle
 10
377.258249744
 20
143.920901295
 30
0.0
 40
1.89
100
AcDbArc
 50
163.552071421
 51
197.398916643
  0
ARC
  5
465
330
1F
100
AcDbEntity
  8
2
  6
Continuous
 62
     2
100
AcDbCircle
 10
377.258249744
 20
143.920901295
 30
0.0
 40
2.488888889
100
AcDbArc
 50
155.544812325
 51
162.455187675
  0
LINE
  5
466
330
1F
100
AcDbEntity
  8
2
  6
Continuous
 62
     2
100
AcDbLine
 10
377.863403387
 20
143.317752003
 30
0.0
 11
377.580423745
 21
142.692445389
 31
0.0
  0
LINE
  5
467
330
1F
100
AcDbEntity
  8
2
  6
Continuous
 62
     2
100
AcDbLine
 10
378.393758378
 20
144.489689605
 30
0.0
 11
378.110778736
 21
143.864382991
 31
0.0
  0
ARC
  5
468
330
1F
100
AcDbEntity
  8
2
  6
Continuous
 62
     2
100
AcDbCircle
 10
377.258249744
 20
143.920901295
 30
0.0
 40
2.6
100
AcDbArc
 50
340.517734374
 51
17.69263782
  0
ARC
  5
469
330
1F
100
AcDbEntity
  8
2
  6
Continuous
 62
     2
100
AcDbCircle
 10
377.258249744
 20
143.920901295
 30
0.0
 40
3.61
100
AcDbArc
 50
331.028969832
 51
338.971030168
  0
ARC
  5
46A
330
1F
100
AcDbEntity
  8
2
  6
Continuous
 62
     2
100
AcDbCircle
 10
377.258249744
 20
143.920901295
 30
0.0
 40
3.11
100
AcDbArc
 50
330.389255137
 51
339.610744863
  0
ARC
  5
46B
330
1F
100
AcDbEntity
  8
2
  6
Continuous
 62
     2
100
AcDbCircle
 10
377.258249744
 20
143.920901295
 30
0.0
 40
1.89
100
AcDbArc
 50
342.601083357
 51
16.447928579
  0
ARC
  5
46C
330
1F
100
AcDbEntity
  8
2
  6
Continuous
 62
     2
100
AcDbCircle
 10
377.258249744
 20
143.920901295
 30
0.0
 40
2.488888889
100
AcDbArc
 50
17.544812325
 51
24.455187675
  0
LINE
  5
46D
330
1F
100
AcDbEntity
  8
2
  6
Continuous
 62
     2
100
AcDbLine
 10
379.061774652
 20
143.355748299
 30
0.0
 11
380.62782053
 21
142.625489113
 31
0.0
  0
LINE
  5
46E
330
1F
100
AcDbEntity
  8
2
  6
Continuous
 62
     2
100
AcDbLine
 10
380.416511399
 20
142.172335219
 30
0.0
 11
378.850465521
 21
142.902594405
 31
0.0
  0
LINE
  5
46F
330
1F
100
AcDbEntity
  8
2
  6
Continuous
 62
     2
100
AcDbLine
 10
378.963395753
 20
144.736117271
 30
0.0
 11
379.627760763
 21
144.991143105
 31
0.0
  0
LINE
  5
470
330
1F
100
AcDbEntity
  8
2
  6
Continuous
 62
     2
100
AcDbLine
 10
379.735271148
 20
144.711068977
 30
0.0
 11
379.070906138
 21
144.456043143
 31
0.0
  0
LINE
  5
471
330
1F
100
AcDbEntity
  8
2
  6
Continuous
 62
     2
100
AcDbLine
 10
378.572421662
 20
154.233594999
 30
0.0
 11
379.49268615
 21
155.547868892
 31
0.0
  0
LINE
  5
472
330
1F
100
AcDbEntity
  8
2
  6
Continuous
 62
     2
100
AcDbLine
 10
379.49268615
 20
148.293933698
 30
0.0
 11
378.572421662
 21
149.608207591
 31
0.0
  0
ARC
  5
473
330
1F
100
AcDbEntity
  8
2
  6
Continuous
 62
     2
100
AcDbCircle
 10
377.258249744
 20
143.920901295
 30
0.0
 40
2.6
100
AcDbArc
 50
70.30736218
 51
109.69263782
  0
LINE
  5
474
330
1F
100
AcDbEntity
  8
2
  6
Continuous
 62
     2
100
AcDbLine
 10
376.382116611
 20
146.36883731
 30
0.0
 11
376.660173094
 21
145.713777286
 31
0.0
  0
ARC
  5
475
330
1F
100
AcDbEntity
  8
2
  6
Continuous
 62
     2
100
AcDbCircle
 10
377.258249744
 20
143.920901295
 30
0.0
 40
2.488888889
100
AcDbArc
 50
109.544812325
 51
116.455187675
  0
LINE
  5
476
330
1F
100
AcDbEntity
  8
2
  6
Continuous
 62
     2
100
AcDbLine
 10
376.384021638
 20
145.596557948
 30
0.0
 11
376.105965155
 21
146.251617971
 31
0.0
  0
ARC
  5
477
330
1F
100
AcDbEntity
  8
2
  6
Continuous
 62
     2
100
AcDbCircle
 10
377.258249744
 20
143.920901295
 30
0.0
 40
1.89
100
AcDbArc
 50
71.552071421
 51
108.447928579
  0
ARC
  5
478
330
1F
100
AcDbEntity
  8
2
  6
Continuous
 62
     2
100
AcDbCircle
 10
377.258249744
 20
143.920901295
 30
0.0
 40
2.488888889
100
AcDbArc
 50
63.544812325
 51
70.455187675
  0
LINE
  5
479
330
1F
100
AcDbEntity
  8
2
  6
Continuous
 62
     2
100
AcDbLine
 10
377.856326395
 20
145.713777286
 30
0.0
 11
378.134382878
 21
146.36883731
 31
0.0
  0
LINE
  5
47A
330
1F
100
AcDbEntity
  8
2
  6
Continuous
 62
     2
100
AcDbLine
 10
378.410534334
 20
146.251617971
 30
0.0
 11
378.132477851
 21
145.596557948
 31
0.0
  0
ARC
  5
47B
330
1F
100
AcDbEntity
  8
2
  6
Continuous
 62
     2
100
AcDbCircle
 10
377.258249744
 20
151.920901295
 30
0.0
 40
3.25
100
AcDbArc
 50
309.411725786
 51
50.588274214
  0
ARC
  5
47C
330
1F
100
AcDbEntity
  8
2
  6
Continuous
 62
     2
100
AcDbCircle
 10
377.258249744
 20
151.920901295
 30
0.0
 40
3.75
100
AcDbArc
 50
308.822553729
 51
51.177446271
  0
LINE
  5
47D
330
1F
100
AcDbEntity
  8
2
  6
Continuous
 62
     2
100
AcDbLine
 10
378.981997685
 20
149.894995809
 30
0.0
 11
379.902262172
 21
148.580721916
 31
0.0
  0
ARC
  5
47E
330
1F
100
AcDbEntity
  8
2
  6
Continuous
 62
     2
100
AcDbCircle
 10
377.258249744
 20
151.920901295
 30
0.0
 40
3.76
100
AcDbArc
 50
301.187627687
 51
308.812372313
  0
ARC
  5
47F
330
1F
100
AcDbEntity
  8
2
  6
Continuous
 62
     2
100
AcDbCircle
 10
377.258249744
 20
151.920901295
 30
0.0
 40
4.26
100
AcDbArc
 50
301.635638604
 51
308.364361396
  0
LINE
  5
480
330
1F
100
AcDbEntity
  8
2
  6
Continuous
 62
     2
100
AcDbLine
 10
379.902262172
 20
155.261080674
 30
0.0
 11
378.981997685
 21
153.946806781
 31
0.0
  0
ARC
  5
481
330
1F
100
AcDbEntity
  8
2
  6
Continuous
 62
     2
100
AcDbCircle
 10
377.258249744
 20
151.920901295
 30
0.0
 40
3.76
100
AcDbArc
 50
51.187627687
 51
58.812372313
  0
ARC
  5
482
330
1F
100
AcDbEntity
  8
2
  6
Continuous
 62
     2
100
AcDbCircle
 10
377.258249744
 20
151.920901295
 30
0.0
 40
4.26
100
AcDbArc
 50
51.635638604
 51
58.364361396
  0
ARC
  5
483
330
1F
100
AcDbEntity
  8
2
  6
Continuous
 62
     2
100
AcDbCircle
 10
374.405758823
 20
157.870748227
 30
0.0
 40
0.15
100
AcDbArc
 50
297.03935467
 51
74.403729577
  0
LINE
  5
484
330
1F
100
AcDbEntity
  8
2
  6
Continuous
 62
     1
100
AcDbLine
 10
378.458249744
 20
159.420901295
 30
0.0
 11
372.808249744
 21
159.420901295
 31
0.0
  0
LINE
  5
485
330
1F
100
AcDbEntity
  8
2
  6
Continuous
 62
     2
100
AcDbLine
 10
372.308249744
 20
158.420901295
 30
0.0
 11
372.808249744
 21
159.420901295
 31
0.0
  0
LINE
  5
486
330
1F
100
AcDbEntity
  8
2
  6
Continuous
 62
     1
100
AcDbLine
 10
371.758249744
 20
158.920901295
 30
0.0
 11
372.808249744
 21
159.420901295
 31
0.0
  0
LINE
  5
487
330
1F
100
AcDbEntity
  8
2
  6
Continuous
 62
     1
100
AcDbLine
 10
371.758249744
 20
154.120901295
 30
0.0
 11
371.758249744
 21
158.920901295
 31
0.0
  0
LINE
  5
488
330
1F
100
AcDbEntity
  8
2
  6
Continuous
 62
     2
100
AcDbLine
 10
372.308249744
 20
157.370901295
 30
0.0
 11
371.758249744
 21
157.870901295
 31
0.0
  0
ARC
  5
489
330
1F
100
AcDbEntity
  8
2
  6
Continuous
 62
     2
100
AcDbCircle
 10
373.616326495
 20
158.226833329
 30
0.0
 40
0.15
100
AcDbArc
 50
57.03935467
 51
194.403729577
  0
ARC
  5
48A
330
1F
100
AcDbEntity
  8
2
  6
Continuous
 62
     2
100
AcDbCircle
 10
373.228899707
 20
158.127332155
 30
0.0
 40
0.25
100
AcDbArc
 50
297.03935467
 51
14.403729577
  0
ARC
  5
48B
330
1F
100
AcDbEntity
  8
2
  6
Continuous
 62
     2
100
AcDbCircle
 10
373.410740666
 20
157.771054363
 30
0.0
 40
0.15
100
AcDbArc
 50
117.03935467
 51
254.403729577
  0
ARC
  5
48C
330
1F
100
AcDbEntity
  8
2
  6
Continuous
 62
     2
100
AcDbCircle
 10
373.303197816
 20
157.385782335
 30
0.0
 40
0.25
100
AcDbArc
 50
357.03935467
 51
74.403729577
  0
ARC
  5
48D
330
1F
100
AcDbEntity
  8
2
  6
Continuous
 62
     2
100
AcDbCircle
 10
373.702663915
 20
157.365122328
 30
0.0
 40
0.15
100
AcDbArc
 50
177.03935467
 51
314.403729577
  0
ARC
  5
48E
330
1F
100
AcDbEntity
  8
2
  6
Continuous
 62
     2
100
AcDbCircle
 10
373.982547853
 20
157.079351474
 30
0.0
 40
0.25
100
AcDbArc
 50
57.03935467
 51
134.403729577
  0
ARC
  5
48F
330
1F
100
AcDbEntity
  8
2
  6
Continuous
 62
     2
100
AcDbCircle
 10
374.200172993
 20
157.41496926
 30
0.0
 40
0.15
100
AcDbArc
 50
237.03935467
 51
14.403729577
  0
ARC
  5
490
330
1F
100
AcDbEntity
  8
2
  6
Continuous
 62
     2
100
AcDbCircle
 10
374.587599782
 20
157.514470434
 30
0.0
 40
0.25
100
AcDbArc
 50
117.03935467
 51
194.403729577
  0
ARC
  5
491
330
1F
100
AcDbEntity
  8
2
  6
Continuous
 62
     2
100
AcDbCircle
 10
374.513301673
 20
158.256020255
 30
0.0
 40
0.25
100
AcDbArc
 50
177.03935467
 51
254.403729577
  0
ARC
  5
492
330
1F
100
AcDbEntity
  8
2
  6
Continuous
 62
     2
100
AcDbCircle
 10
374.113835574
 20
158.276680262
 30
0.0
 40
0.15
100
AcDbArc
 50
357.03935467
 51
134.403729577
  0
ARC
  5
493
330
1F
100
AcDbEntity
  8
2
  6
Continuous
 62
     2
100
AcDbCircle
 10
373.833951635
 20
158.562451116
 30
0.0
 40
0.25
100
AcDbArc
 50
237.03935467
 51
314.403729577
  0
LINE
  5
494
330
1F
100
AcDbEntity
  8
2
  6
Continuous
 62
     1
100
AcDbLine
 10
378.458249744
 20
159.420901295
 30
0.0
 11
378.751070067
 21
159.928080972
 31
0.0
  0
LINE
  5
495
330
1F
100
AcDbEntity
  8
2
  6
Continuous
 62
     2
100
AcDbLine
 10
375.688249744
 20
158.920901295
 30
0.0
 11
375.688249744
 21
157.420901295
 31
0.0
  0
LINE
  5
496
330
1F
100
AcDbEntity
  8
2
  6
Continuous
 62
     2
100
AcDbLine
 10
376.188249744
 20
157.420901295
 30
0.0
 11
376.188249744
 21
159.420901295
 31
0.0
  0
LINE
  5
497
330
1F
100
AcDbEntity
  8
2
  6
Continuous
 62
     2
100
AcDbLine
 10
376.188249744
 20
159.420901295
 30
0.0
 11
375.688249744
 21
158.920901295
 31
0.0
  0
LINE
  5
498
330
1F
100
AcDbEntity
  8
2
  6
Continuous
 62
     1
100
AcDbLine
 10
379.765429421
 20
159.928080972
 30
0.0
 11
380.058249744
 21
159.420901295
 31
0.0
  0
LINE
  5
499
330
1F
100
AcDbEntity
  8
2
  6
Continuous
 62
     1
100
AcDbLine
 10
378.751070067
 20
159.928080972
 30
0.0
 11
379.765429421
 21
159.928080972
 31
0.0
  0
LINE
  5
49A
330
1F
100
AcDbEntity
  8
2
  6
Continuous
 62
     1
100
AcDbLine
 10
381.658249744
 20
159.420901295
 30
0.0
 11
381.951070067
 21
159.928080972
 31
0.0
  0
LINE
  5
49B
330
1F
100
AcDbEntity
  8
2
  6
Continuous
 62
     1
100
AcDbLine
 10
384.308249744
 20
134.220901295
 30
0.0
 11
384.308249744
 21
153.620901295
 31
0.0
  0
LINE
  5
49C
330
1F
100
AcDbEntity
  8
2
  6
Continuous
 62
     2
100
AcDbLine
 10
383.808249744
 20
159.420901295
 30
0.0
 11
383.808249744
 21
131.620705971
 31
0.0
  0
LINE
  5
49D
330
1F
100
AcDbEntity
  8
2
  6
Continuous
 62
     1
100
AcDbLine
 10
384.858249744
 20
154.120901295
 30
0.0
 11
384.308249744
 21
153.620901295
 31
0.0
  0
LINE
  5
49E
330
1F
100
AcDbEntity
  8
2
  6
Continuous
 62
     1
100
AcDbLine
 10
383.808249744
 20
159.420901295
 30
0.0
 11
384.858249744
 21
158.920901295
 31
0.0
  0
LINE
  5
49F
330
1F
100
AcDbEntity
  8
2
  6
Continuous
 62
     2
100
AcDbLine
 10
384.858249744
 20
157.870901295
 30
0.0
 11
384.308249744
 21
157.370901295
 31
0.0
  0
LINE
  5
4A0
330
1F
100
AcDbEntity
  8
2
  6
Continuous
 62
     2
100
AcDbLine
 10
383.808249744
 20
159.420901295
 30
0.0
 11
384.308249744
 21
158.420901295
 31
0.0
  0
LINE
  5
4A1
330
1F
100
AcDbEntity
  8
2
  6
Continuous
 62
     2
100
AcDbLine
 10
384.308249744
 20
158.420901295
 30
0.0
 11
383.808249744
 21
158.920901295
 31
0.0
  0
LINE
  5
4A2
330
1F
100
AcDbEntity
  8
2
  6
Continuous
 62
     1
100
AcDbLine
 10
382.965429421
 20
159.928080972
 30
0.0
 11
383.258249744
 21
159.420901295
 31
0.0
  0
LINE
  5
4A3
330
1F
100
AcDbEntity
  8
2
  6
Continuous
 62
     1
100
AcDbLine
 10
384.858249744
 20
158.920901295
 30
0.0
 11
384.858249744
 21
154.120901295
 31
0.0
  0
ARC
  5
4A4
330
1F
100
AcDbEntity
  8
2
  6
Continuous
 62
     2
100
AcDbCircle
 10
378.308249744
 20
128.609530478
 30
0.0
 40
2.639797941
100
AcDbArc
 50
54.735610317
 51
125.264389683
  0
ARC
  5
4A5
330
1F
100
AcDbEntity
  8
2
  6
Continuous
 62
     2
100
AcDbCircle
 10
378.308249744
 20
122.795633672
 30
0.0
 40
2.562910623
100
AcDbArc
 50
54.735610317
 51
125.264389683
  0
LINE
  5
4A6
330
1F
100
AcDbEntity
  8
2
  6
Continuous
 62
     1
100
AcDbLine
 10
376.358249744
 20
128.420901295
 30
0.0
 11
376.358249744
 21
123.979686071
 31
0.0
  0
LINE
  5
4A7
330
1F
100
AcDbEntity
  8
2
  6
Continuous
 62
     1
100
AcDbLine
 10
380.258249744
 20
128.420901295
 30
0.0
 11
380.258249744
 21
123.979686071
 31
0.0
  0
ARC
  5
4A8
330
1F
100
AcDbEntity
  8
2
  6
Continuous
 62
     1
100
AcDbCircle
 10
378.308249744
 20
125.163738471
 30
0.0
 40
2.562910623
100
AcDbArc
 50
234.735610317
 51
305.264389683
  0
ARC
  5
4A9
330
1F
100
AcDbEntity
  8
2
  6
Continuous
 62
     1
100
AcDbCircle
 10
377.470998263
 20
123.979686071
 30
0.0
 40
1.112748519
100
AcDbArc
 50
180.0
 51
234.735610317
  0
ARC
  5
4AA
330
1F
100
AcDbEntity
  8
2
  6
Continuous
 62
     2
100
AcDbCircle
 10
377.470998263
 20
123.979686071
 30
0.0
 40
1.112748519
100
AcDbArc
 50
125.264389683
 51
180.0
  0
ARC
  5
4AB
330
1F
100
AcDbEntity
  8
2
  6
Continuous
 62
     1
100
AcDbCircle
 10
379.145501225
 20
123.979686071
 30
0.0
 40
1.112748519
100
AcDbArc
 50
305.264389683
 51
0.0
  0
ARC
  5
4AC
330
1F
100
AcDbEntity
  8
2
  6
Continuous
 62
     2
100
AcDbCircle
 10
379.145501225
 20
123.979686071
 30
0.0
 40
1.112748519
100
AcDbArc
 50
0.0
 51
54.735610317
  0
ARC
  5
4AD
330
1F
100
AcDbEntity
  8
2
  6
Continuous
 62
     2
100
AcDbCircle
 10
377.445880719
 20
129.82910445
 30
0.0
 40
1.146130975
100
AcDbArc
 50
125.264389683
 51
198.384982349
  0
ARC
  5
4AE
330
1F
100
AcDbEntity
  8
2
  6
Continuous
 62
     2
100
AcDbCircle
 10
379.17061877
 20
129.82910445
 30
0.0
 40
1.146130975
100
AcDbArc
 50
341.615017651
 51
54.735610317
  0
LINE
  5
4AF
330
1F
100
AcDbEntity
  8
2
  6
Continuous
 62
     2
100
AcDbLine
 10
379.804912699
 20
134.820901295
 30
0.0
 11
384.308249744
 21
134.820901295
 31
0.0
  0
LINE
  5
4B0
330
1F
100
AcDbEntity
  8
2
  6
Continuous
 62
     2
100
AcDbLine
 10
376.81158679
 20
134.820901295
 30
0.0
 11
372.308249744
 21
134.820901295
 31
0.0
  0
LINE
  5
4B1
330
1F
100
AcDbEntity
  8
2
  6
Continuous
 62
     2
100
AcDbLine
 10
384.308249744
 20
153.620901295
 30
0.0
 11
384.308249744
 21
158.420901295
 31
0.0
  0
LINE
  5
4B2
330
1F
100
AcDbEntity
  8
2
  6
Continuous
 62
     2
100
AcDbLine
 10
378.458249744
 20
159.420901295
 30
0.0
 11
380.058249744
 21
159.420901295
 31
0.0
  0
LINE
  5
4B3
330
1F
100
AcDbEntity
  8
2
  6
Continuous
 62
     1
100
AcDbLine
 10
380.058249744
 20
159.420901295
 30
0.0
 11
381.658249744
 21
159.420901295
 31
0.0
  0
LINE
  5
4B4
330
1F
100
AcDbEntity
  8
2
  6
Continuous
 62
     2
100
AcDbLine
 10
381.658249744
 20
159.420901295
 30
0.0
 11
383.258249744
 21
159.420901295
 31
0.0
  0
LINE
  5
4B5
330
1F
100
AcDbEntity
  8
2
  6
Continuous
 62
     1
100
AcDbLine
 10
383.258249744
 20
159.420901295
 30
0.0
 11
383.808249744
 21
159.420901295
 31
0.0
  0
CIRCLE
  5
4B6
330
1F
100
AcDbEntity
  8
2
  6
Continuous
 62
     2
100
AcDbCircle
 10
377.258249744
 20
151.920901295
 30
0.0
 40
2.66
  0
CIRCLE
  5
4B7
330
1F
100
AcDbEntity
  8
2
  6
Continuous
 62
     2
100
AcDbCircle
 10
377.258249744
 20
151.920901295
 30
0.0
 40
2.585
  0
CIRCLE
  5
4B8
330
1F
100
AcDbEntity
  8
2
  6
Continuous
 62
     2
100
AcDbCircle
 10
377.258249744
 20
143.920901295
 30
0.0
 40
1.27
  0
POINT
  5
4B9
330
1F
100
AcDbEntity
  8
3
  6
Continuous
 62
     2
100
AcDbPoint
 10
383.808249744
 20
128.420901295
 30
0.0
  0
LINE
  5
4BA
330
1F
100
AcDbEntity
  8
0
  6
Continuous
 62
     2
100
AcDbLine
 10
372.308249744
 20
135.220901295
 30
0.0
 11
372.308249744
 21
138.987588574
 31
0.0
  0
POINT
  5
4BB
330
1F
100
AcDbEntity
  8
3
  6
Continuous
 62
     2
100
AcDbPoint
 10
372.308249744
 20
134.220901295
 30
0.0
  0
POINT
  5
4BC
330
1F
100
AcDbEntity
  8
3
  6
Continuous
 62
     2
100
AcDbPoint
 10
372.308249744
 20
137.987588574
 30
0.0
  0
ARC
  5
4BD
330
1F
100
AcDbEntity
  8
2
  6
Continuous
 62
     2
100
AcDbCircle
 10
388.308249744
 20
158.345901295
 30
0.0
 40
0.9
100
AcDbArc
 50
0.0
 51
90.0
  0
LINE
  5
4BE
330
1F
100
AcDbEntity
  8
2
  6
Continuous
 62
     2
100
AcDbLine
 10
386.608249744
 20
160.070901295
 30
0.0
 11
386.608249744
 21
159.120901295
 31
0.0
  0
LINE
  5
4BF
330
1F
100
AcDbEntity
  8
2
  6
Continuous
 62
     2
100
AcDbLine
 10
387.408249744
 20
159.120901295
 30
0.0
 11
386.608249744
 21
159.120901295
 31
0.0
  0
LINE
  5
4C0
330
1F
100
AcDbEntity
  8
2
  6
Continuous
 62
     2
100
AcDbLine
 10
388.308249744
 20
159.245901295
 30
0.0
 11
387.865824875
 21
159.245901295
 31
0.0
  0
ARC
  5
4C1
330
1F
100
AcDbEntity
  8
2
  6
Continuous
 62
     2
100
AcDbCircle
 10
387.865824875
 20
158.345901295
 30
0.0
 40
0.9
100
AcDbArc
 50
90.0
 51
120.558431786
  0
LINE
  5
4C2
330
1F
100
AcDbEntity
  8
2
  6
Continuous
 62
     2
100
AcDbLine
 10
386.608249744
 20
160.070901295
 30
0.0
 11
386.058249744
 21
160.070901295
 31
0.0
  0
ARC
  5
4C3
330
1F
100
AcDbEntity
  8
2
  6
Continuous
 62
     2
100
AcDbCircle
 10
388.308249744
 20
154.895901295
 30
0.0
 40
0.9
100
AcDbArc
 50
270.0
 51
0.0
  0
LINE
  5
4C4
330
1F
100
AcDbEntity
  8
2
  6
Continuous
 62
     2
100
AcDbLine
 10
387.408249744
 20
154.120901295
 30
0.0
 11
386.608249744
 21
154.120901295
 31
0.0
  0
LINE
  5
4C5
330
1F
100
AcDbEntity
  8
2
  6
Continuous
 62
     2
100
AcDbLine
 10
388.308249744
 20
153.995901295
 30
0.0
 11
387.865824875
 21
153.995901295
 31
0.0
  0
ARC
  5
4C6
330
1F
100
AcDbEntity
  8
2
  6
Continuous
 62
     2
100
AcDbCircle
 10
387.865824875
 20
154.895901295
 30
0.0
 40
0.9
100
AcDbArc
 50
239.441568214
 51
270.0
  0
LINE
  5
4C7
330
1F
100
AcDbEntity
  8
2
  6
Continuous
 62
     2
100
AcDbLine
 10
386.608249744
 20
153.170901295
 30
0.0
 11
386.058249744
 21
153.170901295
 31
0.0
  0
LINE
  5
4C8
330
1F
100
AcDbEntity
  8
2
  6
Continuous
 62
     2
100
AcDbLine
 10
386.608249744
 20
154.120901295
 30
0.0
 11
386.608249744
 21
153.170901295
 31
0.0
  0
LINE
  5
4C9
330
1F
100
AcDbEntity
  8
2
  6
Continuous
 62
     2
100
AcDbLine
 10
389.208249744
 20
154.895901295
 30
0.0
 11
389.208249744
 21
158.345901295
 31
0.0
  0
LINE
  5
4CA
330
1F
100
AcDbEntity
  8
2
  6
Continuous
 62
     2
100
AcDbLine
 10
387.408249744
 20
159.120901295
 30
0.0
 11
387.408249744
 21
154.120901295
 31
0.0
  0
LINE
  5
4CB
330
1F
100
AcDbEntity
  8
2
  6
Continuous
 62
     2
100
AcDbLine
 10
386.608249744
 20
154.120901295
 30
0.0
 11
386.608249744
 21
159.120901295
 31
0.0
  0
ARC
  5
4CC
330
1F
100
AcDbEntity
  8
2
  6
Continuous
 62
     2
100
AcDbCircle
 10
388.308249744
 20
132.945901295
 30
0.0
 40
0.9
100
AcDbArc
 50
0.0
 51
90.0
  0
LINE
  5
4CD
330
1F
100
AcDbEntity
  8
2
  6
Continuous
 62
     2
100
AcDbLine
 10
386.608249744
 20
134.670901295
 30
0.0
 11
386.608249744
 21
133.720901295
 31
0.0
  0
LINE
  5
4CE
330
1F
100
AcDbEntity
  8
2
  6
Continuous
 62
     2
100
AcDbLine
 10
387.408249744
 20
133.720901295
 30
0.0
 11
386.608249744
 21
133.720901295
 31
0.0
  0
LINE
  5
4CF
330
1F
100
AcDbEntity
  8
2
  6
Continuous
 62
     2
100
AcDbLine
 10
388.308249744
 20
133.845901295
 30
0.0
 11
387.865824875
 21
133.845901295
 31
0.0
  0
ARC
  5
4D0
330
1F
100
AcDbEntity
  8
2
  6
Continuous
 62
     2
100
AcDbCircle
 10
387.865824875
 20
132.945901295
 30
0.0
 40
0.9
100
AcDbArc
 50
90.0
 51
120.558431786
  0
LINE
  5
4D1
330
1F
100
AcDbEntity
  8
2
  6
Continuous
 62
     2
100
AcDbLine
 10
386.608249744
 20
134.670901295
 30
0.0
 11
386.058249744
 21
134.670901295
 31
0.0
  0
ARC
  5
4D2
330
1F
100
AcDbEntity
  8
2
  6
Continuous
 62
     2
100
AcDbCircle
 10
388.308249744
 20
129.495901295
 30
0.0
 40
0.9
100
AcDbArc
 50
270.0
 51
0.0
  0
LINE
  5
4D3
330
1F
100
AcDbEntity
  8
2
  6
Continuous
 62
     2
100
AcDbLine
 10
388.308249744
 20
128.595901295
 30
0.0
 11
387.865824875
 21
128.595901295
 31
0.0
  0
ARC
  5
4D4
330
1F
100
AcDbEntity
  8
2
  6
Continuous
 62
     2
100
AcDbCircle
 10
387.865824875
 20
129.495901295
 30
0.0
 40
0.9
100
AcDbArc
 50
239.441568214
 51
270.0
  0
LINE
  5
4D5
330
1F
100
AcDbEntity
  8
2
  6
Continuous
 62
     2
100
AcDbLine
 10
389.208249744
 20
129.495901295
 30
0.0
 11
389.208249744
 21
132.945901295
 31
0.0
  0
LINE
  5
4D6
330
1F
100
AcDbEntity
  8
2
  6
Continuous
 62
     2
100
AcDbLine
 10
387.408249744
 20
133.720901295
 30
0.0
 11
387.408249744
 21
128.720901295
 31
0.0
  0
LINE
  5
4D7
330
1F
100
AcDbEntity
  8
2
  6
Continuous
 62
     2
100
AcDbLine
 10
386.608249744
 20
127.770901295
 30
0.0
 11
386.058249744
 21
127.770901295
 31
0.0
  0
LINE
  5
4D8
330
1F
100
AcDbEntity
  8
2
  6
Continuous
 62
     2
100
AcDbLine
 10
386.608249744
 20
128.720901295
 30
0.0
 11
386.608249744
 21
127.770901295
 31
0.0
  0
LINE
  5
4D9
330
1F
100
AcDbEntity
  8
2
  6
Continuous
 62
     2
100
AcDbLine
 10
386.608249744
 20
128.720901295
 30
0.0
 11
386.608249744
 21
133.720901295
 31
0.0
  0
LINE
  5
4DA
330
1F
100
AcDbEntity
  8
2
  6
Continuous
 62
     2
100
AcDbLine
 10
387.408249744
 20
128.720901295
 30
0.0
 11
386.608249744
 21
128.720901295
 31
0.0
  0
CIRCLE
  5
4DB
330
1F
100
AcDbEntity
  8
0
  6
Continuous
 62
     4
100
AcDbCircle
 10
379.595822662
 20
155.893016199
 30
0.0
 40
10.0
  0
MTEXT
  5
4DC
330
1F
100
AcDbEntity
  8
0
  6
Continuous
 62
     3
100
AcDbMText
 10
380.93112007
 20
154.340582058
 30
0.0
 40
1.89
 41
2.8
 71
     7
 72
     1
  1
\W0.741;Ｄ
  7
KANJI3
 73
     1
 44
1.0
  0
MTEXT
  5
4DE
330
1F
100
AcDbEntity
  8
0
  6
Continuous
 62
     3
100
AcDbMText
 10
380.93112007
 20
147.340582058
 30
0.0
 40
1.89
 41
2.8
 71
     7
 72
     1
  1
\W0.741;Ｌ
  7
KANJI3
 73
     1
 44
1.0
  0
ARC
  5
4DF
330
1F
100
AcDbEntity
  8
2
  6
Continuous
 62
     2
100
AcDbCircle
 10
377.754032237
 20
152.977641433
 30
0.0
 40
0.1
100
AcDbArc
 50
55.0
 51
145.0
  0
LINE
  5
4E0
330
1F
100
AcDbEntity
  8
2
  6
Continuous
 62
     2
100
AcDbLine
 10
378.139050699
 20
152.830126063
 30
0.0
 11
377.811389881
 21
153.059556638
 31
0.0
  0
LINE
  5
4E1
330
1F
100
AcDbEntity
  8
2
  6
Continuous
 62
     2
100
AcDbLine
 10
376.37744879
 20
151.011676527
 30
0.0
 11
376.705109608
 21
150.782245952
 31
0.0
  0
ARC
  5
4E2
330
1F
100
AcDbEntity
  8
2
  6
Continuous
 62
     2
100
AcDbCircle
 10
376.762467251
 20
150.864161157
 30
0.0
 40
0.1
100
AcDbArc
 50
235.0
 51
325.0
  0
ARC
  5
4E3
330
1F
100
AcDbEntity
  8
2
  6
Continuous
 62
     2
100
AcDbCircle
 10
376.434806434
 20
151.093591731
 30
0.0
 40
0.1
100
AcDbArc
 50
145.0
 51
235.0
  0
LINE
  5
4E4
330
1F
100
AcDbEntity
  8
2
  6
Continuous
 62
     2
100
AcDbLine
 10
378.483687227
 20
154.194041432
 30
0.0
 11
376.352891229
 21
151.150949375
 31
0.0
  0
LINE
  5
4E5
330
1F
100
AcDbEntity
  8
2
  6
Continuous
 62
     2
100
AcDbLine
 10
376.844382456
 20
150.806803513
 30
0.0
 11
378.915062739
 21
153.764041432
 31
0.0
  0
CIRCLE
  5
4E6
330
1F
100
AcDbEntity
  8
2
  6
Continuous
 62
     2
100
AcDbCircle
 10
377.258249744
 20
151.920901295
 30
0.0
 40
1.785
  0
LINE
  5
4E7
330
1F
100
AcDbEntity
  8
0
  6
Continuous
 62
     7
100
AcDbLine
 10
299.216255788
 20
127.378208865
 30
0.0
 11
276.552234582
 21
127.378208865
 31
0.0
  0
LINE
  5
4E8
330
1F
100
AcDbEntity
  8
0
  6
Continuous
 62
     7
100
AcDbLine
 10
278.070107441
 20
123.578208864
 30
0.0
 11
299.336255788
 21
123.578208864
 31
0.0
  0
MTEXT
  5
4E9
330
1F
100
AcDbEntity
  8
0
  6
Continuous
 62
     3
100
AcDbMText
 10
216.300107441
 20
172.100084458
 30
0.0
 40
3.0
 41
24.0
 71
     7
 72
     1
  1
\W0.800;センサ金具
  7
KANJI4
 73
     1
 44
1.0
  0
MTEXT
  5
4EB
330
1F
100
AcDbEntity
  8
0
  6
Continuous
 62
     3
100
AcDbMText
 10
217.500107441
 20
168.100084458
 30
0.0
 40
3.0
 41
72.0
 71
     7
 72
     1
  1
\W0.800;ＰＺ－Ｂ４１Ａ　＜キーエンス＞
  7
KANJI4
 73
     1
 44
1.0
  0
MTEXT
  5
4EC
330
1F
100
AcDbEntity
  8
0
  6
Continuous
 62
     3
100
AcDbMText
 10
216.670107441
 20
182.490084458
 30
0.0
 40
3.0
 41
14.4
 71
     7
 72
     1
  1
\W0.800;センサ
  7
KANJI4
 73
     1
 44
1.0
  0
MTEXT
  5
4ED
330
1F
100
AcDbEntity
  8
0
  6
Continuous
 62
     3
100
AcDbMText
 10
217.870107441
 20
178.490084458
 30
0.0
 40
3.0
 41
72.0
 71
     7
 72
     1
  1
\W0.800;ＰＺ－Ｇ６１Ｎ　＜キーエンス＞
  7
KANJI4
 73
     1
 44
1.0
  0
LWPOLYLINE
  5
4EF
330
1F
100
AcDbEntity
  8
0
  6
Continuous
 62
     4
100
AcDbPolyline
 90
     3
 70
   128
 43
0.0
 10
373.952096444
 20
164.226653278
 10
369.802096444
 20
169.886653278
 10
367.102096444
 20
169.886653278
  0
MTEXT
  5
4F0
330
1F
100
AcDbEntity
  8
0
  6
Continuous
 62
     4
100
AcDbMText
 10
367.102096444
 20
170.886653278
 30
0.0
 40
3.0
 41
5.4
 71
     7
 72
     1
  1
\T1.111;\W0.900;Ａ
  7
KANJI1
 73
     1
 44
1.0
  0
LINE
  5
4F1
330
1F
100
AcDbEntity
  8
0
  6
Continuous
 62
     3
100
AcDbLine
 10
319.719935878
 20
127.10061727
 30
0.0
 11
344.536255788
 21
128.746038005
 31
0.0
  0
LINE
  5
4F2
330
1F
100
AcDbEntity
  8
0
  6
Continuous
 62
     3
100
AcDbLine
 10
319.786094591
 20
126.102808157
 30
0.0
 11
344.536255788
 21
127.743842307
 31
0.0
  0
LINE
  5
4F3
330
1F
100
AcDbEntity
  8
0
  6
Continuous
 62
     3
100
AcDbLine
 10
344.536255788
 20
124.781946231
 30
0.0
 11
319.575674689
 21
125.766630224
 31
0.0
  0
LINE
  5
4F4
330
1F
100
AcDbEntity
  8
0
  6
Continuous
 62
     3
100
AcDbLine
 10
344.536255788
 20
123.7811684
 30
0.0
 11
319.536255788
 21
124.76740745
 31
0.0
  0
LINE
  5
4F5
330
1F
100
AcDbEntity
  8
0
  6
Continuous
 62
     3
100
AcDbLine
 10
344.536255788
 20
122.115681194
 30
0.0
 11
319.536255788
 21
124.76740745
 31
0.0
  0
LINE
  5
4F6
330
1F
100
AcDbEntity
  8
0
  6
Continuous
 62
     3
100
AcDbLine
 10
344.536255788
 20
121.110071606
 30
0.0
 11
319.430778422
 21
123.772985746
 31
0.0
  0
LINE
  5
4F7
330
1F
100
AcDbEntity
  8
0
  6
Continuous
 62
     3
100
AcDbLine
 10
299.566094591
 20
121.83679183
 30
0.0
 11
299.566094591
 21
111.33679183
 31
0.0
  0
LINE
  5
4F8
330
1F
100
AcDbEntity
  8
0
  6
Continuous
 62
     3
100
AcDbLine
 10
299.566094591
 20
113.33679183
 30
0.0
 11
301.980909157
 21
112.689744217
 31
0.0
  0
LINE
  5
4F9
330
1F
100
AcDbEntity
  8
0
  6
Continuous
 62
     3
100
AcDbLine
 10
299.566094591
 20
113.33679183
 30
0.0
 11
301.980909157
 21
113.983839442
 31
0.0
  0
MTEXT
  5
4FA
330
1F
100
AcDbEntity
  8
0
  6
Continuous
 62
     3
100
AcDbMText
 10
305.516094591
 20
114.33679183
 30
0.0
 40
3.0
 41
16.2
 71
     7
 72
     1
  1
\T1.167;\W0.600;（１５）
  7
KANJI0
 73
     1
 44
1.0
  0
LWPOLYLINE
  5
4FC
330
1F
100
AcDbEntity
  8
0
  6
Continuous
 62
     3
100
AcDbPolyline
 90
     3
 70
   128
 43
0.0
 10
299.566094591
 20
113.33679183
 10
319.566094591
 20
113.33679183
 10
317.151280026
 20
113.983839442
  0
LINE
  5
4FD
330
1F
100
AcDbEntity
  8
0
  6
Continuous
 62
     3
100
AcDbLine
 10
319.566094591
 20
113.33679183
 30
0.0
 11
317.151280026
 21
112.689744217
 31
0.0
  0
LINE
  5
4FE
330
1F
100
AcDbEntity
  8
0
  6
Continuous
 62
     3
100
AcDbLine
 10
319.566094591
 20
121.93679183
 30
0.0
 11
319.566094591
 21
111.33679183
 31
0.0
  0
LINE
  5
4FF
330
1F
100
AcDbEntity
  8
0
  6
Continuous
 62
     3
100
AcDbLine
 10
319.566094591
 20
121.33679183
 30
0.0
 11
319.566094591
 21
111.33679183
 31
0.0
  0
LINE
  5
500
330
1F
100
AcDbEntity
  8
0
  6
Continuous
 62
     3
100
AcDbLine
 10
319.566094591
 20
121.13679183
 30
0.0
 11
319.566094591
 21
111.33679183
 31
0.0
  0
LINE
  5
501
330
1F
100
AcDbEntity
  8
0
  6
Continuous
 62
     3
100
AcDbLine
 10
319.566094591
 20
113.33679183
 30
0.0
 11
321.980909157
 21
112.689744217
 31
0.0
  0
LINE
  5
502
330
1F
100
AcDbEntity
  8
0
  6
Continuous
 62
     3
100
AcDbLine
 10
319.566094591
 20
113.33679183
 30
0.0
 11
321.980909157
 21
113.983839442
 31
0.0
  0
MTEXT
  5
503
330
1F
100
AcDbEntity
  8
0
  6
Continuous
 62
     3
100
AcDbMText
 10
328.016094591
 20
114.33679183
 30
0.0
 40
3.0
 41
16.2
 71
     7
 72
     1
  1
\T1.167;\W0.600;（１５）
  7
KANJI0
 73
     1
 44
1.0
  0
LINE
  5
504
330
1F
100
AcDbEntity
  8
0
  6
Continuous
 62
     3
100
AcDbLine
 10
344.536255788
 20
104.000901295
 30
0.0
 11
342.121441222
 21
104.647948908
 31
0.0
  0
LINE
  5
505
330
1F
100
AcDbEntity
  8
0
  6
Continuous
 62
     3
100
AcDbLine
 10
344.536255788
 20
104.000901295
 30
0.0
 11
342.121441222
 21
103.353853682
 31
0.0
  0
LWPOLYLINE
  5
507
330
1F
100
AcDbEntity
  8
0
  6
Continuous
 62
     3
100
AcDbPolyline
 90
     3
 70
   128
 43
0.0
 10
344.536255788
 20
104.000901295
 10
246.124443021
 20
104.000901295
 10
248.539257587
 20
103.353853682
  0
LINE
  5
508
330
1F
100
AcDbEntity
  8
0
  6
Continuous
 62
     3
100
AcDbLine
 10
246.124443021
 20
104.000901295
 30
0.0
 11
248.539257587
 21
104.647948908
 31
0.0
  0
LINE
  5
509
330
1F
100
AcDbEntity
  8
0
  6
Continuous
 62
     3
100
AcDbLine
 10
246.124443021
 20
120.720901295
 30
0.0
 11
246.124443021
 21
102.000901295
 31
0.0
  0
MTEXT
  5
50A
330
1F
100
AcDbEntity
  8
0
  6
Continuous
 62
     3
100
AcDbMText
 10
289.180349405
 20
105.000901295
 30
0.0
 40
3.0
 41
24.6
 71
     7
 72
     1
  1
\T1.167;\W0.600;（２０００）
  7
KANJI0
 73
     1
 44
1.0
  0
LINE
  5
50B
330
1F
100
AcDbEntity
  8
0
  6
Continuous
 62
     3
100
AcDbLine
 10
344.566094591
 20
113.33679183
 30
0.0
 11
342.151280026
 21
113.983839442
 31
0.0
  0
LINE
  5
50C
330
1F
100
AcDbEntity
  8
0
  6
Continuous
 62
     3
100
AcDbLine
 10
344.566094591
 20
113.33679183
 30
0.0
 11
342.151280026
 21
112.689744217
 31
0.0
  0
LINE
  5
50D
330
1F
100
AcDbEntity
  8
0
  6
Continuous
 62
     3
100
AcDbLine
 10
319.566094591
 20
113.33679183
 30
0.0
 11
344.566094591
 21
113.33679183
 31
0.0
  0
LINE
  5
50E
330
1F
100
AcDbEntity
  8
0
  6
Continuous
 62
     3
100
AcDbLine
 10
344.536255788
 20
117.398152341
 30
0.0
 11
344.536255788
 21
102.000901295
 31
0.0
  0
LINE
  5
50F
330
1F
100
AcDbEntity
  8
2
  6
Continuous
 62
     1
100
AcDbLine
 10
359.538249744
 20
244.410901295
 30
0.0
 11
359.538249744
 21
236.210901295
 31
0.0
  0
LINE
  5
510
330
1F
100
AcDbEntity
  8
2
  6
Continuous
 62
     1
100
AcDbLine
 10
359.538249744
 20
244.410901295
 30
0.0
 11
361.938249744
 21
244.410901295
 31
0.0
  0
LINE
  5
511
330
1F
100
AcDbEntity
  8
2
  6
Continuous
 62
     1
100
AcDbLine
 10
361.938249744
 20
238.510901295
 30
0.0
 11
361.938249744
 21
244.410901295
 31
0.0
  0
LINE
  5
512
330
1F
100
AcDbEntity
  8
2
  6
Continuous
 62
     2
100
AcDbLine
 10
361.938249744
 20
238.510901295
 30
0.0
 11
361.938249744
 21
224.710901295
 31
0.0
  0
POINT
  5
513
330
1F
100
AcDbEntity
  8
3
  6
Continuous
 62
     2
100
AcDbPoint
 10
332.227955963
 20
231.610901295
 30
0.0
  0
POINT
  5
514
330
1F
100
AcDbEntity
  8
3
  6
Continuous
 62
     2
100
AcDbPoint
 10
361.938249744
 20
244.410901295
 30
0.0
  0
LINE
  5
515
330
1F
100
AcDbEntity
  8
2
  6
LTYPE1
 62
     3
100
AcDbLine
 10
369.835002257
 20
231.610901295
 30
0.0
 11
332.227955963
 21
231.610901295
 31
0.0
  0
LINE
  5
516
330
1F
100
AcDbEntity
  8
2
  6
Continuous
 62
     2
100
AcDbLine
 10
341.198249744
 20
236.210901295
 30
0.0
 11
357.438249744
 21
236.210901295
 31
0.0
  0
LINE
  5
517
330
1F
100
AcDbEntity
  8
2
  6
Continuous
 62
     1
100
AcDbLine
 10
353.72389039
 20
238.225260649
 30
0.0
 11
355.752609098
 21
238.225260649
 31
0.0
  0
CIRCLE
  5
518
330
1F
100
AcDbEntity
  8
2
  6
Continuous
 62
     2
100
AcDbCircle
 10
337.638249744
 20
234.010901295
 30
0.0
 40
2.5
  0
ARC
  5
519
330
1F
100
AcDbEntity
  8
2
  6
Continuous
 62
     2
100
AcDbCircle
 10
338.438249744
 20
233.210901295
 30
0.0
 40
2.76
100
AcDbArc
 50
270.0
 51
0.0
  0
ARC
  5
51A
330
1F
100
AcDbEntity
  8
2
  6
Continuous
 62
     2
100
AcDbCircle
 10
338.438249744
 20
233.210901295
 30
0.0
 40
3.76
100
AcDbArc
 50
270.0
 51
0.0
  0
LINE
  5
51B
330
1F
100
AcDbEntity
  8
2
  6
Continuous
 62
     2
100
AcDbLine
 10
334.438249744
 20
225.610901295
 30
0.0
 11
334.438249744
 21
235.210901295
 31
0.0
  0
ARC
  5
51C
330
1F
100
AcDbEntity
  8
2
  6
Continuous
 62
     2
100
AcDbCircle
 10
344.338249744
 20
222.210901295
 30
0.0
 40
6.5
100
AcDbArc
 50
59.411725786
 51
300.588274214
  0
ARC
  5
51D
330
1F
100
AcDbEntity
  8
2
  6
Continuous
 62
     2
100
AcDbCircle
 10
344.338249744
 20
222.210901295
 30
0.0
 40
7.5
100
AcDbArc
 50
58.822553729
 51
301.177446271
  0
LINE
  5
51E
330
1F
100
AcDbEntity
  8
2
  6
Continuous
 62
     2
100
AcDbLine
 10
334.438249744
 20
229.450901295
 30
0.0
 11
335.438249744
 21
230.450901295
 31
0.0
  0
LINE
  5
51F
330
1F
100
AcDbEntity
  8
2
  6
Continuous
 62
     1
100
AcDbLine
 10
334.438249744
 20
225.610901295
 30
0.0
 11
333.338249744
 21
226.610901295
 31
0.0
  0
LINE
  5
520
330
1F
100
AcDbEntity
  8
2
  6
Continuous
 62
     2
100
AcDbLine
 10
338.438249744
 20
230.450901295
 30
0.0
 11
335.438249744
 21
230.450901295
 31
0.0
  0
LINE
  5
521
330
1F
100
AcDbEntity
  8
2
  6
Continuous
 62
     2
100
AcDbLine
 10
334.438249744
 20
229.450901295
 30
0.0
 11
338.438249744
 21
229.450901295
 31
0.0
  0
LINE
  5
522
330
1F
100
AcDbEntity
  8
2
  6
Continuous
 62
     2
100
AcDbLine
 10
346.966593581
 20
226.836288703
 30
0.0
 11
348.807122555
 21
229.464836489
 31
0.0
  0
LINE
  5
523
330
1F
100
AcDbEntity
  8
2
  6
Continuous
 62
     2
100
AcDbLine
 10
348.807122555
 20
214.956966101
 30
0.0
 11
346.966593581
 21
217.585513886
 31
0.0
  0
ARC
  5
524
330
1F
100
AcDbEntity
  8
2
  6
Continuous
 62
     2
100
AcDbCircle
 10
344.338249744
 20
206.210901295
 30
0.0
 40
5.2
100
AcDbArc
 50
70.30736218
 51
109.69263782
  0
ARC
  5
525
330
1F
100
AcDbEntity
  8
2
  6
Continuous
 62
     2
100
AcDbCircle
 10
344.338249744
 20
206.210901295
 30
0.0
 40
4.977777778
100
AcDbArc
 50
63.544812325
 51
70.455187675
  0
ARC
  5
526
330
1F
100
AcDbEntity
  8
2
  6
Continuous
 62
     2
100
AcDbCircle
 10
344.338249744
 20
222.210901295
 30
0.0
 40
6.5
100
AcDbArc
 50
309.411725786
 51
50.588274214
  0
ARC
  5
527
330
1F
100
AcDbEntity
  8
2
  6
Continuous
 62
     2
100
AcDbCircle
 10
344.338249744
 20
222.210901295
 30
0.0
 40
7.5
100
AcDbArc
 50
308.822553729
 51
51.177446271
  0
LINE
  5
528
330
1F
100
AcDbEntity
  8
2
  6
Continuous
 62
     2
100
AcDbLine
 10
347.785745625
 20
218.159090323
 30
0.0
 11
349.626274599
 21
215.530542537
 31
0.0
  0
ARC
  5
529
330
1F
100
AcDbEntity
  8
2
  6
Continuous
 62
     2
100
AcDbCircle
 10
344.338249744
 20
222.210901295
 30
0.0
 40
7.52
100
AcDbArc
 50
301.187627687
 51
308.812372313
  0
ARC
  5
52A
330
1F
100
AcDbEntity
  8
2
  6
Continuous
 62
     2
100
AcDbCircle
 10
344.338249744
 20
222.210901295
 30
0.0
 40
8.52
100
AcDbArc
 50
301.635638604
 51
308.364361396
  0
LINE
  5
52B
330
1F
100
AcDbEntity
  8
2
  6
Continuous
 62
     2
100
AcDbLine
 10
349.626274599
 20
228.891260053
 30
0.0
 11
347.785745625
 21
226.262712267
 31
0.0
  0
ARC
  5
52C
330
1F
100
AcDbEntity
  8
2
  6
Continuous
 62
     2
100
AcDbCircle
 10
344.338249744
 20
222.210901295
 30
0.0
 40
7.52
100
AcDbArc
 50
51.187627687
 51
58.812372313
  0
ARC
  5
52D
330
1F
100
AcDbEntity
  8
2
  6
Continuous
 62
     2
100
AcDbCircle
 10
344.338249744
 20
222.210901295
 30
0.0
 40
8.52
100
AcDbArc
 50
51.635638604
 51
58.364361396
  0
ARC
  5
52E
330
1F
100
AcDbEntity
  8
2
  6
Continuous
 62
     2
100
AcDbCircle
 10
338.633267902
 20
234.11059516
 30
0.0
 40
0.3
100
AcDbArc
 50
297.03935467
 51
74.403729577
  0
LINE
  5
52F
330
1F
100
AcDbEntity
  8
2
  6
Continuous
 62
     1
100
AcDbLine
 10
346.738249744
 20
237.210901295
 30
0.0
 11
335.438249744
 21
237.210901295
 31
0.0
  0
LINE
  5
530
330
1F
100
AcDbEntity
  8
2
  6
Continuous
 62
     2
100
AcDbLine
 10
334.438249744
 20
235.210901295
 30
0.0
 11
335.438249744
 21
237.210901295
 31
0.0
  0
LINE
  5
531
330
1F
100
AcDbEntity
  8
2
  6
Continuous
 62
     1
100
AcDbLine
 10
333.338249744
 20
236.210901295
 30
0.0
 11
335.438249744
 21
237.210901295
 31
0.0
  0
LINE
  5
532
330
1F
100
AcDbEntity
  8
2
  6
Continuous
 62
     1
100
AcDbLine
 10
333.338249744
 20
226.610901295
 30
0.0
 11
333.338249744
 21
236.210901295
 31
0.0
  0
LINE
  5
533
330
1F
100
AcDbEntity
  8
2
  6
Continuous
 62
     2
100
AcDbLine
 10
334.438249744
 20
233.110901295
 30
0.0
 11
333.338249744
 21
234.110901295
 31
0.0
  0
ARC
  5
534
330
1F
100
AcDbEntity
  8
2
  6
Continuous
 62
     2
100
AcDbCircle
 10
337.054403246
 20
234.822765364
 30
0.0
 40
0.3
100
AcDbArc
 50
57.03935467
 51
194.403729577
  0
ARC
  5
535
330
1F
100
AcDbEntity
  8
2
  6
Continuous
 62
     2
100
AcDbCircle
 10
336.27954967
 20
234.623763016
 30
0.0
 40
0.5
100
AcDbArc
 50
297.03935467
 51
14.403729577
  0
ARC
  5
536
330
1F
100
AcDbEntity
  8
2
  6
Continuous
 62
     2
100
AcDbCircle
 10
336.643231587
 20
233.91120743
 30
0.0
 40
0.3
100
AcDbArc
 50
117.03935467
 51
254.403729577
  0
ARC
  5
537
330
1F
100
AcDbEntity
  8
2
  6
Continuous
 62
     2
100
AcDbCircle
 10
336.428145887
 20
233.140663375
 30
0.0
 40
0.5
100
AcDbArc
 50
357.03935467
 51
74.403729577
  0
ARC
  5
538
330
1F
100
AcDbEntity
  8
2
  6
Continuous
 62
     2
100
AcDbCircle
 10
337.227078085
 20
233.099343361
 30
0.0
 40
0.3
100
AcDbArc
 50
177.03935467
 51
314.403729577
  0
ARC
  5
539
330
1F
100
AcDbEntity
  8
2
  6
Continuous
 62
     2
100
AcDbCircle
 10
337.786845962
 20
232.527801653
 30
0.0
 40
0.5
100
AcDbArc
 50
57.03935467
 51
134.403729577
  0
ARC
  5
53A
330
1F
100
AcDbEntity
  8
2
  6
Continuous
 62
     2
100
AcDbCircle
 10
338.222096242
 20
233.199037226
 30
0.0
 40
0.3
100
AcDbArc
 50
237.03935467
 51
14.403729577
  0
ARC
  5
53B
330
1F
100
AcDbEntity
  8
2
  6
Continuous
 62
     2
100
AcDbCircle
 10
338.996949819
 20
233.398039574
 30
0.0
 40
0.5
100
AcDbArc
 50
117.03935467
 51
194.403729577
  0
ARC
  5
53C
330
1F
100
AcDbEntity
  8
2
  6
Continuous
 62
     2
100
AcDbCircle
 10
338.848353601
 20
234.881139215
 30
0.0
 40
0.5
100
AcDbArc
 50
177.03935467
 51
254.403729577
  0
ARC
  5
53D
330
1F
100
AcDbEntity
  8
2
  6
Continuous
 62
     2
100
AcDbCircle
 10
338.049421404
 20
234.922459229
 30
0.0
 40
0.3
100
AcDbArc
 50
357.03935467
 51
134.403729577
  0
ARC
  5
53E
330
1F
100
AcDbEntity
  8
2
  6
Continuous
 62
     2
100
AcDbCircle
 10
337.489653526
 20
235.494000936
 30
0.0
 40
0.5
100
AcDbArc
 50
237.03935467
 51
314.403729577
  0
LINE
  5
53F
330
1F
100
AcDbEntity
  8
2
  6
Continuous
 62
     1
100
AcDbLine
 10
346.738249744
 20
237.210901295
 30
0.0
 11
347.32389039
 21
238.225260649
 31
0.0
  0
LINE
  5
540
330
1F
100
AcDbEntity
  8
2
  6
Continuous
 62
     2
100
AcDbLine
 10
341.198249744
 20
236.210901295
 30
0.0
 11
341.198249744
 21
233.210901295
 31
0.0
  0
LINE
  5
541
330
1F
100
AcDbEntity
  8
2
  6
Continuous
 62
     2
100
AcDbLine
 10
342.198249744
 20
233.210901295
 30
0.0
 11
342.198249744
 21
237.210901295
 31
0.0
  0
LINE
  5
542
330
1F
100
AcDbEntity
  8
2
  6
Continuous
 62
     2
100
AcDbLine
 10
342.198249744
 20
237.210901295
 30
0.0
 11
341.198249744
 21
236.210901295
 31
0.0
  0
LINE
  5
543
330
1F
100
AcDbEntity
  8
2
  6
Continuous
 62
     1
100
AcDbLine
 10
349.352609098
 20
238.225260649
 30
0.0
 11
349.938249744
 21
237.210901295
 31
0.0
  0
LINE
  5
544
330
1F
100
AcDbEntity
  8
2
  6
Continuous
 62
     1
100
AcDbLine
 10
347.32389039
 20
238.225260649
 30
0.0
 11
349.352609098
 21
238.225260649
 31
0.0
  0
LINE
  5
545
330
1F
100
AcDbEntity
  8
2
  6
Continuous
 62
     1
100
AcDbLine
 10
353.138249744
 20
237.210901295
 30
0.0
 11
353.72389039
 21
238.225260649
 31
0.0
  0
LINE
  5
546
330
1F
100
AcDbEntity
  8
2
  6
Continuous
 62
     1
100
AcDbLine
 10
359.538249744
 20
226.610901295
 30
0.0
 11
358.438249744
 21
225.610901295
 31
0.0
  0
LINE
  5
547
330
1F
100
AcDbEntity
  8
2
  6
Continuous
 62
     1
100
AcDbLine
 10
357.438249744
 20
237.210901295
 30
0.0
 11
359.538249744
 21
236.210901295
 31
0.0
  0
LINE
  5
548
330
1F
100
AcDbEntity
  8
2
  6
Continuous
 62
     2
100
AcDbLine
 10
359.538249744
 20
234.110901295
 30
0.0
 11
358.438249744
 21
233.110901295
 31
0.0
  0
LINE
  5
549
330
1F
100
AcDbEntity
  8
2
  6
Continuous
 62
     2
100
AcDbLine
 10
357.438249744
 20
237.210901295
 30
0.0
 11
358.438249744
 21
235.210901295
 31
0.0
  0
LINE
  5
54A
330
1F
100
AcDbEntity
  8
2
  6
Continuous
 62
     2
100
AcDbLine
 10
358.438249744
 20
235.210901295
 30
0.0
 11
357.438249744
 21
236.210901295
 31
0.0
  0
LINE
  5
54B
330
1F
100
AcDbEntity
  8
2
  6
Continuous
 62
     1
100
AcDbLine
 10
355.752609098
 20
238.225260649
 30
0.0
 11
356.338249744
 21
237.210901295
 31
0.0
  0
LINE
  5
54C
330
1F
100
AcDbEntity
  8
2
  6
Continuous
 62
     1
100
AcDbLine
 10
359.538249744
 20
236.210901295
 30
0.0
 11
359.538249744
 21
226.610901295
 31
0.0
  0
LINE
  5
54D
330
1F
100
AcDbEntity
  8
2
  6
Continuous
 62
     2
100
AcDbLine
 10
358.438249744
 20
225.610901295
 30
0.0
 11
358.438249744
 21
235.210901295
 31
0.0
  0
LINE
  5
54E
330
1F
100
AcDbEntity
  8
2
  6
Continuous
 62
     2
100
AcDbLine
 10
346.738249744
 20
237.210901295
 30
0.0
 11
349.938249744
 21
237.210901295
 31
0.0
  0
LINE
  5
54F
330
1F
100
AcDbEntity
  8
2
  6
Continuous
 62
     1
100
AcDbLine
 10
349.938249744
 20
237.210901295
 30
0.0
 11
353.138249744
 21
237.210901295
 31
0.0
  0
LINE
  5
550
330
1F
100
AcDbEntity
  8
2
  6
Continuous
 62
     2
100
AcDbLine
 10
353.138249744
 20
237.210901295
 30
0.0
 11
356.338249744
 21
237.210901295
 31
0.0
  0
LINE
  5
551
330
1F
100
AcDbEntity
  8
2
  6
Continuous
 62
     1
100
AcDbLine
 10
356.338249744
 20
237.210901295
 30
0.0
 11
357.438249744
 21
237.210901295
 31
0.0
  0
CIRCLE
  5
552
330
1F
100
AcDbEntity
  8
2
  6
Continuous
 62
     2
100
AcDbCircle
 10
344.338249744
 20
222.210901295
 30
0.0
 40
5.32
  0
CIRCLE
  5
553
330
1F
100
AcDbEntity
  8
2
  6
Continuous
 62
     2
100
AcDbCircle
 10
344.338249744
 20
222.210901295
 30
0.0
 40
5.17
  0
ARC
  5
554
330
1F
100
AcDbEntity
  8
2
  6
Continuous
 62
     2
100
AcDbCircle
 10
366.438249744
 20
235.060901295
 30
0.0
 40
1.8
100
AcDbArc
 50
0.0
 51
90.0
  0
LINE
  5
555
330
1F
100
AcDbEntity
  8
2
  6
Continuous
 62
     2
100
AcDbLine
 10
363.038249744
 20
238.510901295
 30
0.0
 11
363.038249744
 21
236.610901295
 31
0.0
  0
LINE
  5
556
330
1F
100
AcDbEntity
  8
2
  6
Continuous
 62
     2
100
AcDbLine
 10
364.638249744
 20
236.610901295
 30
0.0
 11
363.038249744
 21
236.610901295
 31
0.0
  0
LINE
  5
557
330
1F
100
AcDbEntity
  8
2
  6
Continuous
 62
     2
100
AcDbLine
 10
366.438249744
 20
236.860901295
 30
0.0
 11
365.553400005
 21
236.860901295
 31
0.0
  0
ARC
  5
558
330
1F
100
AcDbEntity
  8
2
  6
Continuous
 62
     2
100
AcDbCircle
 10
365.553400005
 20
235.060901295
 30
0.0
 40
1.8
100
AcDbArc
 50
90.0
 51
120.558431786
  0
LINE
  5
559
330
1F
100
AcDbEntity
  8
2
  6
Continuous
 62
     2
100
AcDbLine
 10
363.038249744
 20
238.510901295
 30
0.0
 11
361.938249744
 21
238.510901295
 31
0.0
  0
ARC
  5
55A
330
1F
100
AcDbEntity
  8
2
  6
Continuous
 62
     2
100
AcDbCircle
 10
366.438249744
 20
228.160901295
 30
0.0
 40
1.8
100
AcDbArc
 50
270.0
 51
0.0
  0
LINE
  5
55B
330
1F
100
AcDbEntity
  8
2
  6
Continuous
 62
     2
100
AcDbLine
 10
364.638249744
 20
226.610901295
 30
0.0
 11
363.038249744
 21
226.610901295
 31
0.0
  0
LINE
  5
55C
330
1F
100
AcDbEntity
  8
2
  6
Continuous
 62
     2
100
AcDbLine
 10
366.438249744
 20
226.360901295
 30
0.0
 11
365.553400005
 21
226.360901295
 31
0.0
  0
ARC
  5
55D
330
1F
100
AcDbEntity
  8
2
  6
Continuous
 62
     2
100
AcDbCircle
 10
365.553400005
 20
228.160901295
 30
0.0
 40
1.8
100
AcDbArc
 50
239.441568214
 51
270.0
  0
LINE
  5
55E
330
1F
100
AcDbEntity
  8
2
  6
Continuous
 62
     2
100
AcDbLine
 10
363.038249744
 20
224.710901295
 30
0.0
 11
361.938249744
 21
224.710901295
 31
0.0
  0
LINE
  5
55F
330
1F
100
AcDbEntity
  8
2
  6
Continuous
 62
     2
100
AcDbLine
 10
363.038249744
 20
226.610901295
 30
0.0
 11
363.038249744
 21
224.710901295
 31
0.0
  0
LINE
  5
560
330
1F
100
AcDbEntity
  8
2
  6
Continuous
 62
     2
100
AcDbLine
 10
368.238249744
 20
228.160901295
 30
0.0
 11
368.238249744
 21
235.060901295
 31
0.0
  0
LINE
  5
561
330
1F
100
AcDbEntity
  8
2
  6
Continuous
 62
     2
100
AcDbLine
 10
364.638249744
 20
236.610901295
 30
0.0
 11
364.638249744
 21
226.610901295
 31
0.0
  0
LINE
  5
562
330
1F
100
AcDbEntity
  8
2
  6
Continuous
 62
     2
100
AcDbLine
 10
363.038249744
 20
226.610901295
 30
0.0
 11
363.038249744
 21
236.610901295
 31
0.0
  0
LINE
  5
563
330
1F
100
AcDbEntity
  8
2
  6
Continuous
 62
     1
100
AcDbLine
 10
334.438249744
 20
225.610901295
 30
0.0
 11
334.438249744
 21
216.459689383
 31
0.0
  0
LINE
  5
564
330
1F
100
AcDbEntity
  8
2
  6
Continuous
 62
     2
100
AcDbLine
 10
335.438249744
 20
215.467877596
 30
0.0
 11
335.438249744
 21
230.450901295
 31
0.0
  0
ARC
  5
565
330
1F
100
AcDbEntity
  8
2
  6
Continuous
 62
     2
100
AcDbCircle
 10
344.338249744
 20
206.210901295
 30
0.0
 40
6.2
100
AcDbArc
 50
39.510033556
 51
118.393790089
  0
LINE
  5
566
330
1F
100
AcDbEntity
  8
2
  6
Continuous
 62
     2
100
AcDbLine
 10
357.438249744
 20
237.210901295
 30
0.0
 11
357.438249744
 21
212.016172139
 31
0.0
  0
LINE
  5
567
330
1F
100
AcDbEntity
  8
2
  6
Continuous
 62
     1
100
AcDbLine
 10
358.438249744
 20
212.515059562
 30
0.0
 11
358.438249744
 21
225.610901295
 31
0.0
  0
LINE
  5
568
330
1F
100
AcDbEntity
  8
2
  6
Continuous
 62
     2
100
AcDbLine
 10
359.538249744
 20
236.210901295
 30
0.0
 11
359.538249744
 21
213.148442866
 31
0.0
  0
LINE
  5
569
330
1F
100
AcDbEntity
  8
2
  6
Continuous
 62
     1
100
AcDbLine
 10
361.938249744
 20
214.892492248
 30
0.0
 11
361.938249744
 21
224.710901295
 31
0.0
  0
LINE
  5
56A
330
1F
100
AcDbEntity
  8
2
  6
LTYPE1
 62
     3
100
AcDbLine
 10
346.438249744
 20
241.210901295
 30
0.0
 11
346.438249744
 21
205.60148071
 31
0.0
  0
MTEXT
  5
56B
330
1F
100
AcDbEntity
  8
0
  6
Continuous
 62
     2
100
AcDbMText
 10
335.451833118
 20
194.709873243
 30
0.0
 40
3.0
 41
48.0
 71
     7
 72
     1
  1
\T1.125;\W0.800;Ｓｃａｌｅ　２：１
  7
KANJI5
 73
     1
 44
1.0
  0
MTEXT
  5
56D
330
1F
100
AcDbEntity
  8
0
  6
Continuous
 62
     2
100
AcDbMText
 10
336.851833118
 20
198.709873243
 30
0.0
 40
3.0
 41
40.2
 71
     7
 72
     1
  1
\T1.125;\W0.755;Ｄｅｔａｉｌ　Ａ
  7
KANJI5
 73
     1
 44
1.0
  0
ARC
  5
56E
330
1F
100
AcDbEntity
  8
2
  6
Continuous
 62
     2
100
AcDbCircle
 10
345.32981473
 20
224.324381571
 30
0.0
 40
0.2
100
AcDbArc
 50
55.0
 51
145.0
  0
LINE
  5
56F
330
1F
100
AcDbEntity
  8
2
  6
Continuous
 62
     2
100
AcDbLine
 10
346.099851653
 20
224.029350831
 30
0.0
 11
345.444530018
 21
224.48821198
 31
0.0
  0
LINE
  5
570
330
1F
100
AcDbEntity
  8
2
  6
Continuous
 62
     2
100
AcDbLine
 10
346.789124709
 20
226.757181568
 30
0.0
 11
342.527532714
 21
220.670997455
 31
0.0
  0
LINE
  5
571
330
1F
100
AcDbEntity
  8
2
  6
Continuous
 62
     2
100
AcDbLine
 10
343.510515167
 20
219.982705731
 30
0.0
 11
347.651875733
 21
225.897181568
 31
0.0
  0
LINE
  5
572
330
1F
100
AcDbEntity
  8
2
  6
Continuous
 62
     2
100
AcDbLine
 10
342.576647836
 20
220.392451759
 30
0.0
 11
343.231969471
 21
219.93359061
 31
0.0
  0
ARC
  5
573
330
1F
100
AcDbEntity
  8
2
  6
Continuous
 62
     2
100
AcDbCircle
 10
342.691363123
 20
220.556282168
 30
0.0
 40
0.2
100
AcDbArc
 50
145.0
 51
235.0
  0
MTEXT
  5
574
330
1F
100
AcDbEntity
  8
0
  6
Continuous
 62
     3
100
AcDbMText
 10
351.683990395
 20
227.050262822
 30
0.0
 40
3.78
 41
5.6
 71
     7
 72
     1
  1
\W0.741;Ｄ
  7
KANJI6
 73
     1
 44
1.0
  0
MTEXT
  5
576
330
1F
100
AcDbEntity
  8
0
  6
Continuous
 62
     3
100
AcDbMText
 10
351.683990395
 20
213.050262822
 30
0.0
 40
3.78
 41
5.6
 71
     7
 72
     1
  1
\W0.741;Ｌ
  7
KANJI6
 73
     1
 44
1.0
  0
LINE
  5
577
330
1F
100
AcDbEntity
  8
0
  6
Continuous
 62
     3
100
AcDbLine
 10
357.835873877
 20
249.225401085
 30
0.0
 11
393.535873877
 21
249.225401085
 31
0.0
  0
MTEXT
  5
578
330
1F
100
AcDbEntity
  8
0
  6
Continuous
 62
     3
100
AcDbMText
 10
357.835873877
 20
254.225401085
 30
0.0
 40
3.0
 41
71.4
 71
     7
 72
     1
  1
\T1.111;\W0.900;動作モード切替スイッチを
  7
KANJI1
 73
     1
 44
1.0
  0
MTEXT
  5
579
330
1F
100
AcDbEntity
  8
0
  6
Continuous
 62
     3
100
AcDbMText
 10
357.835873877
 20
250.225401085
 30
0.0
 40
3.0
 41
53.4
 71
     7
 72
     1
  1
\T1.111;\W0.900;「Ｄ］に設定する。
  7
KANJI1
 73
     1
 44
1.0
  0
LINE
  5
57A
330
1F
100
AcDbEntity
  8
0
  6
Continuous
 62
     3
100
AcDbLine
 10
348.875873877
 20
230.805401085
 30
0.0
 11
350.514030758
 21
232.693903675
 31
0.0
  0
LINE
  5
57B
330
1F
100
AcDbEntity
  8
0
  6
Continuous
 62
     3
100
AcDbLine
 10
348.875873877
 20
230.805401085
 30
0.0
 11
349.350308057
 21
233.259970744
 31
0.0
  0
LINE
  5
57C
330
1F
100
AcDbEntity
  8
0
  6
Continuous
 62
     3
100
AcDbLine
 10
348.875873877
 20
230.805401085
 30
0.0
 11
357.835873877
 21
249.225401085
 31
0.0
  0
MTEXT
  5
57D
330
1F
100
AcDbEntity
  8
0
  6
Continuous
 62
     3
100
AcDbMText
 10
241.191357441
 20
82.268834458
 30
0.0
 40
4.0
 41
19.2
 71
     7
 72
     1
  1
\W0.800;配線図
  7
KANJI7
 73
     1
 44
1.0
  0
LINE
  5
57F
330
1F
100
AcDbEntity
  8
0
  6
LTYPE2
 62
     2
100
AcDbLine
 10
233.605107441
 20
87.535084458
 30
0.0
 11
233.605107441
 21
45.925084458
 31
0.0
  0
LINE
  5
580
330
1F
100
AcDbEntity
  8
0
  6
Continuous
 62
     7
100
AcDbLine
 10
314.662542104
 20
75.519778282
 30
0.0
 11
314.662542104
 21
58.719778282
 31
0.0
  0
LINE
  5
581
330
1F
100
AcDbEntity
  8
0
  6
Continuous
 62
     7
100
AcDbLine
 10
318.862542104
 20
75.519778282
 30
0.0
 11
318.862542104
 21
58.719778282
 31
0.0
  0
LINE
  5
582
330
1F
100
AcDbEntity
  8
0
  6
Continuous
 62
     7
100
AcDbLine
 10
318.862542104
 20
62.919778282
 30
0.0
 11
314.662542104
 21
62.919778282
 31
0.0
  0
LINE
  5
583
330
1F
100
AcDbEntity
  8
0
  6
Continuous
 62
     7
100
AcDbLine
 10
318.862542104
 20
75.519778282
 30
0.0
 11
314.662542104
 21
75.519778282
 31
0.0
  0
LINE
  5
584
330
1F
100
AcDbEntity
  8
0
  6
Continuous
 62
     7
100
AcDbLine
 10
318.862542104
 20
71.319778282
 30
0.0
 11
314.662542104
 21
71.319778282
 31
0.0
  0
LINE
  5
585
330
1F
100
AcDbEntity
  8
0
  6
Continuous
 62
     7
100
AcDbLine
 10
318.862542104
 20
67.119778282
 30
0.0
 11
314.662542104
 21
67.119778282
 31
0.0
  0
LINE
  5
586
330
1F
100
AcDbEntity
  8
0
  6
Continuous
 62
     7
100
AcDbLine
 10
318.862542104
 20
58.719778282
 30
0.0
 11
314.662542104
 21
58.719778282
 31
0.0
  0
MTEXT
  5
587
330
1F
100
AcDbEntity
  8
0
  6
Continuous
 62
     3
100
AcDbMText
 10
315.600159254
 20
67.907278282
 30
0.0
 40
2.625
 41
5.25
 71
     7
 72
     1
  1
\W1.000;２
  7
KANJI8
 73
     1
 44
1.0
  0
MTEXT
  5
589
330
1F
100
AcDbEntity
  8
0
  6
Continuous
 62
     3
100
AcDbMText
 10
315.824924954
 20
63.707278282
 30
0.0
 40
2.625
 41
16.97426388
 71
     7
 72
     1
  1
\W0.808;３　０Ｖ
  7
KANJI9
 73
     1
 44
1.0
  0
MTEXT
  5
58B
330
1F
100
AcDbEntity
  8
0
  6
Continuous
 62
     3
100
AcDbMText
 10
315.824924954
 20
59.507278282
 30
0.0
 40
2.625
 41
16.97426388
 71
     7
 72
     1
  1
\W0.808;４　信号
  7
KANJI9
 73
     1
 44
1.0
  0
MTEXT
  5
58C
330
1F
100
AcDbEntity
  8
0
  6
Continuous
 62
     3
100
AcDbMText
 10
308.650907682
 20
74.154778282
 30
0.0
 40
2.835
 41
8.4
 71
     7
 72
     1
  1
\W0.741;チャ
  7
KANJI10
 73
     1
 44
1.0
  0
MTEXT
  5
58E
330
1F
100
AcDbEntity
  8
0
  6
Continuous
 62
     3
100
AcDbMText
 10
308.650907682
 20
65.754778282
 30
0.0
 40
2.835
 41
8.4
 71
     7
 72
     1
  1
\W0.741;アオ
  7
KANJI10
 73
     1
 44
1.0
  0
MTEXT
  5
58F
330
1F
100
AcDbEntity
  8
0
  6
Continuous
 62
     3
100
AcDbMText
 10
315.592714969
 20
72.107278282
 30
0.0
 40
2.625
 41
28.36488857
 71
     7
 72
     1
  1
\W0.900;１　＋２４Ｖ
  7
KANJI11
 73
     1
 44
1.0
  0
LINE
  5
591
330
1F
100
AcDbEntity
  8
3
  6
Continuous
 62
     7
100
AcDbLine
 10
285.242607441
 20
72.101025739
 30
0.0
 11
285.242607441
 21
58.601025739
 31
0.0
  0
ELLIPSE
  5
592
330
1F
100
AcDbEntity
  8
0
  6
Continuous
 62
     3
100
AcDbEllipse
 10
293.509284587
 20
65.468407356
 30
0.0
 11
0.0
 21
-8.4375
 31
0.0
 40
0.2
 41
5.576571105
 42
3.998298282
  0
MTEXT
  5
593
330
1F
100
AcDbEntity
  8
3
  6
Continuous
 62
     3
100
AcDbMText
 10
274.894661987
 20
63.944775739
 30
0.0
 40
2.8125
 41
22.733389125
 71
     7
 72
     1
  1
\W0.808;　０Ｖ　　
  7
KANJI12
 73
     1
 44
1.0
  0
MTEXT
  5
595
330
1F
100
AcDbEntity
  8
3
  6
Continuous
 62
     3
100
AcDbMText
 10
274.894661987
 20
59.444775739
 30
0.0
 40
2.8125
 41
22.733389125
 71
     7
 72
     1
  1
\W0.808;　信号　　
  7
KANJI12
 73
     1
 44
1.0
  0
MTEXT
  5
596
330
1F
100
AcDbEntity
  8
3
  6
Continuous
 62
     3
100
AcDbMText
 10
274.894661987
 20
68.444775739
 30
0.0
 40
2.8125
 41
22.733389125
 71
     7
 72
     1
  1
\W0.808;＋２４Ｖ　
  7
KANJI12
 73
     1
 44
1.0
  0
LINE
  5
597
330
1F
100
AcDbEntity
  8
3
  6
Continuous
 62
     7
100
AcDbLine
 10
285.242607441
 20
67.601025739
 30
0.0
 11
273.367607441
 21
67.601025739
 31
0.0
  0
LINE
  5
598
330
1F
100
AcDbEntity
  8
3
  6
Continuous
 62
     7
100
AcDbLine
 10
285.242607441
 20
63.101025739
 30
0.0
 11
273.367607441
 21
63.101025739
 31
0.0
  0
LINE
  5
599
330
1F
100
AcDbEntity
  8
3
  6
Continuous
 62
     7
100
AcDbLine
 10
273.367607441
 20
72.101025739
 30
0.0
 11
273.367607441
 21
58.601025739
 31
0.0
  0
LINE
  5
59A
330
1F
100
AcDbEntity
  8
3
  6
Continuous
 62
     7
100
AcDbLine
 10
285.242607441
 20
58.601025739
 30
0.0
 11
255.867607441
 21
58.601025739
 31
0.0
  0
LINE
  5
59B
330
1F
100
AcDbEntity
  8
3
  6
Continuous
 62
     7
100
AcDbLine
 10
255.867607441
 20
72.101025739
 30
0.0
 11
255.867607441
 21
58.601025739
 31
0.0
  0
LINE
  5
59C
330
1F
100
AcDbEntity
  8
3
  6
Continuous
 62
     7
100
AcDbLine
 10
285.242607441
 20
72.101025739
 30
0.0
 11
255.867607441
 21
72.101025739
 31
0.0
  0
MTEXT
  5
59D
330
1F
100
AcDbEntity
  8
3
  6
Continuous
 62
     3
100
AcDbMText
 10
258.870934856
 20
65.773625833
 30
0.0
 40
3.0
 41
24.0
 71
     7
 72
     1
  1
\W0.800;光電センサ
  7
KANJI13
 73
     1
 44
1.0
  0
LINE
  5
59F
330
1F
100
AcDbEntity
  8
3
  6
Continuous
 62
     3
100
AcDbLine
 10
301.834284587
 20
73.761617155
 30
0.0
 11
314.333034587
 21
73.755907356
 31
0.0
  0
LINE
  5
5A0
330
1F
100
AcDbEntity
  8
0
  6
Continuous
 62
     3
100
AcDbLine
 10
301.834284587
 20
73.761617155
 30
0.0
 11
301.834284587
 21
69.861617155
 31
0.0
  0
MTEXT
  5
5A1
330
1F
100
AcDbEntity
  8
0
  6
Continuous
 62
     3
100
AcDbMText
 10
308.650907682
 20
61.354778282
 30
0.0
 40
2.835
 41
8.4
 71
     7
 72
     1
  1
\W0.741;クロ
  7
KANJI10
 73
     1
 44
1.0
  0
LINE
  5
5A2
330
1F
100
AcDbEntity
  8
3
  6
Continuous
 62
     3
100
AcDbLine
 10
285.327784587
 20
69.869157813
 30
0.0
 11
301.834284587
 21
69.861617155
 31
0.0
  0
LINE
  5
5A3
330
1F
100
AcDbEntity
  8
3
  6
Continuous
 62
     3
100
AcDbLine
 10
285.227784587
 20
65.369203496
 30
0.0
 11
314.333034587
 21
65.355907356
 31
0.0
  0
LINE
  5
5A4
330
1F
100
AcDbEntity
  8
0
  6
Continuous
 62
     3
100
AcDbLine
 10
285.245107441
 20
60.829185255
 30
0.0
 11
314.492607441
 21
60.855834458
 31
0.0
  0
LINE
  5
5A5
330
1F
100
AcDbEntity
  8
0
  6
LTYPE2
 62
     2
100
AcDbLine
 10
345.575107441
 20
87.535084458
 30
0.0
 11
233.605107441
 21
87.535084458
 31
0.0
  0
LINE
  5
5A6
330
1F
100
AcDbEntity
  8
0
  6
LTYPE2
 62
     2
100
AcDbLine
 10
345.575107441
 20
45.925084458
 30
0.0
 11
345.575107441
 21
87.535084458
 31
0.0
  0
LINE
  5
5A7
330
1F
100
AcDbEntity
  8
0
  6
LTYPE2
 62
     2
100
AcDbLine
 10
233.605107441
 20
45.925084458
 30
0.0
 11
345.575107441
 21
45.925084458
 31
0.0
  0
MTEXT
  5
5A8
330
1F
100
AcDbEntity
  8
0
  6
Continuous
 62
     1
100
AcDbMText
 10
30.998996775
 20
272.586500471
 30
0.0
 40
10.0
 41
143.6
 71
     7
 72
     1
  1
\T1.030;\W1.000;ＳＵＣ－５５０
  7
KANJI14
 73
     1
 44
1.0
  0
MTEXT
  5
5AA
330
1F
100
AcDbEntity
  8
0
  6
Continuous
 62
     1
100
AcDbMText
 10
30.998996775
 20
262.586500471
 30
0.0
 40
10.0
 41
246.6
 71
     7
 72
     1
  1
\T1.030;\W1.000;光電センサ（回帰反射型）
  7
KANJI14
 73
     1
 44
1.0
  0
MTEXT
  5
5AB
330
1F
100
AcDbEntity
  8
0
  6
Continuous
 62
     3
100
AcDbMText
 10
27.326255788
 20
196.758208864
 30
0.0
 40
4.0
 41
166.4
 71
     7
 72
     1
  1
\W0.800;＜付属品＞　反射ミラー　Ｒ－２Ｌ（ＯＰ－８４２１９）
  7
KANJI7
 73
     1
 44
1.0
  0
ENDSEC
  0
SECTION
  2
OBJECTS
  0
DICTIONARY
  5
C
330
0
100
AcDbDictionary
280
     0
281
     1
  3
ACAD_GROUP
350
D
  3
ACAD_LAYOUT
350
1A
  3
ACAD_MLINESTYLE
350
17
  3
ACAD_PLOTSETTINGS
350
19
  3
ACAD_PLOTSTYLENAME
350
E
  0
DICTIONARY
  5
D
102
{ACAD_REACTORS
330
C
102
}
330
C
100
AcDbDictionary
280
     0
281
     1
  0
DICTIONARY
  5
1A
102
{ACAD_REACTORS
330
C
102
}
330
C
100
AcDbDictionary
280
     0
281
     1
  3
Model
350
22
  3
ﾚｲｱｳﾄ1
350
1E
  3
ﾚｲｱｳﾄ2
350
26
  0
LAYOUT
  5
22
102
{ACAD_REACTORS
330
1A
102
}
330
1A
100
AcDbPlotSettings
  1

  2

  4

  6

 40
0.0
 41
0.0
 42
0.0
 43
0.0
 44
0.0
 45
0.0
 46
0.0
 47
0.0
 48
0.0
 49
0.0
140
0.0
141
0.0
142
1.0
143
1.0
 70
  1712
 72
     0
 73
     0
 74
     0
  7

 75
     0
147
1.0
148
0.0
149
0.0
100
AcDbLayout
  1
Model
 70
     1
 71
     0
 10
0.0
 20
0.0
 11
0.0
 21
0.0
 12
0.0
 22
0.0
 32
0.0
 14
0.0
 24
0.0
 34
0.0
 15
0.0
 25
0.0
 35
0.0
146
0.0
 13
0.0
 23
0.0
 33
0.0
 16
1.0
 26
0.0
 36
0.0
 17
0.0
 27
1.0
 37
0.0
 76
     0
330
1F
331
0
345
0
346
0
  0
LAYOUT
  5
1E
102
{ACAD_REACTORS
330
1A
102
}
330
1A
100
AcDbPlotSettings
  1

  2

  4

  6

 40
0.0
 41
0.0
 42
0.0
 43
0.0
 44
0.0
 45
0.0
 46
0.0
 47
0.0
 48
0.0
 49
0.0
140
0.0
141
0.0
142
1.0
143
1.0
 70
   688
 72
     0
 73
     0
 74
     5
  7

 75
    16
147
1.0
148
0.0
149
0.0
100
AcDbLayout
  1
ﾚｲｱｳﾄ1
 70
     1
 71
     1
 10
0.0
 20
0.0
 11
0.0
 21
0.0
 12
0.0
 22
0.0
 32
0.0
 14
0.0
 24
0.0
 34
0.0
 15
0.0
 25
0.0
 35
0.0
146
0.0
 13
0.0
 23
0.0
 33
0.0
 16
1.0
 26
0.0
 36
0.0
 17
0.0
 27
1.0
 37
0.0
 76
     0
330
1B
331
0
345
0
346
0
  0
LAYOUT
  5
26
102
{ACAD_REACTORS
330
1A
102
}
330
1A
100
AcDbPlotSettings
  1

  2

  4

  6

 40
0.0
 41
0.0
 42
0.0
 43
0.0
 44
0.0
 45
0.0
 46
0.0
 47
0.0
 48
0.0
 49
0.0
140
0.0
141
0.0
142
1.0
143
1.0
 70
   688
 72
     0
 73
     0
 74
     5
  7

 75
    16
147
1.0
148
0.0
149
0.0
100
AcDbLayout
  1
ﾚｲｱｳﾄ2
 70
     1
 71
     2
 10
0.0
 20
0.0
 11
0.0
 21
0.0
 12
0.0
 22
0.0
 32
0.0
 14
0.0
 24
0.0
 34
0.0
 15
0.0
 25
0.0
 35
0.0
146
0.0
 13
0.0
 23
0.0
 33
0.0
 16
1.0
 26
0.0
 36
0.0
 17
0.0
 27
1.0
 37
0.0
 76
     0
330
23
331
0
345
0
346
0
  0
DICTIONARY
  5
17
102
{ACAD_REACTORS
330
C
102
}
330
C
100
AcDbDictionary
280
     0
281
     1
  3
Standard
350
18
  0
MLINESTYLE
  5
18
102
{ACAD_REACTORS
330
17
102
}
330
17
100
AcDbMlineStyle
  2
STANDARD
 70
     0
  3

 62
   256
 51
90.0
 52
90.0
 71
     2
 49
0.5
 62
   256
  6
ByLayer
 49
-0.5
 62
   256
  6
ByLayer
  0
DICTIONARY
  5
19
102
{ACAD_REACTORS
330
C
102
}
330
C
100
AcDbDictionary
280
     0
281
     1
  0
ACDBDICTIONARYWDFLT
  5
E
330
C
100
AcDbDictionary
281
     0
  3
Normal
350
F
100
AcDbDictionaryWithDefault
340
F
  0
ACDBPLACEHOLDER
  5
F
102
{ACAD_REACTORS
330
E
102
}
330
E
  0
ENDSEC
  0
EOF
