  0
SECTION
  2
HEADER
  9
$ACADVER
  1
AC1015
  9
$ACADMAINTVER
 70
     6
  9
$DWGCODEPAGE
  3
ANSI_932
  9
$INSBASE
 10
0.0
 20
0.0
 30
0.0
  9
$EXTMIN
 10
0.0
 20
0.0
 30
0.0
  9
$EXTMAX
 10
840.0
 20
594.0
 30
0.0
  9
$LIMMIN
 10
0.0
 20
0.0
  9
$LIMMAX
 10
840.0
 20
594.0
  9
$ORTHOMODE
 70
     0
  9
$REGENMODE
 70
     1
  9
$FILLMODE
 70
     1
  9
$QTEXTMODE
 70
     0
  9
$MIRRTEXT
 70
     1
  9
$LTSCALE
 40
2.0
  9
$ATTMODE
 70
     1
  9
$TEXTSIZE
 40
2.5
  9
$TRACEWID
 40
1.0
  9
$TEXTSTYLE
  7
Standard
  9
$CLAYER
  8
0
  9
$CELTYPE
  6
ByLayer
  9
$CECOLOR
 62
   256
  9
$CELTSCALE
 40
1.0
  9
$DISPSILH
 70
     0
  9
$DIMSCALE
 40
1.0
  9
$DIMASZ
 40
2.5
  9
$DIMEXO
 40
0.625
  9
$DIMDLI
 40
3.75
  9
$DIMRND
 40
0.0
  9
$DIMDLE
 40
0.0
  9
$DIMEXE
 40
1.25
  9
$DIMTP
 40
0.0
  9
$DIMTM
 40
0.0
  9
$DIMTXT
 40
2.5
  9
$DIMCEN
 40
2.5
  9
$DIMTSZ
 40
0.0
  9
$DIMTOL
 70
     0
  9
$DIMLIM
 70
     0
  9
$DIMTIH
 70
     0
  9
$DIMTOH
 70
     0
  9
$DIMSE1
 70
     0
  9
$DIMSE2
 70
     0
  9
$DIMTAD
 70
     1
  9
$DIMZIN
 70
     8
  9
$DIMBLK
  1

  9
$DIMASO
 70
     1
  9
$DIMSHO
 70
     1
  9
$DIMPOST
  1

  9
$DIMAPOST
  1

  9
$DIMALT
 70
     0
  9
$DIMALTD
 70
     3
  9
$DIMALTF
 40
0.03937007874016
  9
$DIMLFAC
 40
1.0
  9
$DIMTOFL
 70
     1
  9
$DIMTVP
 40
0.0
  9
$DIMTIX
 70
     0
  9
$DIMSOXD
 70
     0
  9
$DIMSAH
 70
     0
  9
$DIMBLK1
  1

  9
$DIMBLK2
  1

  9
$DIMSTYLE
  2
ISO-25
  9
$DIMCLRD
 70
     0
  9
$DIMCLRE
 70
     0
  9
$DIMCLRT
 70
     0
  9
$DIMTFAC
 40
1.0
  9
$DIMGAP
 40
0.625
  9
$DIMJUST
 70
     0
  9
$DIMSD1
 70
     0
  9
$DIMSD2
 70
     0
  9
$DIMTOLJ
 70
     0
  9
$DIMTZIN
 70
     8
  9
$DIMALTZ
 70
     0
  9
$DIMALTTZ
 70
     0
  9
$DIMUPT
 70
     0
  9
$DIMDEC
 70
     2
  9
$DIMTDEC
 70
     2
  9
$DIMALTU
 70
     2
  9
$DIMALTTD
 70
     3
  9
$DIMTXSTY
  7
Standard
  9
$DIMAUNIT
 70
     0
  9
$DIMADEC
 70
     0
  9
$DIMALTRND
 40
0.0
  9
$DIMAZIN
 70
     0
  9
$DIMDSEP
 70
    46
  9
$DIMATFIT
 70
     3
  9
$DIMFRAC
 70
     0
  9
$DIMLDRBLK
  1

  9
$DIMLUNIT
 70
     2
  9
$DIMLWD
 70
    -2
  9
$DIMLWE
 70
    -2
  9
$DIMTMOVE
 70
     0
  9
$LUNITS
 70
     2
  9
$LUPREC
 70
     4
  9
$SKETCHINC
 40
1.0
  9
$FILLETRAD
 40
10.0
  9
$AUNITS
 70
     0
  9
$AUPREC
 70
     0
  9
$MENU
  1
.
  9
$ELEVATION
 40
0.0
  9
$PELEVATION
 40
0.0
  9
$THICKNESS
 40
0.0
  9
$LIMCHECK
 70
     0
  9
$CHAMFERA
 40
10.0
  9
$CHAMFERB
 40
10.0
  9
$CHAMFERC
 40
20.0
  9
$CHAMFERD
 40
0.0
  9
$SKPOLY
 70
     0
  9
$TDCREATE
 40
2458995.000000
  9
$TDUCREATE
 40
0.000000000
  9
$TDUPDATE
 40
2458995.000000
  9
$TDUUPDATE
 40
2458995.000000
  9
$TDINDWG
 40
0.0
  9
$TDUSRTIMER
 40
0.0
  9
$USRTIMER
 70
     1
  9
$ANGBASE
 50
0.0
  9
$ANGDIR
 70
     0
  9
$PDMODE
 70
     0
  9
$PDSIZE
 40
0.0
  9
$PLINEWID
 40
0.0
  9
$SPLFRAME
 70
     0
  9
$SPLINETYPE
 70
     6
  9
$SPLINESEGS
 70
     8
  9
$HANDSEED
  5
0411
  9
$SURFTAB1
 70
     6
  9
$SURFTAB2
 70
     6
  9
$SURFTYPE
 70
     6
  9
$SURFU
 70
     6
  9
$SURFV
 70
     6
  9
$UCSBASE
  2

  9
$UCSNAME
  2

  9
$UCSORG
 10
0.0
 20
0.0
 30
0.0
  9
$UCSXDIR
 10
1.0
 20
0.0
 30
0.0
  9
$UCSYDIR
 10
0.0
 20
1.0
 30
0.0
  9
$UCSORTHOREF
  2

  9
$UCSORTHOVIEW
 70
     0
  9
$UCSORGTOP
 10
0.0
 20
0.0
 30
0.0
  9
$UCSORGBOTTOM
 10
0.0
 20
0.0
 30
0.0
  9
$UCSORGLEFT
 10
0.0
 20
0.0
 30
0.0
  9
$UCSORGRIGHT
 10
0.0
 20
0.0
 30
0.0
  9
$UCSORGFRONT
 10
0.0
 20
0.0
 30
0.0
  9
$UCSORGBACK
 10
0.0
 20
0.0
 30
0.0
  9
$PUCSBASE
  2

  9
$PUCSNAME
  2

  9
$PUCSORG
 10
0.0
 20
0.0
 30
0.0
  9
$PUCSXDIR
 10
1.0
 20
0.0
 30
0.0
  9
$PUCSYDIR
 10
0.0
 20
1.0
 30
0.0
  9
$PUCSORTHOREF
  2

  9
$PUCSORTHOVIEW
 70
     0
  9
$PUCSORGTOP
 10
0.0
 20
0.0
 30
0.0
  9
$PUCSORGBOTTOM
 10
0.0
 20
0.0
 30
0.0
  9
$PUCSORGLEFT
 10
0.0
 20
0.0
 30
0.0
  9
$PUCSORGRIGHT
 10
0.0
 20
0.0
 30
0.0
  9
$PUCSORGFRONT
 10
0.0
 20
0.0
 30
0.0
  9
$PUCSORGBACK
 10
0.0
 20
0.0
 30
0.0
  9
$USERI1
 70
     0
  9
$USERI2
 70
     0
  9
$USERI3
 70
     0
  9
$USERI4
 70
     0
  9
$USERI5
 70
     0
  9
$USERR1
 40
0.0
  9
$USERR2
 40
0.0
  9
$USERR3
 40
0.0
  9
$USERR4
 40
0.0
  9
$USERR5
 40
0.0
  9
$WORLDVIEW
 70
     1
  9
$SHADEDGE
 70
     3
  9
$SHADEDIF
 70
    70
  9
$TILEMODE
 70
     1
  9
$MAXACTVP
 70
    64
  9
$PINSBASE
 10
0.0
 20
0.0
 30
0.0
  9
$PLIMCHECK
 70
     0
  9
$PEXTMIN
 10
1.000000E+20
 20
1.000000E+20
 30
1.000000E+20
  9
$PEXTMAX
 10
-1.000000E+20
 20
-1.000000E+20
 30
-1.000000E+20
  9
$PLIMMIN
 10
0.0
 20
0.0
  9
$PLIMMAX
 10
0.0
 20
0.0
  9
$UNITMODE
 70
     0
  9
$VISRETAIN
 70
     0
  9
$PLINEGEN
 70
     0
  9
$PSLTSCALE
 70
     1
  9
$TREEDEPTH
 70
  3020
  9
$CMLSTYLE
  2
STANDARD
  9
$CMLJUST
 70
     0
  9
$CMLSCALE
 40
20.0
  9
$PROXYGRAPHICS
 70
     1
  9
$MEASUREMENT
 70
     1
  9
$CELWEIGHT
370
    -1
  9
$ENDCAPS
280
     0
  9
$JOINSTYLE
280
     0
  9
$LWDISPLAY
290
     0
  9
$INSUNITS
 70
     4
  9
$HYPERLINKBASE
  1

  9
$STYLESHEET
  1

  9
$XEDIT
290
     1
  9
$CEPSNTYPE
380
     0
  9
$PSTYLEMODE
290
     1
  9
$FINGERPRINTGUID
  2
{EFED668D-9090-2A7C-5BAD-95338674A708}
  9
$VERSIONGUID
  2
{7540A845-63D9-FB35-1772-4E23D7CBB0EF}
  9
$EXTNAMES
290
     1
  9
$PSVPSCALE
 40
0.0
  0
ENDSEC
  0
SECTION
  2
CLASSES
  0
ENDSEC
  0
SECTION
  2
TABLES
  0
TABLE
  2
VPORT
  5
8
330
0
100
AcDbSymbolTable
 70
     3
  0
VPORT
  5
29
330
8
100
AcDbSymbolTableRecord
100
AcDbViewportTableRecord
  2
*Active
 70
     0
 10
0.0
 20
0.0
 11
1.0
 21
1.0
 12
420.0
 22
297.0
 13
0.0
 23
0.0
 14
10.0
 24
10.0
 15
0.0
 25
0.0
 16
0.0
 26
0.0
 36
1.0
 17
0.0
 27
0.0
 37
0.0
 40
594.0
 41
1.414141414
 42
50.0
 43
0.0
 44
0.0
 50
0.0
 51
0.0
 71
     0
 72
  1000
 73
     1
 74
     3
 75
     0
 76
     0
 77
     0
 78
     0
281
     0
 65
     0
110
0.0
120
0.0
130
0.0
111
1.0
121
0.0
131
0.0
112
0.0
122
1.0
132
0.0
 79
     0
146
0.0
  0
ENDTAB
  0
TABLE
  2
LTYPE
  5
5
330
0
100
AcDbSymbolTable
 70
     6
  0
LTYPE
  5
14
330
5
100
AcDbSymbolTableRecord
100
AcDbLinetypeTableRecord
  2
ByBlock
 70
     0
  3

 72
    65
 73
     0
 40
0.0
  0
LTYPE
  5
15
330
5
100
AcDbSymbolTableRecord
100
AcDbLinetypeTableRecord
  2
ByLayer
 70
     0
  3

 72
    65
 73
     0
 40
0.0
  0
LTYPE
  5
16
330
5
100
AcDbSymbolTableRecord
100
AcDbLinetypeTableRecord
  2
Continuous
 70
     0
  3
Solid line
 72
    65
 73
     0
 40
0.0
  0
LTYPE
  5
FE
330
5
100
AcDbSymbolTableRecord
100
AcDbLinetypeTableRecord
  2
LTYPE1
 70
     0
  3
HIDDEN
 72
    65
 73
     2
 40
3.0
 49
1.8
 74
     0
 49
-1.2
 74
     0
  0
LTYPE
  5
11C
330
5
100
AcDbSymbolTableRecord
100
AcDbLinetypeTableRecord
  2
LTYPE2
 70
     0
  3
CENTER
 72
    65
 73
     4
 40
15.0
 49
10.5
 74
     0
 49
-1.5
 74
     0
 49
1.5
 74
     0
 49
-1.5
 74
     0
  0
LTYPE
  5
256
330
5
100
AcDbSymbolTableRecord
100
AcDbLinetypeTableRecord
  2
LTYPE3
 70
     0
  3
CENTER
 72
    65
 73
     4
 40
10.16
 49
7.112
 74
     0
 49
-1.016
 74
     0
 49
1.016
 74
     0
 49
-1.016
 74
     0
  0
ENDTAB
  0
TABLE
  2
LAYER
  5
2
330
0
100
AcDbSymbolTable
 70
   128
  0
LAYER
  5
10
330
2
100
AcDbSymbolTableRecord
100
AcDbLayerTableRecord
  2
0
 70
     0
 62
     7
  6
Continuous
290
     1
370
    -3
390
F
  0
LAYER
  5
2A
330
2
100
AcDbSymbolTableRecord
100
AcDbLayerTableRecord
  2
2
 70
     0
 62
     7
  6
Continuous
290
     1
370
    -3
390
F
  0
LAYER
  5
2B
330
2
100
AcDbSymbolTableRecord
100
AcDbLayerTableRecord
  2
3
 70
     0
 62
     7
  6
Continuous
290
     1
370
    -3
390
F
  0
LAYER
  5
2C
330
2
100
AcDbSymbolTableRecord
100
AcDbLayerTableRecord
  2
4
 70
     0
 62
     7
  6
Continuous
290
     1
370
    -3
390
F
  0
LAYER
  5
2D
330
2
100
AcDbSymbolTableRecord
100
AcDbLayerTableRecord
  2
5
 70
     0
 62
     7
  6
Continuous
290
     1
370
    -3
390
F
  0
LAYER
  5
2E
330
2
100
AcDbSymbolTableRecord
100
AcDbLayerTableRecord
  2
6
 70
     0
 62
     7
  6
Continuous
290
     1
370
    -3
390
F
  0
LAYER
  5
2F
330
2
100
AcDbSymbolTableRecord
100
AcDbLayerTableRecord
  2
7
 70
     0
 62
     7
  6
Continuous
290
     1
370
    -3
390
F
  0
LAYER
  5
30
330
2
100
AcDbSymbolTableRecord
100
AcDbLayerTableRecord
  2
8
 70
     0
 62
     7
  6
Continuous
290
     1
370
    -3
390
F
  0
LAYER
  5
31
330
2
100
AcDbSymbolTableRecord
100
AcDbLayerTableRecord
  2
9
 70
     0
 62
     7
  6
Continuous
290
     1
370
    -3
390
F
  0
LAYER
  5
32
330
2
100
AcDbSymbolTableRecord
100
AcDbLayerTableRecord
  2
10
 70
     0
 62
     7
  6
Continuous
290
     1
370
    -3
390
F
  0
LAYER
  5
33
330
2
100
AcDbSymbolTableRecord
100
AcDbLayerTableRecord
  2
11
 70
     0
 62
     7
  6
Continuous
290
     1
370
    -3
390
F
  0
LAYER
  5
34
330
2
100
AcDbSymbolTableRecord
100
AcDbLayerTableRecord
  2
12
 70
     0
 62
     7
  6
Continuous
290
     1
370
    -3
390
F
  0
LAYER
  5
35
330
2
100
AcDbSymbolTableRecord
100
AcDbLayerTableRecord
  2
13
 70
     0
 62
     7
  6
Continuous
290
     1
370
    -3
390
F
  0
LAYER
  5
36
330
2
100
AcDbSymbolTableRecord
100
AcDbLayerTableRecord
  2
14
 70
     0
 62
     7
  6
Continuous
290
     1
370
    -3
390
F
  0
LAYER
  5
37
330
2
100
AcDbSymbolTableRecord
100
AcDbLayerTableRecord
  2
15
 70
     0
 62
     7
  6
Continuous
290
     1
370
    -3
390
F
  0
LAYER
  5
38
330
2
100
AcDbSymbolTableRecord
100
AcDbLayerTableRecord
  2
16
 70
     0
 62
     7
  6
Continuous
290
     1
370
    -3
390
F
  0
LAYER
  5
39
330
2
100
AcDbSymbolTableRecord
100
AcDbLayerTableRecord
  2
17
 70
     0
 62
     7
  6
Continuous
290
     1
370
    -3
390
F
  0
LAYER
  5
3A
330
2
100
AcDbSymbolTableRecord
100
AcDbLayerTableRecord
  2
18
 70
     0
 62
     7
  6
Continuous
290
     1
370
    -3
390
F
  0
LAYER
  5
3B
330
2
100
AcDbSymbolTableRecord
100
AcDbLayerTableRecord
  2
19
 70
     0
 62
     7
  6
Continuous
290
     1
370
    -3
390
F
  0
LAYER
  5
3C
330
2
100
AcDbSymbolTableRecord
100
AcDbLayerTableRecord
  2
20
 70
     0
 62
     7
  6
Continuous
290
     1
370
    -3
390
F
  0
LAYER
  5
3D
330
2
100
AcDbSymbolTableRecord
100
AcDbLayerTableRecord
  2
21
 70
     0
 62
     7
  6
Continuous
290
     1
370
    -3
390
F
  0
LAYER
  5
3E
330
2
100
AcDbSymbolTableRecord
100
AcDbLayerTableRecord
  2
22
 70
     0
 62
     7
  6
Continuous
290
     1
370
    -3
390
F
  0
LAYER
  5
3F
330
2
100
AcDbSymbolTableRecord
100
AcDbLayerTableRecord
  2
23
 70
     0
 62
     7
  6
Continuous
290
     1
370
    -3
390
F
  0
LAYER
  5
40
330
2
100
AcDbSymbolTableRecord
100
AcDbLayerTableRecord
  2
24
 70
     0
 62
     7
  6
Continuous
290
     1
370
    -3
390
F
  0
LAYER
  5
41
330
2
100
AcDbSymbolTableRecord
100
AcDbLayerTableRecord
  2
25
 70
     0
 62
     7
  6
Continuous
290
     1
370
    -3
390
F
  0
LAYER
  5
42
330
2
100
AcDbSymbolTableRecord
100
AcDbLayerTableRecord
  2
26
 70
     0
 62
     7
  6
Continuous
290
     1
370
    -3
390
F
  0
LAYER
  5
43
330
2
100
AcDbSymbolTableRecord
100
AcDbLayerTableRecord
  2
27
 70
     0
 62
     7
  6
Continuous
290
     1
370
    -3
390
F
  0
LAYER
  5
44
330
2
100
AcDbSymbolTableRecord
100
AcDbLayerTableRecord
  2
28
 70
     0
 62
     7
  6
Continuous
290
     1
370
    -3
390
F
  0
LAYER
  5
45
330
2
100
AcDbSymbolTableRecord
100
AcDbLayerTableRecord
  2
29
 70
     0
 62
     7
  6
Continuous
290
     1
370
    -3
390
F
  0
LAYER
  5
46
330
2
100
AcDbSymbolTableRecord
100
AcDbLayerTableRecord
  2
30
 70
     0
 62
     7
  6
Continuous
290
     1
370
    -3
390
F
  0
LAYER
  5
47
330
2
100
AcDbSymbolTableRecord
100
AcDbLayerTableRecord
  2
31
 70
     0
 62
     7
  6
Continuous
290
     1
370
    -3
390
F
  0
LAYER
  5
48
330
2
100
AcDbSymbolTableRecord
100
AcDbLayerTableRecord
  2
32
 70
     0
 62
     7
  6
Continuous
290
     1
370
    -3
390
F
  0
LAYER
  5
49
330
2
100
AcDbSymbolTableRecord
100
AcDbLayerTableRecord
  2
33
 70
     0
 62
     7
  6
Continuous
290
     1
370
    -3
390
F
  0
LAYER
  5
4A
330
2
100
AcDbSymbolTableRecord
100
AcDbLayerTableRecord
  2
34
 70
     0
 62
     7
  6
Continuous
290
     1
370
    -3
390
F
  0
LAYER
  5
4B
330
2
100
AcDbSymbolTableRecord
100
AcDbLayerTableRecord
  2
35
 70
     0
 62
     7
  6
Continuous
290
     1
370
    -3
390
F
  0
LAYER
  5
4C
330
2
100
AcDbSymbolTableRecord
100
AcDbLayerTableRecord
  2
36
 70
     0
 62
     7
  6
Continuous
290
     1
370
    -3
390
F
  0
LAYER
  5
4D
330
2
100
AcDbSymbolTableRecord
100
AcDbLayerTableRecord
  2
37
 70
     0
 62
     7
  6
Continuous
290
     1
370
    -3
390
F
  0
LAYER
  5
4E
330
2
100
AcDbSymbolTableRecord
100
AcDbLayerTableRecord
  2
38
 70
     0
 62
     7
  6
Continuous
290
     1
370
    -3
390
F
  0
LAYER
  5
4F
330
2
100
AcDbSymbolTableRecord
100
AcDbLayerTableRecord
  2
39
 70
     0
 62
     7
  6
Continuous
290
     1
370
    -3
390
F
  0
LAYER
  5
50
330
2
100
AcDbSymbolTableRecord
100
AcDbLayerTableRecord
  2
40
 70
     0
 62
     7
  6
Continuous
290
     1
370
    -3
390
F
  0
LAYER
  5
51
330
2
100
AcDbSymbolTableRecord
100
AcDbLayerTableRecord
  2
41
 70
     0
 62
     7
  6
Continuous
290
     1
370
    -3
390
F
  0
LAYER
  5
52
330
2
100
AcDbSymbolTableRecord
100
AcDbLayerTableRecord
  2
42
 70
     0
 62
     7
  6
Continuous
290
     1
370
    -3
390
F
  0
LAYER
  5
53
330
2
100
AcDbSymbolTableRecord
100
AcDbLayerTableRecord
  2
43
 70
     0
 62
     7
  6
Continuous
290
     1
370
    -3
390
F
  0
LAYER
  5
54
330
2
100
AcDbSymbolTableRecord
100
AcDbLayerTableRecord
  2
44
 70
     0
 62
     7
  6
Continuous
290
     1
370
    -3
390
F
  0
LAYER
  5
55
330
2
100
AcDbSymbolTableRecord
100
AcDbLayerTableRecord
  2
45
 70
     0
 62
     7
  6
Continuous
290
     1
370
    -3
390
F
  0
LAYER
  5
56
330
2
100
AcDbSymbolTableRecord
100
AcDbLayerTableRecord
  2
46
 70
     0
 62
     7
  6
Continuous
290
     1
370
    -3
390
F
  0
LAYER
  5
57
330
2
100
AcDbSymbolTableRecord
100
AcDbLayerTableRecord
  2
47
 70
     0
 62
     7
  6
Continuous
290
     1
370
    -3
390
F
  0
LAYER
  5
58
330
2
100
AcDbSymbolTableRecord
100
AcDbLayerTableRecord
  2
48
 70
     0
 62
     7
  6
Continuous
290
     1
370
    -3
390
F
  0
LAYER
  5
59
330
2
100
AcDbSymbolTableRecord
100
AcDbLayerTableRecord
  2
49
 70
     0
 62
     7
  6
Continuous
290
     1
370
    -3
390
F
  0
LAYER
  5
5A
330
2
100
AcDbSymbolTableRecord
100
AcDbLayerTableRecord
  2
50
 70
     0
 62
     7
  6
Continuous
290
     1
370
    -3
390
F
  0
LAYER
  5
5B
330
2
100
AcDbSymbolTableRecord
100
AcDbLayerTableRecord
  2
51
 70
     0
 62
     7
  6
Continuous
290
     1
370
    -3
390
F
  0
LAYER
  5
5C
330
2
100
AcDbSymbolTableRecord
100
AcDbLayerTableRecord
  2
52
 70
     0
 62
     7
  6
Continuous
290
     1
370
    -3
390
F
  0
LAYER
  5
5D
330
2
100
AcDbSymbolTableRecord
100
AcDbLayerTableRecord
  2
53
 70
     0
 62
     7
  6
Continuous
290
     1
370
    -3
390
F
  0
LAYER
  5
5E
330
2
100
AcDbSymbolTableRecord
100
AcDbLayerTableRecord
  2
54
 70
     0
 62
     7
  6
Continuous
290
     1
370
    -3
390
F
  0
LAYER
  5
5F
330
2
100
AcDbSymbolTableRecord
100
AcDbLayerTableRecord
  2
55
 70
     0
 62
     7
  6
Continuous
290
     1
370
    -3
390
F
  0
LAYER
  5
60
330
2
100
AcDbSymbolTableRecord
100
AcDbLayerTableRecord
  2
56
 70
     0
 62
     7
  6
Continuous
290
     1
370
    -3
390
F
  0
LAYER
  5
61
330
2
100
AcDbSymbolTableRecord
100
AcDbLayerTableRecord
  2
57
 70
     0
 62
     7
  6
Continuous
290
     1
370
    -3
390
F
  0
LAYER
  5
62
330
2
100
AcDbSymbolTableRecord
100
AcDbLayerTableRecord
  2
58
 70
     0
 62
     7
  6
Continuous
290
     1
370
    -3
390
F
  0
LAYER
  5
63
330
2
100
AcDbSymbolTableRecord
100
AcDbLayerTableRecord
  2
59
 70
     0
 62
     7
  6
Continuous
290
     1
370
    -3
390
F
  0
LAYER
  5
64
330
2
100
AcDbSymbolTableRecord
100
AcDbLayerTableRecord
  2
60
 70
     0
 62
     7
  6
Continuous
290
     1
370
    -3
390
F
  0
LAYER
  5
65
330
2
100
AcDbSymbolTableRecord
100
AcDbLayerTableRecord
  2
61
 70
     0
 62
     7
  6
Continuous
290
     1
370
    -3
390
F
  0
LAYER
  5
66
330
2
100
AcDbSymbolTableRecord
100
AcDbLayerTableRecord
  2
62
 70
     0
 62
     7
  6
Continuous
290
     1
370
    -3
390
F
  0
LAYER
  5
67
330
2
100
AcDbSymbolTableRecord
100
AcDbLayerTableRecord
  2
63
 70
     0
 62
     7
  6
Continuous
290
     1
370
    -3
390
F
  0
LAYER
  5
68
330
2
100
AcDbSymbolTableRecord
100
AcDbLayerTableRecord
  2
64
 70
     0
 62
     7
  6
Continuous
290
     1
370
    -3
390
F
  0
LAYER
  5
69
330
2
100
AcDbSymbolTableRecord
100
AcDbLayerTableRecord
  2
65
 70
     0
 62
     7
  6
Continuous
290
     1
370
    -3
390
F
  0
LAYER
  5
6A
330
2
100
AcDbSymbolTableRecord
100
AcDbLayerTableRecord
  2
66
 70
     0
 62
     7
  6
Continuous
290
     1
370
    -3
390
F
  0
LAYER
  5
6B
330
2
100
AcDbSymbolTableRecord
100
AcDbLayerTableRecord
  2
67
 70
     0
 62
     7
  6
Continuous
290
     1
370
    -3
390
F
  0
LAYER
  5
6C
330
2
100
AcDbSymbolTableRecord
100
AcDbLayerTableRecord
  2
68
 70
     0
 62
     7
  6
Continuous
290
     1
370
    -3
390
F
  0
LAYER
  5
6D
330
2
100
AcDbSymbolTableRecord
100
AcDbLayerTableRecord
  2
69
 70
     0
 62
     7
  6
Continuous
290
     1
370
    -3
390
F
  0
LAYER
  5
6E
330
2
100
AcDbSymbolTableRecord
100
AcDbLayerTableRecord
  2
70
 70
     0
 62
     7
  6
Continuous
290
     1
370
    -3
390
F
  0
LAYER
  5
6F
330
2
100
AcDbSymbolTableRecord
100
AcDbLayerTableRecord
  2
71
 70
     0
 62
     7
  6
Continuous
290
     1
370
    -3
390
F
  0
LAYER
  5
70
330
2
100
AcDbSymbolTableRecord
100
AcDbLayerTableRecord
  2
72
 70
     0
 62
     7
  6
Continuous
290
     1
370
    -3
390
F
  0
LAYER
  5
71
330
2
100
AcDbSymbolTableRecord
100
AcDbLayerTableRecord
  2
73
 70
     0
 62
     7
  6
Continuous
290
     1
370
    -3
390
F
  0
LAYER
  5
72
330
2
100
AcDbSymbolTableRecord
100
AcDbLayerTableRecord
  2
74
 70
     0
 62
     7
  6
Continuous
290
     1
370
    -3
390
F
  0
LAYER
  5
73
330
2
100
AcDbSymbolTableRecord
100
AcDbLayerTableRecord
  2
75
 70
     0
 62
     7
  6
Continuous
290
     1
370
    -3
390
F
  0
LAYER
  5
74
330
2
100
AcDbSymbolTableRecord
100
AcDbLayerTableRecord
  2
76
 70
     0
 62
     7
  6
Continuous
290
     1
370
    -3
390
F
  0
LAYER
  5
75
330
2
100
AcDbSymbolTableRecord
100
AcDbLayerTableRecord
  2
77
 70
     0
 62
     7
  6
Continuous
290
     1
370
    -3
390
F
  0
LAYER
  5
76
330
2
100
AcDbSymbolTableRecord
100
AcDbLayerTableRecord
  2
78
 70
     0
 62
     7
  6
Continuous
290
     1
370
    -3
390
F
  0
LAYER
  5
77
330
2
100
AcDbSymbolTableRecord
100
AcDbLayerTableRecord
  2
79
 70
     0
 62
     7
  6
Continuous
290
     1
370
    -3
390
F
  0
LAYER
  5
78
330
2
100
AcDbSymbolTableRecord
100
AcDbLayerTableRecord
  2
80
 70
     0
 62
     7
  6
Continuous
290
     1
370
    -3
390
F
  0
LAYER
  5
79
330
2
100
AcDbSymbolTableRecord
100
AcDbLayerTableRecord
  2
81
 70
     0
 62
     7
  6
Continuous
290
     1
370
    -3
390
F
  0
LAYER
  5
7A
330
2
100
AcDbSymbolTableRecord
100
AcDbLayerTableRecord
  2
82
 70
     0
 62
     7
  6
Continuous
290
     1
370
    -3
390
F
  0
LAYER
  5
7B
330
2
100
AcDbSymbolTableRecord
100
AcDbLayerTableRecord
  2
83
 70
     0
 62
     7
  6
Continuous
290
     1
370
    -3
390
F
  0
LAYER
  5
7C
330
2
100
AcDbSymbolTableRecord
100
AcDbLayerTableRecord
  2
84
 70
     0
 62
     7
  6
Continuous
290
     1
370
    -3
390
F
  0
LAYER
  5
7D
330
2
100
AcDbSymbolTableRecord
100
AcDbLayerTableRecord
  2
85
 70
     0
 62
     7
  6
Continuous
290
     1
370
    -3
390
F
  0
LAYER
  5
7E
330
2
100
AcDbSymbolTableRecord
100
AcDbLayerTableRecord
  2
86
 70
     0
 62
     7
  6
Continuous
290
     1
370
    -3
390
F
  0
LAYER
  5
7F
330
2
100
AcDbSymbolTableRecord
100
AcDbLayerTableRecord
  2
87
 70
     0
 62
     7
  6
Continuous
290
     1
370
    -3
390
F
  0
LAYER
  5
80
330
2
100
AcDbSymbolTableRecord
100
AcDbLayerTableRecord
  2
88
 70
     0
 62
     7
  6
Continuous
290
     1
370
    -3
390
F
  0
LAYER
  5
81
330
2
100
AcDbSymbolTableRecord
100
AcDbLayerTableRecord
  2
89
 70
     0
 62
     7
  6
Continuous
290
     1
370
    -3
390
F
  0
LAYER
  5
82
330
2
100
AcDbSymbolTableRecord
100
AcDbLayerTableRecord
  2
90
 70
     0
 62
     7
  6
Continuous
290
     1
370
    -3
390
F
  0
LAYER
  5
83
330
2
100
AcDbSymbolTableRecord
100
AcDbLayerTableRecord
  2
91
 70
     0
 62
     7
  6
Continuous
290
     1
370
    -3
390
F
  0
LAYER
  5
84
330
2
100
AcDbSymbolTableRecord
100
AcDbLayerTableRecord
  2
92
 70
     0
 62
     7
  6
Continuous
290
     1
370
    -3
390
F
  0
LAYER
  5
85
330
2
100
AcDbSymbolTableRecord
100
AcDbLayerTableRecord
  2
93
 70
     0
 62
     7
  6
Continuous
290
     1
370
    -3
390
F
  0
LAYER
  5
86
330
2
100
AcDbSymbolTableRecord
100
AcDbLayerTableRecord
  2
94
 70
     0
 62
     7
  6
Continuous
290
     1
370
    -3
390
F
  0
LAYER
  5
87
330
2
100
AcDbSymbolTableRecord
100
AcDbLayerTableRecord
  2
95
 70
     0
 62
     7
  6
Continuous
290
     1
370
    -3
390
F
  0
LAYER
  5
88
330
2
100
AcDbSymbolTableRecord
100
AcDbLayerTableRecord
  2
96
 70
     0
 62
     7
  6
Continuous
290
     1
370
    -3
390
F
  0
LAYER
  5
89
330
2
100
AcDbSymbolTableRecord
100
AcDbLayerTableRecord
  2
97
 70
     0
 62
     7
  6
Continuous
290
     1
370
    -3
390
F
  0
LAYER
  5
8A
330
2
100
AcDbSymbolTableRecord
100
AcDbLayerTableRecord
  2
98
 70
     0
 62
     7
  6
Continuous
290
     1
370
    -3
390
F
  0
LAYER
  5
8B
330
2
100
AcDbSymbolTableRecord
100
AcDbLayerTableRecord
  2
99
 70
     0
 62
     7
  6
Continuous
290
     1
370
    -3
390
F
  0
LAYER
  5
8C
330
2
100
AcDbSymbolTableRecord
100
AcDbLayerTableRecord
  2
100
 70
     0
 62
     7
  6
Continuous
290
     1
370
    -3
390
F
  0
LAYER
  5
8D
330
2
100
AcDbSymbolTableRecord
100
AcDbLayerTableRecord
  2
101
 70
     0
 62
     7
  6
Continuous
290
     1
370
    -3
390
F
  0
LAYER
  5
8E
330
2
100
AcDbSymbolTableRecord
100
AcDbLayerTableRecord
  2
102
 70
     0
 62
     7
  6
Continuous
290
     1
370
    -3
390
F
  0
LAYER
  5
8F
330
2
100
AcDbSymbolTableRecord
100
AcDbLayerTableRecord
  2
103
 70
     0
 62
     7
  6
Continuous
290
     1
370
    -3
390
F
  0
LAYER
  5
90
330
2
100
AcDbSymbolTableRecord
100
AcDbLayerTableRecord
  2
104
 70
     0
 62
     7
  6
Continuous
290
     1
370
    -3
390
F
  0
LAYER
  5
91
330
2
100
AcDbSymbolTableRecord
100
AcDbLayerTableRecord
  2
105
 70
     0
 62
     7
  6
Continuous
290
     1
370
    -3
390
F
  0
LAYER
  5
92
330
2
100
AcDbSymbolTableRecord
100
AcDbLayerTableRecord
  2
106
 70
     0
 62
     7
  6
Continuous
290
     1
370
    -3
390
F
  0
LAYER
  5
93
330
2
100
AcDbSymbolTableRecord
100
AcDbLayerTableRecord
  2
107
 70
     0
 62
     7
  6
Continuous
290
     1
370
    -3
390
F
  0
LAYER
  5
94
330
2
100
AcDbSymbolTableRecord
100
AcDbLayerTableRecord
  2
108
 70
     0
 62
     7
  6
Continuous
290
     1
370
    -3
390
F
  0
LAYER
  5
95
330
2
100
AcDbSymbolTableRecord
100
AcDbLayerTableRecord
  2
109
 70
     0
 62
     7
  6
Continuous
290
     1
370
    -3
390
F
  0
LAYER
  5
96
330
2
100
AcDbSymbolTableRecord
100
AcDbLayerTableRecord
  2
110
 70
     0
 62
     7
  6
Continuous
290
     1
370
    -3
390
F
  0
LAYER
  5
97
330
2
100
AcDbSymbolTableRecord
100
AcDbLayerTableRecord
  2
111
 70
     0
 62
     7
  6
Continuous
290
     1
370
    -3
390
F
  0
LAYER
  5
98
330
2
100
AcDbSymbolTableRecord
100
AcDbLayerTableRecord
  2
112
 70
     0
 62
     7
  6
Continuous
290
     1
370
    -3
390
F
  0
LAYER
  5
99
330
2
100
AcDbSymbolTableRecord
100
AcDbLayerTableRecord
  2
113
 70
     0
 62
     7
  6
Continuous
290
     1
370
    -3
390
F
  0
LAYER
  5
9A
330
2
100
AcDbSymbolTableRecord
100
AcDbLayerTableRecord
  2
114
 70
     0
 62
     7
  6
Continuous
290
     1
370
    -3
390
F
  0
LAYER
  5
9B
330
2
100
AcDbSymbolTableRecord
100
AcDbLayerTableRecord
  2
115
 70
     0
 62
     7
  6
Continuous
290
     1
370
    -3
390
F
  0
LAYER
  5
9C
330
2
100
AcDbSymbolTableRecord
100
AcDbLayerTableRecord
  2
116
 70
     0
 62
     7
  6
Continuous
290
     1
370
    -3
390
F
  0
LAYER
  5
9D
330
2
100
AcDbSymbolTableRecord
100
AcDbLayerTableRecord
  2
117
 70
     0
 62
     7
  6
Continuous
290
     1
370
    -3
390
F
  0
LAYER
  5
9E
330
2
100
AcDbSymbolTableRecord
100
AcDbLayerTableRecord
  2
118
 70
     0
 62
     7
  6
Continuous
290
     1
370
    -3
390
F
  0
LAYER
  5
9F
330
2
100
AcDbSymbolTableRecord
100
AcDbLayerTableRecord
  2
119
 70
     0
 62
     7
  6
Continuous
290
     1
370
    -3
390
F
  0
LAYER
  5
A0
330
2
100
AcDbSymbolTableRecord
100
AcDbLayerTableRecord
  2
120
 70
     0
 62
     7
  6
Continuous
290
     1
370
    -3
390
F
  0
LAYER
  5
A1
330
2
100
AcDbSymbolTableRecord
100
AcDbLayerTableRecord
  2
121
 70
     0
 62
     7
  6
Continuous
290
     1
370
    -3
390
F
  0
LAYER
  5
A2
330
2
100
AcDbSymbolTableRecord
100
AcDbLayerTableRecord
  2
122
 70
     0
 62
     7
  6
Continuous
290
     1
370
    -3
390
F
  0
LAYER
  5
A3
330
2
100
AcDbSymbolTableRecord
100
AcDbLayerTableRecord
  2
123
 70
     0
 62
     7
  6
Continuous
290
     1
370
    -3
390
F
  0
LAYER
  5
A4
330
2
100
AcDbSymbolTableRecord
100
AcDbLayerTableRecord
  2
124
 70
     0
 62
     7
  6
Continuous
290
     1
370
    -3
390
F
  0
LAYER
  5
A5
330
2
100
AcDbSymbolTableRecord
100
AcDbLayerTableRecord
  2
125
 70
     0
 62
     7
  6
Continuous
290
     1
370
    -3
390
F
  0
LAYER
  5
A6
330
2
100
AcDbSymbolTableRecord
100
AcDbLayerTableRecord
  2
126
 70
     0
 62
     7
  6
Continuous
290
     1
370
    -3
390
F
  0
LAYER
  5
A7
330
2
100
AcDbSymbolTableRecord
100
AcDbLayerTableRecord
  2
127
 70
     0
 62
     7
  6
Continuous
290
     1
370
    -3
390
F
  0
LAYER
  5
A8
330
2
100
AcDbSymbolTableRecord
100
AcDbLayerTableRecord
  2
128
 70
     0
 62
     7
  6
Continuous
290
     1
370
    -3
390
F
  0
ENDTAB
  0
TABLE
  2
STYLE
  5
3
330
0
100
AcDbSymbolTable
 70
    10
  0
STYLE
  5
11
330
3
100
AcDbSymbolTableRecord
100
AcDbTextStyleTableRecord
  2
Standard
 70
     0
 40
0.0
 41
1.0
 50
0.0
 71
     0
 42
2.5
  3
txt.shx
  4
extfont.shx
  0
STYLE
  5
AA
330
3
100
AcDbSymbolTableRecord
100
AcDbTextStyleTableRecord
  2
KANJI0
 70
     0
 40
6.4
 41
0.78125
 50
0.0
 71
     0
 42
6.4
  3
txt.shx
  4
extfont.shx
  0
STYLE
  5
AF
330
3
100
AcDbSymbolTableRecord
100
AcDbTextStyleTableRecord
  2
KANJI1
 70
     0
 40
4.2
 41
0.900472653
 50
0.0
 71
     0
 42
4.2
  3
txt.shx
  4
extfont.shx
  0
STYLE
  5
B2
330
3
100
AcDbSymbolTableRecord
100
AcDbTextStyleTableRecord
  2
KANJI2
 70
     0
 40
5.0
 41
0.80829828
 50
0.0
 71
     0
 42
5.0
  3
txt.shx
  4
extfont.shx
  0
STYLE
  5
1E7
330
3
100
AcDbSymbolTableRecord
100
AcDbTextStyleTableRecord
  2
KANJI3
 70
     0
 40
6.0
 41
0.6
 50
0.0
 71
     0
 42
6.0
  3
txt.shx
  4
extfont.shx
  0
STYLE
  5
1FB
330
3
100
AcDbSymbolTableRecord
100
AcDbTextStyleTableRecord
  2
KANJI4
 70
     0
 40
6.0
 41
0.9
 50
0.0
 71
     0
 42
6.0
  3
txt.shx
  4
extfont.shx
  0
STYLE
  5
259
330
3
100
AcDbSymbolTableRecord
100
AcDbTextStyleTableRecord
  2
KANJI5
 70
     0
 40
3.704166667
 41
0.75
 50
0.0
 71
     0
 42
3.704166667
  3
txt.shx
  4
extfont.shx
  0
STYLE
  5
3F7
330
3
100
AcDbSymbolTableRecord
100
AcDbTextStyleTableRecord
  2
KANJI6
 70
     0
 40
6.75
 41
0.8
 50
0.0
 71
     0
 42
6.75
  3
txt.shx
  4
extfont.shx
  0
STYLE
  5
402
330
3
100
AcDbSymbolTableRecord
100
AcDbTextStyleTableRecord
  2
KANJI7
 70
     0
 40
6.0
 41
0.8
 50
0.0
 71
     0
 42
6.0
  3
txt.shx
  4
extfont.shx
  0
STYLE
  5
40F
330
3
100
AcDbSymbolTableRecord
100
AcDbTextStyleTableRecord
  2
KANJI8
 70
     0
 40
20.0
 41
1.0
 50
0.0
 71
     0
 42
20.0
  3
txt.shx
  4
extfont.shx
  0
ENDTAB
  0
TABLE
  2
VIEW
  5
6
330
0
100
AcDbSymbolTable
 70
     0
  0
ENDTAB
  0
TABLE
  2
UCS
  5
7
330
0
100
AcDbSymbolTable
 70
     0
  0
ENDTAB
  0
TABLE
  2
APPID
  5
9
330
0
100
AcDbSymbolTable
 70
     1
  0
APPID
  5
12
330
9
100
AcDbSymbolTableRecord
100
AcDbRegAppTableRecord
  2
ACAD
 70
     0
  0
ENDTAB
  0
TABLE
  2
DIMSTYLE
  5
A
330
0
100
AcDbSymbolTable
 70
     1
100
AcDbDimStyleTable
 71
     0
  0
DIMSTYLE
105
27
330
A
100
AcDbSymbolTableRecord
100
AcDbDimStyleTableRecord
  2
ISO-25
 70
    64
  3

  4

 40
1.0
 41
2.5
 42
0.625
 43
3.75
 44
1.25
 45
0.0
 46
0.0
 47
0.0
 48
0.0
 71
     0
 72
     0
 73
     0
 74
     0
 75
     0
 76
     0
 77
     1
 78
     8
 79
     0
140
2.5
141
2.5
142
0.0
143
0.039370079
144
1.0
145
0.0
146
1.0
147
0.625
148
0.0
170
     0
171
     3
172
     1
173
     0
174
     0
175
     0
176
     0
177
     0
178
     0
179
     0
270
     2
271
     2
272
     2
273
     2
274
     3
275
     0
276
     0
277
     2
278
    46
279
     0
280
     0
281
     0
282
     0
283
     1
284
     8
285
     0
286
     0
288
     0
289
     3
340
11
341
0
342
0
343
0
344
0
371
    -2
372
    -2
  0
ENDTAB
  0
TABLE
  2
BLOCK_RECORD
  5
1
330
0
100
AcDbSymbolTable
 70
     3
  0
BLOCK_RECORD
  5
1F
330
1
100
AcDbSymbolTableRecord
100
AcDbBlockTableRecord
  2
*Model_Space
340
22
  0
BLOCK_RECORD
  5
1B
330
1
100
AcDbSymbolTableRecord
100
AcDbBlockTableRecord
  2
*Paper_Space
340
1E
  0
BLOCK_RECORD
  5
23
330
1
100
AcDbSymbolTableRecord
100
AcDbBlockTableRecord
  2
*Paper_Space0
340
26
  0
ENDTAB
  0
ENDSEC
  0
SECTION
  2
BLOCKS
  0
BLOCK
  5
1C
330
1B
100
AcDbEntity
 67
     1
  8
0
100
AcDbBlockBegin
  2
*Paper_Space
 70
     0
 10
0.0
 20
0.0
 30
0.0
  3
*Paper_Space
  1

  0
ENDBLK
  5
1D
330
1B
100
AcDbEntity
  8
0
100
AcDbBlockEnd
  0
BLOCK
  5
20
330
1F
100
AcDbEntity
  8
0
100
AcDbBlockBegin
  2
*Model_Space
 70
     0
 10
0.0
 20
0.0
 30
0.0
  3
*Model_Space
  1

  0
ENDBLK
  5
21
330
1F
100
AcDbEntity
  8
0
100
AcDbBlockEnd
  0
BLOCK
  5
24
330
23
100
AcDbEntity
 67
     1
  8
0
100
AcDbBlockBegin
  2
*Paper_Space0
 70
     0
 10
0.0
 20
0.0
 30
0.0
  3
*Paper_Space0
  1

  0
ENDBLK
  5
25
330
23
100
AcDbEntity
  8
0
100
AcDbBlockEnd
  0
ENDSEC
  0
SECTION
  2
ENTITIES
  0
MTEXT
  5
A9
330
1F
100
AcDbEntity
  8
0
  6
Continuous
 62
     3
100
AcDbMText
 10
424.952150573
 20
267.274685858
 30
0.0
 40
6.4
 41
110.0
 71
     7
 72
     1
  1
\W0.781;ピッキングセンサ配線図
  7
KANJI0
 73
     1
 44
1.0
  0
LINE
  5
AB
330
1F
100
AcDbEntity
  8
3
  6
Continuous
 62
     7
100
AcDbLine
 10
488.191210117
 20
242.374002946
 30
0.0
 11
496.191210117
 21
242.374002946
 31
0.0
  0
LINE
  5
AC
330
1F
100
AcDbEntity
  8
3
  6
Continuous
 62
     7
100
AcDbLine
 10
488.191210117
 20
234.374002946
 30
0.0
 11
496.191210117
 21
234.374002946
 31
0.0
  0
LINE
  5
AD
330
1F
100
AcDbEntity
  8
3
  6
Continuous
 62
     7
100
AcDbLine
 10
488.191210117
 20
226.374002946
 30
0.0
 11
496.191210117
 21
226.374002946
 31
0.0
  0
MTEXT
  5
AE
330
1F
100
AcDbEntity
  8
0
  6
Continuous
 62
     3
100
AcDbMText
 10
500.504633463
 20
238.996951135
 30
0.0
 40
4.2
 41
15.127940571
 71
     7
 72
     1
  1
\W0.900;アオ
  7
KANJI1
 73
     1
 44
1.0
  0
ELLIPSE
  5
B0
330
1F
100
AcDbEntity
  8
2
  6
Continuous
 62
     3
100
AcDbEllipse
 10
539.683026936
 20
238.57078234
 30
0.0
 11
0.0
 21
14.625
 31
0.0
 40
0.16
 41
5.693077493
 42
3.834936433
  0
MTEXT
  5
B1
330
1F
100
AcDbEntity
  8
3
  6
Continuous
 62
     3
100
AcDbMText
 10
699.977775552
 20
244.285206137
 30
0.0
 40
5.0
 41
32.331931199
 71
     7
 72
     1
  1
\W0.808;＋２４Ｖ
  7
KANJI2
 73
     1
 44
1.0
  0
LINE
  5
B3
330
1F
100
AcDbEntity
  8
3
  6
Continuous
 62
     7
100
AcDbLine
 10
693.233329523
 20
242.785206137
 30
0.0
 11
722.233329523
 21
242.785206137
 31
0.0
  0
LINE
  5
B4
330
1F
100
AcDbEntity
  8
3
  6
Continuous
 62
     7
100
AcDbLine
 10
693.233329523
 20
234.785206137
 30
0.0
 11
722.233329523
 21
234.785206137
 31
0.0
  0
LINE
  5
B5
330
1F
100
AcDbEntity
  8
3
  6
Continuous
 62
     7
100
AcDbLine
 10
722.233329523
 20
250.785206137
 30
0.0
 11
722.233329523
 21
226.785206137
 31
0.0
  0
LINE
  5
B6
330
1F
100
AcDbEntity
  8
3
  6
Continuous
 62
     7
100
AcDbLine
 10
693.233329523
 20
250.785206137
 30
0.0
 11
693.233329523
 21
226.785206137
 31
0.0
  0
MTEXT
  5
B7
330
1F
100
AcDbEntity
  8
0
  6
Continuous
 62
     3
100
AcDbMText
 10
681.599306038
 20
247.131304623
 30
0.0
 40
4.2
 41
15.127940571
 71
     7
 72
     1
  1
\W0.900;チャ
  7
KANJI1
 73
     1
 44
1.0
  0
MTEXT
  5
B8
330
1F
100
AcDbEntity
  8
3
  6
Continuous
 62
     3
100
AcDbMText
 10
704.019266952
 20
236.285206137
 30
0.0
 40
5.0
 41
16.1659656
 71
     7
 72
     1
  1
\W0.808;０Ｖ
  7
KANJI2
 73
     1
 44
1.0
  0
MTEXT
  5
B9
330
1F
100
AcDbEntity
  8
0
  6
Continuous
 62
     3
100
AcDbMText
 10
681.599306038
 20
239.131304623
 30
0.0
 40
4.2
 41
15.127940571
 71
     7
 72
     1
  1
\W0.900;アオ
  7
KANJI1
 73
     1
 44
1.0
  0
LINE
  5
BA
330
1F
100
AcDbEntity
  8
3
  6
Continuous
 62
     3
100
AcDbLine
 10
692.193014596
 20
238.617034864
 30
0.0
 11
496.270283089
 21
238.527531561
 31
0.0
  0
LINE
  5
BB
330
1F
100
AcDbEntity
  8
3
  6
Continuous
 62
     3
100
AcDbLine
 10
692.193014596
 20
230.617034864
 30
0.0
 11
496.470283089
 21
230.527622927
 31
0.0
  0
MTEXT
  5
BC
330
1F
100
AcDbEntity
  8
3
  6
Continuous
 62
     3
100
AcDbMText
 10
469.728199146
 20
243.874002946
 30
0.0
 40
5.0
 41
48.497896799
 71
     7
 72
     1
  1
\W0.808;＋２４Ｖ　１
  7
KANJI2
 73
     1
 44
1.0
  0
MTEXT
  5
BD
330
1F
100
AcDbEntity
  8
3
  6
Continuous
 62
     3
100
AcDbMText
 10
477.811181945
 20
235.874002946
 30
0.0
 40
5.0
 41
32.331931199
 71
     7
 72
     1
  1
\W0.808;０Ｖ　２
  7
KANJI2
 73
     1
 44
1.0
  0
MTEXT
  5
BE
330
1F
100
AcDbEntity
  8
0
  6
Continuous
 62
     3
100
AcDbMText
 10
500.504633463
 20
230.996951135
 30
0.0
 40
4.2
 41
15.127940571
 71
     7
 72
     1
  1
\W0.900;モモ
  7
KANJI1
 73
     1
 44
1.0
  0
LINE
  5
BF
330
1F
100
AcDbEntity
  8
3
  6
Continuous
 62
     7
100
AcDbLine
 10
488.191210117
 20
250.374002946
 30
0.0
 11
488.191210117
 21
226.374002946
 31
0.0
  0
LINE
  5
C0
330
1F
100
AcDbEntity
  8
3
  6
Continuous
 62
     7
100
AcDbLine
 10
496.191210117
 20
250.374002946
 30
0.0
 11
496.191210117
 21
226.374002946
 31
0.0
  0
LINE
  5
C1
330
1F
100
AcDbEntity
  8
3
  6
Continuous
 62
     7
100
AcDbLine
 10
488.191210117
 20
250.374002946
 30
0.0
 11
496.191210117
 21
250.374002946
 31
0.0
  0
LINE
  5
C2
330
1F
100
AcDbEntity
  8
3
  6
Continuous
 62
     3
100
AcDbLine
 10
692.193014596
 20
246.617034864
 30
0.0
 11
496.56230628
 21
246.527664966
 31
0.0
  0
LINE
  5
C3
330
1F
100
AcDbEntity
  8
3
  6
Continuous
 62
     7
100
AcDbLine
 10
488.191210117
 20
202.374002946
 30
0.0
 11
496.191210117
 21
202.374002946
 31
0.0
  0
LINE
  5
C4
330
1F
100
AcDbEntity
  8
3
  6
Continuous
 62
     7
100
AcDbLine
 10
488.191210117
 20
194.374002946
 30
0.0
 11
496.191210117
 21
194.374002946
 31
0.0
  0
LINE
  5
C5
330
1F
100
AcDbEntity
  8
3
  6
Continuous
 62
     7
100
AcDbLine
 10
488.191210117
 20
186.374002946
 30
0.0
 11
496.191210117
 21
186.374002946
 31
0.0
  0
MTEXT
  5
C6
330
1F
100
AcDbEntity
  8
0
  6
Continuous
 62
     3
100
AcDbMText
 10
500.504633463
 20
190.996951135
 30
0.0
 40
4.2
 41
15.127940571
 71
     7
 72
     1
  1
\W0.900;モモ
  7
KANJI1
 73
     1
 44
1.0
  0
LINE
  5
C7
330
1F
100
AcDbEntity
  8
3
  6
Continuous
 62
     7
100
AcDbLine
 10
488.191210117
 20
210.374002946
 30
0.0
 11
488.191210117
 21
186.374002946
 31
0.0
  0
LINE
  5
C8
330
1F
100
AcDbEntity
  8
3
  6
Continuous
 62
     7
100
AcDbLine
 10
496.191210117
 20
210.374002946
 30
0.0
 11
496.191210117
 21
186.374002946
 31
0.0
  0
LINE
  5
C9
330
1F
100
AcDbEntity
  8
3
  6
Continuous
 62
     7
100
AcDbLine
 10
488.191210117
 20
210.374002946
 30
0.0
 11
496.191210117
 21
210.374002946
 31
0.0
  0
LINE
  5
CA
330
1F
100
AcDbEntity
  8
3
  6
Continuous
 62
     7
100
AcDbLine
 10
488.191210117
 20
162.374002946
 30
0.0
 11
496.191210117
 21
162.374002946
 31
0.0
  0
LINE
  5
CB
330
1F
100
AcDbEntity
  8
3
  6
Continuous
 62
     7
100
AcDbLine
 10
488.191210117
 20
154.374002946
 30
0.0
 11
496.191210117
 21
154.374002946
 31
0.0
  0
LINE
  5
CC
330
1F
100
AcDbEntity
  8
3
  6
Continuous
 62
     7
100
AcDbLine
 10
488.191210117
 20
146.374002946
 30
0.0
 11
496.191210117
 21
146.374002946
 31
0.0
  0
MTEXT
  5
CD
330
1F
100
AcDbEntity
  8
0
  6
Continuous
 62
     3
100
AcDbMText
 10
500.504633463
 20
158.996951135
 30
0.0
 40
4.2
 41
15.127940571
 71
     7
 72
     1
  1
\W0.900;アオ
  7
KANJI1
 73
     1
 44
1.0
  0
LINE
  5
CE
330
1F
100
AcDbEntity
  8
3
  6
Continuous
 62
     3
100
AcDbLine
 10
692.193014596
 20
150.617034864
 30
0.0
 11
496.470283089
 21
150.527622927
 31
0.0
  0
LINE
  5
CF
330
1F
100
AcDbEntity
  8
3
  6
Continuous
 62
     7
100
AcDbLine
 10
488.191210117
 20
170.374002946
 30
0.0
 11
496.191210117
 21
170.374002946
 31
0.0
  0
MTEXT
  5
D0
330
1F
100
AcDbEntity
  8
3
  6
Continuous
 62
     3
100
AcDbMText
 10
469.728199146
 20
171.874002946
 30
0.0
 40
5.0
 41
48.497896799
 71
     7
 72
     1
  1
\W0.808;＋２４Ｖ　１
  7
KANJI2
 73
     1
 44
1.0
  0
MTEXT
  5
D1
330
1F
100
AcDbEntity
  8
0
  6
Continuous
 62
     3
100
AcDbMText
 10
681.599306038
 20
231.131304623
 30
0.0
 40
4.2
 41
15.127940571
 71
     7
 72
     1
  1
\W0.900;モモ
  7
KANJI1
 73
     1
 44
1.0
  0
MTEXT
  5
D2
330
1F
100
AcDbEntity
  8
3
  6
Continuous
 62
     3
100
AcDbMText
 10
697.957029852
 20
228.285206137
 30
0.0
 40
5.0
 41
40.414913999
 71
     7
 72
     1
  1
\W0.808;作業指示灯
  7
KANJI2
 73
     1
 44
1.0
  0
MTEXT
  5
D3
330
1F
100
AcDbEntity
  8
0
  6
Continuous
 62
     3
100
AcDbMText
 10
500.504633463
 20
246.996951135
 30
0.0
 40
4.2
 41
15.127940571
 71
     7
 72
     1
  1
\W0.900;チャ
  7
KANJI1
 73
     1
 44
1.0
  0
MTEXT
  5
D4
330
1F
100
AcDbEntity
  8
3
  6
Continuous
 62
     3
100
AcDbMText
 10
489.935656145
 20
203.874002946
 30
0.0
 40
5.0
 41
8.0829828
 71
     7
 72
     1
  1
\W0.808;１
  7
KANJI2
 73
     1
 44
1.0
  0
MTEXT
  5
D5
330
1F
100
AcDbEntity
  8
3
  6
Continuous
 62
     3
100
AcDbMText
 10
489.935656145
 20
195.874002946
 30
0.0
 40
5.0
 41
8.0829828
 71
     7
 72
     1
  1
\W0.808;２
  7
KANJI2
 73
     1
 44
1.0
  0
MTEXT
  5
D6
330
1F
100
AcDbEntity
  8
3
  6
Continuous
 62
     3
100
AcDbMText
 10
489.935656145
 20
163.874002946
 30
0.0
 40
5.0
 41
8.0829828
 71
     7
 72
     1
  1
\W0.808;２
  7
KANJI2
 73
     1
 44
1.0
  0
MTEXT
  5
D7
330
1F
100
AcDbEntity
  8
3
  6
Continuous
 62
     3
100
AcDbMText
 10
477.811181945
 20
155.874002946
 30
0.0
 40
5.0
 41
32.331931199
 71
     7
 72
     1
  1
\W0.808;０Ｖ　３
  7
KANJI2
 73
     1
 44
1.0
  0
MTEXT
  5
D8
330
1F
100
AcDbEntity
  8
0
  6
Continuous
 62
     3
100
AcDbMText
 10
500.504633463
 20
150.996951135
 30
0.0
 40
4.2
 41
15.127940571
 71
     7
 72
     1
  1
\W0.900;クロ
  7
KANJI1
 73
     1
 44
1.0
  0
LINE
  5
D9
330
1F
100
AcDbEntity
  8
3
  6
Continuous
 62
     7
100
AcDbLine
 10
488.191210117
 20
178.374002946
 30
0.0
 11
488.191210117
 21
146.374002946
 31
0.0
  0
LINE
  5
DA
330
1F
100
AcDbEntity
  8
3
  6
Continuous
 62
     7
100
AcDbLine
 10
496.191210117
 20
178.374002946
 30
0.0
 11
496.191210117
 21
146.374002946
 31
0.0
  0
LINE
  5
DB
330
1F
100
AcDbEntity
  8
3
  6
Continuous
 62
     7
100
AcDbLine
 10
488.191210117
 20
178.374002946
 30
0.0
 11
496.191210117
 21
178.374002946
 31
0.0
  0
LINE
  5
DC
330
1F
100
AcDbEntity
  8
3
  6
Continuous
 62
     3
100
AcDbLine
 10
692.193014596
 20
174.617034864
 30
0.0
 11
496.56230628
 21
174.527664966
 31
0.0
  0
MTEXT
  5
DD
330
1F
100
AcDbEntity
  8
0
  6
Continuous
 62
     3
100
AcDbMText
 10
500.504633463
 20
174.996951135
 30
0.0
 40
4.2
 41
15.127940571
 71
     7
 72
     1
  1
\W0.900;チャ
  7
KANJI1
 73
     1
 44
1.0
  0
MTEXT
  5
DE
330
1F
100
AcDbEntity
  8
3
  6
Continuous
 62
     3
100
AcDbMText
 10
465.686707746
 20
227.874002946
 30
0.0
 40
5.0
 41
56.580879599
 71
     7
 72
     1
  1
\W0.808;作業指示灯　３
  7
KANJI2
 73
     1
 44
1.0
  0
MTEXT
  5
DF
330
1F
100
AcDbEntity
  8
3
  6
Continuous
 62
     3
100
AcDbMText
 10
465.686707746
 20
187.874002946
 30
0.0
 40
5.0
 41
56.580879599
 71
     7
 72
     1
  1
\W0.808;作業指示灯　３
  7
KANJI2
 73
     1
 44
1.0
  0
MTEXT
  5
E0
330
1F
100
AcDbEntity
  8
3
  6
Continuous
 62
     3
100
AcDbMText
 10
724.536284152
 20
240.085206137
 30
0.0
 40
5.0
 41
64.663862399
 71
     7
 72
     1
  1
\W0.808;ピッキングセンサ
  7
KANJI2
 73
     1
 44
1.0
  0
MTEXT
  5
E1
330
1F
100
AcDbEntity
  8
3
  6
Continuous
 62
     3
100
AcDbMText
 10
724.536284152
 20
232.085206137
 30
0.0
 40
5.0
 41
40.414913999
 71
     7
 72
     1
  1
\W0.808;（投光側）
  7
KANJI2
 73
     1
 44
1.0
  0
LINE
  5
E2
330
1F
100
AcDbEntity
  8
3
  6
Continuous
 62
     7
100
AcDbLine
 10
693.233329523
 20
250.785206137
 30
0.0
 11
760.233329523
 21
250.785206137
 31
0.0
  0
LINE
  5
E3
330
1F
100
AcDbEntity
  8
3
  6
Continuous
 62
     7
100
AcDbLine
 10
760.233329523
 20
250.785206137
 30
0.0
 11
760.233329523
 21
226.785206137
 31
0.0
  0
LINE
  5
E4
330
1F
100
AcDbEntity
  8
3
  6
Continuous
 62
     7
100
AcDbLine
 10
693.233329523
 20
226.785206137
 30
0.0
 11
760.233329523
 21
226.785206137
 31
0.0
  0
MTEXT
  5
E5
330
1F
100
AcDbEntity
  8
3
  6
Continuous
 62
     3
100
AcDbMText
 10
699.977775552
 20
172.285206137
 30
0.0
 40
5.0
 41
32.331931199
 71
     7
 72
     1
  1
\W0.808;＋２４Ｖ
  7
KANJI2
 73
     1
 44
1.0
  0
LINE
  5
E6
330
1F
100
AcDbEntity
  8
3
  6
Continuous
 62
     7
100
AcDbLine
 10
693.233329523
 20
170.785206137
 30
0.0
 11
722.233329523
 21
170.785206137
 31
0.0
  0
LINE
  5
E7
330
1F
100
AcDbEntity
  8
3
  6
Continuous
 62
     7
100
AcDbLine
 10
693.233329523
 20
162.785206137
 30
0.0
 11
722.233329523
 21
162.785206137
 31
0.0
  0
MTEXT
  5
E8
330
1F
100
AcDbEntity
  8
0
  6
Continuous
 62
     3
100
AcDbMText
 10
681.599306038
 20
175.131304623
 30
0.0
 40
4.2
 41
15.127940571
 71
     7
 72
     1
  1
\W0.900;チャ
  7
KANJI1
 73
     1
 44
1.0
  0
MTEXT
  5
E9
330
1F
100
AcDbEntity
  8
3
  6
Continuous
 62
     3
100
AcDbMText
 10
704.019266952
 20
164.285206137
 30
0.0
 40
5.0
 41
16.1659656
 71
     7
 72
     1
  1
\W0.808;０Ｖ
  7
KANJI2
 73
     1
 44
1.0
  0
MTEXT
  5
EA
330
1F
100
AcDbEntity
  8
0
  6
Continuous
 62
     3
100
AcDbMText
 10
681.599306038
 20
167.131304623
 30
0.0
 40
4.2
 41
15.127940571
 71
     7
 72
     1
  1
\W0.900;アオ
  7
KANJI1
 73
     1
 44
1.0
  0
MTEXT
  5
EB
330
1F
100
AcDbEntity
  8
3
  6
Continuous
 62
     3
100
AcDbMText
 10
704.019266952
 20
148.285206137
 30
0.0
 40
5.0
 41
16.1659656
 71
     7
 72
     1
  1
\W0.808;信号
  7
KANJI2
 73
     1
 44
1.0
  0
LINE
  5
EC
330
1F
100
AcDbEntity
  8
3
  6
Continuous
 62
     7
100
AcDbLine
 10
693.233329523
 20
154.785206137
 30
0.0
 11
722.233329523
 21
154.785206137
 31
0.0
  0
LINE
  5
ED
330
1F
100
AcDbEntity
  8
3
  6
Continuous
 62
     7
100
AcDbLine
 10
722.233329523
 20
178.785206137
 30
0.0
 11
722.233329523
 21
146.785206137
 31
0.0
  0
LINE
  5
EE
330
1F
100
AcDbEntity
  8
3
  6
Continuous
 62
     7
100
AcDbLine
 10
693.233329523
 20
178.785206137
 30
0.0
 11
693.233329523
 21
146.785206137
 31
0.0
  0
MTEXT
  5
EF
330
1F
100
AcDbEntity
  8
3
  6
Continuous
 62
     3
100
AcDbMText
 10
697.957029852
 20
156.285206137
 30
0.0
 40
5.0
 41
40.414913999
 71
     7
 72
     1
  1
\W0.808;作業指示灯
  7
KANJI2
 73
     1
 44
1.0
  0
MTEXT
  5
F0
330
1F
100
AcDbEntity
  8
0
  6
Continuous
 62
     3
100
AcDbMText
 10
681.599306038
 20
159.131304623
 30
0.0
 40
4.2
 41
15.127940571
 71
     7
 72
     1
  1
\W0.900;モモ
  7
KANJI1
 73
     1
 44
1.0
  0
MTEXT
  5
F1
330
1F
100
AcDbEntity
  8
0
  6
Continuous
 62
     3
100
AcDbMText
 10
681.599306038
 20
151.131304623
 30
0.0
 40
4.2
 41
15.127940571
 71
     7
 72
     1
  1
\W0.900;クロ
  7
KANJI1
 73
     1
 44
1.0
  0
LINE
  5
F2
330
1F
100
AcDbEntity
  8
3
  6
Continuous
 62
     7
100
AcDbLine
 10
693.233329523
 20
178.785206137
 30
0.0
 11
760.233329523
 21
178.785206137
 31
0.0
  0
LINE
  5
F3
330
1F
100
AcDbEntity
  8
3
  6
Continuous
 62
     7
100
AcDbLine
 10
760.233329523
 20
178.785206137
 30
0.0
 11
760.233329523
 21
146.785206137
 31
0.0
  0
LINE
  5
F4
330
1F
100
AcDbEntity
  8
3
  6
Continuous
 62
     7
100
AcDbLine
 10
693.233329523
 20
146.785206137
 30
0.0
 11
760.233329523
 21
146.785206137
 31
0.0
  0
MTEXT
  5
F5
330
1F
100
AcDbEntity
  8
3
  6
Continuous
 62
     3
100
AcDbMText
 10
724.536284152
 20
164.085206137
 30
0.0
 40
5.0
 41
64.663862399
 71
     7
 72
     1
  1
\W0.808;ピッキングセンサ
  7
KANJI2
 73
     1
 44
1.0
  0
MTEXT
  5
F6
330
1F
100
AcDbEntity
  8
3
  6
Continuous
 62
     3
100
AcDbMText
 10
724.536284152
 20
156.085206137
 30
0.0
 40
5.0
 41
40.414913999
 71
     7
 72
     1
  1
\W0.808;（受光側）
  7
KANJI2
 73
     1
 44
1.0
  0
ELLIPSE
  5
F7
330
1F
100
AcDbEntity
  8
2
  6
Continuous
 62
     3
100
AcDbEllipse
 10
539.683026936
 20
162.57078234
 30
0.0
 11
0.0
 21
14.625
 31
0.0
 40
0.16
 41
5.693077493
 42
3.834936433
  0
LINE
  5
F8
330
1F
100
AcDbEntity
  8
3
  6
Continuous
 62
     3
100
AcDbLine
 10
692.193014596
 20
158.617034864
 30
0.0
 11
528.993014596
 21
158.542480273
 31
0.0
  0
LINE
  5
F9
330
1F
100
AcDbEntity
  8
0
  6
Continuous
 62
     3
100
AcDbLine
 10
528.993014596
 20
190.542480273
 30
0.0
 11
528.993014596
 21
158.542480273
 31
0.0
  0
LINE
  5
FA
330
1F
100
AcDbEntity
  8
3
  6
Continuous
 62
     3
100
AcDbLine
 10
528.993014596
 20
190.542480273
 30
0.0
 11
496.470283089
 21
190.527622927
 31
0.0
  0
LINE
  5
FB
330
1F
100
AcDbEntity
  8
3
  6
Continuous
 62
     3
100
AcDbLine
 10
692.193014596
 20
166.617034864
 30
0.0
 11
520.993014596
 21
166.538825636
 31
0.0
  0
LINE
  5
FC
330
1F
100
AcDbEntity
  8
0
  6
Continuous
 62
     3
100
AcDbLine
 10
520.993014596
 20
166.538825636
 30
0.0
 11
520.993014596
 21
158.538825636
 31
0.0
  0
LINE
  5
FD
330
1F
100
AcDbEntity
  8
3
  6
Continuous
 62
     3
100
AcDbLine
 10
520.993014596
 20
158.538825636
 30
0.0
 11
496.470283089
 21
158.527622927
 31
0.0
  0
LINE
  5
FF
330
1F
100
AcDbEntity
  8
0
  6
LTYPE1
 62
     2
100
AcDbLine
 10
772.161185118
 20
276.619218442
 30
0.0
 11
417.161185118
 21
276.619218442
 31
0.0
  0
LINE
  5
100
330
1F
100
AcDbEntity
  8
0
  6
LTYPE1
 62
     2
100
AcDbLine
 10
772.161185118
 20
276.619218442
 30
0.0
 11
772.161185118
 21
125.619218442
 31
0.0
  0
LINE
  5
101
330
1F
100
AcDbEntity
  8
0
  6
LTYPE1
 62
     2
100
AcDbLine
 10
772.161185118
 20
125.619218442
 30
0.0
 11
417.161185118
 21
125.619218442
 31
0.0
  0
LINE
  5
102
330
1F
100
AcDbEntity
  8
0
  6
LTYPE1
 62
     2
100
AcDbLine
 10
417.161185118
 20
276.619218442
 30
0.0
 11
417.161185118
 21
125.619218442
 31
0.0
  0
MTEXT
  5
103
330
1F
100
AcDbEntity
  8
3
  6
Continuous
 62
     3
100
AcDbMText
 10
477.811181945
 20
147.874002946
 30
0.0
 40
5.0
 41
32.331931199
 71
     7
 72
     1
  1
\W0.808;信号　４
  7
KANJI2
 73
     1
 44
1.0
  0
LINE
  5
104
330
1F
100
AcDbEntity
  8
0
  6
Continuous
 62
     7
100
AcDbLine
 10
725.037065365
 20
310.921370251
 30
0.0
 11
665.037065362
 21
310.921370251
 31
0.0
  0
LINE
  5
105
330
1F
100
AcDbEntity
  8
0
  6
Continuous
 62
     7
100
AcDbLine
 10
665.037065362
 20
318.921370252
 30
0.0
 11
670.437065363
 21
318.921370252
 31
0.0
  0
LINE
  5
106
330
1F
100
AcDbEntity
  8
0
  6
Continuous
 62
     7
100
AcDbLine
 10
670.437065363
 20
318.921370252
 30
0.0
 11
670.437065363
 21
313.921370252
 31
0.0
  0
LINE
  5
107
330
1F
100
AcDbEntity
  8
0
  6
Continuous
 62
     7
100
AcDbLine
 10
670.437065363
 20
313.921370252
 30
0.0
 11
719.637065365
 21
313.921370252
 31
0.0
  0
LINE
  5
108
330
1F
100
AcDbEntity
  8
0
  6
Continuous
 62
     7
100
AcDbLine
 10
719.637065365
 20
313.921370252
 30
0.0
 11
719.637065365
 21
316.921370252
 31
0.0
  0
LINE
  5
109
330
1F
100
AcDbEntity
  8
0
  6
Continuous
 62
     7
100
AcDbLine
 10
730.037065366
 20
316.921370252
 30
0.0
 11
730.037065366
 21
310.921370251
 31
0.0
  0
LINE
  5
10A
330
1F
100
AcDbEntity
  8
0
  6
Continuous
 62
     7
100
AcDbLine
 10
730.037065366
 20
310.921370251
 30
0.0
 11
725.037065365
 21
310.921370251
 31
0.0
  0
ARC
  5
10B
330
1F
100
AcDbEntity
  8
0
  6
Continuous
 62
     7
100
AcDbCircle
 10
728.037065365
 20
316.921370252
 30
0.0
 40
2.0
100
AcDbArc
 50
0.0
 51
90.0
  0
LINE
  5
10C
330
1F
100
AcDbEntity
  8
0
  6
Continuous
 62
     7
100
AcDbLine
 10
728.037065365
 20
318.921370252
 30
0.0
 11
725.037065365
 21
318.921370252
 31
0.0
  0
LINE
  5
10D
330
1F
100
AcDbEntity
  8
0
  6
Continuous
 62
     7
100
AcDbLine
 10
719.637065365
 20
316.921370252
 30
0.0
 11
719.637065357
 21
318.921370252
 31
0.0
  0
LINE
  5
10E
330
1F
100
AcDbEntity
  8
0
  6
Continuous
 62
     7
100
AcDbLine
 10
725.037065365
 20
318.921370252
 30
0.0
 11
719.637065357
 21
318.921370252
 31
0.0
  0
LINE
  5
10F
330
1F
100
AcDbEntity
  8
0
  6
Continuous
 62
     7
100
AcDbLine
 10
665.037065362
 20
310.921370251
 30
0.0
 11
660.037065362
 21
310.921370251
 31
0.0
  0
LINE
  5
110
330
1F
100
AcDbEntity
  8
0
  6
Continuous
 62
     7
100
AcDbLine
 10
660.037065362
 20
318.921370252
 30
0.0
 11
660.037065362
 21
310.921370251
 31
0.0
  0
LINE
  5
111
330
1F
100
AcDbEntity
  8
0
  6
Continuous
 62
     7
100
AcDbLine
 10
660.037065362
 20
318.921370252
 30
0.0
 11
665.037065362
 21
318.921370252
 31
0.0
  0
LINE
  5
112
330
1F
100
AcDbEntity
  8
0
  6
Continuous
 62
     7
100
AcDbLine
 10
670.437065363
 20
318.821370252
 30
0.0
 11
719.637065365
 21
318.821370252
 31
0.0
  0
LINE
  5
113
330
1F
100
AcDbEntity
  8
0
  6
Continuous
 62
     7
100
AcDbLine
 10
719.637065349
 20
318.921370252
 30
0.0
 11
670.437065331
 21
318.921370252
 31
0.0
  0
LINE
  5
114
330
1F
100
AcDbEntity
  8
0
  6
Continuous
 62
     2
100
AcDbLine
 10
635.798180888
 20
315.52651299
 30
0.0
 11
638.464847555
 21
319.52651299
 31
0.0
  0
LINE
  5
115
330
1F
100
AcDbEntity
  8
0
  6
Continuous
 62
     2
100
AcDbLine
 10
633.798180888
 20
315.52651299
 30
0.0
 11
636.464847555
 21
319.52651299
 31
0.0
  0
LINE
  5
116
330
1F
100
AcDbEntity
  8
0
  6
Continuous
 62
     2
100
AcDbLine
 10
637.080626648
 20
312.926512989
 30
0.0
 11
633.798180888
 21
315.52651299
 31
0.0
  0
LINE
  5
117
330
1F
100
AcDbEntity
  8
0
  6
Continuous
 62
     2
100
AcDbLine
 10
634.413959982
 20
308.926512989
 30
0.0
 11
637.080626648
 21
312.926512989
 31
0.0
  0
LINE
  5
118
330
1F
100
AcDbEntity
  8
0
  6
Continuous
 62
     2
100
AcDbLine
 10
639.080626649
 20
312.926512989
 30
0.0
 11
635.798180888
 21
315.52651299
 31
0.0
  0
LINE
  5
119
330
1F
100
AcDbEntity
  8
0
  6
Continuous
 62
     2
100
AcDbLine
 10
636.413959982
 20
308.926512989
 30
0.0
 11
639.080626649
 21
312.926512989
 31
0.0
  0
LINE
  5
11A
330
1F
100
AcDbEntity
  8
0
  6
Continuous
 62
     7
100
AcDbLine
 10
660.037065362
 20
316.937136159
 30
0.0
 11
636.871929668
 21
316.937136159
 31
0.0
  0
LINE
  5
11B
330
1F
100
AcDbEntity
  8
0
  6
Continuous
 62
     7
100
AcDbLine
 10
638.6884752
 20
313.237133131
 30
0.0
 11
660.037065362
 21
313.237133131
 31
0.0
  0
LINE
  5
11D
330
1F
100
AcDbEntity
  8
0
  6
LTYPE2
 62
     3
100
AcDbLine
 10
726.539034937
 20
306.923385849
 30
0.0
 11
726.539034937
 21
322.92338585
 31
0.0
  0
LINE
  5
11E
330
1F
100
AcDbEntity
  8
0
  6
LTYPE2
 62
     3
100
AcDbLine
 10
663.539034933
 20
306.923385849
 30
0.0
 11
663.539034933
 21
322.92338585
 31
0.0
  0
LINE
  5
11F
330
1F
100
AcDbEntity
  8
0
  6
Continuous
 62
     7
100
AcDbLine
 10
719.637065365
 20
400.921370254
 30
0.0
 11
719.637065365
 21
398.921370254
 31
0.0
  0
LINE
  5
120
330
1F
100
AcDbEntity
  8
0
  6
Continuous
 62
     7
100
AcDbLine
 10
725.037065365
 20
398.921370254
 30
0.0
 11
719.637065365
 21
398.921370254
 31
0.0
  0
LINE
  5
121
330
1F
100
AcDbEntity
  8
0
  6
Continuous
 62
     7
100
AcDbLine
 10
725.037065365
 20
398.921370254
 30
0.0
 11
728.037065365
 21
398.921370254
 31
0.0
  0
ARC
  5
122
330
1F
100
AcDbEntity
  8
0
  6
Continuous
 62
     7
100
AcDbCircle
 10
728.037065365
 20
400.921370254
 30
0.0
 40
2.0
100
AcDbArc
 50
269.999999988
 51
359.999999988
  0
LINE
  5
123
330
1F
100
AcDbEntity
  8
0
  6
Continuous
 62
     7
100
AcDbLine
 10
719.637065365
 20
400.921370254
 30
0.0
 11
719.637065365
 21
403.921370255
 31
0.0
  0
LINE
  5
124
330
1F
100
AcDbEntity
  8
0
  6
Continuous
 62
     7
100
AcDbLine
 10
719.637065365
 20
403.921370255
 30
0.0
 11
670.437065363
 21
403.921370255
 31
0.0
  0
LINE
  5
125
330
1F
100
AcDbEntity
  8
0
  6
Continuous
 62
     7
100
AcDbLine
 10
670.437065363
 20
403.921370255
 30
0.0
 11
670.437065363
 21
400.921370254
 31
0.0
  0
LINE
  5
126
330
1F
100
AcDbEntity
  8
0
  6
Continuous
 62
     7
100
AcDbLine
 10
665.037065362
 20
406.921370255
 30
0.0
 11
725.037065364
 21
406.921370255
 31
0.0
  0
LINE
  5
127
330
1F
100
AcDbEntity
  8
0
  6
Continuous
 62
     7
100
AcDbLine
 10
725.037065364
 20
406.921370255
 30
0.0
 11
730.037065366
 21
406.921370255
 31
0.0
  0
LINE
  5
128
330
1F
100
AcDbEntity
  8
0
  6
Continuous
 62
     7
100
AcDbLine
 10
730.037065366
 20
400.921370254
 30
0.0
 11
730.037065366
 21
406.921370255
 31
0.0
  0
LINE
  5
129
330
1F
100
AcDbEntity
  8
0
  6
Continuous
 62
     7
100
AcDbLine
 10
662.037065362
 20
398.921370254
 30
0.0
 11
665.037065362
 21
398.921370254
 31
0.0
  0
ARC
  5
12A
330
1F
100
AcDbEntity
  8
0
  6
Continuous
 62
     7
100
AcDbCircle
 10
662.037065362
 20
400.921370254
 30
0.0
 40
2.0
100
AcDbArc
 50
180.0
 51
269.999999995
  0
LINE
  5
12B
330
1F
100
AcDbEntity
  8
0
  6
Continuous
 62
     7
100
AcDbLine
 10
670.437065363
 20
398.921370254
 30
0.0
 11
665.037065362
 21
398.921370254
 31
0.0
  0
LINE
  5
12C
330
1F
100
AcDbEntity
  8
0
  6
Continuous
 62
     7
100
AcDbLine
 10
670.437065363
 20
400.921370254
 30
0.0
 11
670.437065363
 21
398.921370254
 31
0.0
  0
LINE
  5
12D
330
1F
100
AcDbEntity
  8
0
  6
Continuous
 62
     7
100
AcDbLine
 10
660.037065362
 20
406.921370255
 30
0.0
 11
665.037065362
 21
406.921370255
 31
0.0
  0
LINE
  5
12E
330
1F
100
AcDbEntity
  8
0
  6
Continuous
 62
     7
100
AcDbLine
 10
719.637065365
 20
399.021370254
 30
0.0
 11
670.437065363
 21
399.021370254
 31
0.0
  0
LINE
  5
12F
330
1F
100
AcDbEntity
  8
0
  6
Continuous
 62
     7
100
AcDbLine
 10
670.437065345
 20
398.921370254
 30
0.0
 11
719.637065365
 21
398.921370254
 31
0.0
  0
ELLIPSE
  5
130
330
1F
100
AcDbEntity
  8
0
  6
Continuous
 62
     7
100
AcDbEllipse
 10
662.319388169
 20
400.921370254
 30
0.0
 11
6.69213043
 21
0.0
 31
0.0
 40
0.298858491
 41
4.364359836
 42
4.652183187
  0
LINE
  5
131
330
1F
100
AcDbEntity
  8
0
  6
Continuous
 62
     7
100
AcDbLine
 10
660.037065362
 20
400.921370254
 30
0.0
 11
660.037065362
 21
399.041276874
 31
0.0
  0
LINE
  5
132
330
1F
100
AcDbEntity
  8
0
  6
Continuous
 62
     7
100
AcDbLine
 10
636.82148471
 20
405.062236037
 30
0.0
 11
636.767706419
 21
405.063800659
 31
0.0
  0
LINE
  5
133
330
1F
100
AcDbEntity
  8
0
  6
Continuous
 62
     2
100
AcDbLine
 10
635.867989082
 20
403.740622937
 30
0.0
 11
638.534655749
 21
407.740622937
 31
0.0
  0
LINE
  5
134
330
1F
100
AcDbEntity
  8
0
  6
Continuous
 62
     2
100
AcDbLine
 10
633.867989082
 20
403.740622937
 30
0.0
 11
636.534655749
 21
407.740622937
 31
0.0
  0
LINE
  5
135
330
1F
100
AcDbEntity
  8
0
  6
Continuous
 62
     2
100
AcDbLine
 10
637.150434843
 20
401.140622937
 30
0.0
 11
633.867989082
 21
403.740622937
 31
0.0
  0
LINE
  5
136
330
1F
100
AcDbEntity
  8
0
  6
Continuous
 62
     2
100
AcDbLine
 10
636.483768176
 20
397.140622937
 30
0.0
 11
639.150434843
 21
401.140622937
 31
0.0
  0
LINE
  5
137
330
1F
100
AcDbEntity
  8
0
  6
Continuous
 62
     2
100
AcDbLine
 10
634.483768176
 20
397.140622937
 30
0.0
 11
637.150434843
 21
401.140622937
 31
0.0
  0
LINE
  5
138
330
1F
100
AcDbEntity
  8
0
  6
Continuous
 62
     2
100
AcDbLine
 10
638.868681447
 20
401.363797631
 30
0.0
 11
635.867989082
 21
403.740622937
 31
0.0
  0
LINE
  5
139
330
1F
100
AcDbEntity
  8
0
  6
Continuous
 62
     7
100
AcDbLine
 10
660.037065362
 20
405.063800659
 30
0.0
 11
660.037065362
 21
406.921370255
 31
0.0
  0
LINE
  5
13A
330
1F
100
AcDbEntity
  8
0
  6
Continuous
 62
     7
100
AcDbLine
 10
660.037065362
 20
400.921370254
 30
0.0
 11
660.037065362
 21
405.063800659
 31
0.0
  0
LINE
  5
13B
330
1F
100
AcDbEntity
  8
0
  6
Continuous
 62
     7
100
AcDbLine
 10
660.037065362
 20
405.063800659
 30
0.0
 11
636.875263001
 21
405.063800659
 31
0.0
  0
LINE
  5
13C
330
1F
100
AcDbEntity
  8
0
  6
Continuous
 62
     7
100
AcDbLine
 10
638.868681447
 20
401.363797631
 30
0.0
 11
660.037065362
 21
401.363797631
 31
0.0
  0
LINE
  5
13D
330
1F
100
AcDbEntity
  8
0
  6
LTYPE2
 62
     3
100
AcDbLine
 10
663.539034933
 20
394.923385852
 30
0.0
 11
663.539034933
 21
410.923385853
 31
0.0
  0
LINE
  5
13E
330
1F
100
AcDbEntity
  8
0
  6
LTYPE2
 62
     3
100
AcDbLine
 10
726.539034937
 20
394.923385852
 30
0.0
 11
726.539034937
 21
410.923385853
 31
0.0
  0
LINE
  5
13F
330
1F
100
AcDbEntity
  8
0
  6
Continuous
 62
     2
100
AcDbLine
 10
557.580370115
 20
312.737136159
 30
0.0
 11
557.580370115
 21
313.237136159
 31
0.0
  0
LINE
  5
140
330
1F
100
AcDbEntity
  8
0
  6
Continuous
 62
     2
100
AcDbLine
 10
542.580370114
 20
314.037136159
 30
0.0
 11
542.580370114
 21
313.237136159
 31
0.0
  0
LINE
  5
141
330
1F
100
AcDbEntity
  8
0
  6
Continuous
 62
     2
100
AcDbLine
 10
542.580370114
 20
314.090716249
 30
0.0
 11
542.580370114
 21
313.477136159
 31
0.0
  0
LINE
  5
142
330
1F
100
AcDbEntity
  8
0
  6
Continuous
 62
     2
100
AcDbLine
 10
546.780370114
 20
313.237136159
 30
0.0
 11
548.780370114
 21
312.737136159
 31
0.0
  0
LINE
  5
143
330
1F
100
AcDbEntity
  8
0
  6
Continuous
 62
     2
100
AcDbLine
 10
542.580370114
 20
313.237136159
 30
0.0
 11
546.780370114
 21
313.237136159
 31
0.0
  0
LINE
  5
144
330
1F
100
AcDbEntity
  8
0
  6
Continuous
 62
     3
100
AcDbLine
 10
557.580370115
 20
312.917153156
 30
0.0
 11
557.580370115
 21
312.737136159
 31
0.0
  0
LINE
  5
145
330
1F
100
AcDbEntity
  8
0
  6
Continuous
 62
     2
100
AcDbLine
 10
557.580370115
 20
316.937136159
 30
0.0
 11
557.580370115
 21
317.437136159
 31
0.0
  0
LINE
  5
146
330
1F
100
AcDbEntity
  8
0
  6
Continuous
 62
     2
100
AcDbLine
 10
546.780370114
 20
316.937136159
 30
0.0
 11
548.780370114
 21
317.437136159
 31
0.0
  0
LINE
  5
147
330
1F
100
AcDbEntity
  8
0
  6
Continuous
 62
     2
100
AcDbLine
 10
557.580370115
 20
317.437136159
 30
0.0
 11
548.780370114
 21
317.437136159
 31
0.0
  0
LINE
  5
148
330
1F
100
AcDbEntity
  8
0
  6
Continuous
 62
     2
100
AcDbLine
 10
557.580370115
 20
312.737136159
 30
0.0
 11
557.580370115
 21
316.937136159
 31
0.0
  0
LINE
  5
149
330
1F
100
AcDbEntity
  8
0
  6
Continuous
 62
     2
100
AcDbLine
 10
548.780370114
 20
312.737136159
 30
0.0
 11
557.580370115
 21
312.737136159
 31
0.0
  0
LINE
  5
14A
330
1F
100
AcDbEntity
  8
0
  6
Continuous
 62
     2
100
AcDbLine
 10
548.780370114
 20
317.437136159
 30
0.0
 11
548.780370114
 21
312.737136159
 31
0.0
  0
LINE
  5
14B
330
1F
100
AcDbEntity
  8
0
  6
Continuous
 62
     2
100
AcDbLine
 10
542.580370114
 20
316.937136159
 30
0.0
 11
542.580370114
 21
314.090716249
 31
0.0
  0
LINE
  5
14C
330
1F
100
AcDbEntity
  8
0
  6
Continuous
 62
     2
100
AcDbLine
 10
546.780370114
 20
316.937136159
 30
0.0
 11
542.580370114
 21
316.937136159
 31
0.0
  0
LINE
  5
14D
330
1F
100
AcDbEntity
  8
0
  6
Continuous
 62
     3
100
AcDbLine
 10
527.646844974
 20
316.674579437
 30
0.0
 11
542.646844975
 21
316.674579437
 31
0.0
  0
LINE
  5
14E
330
1F
100
AcDbEntity
  8
0
  6
Continuous
 62
     7
100
AcDbLine
 10
503.393217385
 20
321.212639241
 30
0.0
 11
503.577760472
 21
321.768350311
 31
0.0
  0
LINE
  5
14F
330
1F
100
AcDbEntity
  8
0
  6
Continuous
 62
     7
100
AcDbLine
 10
503.577760472
 20
321.768350311
 30
0.0
 11
503.946846893
 21
322.076087038
 31
0.0
  0
LINE
  5
150
330
1F
100
AcDbEntity
  8
0
  6
Continuous
 62
     7
100
AcDbLine
 10
503.946846893
 20
322.076087038
 30
0.0
 11
504.623505289
 21
322.322276329
 31
0.0
  0
LINE
  5
151
330
1F
100
AcDbEntity
  8
0
  6
Continuous
 62
     7
100
AcDbLine
 10
506.745751898
 20
321.491387526
 30
0.0
 11
509.390870792
 21
321.799123805
 31
0.0
  0
LINE
  5
152
330
1F
100
AcDbEntity
  8
0
  6
Continuous
 62
     7
100
AcDbLine
 10
506.745751898
 20
321.491387526
 30
0.0
 11
506.599000038
 21
321.396217947
 31
0.0
  0
LINE
  5
153
330
1F
100
AcDbEntity
  8
0
  6
Continuous
 62
     7
100
AcDbLine
 10
506.599000038
 20
321.396217947
 30
0.0
 11
506.531839326
 21
321.212639241
 31
0.0
  0
LINE
  5
154
330
1F
100
AcDbEntity
  8
0
  6
Continuous
 62
     7
100
AcDbLine
 10
504.623505289
 20
322.322276329
 30
0.0
 11
509.729199745
 21
322.845428405
 31
0.0
  0
LINE
  5
155
330
1F
100
AcDbEntity
  8
0
  6
Continuous
 62
     7
100
AcDbLine
 10
510.639494546
 20
323.430127917
 30
0.0
 11
511.820689132
 21
323.430127917
 31
0.0
  0
LINE
  5
156
330
1F
100
AcDbEntity
  8
0
  6
Continuous
 62
     7
100
AcDbLine
 10
511.820689132
 20
322.845428405
 30
0.0
 11
511.820689132
 21
323.430127917
 31
0.0
  0
LINE
  5
157
330
1F
100
AcDbEntity
  8
0
  6
Continuous
 62
     7
100
AcDbLine
 10
518.993217386
 20
322.234878844
 30
0.0
 11
518.993217386
 21
323.430127917
 31
0.0
  0
LINE
  5
158
330
1F
100
AcDbEntity
  8
0
  6
Continuous
 62
     7
100
AcDbLine
 10
516.711083524
 20
321.799123805
 30
0.0
 11
518.993217386
 21
322.234878844
 31
0.0
  0
LINE
  5
159
330
1F
100
AcDbEntity
  8
0
  6
Continuous
 62
     7
100
AcDbLine
 10
515.634581485
 20
322.845428405
 30
0.0
 11
518.993217386
 21
323.430127917
 31
0.0
  0
LINE
  5
15A
330
1F
100
AcDbEntity
  8
0
  6
Continuous
 62
     7
100
AcDbLine
 10
503.393217385
 20
321.212639241
 30
0.0
 11
518.993217386
 21
321.212639241
 31
0.0
  0
LINE
  5
15B
330
1F
100
AcDbEntity
  8
0
  6
Continuous
 62
     7
100
AcDbLine
 10
509.390870792
 20
321.799123805
 30
0.0
 11
516.711083524
 21
321.799123805
 31
0.0
  0
LINE
  5
15C
330
1F
100
AcDbEntity
  8
0
  6
Continuous
 62
     7
100
AcDbLine
 10
509.729199745
 20
322.845428405
 30
0.0
 11
515.634581485
 21
322.845428405
 31
0.0
  0
LINE
  5
15D
330
1F
100
AcDbEntity
  8
0
  6
Continuous
 62
     7
100
AcDbLine
 10
509.729199745
 20
322.845428405
 30
0.0
 11
510.639494546
 21
323.430127917
 31
0.0
  0
LINE
  5
15E
330
1F
100
AcDbEntity
  8
0
  6
Continuous
 62
     7
100
AcDbLine
 10
504.192904424
 20
319.152589034
 30
0.0
 11
508.25285431
 21
319.152589034
 31
0.0
  0
LINE
  5
15F
330
1F
100
AcDbEntity
  8
0
  6
Continuous
 62
     7
100
AcDbLine
 10
504.192904424
 20
310.012812205
 30
0.0
 11
508.25285431
 21
310.012812205
 31
0.0
  0
LINE
  5
160
330
1F
100
AcDbEntity
  8
0
  6
Continuous
 62
     7
100
AcDbLine
 10
509.021784372
 20
309.428112693
 30
0.0
 11
509.021784372
 21
319.952704343
 31
0.0
  0
LINE
  5
161
330
1F
100
AcDbEntity
  8
0
  6
Continuous
 62
     7
100
AcDbLine
 10
509.790714189
 20
310.659059151
 30
0.0
 11
509.790714189
 21
318.660210451
 31
0.0
  0
LINE
  5
162
330
1F
100
AcDbEntity
  8
0
  6
Continuous
 62
     7
100
AcDbLine
 10
508.25285431
 20
310.012812205
 30
0.0
 11
508.25285431
 21
319.152589034
 31
0.0
  0
LINE
  5
163
330
1F
100
AcDbEntity
  8
0
  6
Continuous
 62
     7
100
AcDbLine
 10
504.192904424
 20
310.012812205
 30
0.0
 11
504.192904424
 21
319.152589034
 31
0.0
  0
LINE
  5
164
330
1F
100
AcDbEntity
  8
0
  6
Continuous
 62
     7
100
AcDbLine
 10
517.493420319
 20
308.474129021
 30
0.0
 11
517.215817035
 21
308.812639241
 31
0.0
  0
LINE
  5
165
330
1F
100
AcDbEntity
  8
0
  6
Continuous
 62
     7
100
AcDbLine
 10
518.371972046
 20
310.659059151
 30
0.0
 11
518.371972046
 21
318.660210451
 31
0.0
  0
LINE
  5
166
330
1F
100
AcDbEntity
  8
0
  6
Continuous
 62
     7
100
AcDbLine
 10
503.393217385
 20
308.812639241
 30
0.0
 11
517.215817035
 21
308.812639241
 31
0.0
  0
LINE
  5
167
330
1F
100
AcDbEntity
  8
0
  6
Continuous
 62
     7
100
AcDbLine
 10
509.021784372
 20
309.428112693
 30
0.0
 11
518.993217386
 21
309.428112693
 31
0.0
  0
LINE
  5
168
330
1F
100
AcDbEntity
  8
0
  6
Continuous
 62
     7
100
AcDbLine
 10
509.021784372
 20
319.952704343
 30
0.0
 11
518.993217386
 21
319.952704343
 31
0.0
  0
LINE
  5
169
330
1F
100
AcDbEntity
  8
0
  6
Continuous
 62
     7
100
AcDbLine
 10
509.790714189
 20
318.660210451
 30
0.0
 11
518.371972046
 21
318.660210451
 31
0.0
  0
LINE
  5
16A
330
1F
100
AcDbEntity
  8
0
  6
Continuous
 62
     7
100
AcDbLine
 10
509.790714189
 20
310.659059151
 30
0.0
 11
518.371972046
 21
310.659059151
 31
0.0
  0
LINE
  5
16B
330
1F
100
AcDbEntity
  8
0
  6
Continuous
 62
     7
100
AcDbLine
 10
503.393217385
 20
308.812639241
 30
0.0
 11
503.393217385
 21
321.212639241
 31
0.0
  0
LINE
  5
16C
330
1F
100
AcDbEntity
  8
0
  6
Continuous
 62
     7
100
AcDbLine
 10
518.993217386
 20
308.474129021
 30
0.0
 11
518.993217386
 21
321.212639241
 31
0.0
  0
LINE
  5
16D
330
1F
100
AcDbEntity
  8
0
  6
Continuous
 62
     7
100
AcDbLine
 10
509.021784372
 20
308.812639241
 30
0.0
 11
509.021784372
 21
321.212639241
 31
0.0
  0
LINE
  5
16E
330
1F
100
AcDbEntity
  8
0
  6
Continuous
 62
     2
100
AcDbLine
 10
518.993217386
 20
308.574129021
 30
0.0
 11
518.993217386
 21
308.474129021
 31
0.0
  0
LINE
  5
16F
330
1F
100
AcDbEntity
  8
0
  6
Continuous
 62
     7
100
AcDbLine
 10
517.493420319
 20
308.474129021
 30
0.0
 11
518.693420319
 21
308.474129021
 31
0.0
  0
LINE
  5
170
330
1F
100
AcDbEntity
  8
0
  6
Continuous
 62
     3
100
AcDbLine
 10
519.121972046
 20
316.659059151
 30
0.0
 11
527.611013809
 21
316.659059151
 31
0.0
  0
LINE
  5
171
330
1F
100
AcDbEntity
  8
0
  6
Continuous
 62
     3
100
AcDbLine
 10
519.446844974
 20
315.674579437
 30
0.0
 11
542.646844975
 21
315.674579437
 31
0.0
  0
LINE
  5
172
330
1F
100
AcDbEntity
  8
0
  6
Continuous
 62
     3
100
AcDbLine
 10
537.190119817
 20
310.659059151
 30
0.0
 11
542.546844975
 21
312.274579436
 31
0.0
  0
LINE
  5
173
330
1F
100
AcDbEntity
  8
0
  6
Continuous
 62
     3
100
AcDbLine
 10
537.190119817
 20
310.659059151
 30
0.0
 11
519.121972046
 21
310.659059151
 31
0.0
  0
LINE
  5
174
330
1F
100
AcDbEntity
  8
0
  6
Continuous
 62
     3
100
AcDbLine
 10
536.681564036
 20
311.659059151
 30
0.0
 11
519.121972046
 21
311.659059151
 31
0.0
  0
LINE
  5
175
330
1F
100
AcDbEntity
  8
0
  6
Continuous
 62
     3
100
AcDbLine
 10
542.646844975
 20
313.474579436
 30
0.0
 11
536.681564036
 21
311.659059151
 31
0.0
  0
LINE
  5
176
330
1F
100
AcDbEntity
  8
0
  6
Continuous
 62
     3
100
AcDbLine
 10
519.121972046
 20
312.659059151
 30
0.0
 11
532.190119817
 21
312.659059151
 31
0.0
  0
LINE
  5
177
330
1F
100
AcDbEntity
  8
0
  6
Continuous
 62
     3
100
AcDbLine
 10
532.190119817
 20
312.659059151
 30
0.0
 11
535.557371291
 21
313.674579436
 31
0.0
  0
LINE
  5
178
330
1F
100
AcDbEntity
  8
0
  6
Continuous
 62
     3
100
AcDbLine
 10
542.646844975
 20
313.674579436
 30
0.0
 11
535.557371291
 21
313.674579436
 31
0.0
  0
LINE
  5
179
330
1F
100
AcDbEntity
  8
0
  6
Continuous
 62
     3
100
AcDbLine
 10
542.646844975
 20
314.674579436
 30
0.0
 11
535.018273546
 21
314.674579436
 31
0.0
  0
LINE
  5
17A
330
1F
100
AcDbEntity
  8
0
  6
Continuous
 62
     3
100
AcDbLine
 10
535.018273546
 20
314.674579436
 30
0.0
 11
531.681564036
 21
313.659059151
 31
0.0
  0
LINE
  5
17B
330
1F
100
AcDbEntity
  8
0
  6
Continuous
 62
     3
100
AcDbLine
 10
519.121972046
 20
313.659059151
 30
0.0
 11
531.681564036
 21
313.659059151
 31
0.0
  0
LINE
  5
17C
330
1F
100
AcDbEntity
  8
0
  6
Continuous
 62
     7
100
AcDbLine
 10
510.439494546
 20
340.480127917
 30
0.0
 11
511.620689132
 21
340.480127917
 31
0.0
  0
LINE
  5
17D
330
1F
100
AcDbEntity
  8
0
  6
Continuous
 62
     7
100
AcDbLine
 10
503.746846893
 20
339.126087038
 30
0.0
 11
504.423505289
 21
339.37227633
 31
0.0
  0
LINE
  5
17E
330
1F
100
AcDbEntity
  8
0
  6
Continuous
 62
     7
100
AcDbLine
 10
503.377760472
 20
338.818350312
 30
0.0
 11
503.746846893
 21
339.126087038
 31
0.0
  0
LINE
  5
17F
330
1F
100
AcDbEntity
  8
0
  6
Continuous
 62
     7
100
AcDbLine
 10
503.193217385
 20
338.262639242
 30
0.0
 11
503.377760472
 21
338.818350312
 31
0.0
  0
LINE
  5
180
330
1F
100
AcDbEntity
  8
0
  6
Continuous
 62
     7
100
AcDbLine
 10
506.399000038
 20
338.446217948
 30
0.0
 11
506.331839326
 21
338.262639242
 31
0.0
  0
LINE
  5
181
330
1F
100
AcDbEntity
  8
0
  6
Continuous
 62
     7
100
AcDbLine
 10
506.545751898
 20
338.541387527
 30
0.0
 11
506.399000038
 21
338.446217948
 31
0.0
  0
LINE
  5
182
330
1F
100
AcDbEntity
  8
0
  6
Continuous
 62
     7
100
AcDbLine
 10
506.545751898
 20
338.541387527
 30
0.0
 11
509.190870792
 21
338.849123806
 31
0.0
  0
LINE
  5
183
330
1F
100
AcDbEntity
  8
0
  6
Continuous
 62
     7
100
AcDbLine
 10
503.992904424
 20
336.202589035
 30
0.0
 11
508.05285431
 21
336.202589035
 31
0.0
  0
LINE
  5
184
330
1F
100
AcDbEntity
  8
0
  6
Continuous
 62
     7
100
AcDbLine
 10
504.423505289
 20
339.37227633
 30
0.0
 11
509.529199745
 21
339.895428406
 31
0.0
  0
LINE
  5
185
330
1F
100
AcDbEntity
  8
0
  6
Continuous
 62
     7
100
AcDbLine
 10
503.992904424
 20
329.112812206
 30
0.0
 11
508.05285431
 21
329.112812206
 31
0.0
  0
LINE
  5
186
330
1F
100
AcDbEntity
  8
0
  6
Continuous
 62
     7
100
AcDbLine
 10
508.821784372
 20
327.912639242
 30
0.0
 11
508.821784372
 21
338.262639242
 31
0.0
  0
LINE
  5
187
330
1F
100
AcDbEntity
  8
0
  6
Continuous
 62
     7
100
AcDbLine
 10
503.193217385
 20
327.912639242
 30
0.0
 11
503.193217385
 21
338.262639242
 31
0.0
  0
LINE
  5
188
330
1F
100
AcDbEntity
  8
0
  6
Continuous
 62
     7
100
AcDbLine
 10
503.992904424
 20
329.112812206
 30
0.0
 11
503.992904424
 21
336.202589035
 31
0.0
  0
LINE
  5
189
330
1F
100
AcDbEntity
  8
0
  6
Continuous
 62
     7
100
AcDbLine
 10
508.05285431
 20
329.112812206
 30
0.0
 11
508.05285431
 21
336.202589035
 31
0.0
  0
LINE
  5
18A
330
1F
100
AcDbEntity
  8
0
  6
Continuous
 62
     7
100
AcDbLine
 10
509.590714189
 20
329.759059152
 30
0.0
 11
509.590714189
 21
335.710210452
 31
0.0
  0
LINE
  5
18B
330
1F
100
AcDbEntity
  8
0
  6
Continuous
 62
     7
100
AcDbLine
 10
508.821784372
 20
328.528112694
 30
0.0
 11
508.821784372
 21
337.002704344
 31
0.0
  0
LINE
  5
18C
330
1F
100
AcDbEntity
  8
0
  6
Continuous
 62
     7
100
AcDbLine
 10
516.511083524
 20
338.849123806
 30
0.0
 11
518.793217386
 21
339.284878845
 31
0.0
  0
LINE
  5
18D
330
1F
100
AcDbEntity
  8
0
  6
Continuous
 62
     7
100
AcDbLine
 10
517.293420319
 20
327.574129022
 30
0.0
 11
518.793217386
 21
327.574129022
 31
0.0
  0
LINE
  5
18E
330
1F
100
AcDbEntity
  8
0
  6
Continuous
 62
     7
100
AcDbLine
 10
517.293420319
 20
327.574129022
 30
0.0
 11
517.015817035
 21
327.912639242
 31
0.0
  0
LINE
  5
18F
330
1F
100
AcDbEntity
  8
0
  6
Continuous
 62
     7
100
AcDbLine
 10
518.793217386
 20
327.574129022
 30
0.0
 11
518.793217386
 21
338.262639242
 31
0.0
  0
LINE
  5
190
330
1F
100
AcDbEntity
  8
0
  6
Continuous
 62
     7
100
AcDbLine
 10
518.171972046
 20
329.759059152
 30
0.0
 11
518.171972046
 21
335.710210452
 31
0.0
  0
LINE
  5
191
330
1F
100
AcDbEntity
  8
0
  6
Continuous
 62
     7
100
AcDbLine
 10
503.193217385
 20
327.912639242
 30
0.0
 11
517.015817035
 21
327.912639242
 31
0.0
  0
LINE
  5
192
330
1F
100
AcDbEntity
  8
0
  6
Continuous
 62
     7
100
AcDbLine
 10
508.821784372
 20
328.528112694
 30
0.0
 11
518.793217386
 21
328.528112694
 31
0.0
  0
LINE
  5
193
330
1F
100
AcDbEntity
  8
0
  6
Continuous
 62
     7
100
AcDbLine
 10
509.590714189
 20
329.759059152
 30
0.0
 11
518.171972046
 21
329.759059152
 31
0.0
  0
LINE
  5
194
330
1F
100
AcDbEntity
  8
0
  6
Continuous
 62
     7
100
AcDbLine
 10
509.590714189
 20
335.710210452
 30
0.0
 11
518.171972046
 21
335.710210452
 31
0.0
  0
LINE
  5
195
330
1F
100
AcDbEntity
  8
0
  6
Continuous
 62
     7
100
AcDbLine
 10
508.821784372
 20
337.002704344
 30
0.0
 11
518.793217386
 21
337.002704344
 31
0.0
  0
LINE
  5
196
330
1F
100
AcDbEntity
  8
0
  6
Continuous
 62
     7
100
AcDbLine
 10
509.529199745
 20
339.895428406
 30
0.0
 11
515.434581485
 21
339.895428406
 31
0.0
  0
LINE
  5
197
330
1F
100
AcDbEntity
  8
0
  6
Continuous
 62
     7
100
AcDbLine
 10
509.190870792
 20
338.849123806
 30
0.0
 11
516.511083524
 21
338.849123806
 31
0.0
  0
LINE
  5
198
330
1F
100
AcDbEntity
  8
0
  6
Continuous
 62
     7
100
AcDbLine
 10
503.193217385
 20
338.262639242
 30
0.0
 11
518.793217386
 21
338.262639242
 31
0.0
  0
LINE
  5
199
330
1F
100
AcDbEntity
  8
0
  6
Continuous
 62
     7
100
AcDbLine
 10
509.529199745
 20
339.895428406
 30
0.0
 11
510.439494546
 21
340.480127917
 31
0.0
  0
LINE
  5
19A
330
1F
100
AcDbEntity
  8
0
  6
Continuous
 62
     7
100
AcDbLine
 10
515.434581485
 20
339.895428406
 30
0.0
 11
518.793217386
 21
340.480127917
 31
0.0
  0
LINE
  5
19B
330
1F
100
AcDbEntity
  8
0
  6
Continuous
 62
     7
100
AcDbLine
 10
518.793217386
 20
339.284878845
 30
0.0
 11
518.793217386
 21
340.480127917
 31
0.0
  0
LINE
  5
19C
330
1F
100
AcDbEntity
  8
0
  6
Continuous
 62
     7
100
AcDbLine
 10
511.620689132
 20
339.895428406
 30
0.0
 11
511.620689132
 21
340.480127917
 31
0.0
  0
LINE
  5
19D
330
1F
100
AcDbEntity
  8
0
  6
Continuous
 62
     3
100
AcDbLine
 10
518.693217386
 20
330.168384132
 30
0.0
 11
528.693217386
 21
330.168384132
 31
0.0
  0
LINE
  5
19E
330
1F
100
AcDbEntity
  8
0
  6
Continuous
 62
     3
100
AcDbLine
 10
528.693217386
 20
330.168384132
 30
0.0
 11
542.193217387
 21
316.768384131
 31
0.0
  0
LINE
  5
19F
330
1F
100
AcDbEntity
  8
0
  6
Continuous
 62
     3
100
AcDbLine
 10
518.693217386
 20
331.068384132
 30
0.0
 11
529.749846436
 21
331.068384132
 31
0.0
  0
LINE
  5
1A0
330
1F
100
AcDbEntity
  8
0
  6
Continuous
 62
     3
100
AcDbLine
 10
542.546844975
 20
317.874579437
 30
0.0
 11
529.749846436
 21
331.068384132
 31
0.0
  0
LINE
  5
1A1
330
1F
100
AcDbEntity
  8
0
  6
Continuous
 62
     2
100
AcDbLine
 10
557.580370115
 20
313.237136159
 30
0.0
 11
636.187708761
 21
313.237136159
 31
0.0
  0
LINE
  5
1A2
330
1F
100
AcDbEntity
  8
0
  6
Continuous
 62
     2
100
AcDbLine
 10
634.571929667
 20
316.937136159
 30
0.0
 11
557.580370115
 21
316.937136159
 31
0.0
  0
LINE
  5
1A3
330
1F
100
AcDbEntity
  8
0
  6
Continuous
 62
     2
100
AcDbLine
 10
557.650178309
 20
400.861246106
 30
0.0
 11
557.650178309
 21
401.361246106
 31
0.0
  0
LINE
  5
1A4
330
1F
100
AcDbEntity
  8
0
  6
Continuous
 62
     2
100
AcDbLine
 10
542.650178308
 20
402.161246106
 30
0.0
 11
542.650178308
 21
401.361246106
 31
0.0
  0
LINE
  5
1A5
330
1F
100
AcDbEntity
  8
0
  6
Continuous
 62
     2
100
AcDbLine
 10
542.650178308
 20
402.214826196
 30
0.0
 11
542.650178308
 21
401.601246106
 31
0.0
  0
LINE
  5
1A6
330
1F
100
AcDbEntity
  8
0
  6
Continuous
 62
     2
100
AcDbLine
 10
546.850178309
 20
401.361246106
 30
0.0
 11
548.850178309
 21
400.861246106
 31
0.0
  0
LINE
  5
1A7
330
1F
100
AcDbEntity
  8
0
  6
Continuous
 62
     2
100
AcDbLine
 10
542.650178308
 20
401.361246106
 30
0.0
 11
546.850178309
 21
401.361246106
 31
0.0
  0
LINE
  5
1A8
330
1F
100
AcDbEntity
  8
0
  6
Continuous
 62
     3
100
AcDbLine
 10
557.650178309
 20
401.041263103
 30
0.0
 11
557.650178309
 21
400.861246106
 31
0.0
  0
LINE
  5
1A9
330
1F
100
AcDbEntity
  8
0
  6
Continuous
 62
     2
100
AcDbLine
 10
557.650178309
 20
405.061246106
 30
0.0
 11
557.650178309
 21
405.561246106
 31
0.0
  0
LINE
  5
1AA
330
1F
100
AcDbEntity
  8
0
  6
Continuous
 62
     2
100
AcDbLine
 10
546.850178309
 20
405.061246106
 30
0.0
 11
548.850178309
 21
405.561246106
 31
0.0
  0
LINE
  5
1AB
330
1F
100
AcDbEntity
  8
0
  6
Continuous
 62
     2
100
AcDbLine
 10
557.650178309
 20
405.561246106
 30
0.0
 11
548.850178309
 21
405.561246106
 31
0.0
  0
LINE
  5
1AC
330
1F
100
AcDbEntity
  8
0
  6
Continuous
 62
     2
100
AcDbLine
 10
557.650178309
 20
400.861246106
 30
0.0
 11
557.650178309
 21
405.061246106
 31
0.0
  0
LINE
  5
1AD
330
1F
100
AcDbEntity
  8
0
  6
Continuous
 62
     2
100
AcDbLine
 10
548.850178309
 20
400.861246106
 30
0.0
 11
557.650178309
 21
400.861246106
 31
0.0
  0
LINE
  5
1AE
330
1F
100
AcDbEntity
  8
0
  6
Continuous
 62
     2
100
AcDbLine
 10
548.850178309
 20
405.561246106
 30
0.0
 11
548.850178309
 21
400.861246106
 31
0.0
  0
LINE
  5
1AF
330
1F
100
AcDbEntity
  8
0
  6
Continuous
 62
     2
100
AcDbLine
 10
542.650178308
 20
405.061246106
 30
0.0
 11
542.650178308
 21
402.214826196
 31
0.0
  0
LINE
  5
1B0
330
1F
100
AcDbEntity
  8
0
  6
Continuous
 62
     2
100
AcDbLine
 10
546.850178309
 20
405.061246106
 30
0.0
 11
542.650178308
 21
405.061246106
 31
0.0
  0
LINE
  5
1B1
330
1F
100
AcDbEntity
  8
0
  6
Continuous
 62
     3
100
AcDbLine
 10
527.583703447
 20
402.823802828
 30
0.0
 11
542.583703447
 21
402.823802828
 31
0.0
  0
LINE
  5
1B2
330
1F
100
AcDbEntity
  8
0
  6
Continuous
 62
     3
100
AcDbLine
 10
527.583703447
 20
403.723802828
 30
0.0
 11
542.583703447
 21
403.723802828
 31
0.0
  0
LINE
  5
1B3
330
1F
100
AcDbEntity
  8
0
  6
Continuous
 62
     3
100
AcDbLine
 10
542.583703447
 20
403.823802828
 30
0.0
 11
537.655132019
 21
405.323802828
 31
0.0
  0
LINE
  5
1B4
330
1F
100
AcDbEntity
  8
0
  6
Continuous
 62
     3
100
AcDbLine
 10
538.504756079
 20
406.223802829
 30
0.0
 11
542.483703447
 21
405.023802828
 31
0.0
  0
LINE
  5
1B5
330
1F
100
AcDbEntity
  8
0
  6
Continuous
 62
     3
100
AcDbLine
 10
542.583703447
 20
402.623802828
 30
0.0
 11
537.983703447
 21
401.223802828
 31
0.0
  0
LINE
  5
1B6
330
1F
100
AcDbEntity
  8
0
  6
Continuous
 62
     3
100
AcDbLine
 10
538.836335026
 20
400.323802828
 30
0.0
 11
542.483703447
 21
401.423802828
 31
0.0
  0
LINE
  5
1B7
330
1F
100
AcDbEntity
  8
0
  6
Continuous
 62
     7
100
AcDbLine
 10
510.442827879
 20
410.635546614
 30
0.0
 11
511.624022465
 21
410.635546614
 31
0.0
  0
LINE
  5
1B8
330
1F
100
AcDbEntity
  8
0
  6
Continuous
 62
     7
100
AcDbLine
 10
503.750180226
 20
409.281505735
 30
0.0
 11
504.426838622
 21
409.527695026
 31
0.0
  0
LINE
  5
1B9
330
1F
100
AcDbEntity
  8
0
  6
Continuous
 62
     7
100
AcDbLine
 10
503.381093806
 20
408.973769008
 30
0.0
 11
503.750180226
 21
409.281505735
 31
0.0
  0
LINE
  5
1BA
330
1F
100
AcDbEntity
  8
0
  6
Continuous
 62
     7
100
AcDbLine
 10
503.196550718
 20
408.418057938
 30
0.0
 11
503.381093806
 21
408.973769008
 31
0.0
  0
LINE
  5
1BB
330
1F
100
AcDbEntity
  8
0
  6
Continuous
 62
     7
100
AcDbLine
 10
506.402333371
 20
408.601636644
 30
0.0
 11
506.33517266
 21
408.418057938
 31
0.0
  0
LINE
  5
1BC
330
1F
100
AcDbEntity
  8
0
  6
Continuous
 62
     7
100
AcDbLine
 10
506.549085231
 20
408.696806223
 30
0.0
 11
506.402333371
 21
408.601636644
 31
0.0
  0
LINE
  5
1BD
330
1F
100
AcDbEntity
  8
0
  6
Continuous
 62
     7
100
AcDbLine
 10
506.549085231
 20
408.696806223
 30
0.0
 11
509.194204126
 21
409.004542502
 31
0.0
  0
LINE
  5
1BE
330
1F
100
AcDbEntity
  8
0
  6
Continuous
 62
     7
100
AcDbLine
 10
503.996237758
 20
406.358007731
 30
0.0
 11
508.056187643
 21
406.358007731
 31
0.0
  0
LINE
  5
1BF
330
1F
100
AcDbEntity
  8
0
  6
Continuous
 62
     7
100
AcDbLine
 10
504.426838622
 20
409.527695026
 30
0.0
 11
509.532533078
 21
410.050847102
 31
0.0
  0
LINE
  5
1C0
330
1F
100
AcDbEntity
  8
0
  6
Continuous
 62
     7
100
AcDbLine
 10
503.996237758
 20
399.268230902
 30
0.0
 11
508.056187643
 21
399.268230902
 31
0.0
  0
LINE
  5
1C1
330
1F
100
AcDbEntity
  8
0
  6
Continuous
 62
     7
100
AcDbLine
 10
508.825117705
 20
398.068057938
 30
0.0
 11
508.825117705
 21
408.418057938
 31
0.0
  0
LINE
  5
1C2
330
1F
100
AcDbEntity
  8
0
  6
Continuous
 62
     7
100
AcDbLine
 10
503.196550718
 20
398.068057938
 30
0.0
 11
503.196550718
 21
408.418057938
 31
0.0
  0
LINE
  5
1C3
330
1F
100
AcDbEntity
  8
0
  6
Continuous
 62
     7
100
AcDbLine
 10
503.996237758
 20
399.268230902
 30
0.0
 11
503.996237758
 21
406.358007731
 31
0.0
  0
LINE
  5
1C4
330
1F
100
AcDbEntity
  8
0
  6
Continuous
 62
     7
100
AcDbLine
 10
508.056187643
 20
399.268230902
 30
0.0
 11
508.056187643
 21
406.358007731
 31
0.0
  0
LINE
  5
1C5
330
1F
100
AcDbEntity
  8
0
  6
Continuous
 62
     7
100
AcDbLine
 10
509.594047522
 20
399.914477848
 30
0.0
 11
509.594047522
 21
405.865629148
 31
0.0
  0
LINE
  5
1C6
330
1F
100
AcDbEntity
  8
0
  6
Continuous
 62
     7
100
AcDbLine
 10
508.825117705
 20
398.683531391
 30
0.0
 11
508.825117705
 21
407.15812304
 31
0.0
  0
LINE
  5
1C7
330
1F
100
AcDbEntity
  8
0
  6
Continuous
 62
     7
100
AcDbLine
 10
516.514416857
 20
409.004542502
 30
0.0
 11
518.796550719
 21
409.440297542
 31
0.0
  0
LINE
  5
1C8
330
1F
100
AcDbEntity
  8
0
  6
Continuous
 62
     7
100
AcDbLine
 10
517.296753653
 20
397.729547718
 30
0.0
 11
518.796550719
 21
397.729547718
 31
0.0
  0
LINE
  5
1C9
330
1F
100
AcDbEntity
  8
0
  6
Continuous
 62
     7
100
AcDbLine
 10
517.296753653
 20
397.729547718
 30
0.0
 11
517.019150368
 21
398.068057938
 31
0.0
  0
LINE
  5
1CA
330
1F
100
AcDbEntity
  8
0
  6
Continuous
 62
     7
100
AcDbLine
 10
518.17530538
 20
399.914477848
 30
0.0
 11
518.17530538
 21
405.865629148
 31
0.0
  0
LINE
  5
1CB
330
1F
100
AcDbEntity
  8
0
  6
Continuous
 62
     7
100
AcDbLine
 10
503.196550718
 20
398.068057938
 30
0.0
 11
517.019150368
 21
398.068057938
 31
0.0
  0
LINE
  5
1CC
330
1F
100
AcDbEntity
  8
0
  6
Continuous
 62
     7
100
AcDbLine
 10
508.825117705
 20
398.683531391
 30
0.0
 11
518.796550719
 21
398.683531391
 31
0.0
  0
LINE
  5
1CD
330
1F
100
AcDbEntity
  8
0
  6
Continuous
 62
     7
100
AcDbLine
 10
509.594047522
 20
399.914477848
 30
0.0
 11
518.17530538
 21
399.914477848
 31
0.0
  0
LINE
  5
1CE
330
1F
100
AcDbEntity
  8
0
  6
Continuous
 62
     7
100
AcDbLine
 10
509.594047522
 20
405.865629148
 30
0.0
 11
518.17530538
 21
405.865629148
 31
0.0
  0
LINE
  5
1CF
330
1F
100
AcDbEntity
  8
0
  6
Continuous
 62
     7
100
AcDbLine
 10
508.825117705
 20
407.15812304
 30
0.0
 11
518.796550719
 21
407.15812304
 31
0.0
  0
LINE
  5
1D0
330
1F
100
AcDbEntity
  8
0
  6
Continuous
 62
     7
100
AcDbLine
 10
509.532533078
 20
410.050847102
 30
0.0
 11
515.437914819
 21
410.050847102
 31
0.0
  0
LINE
  5
1D1
330
1F
100
AcDbEntity
  8
0
  6
Continuous
 62
     7
100
AcDbLine
 10
509.194204126
 20
409.004542502
 30
0.0
 11
516.514416857
 21
409.004542502
 31
0.0
  0
LINE
  5
1D2
330
1F
100
AcDbEntity
  8
0
  6
Continuous
 62
     7
100
AcDbLine
 10
509.532533078
 20
410.050847102
 30
0.0
 11
510.442827879
 21
410.635546614
 31
0.0
  0
LINE
  5
1D3
330
1F
100
AcDbEntity
  8
0
  6
Continuous
 62
     7
100
AcDbLine
 10
515.437914819
 20
410.050847102
 30
0.0
 11
518.796550719
 21
410.635546614
 31
0.0
  0
LINE
  5
1D4
330
1F
100
AcDbEntity
  8
0
  6
Continuous
 62
     7
100
AcDbLine
 10
518.796550719
 20
409.440297542
 30
0.0
 11
518.796550719
 21
410.635546614
 31
0.0
  0
LINE
  5
1D5
330
1F
100
AcDbEntity
  8
0
  6
Continuous
 62
     7
100
AcDbLine
 10
511.624022465
 20
410.050847102
 30
0.0
 11
511.624022465
 21
410.635546614
 31
0.0
  0
LINE
  5
1D6
330
1F
100
AcDbEntity
  8
0
  6
Continuous
 62
     3
100
AcDbLine
 10
518.796550719
 20
400.323802828
 30
0.0
 11
538.836335026
 21
400.323802828
 31
0.0
  0
LINE
  5
1D7
330
1F
100
AcDbEntity
  8
0
  6
Continuous
 62
     3
100
AcDbLine
 10
518.796550719
 20
401.223802828
 30
0.0
 11
537.983703447
 21
401.223802828
 31
0.0
  0
LINE
  5
1D8
330
1F
100
AcDbEntity
  8
0
  6
Continuous
 62
     3
100
AcDbLine
 10
518.796550719
 20
402.823802828
 30
0.0
 11
527.583703447
 21
402.823802828
 31
0.0
  0
LINE
  5
1D9
330
1F
100
AcDbEntity
  8
0
  6
Continuous
 62
     3
100
AcDbLine
 10
518.796550719
 20
403.723802828
 30
0.0
 11
527.583703447
 21
403.723802828
 31
0.0
  0
LINE
  5
1DA
330
1F
100
AcDbEntity
  8
0
  6
Continuous
 62
     3
100
AcDbLine
 10
518.796550719
 20
405.323802828
 30
0.0
 11
537.655132019
 21
405.323802828
 31
0.0
  0
LINE
  5
1DB
330
1F
100
AcDbEntity
  8
0
  6
Continuous
 62
     3
100
AcDbLine
 10
518.796550719
 20
406.223802829
 30
0.0
 11
538.504756079
 21
406.223802829
 31
0.0
  0
LINE
  5
1DC
330
1F
100
AcDbEntity
  8
0
  6
Continuous
 62
     7
100
AcDbLine
 10
518.796550719
 20
397.729547718
 30
0.0
 11
518.796550719
 21
408.418057938
 31
0.0
  0
LINE
  5
1DD
330
1F
100
AcDbEntity
  8
0
  6
Continuous
 62
     7
100
AcDbLine
 10
503.196550718
 20
408.418057938
 30
0.0
 11
518.796550719
 21
408.418057938
 31
0.0
  0
LINE
  5
1DE
330
1F
100
AcDbEntity
  8
0
  6
Continuous
 62
     2
100
AcDbLine
 10
557.650178309
 20
401.361246106
 30
0.0
 11
636.257516956
 21
401.361246106
 31
0.0
  0
LINE
  5
1DF
330
1F
100
AcDbEntity
  8
0
  6
Continuous
 62
     2
100
AcDbLine
 10
634.641737862
 20
405.061246106
 30
0.0
 11
557.650178309
 21
405.061246106
 31
0.0
  0
LINE
  5
1E0
330
1F
100
AcDbEntity
  8
0
  6
Continuous
 62
     3
100
AcDbLine
 10
518.796550719
 20
435.211370255
 30
0.0
 11
523.626179851
 21
433.917275029
 31
0.0
  0
LINE
  5
1E1
330
1F
100
AcDbEntity
  8
0
  6
Continuous
 62
     3
100
AcDbLine
 10
518.796550719
 20
435.211370255
 30
0.0
 11
523.626179851
 21
436.50546548
 31
0.0
  0
LWPOLYLINE
  5
1E3
330
1F
100
AcDbEntity
  8
0
  6
Continuous
 62
     3
100
AcDbPolyline
 90
     3
 70
   128
 43
0.0
 10
518.796550719
 20
435.211370255
 10
660.037065362
 20
435.211370255
 10
655.207436231
 20
436.50546548
  0
LINE
  5
1E4
330
1F
100
AcDbEntity
  8
0
  6
Continuous
 62
     3
100
AcDbLine
 10
660.037065362
 20
435.211370255
 30
0.0
 11
655.207436231
 21
433.917275029
 31
0.0
  0
LINE
  5
1E5
330
1F
100
AcDbEntity
  8
0
  6
Continuous
 62
     3
100
AcDbLine
 10
660.037065362
 20
408.921370255
 30
0.0
 11
660.037065362
 21
439.211370255
 31
0.0
  0
MTEXT
  5
1E6
330
1F
100
AcDbEntity
  8
0
  6
Continuous
 62
     3
100
AcDbMText
 10
577.116808041
 20
437.211370255
 30
0.0
 40
6.0
 41
49.2
 71
     7
 72
     1
  1
\T1.167;\W0.600;（２０００）
  7
KANJI3
 73
     1
 44
1.0
  0
LINE
  5
1E8
330
1F
100
AcDbEntity
  8
0
  6
Continuous
 62
     3
100
AcDbLine
 10
518.796550719
 20
412.635546614
 30
0.0
 11
518.796550719
 21
421.891246106
 31
0.0
  0
LINE
  5
1E9
330
1F
100
AcDbEntity
  8
0
  6
Continuous
 62
     3
100
AcDbLine
 10
518.796550719
 20
417.891246106
 30
0.0
 11
523.626179851
 21
416.597150881
 31
0.0
  0
LINE
  5
1EA
330
1F
100
AcDbEntity
  8
0
  6
Continuous
 62
     3
100
AcDbLine
 10
518.796550719
 20
417.891246106
 30
0.0
 11
523.626179851
 21
419.185341332
 31
0.0
  0
LWPOLYLINE
  5
1EC
330
1F
100
AcDbEntity
  8
0
  6
Continuous
 62
     3
100
AcDbPolyline
 90
     3
 70
   128
 43
0.0
 10
518.796550719
 20
417.891246106
 10
548.850178309
 20
417.891246106
 10
544.020549177
 20
419.185341332
  0
LINE
  5
1ED
330
1F
100
AcDbEntity
  8
0
  6
Continuous
 62
     3
100
AcDbLine
 10
548.850178309
 20
417.891246106
 30
0.0
 11
544.020549177
 21
416.597150881
 31
0.0
  0
LINE
  5
1EE
330
1F
100
AcDbEntity
  8
0
  6
Continuous
 62
     3
100
AcDbLine
 10
548.850178309
 20
407.561246106
 30
0.0
 11
548.850178309
 21
421.891246106
 31
0.0
  0
MTEXT
  5
1EF
330
1F
100
AcDbEntity
  8
0
  6
Continuous
 62
     3
100
AcDbMText
 10
525.723364514
 20
419.891246106
 30
0.0
 40
6.0
 41
32.4
 71
     7
 72
     1
  1
\T1.167;\W0.600;（３０）
  7
KANJI3
 73
     1
 44
1.0
  0
LINE
  5
1F0
330
1F
100
AcDbEntity
  8
0
  6
Continuous
 62
     3
100
AcDbLine
 10
518.796550719
 20
412.635546614
 30
0.0
 11
518.796550719
 21
439.211370255
 31
0.0
  0
LINE
  5
1F1
330
1F
100
AcDbEntity
  8
0
  6
Continuous
 62
     3
100
AcDbLine
 10
542.650178308
 20
399.361246106
 30
0.0
 11
542.650178308
 21
385.361246106
 31
0.0
  0
LINE
  5
1F2
330
1F
100
AcDbEntity
  8
0
  6
Continuous
 62
     3
100
AcDbLine
 10
542.650178308
 20
389.361246106
 30
0.0
 11
547.47980744
 21
388.06715088
 31
0.0
  0
LINE
  5
1F3
330
1F
100
AcDbEntity
  8
0
  6
Continuous
 62
     3
100
AcDbLine
 10
542.650178308
 20
389.361246106
 30
0.0
 11
547.47980744
 21
390.655341331
 31
0.0
  0
LWPOLYLINE
  5
1F5
330
1F
100
AcDbEntity
  8
0
  6
Continuous
 62
     3
100
AcDbPolyline
 90
     3
 70
   128
 43
0.0
 10
542.650178308
 20
389.361246106
 10
557.650178309
 20
389.361246106
 10
552.820549178
 20
390.655341331
  0
LINE
  5
1F6
330
1F
100
AcDbEntity
  8
0
  6
Continuous
 62
     3
100
AcDbLine
 10
557.650178309
 20
389.361246106
 30
0.0
 11
552.820549178
 21
388.06715088
 31
0.0
  0
LINE
  5
1F7
330
1F
100
AcDbEntity
  8
0
  6
Continuous
 62
     3
100
AcDbLine
 10
557.650178309
 20
398.861246106
 30
0.0
 11
557.650178309
 21
385.361246106
 31
0.0
  0
MTEXT
  5
1F8
330
1F
100
AcDbEntity
  8
0
  6
Continuous
 62
     3
100
AcDbMText
 10
542.050178309
 20
391.361246106
 30
0.0
 40
6.0
 41
32.4
 71
     7
 72
     1
  1
\T1.167;\W0.600;（１５）
  7
KANJI3
 73
     1
 44
1.0
  0
LINE
  5
1F9
330
1F
100
AcDbEntity
  8
0
  6
Continuous
 62
     3
100
AcDbLine
 10
739.784700156
 20
422.818859953
 30
0.0
 11
757.184700156
 21
422.818859953
 31
0.0
  0
MTEXT
  5
1FA
330
1F
100
AcDbEntity
  8
0
  6
Continuous
 62
     3
100
AcDbMText
 10
739.784700156
 20
424.818859953
 30
0.0
 40
6.0
 41
34.8
 71
     7
 72
     1
  1
\T1.111;\W0.900;投光側
  7
KANJI4
 73
     1
 44
1.0
  0
LINE
  5
1FC
330
1F
100
AcDbEntity
  8
0
  6
Continuous
 62
     3
100
AcDbLine
 10
730.744700156
 20
403.288859953
 30
0.0
 11
733.94781996
 21
407.12813378
 31
0.0
  0
LINE
  5
1FD
330
1F
100
AcDbEntity
  8
0
  6
Continuous
 62
     3
100
AcDbLine
 10
730.744700156
 20
403.288859953
 30
0.0
 11
731.599046365
 21
408.215328522
 31
0.0
  0
LINE
  5
1FE
330
1F
100
AcDbEntity
  8
0
  6
Continuous
 62
     3
100
AcDbLine
 10
730.744700156
 20
403.288859953
 30
0.0
 11
739.784700156
 21
422.818859953
 31
0.0
  0
LINE
  5
1FF
330
1F
100
AcDbEntity
  8
0
  6
Continuous
 62
     3
100
AcDbLine
 10
730.744700156
 20
314.288859953
 30
0.0
 11
733.94781996
 21
318.12813378
 31
0.0
  0
LINE
  5
200
330
1F
100
AcDbEntity
  8
0
  6
Continuous
 62
     3
100
AcDbLine
 10
730.744700156
 20
314.288859953
 30
0.0
 11
731.599046365
 21
319.215328522
 31
0.0
  0
LWPOLYLINE
  5
202
330
1F
100
AcDbEntity
  8
0
  6
Continuous
 62
     3
100
AcDbPolyline
 90
     3
 70
   128
 43
0.0
 10
730.744700156
 20
314.288859953
 10
739.784700156
 20
333.818859953
 10
757.184700156
 20
333.818859953
  0
MTEXT
  5
203
330
1F
100
AcDbEntity
  8
0
  6
Continuous
 62
     3
100
AcDbMText
 10
739.784700156
 20
335.818859953
 30
0.0
 40
6.0
 41
34.8
 71
     7
 72
     1
  1
\T1.111;\W0.900;受光側
  7
KANJI4
 73
     1
 44
1.0
  0
LINE
  5
204
330
1F
100
AcDbEntity
  8
0
  6
Continuous
 62
     7
100
AcDbLine
 10
230.723579344
 20
432.049375544
 30
0.0
 11
229.423579343
 21
432.049375542
 31
0.0
  0
LINE
  5
205
330
1F
100
AcDbEntity
  8
0
  6
Continuous
 62
     7
100
AcDbLine
 10
230.723579344
 20
432.049375544
 30
0.0
 11
230.723579344
 21
436.321767533
 31
0.0
  0
LINE
  5
206
330
1F
100
AcDbEntity
  8
0
  6
Continuous
 62
     7
100
AcDbLine
 10
229.423579343
 20
436.321767534
 30
0.0
 11
230.723579344
 21
436.321767533
 31
0.0
  0
LINE
  5
207
330
1F
100
AcDbEntity
  8
0
  6
Continuous
 62
     7
100
AcDbLine
 10
235.423579343
 20
441.185571538
 30
0.0
 11
235.423579343
 21
427.185571538
 31
0.0
  0
ELLIPSE
  5
208
330
1F
100
AcDbEntity
  8
0
  6
Continuous
 62
     7
100
AcDbEllipse
 10
229.423579343
 20
430.894675004
 30
0.0
 11
2.0
 21
0.0
 31
0.0
 40
0.577350269
 41
1.570796327
 42
3.141592654
  0
LINE
  5
209
330
1F
100
AcDbEntity
  8
0
  6
Continuous
 62
     7
100
AcDbLine
 10
227.423579343
 20
430.894675004
 30
0.0
 11
227.423579343
 21
427.185571538
 31
0.0
  0
LINE
  5
20A
330
1F
100
AcDbEntity
  8
0
  6
Continuous
 62
     7
100
AcDbLine
 10
235.423579343
 20
427.185571538
 30
0.0
 11
235.423579343
 21
422.185571537
 31
0.0
  0
LINE
  5
20B
330
1F
100
AcDbEntity
  8
0
  6
Continuous
 62
     7
100
AcDbLine
 10
229.423579343
 20
422.185571537
 30
0.0
 11
235.423579343
 21
422.185571537
 31
0.0
  0
ARC
  5
20C
330
1F
100
AcDbEntity
  8
0
  6
Continuous
 62
     7
100
AcDbCircle
 10
229.423579343
 20
424.185571538
 30
0.0
 40
2.0
100
AcDbArc
 50
179.999999983
 51
270.0
  0
LINE
  5
20D
330
1F
100
AcDbEntity
  8
0
  6
Continuous
 62
     7
100
AcDbLine
 10
227.423579343
 20
427.185571538
 30
0.0
 11
227.423579343
 21
424.185571538
 31
0.0
  0
LINE
  5
20E
330
1F
100
AcDbEntity
  8
0
  6
Continuous
 62
     7
100
AcDbLine
 10
229.423579343
 20
446.185571539
 30
0.0
 11
235.423579343
 21
446.185571539
 31
0.0
  0
LINE
  5
20F
330
1F
100
AcDbEntity
  8
0
  6
Continuous
 62
     7
100
AcDbLine
 10
235.423579343
 20
446.185571539
 30
0.0
 11
235.423579343
 21
441.185571538
 31
0.0
  0
LINE
  5
210
330
1F
100
AcDbEntity
  8
0
  6
Continuous
 62
     7
100
AcDbLine
 10
227.423579343
 20
444.185571539
 30
0.0
 11
227.423579343
 21
441.185571538
 31
0.0
  0
ARC
  5
211
330
1F
100
AcDbEntity
  8
0
  6
Continuous
 62
     7
100
AcDbCircle
 10
229.423579343
 20
444.185571539
 30
0.0
 40
2.0
100
AcDbArc
 50
90.0
 51
180.0
  0
ELLIPSE
  5
212
330
1F
100
AcDbEntity
  8
0
  6
Continuous
 62
     7
100
AcDbEllipse
 10
229.423579343
 20
437.476468072
 30
0.0
 11
2.0
 21
0.0
 31
0.0
 40
0.577350269
 41
3.141592654
 42
4.71238898
  0
LINE
  5
213
330
1F
100
AcDbEntity
  8
0
  6
Continuous
 62
     7
100
AcDbLine
 10
227.423579343
 20
441.185571538
 30
0.0
 11
227.423579343
 21
437.476468072
 31
0.0
  0
LINE
  5
214
330
1F
100
AcDbEntity
  8
0
  6
Continuous
 62
     7
100
AcDbLine
 10
230.723579343
 20
436.264032507
 30
0.0
 11
227.523579342
 21
436.264032507
 31
0.0
  0
LINE
  5
215
330
1F
100
AcDbEntity
  8
0
  6
Continuous
 62
     7
100
AcDbLine
 10
227.423579343
 20
436.264032516
 30
0.0
 11
227.523579343
 21
436.264032507
 31
0.0
  0
LINE
  5
216
330
1F
100
AcDbEntity
  8
0
  6
Continuous
 62
     7
100
AcDbLine
 10
227.423579343
 20
437.476468072
 30
0.0
 11
227.423579343
 21
436.264032516
 31
0.0
  0
LINE
  5
217
330
1F
100
AcDbEntity
  8
0
  6
Continuous
 62
     7
100
AcDbLine
 10
227.423579343
 20
432.107110569
 30
0.0
 11
227.523579342
 21
432.107110569
 31
0.0
  0
LINE
  5
218
330
1F
100
AcDbEntity
  8
0
  6
Continuous
 62
     7
100
AcDbLine
 10
227.523579342
 20
432.107110569
 30
0.0
 11
230.723579343
 21
432.10711057
 31
0.0
  0
LINE
  5
219
330
1F
100
AcDbEntity
  8
0
  6
Continuous
 62
     7
100
AcDbLine
 10
227.423579343
 20
432.107110569
 30
0.0
 11
227.423579343
 21
430.894675004
 31
0.0
  0
LINE
  5
21A
330
1F
100
AcDbEntity
  8
0
  6
Continuous
 62
     7
100
AcDbLine
 10
227.523579343
 20
432.107110569
 30
0.0
 11
227.523579343
 21
436.264032507
 31
0.0
  0
LINE
  5
21B
330
1F
100
AcDbEntity
  8
0
  6
Continuous
 62
     7
100
AcDbLine
 10
227.423579343
 20
422.185571537
 30
0.0
 11
229.423579343
 21
422.185571537
 31
0.0
  0
LINE
  5
21C
330
1F
100
AcDbEntity
  8
0
  6
Continuous
 62
     7
100
AcDbLine
 10
227.423579343
 20
424.185571538
 30
0.0
 11
227.423579343
 21
422.185571537
 31
0.0
  0
LINE
  5
21D
330
1F
100
AcDbEntity
  8
0
  6
LTYPE1
 62
     3
100
AcDbLine
 10
222.290246009
 20
434.191399693
 30
0.0
 11
212.290246009
 21
437.524733026
 31
0.0
  0
LINE
  5
21E
330
1F
100
AcDbEntity
  8
0
  6
LTYPE1
 62
     3
100
AcDbLine
 10
222.290246009
 20
434.191399693
 30
0.0
 11
212.290246009
 21
430.858066359
 31
0.0
  0
LINE
  5
21F
330
1F
100
AcDbEntity
  8
0
  6
LTYPE2
 62
     3
100
AcDbLine
 10
239.421563745
 20
434.186702598
 30
0.0
 11
223.421563744
 21
434.186702598
 31
0.0
  0
ARC
  5
220
330
1F
100
AcDbEntity
  8
0
  6
Continuous
 62
     7
100
AcDbCircle
 10
145.42357934
 20
444.185571539
 30
0.0
 40
2.0
100
AcDbArc
 50
0.0
 51
90.0
  0
LINE
  5
221
330
1F
100
AcDbEntity
  8
0
  6
Continuous
 62
     7
100
AcDbLine
 10
147.42357934
 20
441.185571538
 30
0.0
 11
147.42357934
 21
444.185571539
 31
0.0
  0
LINE
  5
222
330
1F
100
AcDbEntity
  8
0
  6
Continuous
 62
     7
100
AcDbLine
 10
139.42357934
 20
441.185571538
 30
0.0
 11
139.42357934
 21
446.185571539
 31
0.0
  0
LINE
  5
223
330
1F
100
AcDbEntity
  8
0
  6
Continuous
 62
     7
100
AcDbLine
 10
145.42357934
 20
446.185571539
 30
0.0
 11
139.42357934
 21
446.185571539
 31
0.0
  0
LINE
  5
224
330
1F
100
AcDbEntity
  8
0
  6
Continuous
 62
     7
100
AcDbLine
 10
139.42357934
 20
427.185571538
 30
0.0
 11
139.42357934
 21
441.185571538
 31
0.0
  0
LINE
  5
225
330
1F
100
AcDbEntity
  8
0
  6
Continuous
 62
     7
100
AcDbLine
 10
144.123579338
 20
436.321767533
 30
0.0
 11
145.42357934
 21
436.321767534
 31
0.0
  0
LINE
  5
226
330
1F
100
AcDbEntity
  8
0
  6
Continuous
 62
     7
100
AcDbLine
 10
144.123579338
 20
436.321767533
 30
0.0
 11
144.123579338
 21
432.049375544
 31
0.0
  0
LINE
  5
227
330
1F
100
AcDbEntity
  8
0
  6
Continuous
 62
     7
100
AcDbLine
 10
145.42357934
 20
432.049375542
 30
0.0
 11
144.123579338
 21
432.049375544
 31
0.0
  0
ELLIPSE
  5
228
330
1F
100
AcDbEntity
  8
0
  6
Continuous
 62
     7
100
AcDbEllipse
 10
145.42357934
 20
437.476468072
 30
0.0
 11
2.0
 21
0.0
 31
0.0
 40
0.577350269
 41
4.71238898
 42
0.0
  0
LINE
  5
229
330
1F
100
AcDbEntity
  8
0
  6
Continuous
 62
     7
100
AcDbLine
 10
147.42357934
 20
437.476468072
 30
0.0
 11
147.42357934
 21
441.185571538
 31
0.0
  0
ELLIPSE
  5
22A
330
1F
100
AcDbEntity
  8
0
  6
Continuous
 62
     7
100
AcDbEllipse
 10
145.42357934
 20
430.894675004
 30
0.0
 11
2.0
 21
0.0
 31
0.0
 40
0.577350269
 41
6.283185307
 42
1.570796327
  0
LINE
  5
22B
330
1F
100
AcDbEntity
  8
0
  6
Continuous
 62
     7
100
AcDbLine
 10
147.42357934
 20
430.894675003
 30
0.0
 11
147.42357934
 21
427.185571538
 31
0.0
  0
LINE
  5
22C
330
1F
100
AcDbEntity
  8
0
  6
Continuous
 62
     7
100
AcDbLine
 10
147.42357934
 20
424.185571538
 30
0.0
 11
147.42357934
 21
427.185571538
 31
0.0
  0
ARC
  5
22D
330
1F
100
AcDbEntity
  8
0
  6
Continuous
 62
     7
100
AcDbCircle
 10
145.42357934
 20
424.185571538
 30
0.0
 40
2.0
100
AcDbArc
 50
270.0
 51
0.000000006
  0
LINE
  5
22E
330
1F
100
AcDbEntity
  8
0
  6
Continuous
 62
     7
100
AcDbLine
 10
145.42357934
 20
422.185571537
 30
0.0
 11
139.42357934
 21
422.185571537
 31
0.0
  0
LINE
  5
22F
330
1F
100
AcDbEntity
  8
0
  6
Continuous
 62
     7
100
AcDbLine
 10
139.42357934
 20
422.185571537
 30
0.0
 11
139.42357934
 21
427.185571538
 31
0.0
  0
LINE
  5
230
330
1F
100
AcDbEntity
  8
0
  6
Continuous
 62
     7
100
AcDbLine
 10
147.32357934
 20
432.107110568
 30
0.0
 11
144.12357934
 21
432.10711057
 31
0.0
  0
LINE
  5
231
330
1F
100
AcDbEntity
  8
0
  6
Continuous
 62
     7
100
AcDbLine
 10
147.32357934
 20
432.107110569
 30
0.0
 11
147.42357934
 21
432.107110569
 31
0.0
  0
LINE
  5
232
330
1F
100
AcDbEntity
  8
0
  6
Continuous
 62
     7
100
AcDbLine
 10
147.42357934
 20
432.107110567
 30
0.0
 11
147.42357934
 21
430.894675004
 31
0.0
  0
LINE
  5
233
330
1F
100
AcDbEntity
  8
0
  6
Continuous
 62
     7
100
AcDbLine
 10
147.42357934
 20
436.264032516
 30
0.0
 11
147.32357934
 21
436.264032509
 31
0.0
  0
LINE
  5
234
330
1F
100
AcDbEntity
  8
0
  6
Continuous
 62
     7
100
AcDbLine
 10
147.32357934
 20
436.264032509
 30
0.0
 11
144.12357934
 21
436.264032507
 31
0.0
  0
LINE
  5
235
330
1F
100
AcDbEntity
  8
0
  6
Continuous
 62
     7
100
AcDbLine
 10
147.42357934
 20
436.264032516
 30
0.0
 11
147.42357934
 21
437.476468072
 31
0.0
  0
LINE
  5
236
330
1F
100
AcDbEntity
  8
0
  6
Continuous
 62
     7
100
AcDbLine
 10
147.32357934
 20
436.264032509
 30
0.0
 11
147.32357934
 21
432.107110568
 31
0.0
  0
LINE
  5
237
330
1F
100
AcDbEntity
  8
0
  6
LTYPE2
 62
     3
100
AcDbLine
 10
151.421563742
 20
434.186702598
 30
0.0
 11
135.421563741
 21
434.186702598
 31
0.0
  0
LINE
  5
238
330
1F
100
AcDbEntity
  8
0
  6
Continuous
 62
     7
100
AcDbLine
 10
235.419990293
 20
358.6387308
 30
0.0
 11
235.419990293
 21
298.638730797
 31
0.0
  0
LINE
  5
239
330
1F
100
AcDbEntity
  8
0
  6
Continuous
 62
     7
100
AcDbLine
 10
227.419990293
 20
298.638730797
 30
0.0
 11
227.419990293
 21
304.038730798
 31
0.0
  0
LINE
  5
23A
330
1F
100
AcDbEntity
  8
0
  6
Continuous
 62
     7
100
AcDbLine
 10
227.419990293
 20
304.038730798
 30
0.0
 11
232.419990293
 21
304.038730798
 31
0.0
  0
LINE
  5
23B
330
1F
100
AcDbEntity
  8
0
  6
Continuous
 62
     7
100
AcDbLine
 10
232.419990293
 20
304.038730798
 30
0.0
 11
232.419990293
 21
353.2387308
 31
0.0
  0
LINE
  5
23C
330
1F
100
AcDbEntity
  8
0
  6
Continuous
 62
     7
100
AcDbLine
 10
232.419990293
 20
353.2387308
 30
0.0
 11
229.419990293
 21
353.2387308
 31
0.0
  0
LINE
  5
23D
330
1F
100
AcDbEntity
  8
0
  6
Continuous
 62
     7
100
AcDbLine
 10
229.419990293
 20
363.638730801
 30
0.0
 11
235.419990293
 21
363.638730801
 31
0.0
  0
LINE
  5
23E
330
1F
100
AcDbEntity
  8
0
  6
Continuous
 62
     7
100
AcDbLine
 10
235.419990293
 20
363.638730801
 30
0.0
 11
235.419990293
 21
358.6387308
 31
0.0
  0
ARC
  5
23F
330
1F
100
AcDbEntity
  8
0
  6
Continuous
 62
     7
100
AcDbCircle
 10
229.419990293
 20
361.6387308
 30
0.0
 40
2.0
100
AcDbArc
 50
90.0
 51
180.0
  0
LINE
  5
240
330
1F
100
AcDbEntity
  8
0
  6
Continuous
 62
     7
100
AcDbLine
 10
227.419990293
 20
361.6387308
 30
0.0
 11
227.419990293
 21
358.6387308
 31
0.0
  0
LINE
  5
241
330
1F
100
AcDbEntity
  8
0
  6
Continuous
 62
     7
100
AcDbLine
 10
229.419990293
 20
353.2387308
 30
0.0
 11
227.419990293
 21
353.238730792
 31
0.0
  0
LINE
  5
242
330
1F
100
AcDbEntity
  8
0
  6
Continuous
 62
     7
100
AcDbLine
 10
227.419990293
 20
358.6387308
 30
0.0
 11
227.419990293
 21
353.238730792
 31
0.0
  0
LINE
  5
243
330
1F
100
AcDbEntity
  8
0
  6
Continuous
 62
     7
100
AcDbLine
 10
235.419990293
 20
298.638730797
 30
0.0
 11
235.419990293
 21
293.638730797
 31
0.0
  0
LINE
  5
244
330
1F
100
AcDbEntity
  8
0
  6
Continuous
 62
     7
100
AcDbLine
 10
227.419990293
 20
293.638730797
 30
0.0
 11
235.419990293
 21
293.638730797
 31
0.0
  0
LINE
  5
245
330
1F
100
AcDbEntity
  8
0
  6
Continuous
 62
     7
100
AcDbLine
 10
227.419990293
 20
293.638730797
 30
0.0
 11
227.419990293
 21
298.638730797
 31
0.0
  0
LINE
  5
246
330
1F
100
AcDbEntity
  8
0
  6
Continuous
 62
     7
100
AcDbLine
 10
227.519990293
 20
304.038730798
 30
0.0
 11
227.519990293
 21
353.2387308
 31
0.0
  0
LINE
  5
247
330
1F
100
AcDbEntity
  8
0
  6
Continuous
 62
     7
100
AcDbLine
 10
227.419990293
 20
353.238730784
 30
0.0
 11
227.419990293
 21
304.038730766
 31
0.0
  0
LINE
  5
248
330
1F
100
AcDbEntity
  8
0
  6
Continuous
 62
     2
100
AcDbLine
 10
230.814847555
 20
269.399846323
 30
0.0
 11
226.814847555
 21
272.06651299
 31
0.0
  0
LINE
  5
249
330
1F
100
AcDbEntity
  8
0
  6
Continuous
 62
     2
100
AcDbLine
 10
230.814847555
 20
267.399846323
 30
0.0
 11
226.814847555
 21
270.06651299
 31
0.0
  0
LINE
  5
24A
330
1F
100
AcDbEntity
  8
0
  6
Continuous
 62
     2
100
AcDbLine
 10
233.414847555
 20
270.682292083
 30
0.0
 11
230.814847555
 21
267.399846323
 31
0.0
  0
LINE
  5
24B
330
1F
100
AcDbEntity
  8
0
  6
Continuous
 62
     2
100
AcDbLine
 10
237.414847555
 20
268.015625417
 30
0.0
 11
233.414847555
 21
270.682292083
 31
0.0
  0
LINE
  5
24C
330
1F
100
AcDbEntity
  8
0
  6
Continuous
 62
     2
100
AcDbLine
 10
233.414847555
 20
272.682292084
 30
0.0
 11
230.814847555
 21
269.399846323
 31
0.0
  0
LINE
  5
24D
330
1F
100
AcDbEntity
  8
0
  6
Continuous
 62
     2
100
AcDbLine
 10
237.414847555
 20
270.015625417
 30
0.0
 11
233.414847555
 21
272.682292084
 31
0.0
  0
LINE
  5
24E
330
1F
100
AcDbEntity
  8
0
  6
Continuous
 62
     7
100
AcDbLine
 10
229.404224386
 20
293.638730797
 30
0.0
 11
229.404224386
 21
270.473595103
 31
0.0
  0
LINE
  5
24F
330
1F
100
AcDbEntity
  8
0
  6
Continuous
 62
     7
100
AcDbLine
 10
233.104227414
 20
272.290140635
 30
0.0
 11
233.104227414
 21
293.638730797
 31
0.0
  0
LINE
  5
250
330
1F
100
AcDbEntity
  8
0
  6
LTYPE1
 62
     3
100
AcDbLine
 10
222.286656959
 20
353.2387308
 30
0.0
 11
212.286656959
 21
356.572064134
 31
0.0
  0
LINE
  5
251
330
1F
100
AcDbEntity
  8
0
  6
LTYPE1
 62
     3
100
AcDbLine
 10
222.286656959
 20
353.2387308
 30
0.0
 11
212.286656959
 21
349.905397467
 31
0.0
  0
LINE
  5
252
330
1F
100
AcDbEntity
  8
0
  6
LTYPE1
 62
     3
100
AcDbLine
 10
222.286656959
 20
328.638730799
 30
0.0
 11
212.286656959
 21
331.972064132
 31
0.0
  0
LINE
  5
253
330
1F
100
AcDbEntity
  8
0
  6
LTYPE1
 62
     3
100
AcDbLine
 10
222.286656959
 20
328.638730799
 30
0.0
 11
212.286656959
 21
325.305397465
 31
0.0
  0
LINE
  5
254
330
1F
100
AcDbEntity
  8
0
  6
LTYPE1
 62
     3
100
AcDbLine
 10
222.286656959
 20
304.038730798
 30
0.0
 11
212.286656959
 21
307.372064131
 31
0.0
  0
LINE
  5
255
330
1F
100
AcDbEntity
  8
0
  6
LTYPE1
 62
     3
100
AcDbLine
 10
222.286656959
 20
304.038730798
 30
0.0
 11
212.286656959
 21
300.705397464
 31
0.0
  0
LINE
  5
257
330
1F
100
AcDbEntity
  8
0
  6
LTYPE3
 62
     7
100
AcDbLine
 10
224.987761981
 20
378.358425478
 30
0.0
 11
224.987761981
 21
273.406958675
 31
0.0
  0
MTEXT
  5
258
330
1F
100
AcDbEntity
  8
0
  6
Continuous
 62
     2
100
AcDbMText
 10
214.393896099
 20
378.538087632
 30
0.0
 40
3.704166667
 41
5.55625
 71
     7
 72
     1
  1
\W0.750;Ａ
  7
KANJI5
 73
     1
 44
1.0
  0
MTEXT
  5
25A
330
1F
100
AcDbEntity
  8
0
  6
Continuous
 62
     2
100
AcDbMText
 10
214.393896099
 20
277.518087627
 30
0.0
 40
3.704166667
 41
5.55625
 71
     7
 72
     1
  1
\W0.750;Ａ
  7
KANJI5
 73
     1
 44
1.0
  0
LINE
  5
25B
330
1F
100
AcDbEntity
  8
0
  6
Continuous
 62
     3
100
AcDbLine
 10
212.985514055
 20
376.358425478
 30
0.0
 11
224.985514056
 21
376.358425478
 31
0.0
  0
LWPOLYLINE
  5
25D
330
1F
100
AcDbEntity
  8
0
  6
Continuous
 62
     3
100
AcDbPolyline
 90
     3
 70
   128
 43
0.0
 10
218.985514055
 20
374.750731478
 10
224.985514056
 20
376.358425478
 10
218.985514055
 20
377.966119478
  0
LINE
  5
25E
330
1F
100
AcDbEntity
  8
0
  6
Continuous
 62
     3
100
AcDbLine
 10
224.985514056
 20
376.358425478
 30
0.0
 11
218.985514055
 21
376.358425478
 31
0.0
  0
LINE
  5
25F
330
1F
100
AcDbEntity
  8
0
  6
Continuous
 62
     3
100
AcDbLine
 10
212.985514055
 20
275.408425473
 30
0.0
 11
224.985514056
 21
275.408425473
 31
0.0
  0
LWPOLYLINE
  5
261
330
1F
100
AcDbEntity
  8
0
  6
Continuous
 62
     3
100
AcDbPolyline
 90
     3
 70
   128
 43
0.0
 10
218.985514055
 20
273.800731473
 10
224.985514056
 20
275.408425473
 10
218.985514055
 20
277.016119473
  0
LINE
  5
262
330
1F
100
AcDbEntity
  8
0
  6
Continuous
 62
     3
100
AcDbLine
 10
224.985514056
 20
275.408425473
 30
0.0
 11
218.985514055
 21
275.408425473
 31
0.0
  0
LINE
  5
263
330
1F
100
AcDbEntity
  8
0
  6
LTYPE2
 62
     3
100
AcDbLine
 10
239.417974695
 20
360.140700372
 30
0.0
 11
223.417974694
 21
360.140700372
 31
0.0
  0
LINE
  5
264
330
1F
100
AcDbEntity
  8
0
  6
LTYPE2
 62
     3
100
AcDbLine
 10
239.417974695
 20
297.140700368
 30
0.0
 11
223.417974694
 21
297.140700368
 31
0.0
  0
LINE
  5
265
330
1F
100
AcDbEntity
  8
0
  6
Continuous
 62
     7
100
AcDbLine
 10
145.41999029
 20
353.2387308
 30
0.0
 11
147.41999029
 21
353.2387308
 31
0.0
  0
LINE
  5
266
330
1F
100
AcDbEntity
  8
0
  6
Continuous
 62
     7
100
AcDbLine
 10
147.41999029
 20
358.6387308
 30
0.0
 11
147.41999029
 21
353.2387308
 31
0.0
  0
LINE
  5
267
330
1F
100
AcDbEntity
  8
0
  6
Continuous
 62
     7
100
AcDbLine
 10
147.41999029
 20
358.6387308
 30
0.0
 11
147.41999029
 21
361.6387308
 31
0.0
  0
ARC
  5
268
330
1F
100
AcDbEntity
  8
0
  6
Continuous
 62
     7
100
AcDbCircle
 10
145.41999029
 20
361.6387308
 30
0.0
 40
2.0
100
AcDbArc
 50
359.999999988
 51
89.999999988
  0
LINE
  5
269
330
1F
100
AcDbEntity
  8
0
  6
Continuous
 62
     7
100
AcDbLine
 10
145.41999029
 20
353.2387308
 30
0.0
 11
142.41999029
 21
353.2387308
 31
0.0
  0
LINE
  5
26A
330
1F
100
AcDbEntity
  8
0
  6
Continuous
 62
     7
100
AcDbLine
 10
142.41999029
 20
353.2387308
 30
0.0
 11
142.41999029
 21
304.038730798
 31
0.0
  0
LINE
  5
26B
330
1F
100
AcDbEntity
  8
0
  6
Continuous
 62
     7
100
AcDbLine
 10
142.41999029
 20
304.038730798
 30
0.0
 11
145.41999029
 21
304.038730798
 31
0.0
  0
LINE
  5
26C
330
1F
100
AcDbEntity
  8
0
  6
Continuous
 62
     7
100
AcDbLine
 10
139.41999029
 20
298.638730797
 30
0.0
 11
139.41999029
 21
358.638730799
 31
0.0
  0
LINE
  5
26D
330
1F
100
AcDbEntity
  8
0
  6
Continuous
 62
     7
100
AcDbLine
 10
139.41999029
 20
358.638730799
 30
0.0
 11
139.41999029
 21
363.638730801
 31
0.0
  0
LINE
  5
26E
330
1F
100
AcDbEntity
  8
0
  6
Continuous
 62
     7
100
AcDbLine
 10
145.41999029
 20
363.638730801
 30
0.0
 11
139.41999029
 21
363.638730801
 31
0.0
  0
LINE
  5
26F
330
1F
100
AcDbEntity
  8
0
  6
Continuous
 62
     7
100
AcDbLine
 10
147.41999029
 20
295.638730797
 30
0.0
 11
147.41999029
 21
298.638730797
 31
0.0
  0
ARC
  5
270
330
1F
100
AcDbEntity
  8
0
  6
Continuous
 62
     7
100
AcDbCircle
 10
145.41999029
 20
295.638730797
 30
0.0
 40
2.0
100
AcDbArc
 50
270.0
 51
359.999999995
  0
LINE
  5
271
330
1F
100
AcDbEntity
  8
0
  6
Continuous
 62
     7
100
AcDbLine
 10
147.41999029
 20
304.038730798
 30
0.0
 11
147.41999029
 21
298.638730797
 31
0.0
  0
LINE
  5
272
330
1F
100
AcDbEntity
  8
0
  6
Continuous
 62
     7
100
AcDbLine
 10
145.41999029
 20
304.038730798
 30
0.0
 11
147.41999029
 21
304.038730798
 31
0.0
  0
LINE
  5
273
330
1F
100
AcDbEntity
  8
0
  6
Continuous
 62
     7
100
AcDbLine
 10
139.41999029
 20
293.638730797
 30
0.0
 11
139.41999029
 21
298.638730797
 31
0.0
  0
LINE
  5
274
330
1F
100
AcDbEntity
  8
0
  6
Continuous
 62
     7
100
AcDbLine
 10
147.31999029
 20
353.2387308
 30
0.0
 11
147.31999029
 21
304.038730798
 31
0.0
  0
LINE
  5
275
330
1F
100
AcDbEntity
  8
0
  6
Continuous
 62
     7
100
AcDbLine
 10
147.41999029
 20
304.03873078
 30
0.0
 11
147.41999029
 21
353.2387308
 31
0.0
  0
ELLIPSE
  5
276
330
1F
100
AcDbEntity
  8
0
  6
Continuous
 62
     7
100
AcDbEllipse
 10
145.41999029
 20
295.921053604
 30
0.0
 11
0.0
 21
6.69213043
 31
0.0
 40
0.298858491
 41
4.364359836
 42
4.652183187
  0
LINE
  5
277
330
1F
100
AcDbEntity
  8
0
  6
Continuous
 62
     7
100
AcDbLine
 10
145.41999029
 20
293.638730797
 30
0.0
 11
147.300083671
 21
293.638730797
 31
0.0
  0
LINE
  5
278
330
1F
100
AcDbEntity
  8
0
  6
Continuous
 62
     7
100
AcDbLine
 10
141.279124508
 20
270.423150145
 30
0.0
 11
141.277559886
 21
270.369371854
 31
0.0
  0
LINE
  5
279
330
1F
100
AcDbEntity
  8
0
  6
Continuous
 62
     2
100
AcDbLine
 10
142.600737608
 20
269.469654517
 30
0.0
 11
138.600737607
 21
272.136321184
 31
0.0
  0
LINE
  5
27A
330
1F
100
AcDbEntity
  8
0
  6
Continuous
 62
     2
100
AcDbLine
 10
142.600737608
 20
267.469654517
 30
0.0
 11
138.600737607
 21
270.136321184
 31
0.0
  0
LINE
  5
27B
330
1F
100
AcDbEntity
  8
0
  6
Continuous
 62
     2
100
AcDbLine
 10
145.200737608
 20
270.752100278
 30
0.0
 11
142.600737608
 21
267.469654517
 31
0.0
  0
LINE
  5
27C
330
1F
100
AcDbEntity
  8
0
  6
Continuous
 62
     2
100
AcDbLine
 10
149.200737608
 20
270.085433611
 30
0.0
 11
145.200737608
 21
272.752100278
 31
0.0
  0
LINE
  5
27D
330
1F
100
AcDbEntity
  8
0
  6
Continuous
 62
     2
100
AcDbLine
 10
149.200737608
 20
268.085433611
 30
0.0
 11
145.200737608
 21
270.752100278
 31
0.0
  0
LINE
  5
27E
330
1F
100
AcDbEntity
  8
0
  6
Continuous
 62
     2
100
AcDbLine
 10
144.977562914
 20
272.470346882
 30
0.0
 11
142.600737608
 21
269.469654517
 31
0.0
  0
LINE
  5
27F
330
1F
100
AcDbEntity
  8
0
  6
Continuous
 62
     7
100
AcDbLine
 10
141.277559886
 20
293.638730797
 30
0.0
 11
139.41999029
 21
293.638730797
 31
0.0
  0
LINE
  5
280
330
1F
100
AcDbEntity
  8
0
  6
Continuous
 62
     7
100
AcDbLine
 10
145.41999029
 20
293.638730797
 30
0.0
 11
141.277559886
 21
293.638730797
 31
0.0
  0
LINE
  5
281
330
1F
100
AcDbEntity
  8
0
  6
Continuous
 62
     7
100
AcDbLine
 10
141.277559886
 20
293.638730797
 30
0.0
 11
141.277559886
 21
270.476928436
 31
0.0
  0
LINE
  5
282
330
1F
100
AcDbEntity
  8
0
  6
Continuous
 62
     7
100
AcDbLine
 10
144.977562914
 20
272.470346882
 30
0.0
 11
144.977562914
 21
293.638730797
 31
0.0
  0
LINE
  5
283
330
1F
100
AcDbEntity
  8
0
  6
LTYPE2
 62
     3
100
AcDbLine
 10
151.417974692
 20
297.140700368
 30
0.0
 11
135.417974691
 21
297.140700368
 31
0.0
  0
LINE
  5
284
330
1F
100
AcDbEntity
  8
0
  6
LTYPE2
 62
     3
100
AcDbLine
 10
151.417974692
 20
360.140700372
 30
0.0
 11
135.417974691
 21
360.140700372
 31
0.0
  0
LINE
  5
285
330
1F
100
AcDbEntity
  8
0
  6
Continuous
 62
     7
100
AcDbLine
 10
68.16218769
 20
297.638730797
 30
0.0
 11
68.16218769
 21
260.638730795
 31
0.0
  0
LINE
  5
286
330
1F
100
AcDbEntity
  8
0
  6
Continuous
 62
     7
100
AcDbLine
 10
71.86218769
 20
260.638730795
 30
0.0
 11
71.86218769
 21
295.788730797
 31
0.0
  0
LINE
  5
287
330
1F
100
AcDbEntity
  8
0
  6
Continuous
 62
     7
100
AcDbLine
 10
68.16218769
 20
260.638730795
 30
0.0
 11
71.86218769
 21
260.638730795
 31
0.0
  0
ARC
  5
288
330
1F
100
AcDbEntity
  8
0
  6
Continuous
 62
     7
100
AcDbCircle
 10
85.012187691
 20
358.6387308
 30
0.0
 40
5.0
100
AcDbArc
 50
359.999999988
 51
90.0
  0
LINE
  5
289
330
1F
100
AcDbEntity
  8
0
  6
Continuous
 62
     7
100
AcDbLine
 10
90.012187691
 20
298.638730797
 30
0.0
 11
90.012187691
 21
358.638730799
 31
0.0
  0
ARC
  5
28A
330
1F
100
AcDbEntity
  8
0
  6
Continuous
 62
     7
100
AcDbCircle
 10
85.012187691
 20
298.638730797
 30
0.0
 40
5.0
100
AcDbArc
 50
270.000000011
 51
0.0
  0
LINE
  5
28B
330
1F
100
AcDbEntity
  8
0
  6
Continuous
 62
     7
100
AcDbLine
 10
74.840614815
 20
293.638730797
 30
0.0
 11
85.012187692
 21
293.638730797
 31
0.0
  0
ARC
  5
28C
330
1F
100
AcDbEntity
  8
0
  6
Continuous
 62
     7
100
AcDbCircle
 10
74.840614815
 20
295.638730797
 30
0.0
 40
2.0
100
AcDbArc
 50
224.99999999
 51
270.000000011
  0
ARC
  5
28D
330
1F
100
AcDbEntity
  8
0
  6
Continuous
 62
     7
100
AcDbCircle
 10
68.01218769
 20
299.638730797
 30
0.0
 40
2.0
100
AcDbArc
 50
180.000000005
 51
270.0
  0
LINE
  5
28E
330
1F
100
AcDbEntity
  8
0
  6
Continuous
 62
     7
100
AcDbLine
 10
66.01218769
 20
358.6387308
 30
0.0
 11
66.01218769
 21
299.638730797
 31
0.0
  0
ARC
  5
28F
330
1F
100
AcDbEntity
  8
0
  6
Continuous
 62
     7
100
AcDbCircle
 10
71.01218769
 20
358.6387308
 30
0.0
 40
5.0
100
AcDbArc
 50
89.999999994
 51
180.0
  0
LINE
  5
290
330
1F
100
AcDbEntity
  8
0
  6
Continuous
 62
     7
100
AcDbLine
 10
85.012187691
 20
363.638730801
 30
0.0
 11
71.01218769
 21
363.638730801
 31
0.0
  0
CIRCLE
  5
291
330
1F
100
AcDbEntity
  8
0
  6
Continuous
 62
     7
100
AcDbCircle
 10
78.01218769
 20
360.1387308
 30
0.0
 40
2.25
  0
CIRCLE
  5
292
330
1F
100
AcDbEntity
  8
0
  6
Continuous
 62
     7
100
AcDbCircle
 10
78.01218769
 20
297.138730797
 30
0.0
 40
2.25
  0
LINE
  5
293
330
1F
100
AcDbEntity
  8
0
  6
Continuous
 62
     7
100
AcDbLine
 10
73.426401252
 20
294.224517235
 30
0.0
 11
70.01218769
 21
297.638730797
 31
0.0
  0
LINE
  5
294
330
1F
100
AcDbEntity
  8
0
  6
Continuous
 62
     7
100
AcDbLine
 10
70.01218769
 20
297.638730797
 30
0.0
 11
68.01218769
 21
297.638730797
 31
0.0
  0
LINE
  5
295
330
1F
100
AcDbEntity
  8
0
  6
Continuous
 62
     3
100
AcDbLine
 10
78.01218769
 20
360.1387308
 30
0.0
 11
78.01218769
 21
365.472064134
 31
0.0
  0
LINE
  5
296
330
1F
100
AcDbEntity
  8
0
  6
Continuous
 62
     3
100
AcDbLine
 10
78.01218769
 20
360.1387308
 30
0.0
 11
78.01218769
 21
354.805397467
 31
0.0
  0
LINE
  5
297
330
1F
100
AcDbEntity
  8
0
  6
Continuous
 62
     3
100
AcDbLine
 10
78.01218769
 20
360.1387308
 30
0.0
 11
83.345521024
 21
360.1387308
 31
0.0
  0
LINE
  5
298
330
1F
100
AcDbEntity
  8
0
  6
Continuous
 62
     3
100
AcDbLine
 10
78.01218769
 20
297.138730797
 30
0.0
 11
83.345521024
 21
297.138730797
 31
0.0
  0
LINE
  5
299
330
1F
100
AcDbEntity
  8
0
  6
Continuous
 62
     3
100
AcDbLine
 10
78.01218769
 20
297.138730797
 30
0.0
 11
78.01218769
 21
302.472064131
 31
0.0
  0
LINE
  5
29A
330
1F
100
AcDbEntity
  8
0
  6
Continuous
 62
     3
100
AcDbLine
 10
78.01218769
 20
297.138730797
 30
0.0
 11
78.01218769
 21
291.805397464
 31
0.0
  0
LINE
  5
29B
330
1F
100
AcDbEntity
  8
0
  6
Continuous
 62
     3
100
AcDbLine
 10
78.01218769
 20
360.1387308
 30
0.0
 11
72.678854357
 21
360.1387308
 31
0.0
  0
LINE
  5
29C
330
1F
100
AcDbEntity
  8
0
  6
Continuous
 62
     3
100
AcDbLine
 10
78.01218769
 20
297.138730797
 30
0.0
 11
72.678854357
 21
297.138730797
 31
0.0
  0
LINE
  5
29D
330
1F
100
AcDbEntity
  8
0
  6
Continuous
 62
     2
100
AcDbLine
 10
233.604224386
 20
191.18203555
 30
0.0
 11
233.104224386
 21
191.18203555
 31
0.0
  0
LINE
  5
29E
330
1F
100
AcDbEntity
  8
0
  6
Continuous
 62
     2
100
AcDbLine
 10
232.304224386
 20
176.182035549
 30
0.0
 11
233.104224386
 21
176.182035549
 31
0.0
  0
LINE
  5
29F
330
1F
100
AcDbEntity
  8
0
  6
Continuous
 62
     2
100
AcDbLine
 10
232.250644296
 20
176.182035549
 30
0.0
 11
232.864224386
 21
176.182035549
 31
0.0
  0
LINE
  5
2A0
330
1F
100
AcDbEntity
  8
0
  6
Continuous
 62
     2
100
AcDbLine
 10
233.104224386
 20
180.382035549
 30
0.0
 11
233.604224386
 21
182.382035549
 31
0.0
  0
LINE
  5
2A1
330
1F
100
AcDbEntity
  8
0
  6
Continuous
 62
     2
100
AcDbLine
 10
233.104224386
 20
176.182035549
 30
0.0
 11
233.104224386
 21
180.382035549
 31
0.0
  0
LINE
  5
2A2
330
1F
100
AcDbEntity
  8
0
  6
Continuous
 62
     3
100
AcDbLine
 10
233.424207388
 20
191.18203555
 30
0.0
 11
233.604224386
 21
191.18203555
 31
0.0
  0
LINE
  5
2A3
330
1F
100
AcDbEntity
  8
0
  6
Continuous
 62
     2
100
AcDbLine
 10
229.404224386
 20
191.18203555
 30
0.0
 11
228.904224386
 21
191.18203555
 31
0.0
  0
LINE
  5
2A4
330
1F
100
AcDbEntity
  8
0
  6
Continuous
 62
     2
100
AcDbLine
 10
229.404224386
 20
180.382035549
 30
0.0
 11
228.904224386
 21
182.382035549
 31
0.0
  0
LINE
  5
2A5
330
1F
100
AcDbEntity
  8
0
  6
Continuous
 62
     2
100
AcDbLine
 10
228.904224386
 20
191.18203555
 30
0.0
 11
228.904224386
 21
182.382035549
 31
0.0
  0
LINE
  5
2A6
330
1F
100
AcDbEntity
  8
0
  6
Continuous
 62
     2
100
AcDbLine
 10
233.604224386
 20
191.18203555
 30
0.0
 11
229.404224386
 21
191.18203555
 31
0.0
  0
LINE
  5
2A7
330
1F
100
AcDbEntity
  8
0
  6
Continuous
 62
     2
100
AcDbLine
 10
233.604224386
 20
182.382035549
 30
0.0
 11
233.604224386
 21
191.18203555
 31
0.0
  0
LINE
  5
2A8
330
1F
100
AcDbEntity
  8
0
  6
Continuous
 62
     2
100
AcDbLine
 10
228.904224386
 20
182.382035549
 30
0.0
 11
233.604224386
 21
182.382035549
 31
0.0
  0
LINE
  5
2A9
330
1F
100
AcDbEntity
  8
0
  6
Continuous
 62
     2
100
AcDbLine
 10
229.404224386
 20
176.182035549
 30
0.0
 11
232.250644296
 21
176.182035549
 31
0.0
  0
LINE
  5
2AA
330
1F
100
AcDbEntity
  8
0
  6
Continuous
 62
     2
100
AcDbLine
 10
229.404224386
 20
180.382035549
 30
0.0
 11
229.404224386
 21
176.182035549
 31
0.0
  0
LINE
  5
2AB
330
1F
100
AcDbEntity
  8
0
  6
Continuous
 62
     3
100
AcDbLine
 10
229.666781108
 20
161.248510409
 30
0.0
 11
229.666781108
 21
176.24851041
 31
0.0
  0
LINE
  5
2AC
330
1F
100
AcDbEntity
  8
0
  6
Continuous
 62
     7
100
AcDbLine
 10
225.128721303
 20
136.99488282
 30
0.0
 11
224.573010233
 21
137.179425907
 31
0.0
  0
LINE
  5
2AD
330
1F
100
AcDbEntity
  8
0
  6
Continuous
 62
     7
100
AcDbLine
 10
224.573010233
 20
137.179425907
 30
0.0
 11
224.265273507
 21
137.548512328
 31
0.0
  0
LINE
  5
2AE
330
1F
100
AcDbEntity
  8
0
  6
Continuous
 62
     7
100
AcDbLine
 10
224.265273507
 20
137.548512328
 30
0.0
 11
224.019084216
 21
138.225170724
 31
0.0
  0
LINE
  5
2AF
330
1F
100
AcDbEntity
  8
0
  6
Continuous
 62
     7
100
AcDbLine
 10
224.849973018
 20
140.347417333
 30
0.0
 11
224.54223674
 21
142.992536227
 31
0.0
  0
LINE
  5
2B0
330
1F
100
AcDbEntity
  8
0
  6
Continuous
 62
     7
100
AcDbLine
 10
224.849973018
 20
140.347417333
 30
0.0
 11
224.945142597
 21
140.200665473
 31
0.0
  0
LINE
  5
2B1
330
1F
100
AcDbEntity
  8
0
  6
Continuous
 62
     7
100
AcDbLine
 10
224.945142597
 20
140.200665473
 30
0.0
 11
225.128721303
 21
140.133504761
 31
0.0
  0
LINE
  5
2B2
330
1F
100
AcDbEntity
  8
0
  6
Continuous
 62
     7
100
AcDbLine
 10
224.019084216
 20
138.225170724
 30
0.0
 11
223.495932139
 21
143.33086518
 31
0.0
  0
LINE
  5
2B3
330
1F
100
AcDbEntity
  8
0
  6
Continuous
 62
     7
100
AcDbLine
 10
222.911232628
 20
144.241159981
 30
0.0
 11
222.911232628
 21
145.422354567
 31
0.0
  0
LINE
  5
2B4
330
1F
100
AcDbEntity
  8
0
  6
Continuous
 62
     7
100
AcDbLine
 10
223.495932139
 20
145.422354567
 30
0.0
 11
222.911232628
 21
145.422354567
 31
0.0
  0
LINE
  5
2B5
330
1F
100
AcDbEntity
  8
0
  6
Continuous
 62
     7
100
AcDbLine
 10
224.1064817
 20
152.594882821
 30
0.0
 11
222.911232628
 21
152.594882821
 31
0.0
  0
LINE
  5
2B6
330
1F
100
AcDbEntity
  8
0
  6
Continuous
 62
     7
100
AcDbLine
 10
224.54223674
 20
150.312748959
 30
0.0
 11
224.1064817
 21
152.594882821
 31
0.0
  0
LINE
  5
2B7
330
1F
100
AcDbEntity
  8
0
  6
Continuous
 62
     7
100
AcDbLine
 10
223.495932139
 20
149.23624692
 30
0.0
 11
222.911232628
 21
152.594882821
 31
0.0
  0
LINE
  5
2B8
330
1F
100
AcDbEntity
  8
0
  6
Continuous
 62
     7
100
AcDbLine
 10
225.128721303
 20
136.99488282
 30
0.0
 11
225.128721303
 21
152.594882821
 31
0.0
  0
LINE
  5
2B9
330
1F
100
AcDbEntity
  8
0
  6
Continuous
 62
     7
100
AcDbLine
 10
224.54223674
 20
142.992536227
 30
0.0
 11
224.54223674
 21
150.312748959
 31
0.0
  0
LINE
  5
2BA
330
1F
100
AcDbEntity
  8
0
  6
Continuous
 62
     7
100
AcDbLine
 10
223.495932139
 20
143.33086518
 30
0.0
 11
223.495932139
 21
149.23624692
 31
0.0
  0
LINE
  5
2BB
330
1F
100
AcDbEntity
  8
0
  6
Continuous
 62
     7
100
AcDbLine
 10
223.495932139
 20
143.33086518
 30
0.0
 11
222.911232628
 21
144.241159981
 31
0.0
  0
LINE
  5
2BC
330
1F
100
AcDbEntity
  8
0
  6
Continuous
 62
     7
100
AcDbLine
 10
227.188771511
 20
137.794569859
 30
0.0
 11
227.188771511
 21
141.854519745
 31
0.0
  0
LINE
  5
2BD
330
1F
100
AcDbEntity
  8
0
  6
Continuous
 62
     7
100
AcDbLine
 10
236.32854834
 20
137.794569859
 30
0.0
 11
236.32854834
 21
141.854519745
 31
0.0
  0
LINE
  5
2BE
330
1F
100
AcDbEntity
  8
0
  6
Continuous
 62
     7
100
AcDbLine
 10
236.913247851
 20
142.623449807
 30
0.0
 11
226.388656202
 21
142.623449807
 31
0.0
  0
LINE
  5
2BF
330
1F
100
AcDbEntity
  8
0
  6
Continuous
 62
     7
100
AcDbLine
 10
235.682301394
 20
143.392379624
 30
0.0
 11
227.681150094
 21
143.392379624
 31
0.0
  0
LINE
  5
2C0
330
1F
100
AcDbEntity
  8
0
  6
Continuous
 62
     7
100
AcDbLine
 10
236.32854834
 20
141.854519745
 30
0.0
 11
227.188771511
 21
141.854519745
 31
0.0
  0
LINE
  5
2C1
330
1F
100
AcDbEntity
  8
0
  6
Continuous
 62
     7
100
AcDbLine
 10
236.32854834
 20
137.794569859
 30
0.0
 11
227.188771511
 21
137.794569859
 31
0.0
  0
LINE
  5
2C2
330
1F
100
AcDbEntity
  8
0
  6
Continuous
 62
     7
100
AcDbLine
 10
237.867231523
 20
151.095085754
 30
0.0
 11
237.528721304
 21
150.81748247
 31
0.0
  0
LINE
  5
2C3
330
1F
100
AcDbEntity
  8
0
  6
Continuous
 62
     7
100
AcDbLine
 10
235.682301394
 20
151.973637481
 30
0.0
 11
227.681150094
 21
151.973637481
 31
0.0
  0
LINE
  5
2C4
330
1F
100
AcDbEntity
  8
0
  6
Continuous
 62
     7
100
AcDbLine
 10
237.528721304
 20
136.99488282
 30
0.0
 11
237.528721304
 21
150.81748247
 31
0.0
  0
LINE
  5
2C5
330
1F
100
AcDbEntity
  8
0
  6
Continuous
 62
     7
100
AcDbLine
 10
236.913247851
 20
142.623449807
 30
0.0
 11
236.913247851
 21
152.594882821
 31
0.0
  0
LINE
  5
2C6
330
1F
100
AcDbEntity
  8
0
  6
Continuous
 62
     7
100
AcDbLine
 10
226.388656202
 20
142.623449807
 30
0.0
 11
226.388656202
 21
152.594882821
 31
0.0
  0
LINE
  5
2C7
330
1F
100
AcDbEntity
  8
0
  6
Continuous
 62
     7
100
AcDbLine
 10
227.681150094
 20
143.392379624
 30
0.0
 11
227.681150094
 21
151.973637481
 31
0.0
  0
LINE
  5
2C8
330
1F
100
AcDbEntity
  8
0
  6
Continuous
 62
     7
100
AcDbLine
 10
235.682301394
 20
143.392379624
 30
0.0
 11
235.682301394
 21
151.973637481
 31
0.0
  0
LINE
  5
2C9
330
1F
100
AcDbEntity
  8
0
  6
Continuous
 62
     7
100
AcDbLine
 10
237.528721304
 20
136.99488282
 30
0.0
 11
225.128721303
 21
136.99488282
 31
0.0
  0
LINE
  5
2CA
330
1F
100
AcDbEntity
  8
0
  6
Continuous
 62
     7
100
AcDbLine
 10
237.867231523
 20
152.594882821
 30
0.0
 11
225.128721303
 21
152.594882821
 31
0.0
  0
LINE
  5
2CB
330
1F
100
AcDbEntity
  8
0
  6
Continuous
 62
     7
100
AcDbLine
 10
237.528721304
 20
142.623449807
 30
0.0
 11
225.128721303
 21
142.623449807
 31
0.0
  0
LINE
  5
2CC
330
1F
100
AcDbEntity
  8
0
  6
Continuous
 62
     2
100
AcDbLine
 10
237.767231523
 20
152.594882821
 30
0.0
 11
237.867231523
 21
152.594882821
 31
0.0
  0
LINE
  5
2CD
330
1F
100
AcDbEntity
  8
0
  6
Continuous
 62
     7
100
AcDbLine
 10
237.867231523
 20
151.095085754
 30
0.0
 11
237.867231523
 21
152.295085754
 31
0.0
  0
LINE
  5
2CE
330
1F
100
AcDbEntity
  8
0
  6
Continuous
 62
     3
100
AcDbLine
 10
229.682301394
 20
152.723637481
 30
0.0
 11
229.682301394
 21
161.212679244
 31
0.0
  0
LINE
  5
2CF
330
1F
100
AcDbEntity
  8
0
  6
Continuous
 62
     3
100
AcDbLine
 10
230.666781108
 20
153.048510409
 30
0.0
 11
230.666781108
 21
176.24851041
 31
0.0
  0
LINE
  5
2D0
330
1F
100
AcDbEntity
  8
0
  6
Continuous
 62
     3
100
AcDbLine
 10
235.682301394
 20
170.791785252
 30
0.0
 11
234.066781108
 21
176.14851041
 31
0.0
  0
LINE
  5
2D1
330
1F
100
AcDbEntity
  8
0
  6
Continuous
 62
     3
100
AcDbLine
 10
235.682301394
 20
170.791785252
 30
0.0
 11
235.682301394
 21
152.723637481
 31
0.0
  0
LINE
  5
2D2
330
1F
100
AcDbEntity
  8
0
  6
Continuous
 62
     3
100
AcDbLine
 10
234.682301394
 20
170.283229471
 30
0.0
 11
234.682301394
 21
152.723637481
 31
0.0
  0
LINE
  5
2D3
330
1F
100
AcDbEntity
  8
0
  6
Continuous
 62
     3
100
AcDbLine
 10
232.866781108
 20
176.24851041
 30
0.0
 11
234.682301394
 21
170.283229471
 31
0.0
  0
LINE
  5
2D4
330
1F
100
AcDbEntity
  8
0
  6
Continuous
 62
     3
100
AcDbLine
 10
233.682301394
 20
152.723637481
 30
0.0
 11
233.682301394
 21
165.791785252
 31
0.0
  0
LINE
  5
2D5
330
1F
100
AcDbEntity
  8
0
  6
Continuous
 62
     3
100
AcDbLine
 10
233.682301394
 20
165.791785252
 30
0.0
 11
232.666781108
 21
169.159036726
 31
0.0
  0
LINE
  5
2D6
330
1F
100
AcDbEntity
  8
0
  6
Continuous
 62
     3
100
AcDbLine
 10
232.666781108
 20
176.24851041
 30
0.0
 11
232.666781108
 21
169.159036726
 31
0.0
  0
LINE
  5
2D7
330
1F
100
AcDbEntity
  8
0
  6
Continuous
 62
     3
100
AcDbLine
 10
231.666781108
 20
176.24851041
 30
0.0
 11
231.666781108
 21
168.619938981
 31
0.0
  0
LINE
  5
2D8
330
1F
100
AcDbEntity
  8
0
  6
Continuous
 62
     3
100
AcDbLine
 10
231.666781108
 20
168.619938981
 30
0.0
 11
232.682301394
 21
165.283229471
 31
0.0
  0
LINE
  5
2D9
330
1F
100
AcDbEntity
  8
0
  6
Continuous
 62
     3
100
AcDbLine
 10
232.682301394
 20
152.723637481
 30
0.0
 11
232.682301394
 21
165.283229471
 31
0.0
  0
LINE
  5
2DA
330
1F
100
AcDbEntity
  8
0
  6
Continuous
 62
     7
100
AcDbLine
 10
205.861232627
 20
144.041159981
 30
0.0
 11
205.861232627
 21
145.222354567
 31
0.0
  0
LINE
  5
2DB
330
1F
100
AcDbEntity
  8
0
  6
Continuous
 62
     7
100
AcDbLine
 10
207.215273506
 20
137.348512328
 30
0.0
 11
206.969084215
 21
138.025170724
 31
0.0
  0
LINE
  5
2DC
330
1F
100
AcDbEntity
  8
0
  6
Continuous
 62
     7
100
AcDbLine
 10
207.523010232
 20
136.979425907
 30
0.0
 11
207.215273506
 21
137.348512328
 31
0.0
  0
LINE
  5
2DD
330
1F
100
AcDbEntity
  8
0
  6
Continuous
 62
     7
100
AcDbLine
 10
208.078721302
 20
136.79488282
 30
0.0
 11
207.523010232
 21
136.979425907
 31
0.0
  0
LINE
  5
2DE
330
1F
100
AcDbEntity
  8
0
  6
Continuous
 62
     7
100
AcDbLine
 10
207.895142597
 20
140.000665473
 30
0.0
 11
208.078721302
 21
139.933504761
 31
0.0
  0
LINE
  5
2DF
330
1F
100
AcDbEntity
  8
0
  6
Continuous
 62
     7
100
AcDbLine
 10
207.799973017
 20
140.147417333
 30
0.0
 11
207.895142597
 21
140.000665473
 31
0.0
  0
LINE
  5
2E0
330
1F
100
AcDbEntity
  8
0
  6
Continuous
 62
     7
100
AcDbLine
 10
207.799973017
 20
140.147417333
 30
0.0
 11
207.492236739
 21
142.792536227
 31
0.0
  0
LINE
  5
2E1
330
1F
100
AcDbEntity
  8
0
  6
Continuous
 62
     7
100
AcDbLine
 10
210.13877151
 20
137.594569859
 30
0.0
 11
210.13877151
 21
141.654519745
 31
0.0
  0
LINE
  5
2E2
330
1F
100
AcDbEntity
  8
0
  6
Continuous
 62
     7
100
AcDbLine
 10
206.969084215
 20
138.025170724
 30
0.0
 11
206.445932138
 21
143.13086518
 31
0.0
  0
LINE
  5
2E3
330
1F
100
AcDbEntity
  8
0
  6
Continuous
 62
     7
100
AcDbLine
 10
217.228548339
 20
137.594569859
 30
0.0
 11
217.228548339
 21
141.654519745
 31
0.0
  0
LINE
  5
2E4
330
1F
100
AcDbEntity
  8
0
  6
Continuous
 62
     7
100
AcDbLine
 10
218.428721303
 20
142.423449807
 30
0.0
 11
208.078721302
 21
142.423449807
 31
0.0
  0
LINE
  5
2E5
330
1F
100
AcDbEntity
  8
0
  6
Continuous
 62
     7
100
AcDbLine
 10
218.428721303
 20
136.79488282
 30
0.0
 11
208.078721302
 21
136.79488282
 31
0.0
  0
LINE
  5
2E6
330
1F
100
AcDbEntity
  8
0
  6
Continuous
 62
     7
100
AcDbLine
 10
217.228548339
 20
137.594569859
 30
0.0
 11
210.13877151
 21
137.594569859
 31
0.0
  0
LINE
  5
2E7
330
1F
100
AcDbEntity
  8
0
  6
Continuous
 62
     7
100
AcDbLine
 10
217.228548339
 20
141.654519745
 30
0.0
 11
210.13877151
 21
141.654519745
 31
0.0
  0
LINE
  5
2E8
330
1F
100
AcDbEntity
  8
0
  6
Continuous
 62
     7
100
AcDbLine
 10
216.582301393
 20
143.192379624
 30
0.0
 11
210.631150093
 21
143.192379624
 31
0.0
  0
LINE
  5
2E9
330
1F
100
AcDbEntity
  8
0
  6
Continuous
 62
     7
100
AcDbLine
 10
217.81324785
 20
142.423449807
 30
0.0
 11
209.338656201
 21
142.423449807
 31
0.0
  0
LINE
  5
2EA
330
1F
100
AcDbEntity
  8
0
  6
Continuous
 62
     7
100
AcDbLine
 10
207.492236739
 20
150.112748959
 30
0.0
 11
207.056481699
 21
152.394882821
 31
0.0
  0
LINE
  5
2EB
330
1F
100
AcDbEntity
  8
0
  6
Continuous
 62
     7
100
AcDbLine
 10
218.767231522
 20
150.895085754
 30
0.0
 11
218.767231522
 21
152.394882821
 31
0.0
  0
LINE
  5
2EC
330
1F
100
AcDbEntity
  8
0
  6
Continuous
 62
     7
100
AcDbLine
 10
218.767231522
 20
150.895085754
 30
0.0
 11
218.428721303
 21
150.61748247
 31
0.0
  0
LINE
  5
2ED
330
1F
100
AcDbEntity
  8
0
  6
Continuous
 62
     7
100
AcDbLine
 10
218.767231522
 20
152.394882821
 30
0.0
 11
208.078721302
 21
152.394882821
 31
0.0
  0
LINE
  5
2EE
330
1F
100
AcDbEntity
  8
0
  6
Continuous
 62
     7
100
AcDbLine
 10
216.582301393
 20
151.773637481
 30
0.0
 11
210.631150093
 21
151.773637481
 31
0.0
  0
LINE
  5
2EF
330
1F
100
AcDbEntity
  8
0
  6
Continuous
 62
     7
100
AcDbLine
 10
218.428721303
 20
136.79488282
 30
0.0
 11
218.428721303
 21
150.61748247
 31
0.0
  0
LINE
  5
2F0
330
1F
100
AcDbEntity
  8
0
  6
Continuous
 62
     7
100
AcDbLine
 10
217.81324785
 20
142.423449807
 30
0.0
 11
217.81324785
 21
152.394882821
 31
0.0
  0
LINE
  5
2F1
330
1F
100
AcDbEntity
  8
0
  6
Continuous
 62
     7
100
AcDbLine
 10
216.582301393
 20
143.192379624
 30
0.0
 11
216.582301393
 21
151.773637481
 31
0.0
  0
LINE
  5
2F2
330
1F
100
AcDbEntity
  8
0
  6
Continuous
 62
     7
100
AcDbLine
 10
210.631150093
 20
143.192379624
 30
0.0
 11
210.631150093
 21
151.773637481
 31
0.0
  0
LINE
  5
2F3
330
1F
100
AcDbEntity
  8
0
  6
Continuous
 62
     7
100
AcDbLine
 10
209.338656201
 20
142.423449807
 30
0.0
 11
209.338656201
 21
152.394882821
 31
0.0
  0
LINE
  5
2F4
330
1F
100
AcDbEntity
  8
0
  6
Continuous
 62
     7
100
AcDbLine
 10
206.445932138
 20
143.13086518
 30
0.0
 11
206.445932138
 21
149.03624692
 31
0.0
  0
LINE
  5
2F5
330
1F
100
AcDbEntity
  8
0
  6
Continuous
 62
     7
100
AcDbLine
 10
207.492236739
 20
142.792536227
 30
0.0
 11
207.492236739
 21
150.112748959
 31
0.0
  0
LINE
  5
2F6
330
1F
100
AcDbEntity
  8
0
  6
Continuous
 62
     7
100
AcDbLine
 10
208.078721302
 20
136.79488282
 30
0.0
 11
208.078721302
 21
152.394882821
 31
0.0
  0
LINE
  5
2F7
330
1F
100
AcDbEntity
  8
0
  6
Continuous
 62
     7
100
AcDbLine
 10
206.445932138
 20
143.13086518
 30
0.0
 11
205.861232627
 21
144.041159981
 31
0.0
  0
LINE
  5
2F8
330
1F
100
AcDbEntity
  8
0
  6
Continuous
 62
     7
100
AcDbLine
 10
206.445932138
 20
149.03624692
 30
0.0
 11
205.861232627
 21
152.394882821
 31
0.0
  0
LINE
  5
2F9
330
1F
100
AcDbEntity
  8
0
  6
Continuous
 62
     7
100
AcDbLine
 10
207.056481699
 20
152.394882821
 30
0.0
 11
205.861232627
 21
152.394882821
 31
0.0
  0
LINE
  5
2FA
330
1F
100
AcDbEntity
  8
0
  6
Continuous
 62
     7
100
AcDbLine
 10
206.445932138
 20
145.222354567
 30
0.0
 11
205.861232627
 21
145.222354567
 31
0.0
  0
LINE
  5
2FB
330
1F
100
AcDbEntity
  8
0
  6
Continuous
 62
     3
100
AcDbLine
 10
216.172976412
 20
152.294882821
 30
0.0
 11
216.172976412
 21
162.294882821
 31
0.0
  0
LINE
  5
2FC
330
1F
100
AcDbEntity
  8
0
  6
Continuous
 62
     3
100
AcDbLine
 10
216.172976412
 20
162.294882821
 30
0.0
 11
229.572976413
 21
175.794882822
 31
0.0
  0
LINE
  5
2FD
330
1F
100
AcDbEntity
  8
0
  6
Continuous
 62
     3
100
AcDbLine
 10
215.272976412
 20
152.294882821
 30
0.0
 11
215.272976412
 21
163.351511871
 31
0.0
  0
LINE
  5
2FE
330
1F
100
AcDbEntity
  8
0
  6
Continuous
 62
     3
100
AcDbLine
 10
228.466781108
 20
176.14851041
 30
0.0
 11
215.272976412
 21
163.351511871
 31
0.0
  0
LINE
  5
2FF
330
1F
100
AcDbEntity
  8
0
  6
Continuous
 62
     2
100
AcDbLine
 10
233.104224386
 20
191.18203555
 30
0.0
 11
233.104224386
 21
269.789374196
 31
0.0
  0
LINE
  5
300
330
1F
100
AcDbEntity
  8
0
  6
Continuous
 62
     2
100
AcDbLine
 10
229.404224386
 20
268.173595102
 30
0.0
 11
229.404224386
 21
191.18203555
 31
0.0
  0
LINE
  5
301
330
1F
100
AcDbEntity
  8
0
  6
Continuous
 62
     2
100
AcDbLine
 10
145.480114439
 20
191.251843744
 30
0.0
 11
144.980114439
 21
191.251843744
 31
0.0
  0
LINE
  5
302
330
1F
100
AcDbEntity
  8
0
  6
Continuous
 62
     2
100
AcDbLine
 10
144.180114439
 20
176.251843743
 30
0.0
 11
144.980114439
 21
176.251843743
 31
0.0
  0
LINE
  5
303
330
1F
100
AcDbEntity
  8
0
  6
Continuous
 62
     2
100
AcDbLine
 10
144.126534348
 20
176.251843743
 30
0.0
 11
144.740114439
 21
176.251843743
 31
0.0
  0
LINE
  5
304
330
1F
100
AcDbEntity
  8
0
  6
Continuous
 62
     2
100
AcDbLine
 10
144.980114439
 20
180.451843744
 30
0.0
 11
145.480114439
 21
182.451843744
 31
0.0
  0
LINE
  5
305
330
1F
100
AcDbEntity
  8
0
  6
Continuous
 62
     2
100
AcDbLine
 10
144.980114439
 20
176.251843743
 30
0.0
 11
144.980114439
 21
180.451843744
 31
0.0
  0
LINE
  5
306
330
1F
100
AcDbEntity
  8
0
  6
Continuous
 62
     3
100
AcDbLine
 10
145.300097441
 20
191.251843744
 30
0.0
 11
145.480114439
 21
191.251843744
 31
0.0
  0
LINE
  5
307
330
1F
100
AcDbEntity
  8
0
  6
Continuous
 62
     2
100
AcDbLine
 10
141.280114438
 20
191.251843744
 30
0.0
 11
140.780114438
 21
191.251843744
 31
0.0
  0
LINE
  5
308
330
1F
100
AcDbEntity
  8
0
  6
Continuous
 62
     2
100
AcDbLine
 10
141.280114438
 20
180.451843744
 30
0.0
 11
140.780114438
 21
182.451843744
 31
0.0
  0
LINE
  5
309
330
1F
100
AcDbEntity
  8
0
  6
Continuous
 62
     2
100
AcDbLine
 10
140.780114438
 20
191.251843744
 30
0.0
 11
140.780114438
 21
182.451843744
 31
0.0
  0
LINE
  5
30A
330
1F
100
AcDbEntity
  8
0
  6
Continuous
 62
     2
100
AcDbLine
 10
145.480114439
 20
191.251843744
 30
0.0
 11
141.280114438
 21
191.251843744
 31
0.0
  0
LINE
  5
30B
330
1F
100
AcDbEntity
  8
0
  6
Continuous
 62
     2
100
AcDbLine
 10
145.480114439
 20
182.451843744
 30
0.0
 11
145.480114439
 21
191.251843744
 31
0.0
  0
LINE
  5
30C
330
1F
100
AcDbEntity
  8
0
  6
Continuous
 62
     2
100
AcDbLine
 10
140.780114438
 20
182.451843744
 30
0.0
 11
145.480114439
 21
182.451843744
 31
0.0
  0
LINE
  5
30D
330
1F
100
AcDbEntity
  8
0
  6
Continuous
 62
     2
100
AcDbLine
 10
141.280114438
 20
176.251843743
 30
0.0
 11
144.126534348
 21
176.251843743
 31
0.0
  0
LINE
  5
30E
330
1F
100
AcDbEntity
  8
0
  6
Continuous
 62
     2
100
AcDbLine
 10
141.280114438
 20
180.451843744
 30
0.0
 11
141.280114438
 21
176.251843743
 31
0.0
  0
LINE
  5
30F
330
1F
100
AcDbEntity
  8
0
  6
Continuous
 62
     3
100
AcDbLine
 10
143.517557716
 20
161.185368882
 30
0.0
 11
143.517557716
 21
176.185368882
 31
0.0
  0
LINE
  5
310
330
1F
100
AcDbEntity
  8
0
  6
Continuous
 62
     3
100
AcDbLine
 10
142.617557716
 20
161.185368882
 30
0.0
 11
142.617557716
 21
176.185368882
 31
0.0
  0
LINE
  5
311
330
1F
100
AcDbEntity
  8
0
  6
Continuous
 62
     3
100
AcDbLine
 10
142.517557716
 20
176.185368882
 30
0.0
 11
141.017557716
 21
171.256797454
 31
0.0
  0
LINE
  5
312
330
1F
100
AcDbEntity
  8
0
  6
Continuous
 62
     3
100
AcDbLine
 10
140.117557716
 20
172.106421514
 30
0.0
 11
141.317557716
 21
176.085368882
 31
0.0
  0
LINE
  5
313
330
1F
100
AcDbEntity
  8
0
  6
Continuous
 62
     3
100
AcDbLine
 10
143.717557716
 20
176.185368882
 30
0.0
 11
145.117557716
 21
171.585368882
 31
0.0
  0
LINE
  5
314
330
1F
100
AcDbEntity
  8
0
  6
Continuous
 62
     3
100
AcDbLine
 10
146.017557716
 20
172.438000461
 30
0.0
 11
144.917557716
 21
176.085368882
 31
0.0
  0
LINE
  5
315
330
1F
100
AcDbEntity
  8
0
  6
Continuous
 62
     7
100
AcDbLine
 10
135.705813931
 20
144.044493314
 30
0.0
 11
135.705813931
 21
145.2256879
 31
0.0
  0
LINE
  5
316
330
1F
100
AcDbEntity
  8
0
  6
Continuous
 62
     7
100
AcDbLine
 10
137.05985481
 20
137.351845661
 30
0.0
 11
136.813665518
 21
138.028504057
 31
0.0
  0
LINE
  5
317
330
1F
100
AcDbEntity
  8
0
  6
Continuous
 62
     7
100
AcDbLine
 10
137.367591536
 20
136.982759241
 30
0.0
 11
137.05985481
 21
137.351845661
 31
0.0
  0
LINE
  5
318
330
1F
100
AcDbEntity
  8
0
  6
Continuous
 62
     7
100
AcDbLine
 10
137.923302606
 20
136.798216153
 30
0.0
 11
137.367591536
 21
136.982759241
 31
0.0
  0
LINE
  5
319
330
1F
100
AcDbEntity
  8
0
  6
Continuous
 62
     7
100
AcDbLine
 10
137.7397239
 20
140.003998806
 30
0.0
 11
137.923302606
 21
139.936838095
 31
0.0
  0
LINE
  5
31A
330
1F
100
AcDbEntity
  8
0
  6
Continuous
 62
     7
100
AcDbLine
 10
137.644554321
 20
140.150750666
 30
0.0
 11
137.7397239
 21
140.003998806
 31
0.0
  0
LINE
  5
31B
330
1F
100
AcDbEntity
  8
0
  6
Continuous
 62
     7
100
AcDbLine
 10
137.644554321
 20
140.150750666
 30
0.0
 11
137.336818043
 21
142.795869561
 31
0.0
  0
LINE
  5
31C
330
1F
100
AcDbEntity
  8
0
  6
Continuous
 62
     7
100
AcDbLine
 10
139.983352814
 20
137.597903192
 30
0.0
 11
139.983352814
 21
141.657853078
 31
0.0
  0
LINE
  5
31D
330
1F
100
AcDbEntity
  8
0
  6
Continuous
 62
     7
100
AcDbLine
 10
136.813665518
 20
138.028504057
 30
0.0
 11
136.290513442
 21
143.134198513
 31
0.0
  0
LINE
  5
31E
330
1F
100
AcDbEntity
  8
0
  6
Continuous
 62
     7
100
AcDbLine
 10
147.073129643
 20
137.597903192
 30
0.0
 11
147.073129643
 21
141.657853078
 31
0.0
  0
LINE
  5
31F
330
1F
100
AcDbEntity
  8
0
  6
Continuous
 62
     7
100
AcDbLine
 10
148.273302607
 20
142.42678314
 30
0.0
 11
137.923302606
 21
142.42678314
 31
0.0
  0
LINE
  5
320
330
1F
100
AcDbEntity
  8
0
  6
Continuous
 62
     7
100
AcDbLine
 10
148.273302607
 20
136.798216153
 30
0.0
 11
137.923302606
 21
136.798216153
 31
0.0
  0
LINE
  5
321
330
1F
100
AcDbEntity
  8
0
  6
Continuous
 62
     7
100
AcDbLine
 10
147.073129643
 20
137.597903192
 30
0.0
 11
139.983352814
 21
137.597903192
 31
0.0
  0
LINE
  5
322
330
1F
100
AcDbEntity
  8
0
  6
Continuous
 62
     7
100
AcDbLine
 10
147.073129643
 20
141.657853078
 30
0.0
 11
139.983352814
 21
141.657853078
 31
0.0
  0
LINE
  5
323
330
1F
100
AcDbEntity
  8
0
  6
Continuous
 62
     7
100
AcDbLine
 10
146.426882697
 20
143.195712957
 30
0.0
 11
140.475731397
 21
143.195712957
 31
0.0
  0
LINE
  5
324
330
1F
100
AcDbEntity
  8
0
  6
Continuous
 62
     7
100
AcDbLine
 10
147.657829154
 20
142.42678314
 30
0.0
 11
139.183237505
 21
142.42678314
 31
0.0
  0
LINE
  5
325
330
1F
100
AcDbEntity
  8
0
  6
Continuous
 62
     7
100
AcDbLine
 10
137.336818043
 20
150.116082292
 30
0.0
 11
136.901063003
 21
152.398216154
 31
0.0
  0
LINE
  5
326
330
1F
100
AcDbEntity
  8
0
  6
Continuous
 62
     7
100
AcDbLine
 10
148.611812826
 20
150.898419088
 30
0.0
 11
148.611812826
 21
152.398216154
 31
0.0
  0
LINE
  5
327
330
1F
100
AcDbEntity
  8
0
  6
Continuous
 62
     7
100
AcDbLine
 10
148.611812826
 20
150.898419088
 30
0.0
 11
148.273302607
 21
150.620815803
 31
0.0
  0
LINE
  5
328
330
1F
100
AcDbEntity
  8
0
  6
Continuous
 62
     7
100
AcDbLine
 10
146.426882697
 20
151.776970815
 30
0.0
 11
140.475731397
 21
151.776970815
 31
0.0
  0
LINE
  5
329
330
1F
100
AcDbEntity
  8
0
  6
Continuous
 62
     7
100
AcDbLine
 10
148.273302607
 20
136.798216153
 30
0.0
 11
148.273302607
 21
150.620815803
 31
0.0
  0
LINE
  5
32A
330
1F
100
AcDbEntity
  8
0
  6
Continuous
 62
     7
100
AcDbLine
 10
147.657829154
 20
142.42678314
 30
0.0
 11
147.657829154
 21
152.398216154
 31
0.0
  0
LINE
  5
32B
330
1F
100
AcDbEntity
  8
0
  6
Continuous
 62
     7
100
AcDbLine
 10
146.426882697
 20
143.195712957
 30
0.0
 11
146.426882697
 21
151.776970815
 31
0.0
  0
LINE
  5
32C
330
1F
100
AcDbEntity
  8
0
  6
Continuous
 62
     7
100
AcDbLine
 10
140.475731397
 20
143.195712957
 30
0.0
 11
140.475731397
 21
151.776970815
 31
0.0
  0
LINE
  5
32D
330
1F
100
AcDbEntity
  8
0
  6
Continuous
 62
     7
100
AcDbLine
 10
139.183237505
 20
142.42678314
 30
0.0
 11
139.183237505
 21
152.398216154
 31
0.0
  0
LINE
  5
32E
330
1F
100
AcDbEntity
  8
0
  6
Continuous
 62
     7
100
AcDbLine
 10
136.290513442
 20
143.134198513
 30
0.0
 11
136.290513442
 21
149.039580254
 31
0.0
  0
LINE
  5
32F
330
1F
100
AcDbEntity
  8
0
  6
Continuous
 62
     7
100
AcDbLine
 10
137.336818043
 20
142.795869561
 30
0.0
 11
137.336818043
 21
150.116082292
 31
0.0
  0
LINE
  5
330
330
1F
100
AcDbEntity
  8
0
  6
Continuous
 62
     7
100
AcDbLine
 10
136.290513442
 20
143.134198513
 30
0.0
 11
135.705813931
 21
144.044493314
 31
0.0
  0
LINE
  5
331
330
1F
100
AcDbEntity
  8
0
  6
Continuous
 62
     7
100
AcDbLine
 10
136.290513442
 20
149.039580254
 30
0.0
 11
135.705813931
 21
152.398216154
 31
0.0
  0
LINE
  5
332
330
1F
100
AcDbEntity
  8
0
  6
Continuous
 62
     7
100
AcDbLine
 10
136.901063003
 20
152.398216154
 30
0.0
 11
135.705813931
 21
152.398216154
 31
0.0
  0
LINE
  5
333
330
1F
100
AcDbEntity
  8
0
  6
Continuous
 62
     7
100
AcDbLine
 10
136.290513442
 20
145.2256879
 30
0.0
 11
135.705813931
 21
145.2256879
 31
0.0
  0
LINE
  5
334
330
1F
100
AcDbEntity
  8
0
  6
Continuous
 62
     3
100
AcDbLine
 10
146.017557716
 20
152.398216154
 30
0.0
 11
146.017557716
 21
172.438000461
 31
0.0
  0
LINE
  5
335
330
1F
100
AcDbEntity
  8
0
  6
Continuous
 62
     3
100
AcDbLine
 10
145.117557716
 20
152.398216154
 30
0.0
 11
145.117557716
 21
171.585368882
 31
0.0
  0
LINE
  5
336
330
1F
100
AcDbEntity
  8
0
  6
Continuous
 62
     3
100
AcDbLine
 10
143.517557716
 20
152.398216154
 30
0.0
 11
143.517557716
 21
161.185368882
 31
0.0
  0
LINE
  5
337
330
1F
100
AcDbEntity
  8
0
  6
Continuous
 62
     3
100
AcDbLine
 10
142.617557716
 20
152.398216154
 30
0.0
 11
142.617557716
 21
161.185368882
 31
0.0
  0
LINE
  5
338
330
1F
100
AcDbEntity
  8
0
  6
Continuous
 62
     3
100
AcDbLine
 10
141.017557716
 20
152.398216154
 30
0.0
 11
141.017557716
 21
171.256797454
 31
0.0
  0
LINE
  5
339
330
1F
100
AcDbEntity
  8
0
  6
Continuous
 62
     3
100
AcDbLine
 10
140.117557716
 20
152.398216154
 30
0.0
 11
140.117557716
 21
172.106421514
 31
0.0
  0
LINE
  5
33A
330
1F
100
AcDbEntity
  8
0
  6
Continuous
 62
     7
100
AcDbLine
 10
148.611812826
 20
152.398216154
 30
0.0
 11
137.923302606
 21
152.398216154
 31
0.0
  0
LINE
  5
33B
330
1F
100
AcDbEntity
  8
0
  6
Continuous
 62
     7
100
AcDbLine
 10
137.923302606
 20
136.798216153
 30
0.0
 11
137.923302606
 21
152.398216154
 31
0.0
  0
LINE
  5
33C
330
1F
100
AcDbEntity
  8
0
  6
Continuous
 62
     2
100
AcDbLine
 10
144.980114439
 20
191.251843744
 30
0.0
 11
144.980114439
 21
269.859182391
 31
0.0
  0
LINE
  5
33D
330
1F
100
AcDbEntity
  8
0
  6
Continuous
 62
     2
100
AcDbLine
 10
141.280114438
 20
268.243403297
 30
0.0
 11
141.280114438
 21
191.251843744
 31
0.0
  0
LINE
  5
33E
330
1F
100
AcDbEntity
  8
0
  6
Continuous
 62
     3
100
AcDbLine
 10
139.42357934
 20
448.185571539
 30
0.0
 11
139.42357934
 21
459.825571539
 31
0.0
  0
LINE
  5
33F
330
1F
100
AcDbEntity
  8
0
  6
Continuous
 62
     3
100
AcDbLine
 10
139.42357934
 20
455.825571539
 30
0.0
 11
134.593950208
 21
457.119666764
 31
0.0
  0
LINE
  5
340
330
1F
100
AcDbEntity
  8
0
  6
Continuous
 62
     3
100
AcDbLine
 10
139.42357934
 20
455.825571539
 30
0.0
 11
134.593950208
 21
454.531476313
 31
0.0
  0
LWPOLYLINE
  5
342
330
1F
100
AcDbEntity
  8
0
  6
Continuous
 62
     3
100
AcDbPolyline
 90
     4
 70
   128
 43
0.0
 10
131.92357934
 20
455.825571539
 10
139.42357934
 20
455.825571539
 10
147.42357934
 20
455.825571539
 10
158.52357934
 20
455.825571539
  0
LINE
  5
343
330
1F
100
AcDbEntity
  8
0
  6
Continuous
 62
     3
100
AcDbLine
 10
147.42357934
 20
455.825571539
 30
0.0
 11
152.253208472
 21
454.531476313
 31
0.0
  0
LINE
  5
344
330
1F
100
AcDbEntity
  8
0
  6
Continuous
 62
     3
100
AcDbLine
 10
147.42357934
 20
455.825571539
 30
0.0
 11
152.253208472
 21
457.119666764
 31
0.0
  0
LINE
  5
345
330
1F
100
AcDbEntity
  8
0
  6
Continuous
 62
     3
100
AcDbLine
 10
147.42357934
 20
446.185571539
 30
0.0
 11
147.42357934
 21
459.825571539
 31
0.0
  0
MTEXT
  5
346
330
1F
100
AcDbEntity
  8
0
  6
Continuous
 62
     3
100
AcDbMText
 10
154.92357934
 20
457.825571539
 30
0.0
 40
6.0
 41
7.2
 71
     7
 72
     1
  1
\T1.167;\W0.600;８
  7
KANJI3
 73
     1
 44
1.0
  0
LINE
  5
347
330
1F
100
AcDbEntity
  8
0
  6
Continuous
 62
     3
100
AcDbLine
 10
137.41999029
 20
293.638730797
 30
0.0
 11
122.44999029
 21
293.638730797
 31
0.0
  0
LINE
  5
348
330
1F
100
AcDbEntity
  8
0
  6
Continuous
 62
     3
100
AcDbLine
 10
137.41999029
 20
293.638730797
 30
0.0
 11
122.44999029
 21
293.638730797
 31
0.0
  0
LINE
  5
349
330
1F
100
AcDbEntity
  8
0
  6
Continuous
 62
     3
100
AcDbLine
 10
137.41999029
 20
293.638730797
 30
0.0
 11
122.44999029
 21
293.638730797
 31
0.0
  0
LINE
  5
34A
330
1F
100
AcDbEntity
  8
0
  6
Continuous
 62
     3
100
AcDbLine
 10
126.44999029
 20
293.638730797
 30
0.0
 11
125.155895064
 21
288.809101666
 31
0.0
  0
LINE
  5
34B
330
1F
100
AcDbEntity
  8
0
  6
Continuous
 62
     3
100
AcDbLine
 10
126.44999029
 20
293.638730797
 30
0.0
 11
127.744085515
 21
288.809101666
 31
0.0
  0
LWPOLYLINE
  5
34D
330
1F
100
AcDbEntity
  8
0
  6
Continuous
 62
     3
100
AcDbPolyline
 90
     3
 70
   128
 43
0.0
 10
126.44999029
 20
293.638730797
 10
126.44999029
 20
152.398216154
 10
127.744085515
 20
157.227845286
  0
LINE
  5
34E
330
1F
100
AcDbEntity
  8
0
  6
Continuous
 62
     3
100
AcDbLine
 10
126.44999029
 20
152.398216154
 30
0.0
 11
125.155895064
 21
157.227845286
 31
0.0
  0
LINE
  5
34F
330
1F
100
AcDbEntity
  8
0
  6
Continuous
 62
     3
100
AcDbLine
 10
133.705813931
 20
152.398216154
 30
0.0
 11
122.44999029
 21
152.398216154
 31
0.0
  0
MTEXT
  5
350
330
1F
100
AcDbEntity
  8
0
  6
Continuous
 62
     3
100
AcDbMText
 10
124.44999029
 20
214.918473476
 30
0.0
 40
6.0
 41
32.4
 71
     7
 72
     1
  1
\T1.167;\W0.600;２０００
  7
KANJI3
 11
0.0
 21
1.0
 31
0.0
 73
     1
 44
1.0
  0
LINE
  5
351
330
1F
100
AcDbEntity
  8
0
  6
Continuous
 62
     3
100
AcDbLine
 10
147.41999029
 20
363.638730801
 30
0.0
 11
165.25999029
 21
363.638730801
 31
0.0
  0
LINE
  5
352
330
1F
100
AcDbEntity
  8
0
  6
Continuous
 62
     3
100
AcDbLine
 10
161.25999029
 20
363.638730801
 30
0.0
 11
162.554085516
 21
368.468359932
 31
0.0
  0
LINE
  5
353
330
1F
100
AcDbEntity
  8
0
  6
Continuous
 62
     3
100
AcDbLine
 10
161.25999029
 20
363.638730801
 30
0.0
 11
159.965895065
 21
368.468359932
 31
0.0
  0
LINE
  5
354
330
1F
100
AcDbEntity
  8
0
  6
Continuous
 62
     3
100
AcDbLine
 10
161.25999029
 20
387.338730801
 30
0.0
 11
161.25999029
 21
363.638730801
 31
0.0
  0
MTEXT
  5
355
330
1F
100
AcDbEntity
  8
0
  6
Continuous
 62
     3
100
AcDbMText
 10
159.25999029
 20
371.138730801
 30
0.0
 40
6.0
 41
32.4
 71
     7
 72
     1
  1
\T1.167;\W0.600;１０．４
  7
KANJI3
 11
0.0
 21
1.0
 31
0.0
 73
     1
 44
1.0
  0
LINE
  5
356
330
1F
100
AcDbEntity
  8
0
  6
Continuous
 62
     3
100
AcDbLine
 10
161.25999029
 20
353.2387308
 30
0.0
 11
161.25999029
 21
345.7387308
 31
0.0
  0
LINE
  5
357
330
1F
100
AcDbEntity
  8
0
  6
Continuous
 62
     3
100
AcDbLine
 10
161.25999029
 20
353.2387308
 30
0.0
 11
159.965895065
 21
348.409101669
 31
0.0
  0
LINE
  5
358
330
1F
100
AcDbEntity
  8
0
  6
Continuous
 62
     3
100
AcDbLine
 10
161.25999029
 20
353.2387308
 30
0.0
 11
162.554085516
 21
348.409101669
 31
0.0
  0
LINE
  5
359
330
1F
100
AcDbEntity
  8
0
  6
Continuous
 62
     3
100
AcDbLine
 10
154.29999029
 20
353.2387308
 30
0.0
 11
165.25999029
 21
353.2387308
 31
0.0
  0
LINE
  5
35A
330
1F
100
AcDbEntity
  8
0
  6
Continuous
 62
     3
100
AcDbLine
 10
154.29999029
 20
353.2387308
 30
0.0
 11
165.25999029
 21
353.2387308
 31
0.0
  0
LINE
  5
35B
330
1F
100
AcDbEntity
  8
0
  6
Continuous
 62
     3
100
AcDbLine
 10
161.25999029
 20
353.2387308
 30
0.0
 11
159.965895065
 21
348.409101669
 31
0.0
  0
LINE
  5
35C
330
1F
100
AcDbEntity
  8
0
  6
Continuous
 62
     3
100
AcDbLine
 10
161.25999029
 20
353.2387308
 30
0.0
 11
162.554085516
 21
348.409101669
 31
0.0
  0
LWPOLYLINE
  5
35E
330
1F
100
AcDbEntity
  8
0
  6
Continuous
 62
     3
100
AcDbPolyline
 90
     3
 70
   128
 43
0.0
 10
161.25999029
 20
353.2387308
 10
161.25999029
 20
328.638730799
 10
162.554085516
 20
333.46835993
  0
LINE
  5
35F
330
1F
100
AcDbEntity
  8
0
  6
Continuous
 62
     3
100
AcDbLine
 10
161.25999029
 20
328.638730799
 30
0.0
 11
159.965895065
 21
333.46835993
 31
0.0
  0
LINE
  5
360
330
1F
100
AcDbEntity
  8
0
  6
Continuous
 62
     3
100
AcDbLine
 10
154.29999029
 20
328.638730799
 30
0.0
 11
165.25999029
 21
328.638730799
 31
0.0
  0
MTEXT
  5
361
330
1F
100
AcDbEntity
  8
0
  6
Continuous
 62
     3
100
AcDbMText
 10
159.25999029
 20
332.838730799
 30
0.0
 40
6.0
 41
32.4
 71
     7
 72
     1
  1
\T1.167;\W0.600;２４．６
  7
KANJI3
 11
0.0
 21
1.0
 31
0.0
 73
     1
 44
1.0
  0
LINE
  5
362
330
1F
100
AcDbEntity
  8
0
  6
Continuous
 62
     3
100
AcDbLine
 10
154.29999029
 20
328.638730799
 30
0.0
 11
165.25999029
 21
328.638730799
 31
0.0
  0
LINE
  5
363
330
1F
100
AcDbEntity
  8
0
  6
Continuous
 62
     3
100
AcDbLine
 10
161.25999029
 20
328.638730799
 30
0.0
 11
159.965895065
 21
323.809101667
 31
0.0
  0
LINE
  5
364
330
1F
100
AcDbEntity
  8
0
  6
Continuous
 62
     3
100
AcDbLine
 10
161.25999029
 20
328.638730799
 30
0.0
 11
162.554085516
 21
323.809101667
 31
0.0
  0
LWPOLYLINE
  5
366
330
1F
100
AcDbEntity
  8
0
  6
Continuous
 62
     3
100
AcDbPolyline
 90
     3
 70
   128
 43
0.0
 10
161.25999029
 20
328.638730799
 10
161.25999029
 20
304.038730798
 10
162.554085516
 20
308.868359929
  0
LINE
  5
367
330
1F
100
AcDbEntity
  8
0
  6
Continuous
 62
     3
100
AcDbLine
 10
161.25999029
 20
304.038730798
 30
0.0
 11
159.965895065
 21
308.868359929
 31
0.0
  0
LINE
  5
368
330
1F
100
AcDbEntity
  8
0
  6
Continuous
 62
     3
100
AcDbLine
 10
154.29999029
 20
304.038730798
 30
0.0
 11
165.25999029
 21
304.038730798
 31
0.0
  0
MTEXT
  5
369
330
1F
100
AcDbEntity
  8
0
  6
Continuous
 62
     3
100
AcDbMText
 10
159.25999029
 20
308.238730798
 30
0.0
 40
6.0
 41
32.4
 71
     7
 72
     1
  1
\T1.167;\W0.600;２４．６
  7
KANJI3
 11
0.0
 21
1.0
 31
0.0
 73
     1
 44
1.0
  0
LINE
  5
36A
330
1F
100
AcDbEntity
  8
0
  6
Continuous
 62
     3
100
AcDbLine
 10
161.25999029
 20
363.638730801
 30
0.0
 11
161.25999029
 21
353.2387308
 31
0.0
  0
LINE
  5
36B
330
1F
100
AcDbEntity
  8
0
  6
LTYPE2
 62
     3
100
AcDbLine
 10
183.633323624
 20
328.638730799
 30
0.0
 11
188.706656957
 21
328.638730799
 31
0.0
  0
LINE
  5
36C
330
1F
100
AcDbEntity
  8
0
  6
LTYPE2
 62
     3
100
AcDbLine
 10
183.633323624
 20
328.638730799
 30
0.0
 11
188.706656957
 21
328.638730799
 31
0.0
  0
LINE
  5
36D
330
1F
100
AcDbEntity
  8
0
  6
LTYPE2
 62
     3
100
AcDbLine
 10
183.633323624
 20
304.038730798
 30
0.0
 11
188.706656957
 21
304.038730798
 31
0.0
  0
LINE
  5
36E
330
1F
100
AcDbEntity
  8
0
  6
LTYPE2
 62
     3
100
AcDbLine
 10
183.633323624
 20
353.2387308
 30
0.0
 11
188.706656957
 21
353.2387308
 31
0.0
  0
LINE
  5
36F
330
1F
100
AcDbEntity
  8
0
  6
LTYPE2
 62
     3
100
AcDbLine
 10
183.633323624
 20
353.2387308
 30
0.0
 11
188.706656957
 21
353.2387308
 31
0.0
  0
LINE
  5
370
330
1F
100
AcDbEntity
  8
0
  6
LTYPE2
 62
     3
100
AcDbLine
 10
183.633323624
 20
353.2387308
 30
0.0
 11
188.706656957
 21
353.2387308
 31
0.0
  0
LINE
  5
371
330
1F
100
AcDbEntity
  8
0
  6
Continuous
 62
     3
100
AcDbLine
 10
177.763323625
 20
354.268730798
 30
0.0
 11
181.726211755
 21
357.317585938
 31
0.0
  0
LINE
  5
372
330
1F
100
AcDbEntity
  8
0
  6
Continuous
 62
     3
100
AcDbLine
 10
177.763323625
 20
354.268730798
 30
0.0
 11
179.670857848
 21
358.890560867
 31
0.0
  0
LWPOLYLINE
  5
374
330
1F
100
AcDbEntity
  8
0
  6
Continuous
 62
     3
100
AcDbPolyline
 90
     3
 70
   128
 43
0.0
 10
177.763323625
 20
354.268730798
 10
183.763323625
 20
362.108730798
 10
201.163323625
 20
362.108730798
  0
MTEXT
  5
375
330
1F
100
AcDbEntity
  8
0
  6
Continuous
 62
     3
100
AcDbMText
 10
183.763323625
 20
364.108730798
 30
0.0
 40
6.0
 41
34.8
 71
     7
 72
     1
  1
\T1.111;\W0.900;光軸１
  7
KANJI4
 73
     1
 44
1.0
  0
LINE
  5
376
330
1F
100
AcDbEntity
  8
0
  6
Continuous
 62
     3
100
AcDbLine
 10
177.763323625
 20
329.758730798
 30
0.0
 11
181.726211755
 21
332.807585938
 31
0.0
  0
LINE
  5
377
330
1F
100
AcDbEntity
  8
0
  6
Continuous
 62
     3
100
AcDbLine
 10
177.763323625
 20
329.758730798
 30
0.0
 11
179.670857848
 21
334.380560867
 31
0.0
  0
LWPOLYLINE
  5
379
330
1F
100
AcDbEntity
  8
0
  6
Continuous
 62
     3
100
AcDbPolyline
 90
     3
 70
   128
 43
0.0
 10
177.763323625
 20
329.758730798
 10
183.763323625
 20
337.598730798
 10
201.163323625
 20
337.598730798
  0
MTEXT
  5
37A
330
1F
100
AcDbEntity
  8
0
  6
Continuous
 62
     3
100
AcDbMText
 10
183.763323625
 20
339.598730798
 30
0.0
 40
6.0
 41
34.8
 71
     7
 72
     1
  1
\T1.111;\W0.900;光軸２
  7
KANJI4
 73
     1
 44
1.0
  0
LINE
  5
37B
330
1F
100
AcDbEntity
  8
0
  6
Continuous
 62
     3
100
AcDbLine
 10
177.763323625
 20
304.918730798
 30
0.0
 11
181.726211755
 21
307.967585938
 31
0.0
  0
LINE
  5
37C
330
1F
100
AcDbEntity
  8
0
  6
Continuous
 62
     3
100
AcDbLine
 10
177.763323625
 20
304.918730798
 30
0.0
 11
179.670857848
 21
309.540560867
 31
0.0
  0
LWPOLYLINE
  5
37E
330
1F
100
AcDbEntity
  8
0
  6
Continuous
 62
     3
100
AcDbPolyline
 90
     3
 70
   128
 43
0.0
 10
177.763323625
 20
304.918730798
 10
183.763323625
 20
312.758730798
 10
201.163323625
 20
312.758730798
  0
MTEXT
  5
37F
330
1F
100
AcDbEntity
  8
0
  6
Continuous
 62
     3
100
AcDbMText
 10
183.763323625
 20
314.758730798
 30
0.0
 40
6.0
 41
34.8
 71
     7
 72
     1
  1
\T1.111;\W0.900;光軸３
  7
KANJI4
 73
     1
 44
1.0
  0
LINE
  5
380
330
1F
100
AcDbEntity
  8
0
  6
Continuous
 62
     3
100
AcDbLine
 10
231.767974695
 20
364.020700372
 30
0.0
 11
235.00777042
 21
367.829075834
 31
0.0
  0
LINE
  5
381
330
1F
100
AcDbEntity
  8
0
  6
Continuous
 62
     3
100
AcDbLine
 10
231.767974695
 20
364.020700372
 30
0.0
 11
232.669532364
 21
368.938748132
 31
0.0
  0
LWPOLYLINE
  5
383
330
1F
100
AcDbEntity
  8
0
  6
Continuous
 62
     3
100
AcDbPolyline
 90
     3
 70
   128
 43
0.0
 10
231.767974695
 20
364.020700372
 10
235.127974695
 20
371.100700372
 10
252.527974695
 20
371.100700372
  0
MTEXT
  5
384
330
1F
100
AcDbEntity
  8
0
  6
Continuous
 62
     3
100
AcDbMText
 10
235.127974695
 20
373.100700372
 30
0.0
 40
6.0
 41
34.8
 71
     7
 72
     1
  1
\T1.111;\W0.900;受光側
  7
KANJI4
 73
     1
 44
1.0
  0
LINE
  5
385
330
1F
100
AcDbEntity
  8
0
  6
Continuous
 62
     3
100
AcDbLine
 10
143.20999029
 20
364.0287308
 30
0.0
 11
141.865989938
 21
368.844710768
 31
0.0
  0
LINE
  5
386
330
1F
100
AcDbEntity
  8
0
  6
Continuous
 62
     3
100
AcDbLine
 10
143.20999029
 20
364.0287308
 30
0.0
 11
139.638061858
 21
367.527491621
 31
0.0
  0
LWPOLYLINE
  5
388
330
1F
100
AcDbEntity
  8
0
  6
Continuous
 62
     3
100
AcDbPolyline
 90
     3
 70
   128
 43
0.0
 10
143.20999029
 20
364.0287308
 10
139.02999029
 20
371.0987308
 10
121.62999029
 20
371.0987308
  0
MTEXT
  5
389
330
1F
100
AcDbEntity
  8
0
  6
Continuous
 62
     3
100
AcDbMText
 10
121.62999029
 20
373.0987308
 30
0.0
 40
6.0
 41
34.8
 71
     7
 72
     1
  1
\T1.111;\W0.900;投光側
  7
KANJI4
 73
     1
 44
1.0
  0
LINE
  5
38A
330
1F
100
AcDbEntity
  8
0
  6
LTYPE2
 62
     3
100
AcDbLine
 10
152.72357934
 20
434.191399693
 30
0.0
 11
222.290246009
 21
434.191399693
 31
0.0
  0
LINE
  5
38B
330
1F
100
AcDbEntity
  8
0
  6
LTYPE2
 62
     3
100
AcDbLine
 10
152.71999029
 20
353.2387308
 30
0.0
 11
222.286656959
 21
353.2387308
 31
0.0
  0
LINE
  5
38C
330
1F
100
AcDbEntity
  8
0
  6
LTYPE2
 62
     3
100
AcDbLine
 10
152.71999029
 20
328.638730799
 30
0.0
 11
222.286656959
 21
328.638730799
 31
0.0
  0
LINE
  5
38D
330
1F
100
AcDbEntity
  8
0
  6
LTYPE2
 62
     3
100
AcDbLine
 10
152.71999029
 20
304.038730798
 30
0.0
 11
222.286656959
 21
304.038730798
 31
0.0
  0
LINE
  5
38E
330
1F
100
AcDbEntity
  8
0
  6
Continuous
 62
     7
100
AcDbLine
 10
287.677974697
 20
295.790700368
 30
0.0
 11
287.677974697
 21
260.640700367
 31
0.0
  0
LINE
  5
38F
330
1F
100
AcDbEntity
  8
0
  6
Continuous
 62
     7
100
AcDbLine
 10
283.977974697
 20
260.640700367
 30
0.0
 11
283.977974697
 21
297.640700368
 31
0.0
  0
LINE
  5
390
330
1F
100
AcDbEntity
  8
0
  6
Continuous
 62
     7
100
AcDbLine
 10
287.677974697
 20
260.640700367
 30
0.0
 11
283.977974697
 21
260.640700367
 31
0.0
  0
LINE
  5
391
330
1F
100
AcDbEntity
  8
0
  6
Continuous
 62
     7
100
AcDbLine
 10
281.827974697
 20
299.640700369
 30
0.0
 11
281.827974697
 21
358.640700372
 31
0.0
  0
LINE
  5
392
330
1F
100
AcDbEntity
  8
0
  6
Continuous
 62
     7
100
AcDbLine
 10
283.827974697
 20
297.640700368
 30
0.0
 11
285.827974697
 21
297.640700369
 31
0.0
  0
LINE
  5
393
330
1F
100
AcDbEntity
  8
0
  6
Continuous
 62
     7
100
AcDbLine
 10
285.827974696
 20
297.640700368
 30
0.0
 11
286.656401821
 21
299.640700368
 31
0.0
  0
LINE
  5
394
330
1F
100
AcDbEntity
  8
0
  6
Continuous
 62
     7
100
AcDbLine
 10
290.374079015
 20
295.923023174
 30
0.0
 11
289.671052759
 21
297.140700368
 31
0.0
  0
LINE
  5
395
330
1F
100
AcDbEntity
  8
0
  6
Continuous
 62
     7
100
AcDbLine
 10
289.671052759
 20
297.140700368
 30
0.0
 11
291.749513719
 21
300.740700353
 31
0.0
  0
LINE
  5
396
330
1F
100
AcDbEntity
  8
0
  6
Continuous
 62
     7
100
AcDbLine
 10
291.749513719
 20
300.740700353
 30
0.0
 11
290.827974697
 21
300.740700361
 31
0.0
  0
LINE
  5
397
330
1F
100
AcDbEntity
  8
0
  6
Continuous
 62
     7
100
AcDbLine
 10
290.827974697
 20
300.740700361
 30
0.0
 11
290.827974697
 21
356.540700379
 31
0.0
  0
LINE
  5
398
330
1F
100
AcDbEntity
  8
0
  6
Continuous
 62
     7
100
AcDbLine
 10
290.827974697
 20
356.540700379
 30
0.0
 11
291.749513719
 21
356.540700387
 31
0.0
  0
LINE
  5
399
330
1F
100
AcDbEntity
  8
0
  6
Continuous
 62
     7
100
AcDbLine
 10
291.749513719
 20
356.540700387
 30
0.0
 11
289.671052759
 21
360.140700372
 31
0.0
  0
LINE
  5
39A
330
1F
100
AcDbEntity
  8
0
  6
Continuous
 62
     7
100
AcDbLine
 10
290.537078163
 20
361.640700372
 30
0.0
 11
289.671052759
 21
360.140700372
 31
0.0
  0
CIRCLE
  5
39B
330
1F
100
AcDbEntity
  8
0
  6
Continuous
 62
     7
100
AcDbCircle
 10
284.997125641
 20
328.64070037
 30
0.0
 40
1.125776128
  0
LINE
  5
39C
330
1F
100
AcDbEntity
  8
0
  6
Continuous
 62
     7
100
AcDbLine
 10
297.984896635
 20
360.140700372
 30
0.0
 11
297.118871232
 21
361.640700371
 31
0.0
  0
LINE
  5
39D
330
1F
100
AcDbEntity
  8
0
  6
Continuous
 62
     7
100
AcDbLine
 10
295.906435668
 20
356.540700375
 30
0.0
 11
297.984896635
 21
360.140700372
 31
0.0
  0
LINE
  5
39E
330
1F
100
AcDbEntity
  8
0
  6
Continuous
 62
     7
100
AcDbLine
 10
295.906435667
 20
356.540700389
 30
0.0
 11
296.827974699
 21
356.540700389
 31
0.0
  0
LINE
  5
39F
330
1F
100
AcDbEntity
  8
0
  6
Continuous
 62
     7
100
AcDbLine
 10
296.827974699
 20
356.540700389
 30
0.0
 11
296.827974699
 21
300.740700351
 31
0.0
  0
LINE
  5
3A0
330
1F
100
AcDbEntity
  8
0
  6
Continuous
 62
     7
100
AcDbLine
 10
296.827974699
 20
300.740700351
 30
0.0
 11
295.906435666
 21
300.740700351
 31
0.0
  0
LINE
  5
3A1
330
1F
100
AcDbEntity
  8
0
  6
Continuous
 62
     7
100
AcDbLine
 10
297.984896635
 20
297.140700368
 30
0.0
 11
295.906435666
 21
300.740700369
 31
0.0
  0
LINE
  5
3A2
330
1F
100
AcDbEntity
  8
0
  6
Continuous
 62
     7
100
AcDbLine
 10
297.118871231
 20
295.640700368
 30
0.0
 11
297.984896635
 21
297.140700368
 31
0.0
  0
LINE
  5
3A3
330
1F
100
AcDbEntity
  8
0
  6
Continuous
 62
     7
100
AcDbLine
 10
300.827974697
 20
304.040700369
 30
0.0
 11
303.827974697
 21
304.040700369
 31
0.0
  0
LINE
  5
3A4
330
1F
100
AcDbEntity
  8
0
  6
Continuous
 62
     7
100
AcDbLine
 10
300.827974697
 20
304.040700351
 30
0.0
 11
300.827974697
 21
353.240700371
 31
0.0
  0
LINE
  5
3A5
330
1F
100
AcDbEntity
  8
0
  6
Continuous
 62
     7
100
AcDbLine
 10
303.827974697
 20
353.240700371
 30
0.0
 11
300.827974697
 21
353.240700371
 31
0.0
  0
ARC
  5
3A6
330
1F
100
AcDbEntity
  8
0
  6
Continuous
 62
     7
100
AcDbCircle
 10
286.827974697
 20
358.640700372
 30
0.0
 40
5.0
100
AcDbArc
 50
89.999999988
 51
180.0
  0
LINE
  5
3A7
330
1F
100
AcDbEntity
  8
0
  6
Continuous
 62
     7
100
AcDbLine
 10
290.537078163
 20
361.640700372
 30
0.0
 11
291.691778701
 21
363.640700372
 31
0.0
  0
LINE
  5
3A8
330
1F
100
AcDbEntity
  8
0
  6
Continuous
 62
     7
100
AcDbLine
 10
286.827974698
 20
363.640700372
 30
0.0
 11
291.691778701
 21
363.640700372
 31
0.0
  0
LINE
  5
3A9
330
1F
100
AcDbEntity
  8
0
  6
Continuous
 62
     7
100
AcDbLine
 10
295.964170693
 20
363.640700372
 30
0.0
 11
300.827974697
 21
363.640700372
 31
0.0
  0
LINE
  5
3AA
330
1F
100
AcDbEntity
  8
0
  6
Continuous
 62
     7
100
AcDbLine
 10
295.964170693
 20
363.640700372
 30
0.0
 11
297.118871232
 21
361.640700371
 31
0.0
  0
LINE
  5
3AB
330
1F
100
AcDbEntity
  8
0
  6
Continuous
 62
     7
100
AcDbLine
 10
300.827974699
 20
293.640700368
 30
0.0
 11
295.964170693
 21
293.640700368
 31
0.0
  0
LINE
  5
3AC
330
1F
100
AcDbEntity
  8
0
  6
Continuous
 62
     7
100
AcDbLine
 10
297.118871231
 20
295.640700368
 30
0.0
 11
295.964170693
 21
293.640700368
 31
0.0
  0
ARC
  5
3AD
330
1F
100
AcDbEntity
  8
0
  6
Continuous
 62
     7
100
AcDbCircle
 10
300.827974697
 20
358.640700372
 30
0.0
 40
5.0
100
AcDbArc
 50
359.999999977
 51
90.0
  0
ARC
  5
3AE
330
1F
100
AcDbEntity
  8
0
  6
Continuous
 62
     7
100
AcDbCircle
 10
300.827974697
 20
298.640700369
 30
0.0
 40
5.0
100
AcDbArc
 50
270.000000022
 51
0.0
  0
LINE
  5
3AF
330
1F
100
AcDbEntity
  8
0
  6
Continuous
 62
     7
100
AcDbLine
 10
305.827974698
 20
304.040700369
 30
0.0
 11
305.827974698
 21
298.640700369
 31
0.0
  0
LINE
  5
3B0
330
1F
100
AcDbEntity
  8
0
  6
Continuous
 62
     7
100
AcDbLine
 10
305.827974698
 20
304.040700369
 30
0.0
 11
303.827974697
 21
304.040700369
 31
0.0
  0
LINE
  5
3B1
330
1F
100
AcDbEntity
  8
0
  6
Continuous
 62
     7
100
AcDbLine
 10
305.827974698
 20
358.640700369
 30
0.0
 11
305.827974698
 21
353.240700371
 31
0.0
  0
LINE
  5
3B2
330
1F
100
AcDbEntity
  8
0
  6
Continuous
 62
     7
100
AcDbLine
 10
305.827974698
 20
353.240700371
 30
0.0
 11
303.827974697
 21
353.240700371
 31
0.0
  0
ARC
  5
3B3
330
1F
100
AcDbEntity
  8
0
  6
Continuous
 62
     7
100
AcDbCircle
 10
283.827974697
 20
299.640700369
 30
0.0
 40
2.0
100
AcDbArc
 50
180.00000001
 51
270.000000022
  0
ARC
  5
3B4
330
1F
100
AcDbEntity
  8
0
  6
Continuous
 62
     7
100
AcDbCircle
 10
290.656401822
 20
295.640700368
 30
0.0
 40
2.0
100
AcDbArc
 50
224.99999999
 51
270.000000014
  0
LINE
  5
3B5
330
1F
100
AcDbEntity
  8
0
  6
Continuous
 62
     7
100
AcDbLine
 10
290.656401822
 20
293.640700368
 30
0.0
 11
291.691778703
 21
293.640700368
 31
0.0
  0
LINE
  5
3B6
330
1F
100
AcDbEntity
  8
0
  6
Continuous
 62
     7
100
AcDbLine
 10
285.827974697
 20
297.640700369
 30
0.0
 11
289.242188259
 21
294.226486806
 31
0.0
  0
LINE
  5
3B7
330
1F
100
AcDbEntity
  8
0
  6
Continuous
 62
     7
100
AcDbLine
 10
291.691778701
 20
293.640700368
 30
0.0
 11
290.374079015
 21
295.923023174
 31
0.0
  0
LINE
  5
3B8
330
1F
100
AcDbEntity
  8
0
  6
Continuous
 62
     7
100
AcDbLine
 10
291.749513728
 20
300.740700369
 30
0.0
 11
295.906435666
 21
300.740700369
 31
0.0
  0
LINE
  5
3B9
330
1F
100
AcDbEntity
  8
0
  6
Continuous
 62
     7
100
AcDbLine
 10
291.749513727
 20
356.540700371
 30
0.0
 11
295.906435667
 21
356.540700371
 31
0.0
  0
CIRCLE
  5
3BA
330
1F
100
AcDbEntity
  8
0
  6
Continuous
 62
     7
100
AcDbCircle
 10
293.827974697
 20
328.64070037
 30
0.0
 40
0.5
  0
CIRCLE
  5
3BB
330
1F
100
AcDbEntity
  8
0
  6
Continuous
 62
     7
100
AcDbCircle
 10
293.827974697
 20
304.040700369
 30
0.0
 40
0.5
  0
CIRCLE
  5
3BC
330
1F
100
AcDbEntity
  8
0
  6
Continuous
 62
     7
100
AcDbCircle
 10
293.827974697
 20
353.240700371
 30
0.0
 40
0.5
  0
LINE
  5
3BD
330
1F
100
AcDbEntity
  8
0
  6
Continuous
 62
     7
100
AcDbLine
 10
284.947125641
 20
329.765365605
 30
0.0
 11
284.947125641
 21
327.516035135
 31
0.0
  0
LINE
  5
3BE
330
1F
100
AcDbEntity
  8
0
  6
Continuous
 62
     7
100
AcDbLine
 10
285.047125641
 20
327.516035135
 30
0.0
 11
285.047125641
 21
329.765365605
 31
0.0
  0
LINE
  5
3BF
330
1F
100
AcDbEntity
  8
0
  6
Continuous
 62
     7
100
AcDbLine
 10
305.727974698
 20
304.040700369
 30
0.0
 11
305.727974698
 21
353.240700371
 31
0.0
  0
LINE
  5
3C0
330
1F
100
AcDbEntity
  8
0
  6
Continuous
 62
     7
100
AcDbLine
 10
285.827974697
 20
260.640700367
 30
0.0
 11
287.677974697
 21
260.640700367
 31
0.0
  0
LINE
  5
3C1
330
1F
100
AcDbEntity
  8
0
  6
Continuous
 62
     7
100
AcDbLine
 10
283.977974697
 20
260.640700367
 30
0.0
 11
285.827974697
 21
260.640700367
 31
0.0
  0
CIRCLE
  5
3C2
330
1F
100
AcDbEntity
  8
0
  6
Continuous
 62
     7
100
AcDbCircle
 10
293.827974697
 20
297.140700368
 30
0.0
 40
2.25
  0
LINE
  5
3C3
330
1F
100
AcDbEntity
  8
0
  6
Continuous
 62
     7
100
AcDbLine
 10
295.964170693
 20
293.640700368
 30
0.0
 11
291.691778706
 21
293.640700368
 31
0.0
  0
CIRCLE
  5
3C4
330
1F
100
AcDbEntity
  8
0
  6
Continuous
 62
     7
100
AcDbCircle
 10
293.827974697
 20
360.140700372
 30
0.0
 40
2.25
  0
LINE
  5
3C5
330
1F
100
AcDbEntity
  8
0
  6
Continuous
 62
     7
100
AcDbLine
 10
291.691778703
 20
363.640700372
 30
0.0
 11
295.964170692
 21
363.640700372
 31
0.0
  0
LINE
  5
3C6
330
1F
100
AcDbEntity
  8
0
  6
Continuous
 62
     7
100
AcDbLine
 10
305.827974698
 20
353.240700371
 30
0.0
 11
305.827974698
 21
304.040700369
 31
0.0
  0
LINE
  5
3C7
330
1F
100
AcDbEntity
  8
0
  6
Continuous
 62
     3
100
AcDbLine
 10
293.827974697
 20
360.140700372
 30
0.0
 11
299.161308031
 21
360.140700372
 31
0.0
  0
LINE
  5
3C8
330
1F
100
AcDbEntity
  8
0
  6
Continuous
 62
     3
100
AcDbLine
 10
293.827974697
 20
360.140700372
 30
0.0
 11
288.494641364
 21
360.140700372
 31
0.0
  0
LINE
  5
3C9
330
1F
100
AcDbEntity
  8
0
  6
Continuous
 62
     3
100
AcDbLine
 10
293.827974697
 20
360.140700372
 30
0.0
 11
293.827974697
 21
365.474033705
 31
0.0
  0
LINE
  5
3CA
330
1F
100
AcDbEntity
  8
0
  6
Continuous
 62
     3
100
AcDbLine
 10
293.827974697
 20
360.140700372
 30
0.0
 11
293.827974697
 21
354.807367038
 31
0.0
  0
LINE
  5
3CB
330
1F
100
AcDbEntity
  8
0
  6
Continuous
 62
     3
100
AcDbLine
 10
293.827974697
 20
297.140700368
 30
0.0
 11
299.161308031
 21
297.140700368
 31
0.0
  0
LINE
  5
3CC
330
1F
100
AcDbEntity
  8
0
  6
Continuous
 62
     3
100
AcDbLine
 10
293.827974697
 20
297.140700368
 30
0.0
 11
288.494641364
 21
297.140700368
 31
0.0
  0
LINE
  5
3CD
330
1F
100
AcDbEntity
  8
0
  6
Continuous
 62
     3
100
AcDbLine
 10
293.827974697
 20
297.140700368
 30
0.0
 11
293.827974697
 21
302.474033702
 31
0.0
  0
LINE
  5
3CE
330
1F
100
AcDbEntity
  8
0
  6
Continuous
 62
     3
100
AcDbLine
 10
293.827974697
 20
297.140700368
 30
0.0
 11
293.827974697
 21
291.807367035
 31
0.0
  0
LINE
  5
3CF
330
1F
100
AcDbEntity
  8
0
  6
Continuous
 62
     3
100
AcDbLine
 10
286.494641364
 20
360.140700372
 30
0.0
 11
267.104641364
 21
360.140700372
 31
0.0
  0
LINE
  5
3D0
330
1F
100
AcDbEntity
  8
0
  6
Continuous
 62
     3
100
AcDbLine
 10
271.104641364
 20
360.140700372
 30
0.0
 11
269.810546138
 21
355.31107124
 31
0.0
  0
LINE
  5
3D1
330
1F
100
AcDbEntity
  8
0
  6
Continuous
 62
     3
100
AcDbLine
 10
271.104641364
 20
360.140700372
 30
0.0
 11
272.398736589
 21
355.31107124
 31
0.0
  0
LWPOLYLINE
  5
3D3
330
1F
100
AcDbEntity
  8
0
  6
Continuous
 62
     3
100
AcDbPolyline
 90
     3
 70
   128
 43
0.0
 10
271.104641364
 20
360.140700372
 10
271.104641364
 20
297.140700368
 10
272.398736589
 20
301.9703295
  0
LINE
  5
3D4
330
1F
100
AcDbEntity
  8
0
  6
Continuous
 62
     3
100
AcDbLine
 10
271.104641364
 20
297.140700368
 30
0.0
 11
269.810546138
 21
301.9703295
 31
0.0
  0
LINE
  5
3D5
330
1F
100
AcDbEntity
  8
0
  6
Continuous
 62
     3
100
AcDbLine
 10
286.494641364
 20
297.140700368
 30
0.0
 11
267.104641364
 21
297.140700368
 31
0.0
  0
MTEXT
  5
3D6
330
1F
100
AcDbEntity
  8
0
  6
Continuous
 62
     3
100
AcDbMText
 10
269.104641364
 20
324.74070037
 30
0.0
 40
6.0
 41
15.6
 71
     7
 72
     1
  1
\T1.167;\W0.600;６３
  7
KANJI3
 11
0.0
 21
1.0
 31
0.0
 73
     1
 44
1.0
  0
LINE
  5
3D7
330
1F
100
AcDbEntity
  8
0
  6
Continuous
 62
     3
100
AcDbLine
 10
284.827974698
 20
363.640700372
 30
0.0
 11
267.104641364
 21
363.640700372
 31
0.0
  0
LINE
  5
3D8
330
1F
100
AcDbEntity
  8
0
  6
Continuous
 62
     3
100
AcDbLine
 10
271.104641364
 20
363.640700372
 30
0.0
 11
272.398736589
 21
368.470329503
 31
0.0
  0
LINE
  5
3D9
330
1F
100
AcDbEntity
  8
0
  6
Continuous
 62
     3
100
AcDbLine
 10
271.104641364
 20
363.640700372
 30
0.0
 11
269.810546138
 21
368.470329503
 31
0.0
  0
LWPOLYLINE
  5
3DB
330
1F
100
AcDbEntity
  8
0
  6
Continuous
 62
     3
100
AcDbPolyline
 90
     4
 70
   128
 43
0.0
 10
271.104641364
 20
383.140700372
 10
271.104641364
 20
363.640700372
 10
271.104641364
 20
360.140700372
 10
271.104641364
 20
352.640700372
  0
LINE
  5
3DC
330
1F
100
AcDbEntity
  8
0
  6
Continuous
 62
     3
100
AcDbLine
 10
271.104641364
 20
360.140700372
 30
0.0
 11
269.810546138
 21
355.31107124
 31
0.0
  0
LINE
  5
3DD
330
1F
100
AcDbEntity
  8
0
  6
Continuous
 62
     3
100
AcDbLine
 10
271.104641364
 20
360.140700372
 30
0.0
 11
272.398736589
 21
355.31107124
 31
0.0
  0
LINE
  5
3DE
330
1F
100
AcDbEntity
  8
0
  6
Continuous
 62
     3
100
AcDbLine
 10
286.494641364
 20
360.140700372
 30
0.0
 11
267.104641364
 21
360.140700372
 31
0.0
  0
MTEXT
  5
3DF
330
1F
100
AcDbEntity
  8
0
  6
Continuous
 62
     3
100
AcDbMText
 10
269.104641364
 20
371.140700372
 30
0.0
 40
6.0
 41
24.0
 71
     7
 72
     1
  1
\T1.167;\W0.600;３．５
  7
KANJI3
 11
0.0
 21
1.0
 31
0.0
 73
     1
 44
1.0
  0
LINE
  5
3E0
330
1F
100
AcDbEntity
  8
0
  6
Continuous
 62
     3
100
AcDbLine
 10
281.827974697
 20
360.640700372
 30
0.0
 11
281.827974697
 21
387.384033705
 31
0.0
  0
LINE
  5
3E1
330
1F
100
AcDbEntity
  8
0
  6
Continuous
 62
     3
100
AcDbLine
 10
281.827974697
 20
383.384033705
 30
0.0
 11
286.657603828
 21
382.08993848
 31
0.0
  0
LINE
  5
3E2
330
1F
100
AcDbEntity
  8
0
  6
Continuous
 62
     3
100
AcDbLine
 10
281.827974697
 20
383.384033705
 30
0.0
 11
286.657603828
 21
384.678128931
 31
0.0
  0
LWPOLYLINE
  5
3E4
330
1F
100
AcDbEntity
  8
0
  6
Continuous
 62
     3
100
AcDbPolyline
 90
     3
 70
   128
 43
0.0
 10
281.827974697
 20
383.384033705
 10
293.827974697
 20
383.384033705
 10
288.998345566
 20
384.678128931
  0
LINE
  5
3E5
330
1F
100
AcDbEntity
  8
0
  6
Continuous
 62
     3
100
AcDbLine
 10
293.827974697
 20
383.384033705
 30
0.0
 11
288.998345566
 21
382.08993848
 31
0.0
  0
LINE
  5
3E6
330
1F
100
AcDbEntity
  8
0
  6
Continuous
 62
     3
100
AcDbLine
 10
293.827974697
 20
367.474033705
 30
0.0
 11
293.827974697
 21
387.384033705
 31
0.0
  0
MTEXT
  5
3E7
330
1F
100
AcDbEntity
  8
0
  6
Continuous
 62
     3
100
AcDbMText
 10
283.927974697
 20
385.384033705
 30
0.0
 40
6.0
 41
15.6
 71
     7
 72
     1
  1
\T1.167;\W0.600;１２
  7
KANJI3
 73
     1
 44
1.0
  0
LINE
  5
3E8
330
1F
100
AcDbEntity
  8
0
  6
Continuous
 62
     3
100
AcDbLine
 10
281.827974697
 20
360.640700372
 30
0.0
 11
281.827974697
 21
405.870700369
 31
0.0
  0
LINE
  5
3E9
330
1F
100
AcDbEntity
  8
0
  6
Continuous
 62
     3
100
AcDbLine
 10
281.827974697
 20
401.870700369
 30
0.0
 11
286.657603828
 21
400.576605144
 31
0.0
  0
LINE
  5
3EA
330
1F
100
AcDbEntity
  8
0
  6
Continuous
 62
     3
100
AcDbLine
 10
281.827974697
 20
401.870700369
 30
0.0
 11
286.657603828
 21
403.164795595
 31
0.0
  0
LWPOLYLINE
  5
3EC
330
1F
100
AcDbEntity
  8
0
  6
Continuous
 62
     3
100
AcDbPolyline
 90
     3
 70
   128
 43
0.0
 10
281.827974697
 20
401.870700369
 10
305.827974698
 20
401.870700369
 10
300.998345566
 20
403.164795595
  0
LINE
  5
3ED
330
1F
100
AcDbEntity
  8
0
  6
Continuous
 62
     3
100
AcDbLine
 10
305.827974698
 20
401.870700369
 30
0.0
 11
300.998345566
 21
400.576605144
 31
0.0
  0
LINE
  5
3EE
330
1F
100
AcDbEntity
  8
0
  6
Continuous
 62
     3
100
AcDbLine
 10
305.827974698
 20
360.640700369
 30
0.0
 11
305.827974698
 21
405.870700369
 31
0.0
  0
MTEXT
  5
3EF
330
1F
100
AcDbEntity
  8
0
  6
Continuous
 62
     3
100
AcDbMText
 10
289.927974697
 20
403.870700369
 30
0.0
 40
6.0
 41
15.6
 71
     7
 72
     1
  1
\T1.167;\W0.600;２４
  7
KANJI3
 73
     1
 44
1.0
  0
LINE
  5
3F0
330
1F
100
AcDbEntity
  8
0
  6
Continuous
 62
     3
100
AcDbLine
 10
320.024896635
 20
391.800700372
 30
0.0
 11
385.424896635
 21
391.800700372
 31
0.0
  0
MTEXT
  5
3F1
330
1F
100
AcDbEntity
  8
0
  6
Continuous
 62
     3
100
AcDbMText
 10
320.024896635
 20
393.800700372
 30
0.0
 40
6.0
 41
130.8
 71
     7
 72
     1
  1
\T1.111;\W0.900;Ｍ４ナット座深さ３．３
  7
KANJI4
 73
     1
 44
1.0
  0
MTEXT
  5
3F2
330
1F
100
AcDbEntity
  8
0
  6
Continuous
 62
     3
100
AcDbMText
 10
320.024896635
 20
401.800700372
 30
0.0
 40
6.0
 41
70.8
 71
     7
 72
     1
  1
\T1.111;\W0.900;２－φ４．５
  7
KANJI4
 73
     1
 44
1.0
  0
LINE
  5
3F3
330
1F
100
AcDbEntity
  8
0
  6
Continuous
 62
     3
100
AcDbLine
 10
294.944896635
 20
363.640700372
 30
0.0
 11
299.123409144
 21
366.386612463
 31
0.0
  0
LINE
  5
3F4
330
1F
100
AcDbEntity
  8
0
  6
Continuous
 62
     3
100
AcDbLine
 10
294.944896635
 20
363.640700372
 30
0.0
 11
297.190638572
 21
368.107986254
 31
0.0
  0
LINE
  5
3F5
330
1F
100
AcDbEntity
  8
0
  6
Continuous
 62
     3
100
AcDbLine
 10
294.944896635
 20
363.640700372
 30
0.0
 11
320.024896635
 21
391.800700372
 31
0.0
  0
MTEXT
  5
3F6
330
1F
100
AcDbEntity
  8
0
  6
Continuous
 62
     2
100
AcDbMText
 10
267.355643347
 20
242.721340524
 30
0.0
 40
6.75
 41
95.85
 71
     7
 72
     1
  1
\T1.125;\W0.800;Ａ－Ａ　Ｖｉｅｗ
  7
KANJI6
 73
     1
 44
1.0
  0
MTEXT
  5
3F8
330
1F
100
AcDbEntity
  8
0
  6
Continuous
 62
     2
100
AcDbMText
 10
264.205643347
 20
233.721340524
 30
0.0
 40
6.75
 41
108.0
 71
     7
 72
     1
  1
\T1.125;\W0.800;Ｓｃａｌｅ　１：２
  7
KANJI6
 73
     1
 44
1.0
  0
LINE
  5
3F9
330
1F
100
AcDbEntity
  8
0
  6
Continuous
 62
     3
100
AcDbLine
 10
284.827974698
 20
363.640700372
 30
0.0
 11
251.676401822
 21
363.640700372
 31
0.0
  0
LINE
  5
3FA
330
1F
100
AcDbEntity
  8
0
  6
Continuous
 62
     3
100
AcDbLine
 10
255.676401822
 20
363.640700372
 30
0.0
 11
254.382306597
 21
358.81107124
 31
0.0
  0
LINE
  5
3FB
330
1F
100
AcDbEntity
  8
0
  6
Continuous
 62
     3
100
AcDbLine
 10
255.676401822
 20
363.640700372
 30
0.0
 11
256.970497048
 21
358.81107124
 31
0.0
  0
LWPOLYLINE
  5
3FD
330
1F
100
AcDbEntity
  8
0
  6
Continuous
 62
     3
100
AcDbPolyline
 90
     3
 70
   128
 43
0.0
 10
255.676401822
 20
363.640700372
 10
255.676401822
 20
293.640700368
 10
256.970497048
 20
298.4703295
  0
LINE
  5
3FE
330
1F
100
AcDbEntity
  8
0
  6
Continuous
 62
     3
100
AcDbLine
 10
255.676401822
 20
293.640700368
 30
0.0
 11
254.382306597
 21
298.4703295
 31
0.0
  0
LINE
  5
3FF
330
1F
100
AcDbEntity
  8
0
  6
Continuous
 62
     3
100
AcDbLine
 10
288.656401822
 20
293.640700368
 30
0.0
 11
251.676401822
 21
293.640700368
 31
0.0
  0
MTEXT
  5
400
330
1F
100
AcDbEntity
  8
0
  6
Continuous
 62
     3
100
AcDbMText
 10
253.676401822
 20
324.74070037
 30
0.0
 40
6.0
 41
15.6
 71
     7
 72
     1
  1
\T1.167;\W0.600;７０
  7
KANJI3
 11
0.0
 21
1.0
 31
0.0
 73
     1
 44
1.0
  0
MTEXT
  5
401
330
1F
100
AcDbEntity
  8
0
  6
Continuous
 62
     3
100
AcDbMText
 10
456.942055683
 20
404.721448089
 30
0.0
 40
6.0
 41
57.6
 71
     7
 72
     1
  1
\W0.800;ボディ色：黒
  7
KANJI7
 73
     1
 44
1.0
  0
MTEXT
  5
403
330
1F
100
AcDbEntity
  8
0
  6
Continuous
 62
     3
100
AcDbMText
 10
456.942055683
 20
396.721448089
 30
0.0
 40
6.0
 41
57.6
 71
     7
 72
     1
  1
\W0.800;カバー色：黄
  7
KANJI7
 73
     1
 44
1.0
  0
MTEXT
  5
404
330
1F
100
AcDbEntity
  8
0
  6
Continuous
 62
     3
100
AcDbMText
 10
456.942055683
 20
314.271448089
 30
0.0
 40
6.0
 41
57.6
 71
     7
 72
     1
  1
\W0.800;ボディ色：黒
  7
KANJI7
 73
     1
 44
1.0
  0
MTEXT
  5
405
330
1F
100
AcDbEntity
  8
0
  6
Continuous
 62
     3
100
AcDbMText
 10
456.942055683
 20
306.271448089
 30
0.0
 40
6.0
 41
57.6
 71
     7
 72
     1
  1
\W0.800;カバー色：黄
  7
KANJI7
 73
     1
 44
1.0
  0
MTEXT
  5
406
330
1F
100
AcDbEntity
  8
0
  6
Continuous
 62
     3
100
AcDbMText
 10
456.942055683
 20
335.681448089
 30
0.0
 40
6.0
 41
57.6
 71
     7
 72
     1
  1
\W0.800;ボディ色：黒
  7
KANJI7
 73
     1
 44
1.0
  0
MTEXT
  5
407
330
1F
100
AcDbEntity
  8
0
  6
Continuous
 62
     3
100
AcDbMText
 10
456.942055683
 20
327.681448089
 30
0.0
 40
6.0
 41
57.6
 71
     7
 72
     1
  1
\W0.800;カバー色：黄
  7
KANJI7
 73
     1
 44
1.0
  0
MTEXT
  5
408
330
1F
100
AcDbEntity
  8
0
  6
Continuous
 62
     3
100
AcDbMText
 10
115.452055683
 20
118.111448089
 30
0.0
 40
6.0
 41
57.6
 71
     7
 72
     1
  1
\W0.800;ボディ色：黒
  7
KANJI7
 73
     1
 44
1.0
  0
MTEXT
  5
409
330
1F
100
AcDbEntity
  8
0
  6
Continuous
 62
     3
100
AcDbMText
 10
115.452055683
 20
110.111448089
 30
0.0
 40
6.0
 41
57.6
 71
     7
 72
     1
  1
\W0.800;カバー色：黄
  7
KANJI7
 73
     1
 44
1.0
  0
MTEXT
  5
40A
330
1F
100
AcDbEntity
  8
0
  6
Continuous
 62
     3
100
AcDbMText
 10
181.072055683
 20
116.381448089
 30
0.0
 40
6.0
 41
57.6
 71
     7
 72
     1
  1
\W0.800;ボディ色：黒
  7
KANJI7
 73
     1
 44
1.0
  0
MTEXT
  5
40B
330
1F
100
AcDbEntity
  8
0
  6
Continuous
 62
     3
100
AcDbMText
 10
181.072055683
 20
108.381448089
 30
0.0
 40
6.0
 41
57.6
 71
     7
 72
     1
  1
\W0.800;カバー色：黄
  7
KANJI7
 73
     1
 44
1.0
  0
MTEXT
  5
40C
330
1F
100
AcDbEntity
  8
0
  6
Continuous
 62
     3
100
AcDbMText
 10
233.352055683
 20
116.521448089
 30
0.0
 40
6.0
 41
57.6
 71
     7
 72
     1
  1
\W0.800;ボディ色：黒
  7
KANJI7
 73
     1
 44
1.0
  0
MTEXT
  5
40D
330
1F
100
AcDbEntity
  8
0
  6
Continuous
 62
     3
100
AcDbMText
 10
233.352055683
 20
108.521448089
 30
0.0
 40
6.0
 41
57.6
 71
     7
 72
     1
  1
\W0.800;カバー色：黄
  7
KANJI7
 73
     1
 44
1.0
  0
MTEXT
  5
40E
330
1F
100
AcDbEntity
  8
0
  6
Continuous
 62
     1
100
AcDbMText
 10
17.009990293
 20
557.388730797
 30
0.0
 40
20.0
 41
287.2
 71
     7
 72
     1
  1
\T1.030;\W1.000;ＳＵＣ－５４０
  7
KANJI8
 73
     1
 44
1.0
  0
MTEXT
  5
410
330
1F
100
AcDbEntity
  8
0
  6
Continuous
 62
     1
100
AcDbMText
 10
17.009990293
 20
537.388730797
 30
0.0
 40
20.0
 41
616.8
 71
     7
 72
     1
  1
\T1.030;\W1.000;ピッキングセンサ　全長７０ｍｍ
  7
KANJI8
 73
     1
 44
1.0
  0
ENDSEC
  0
SECTION
  2
OBJECTS
  0
DICTIONARY
  5
C
330
0
100
AcDbDictionary
280
     0
281
     1
  3
ACAD_GROUP
350
D
  3
ACAD_LAYOUT
350
1A
  3
ACAD_MLINESTYLE
350
17
  3
ACAD_PLOTSETTINGS
350
19
  3
ACAD_PLOTSTYLENAME
350
E
  0
DICTIONARY
  5
D
102
{ACAD_REACTORS
330
C
102
}
330
C
100
AcDbDictionary
280
     0
281
     1
  0
DICTIONARY
  5
1A
102
{ACAD_REACTORS
330
C
102
}
330
C
100
AcDbDictionary
280
     0
281
     1
  3
Model
350
22
  3
ﾚｲｱｳﾄ1
350
1E
  3
ﾚｲｱｳﾄ2
350
26
  0
LAYOUT
  5
22
102
{ACAD_REACTORS
330
1A
102
}
330
1A
100
AcDbPlotSettings
  1

  2

  4

  6

 40
0.0
 41
0.0
 42
0.0
 43
0.0
 44
0.0
 45
0.0
 46
0.0
 47
0.0
 48
0.0
 49
0.0
140
0.0
141
0.0
142
1.0
143
1.0
 70
  1712
 72
     0
 73
     0
 74
     0
  7

 75
     0
147
1.0
148
0.0
149
0.0
100
AcDbLayout
  1
Model
 70
     1
 71
     0
 10
0.0
 20
0.0
 11
0.0
 21
0.0
 12
0.0
 22
0.0
 32
0.0
 14
0.0
 24
0.0
 34
0.0
 15
0.0
 25
0.0
 35
0.0
146
0.0
 13
0.0
 23
0.0
 33
0.0
 16
1.0
 26
0.0
 36
0.0
 17
0.0
 27
1.0
 37
0.0
 76
     0
330
1F
331
0
345
0
346
0
  0
LAYOUT
  5
1E
102
{ACAD_REACTORS
330
1A
102
}
330
1A
100
AcDbPlotSettings
  1

  2

  4

  6

 40
0.0
 41
0.0
 42
0.0
 43
0.0
 44
0.0
 45
0.0
 46
0.0
 47
0.0
 48
0.0
 49
0.0
140
0.0
141
0.0
142
1.0
143
1.0
 70
   688
 72
     0
 73
     0
 74
     5
  7

 75
    16
147
1.0
148
0.0
149
0.0
100
AcDbLayout
  1
ﾚｲｱｳﾄ1
 70
     1
 71
     1
 10
0.0
 20
0.0
 11
0.0
 21
0.0
 12
0.0
 22
0.0
 32
0.0
 14
0.0
 24
0.0
 34
0.0
 15
0.0
 25
0.0
 35
0.0
146
0.0
 13
0.0
 23
0.0
 33
0.0
 16
1.0
 26
0.0
 36
0.0
 17
0.0
 27
1.0
 37
0.0
 76
     0
330
1B
331
0
345
0
346
0
  0
LAYOUT
  5
26
102
{ACAD_REACTORS
330
1A
102
}
330
1A
100
AcDbPlotSettings
  1

  2

  4

  6

 40
0.0
 41
0.0
 42
0.0
 43
0.0
 44
0.0
 45
0.0
 46
0.0
 47
0.0
 48
0.0
 49
0.0
140
0.0
141
0.0
142
1.0
143
1.0
 70
   688
 72
     0
 73
     0
 74
     5
  7

 75
    16
147
1.0
148
0.0
149
0.0
100
AcDbLayout
  1
ﾚｲｱｳﾄ2
 70
     1
 71
     2
 10
0.0
 20
0.0
 11
0.0
 21
0.0
 12
0.0
 22
0.0
 32
0.0
 14
0.0
 24
0.0
 34
0.0
 15
0.0
 25
0.0
 35
0.0
146
0.0
 13
0.0
 23
0.0
 33
0.0
 16
1.0
 26
0.0
 36
0.0
 17
0.0
 27
1.0
 37
0.0
 76
     0
330
23
331
0
345
0
346
0
  0
DICTIONARY
  5
17
102
{ACAD_REACTORS
330
C
102
}
330
C
100
AcDbDictionary
280
     0
281
     1
  3
Standard
350
18
  0
MLINESTYLE
  5
18
102
{ACAD_REACTORS
330
17
102
}
330
17
100
AcDbMlineStyle
  2
STANDARD
 70
     0
  3

 62
   256
 51
90.0
 52
90.0
 71
     2
 49
0.5
 62
   256
  6
ByLayer
 49
-0.5
 62
   256
  6
ByLayer
  0
DICTIONARY
  5
19
102
{ACAD_REACTORS
330
C
102
}
330
C
100
AcDbDictionary
280
     0
281
     1
  0
ACDBDICTIONARYWDFLT
  5
E
330
C
100
AcDbDictionary
281
     0
  3
Normal
350
F
100
AcDbDictionaryWithDefault
340
F
  0
ACDBPLACEHOLDER
  5
F
102
{ACAD_REACTORS
330
E
102
}
330
E
  0
ENDSEC
  0
EOF
