  0
SECTION
  2
HEADER
  9
$ACADVER
  1
AC1015
  9
$ACADMAINTVER
 70
     6
  9
$DWGCODEPAGE
  3
DOS932
  9
$INSBASE
 10
0.0
 20
0.0
 30
0.0
  9
$EXTMIN
 10
0.0
 20
0.0
 30
0.0
  9
$EXTMAX
 10
840.0
 20
594.0
 30
0.0
  9
$LIMMIN
 10
0.0
 20
0.0
  9
$LIMMAX
 10
840.0
 20
594.0
  9
$ORTHOMODE
 70
     0
  9
$REGENMODE
 70
     1
  9
$FILLMODE
 70
     1
  9
$QTEXTMODE
 70
     0
  9
$MIRRTEXT
 70
     1
  9
$LTSCALE
 40
2.0
  9
$ATTMODE
 70
     1
  9
$TEXTSIZE
 40
7.0
  9
$TRACEWID
 40
1.0
  9
$TEXTSTYLE
  7
Standard
  9
$CLAYER
  8
0
  9
$CELTYPE
  6
ByLayer
  9
$CECOLOR
 62
   256
  9
$CELTSCALE
 40
1.0
  9
$DISPSILH
 70
     0
  9
$DIMSCALE
 40
1.0
  9
$DIMASZ
 40
6.0
  9
$DIMEXO
 40
2.0
  9
$DIMDLI
 40
3.75
  9
$DIMRND
 40
0.0
  9
$DIMDLE
 40
0.0
  9
$DIMEXE
 40
2.0
  9
$DIMTP
 40
0.0
  9
$DIMTM
 40
0.0
  9
$DIMTXT
 40
7.0
  9
$DIMCEN
 40
2.5
  9
$DIMTSZ
 40
0.0
  9
$DIMTOL
 70
     0
  9
$DIMLIM
 70
     0
  9
$DIMTIH
 70
     1
  9
$DIMTOH
 70
     1
  9
$DIMSE1
 70
     0
  9
$DIMSE2
 70
     0
  9
$DIMTAD
 70
     1
  9
$DIMZIN
 70
     0
  9
$DIMBLK
  1

  9
$DIMASO
 70
     1
  9
$DIMSHO
 70
     1
  9
$DIMPOST
  1

  9
$DIMAPOST
  1

  9
$DIMALT
 70
     0
  9
$DIMALTD
 70
     3
  9
$DIMALTF
 40
0.0393700787
  9
$DIMLFAC
 40
1.0
  9
$DIMTOFL
 70
     1
  9
$DIMTVP
 40
0.0
  9
$DIMTIX
 70
     0
  9
$DIMSOXD
 70
     0
  9
$DIMSAH
 70
     0
  9
$DIMBLK1
  1

  9
$DIMBLK2
  1

  9
$DIMSTYLE
  2
ISO-25
  9
$DIMCLRD
 70
     0
  9
$DIMCLRE
 70
     0
  9
$DIMCLRT
 70
     0
  9
$DIMTFAC
 40
1.0
  9
$DIMGAP
 40
3.048
  9
$DIMJUST
 70
     0
  9
$DIMSD1
 70
     0
  9
$DIMSD2
 70
     0
  9
$DIMTOLJ
 70
     0
  9
$DIMTZIN
 70
     0
  9
$DIMALTZ
 70
     0
  9
$DIMALTTZ
 70
     0
  9
$DIMUPT
 70
     0
  9
$DIMDEC
 70
     1
  9
$DIMTDEC
 70
     1
  9
$DIMALTU
 70
     2
  9
$DIMALTTD
 70
     3
  9
$DIMTXSTY
  7
Standard
  9
$DIMAUNIT
 70
     0
  9
$DIMADEC
 70
     2
  9
$DIMALTRND
 40
0.0
  9
$DIMAZIN
 70
     0
  9
$DIMDSEP
 70
    44
  9
$DIMATFIT
 70
     3
  9
$DIMFRAC
 70
     0
  9
$DIMLDRBLK
  1

  9
$DIMLUNIT
 70
     2
  9
$DIMLWD
 70
    -2
  9
$DIMLWE
 70
    -2
  9
$DIMTMOVE
 70
     0
  9
$LUNITS
 70
     2
  9
$LUPREC
 70
     1
  9
$SKETCHINC
 40
1.0
  9
$FILLETRAD
 40
10.0
  9
$AUNITS
 70
     0
  9
$AUPREC
 70
     2
  9
$MENU
  1
.
  9
$ELEVATION
 40
0.0
  9
$PELEVATION
 40
0.0
  9
$THICKNESS
 40
0.0
  9
$LIMCHECK
 70
     0
  9
$CHAMFERA
 40
10.0
  9
$CHAMFERB
 40
10.0
  9
$CHAMFERC
 40
20.0
  9
$CHAMFERD
 40
0.0
  9
$SKPOLY
 70
     0
  9
$TDCREATE
 40
2460451.581535776
  9
$TDUCREATE
 40
2460451.206535776
  9
$TDUPDATE
 40
2460451.581535787
  9
$TDUUPDATE
 40
2460451.206535787
  9
$TDINDWG
 40
0.0000000116
  9
$TDUSRTIMER
 40
0.0000000116
  9
$USRTIMER
 70
     1
  9
$ANGBASE
 50
0.0
  9
$ANGDIR
 70
     0
  9
$PDMODE
 70
     0
  9
$PDSIZE
 40
-1.0
  9
$PLINEWID
 40
0.0
  9
$SPLFRAME
 70
     0
  9
$SPLINETYPE
 70
     6
  9
$SPLINESEGS
 70
     8
  9
$HANDSEED
  5
364
  9
$SURFTAB1
 70
     6
  9
$SURFTAB2
 70
     6
  9
$SURFTYPE
 70
     6
  9
$SURFU
 70
     6
  9
$SURFV
 70
     6
  9
$UCSBASE
  2

  9
$UCSNAME
  2

  9
$UCSORG
 10
0.0
 20
0.0
 30
0.0
  9
$UCSXDIR
 10
1.0
 20
0.0
 30
0.0
  9
$UCSYDIR
 10
0.0
 20
1.0
 30
0.0
  9
$UCSORTHOREF
  2

  9
$UCSORTHOVIEW
 70
     0
  9
$UCSORGTOP
 10
0.0
 20
0.0
 30
0.0
  9
$UCSORGBOTTOM
 10
0.0
 20
0.0
 30
0.0
  9
$UCSORGLEFT
 10
0.0
 20
0.0
 30
0.0
  9
$UCSORGRIGHT
 10
0.0
 20
0.0
 30
0.0
  9
$UCSORGFRONT
 10
0.0
 20
0.0
 30
0.0
  9
$UCSORGBACK
 10
0.0
 20
0.0
 30
0.0
  9
$PUCSBASE
  2

  9
$PUCSNAME
  2

  9
$PUCSORG
 10
0.0
 20
0.0
 30
0.0
  9
$PUCSXDIR
 10
1.0
 20
0.0
 30
0.0
  9
$PUCSYDIR
 10
0.0
 20
1.0
 30
0.0
  9
$PUCSORTHOREF
  2

  9
$PUCSORTHOVIEW
 70
     0
  9
$PUCSORGTOP
 10
0.0
 20
0.0
 30
0.0
  9
$PUCSORGBOTTOM
 10
0.0
 20
0.0
 30
0.0
  9
$PUCSORGLEFT
 10
0.0
 20
0.0
 30
0.0
  9
$PUCSORGRIGHT
 10
0.0
 20
0.0
 30
0.0
  9
$PUCSORGFRONT
 10
0.0
 20
0.0
 30
0.0
  9
$PUCSORGBACK
 10
0.0
 20
0.0
 30
0.0
  9
$USERI1
 70
     0
  9
$USERI2
 70
     0
  9
$USERI3
 70
     0
  9
$USERI4
 70
     0
  9
$USERI5
 70
     0
  9
$USERR1
 40
0.0
  9
$USERR2
 40
0.0
  9
$USERR3
 40
0.0
  9
$USERR4
 40
0.0
  9
$USERR5
 40
0.0
  9
$WORLDVIEW
 70
     1
  9
$SHADEDGE
 70
     3
  9
$SHADEDIF
 70
    70
  9
$TILEMODE
 70
     1
  9
$MAXACTVP
 70
    64
  9
$PINSBASE
 10
0.0
 20
0.0
 30
0.0
  9
$PLIMCHECK
 70
     0
  9
$PEXTMIN
 10
1.0000000000E+20
 20
1.0000000000E+20
 30
1.0000000000E+20
  9
$PEXTMAX
 10
-1.0000000000E+20
 20
-1.0000000000E+20
 30
-1.0000000000E+20
  9
$PLIMMIN
 10
0.0
 20
0.0
  9
$PLIMMAX
 10
420.0
 20
297.0
  9
$UNITMODE
 70
     0
  9
$VISRETAIN
 70
     1
  9
$PLINEGEN
 70
     0
  9
$PSLTSCALE
 70
     1
  9
$TREEDEPTH
 70
  3020
  9
$CMLSTYLE
  2
Standard
  9
$CMLJUST
 70
     0
  9
$CMLSCALE
 40
20.0
  9
$PROXYGRAPHICS
 70
     1
  9
$MEASUREMENT
 70
     1
  9
$CELWEIGHT
370
    -1
  9
$ENDCAPS
280
     0
  9
$JOINSTYLE
280
     0
  9
$LWDISPLAY
290
     1
  9
$INSUNITS
 70
     4
  9
$HYPERLINKBASE
  1

  9
$STYLESHEET
  1

  9
$XEDIT
290
     1
  9
$CEPSNTYPE
380
     0
  9
$PSTYLEMODE
290
     1
  9
$FINGERPRINTGUID
  2
{8D276496-02E4-4DF4-9055-D625331DAE69}
  9
$VERSIONGUID
  2
{FAEB1C32-E019-11D5-929B-00C0DF256EC4}
  9
$EXTNAMES
290
     1
  9
$PSVPSCALE
 40
0.0
  9
$OLESTARTUP
290
     0
  0
ENDSEC
  0
SECTION
  2
CLASSES
  0
CLASS
  1
ACDBDICTIONARYWDFLT
  2
AcDbDictionaryWithDefault
  3
ObjectDBX Classes
 90
        0
280
     0
281
     0
  0
CLASS
  1
VISUALSTYLE
  2
AcDbVisualStyle
  3
ObjectDBX Classes
 90
     4095
280
     0
281
     0
  0
CLASS
  1
MATERIAL
  2
AcDbMaterial
  3
ObjectDBX Classes
 90
     1153
280
     0
281
     0
  0
CLASS
  1
ACDBPLACEHOLDER
  2
AcDbPlaceHolder
  3
ObjectDBX Classes
 90
        0
280
     0
281
     0
  0
CLASS
  1
LAYOUT
  2
AcDbLayout
  3
ObjectDBX Classes
 90
        0
280
     0
281
     0
  0
ENDSEC
  0
SECTION
  2
TABLES
  0
TABLE
  2
VPORT
  5
8
330
0
100
AcDbSymbolTable
 70
     1
  0
VPORT
  5
29
330
8
100
AcDbSymbolTableRecord
100
AcDbViewportTableRecord
  2
*Active
 70
     0
 10
0.0
 20
0.0
 11
1.0
 21
1.0
 12
420.0
 22
297.0
 13
0.0
 23
0.0
 14
10.0
 24
10.0
 15
10.0
 25
10.0
 16
0.0
 26
0.0
 36
1.0
 17
0.0
 27
0.0
 37
0.0
 40
594.0
 41
1.4141414141
 42
50.0
 43
0.0
 44
0.0
 50
0.0
 51
0.0
 71
     0
 72
  2000
 73
     1
 74
     3
 75
     0
 76
     0
 77
     0
 78
     0
281
     0
 65
     1
110
0.0
120
0.0
130
0.0
111
1.0
121
0.0
131
0.0
112
0.0
122
1.0
132
0.0
 79
     0
146
0.0
  0
ENDTAB
  0
TABLE
  2
LTYPE
  5
5
330
0
100
AcDbSymbolTable
 70
     6
  0
LTYPE
  5
14
330
5
100
AcDbSymbolTableRecord
100
AcDbLinetypeTableRecord
  2
ByBlock
 70
     0
  3

 72
    65
 73
     0
 40
0.0
  0
LTYPE
  5
15
330
5
100
AcDbSymbolTableRecord
100
AcDbLinetypeTableRecord
  2
ByLayer
 70
     0
  3

 72
    65
 73
     0
 40
0.0
  0
LTYPE
  5
16
330
5
100
AcDbSymbolTableRecord
100
AcDbLinetypeTableRecord
  2
Continuous
 70
     0
  3
Solid line
 72
    65
 73
     0
 40
0.0
  0
LTYPE
  5
3F
330
5
100
AcDbSymbolTableRecord
100
AcDbLinetypeTableRecord
  2
HIDDEN
 70
     0
  3
Hidden __ __ __ __ __ __ __ __ __ __ __ __ __ __
 72
    65
 73
     2
 40
1.905
 49
1.27
 74
     0
 49
-0.635
 74
     0
  0
LTYPE
  5
40
330
5
100
AcDbSymbolTableRecord
100
AcDbLinetypeTableRecord
  2
PHANTOM
 70
     0
  3
Phantom ______  __  __  ______  __  __  ______
 72
    65
 73
     6
 40
12.7
 49
6.35
 74
     0
 49
-1.27
 74
     0
 49
1.27
 74
     0
 49
-1.27
 74
     0
 49
1.27
 74
     0
 49
-1.27
 74
     0
  0
LTYPE
  5
41
330
5
100
AcDbSymbolTableRecord
100
AcDbLinetypeTableRecord
  2
CENTER
 70
     0
  3
Center ____ _ ____ _ ____ _ ____ _ ____ _ ____
 72
    65
 73
     4
 40
10.16
 49
6.35
 74
     0
 49
-1.27
 74
     0
 49
1.27
 74
     0
 49
-1.27
 74
     0
  0
LTYPE
  5
42
330
5
100
AcDbSymbolTableRecord
100
AcDbLinetypeTableRecord
  2
CENTERX2
 70
     0
  3
Center (2x) ________  __  ________  __  _____
 72
    65
 73
     4
 40
20.32
 49
12.7
 74
     0
 49
-2.54
 74
     0
 49
2.54
 74
     0
 49
-2.54
 74
     0
  0
LTYPE
  5
43
330
5
100
AcDbSymbolTableRecord
100
AcDbLinetypeTableRecord
  2
DOT2
 70
     0
  3
Dot (.5x) ........................................
 72
    65
 73
     2
 40
0.635
 49
0.0
 74
     0
 49
-0.635
 74
     0
  0
ENDTAB
  0
TABLE
  2
LAYER
  5
2
330
0
100
AcDbSymbolTable
 70
     1
  0
LAYER
  5
10
330
2
100
AcDbSymbolTableRecord
100
AcDbLayerTableRecord
  2
0
 70
     0
 62
     7
  6
Continuous
370
    -3
390
F
  0
ENDTAB
  0
TABLE
  2
STYLE
  5
3
330
0
100
AcDbSymbolTable
 70
     2
  0
STYLE
  5
11
330
3
100
AcDbSymbolTableRecord
100
AcDbTextStyleTableRecord
  2
Standard
 70
     0
 40
0.0
 41
1.0
 50
0.0
 71
     0
 42
2.5
  3
txt
  4
bigfont
  0
STYLE
  5
44
330
3
100
AcDbSymbolTableRecord
100
AcDbTextStyleTableRecord
  2
SLDTEXTSTYLE0
 70
     0
 40
0.0
 41
0.7
 50
0.0
 71
     0
 42
0.2
  3
TXT
  4
bigfont
  0
ENDTAB
  0
TABLE
  2
VIEW
  5
6
330
0
100
AcDbSymbolTable
 70
     0
  0
ENDTAB
  0
TABLE
  2
UCS
  5
7
330
0
100
AcDbSymbolTable
 70
     0
  0
ENDTAB
  0
TABLE
  2
APPID
  5
9
330
0
100
AcDbSymbolTable
 70
     1
  0
APPID
  5
12
330
9
100
AcDbSymbolTableRecord
100
AcDbRegAppTableRecord
  2
ACAD
 70
     0
  0
ENDTAB
  0
TABLE
  2
DIMSTYLE
  5
A
330
0
100
AcDbSymbolTable
 70
     1
100
AcDbDimStyleTable
  0
DIMSTYLE
105
27
330
A
100
AcDbSymbolTableRecord
100
AcDbDimStyleTableRecord
  2
ISO-25
 70
     0
 41
2.5
 42
0.625
 43
3.75
 44
1.25
 73
     0
 74
     0
 77
     1
 78
     8
140
2.5
141
2.5
143
0.0393700787
147
0.625
171
     3
172
     1
178
     0
271
     2
272
     2
274
     3
278
    44
283
     0
284
     8
340
11
  0
ENDTAB
  0
TABLE
  2
BLOCK_RECORD
  5
1
330
0
100
AcDbSymbolTable
 70
     1
  0
BLOCK_RECORD
  5
1F
330
1
100
AcDbSymbolTableRecord
100
AcDbBlockTableRecord
  2
*Model_Space
340
22
  0
BLOCK_RECORD
  5
1B
330
1
100
AcDbSymbolTableRecord
100
AcDbBlockTableRecord
  2
*Paper_Space
340
1E
  0
BLOCK_RECORD
  5
23
330
1
100
AcDbSymbolTableRecord
100
AcDbBlockTableRecord
  2
*Paper_Space0
340
26
  0
ENDTAB
  0
ENDSEC
  0
SECTION
  2
BLOCKS
  0
BLOCK
  5
20
330
1F
100
AcDbEntity
  8
0
100
AcDbBlockBegin
  2
*Model_Space
 70
     0
 10
0.0
 20
0.0
 30
0.0
  3
*Model_Space
  1

  0
ENDBLK
  5
21
330
1F
100
AcDbEntity
  8
0
100
AcDbBlockEnd
  0
BLOCK
  5
1C
330
1B
100
AcDbEntity
 67
     1
  8
0
100
AcDbBlockBegin
  2
*Paper_Space
 70
     0
 10
0.0
 20
0.0
 30
0.0
  3
*Paper_Space
  1

  0
ENDBLK
  5
1D
330
1B
100
AcDbEntity
 67
     1
  8
0
100
AcDbBlockEnd
  0
BLOCK
  5
24
330
23
100
AcDbEntity
  8
0
100
AcDbBlockBegin
  2
*Paper_Space0
 70
     0
 10
0.0
 20
0.0
 30
0.0
  3
*Paper_Space0
  1

  0
ENDBLK
  5
25
330
23
100
AcDbEntity
  8
0
100
AcDbBlockEnd
  0
ENDSEC
  0
SECTION
  2
ENTITIES
  0
MTEXT
  5
45
330
1F
100
AcDbEntity
  8
0
  6
Continuous
 62
     7
370
     0
100
AcDbMText
 10
8.6859050345
 20
512.7767243878
 30
0.0
 40
7.0
 41
0.0
 71
     1
 72
     1
  1
CHB-521P
  7
SLDTEXTSTYLE0
 73
     1
 44
1.0
  0
LINE
  5
46
330
1F
100
AcDbEntity
  8
0
  6
Continuous
 62
     7
370
    15
100
AcDbLine
 10
317.5598476729
 20
75.4073919791
 30
0.0
 11
317.6598642668
 21
75.4073919791
 31
0.0
  0
LINE
  5
47
330
1F
100
AcDbEntity
  8
0
  6
Continuous
 62
     7
370
    15
100
AcDbLine
 10
317.6598642668
 20
81.4073892372
 30
0.0
 11
317.5598476729
 21
81.4073892372
 31
0.0
  0
LINE
  5
48
330
1F
100
AcDbEntity
  8
0
  6
Continuous
 62
     7
370
    15
100
AcDbLine
 10
317.5598476729
 20
65.4073866146
 30
0.0
 11
317.6598642668
 21
65.4073866146
 31
0.0
  0
LINE
  5
49
330
1F
100
AcDbEntity
  8
0
  6
Continuous
 62
     7
370
    15
100
AcDbLine
 10
317.6598642668
 20
71.4073838728
 30
0.0
 11
317.5598476729
 21
71.4073838728
 31
0.0
  0
LINE
  5
4A
330
1F
100
AcDbEntity
  8
0
  6
Continuous
 62
     7
370
    15
100
AcDbLine
 10
317.5598476729
 20
545.407390787
 30
0.0
 11
317.6598642668
 21
545.407390787
 31
0.0
  0
LINE
  5
4B
330
1F
100
AcDbEntity
  8
0
  6
Continuous
 62
     7
370
    15
100
AcDbLine
 10
317.6598642668
 20
551.4073880451
 30
0.0
 11
317.5598476729
 21
551.4073880451
 31
0.0
  0
LINE
  5
4C
330
1F
100
AcDbEntity
  8
0
  6
Continuous
 62
     7
370
    15
100
AcDbLine
 10
317.5598476729
 20
535.4073854225
 30
0.0
 11
317.6598642668
 21
535.4073854225
 31
0.0
  0
LINE
  5
4D
330
1F
100
AcDbEntity
  8
0
  6
Continuous
 62
     7
370
    15
100
AcDbLine
 10
317.6598642668
 20
541.4073826807
 30
0.0
 11
317.5598476729
 21
541.4073826807
 31
0.0
  0
LINE
  5
4E
330
1F
100
AcDbEntity
  8
0
  6
Continuous
 62
     7
370
    15
100
AcDbLine
 10
318.8598547778
 20
84.9073888796
 30
0.0
 11
317.6598642668
 21
84.9073888796
 31
0.0
  0
LINE
  5
4F
330
1F
100
AcDbEntity
  8
0
  6
Continuous
 62
     7
370
    15
100
AcDbLine
 10
318.8598547778
 20
554.9073876875
 30
0.0
 11
317.6598642668
 21
554.9073876875
 31
0.0
  0
LINE
  5
50
330
1F
100
AcDbEntity
  8
0
  6
Continuous
 62
     7
370
    15
100
AcDbLine
 10
317.6598642668
 20
61.9073869723
 30
0.0
 11
318.8598547778
 21
61.9073869723
 31
0.0
  0
LINE
  5
51
330
1F
100
AcDbEntity
  8
0
  6
Continuous
 62
     7
370
    15
100
AcDbLine
 10
317.6598642668
 20
531.9073857802
 30
0.0
 11
318.8598547778
 21
531.9073857802
 31
0.0
  0
LINE
  5
52
330
1F
100
AcDbEntity
  8
0
  6
Continuous
 62
     7
370
    15
100
AcDbLine
 10
830.3598557314
 20
64.4073845881
 30
0.0
 11
830.3598557314
 21
99.4073810118
 31
0.0
  0
LINE
  5
53
330
1F
100
AcDbEntity
  8
0
  6
Continuous
 62
     7
370
    15
100
AcDbLine
 10
830.3598557314
 20
517.407393648
 30
0.0
 11
830.3598557314
 21
552.4073900717
 31
0.0
  0
LINE
  5
54
330
1F
100
AcDbEntity
  8
0
  6
Continuous
 62
     7
370
    15
100
AcDbLine
 10
309.7550366721
 20
77.3073943394
 30
0.0
 11
309.7550366721
 21
68.7073828715
 31
0.0
  0
LINE
  5
55
330
1F
100
AcDbEntity
  8
0
  6
Continuous
 62
     7
370
    15
100
AcDbLine
 10
310.3598450026
 20
81.4071359175
 30
0.0
 11
310.3598450026
 21
80.6073905962
 31
0.0
  0
LINE
  5
56
330
1F
100
AcDbEntity
  8
0
  6
Continuous
 62
     7
370
    15
100
AcDbLine
 10
310.3598450026
 20
66.2073852557
 30
0.0
 11
310.3598450026
 21
65.4076399344
 31
0.0
  0
LINE
  5
57
330
1F
100
AcDbEntity
  8
0
  6
Continuous
 62
     7
370
    15
100
AcDbLine
 10
311.7598687014
 20
81.7073943156
 30
0.0
 11
311.7598687014
 21
81.4073892372
 31
0.0
  0
ARC
  5
58
330
1F
100
AcDbEntity
  8
0
  6
Continuous
 62
     7
370
    15
100
AcDbCircle
 10
313.9598547778
 20
78.6002444728
 30
0.0
 40
3.807142857143175
100
AcDbArc
 50
77.9663271603
 51
90.0
  0
ARC
  5
59
330
1F
100
AcDbEntity
  8
0
  6
Continuous
 62
     7
370
    15
100
AcDbCircle
 10
313.9598547778
 20
78.6002444728
 30
0.0
 40
3.807142857143287
100
AcDbArc
 50
90.0
 51
125.3002484399
  0
LINE
  5
5A
330
1F
100
AcDbEntity
  8
0
  6
Continuous
 62
     7
370
    15
100
AcDbLine
 10
311.859855493
 20
65.0073947447
 30
0.0
 11
311.859855493
 21
64.6073879736
 31
0.0
  0
ARC
  5
5B
330
1F
100
AcDbEntity
  8
0
  6
Continuous
 62
     7
370
    15
100
AcDbCircle
 10
312.0598547778
 20
65.4073873299
 30
0.0
 40
0.4000000000008299
100
AcDbArc
 50
270.0
 51
0.0
  0
LINE
  5
5C
330
1F
100
AcDbEntity
  8
0
  6
Continuous
 62
     7
370
    15
100
AcDbLine
 10
312.4598656496
 20
80.6073905962
 30
0.0
 11
312.4598656496
 21
80.1573904293
 31
0.0
  0
LINE
  5
5D
330
1F
100
AcDbEntity
  8
0
  6
Continuous
 62
     7
370
    15
100
AcDbLine
 10
312.4598656496
 20
66.6573854225
 30
0.0
 11
312.4598656496
 21
66.2073852557
 31
0.0
  0
SPLINE
  5
5E
330
1F
100
AcDbEntity
  8
0
  6
Continuous
 62
     7
370
    15
100
AcDbSpline
210
0.0
220
0.0
230
1.0
 70
     8
 71
     3
 72
    11
 73
     7
 74
     0
 42
0.00000001
 43
0.00000001
 40
0.0
 40
0.0
 40
0.0
 40
0.0
 40
0.2262262702538957
 40
0.4679469806289493
 40
0.7254864912811284
 40
1.0
 40
1.0
 40
1.0
 40
1.0
 10
315.1803706488039
 20
81.63782079394343
 30
0.0
 10
315.1831913872199
 20
81.61492161847181
 30
0.0
 10
315.1890260589555
 20
81.56755488246533
 30
0.0
 10
315.2057928150802
 20
81.24277450670417
 30
0.0
 10
315.2193880163094
 20
80.74227566760497
 30
0.0
 10
315.2199344306062
 20
80.31845395361422
 30
0.0
 10
315.2202163538363
 20
80.09978254015925
 30
0.0
  0
SPLINE
  5
5F
330
1F
100
AcDbEntity
  8
0
  6
Continuous
 62
     7
370
    15
100
AcDbSpline
210
0.0
220
0.0
230
1.0
 70
     8
 71
     3
 72
    12
 73
     8
 74
     0
 42
0.00000001
 43
0.00000001
 40
0.0
 40
0.0
 40
0.0
 40
0.0
 40
0.248946245326258
 40
0.4822936287519815
 40
0.699811415192867
 40
0.9035372363555159
 40
1.0
 40
1.0
 40
1.0
 40
1.0
 10
315.2202163538363
 20
66.5411563652325
 30
0.0
 10
315.2187904867787
 20
66.40382068741069
 30
0.0
 10
315.2160280968641
 20
66.13775472474879
 30
0.0
 10
315.2051271650637
 20
65.80195080153278
 30
0.0
 10
315.2026168341708
 20
65.56877322393015
 30
0.0
 10
315.2074058503213
 20
65.44865938541963
 30
0.0
 10
315.233836452819
 20
65.44731999379705
 30
0.0
 10
315.242329677048
 20
65.4468895929623
 30
0.0
  0
LINE
  5
60
330
1F
100
AcDbEntity
  8
0
  6
Continuous
 62
     7
370
    15
100
AcDbLine
 10
315.2193818888
 20
80.149775936
 30
0.0
 11
315.2193818888
 21
66.4911480683
 31
0.0
  0
LINE
  5
61
330
1F
100
AcDbEntity
  8
0
  6
Continuous
 62
     7
370
    15
100
AcDbLine
 10
313.6957381567
 20
84.0876760023
 30
0.0
 11
315.1831124625
 21
81.6075267332
 31
0.0
  0
LINE
  5
62
330
1F
100
AcDbEntity
  8
0
  6
Continuous
 62
     7
370
    15
100
AcDbLine
 10
317.6598642668
 20
83.3106400507
 30
0.0
 11
316.2685726485
 21
85.630601837
 31
0.0
  0
LINE
  5
63
330
1F
100
AcDbEntity
  8
0
  6
Continuous
 62
     7
370
    15
100
AcDbLine
 10
315.2476046881
 20
65.3148057001
 30
0.0
 11
313.6785124144
 21
62.6983853119
 31
0.0
  0
LINE
  5
64
330
1F
100
AcDbEntity
  8
0
  6
Continuous
 62
     7
370
    15
100
AcDbLine
 10
316.2513469061
 20
61.1554594773
 30
0.0
 11
317.6598642668
 21
63.5041358012
 31
0.0
  0
LINE
  5
65
330
1F
100
AcDbEntity
  8
0
  6
Continuous
 62
     7
370
    15
100
AcDbLine
 10
316.2884507975
 20
85.5950923699
 30
0.0
 11
316.1985073885
 21
85.7088776367
 31
0.0
  0
SPLINE
  5
66
330
1F
100
AcDbEntity
  8
0
  6
Continuous
 62
     7
370
    15
100
AcDbSpline
210
0.0
220
0.0
230
1.0
 70
     8
 71
     3
 72
    20
 73
    16
 74
     0
 42
0.00000001
 43
0.00000001
 40
0.0
 40
0.0
 40
0.0
 40
0.0
 40
0.0337781842898247
 40
0.1101041171070845
 40
0.1739272789651672
 40
0.2252747007360955
 40
0.2665353570161498
 40
0.3037734465098283
 40
0.3388578121458197
 40
0.3726395203360093
 40
0.4139179590234036
 40
0.6259818905904043
 40
0.8390272038629291
 40
0.9659458002563539
 40
1.0
 40
1.0
 40
1.0
 40
1.0
 10
316.0861824354556
 20
85.85094530756953
 30
0.0
 10
316.045532597912
 20
85.90712898868932
 30
0.0
 10
315.9130294877718
 20
86.09026655915305
 30
0.0
 10
315.603151300188
 20
86.26744860194144
 30
0.0
 10
315.215877998164
 20
86.39039272283871
 30
0.0
 10
314.8460240708559
 20
86.40519713430974
 30
0.0
 10
314.5117092447784
 20
86.35460298824266
 30
0.0
 10
314.2372278599418
 20
86.25355430254966
 30
0.0
 10
314.0097240352158
 20
86.11883159900272
 30
0.0
 10
313.8036946116376
 20
85.94265777184404
 30
0.0
 10
313.4591301581394
 20
85.50017725061157
 30
0.0
 10
313.2780512749402
 20
84.81348487336365
 30
0.0
 10
313.1283331371324
 20
83.63265408394155
 30
0.0
 10
313.0731258139675
 20
82.72801242196284
 30
0.0
 10
313.0665925503305
 20
82.31342361170199
 30
0.0
 10
313.065210421982
 20
82.2257163065243
 30
0.0
  0
SPLINE
  5
67
330
1F
100
AcDbEntity
  8
0
  6
Continuous
 62
     7
370
    15
100
AcDbSpline
210
0.0
220
0.0
230
1.0
 70
     8
 71
     3
 72
    19
 73
    15
 74
     0
 42
0.00000001
 43
0.00000001
 40
0.0
 40
0.0
 40
0.0
 40
0.0
 40
0.0102730546330942
 40
0.1295977814996322
 40
0.3268131659535557
 40
0.5525082917097263
 40
0.5858522211323304
 40
0.6185996602035791
 40
0.6529077732634752
 40
0.6960083279230418
 40
0.7523127563035826
 40
0.8223129648801066
 40
0.9054595978852741
 40
1.0
 40
1.0
 40
1.0
 40
1.0
 10
313.0623493990328
 20
64.6073879736233
 30
0.0
 10
313.0626725624341
 20
64.58019054858374
 30
0.0
 10
313.0667493693193
 20
64.23708656700114
 30
0.0
 10
313.1065641116762
 20
63.41710402922518
 30
0.0
 10
313.2415305783991
 20
62.19467428279007
 30
0.0
 10
313.3319628291602
 20
61.55128668414608
 30
0.0
 10
313.6828104316859
 20
61.0112129917994
 30
0.0
 10
313.8520389219426
 20
60.82336359120344
 30
0.0
 10
314.0887617867126
 20
60.64688239205293
 30
0.0
 10
314.4023985365516
 20
60.49342307650535
 30
0.0
 10
314.8058667130372
 20
60.39160566400012
 30
0.0
 10
315.2917236943098
 20
60.41480605217775
 30
0.0
 10
315.8214867518655
 20
60.62509344787922
 30
0.0
 10
316.0867151152006
 20
60.94692679086988
 30
0.0
 10
316.2278328737643
 20
61.11816187079433
 30
0.0
  0
LINE
  5
68
330
1F
100
AcDbEntity
  8
0
  6
Continuous
 62
     7
370
    15
100
AcDbLine
 10
309.7550366721
 20
547.3073931473
 30
0.0
 11
309.7550366721
 21
538.7073816794
 31
0.0
  0
LINE
  5
69
330
1F
100
AcDbEntity
  8
0
  6
Continuous
 62
     7
370
    15
100
AcDbLine
 10
310.3598450026
 20
536.2073840636
 30
0.0
 11
310.3598450026
 21
535.4076387423
 31
0.0
  0
LINE
  5
6A
330
1F
100
AcDbEntity
  8
0
  6
Continuous
 62
     7
370
    15
100
AcDbLine
 10
310.3598450026
 20
551.4071347254
 30
0.0
 11
310.3598450026
 21
550.6073894041
 31
0.0
  0
LINE
  5
6B
330
1F
100
AcDbEntity
  8
0
  6
Continuous
 62
     7
370
    15
100
AcDbLine
 10
311.7598687014
 20
551.7073931235
 30
0.0
 11
311.7598687014
 21
551.4073880451
 31
0.0
  0
ARC
  5
6C
330
1F
100
AcDbEntity
  8
0
  6
Continuous
 62
     7
370
    15
100
AcDbCircle
 10
313.9598547778
 20
548.6002444728
 30
0.0
 40
3.807142857143276
100
AcDbArc
 50
77.9663271603
 51
90.0
  0
ARC
  5
6D
330
1F
100
AcDbEntity
  8
0
  6
Continuous
 62
     7
370
    15
100
AcDbCircle
 10
313.9598547778
 20
548.6002444728
 30
0.0
 40
3.807142857143368
100
AcDbArc
 50
90.0
 51
125.3002484399
  0
LINE
  5
6E
330
1F
100
AcDbEntity
  8
0
  6
Continuous
 62
     7
370
    15
100
AcDbLine
 10
311.859855493
 20
535.0073935526
 30
0.0
 11
311.859855493
 21
534.6073867815
 31
0.0
  0
ARC
  5
6F
330
1F
100
AcDbEntity
  8
0
  6
Continuous
 62
     7
370
    15
100
AcDbCircle
 10
312.0598547778
 20
535.4073873299
 30
0.0
 40
0.4000000000008299
100
AcDbArc
 50
270.0
 51
0.0
  0
LINE
  5
70
330
1F
100
AcDbEntity
  8
0
  6
Continuous
 62
     7
370
    15
100
AcDbLine
 10
312.4598656496
 20
550.6073894041
 30
0.0
 11
312.4598656496
 21
550.1573892372
 31
0.0
  0
LINE
  5
71
330
1F
100
AcDbEntity
  8
0
  6
Continuous
 62
     7
370
    15
100
AcDbLine
 10
312.4598656496
 20
536.6573842305
 30
0.0
 11
312.4598656496
 21
536.2073840636
 31
0.0
  0
SPLINE
  5
72
330
1F
100
AcDbEntity
  8
0
  6
Continuous
 62
     7
370
    15
100
AcDbSpline
210
0.0
220
0.0
230
1.0
 70
     8
 71
     3
 72
    11
 73
     7
 74
     0
 42
0.00000001
 43
0.00000001
 40
0.0
 40
0.0
 40
0.0
 40
0.0
 40
0.2262262702538957
 40
0.4679469806289493
 40
0.7254864912811284
 40
1.0
 40
1.0
 40
1.0
 40
1.0
 10
315.1803706488039
 20
551.6378196018505
 30
0.0
 10
315.1831913872199
 20
551.6149204263788
 30
0.0
 10
315.1890260589555
 20
551.5675536903724
 30
0.0
 10
315.2057928150802
 20
551.2427733146113
 30
0.0
 10
315.2193880163094
 20
550.7422744755121
 30
0.0
 10
315.2199344306062
 20
550.3184527615213
 30
0.0
 10
315.2202163538363
 20
550.0997813480664
 30
0.0
  0
SPLINE
  5
73
330
1F
100
AcDbEntity
  8
0
  6
Continuous
 62
     7
370
    15
100
AcDbSpline
210
0.0
220
0.0
230
1.0
 70
     8
 71
     3
 72
    12
 73
     8
 74
     0
 42
0.00000001
 43
0.00000001
 40
0.0
 40
0.0
 40
0.0
 40
0.0
 40
0.248946245326258
 40
0.4822936287519815
 40
0.699811415192867
 40
0.9035372363555159
 40
1.0
 40
1.0
 40
1.0
 40
1.0
 10
315.2202163538363
 20
536.5411551731396
 30
0.0
 10
315.2187904867787
 20
536.4038194953177
 30
0.0
 10
315.2160280968641
 20
536.1377535326558
 30
0.0
 10
315.2051271650637
 20
535.80194960944
 30
0.0
 10
315.2026168341708
 20
535.5687720318373
 30
0.0
 10
315.2074058503213
 20
535.4486581933265
 30
0.0
 10
315.233836452819
 20
535.4473188017042
 30
0.0
 10
315.242329677048
 20
535.4468884008694
 30
0.0
  0
LINE
  5
74
330
1F
100
AcDbEntity
  8
0
  6
Continuous
 62
     7
370
    15
100
AcDbLine
 10
315.2193818888
 20
550.149789645
 30
0.0
 11
315.2193818888
 21
536.4911468762
 31
0.0
  0
LINE
  5
75
330
1F
100
AcDbEntity
  8
0
  6
Continuous
 62
     7
370
    15
100
AcDbLine
 10
313.6957381567
 20
554.0876748102
 30
0.0
 11
315.1831124625
 21
551.6075255411
 31
0.0
  0
LINE
  5
76
330
1F
100
AcDbEntity
  8
0
  6
Continuous
 62
     7
370
    15
100
AcDbLine
 10
317.6598642668
 20
553.3106388586
 30
0.0
 11
316.2685726485
 21
555.6306006449
 31
0.0
  0
LINE
  5
77
330
1F
100
AcDbEntity
  8
0
  6
Continuous
 62
     7
370
    15
100
AcDbLine
 10
315.2476046881
 20
535.314804508
 30
0.0
 11
313.6785124144
 21
532.6983841198
 31
0.0
  0
LINE
  5
78
330
1F
100
AcDbEntity
  8
0
  6
Continuous
 62
     7
370
    15
100
AcDbLine
 10
316.2513469061
 20
531.1554582852
 30
0.0
 11
317.6598642668
 21
533.5041346091
 31
0.0
  0
LINE
  5
79
330
1F
100
AcDbEntity
  8
0
  6
Continuous
 62
     7
370
    15
100
AcDbLine
 10
316.2884507975
 20
555.5950911778
 30
0.0
 11
316.1985073885
 21
555.7088764447
 31
0.0
  0
SPLINE
  5
7A
330
1F
100
AcDbEntity
  8
0
  6
Continuous
 62
     7
370
    15
100
AcDbSpline
210
0.0
220
0.0
230
1.0
 70
     8
 71
     3
 72
    20
 73
    16
 74
     0
 42
0.00000001
 43
0.00000001
 40
0.0
 40
0.0
 40
0.0
 40
0.0
 40
0.0337781842898247
 40
0.1101041171070845
 40
0.1739272789651672
 40
0.2252747007360955
 40
0.2665353570161498
 40
0.3037734465098283
 40
0.3388578121458197
 40
0.3726395203360093
 40
0.4139179590234036
 40
0.6259818905904043
 40
0.8390272038629291
 40
0.9659458002563539
 40
1.0
 40
1.0
 40
1.0
 40
1.0
 10
316.0861824354556
 20
555.8509441154766
 30
0.0
 10
316.045532597912
 20
555.9071277965963
 30
0.0
 10
315.9130294877718
 20
556.0902653670603
 30
0.0
 10
315.603151300188
 20
556.2674474098488
 30
0.0
 10
315.215877998164
 20
556.3903915307458
 30
0.0
 10
314.8460240708559
 20
556.4051959422169
 30
0.0
 10
314.5117092447784
 20
556.3546017961498
 30
0.0
 10
314.2372278599418
 20
556.2535531104567
 30
0.0
 10
314.0097240352158
 20
556.1188304069098
 30
0.0
 10
313.8036946116376
 20
555.9426565797512
 30
0.0
 10
313.4591301581394
 20
555.5001760585185
 30
0.0
 10
313.2780512749402
 20
554.8134836812708
 30
0.0
 10
313.1283331371324
 20
553.6326528918487
 30
0.0
 10
313.0731258139675
 20
552.7280112298697
 30
0.0
 10
313.0665925503305
 20
552.3134224196091
 30
0.0
 10
313.065210421982
 20
552.2257151144314
 30
0.0
  0
SPLINE
  5
7B
330
1F
100
AcDbEntity
  8
0
  6
Continuous
 62
     7
370
    15
100
AcDbSpline
210
0.0
220
0.0
230
1.0
 70
     8
 71
     3
 72
    19
 73
    15
 74
     0
 42
0.00000001
 43
0.00000001
 40
0.0
 40
0.0
 40
0.0
 40
0.0
 40
0.010273060262085
 40
0.1295978525111032
 40
0.3268133450267111
 40
0.5525085944496814
 40
0.5858525421426714
 40
0.6185999991574667
 40
0.6529081310160607
 40
0.6960087092920332
 40
0.7523131685238759
 40
0.8223134154561319
 40
0.9054607059180457
 40
1.0
 40
1.0
 40
1.0
 40
1.0
 10
313.0623493990328
 20
534.6073867815304
 30
0.0
 10
313.062672562434
 20
534.5801893564911
 30
0.0
 10
313.0667493693185
 20
534.2370853749109
 30
0.0
 10
313.1065641117383
 20
533.4171028369339
 30
0.0
 10
313.241530577998
 20
532.1946730919796
 30
0.0
 10
313.3319628302389
 20
531.5512854886052
 30
0.0
 10
313.6828104311847
 20
531.0112118013088
 30
0.0
 10
313.8520389239085
 20
530.8233623928265
 30
0.0
 10
314.088761778109
 20
530.6468812274625
 30
0.0
 10
314.4023985833568
 20
530.4934217347936
 30
0.0
 10
314.8058664553494
 20
530.3916052956359
 30
0.0
 10
315.2917264244848
 20
530.4148007378125
 30
0.0
 10
315.8214806009383
 20
530.6251124700419
 30
0.0
 10
316.0867138250703
 20
530.9469336453631
 30
0.0
 10
316.2278328737643
 20
531.1181606787014
 30
0.0
  0
LINE
  5
7C
330
1F
100
AcDbEntity
  8
0
  6
Continuous
 62
     7
370
    15
100
AcDbLine
 10
830.3598557314
 20
28.4073861378
 30
0.0
 11
830.3598557314
 21
63.4073825615
 31
0.0
  0
LINE
  5
7D
330
1F
100
AcDbEntity
  8
0
  6
Continuous
 62
     7
370
    15
100
AcDbLine
 10
830.3598557314
 20
553.4073920983
 30
0.0
 11
830.3598557314
 21
588.407388522
 31
0.0
  0
LINE
  5
7E
330
1F
100
AcDbEntity
  8
0
  6
Continuous
 62
     7
370
    15
100
AcDbLine
 10
827.3598645529
 20
63.4073825615
 30
0.0
 11
827.3598645529
 21
64.4073845881
 31
0.0
  0
LINE
  5
7F
330
1F
100
AcDbEntity
  8
0
  6
Continuous
 62
     7
370
    15
100
AcDbLine
 10
827.3598645529
 20
99.4073810118
 30
0.0
 11
827.3598645529
 21
100.4073830384
 31
0.0
  0
LINE
  5
80
330
1F
100
AcDbEntity
  8
0
  6
Continuous
 62
     7
370
    15
100
AcDbLine
 10
822.3598693213
 20
100.4073830384
 30
0.0
 11
822.3598693213
 21
99.4073810118
 31
0.0
  0
LINE
  5
81
330
1F
100
AcDbEntity
  8
0
  6
Continuous
 62
     7
370
    15
100
AcDbLine
 10
822.3598693213
 20
64.4073845881
 30
0.0
 11
822.3598693213
 21
63.4073825615
 31
0.0
  0
LINE
  5
82
330
1F
100
AcDbEntity
  8
0
  6
Continuous
 62
     7
370
    15
100
AcDbLine
 10
822.3598693213
 20
553.4073920983
 30
0.0
 11
822.3598693213
 21
552.4073900717
 31
0.0
  0
LINE
  5
83
330
1F
100
AcDbEntity
  8
0
  6
Continuous
 62
     7
370
    15
100
AcDbLine
 10
822.3598693213
 20
517.407393648
 30
0.0
 11
822.3598693213
 21
516.4073916214
 31
0.0
  0
LINE
  5
84
330
1F
100
AcDbEntity
  8
0
  6
Continuous
 62
     7
370
    15
100
AcDbLine
 10
827.3598645529
 20
516.4073916214
 30
0.0
 11
827.3598645529
 21
517.407393648
 31
0.0
  0
LINE
  5
85
330
1F
100
AcDbEntity
  8
0
  6
Continuous
 62
     7
370
    15
100
AcDbLine
 10
827.3598645529
 20
552.4073900717
 30
0.0
 11
827.3598645529
 21
553.4073920983
 31
0.0
  0
LINE
  5
86
330
1F
100
AcDbEntity
  8
0
  6
Continuous
 62
     7
370
    15
100
AcDbLine
 10
310.5598483881
 20
66.95019324
 30
0.0
 11
310.5598483881
 21
66.6573854225
 31
0.0
  0
LINE
  5
87
330
1F
100
AcDbEntity
  8
0
  6
Continuous
 62
     7
370
    15
100
AcDbLine
 10
310.5598483881
 20
80.1573904293
 30
0.0
 11
310.5598483881
 21
79.8645826119
 31
0.0
  0
LINE
  5
88
330
1F
100
AcDbEntity
  8
0
  6
Continuous
 62
     7
370
    15
100
AcDbLine
 10
310.5598483881
 20
550.1573892372
 30
0.0
 11
310.5598483881
 21
549.8645814198
 31
0.0
  0
LINE
  5
89
330
1F
100
AcDbEntity
  8
0
  6
Continuous
 62
     7
370
    15
100
AcDbLine
 10
310.5598483881
 20
536.9501920479
 30
0.0
 11
310.5598483881
 21
536.6573842305
 31
0.0
  0
LINE
  5
8A
330
1F
100
AcDbEntity
  8
0
  6
Continuous
 62
     7
370
    15
100
AcDbLine
 10
333.8598553738
 20
8.407375409
 30
0.0
 11
333.8598553738
 21
23.4073909062
 31
0.0
  0
LINE
  5
8B
330
1F
100
AcDbEntity
  8
0
  6
Continuous
 62
     7
370
    15
100
AcDbLine
 10
333.8598553738
 20
23.4073909062
 30
0.0
 11
803.8598541817
 21
23.4073909062
 31
0.0
  0
LINE
  5
8C
330
1F
100
AcDbEntity
  8
0
  6
Continuous
 62
     7
370
    15
100
AcDbLine
 10
803.8598541817
 20
23.4073909062
 30
0.0
 11
803.8598541817
 21
8.407375409
 31
0.0
  0
LINE
  5
8D
330
1F
100
AcDbEntity
  8
0
  6
Continuous
 62
     7
370
    15
100
AcDbLine
 10
333.8598553738
 20
8.407375409
 30
0.0
 11
803.8598541817
 21
8.407375409
 31
0.0
  0
LINE
  5
8E
330
1F
100
AcDbEntity
  8
0
  6
Continuous
 62
     7
370
    15
100
AcDbLine
 10
338.8598506054
 20
588.407388522
 30
0.0
 11
798.8598589501
 21
588.407388522
 31
0.0
  0
LINE
  5
8F
330
1F
100
AcDbEntity
  8
0
  6
Continuous
 62
     7
370
    15
100
AcDbLine
 10
338.8598506054
 20
28.4073861378
 30
0.0
 11
338.8598506054
 21
588.407388522
 31
0.0
  0
LINE
  5
90
330
1F
100
AcDbEntity
  8
0
  6
Continuous
 62
     7
370
    15
100
AcDbLine
 10
798.8598589501
 20
28.4073861378
 30
0.0
 11
338.8598506054
 21
28.4073861378
 31
0.0
  0
LINE
  5
91
330
1F
100
AcDbEntity
  8
0
  6
Continuous
 62
     7
370
    15
100
AcDbLine
 10
333.8598553738
 20
593.4073837536
 30
0.0
 11
333.8598553738
 21
23.4073909062
 31
0.0
  0
LINE
  5
92
330
1F
100
AcDbEntity
  8
0
  6
Continuous
 62
     7
370
    15
100
AcDbLine
 10
803.8598541817
 20
593.4073837536
 30
0.0
 11
333.8598553738
 21
593.4073837536
 31
0.0
  0
LINE
  5
93
330
1F
100
AcDbEntity
  8
0
  6
Continuous
 62
     7
370
    15
100
AcDbLine
 10
803.8598541817
 20
23.4073909062
 30
0.0
 11
803.8598541817
 21
593.4073837536
 31
0.0
  0
LINE
  5
94
330
1F
100
AcDbEntity
  8
0
  6
Continuous
 62
     7
370
    15
100
AcDbLine
 10
798.8598589501
 20
28.4073861378
 30
0.0
 11
798.8598589501
 21
588.407388522
 31
0.0
  0
LINE
  5
95
330
1F
100
AcDbEntity
  8
0
  6
Continuous
 62
     7
370
    15
100
AcDbLine
 10
803.8598541817
 20
23.4073909062
 30
0.0
 11
818.8598547778
 21
23.4073909062
 31
0.0
  0
ARC
  5
96
330
1F
100
AcDbEntity
  8
0
  6
Continuous
 62
     7
370
    15
100
AcDbCircle
 10
803.8598547778
 20
23.4073873299
 30
0.0
 40
15.00000000000001
100
AcDbArc
 50
270.0
 51
0.0
  0
LINE
  5
97
330
1F
100
AcDbEntity
  8
0
  6
Continuous
 62
     7
370
    15
100
AcDbLine
 10
818.8598547778
 20
23.4073909062
 30
0.0
 11
818.8598547778
 21
593.4073837536
 31
0.0
  0
LINE
  5
98
330
1F
100
AcDbEntity
  8
0
  6
Continuous
 62
     7
370
    15
100
AcDbLine
 10
818.8598547778
 20
593.4073837536
 30
0.0
 11
803.8598541817
 21
593.4073837536
 31
0.0
  0
ARC
  5
99
330
1F
100
AcDbEntity
  8
0
  6
Continuous
 62
     7
370
    15
100
AcDbCircle
 10
333.8598547778
 20
23.4073873299
 30
0.0
 40
15.00000000000001
100
AcDbArc
 50
180.0
 51
270.0
  0
LINE
  5
9A
330
1F
100
AcDbEntity
  8
0
  6
Continuous
 62
     7
370
    15
100
AcDbLine
 10
318.8598547778
 20
23.4073909062
 30
0.0
 11
333.8598553738
 21
23.4073909062
 31
0.0
  0
LINE
  5
9B
330
1F
100
AcDbEntity
  8
0
  6
Continuous
 62
     7
370
    15
100
AcDbLine
 10
318.8598547778
 20
63.4198995369
 30
0.0
 11
318.8598547778
 21
23.4073909062
 31
0.0
  0
LINE
  5
9C
330
1F
100
AcDbEntity
  8
0
  6
Continuous
 62
     7
370
    15
100
AcDbLine
 10
318.8598547778
 20
83.394876315
 30
0.0
 11
318.8598547778
 21
533.4198983448
 31
0.0
  0
LINE
  5
9D
330
1F
100
AcDbEntity
  8
0
  6
Continuous
 62
     7
370
    15
100
AcDbLine
 10
318.8598547778
 20
553.3948751229
 30
0.0
 11
318.8598547778
 21
593.4073837536
 31
0.0
  0
LINE
  5
9E
330
1F
100
AcDbEntity
  8
0
  6
Continuous
 62
     7
370
    15
100
AcDbLine
 10
318.8598547778
 20
593.4073837536
 30
0.0
 11
333.8598553738
 21
593.4073837536
 31
0.0
  0
LINE
  5
9F
330
1F
100
AcDbEntity
  8
0
  6
Continuous
 62
     7
370
    15
100
AcDbLine
 10
803.8598541817
 20
608.4073992508
 30
0.0
 11
803.8598541817
 21
593.4073837536
 31
0.0
  0
LINE
  5
A0
330
1F
100
AcDbEntity
  8
0
  6
Continuous
 62
     7
370
    15
100
AcDbLine
 10
333.8598553738
 20
593.4073837536
 30
0.0
 11
333.8598553738
 21
608.4073992508
 31
0.0
  0
LINE
  5
A1
330
1F
100
AcDbEntity
  8
0
  6
Continuous
 62
     7
370
    15
100
AcDbLine
 10
803.8598541817
 20
608.4073992508
 30
0.0
 11
333.8598553738
 21
608.4073992508
 31
0.0
  0
ARC
  5
A2
330
1F
100
AcDbEntity
  8
0
  6
Continuous
 62
     7
370
    15
100
AcDbCircle
 10
803.8598547778
 20
593.4073873299
 30
0.0
 40
15.00000000000011
100
AcDbArc
 50
0.0
 51
90.0
  0
ARC
  5
A3
330
1F
100
AcDbEntity
  8
0
  6
Continuous
 62
     7
370
    15
100
AcDbCircle
 10
333.8598547778
 20
593.4073873299
 30
0.0
 40
15.00000000000006
100
AcDbArc
 50
90.0
 51
180.0
  0
LINE
  5
A4
330
1F
100
AcDbEntity
  8
0
  6
Continuous
 62
     7
370
    15
100
AcDbLine
 10
317.6598642668
 20
84.4418766039
 30
0.0
 11
318.8598547778
 21
84.4418766039
 31
0.0
  0
LINE
  5
A5
330
1F
100
AcDbEntity
  8
0
  6
Continuous
 62
     7
370
    15
100
AcDbLine
 10
317.6598642668
 20
62.372899248
 30
0.0
 11
318.8598547778
 21
62.372899248
 31
0.0
  0
LINE
  5
A6
330
1F
100
AcDbEntity
  8
0
  6
Continuous
 62
     7
370
    15
100
AcDbLine
 10
318.8598547778
 20
83.394876315
 30
0.0
 11
318.8598547778
 21
63.4198995369
 31
0.0
  0
LINE
  5
A7
330
1F
100
AcDbEntity
  8
0
  6
Continuous
 62
     7
370
    15
100
AcDbLine
 10
317.6598642668
 20
62.372899248
 30
0.0
 11
317.6598642668
 21
84.4418766039
 31
0.0
  0
LINE
  5
A8
330
1F
100
AcDbEntity
  8
0
  6
Continuous
 62
     7
370
    15
100
AcDbLine
 10
317.6598642668
 20
554.4418754118
 30
0.0
 11
318.8598547778
 21
554.4418754118
 31
0.0
  0
LINE
  5
A9
330
1F
100
AcDbEntity
  8
0
  6
Continuous
 62
     7
370
    15
100
AcDbLine
 10
317.6598642668
 20
532.3728980559
 30
0.0
 11
318.8598547778
 21
532.3728980559
 31
0.0
  0
LINE
  5
AA
330
1F
100
AcDbEntity
  8
0
  6
Continuous
 62
     7
370
    15
100
AcDbLine
 10
318.8598547778
 20
553.3948751229
 30
0.0
 11
318.8598547778
 21
533.4198983448
 31
0.0
  0
LINE
  5
AB
330
1F
100
AcDbEntity
  8
0
  6
Continuous
 62
     7
370
    15
100
AcDbLine
 10
317.6598642668
 20
532.3728980559
 30
0.0
 11
317.6598642668
 21
554.4418754118
 31
0.0
  0
LINE
  5
AC
330
1F
100
AcDbEntity
  8
0
  6
Continuous
 62
     7
370
    15
100
AcDbLine
 10
317.5598476729
 20
78.4073831576
 30
0.0
 11
317.5598476729
 21
81.4073892372
 31
0.0
  0
LINE
  5
AD
330
1F
100
AcDbEntity
  8
0
  6
Continuous
 62
     7
370
    15
100
AcDbLine
 10
317.5598476729
 20
75.4073919791
 30
0.0
 11
317.5598476729
 21
78.4073831576
 31
0.0
  0
LINE
  5
AE
330
1F
100
AcDbEntity
  8
0
  6
Continuous
 62
     7
370
    15
100
AcDbLine
 10
317.5598476729
 20
65.4073866146
 30
0.0
 11
317.5598476729
 21
71.4073838728
 31
0.0
  0
LINE
  5
AF
330
1F
100
AcDbEntity
  8
0
  6
Continuous
 62
     7
370
    15
100
AcDbLine
 10
317.5598476729
 20
548.4073819655
 30
0.0
 11
317.5598476729
 21
551.4073880451
 31
0.0
  0
LINE
  5
B0
330
1F
100
AcDbEntity
  8
0
  6
Continuous
 62
     7
370
    15
100
AcDbLine
 10
317.5598476729
 20
545.407390787
 30
0.0
 11
317.5598476729
 21
548.4073819655
 31
0.0
  0
LINE
  5
B1
330
1F
100
AcDbEntity
  8
0
  6
Continuous
 62
     7
370
    15
100
AcDbLine
 10
317.5598476729
 20
535.4073854225
 30
0.0
 11
317.5598476729
 21
541.4073826807
 31
0.0
  0
LINE
  5
B2
330
1F
100
AcDbEntity
  8
0
  6
Continuous
 62
     7
370
    15
100
AcDbLine
 10
317.6598642668
 20
84.4418766039
 30
0.0
 11
317.6598642668
 21
84.9073888796
 31
0.0
  0
LINE
  5
B3
330
1F
100
AcDbEntity
  8
0
  6
Continuous
 62
     7
370
    15
100
AcDbLine
 10
317.6598642668
 20
554.4418754118
 30
0.0
 11
317.6598642668
 21
554.9073876875
 31
0.0
  0
LINE
  5
B4
330
1F
100
AcDbEntity
  8
0
  6
Continuous
 62
     7
370
    15
100
AcDbLine
 10
317.6598642668
 20
61.9073869723
 30
0.0
 11
317.6598642668
 21
62.372899248
 31
0.0
  0
LINE
  5
B5
330
1F
100
AcDbEntity
  8
0
  6
Continuous
 62
     7
370
    15
100
AcDbLine
 10
317.6598642668
 20
531.9073857802
 30
0.0
 11
317.6598642668
 21
532.3728980559
 31
0.0
  0
LINE
  5
B6
330
1F
100
AcDbEntity
  8
0
  6
Continuous
 62
     7
370
    15
100
AcDbLine
 10
819.7612260184
 20
99.4073810118
 30
0.0
 11
819.7612260184
 21
64.4073845881
 31
0.0
  0
LINE
  5
B7
330
1F
100
AcDbEntity
  8
0
  6
Continuous
 62
     7
370
    15
100
AcDbLine
 10
819.7612260184
 20
99.4073810118
 30
0.0
 11
830.3598557314
 21
99.4073810118
 31
0.0
  0
LINE
  5
B8
330
1F
100
AcDbEntity
  8
0
  6
Continuous
 62
     7
370
    15
100
AcDbLine
 10
819.7612260184
 20
64.4073845881
 30
0.0
 11
830.3598557314
 21
64.4073845881
 31
0.0
  0
LINE
  5
B9
330
1F
100
AcDbEntity
  8
0
  6
Continuous
 62
     7
370
    15
100
AcDbLine
 10
819.7612260184
 20
517.407393648
 30
0.0
 11
830.3598557314
 21
517.407393648
 31
0.0
  0
LINE
  5
BA
330
1F
100
AcDbEntity
  8
0
  6
Continuous
 62
     7
370
    15
100
AcDbLine
 10
819.7612260184
 20
552.4073900717
 30
0.0
 11
819.7612260184
 21
517.407393648
 31
0.0
  0
LINE
  5
BB
330
1F
100
AcDbEntity
  8
0
  6
Continuous
 62
     7
370
    15
100
AcDbLine
 10
819.7612260184
 20
552.4073900717
 30
0.0
 11
830.3598557314
 21
552.4073900717
 31
0.0
  0
LINE
  5
BC
330
1F
100
AcDbEntity
  8
0
  6
Continuous
 62
     7
370
    15
100
AcDbLine
 10
819.2977104983
 20
99.4073810118
 30
0.0
 11
819.2977104983
 21
64.4073845881
 31
0.0
  0
LINE
  5
BD
330
1F
100
AcDbEntity
  8
0
  6
Continuous
 62
     7
370
    15
100
AcDbLine
 10
819.2977104983
 20
99.4073810118
 30
0.0
 11
819.7612260184
 21
99.4073810118
 31
0.0
  0
LINE
  5
BE
330
1F
100
AcDbEntity
  8
0
  6
Continuous
 62
     7
370
    15
100
AcDbLine
 10
819.2977104983
 20
64.4073845881
 30
0.0
 11
819.7612260184
 21
64.4073845881
 31
0.0
  0
LINE
  5
BF
330
1F
100
AcDbEntity
  8
0
  6
Continuous
 62
     7
370
    15
100
AcDbLine
 10
819.2977104983
 20
552.4073900717
 30
0.0
 11
819.2977104983
 21
517.407393648
 31
0.0
  0
LINE
  5
C0
330
1F
100
AcDbEntity
  8
0
  6
Continuous
 62
     7
370
    15
100
AcDbLine
 10
819.2977104983
 20
552.4073900717
 30
0.0
 11
819.7612260184
 21
552.4073900717
 31
0.0
  0
LINE
  5
C1
330
1F
100
AcDbEntity
  8
0
  6
Continuous
 62
     7
370
    15
100
AcDbLine
 10
819.2977104983
 20
517.407393648
 30
0.0
 11
819.7612260184
 21
517.407393648
 31
0.0
  0
LINE
  5
C2
330
1F
100
AcDbEntity
  8
0
  6
Continuous
 62
     7
370
    15
100
AcDbLine
 10
818.8598547778
 20
99.4073810118
 30
0.0
 11
819.2977104983
 21
99.4073810118
 31
0.0
  0
LINE
  5
C3
330
1F
100
AcDbEntity
  8
0
  6
Continuous
 62
     7
370
    15
100
AcDbLine
 10
818.8598547778
 20
64.4073845881
 30
0.0
 11
819.2977104983
 21
64.4073845881
 31
0.0
  0
LINE
  5
C4
330
1F
100
AcDbEntity
  8
0
  6
Continuous
 62
     7
370
    15
100
AcDbLine
 10
818.8598547778
 20
552.4073900717
 30
0.0
 11
819.2977104983
 21
552.4073900717
 31
0.0
  0
LINE
  5
C5
330
1F
100
AcDbEntity
  8
0
  6
Continuous
 62
     7
370
    15
100
AcDbLine
 10
818.8598547778
 20
517.407393648
 30
0.0
 11
819.2977104983
 21
517.407393648
 31
0.0
  0
LINE
  5
C6
330
1F
100
AcDbEntity
  8
0
  6
Continuous
 62
     7
370
    15
100
AcDbLine
 10
310.5903659663
 20
78.7073882359
 30
0.0
 11
309.8598514399
 21
78.7073882359
 31
0.0
  0
LINE
  5
C7
330
1F
100
AcDbEntity
  8
0
  6
Continuous
 62
     7
370
    15
100
AcDbLine
 10
310.5903659663
 20
78.7073882359
 30
0.0
 11
310.5903659663
 21
68.107387616
 31
0.0
  0
LINE
  5
C8
330
1F
100
AcDbEntity
  8
0
  6
Continuous
 62
     7
370
    15
100
AcDbLine
 10
309.8598514399
 20
68.107387616
 30
0.0
 11
310.5903659663
 21
68.107387616
 31
0.0
  0
LINE
  5
C9
330
1F
100
AcDbEntity
  8
0
  6
Continuous
 62
     7
370
    15
100
AcDbLine
 10
309.8598514399
 20
78.7073882359
 30
0.0
 11
309.8598514399
 21
68.107387616
 31
0.0
  0
LINE
  5
CA
330
1F
100
AcDbEntity
  8
0
  6
Continuous
 62
     7
370
    15
100
AcDbLine
 10
310.8118866286
 20
79.907393648
 30
0.0
 11
311.5424011549
 21
79.907393648
 31
0.0
  0
ARC
  5
CB
330
1F
100
AcDbEntity
  8
0
  6
Continuous
 62
     7
370
    15
100
AcDbCircle
 10
311.682531516
 20
78.8185643674
 30
0.0
 40
1.097809509998412
100
AcDbArc
 50
97.3335515103
 51
185.8123579011
  0
ARC
  5
CC
330
1F
100
AcDbEntity
  8
0
  6
Continuous
 62
     7
370
    15
100
AcDbCircle
 10
310.9520169896
 20
78.8185643674
 30
0.0
 40
1.097809509998412
100
AcDbArc
 50
97.3335515103
 51
185.8123579011
  0
LINE
  5
CD
330
1F
100
AcDbEntity
  8
0
  6
Continuous
 62
     7
370
    15
100
AcDbLine
 10
311.5424011549
 20
79.907393648
 30
0.0
 11
315.0858376822
 21
79.907393648
 31
0.0
  0
LINE
  5
CE
330
1F
100
AcDbEntity
  8
0
  6
Continuous
 62
     7
370
    15
100
AcDbLine
 10
315.0858376822
 20
79.907393648
 30
0.0
 11
315.0858376822
 21
66.9073822039
 31
0.0
  0
LINE
  5
CF
330
1F
100
AcDbEntity
  8
0
  6
Continuous
 62
     7
370
    15
100
AcDbLine
 10
315.0858376822
 20
66.9073822039
 30
0.0
 11
311.5424011549
 21
66.9073822039
 31
0.0
  0
ARC
  5
D0
330
1F
100
AcDbEntity
  8
0
  6
Continuous
 62
     7
370
    15
100
AcDbCircle
 10
311.682531516
 20
67.9962114844
 30
0.0
 40
1.097809509998412
100
AcDbArc
 50
174.1876420989
 51
262.6664484898
  0
LINE
  5
D1
330
1F
100
AcDbEntity
  8
0
  6
Continuous
 62
     7
370
    15
100
AcDbLine
 10
311.5424011549
 20
66.9073822039
 30
0.0
 11
310.8118866286
 21
66.9073822039
 31
0.0
  0
ARC
  5
D2
330
1F
100
AcDbEntity
  8
0
  6
Continuous
 62
     7
370
    15
100
AcDbCircle
 10
310.9520169896
 20
67.9962114844
 30
0.0
 40
1.097809509998412
100
AcDbArc
 50
174.1876420989
 51
262.6664484898
  0
LINE
  5
D3
330
1F
100
AcDbEntity
  8
0
  6
Continuous
 62
     7
370
    15
100
AcDbLine
 10
310.8118866286
 20
549.9073924559
 30
0.0
 11
311.5424011549
 21
549.9073924559
 31
0.0
  0
ARC
  5
D4
330
1F
100
AcDbEntity
  8
0
  6
Continuous
 62
     7
370
    15
100
AcDbCircle
 10
311.682531516
 20
548.8185631754
 30
0.0
 40
1.097809509998417
100
AcDbArc
 50
97.3335515103
 51
185.8123579011
  0
LINE
  5
D5
330
1F
100
AcDbEntity
  8
0
  6
Continuous
 62
     7
370
    15
100
AcDbLine
 10
310.5903659663
 20
548.7073870438
 30
0.0
 11
309.8598514399
 21
548.7073870438
 31
0.0
  0
ARC
  5
D6
330
1F
100
AcDbEntity
  8
0
  6
Continuous
 62
     7
370
    15
100
AcDbCircle
 10
310.9520169896
 20
548.8185631754
 30
0.0
 40
1.097809509998417
100
AcDbArc
 50
97.3335515103
 51
185.8123579011
  0
LINE
  5
D7
330
1F
100
AcDbEntity
  8
0
  6
Continuous
 62
     7
370
    15
100
AcDbLine
 10
310.5903659663
 20
548.7073870438
 30
0.0
 11
310.5903659663
 21
538.1073864239
 31
0.0
  0
LINE
  5
D8
330
1F
100
AcDbEntity
  8
0
  6
Continuous
 62
     7
370
    15
100
AcDbLine
 10
309.8598514399
 20
538.1073864239
 30
0.0
 11
310.5903659663
 21
538.1073864239
 31
0.0
  0
LINE
  5
D9
330
1F
100
AcDbEntity
  8
0
  6
Continuous
 62
     7
370
    15
100
AcDbLine
 10
309.8598514399
 20
548.7073870438
 30
0.0
 11
309.8598514399
 21
538.1073864239
 31
0.0
  0
LINE
  5
DA
330
1F
100
AcDbEntity
  8
0
  6
Continuous
 62
     7
370
    15
100
AcDbLine
 10
311.5424011549
 20
536.9073810118
 30
0.0
 11
310.8118866286
 21
536.9073810118
 31
0.0
  0
ARC
  5
DB
330
1F
100
AcDbEntity
  8
0
  6
Continuous
 62
     7
370
    15
100
AcDbCircle
 10
310.9520169896
 20
537.9962102923
 30
0.0
 40
1.097809509998417
100
AcDbArc
 50
174.1876420989
 51
262.6664484898
  0
ARC
  5
DC
330
1F
100
AcDbEntity
  8
0
  6
Continuous
 62
     7
370
    15
100
AcDbCircle
 10
311.682531516
 20
537.9962102923
 30
0.0
 40
1.097809509998417
100
AcDbArc
 50
174.1876420989
 51
262.6664484898
  0
LINE
  5
DD
330
1F
100
AcDbEntity
  8
0
  6
Continuous
 62
     7
370
    15
100
AcDbLine
 10
311.5424011549
 20
549.9073924559
 30
0.0
 11
315.0858376822
 21
549.9073924559
 31
0.0
  0
LINE
  5
DE
330
1F
100
AcDbEntity
  8
0
  6
Continuous
 62
     7
370
    15
100
AcDbLine
 10
315.0858376822
 20
549.9073924559
 30
0.0
 11
315.0858376822
 21
536.9073810118
 31
0.0
  0
LINE
  5
DF
330
1F
100
AcDbEntity
  8
0
  6
Continuous
 62
     7
370
    15
100
AcDbLine
 10
315.0858376822
 20
536.9073810118
 30
0.0
 11
311.5424011549
 21
536.9073810118
 31
0.0
  0
LINE
  5
E0
330
1F
100
AcDbEntity
  8
0
  6
Continuous
 62
     7
370
    15
100
AcDbLine
 10
315.1673768362
 20
79.907393648
 30
0.0
 11
315.0858376822
 21
79.907393648
 31
0.0
  0
LINE
  5
E1
330
1F
100
AcDbEntity
  8
0
  6
Continuous
 62
     7
370
    15
100
AcDbLine
 10
315.0858376822
 20
66.9073822039
 30
0.0
 11
315.2193818888
 21
66.9073822039
 31
0.0
  0
LINE
  5
E2
330
1F
100
AcDbEntity
  8
0
  6
Continuous
 62
     7
370
    15
100
AcDbLine
 10
315.1673768362
 20
549.9073924559
 30
0.0
 11
315.0858376822
 21
549.9073924559
 31
0.0
  0
LINE
  5
E3
330
1F
100
AcDbEntity
  8
0
  6
Continuous
 62
     7
370
    15
100
AcDbLine
 10
315.0858376822
 20
536.9073810118
 30
0.0
 11
315.2193818888
 21
536.9073810118
 31
0.0
  0
LINE
  5
E4
330
1F
100
AcDbEntity
  8
0
  6
Continuous
 62
     7
370
    15
100
AcDbLine
 10
309.8598514399
 20
68.7073828715
 30
0.0
 11
309.7550366721
 21
68.7073828715
 31
0.0
  0
LINE
  5
E5
330
1F
100
AcDbEntity
  8
0
  6
Continuous
 62
     7
370
    15
100
AcDbLine
 10
309.8598514399
 20
77.3073943394
 30
0.0
 11
309.7550366721
 21
77.3073943394
 31
0.0
  0
LINE
  5
E6
330
1F
100
AcDbEntity
  8
0
  6
Continuous
 62
     7
370
    15
100
AcDbLine
 10
315.22799476
 20
80.6073905962
 30
0.0
 11
310.3598450026
 21
80.6073905962
 31
0.0
  0
LINE
  5
E7
330
1F
100
AcDbEntity
  8
0
  6
Continuous
 62
     7
370
    15
100
AcDbLine
 10
315.1883278689
 20
81.4073892372
 30
0.0
 11
310.3604708514
 21
81.4073892372
 31
0.0
  0
LINE
  5
E8
330
1F
100
AcDbEntity
  8
0
  6
Continuous
 62
     7
370
    15
100
AcDbLine
 10
315.2340148291
 20
65.4073866146
 30
0.0
 11
310.3604708514
 21
65.4073866146
 31
0.0
  0
LINE
  5
E9
330
1F
100
AcDbEntity
  8
0
  6
Continuous
 62
     7
370
    15
100
AcDbLine
 10
315.2257297835
 20
66.2073852557
 30
0.0
 11
310.3598450026
 21
66.2073852557
 31
0.0
  0
LINE
  5
EA
330
1F
100
AcDbEntity
  8
0
  6
Continuous
 62
     7
370
    15
100
AcDbLine
 10
313.9598463377
 20
81.7073943156
 30
0.0
 11
315.1232097945
 21
81.7073943156
 31
0.0
  0
LINE
  5
EB
330
1F
100
AcDbEntity
  8
0
  6
Continuous
 62
     7
370
    15
100
AcDbLine
 10
315.2863775095
 20
81.7073943156
 30
0.0
 11
315.3486941656
 21
81.7073943156
 31
0.0
  0
LINE
  5
EC
330
1F
100
AcDbEntity
  8
0
  6
Continuous
 62
     7
370
    15
100
AcDbLine
 10
311.7598687014
 20
81.7073943156
 30
0.0
 11
313.9598463377
 21
81.7073943156
 31
0.0
  0
LINE
  5
ED
330
1F
100
AcDbEntity
  8
0
  6
Continuous
 62
     7
370
    15
100
AcDbLine
 10
313.9598463377
 20
64.6073879736
 30
0.0
 11
314.8233686289
 21
64.6073879736
 31
0.0
  0
LINE
  5
EE
330
1F
100
AcDbEntity
  8
0
  6
Continuous
 62
     7
370
    15
100
AcDbLine
 10
311.859855493
 20
64.6073879736
 30
0.0
 11
313.9598463377
 21
64.6073879736
 31
0.0
  0
LINE
  5
EF
330
1F
100
AcDbEntity
  8
0
  6
Continuous
 62
     7
370
    15
100
AcDbLine
 10
313.9598463377
 20
65.0073947447
 30
0.0
 11
315.0632475218
 21
65.0073947447
 31
0.0
  0
LINE
  5
F0
330
1F
100
AcDbEntity
  8
0
  6
Continuous
 62
     7
370
    15
100
AcDbLine
 10
311.859855493
 20
65.0073947447
 30
0.0
 11
313.9598463377
 21
65.0073947447
 31
0.0
  0
ARC
  5
F1
330
1F
100
AcDbEntity
  8
0
  6
Continuous
 62
     7
370
    15
100
AcDbCircle
 10
310.8258004685
 20
80.609549237
 30
0.0
 40
0.8029034246592697
100
AcDbArc
 50
125.4743278821
 51
180.1540423808
  0
ARC
  5
F2
330
1F
100
AcDbEntity
  8
0
  6
Continuous
 62
     7
370
    15
100
AcDbCircle
 10
310.8258004685
 20
66.2052266149
 30
0.0
 40
0.8029034246592812
100
AcDbArc
 50
179.8459576192
 51
234.5256721179
  0
LINE
  5
F3
330
1F
100
AcDbEntity
  8
0
  6
Continuous
 62
     7
370
    15
100
AcDbLine
 10
310.8107541403
 20
66.6573854225
 30
0.0
 11
310.8107541403
 21
66.2073852557
 31
0.0
  0
LINE
  5
F4
330
1F
100
AcDbEntity
  8
0
  6
Continuous
 62
     7
370
    15
100
AcDbLine
 10
310.8107541403
 20
80.6073905962
 30
0.0
 11
310.8107541403
 21
80.1573904293
 31
0.0
  0
LINE
  5
F5
330
1F
100
AcDbEntity
  8
0
  6
Continuous
 62
     7
370
    15
100
AcDbLine
 10
310.0228999457
 20
79.3789388674
 30
0.0
 11
310.0228999457
 21
80.6073905962
 31
0.0
  0
LINE
  5
F6
330
1F
100
AcDbEntity
  8
0
  6
Continuous
 62
     7
370
    15
100
AcDbLine
 10
310.0228999457
 20
66.2073852557
 30
0.0
 11
310.0228999457
 21
67.4358369845
 31
0.0
  0
SPLINE
  5
F7
330
1F
100
AcDbEntity
  8
0
  6
Continuous
 62
     7
370
    15
100
AcDbSpline
210
0.0
220
0.0
230
1.0
 70
    24
 71
     3
 72
    12
 73
     8
 74
     0
 42
0.00000001
 43
0.00000001
 40
0.0
 40
0.0
 40
0.0
 40
0.0
 40
0.2185041607748386
 40
0.4370097499429002
 40
0.655519261637946
 40
0.8740302225829159
 40
1.0
 40
1.0
 40
1.0
 40
1.0
 10
317.0192037424471
 20
80.09978254015925
 30
0.0
 10
316.8224833221704
 20
80.09978254015928
 30
0.0
 10
316.4290411956271
 20
80.09978254015928
 30
0.0
 10
315.8682937544484
 20
80.09978254015918
 30
0.0
 10
315.4505982356758
 20
80.09978254015918
 30
0.0
 10
315.2240353078337
 20
80.09978254015934
 30
0.0
 10
315.2415773435675
 20
80.09978254015923
 30
0.0
 10
315.2479921183016
 20
80.09978254015925
 30
0.0
  0
SPLINE
  5
F8
330
1F
100
AcDbEntity
  8
0
  6
Continuous
 62
     7
370
    15
100
AcDbSpline
210
0.0
220
0.0
230
1.0
 70
    24
 71
     3
 72
     9
 73
     5
 74
     0
 42
0.00000001
 43
0.00000001
 40
0.0
 40
0.0
 40
0.0
 40
0.0
 40
0.1970399618046988
 40
1.0
 40
1.0
 40
1.0
 40
1.0
 10
317.6598642668154
 20
80.09978254015925
 30
0.0
 10
317.627207375247
 20
80.09978254015925
 30
0.0
 10
317.4614699721876
 20
80.09978254015925
 30
0.0
 10
317.2161698987688
 20
80.09978254015925
 30
0.0
 10
317.0192037424471
 20
80.09978254015925
 30
0.0
  0
SPLINE
  5
F9
330
1F
100
AcDbEntity
  8
0
  6
Continuous
 62
     7
370
    15
100
AcDbSpline
210
0.0
220
0.0
230
1.0
 70
     8
 71
     3
 72
    13
 73
     9
 74
     0
 42
0.00000001
 43
0.00000001
 40
0.0
 40
0.0
 40
0.0
 40
0.0
 40
0.1877403276500716
 40
0.375475335694488
 40
0.5632142885515116
 40
0.7509490809462165
 40
0.93868730514789
 40
0.9999999999999999
 40
0.9999999999999999
 40
0.9999999999999999
 40
0.9999999999999999
 10
316.7259190878298
 20
83.71462543185237
 30
0.0
 10
316.5292220870591
 20
83.7119238262781
 30
0.0
 10
316.1358336589098
 20
83.70652069167913
 30
0.0
 10
315.602819942734
 20
83.41597823082274
 30
0.0
 10
315.2122979668744
 20
82.96108236511753
 30
0.0
 10
315.0393491435622
 20
82.3994023261888
 30
0.0
 10
315.0426334702654
 20
81.92621590166927
 30
0.0
 10
315.169948724923
 20
81.70477802988904
 30
0.0
 10
315.2012918791201
 20
81.6502632635403
 30
0.0
  0
SPLINE
  5
FA
330
1F
100
AcDbEntity
  8
0
  6
Continuous
 62
     7
370
    15
100
AcDbSpline
210
0.0
220
0.0
230
1.0
 70
     8
 71
     3
 72
    10
 73
     6
 74
     0
 42
0.00000001
 43
0.00000001
 40
0.0
 40
0.0
 40
0.0
 40
0.0
 40
0.2093333647866524
 40
0.6046781482275657
 40
0.9999999999999999
 40
0.9999999999999999
 40
0.9999999999999999
 40
0.9999999999999999
 10
317.8630863031771
 20
82.9085024135876
 30
0.0
 10
317.8213895925524
 20
83.00156620248548
 30
0.0
 10
317.7009449143071
 20
83.2703892809048
 30
0.0
 10
317.2942146411286
 20
83.5870208860533
 30
0.0
 10
316.9153472761717
 20
83.67209140568482
 30
0.0
 10
316.7259190878298
 20
83.71462543185237
 30
0.0
  0
SPLINE
  5
FB
330
1F
100
AcDbEntity
  8
0
  6
Continuous
 62
     7
370
    15
100
AcDbSpline
210
0.0
220
0.0
230
1.0
 70
     8
 71
     3
 72
    13
 73
     9
 74
     0
 42
0.00000001
 43
0.00000001
 40
0.0
 40
0.0
 40
0.0
 40
0.0
 40
0.1768655441741053
 40
0.3537268808725106
 40
0.5305919338987228
 40
0.7074573141850448
 40
0.8843216807598565
 40
1.0
 40
1.0
 40
1.0
 40
1.0
 10
316.7086933454897
 20
63.07143588240627
 30
0.0
 10
316.512020593109
 20
63.07412186612646
 30
0.0
 10
316.1186797670192
 20
63.07949376966967
 30
0.0
 10
315.585300847774
 20
63.37018267028577
 30
0.0
 10
315.1961698801627
 20
63.82454211773389
 30
0.0
 10
315.0180117423232
 20
64.38824129762664
 30
0.0
 10
315.0389777258195
 20
64.9213915836796
 30
0.0
 10
315.2050588665642
 20
65.19466289708248
 30
0.0
 10
315.2707312902834
 20
65.30272085841182
 30
0.0
  0
SPLINE
  5
FC
330
1F
100
AcDbEntity
  8
0
  6
Continuous
 62
     7
370
    15
100
AcDbSpline
210
0.0
220
0.0
230
1.0
 70
     8
 71
     3
 72
    10
 73
     6
 74
     0
 42
0.00000001
 43
0.00000001
 40
0.0
 40
0.0
 40
0.0
 40
0.0
 40
0.0588225777550384
 40
0.5294258028009099
 40
1.0
 40
1.0
 40
1.0
 40
1.0
 10
317.7388106188204
 20
63.67134173090938
 30
0.0
 10
317.7281761235875
 20
63.64986073971776
 30
0.0
 10
317.6324615801088
 20
63.45652356476513
 30
0.0
 10
317.2715665341246
 20
63.20236541406796
 30
0.0
 10
316.896313883847
 20
63.11507816225406
 30
0.0
 10
316.7086933454897
 20
63.07143588240627
 30
0.0
  0
SPLINE
  5
FD
330
1F
100
AcDbEntity
  8
0
  6
Continuous
 62
     7
370
    15
100
AcDbSpline
210
0.0
220
0.0
230
1.0
 70
    24
 71
     3
 72
    12
 73
     8
 74
     0
 42
0.00000001
 43
0.00000001
 40
0.0
 40
0.0
 40
0.0
 40
0.0
 40
0.2193522884941657
 40
0.4387060109258876
 40
0.6580636711099509
 40
0.877422786169227
 40
1.0
 40
1.0
 40
1.0
 40
1.0
 10
317.0192037424471
 20
66.5411563652325
 30
0.0
 10
316.822488001607
 20
66.54115636523247
 30
0.0
 10
316.4290552339679
 20
66.54115636523247
 30
0.0
 10
315.8682376002366
 20
66.5411563652325
 30
0.0
 10
315.4508088187358
 20
66.54115636523247
 30
0.0
 10
315.2249517089375
 20
66.54115636523252
 30
0.0
 10
315.2419560226142
 20
66.5411563652325
 30
0.0
 10
315.2480517229464
 20
66.5411563652325
 30
0.0
  0
SPLINE
  5
FE
330
1F
100
AcDbEntity
  8
0
  6
Continuous
 62
     7
370
    15
100
AcDbSpline
210
0.0
220
0.0
230
1.0
 70
    24
 71
     3
 72
     9
 73
     5
 74
     0
 42
0.00000001
 43
0.00000001
 40
0.0
 40
0.0
 40
0.0
 40
0.0
 40
0.1970399618046988
 40
1.0
 40
1.0
 40
1.0
 40
1.0
 10
317.6598642668154
 20
66.5411563652325
 30
0.0
 10
317.627207375247
 20
66.54115636523255
 30
0.0
 10
317.4614699721876
 20
66.54115636523244
 30
0.0
 10
317.2161698987688
 20
66.54115636523244
 30
0.0
 10
317.0192037424471
 20
66.5411563652325
 30
0.0
  0
SPLINE
  5
FF
330
1F
100
AcDbEntity
  8
0
  6
Continuous
 62
     7
370
    15
100
AcDbSpline
210
0.0
220
0.0
230
1.0
 70
     8
 71
     3
 72
    13
 73
     9
 74
     0
 42
0.00000001
 43
0.00000001
 40
0.0
 40
0.0
 40
0.0
 40
0.0
 40
0.1768576985124456
 40
0.3537276817053297
 40
0.5305875817102148
 40
0.7074521439525769
 40
0.8843171741316485
 40
0.9999999999999999
 40
0.9999999999999999
 40
0.9999999999999999
 40
0.9999999999999999
 10
315.1568268141177
 20
86.33104582007411
 30
0.0
 10
314.9601660248861
 20
86.32834985186949
 30
0.0
 10
314.566830786204
 20
86.3229577281962
 30
0.0
 10
314.0334345868465
 20
86.03230550347646
 30
0.0
 10
313.6443489300657
 20
85.5779095700476
 30
0.0
 10
313.4661348292103
 20
85.01424571716815
 30
0.0
 10
313.4871039609449
 20
84.48107989555204
 30
0.0
 10
313.6532106407471
 20
84.20781755657733
 30
0.0
 10
313.7188945612337
 20
84.09976084406853
 30
0.0
  0
SPLINE
  5
100
330
1F
100
AcDbEntity
  8
0
  6
Continuous
 62
     7
370
    15
100
AcDbSpline
210
0.0
220
0.0
230
1.0
 70
     8
 71
     3
 72
    10
 73
     6
 74
     0
 42
0.00000001
 43
0.00000001
 40
0.0
 40
0.0
 40
0.0
 40
0.0
 40
0.1474521529467936
 40
0.5737191691814364
 40
0.9999999999999999
 40
0.9999999999999999
 40
0.9999999999999999
 40
0.9999999999999999
 10
316.245416243973
 20
85.6185169952679
 30
0.0
 10
316.2173592606263
 20
85.6788089625167
 30
0.0
 10
316.1081928032115
 20
85.91339799134417
 30
0.0
 10
315.7231279120275
 20
86.20221474192601
 30
0.0
 10
315.3455958859155
 20
86.28810166345757
 30
0.0
 10
315.1568268141177
 20
86.33104582007411
 30
0.0
  0
SPLINE
  5
101
330
1F
100
AcDbEntity
  8
0
  6
Continuous
 62
     7
370
    15
100
AcDbSpline
210
0.0
220
0.0
230
1.0
 70
     8
 71
     3
 72
    13
 73
     9
 74
     0
 42
0.00000001
 43
0.00000001
 40
0.0
 40
0.0
 40
0.0
 40
0.0
 40
0.1768646696685564
 40
0.353730606397486
 40
0.5305885438817114
 40
0.7074553902012259
 40
0.8843184578027109
 40
1.0
 40
1.0
 40
1.0
 40
1.0
 10
315.1396308741
 20
60.45501549418453
 30
0.0
 10
314.9429605154959
 20
60.45771127136479
 30
0.0
 10
314.5496183893392
 20
60.46310284503789
 30
0.0
 10
314.0162052107239
 20
60.7537382052564
 30
0.0
 10
313.6271196592639
 20
61.2081413441265
 30
0.0
 10
313.4489108414037
 20
61.77181118828162
 30
0.0
 10
313.4698779228514
 20
62.30498135563031
 30
0.0
 10
313.6359848145976
 20
62.57824373980697
 30
0.0
 10
313.7016688188937
 20
62.68630047019008
 30
0.0
  0
SPLINE
  5
102
330
1F
100
AcDbEntity
  8
0
  6
Continuous
 62
     7
370
    15
100
AcDbSpline
210
0.0
220
0.0
230
1.0
 70
     8
 71
     3
 72
    10
 73
     6
 74
     0
 42
0.00000001
 43
0.00000001
 40
0.0
 40
0.0
 40
0.0
 40
0.0
 40
0.1474642454108359
 40
0.5737320827069983
 40
1.0
 40
1.0
 40
1.0
 40
1.0
 10
316.2281905016329
 20
61.16754431899074
 30
0.0
 10
316.2001342483798
 20
61.10724682332771
 30
0.0
 10
316.090977126482
 20
60.87265024249305
 30
0.0
 10
315.7059025630082
 20
60.58385697468627
 30
0.0
 10
315.328388115544
 20
60.49796265703841
 30
0.0
 10
315.1396308741
 20
60.45501549418453
 30
0.0
  0
LINE
  5
103
330
1F
100
AcDbEntity
  8
0
  6
Continuous
 62
     7
370
    15
100
AcDbLine
 10
309.8598514399
 20
538.7073816794
 30
0.0
 11
309.7550366721
 21
538.7073816794
 31
0.0
  0
LINE
  5
104
330
1F
100
AcDbEntity
  8
0
  6
Continuous
 62
     7
370
    15
100
AcDbLine
 10
309.8598514399
 20
547.3073931473
 30
0.0
 11
309.7550366721
 21
547.3073931473
 31
0.0
  0
LINE
  5
105
330
1F
100
AcDbEntity
  8
0
  6
Continuous
 62
     7
370
    15
100
AcDbLine
 10
315.2257297835
 20
536.2073840636
 30
0.0
 11
310.3598450026
 21
536.2073840636
 31
0.0
  0
LINE
  5
106
330
1F
100
AcDbEntity
  8
0
  6
Continuous
 62
     7
370
    15
100
AcDbLine
 10
315.2340148291
 20
535.4073854225
 30
0.0
 11
310.3604708514
 21
535.4073854225
 31
0.0
  0
LINE
  5
107
330
1F
100
AcDbEntity
  8
0
  6
Continuous
 62
     7
370
    15
100
AcDbLine
 10
315.1883278689
 20
551.4073880451
 30
0.0
 11
310.3604708514
 21
551.4073880451
 31
0.0
  0
LINE
  5
108
330
1F
100
AcDbEntity
  8
0
  6
Continuous
 62
     7
370
    15
100
AcDbLine
 10
315.22799476
 20
550.6073894041
 30
0.0
 11
310.3598450026
 21
550.6073894041
 31
0.0
  0
LINE
  5
109
330
1F
100
AcDbEntity
  8
0
  6
Continuous
 62
     7
370
    15
100
AcDbLine
 10
313.9598463377
 20
551.7073931235
 30
0.0
 11
315.1232097945
 21
551.7073931235
 31
0.0
  0
LINE
  5
10A
330
1F
100
AcDbEntity
  8
0
  6
Continuous
 62
     7
370
    15
100
AcDbLine
 10
315.2863775095
 20
551.7073931235
 30
0.0
 11
315.3486941656
 21
551.7073931235
 31
0.0
  0
LINE
  5
10B
330
1F
100
AcDbEntity
  8
0
  6
Continuous
 62
     7
370
    15
100
AcDbLine
 10
311.7598687014
 20
551.7073931235
 30
0.0
 11
313.9598463377
 21
551.7073931235
 31
0.0
  0
LINE
  5
10C
330
1F
100
AcDbEntity
  8
0
  6
Continuous
 62
     7
370
    15
100
AcDbLine
 10
313.9598463377
 20
535.0073935526
 30
0.0
 11
315.0632475218
 21
535.0073935526
 31
0.0
  0
LINE
  5
10D
330
1F
100
AcDbEntity
  8
0
  6
Continuous
 62
     7
370
    15
100
AcDbLine
 10
311.859855493
 20
535.0073935526
 30
0.0
 11
313.9598463377
 21
535.0073935526
 31
0.0
  0
LINE
  5
10E
330
1F
100
AcDbEntity
  8
0
  6
Continuous
 62
     7
370
    15
100
AcDbLine
 10
313.9598463377
 20
534.6073867815
 30
0.0
 11
314.8233686289
 21
534.6073867815
 31
0.0
  0
LINE
  5
10F
330
1F
100
AcDbEntity
  8
0
  6
Continuous
 62
     7
370
    15
100
AcDbLine
 10
311.859855493
 20
534.6073867815
 30
0.0
 11
313.9598463377
 21
534.6073867815
 31
0.0
  0
ARC
  5
110
330
1F
100
AcDbEntity
  8
0
  6
Continuous
 62
     7
370
    15
100
AcDbCircle
 10
310.8258004685
 20
550.6095480449
 30
0.0
 40
0.802903424659256
100
AcDbArc
 50
125.4743278821
 51
180.1540423808
  0
ARC
  5
111
330
1F
100
AcDbEntity
  8
0
  6
Continuous
 62
     7
370
    15
100
AcDbCircle
 10
310.8258004685
 20
536.2052254228
 30
0.0
 40
0.802903424659316
100
AcDbArc
 50
179.8459576192
 51
234.5256721179
  0
LINE
  5
112
330
1F
100
AcDbEntity
  8
0
  6
Continuous
 62
     7
370
    15
100
AcDbLine
 10
310.8107541403
 20
536.6573842305
 30
0.0
 11
310.8107541403
 21
536.2073840636
 31
0.0
  0
LINE
  5
113
330
1F
100
AcDbEntity
  8
0
  6
Continuous
 62
     7
370
    15
100
AcDbLine
 10
310.8107541403
 20
550.6073894041
 30
0.0
 11
310.8107541403
 21
550.1573892372
 31
0.0
  0
LINE
  5
114
330
1F
100
AcDbEntity
  8
0
  6
Continuous
 62
     7
370
    15
100
AcDbLine
 10
310.0228999457
 20
549.3789376753
 30
0.0
 11
310.0228999457
 21
550.6073894041
 31
0.0
  0
LINE
  5
115
330
1F
100
AcDbEntity
  8
0
  6
Continuous
 62
     7
370
    15
100
AcDbLine
 10
310.0228999457
 20
536.2073840636
 30
0.0
 11
310.0228999457
 21
537.4358357924
 31
0.0
  0
SPLINE
  5
116
330
1F
100
AcDbEntity
  8
0
  6
Continuous
 62
     7
370
    15
100
AcDbSpline
210
0.0
220
0.0
230
1.0
 70
    24
 71
     3
 72
    12
 73
     8
 74
     0
 42
0.00000001
 43
0.00000001
 40
0.0
 40
0.0
 40
0.0
 40
0.0
 40
0.2185041607748386
 40
0.4370097499429002
 40
0.655519261637946
 40
0.8740302225829159
 40
1.0
 40
1.0
 40
1.0
 40
1.0
 10
317.0192037424471
 20
550.0997813480664
 30
0.0
 10
316.8224833221704
 20
550.0997813480664
 30
0.0
 10
316.4290411956271
 20
550.0997813480664
 30
0.0
 10
315.8682937544484
 20
550.0997813480665
 30
0.0
 10
315.4505982356758
 20
550.0997813480664
 30
0.0
 10
315.2240353078337
 20
550.0997813480662
 30
0.0
 10
315.2415773435675
 20
550.0997813480664
 30
0.0
 10
315.2479921183016
 20
550.0997813480664
 30
0.0
  0
SPLINE
  5
117
330
1F
100
AcDbEntity
  8
0
  6
Continuous
 62
     7
370
    15
100
AcDbSpline
210
0.0
220
0.0
230
1.0
 70
    24
 71
     3
 72
     9
 73
     5
 74
     0
 42
0.00000001
 43
0.00000001
 40
0.0
 40
0.0
 40
0.0
 40
0.0
 40
0.1970399618046988
 40
1.0
 40
1.0
 40
1.0
 40
1.0
 10
317.6598642668154
 20
550.0997813480664
 30
0.0
 10
317.627207375247
 20
550.0997813480664
 30
0.0
 10
317.4614699721876
 20
550.0997813480664
 30
0.0
 10
317.2161698987688
 20
550.0997813480664
 30
0.0
 10
317.0192037424471
 20
550.0997813480664
 30
0.0
  0
SPLINE
  5
118
330
1F
100
AcDbEntity
  8
0
  6
Continuous
 62
     7
370
    15
100
AcDbSpline
210
0.0
220
0.0
230
1.0
 70
     8
 71
     3
 72
    13
 73
     9
 74
     0
 42
0.00000001
 43
0.00000001
 40
0.0
 40
0.0
 40
0.0
 40
0.0
 40
0.1877403276500716
 40
0.375475335694488
 40
0.5632142885515116
 40
0.7509490809462165
 40
0.93868730514789
 40
0.9999999999999999
 40
0.9999999999999999
 40
0.9999999999999999
 40
0.9999999999999999
 10
316.7259190878298
 20
553.7146242397595
 30
0.0
 10
316.5292220870591
 20
553.7119226341852
 30
0.0
 10
316.1358336589098
 20
553.7065194995863
 30
0.0
 10
315.602819942734
 20
553.4159770387299
 30
0.0
 10
315.2122979668744
 20
552.9610811730246
 30
0.0
 10
315.0393491435622
 20
552.399401134096
 30
0.0
 10
315.0426334702654
 20
551.9262147095761
 30
0.0
 10
315.169948724923
 20
551.7047768377962
 30
0.0
 10
315.2012918791201
 20
551.6502620714474
 30
0.0
  0
SPLINE
  5
119
330
1F
100
AcDbEntity
  8
0
  6
Continuous
 62
     7
370
    15
100
AcDbSpline
210
0.0
220
0.0
230
1.0
 70
     8
 71
     3
 72
    10
 73
     6
 74
     0
 42
0.00000001
 43
0.00000001
 40
0.0
 40
0.0
 40
0.0
 40
0.0
 40
0.2093333647866524
 40
0.6046781482275657
 40
0.9999999999999999
 40
0.9999999999999999
 40
0.9999999999999999
 40
0.9999999999999999
 10
317.8630863031771
 20
552.9085012214947
 30
0.0
 10
317.8213895925524
 20
553.0015650103927
 30
0.0
 10
317.7009449143071
 20
553.270388088812
 30
0.0
 10
317.2942146411286
 20
553.5870196939605
 30
0.0
 10
316.9153472761717
 20
553.672090213592
 30
0.0
 10
316.7259190878298
 20
553.7146242397595
 30
0.0
  0
SPLINE
  5
11A
330
1F
100
AcDbEntity
  8
0
  6
Continuous
 62
     7
370
    15
100
AcDbSpline
210
0.0
220
0.0
230
1.0
 70
     8
 71
     3
 72
    13
 73
     9
 74
     0
 42
0.00000001
 43
0.00000001
 40
0.0
 40
0.0
 40
0.0
 40
0.0
 40
0.1768655441741053
 40
0.3537268808725106
 40
0.5305919338987228
 40
0.7074573141850448
 40
0.8843216807598565
 40
1.0
 40
1.0
 40
1.0
 40
1.0
 10
316.7086933454897
 20
533.0714346903134
 30
0.0
 10
316.512020593109
 20
533.0741206740335
 30
0.0
 10
316.1186797670192
 20
533.0794925775767
 30
0.0
 10
315.585300847774
 20
533.3701814781929
 30
0.0
 10
315.1961698801627
 20
533.824540925641
 30
0.0
 10
315.0180117423232
 20
534.3882401055338
 30
0.0
 10
315.0389777258195
 20
534.9213903915867
 30
0.0
 10
315.2050588665642
 20
535.1946617049895
 30
0.0
 10
315.2707312902834
 20
535.3027196663189
 30
0.0
  0
SPLINE
  5
11B
330
1F
100
AcDbEntity
  8
0
  6
Continuous
 62
     7
370
    15
100
AcDbSpline
210
0.0
220
0.0
230
1.0
 70
     8
 71
     3
 72
    10
 73
     6
 74
     0
 42
0.00000001
 43
0.00000001
 40
0.0
 40
0.0
 40
0.0
 40
0.0
 40
0.0588225777550384
 40
0.5294258028009099
 40
1.0
 40
1.0
 40
1.0
 40
1.0
 10
317.7388106188204
 20
533.6713405388165
 30
0.0
 10
317.7281761235875
 20
533.6498595476249
 30
0.0
 10
317.6324615801088
 20
533.4565223726723
 30
0.0
 10
317.2715665341246
 20
533.2023642219752
 30
0.0
 10
316.896313883847
 20
533.1150769701612
 30
0.0
 10
316.7086933454897
 20
533.0714346903134
 30
0.0
  0
SPLINE
  5
11C
330
1F
100
AcDbEntity
  8
0
  6
Continuous
 62
     7
370
    15
100
AcDbSpline
210
0.0
220
0.0
230
1.0
 70
    24
 71
     3
 72
    12
 73
     8
 74
     0
 42
0.00000001
 43
0.00000001
 40
0.0
 40
0.0
 40
0.0
 40
0.0
 40
0.2193522884941657
 40
0.4387060109258876
 40
0.6580636711099509
 40
0.877422786169227
 40
1.0
 40
1.0
 40
1.0
 40
1.0
 10
317.0192037424471
 20
536.5411551731396
 30
0.0
 10
316.822488001607
 20
536.5411551731396
 30
0.0
 10
316.4290552339679
 20
536.5411551731396
 30
0.0
 10
315.8682376002366
 20
536.5411551731396
 30
0.0
 10
315.4508088187358
 20
536.5411551731396
 30
0.0
 10
315.2249517089375
 20
536.5411551731395
 30
0.0
 10
315.2419560226142
 20
536.5411551731396
 30
0.0
 10
315.2480517229464
 20
536.5411551731396
 30
0.0
  0
SPLINE
  5
11D
330
1F
100
AcDbEntity
  8
0
  6
Continuous
 62
     7
370
    15
100
AcDbSpline
210
0.0
220
0.0
230
1.0
 70
    24
 71
     3
 72
     9
 73
     5
 74
     0
 42
0.00000001
 43
0.00000001
 40
0.0
 40
0.0
 40
0.0
 40
0.0
 40
0.1970399618046988
 40
1.0
 40
1.0
 40
1.0
 40
1.0
 10
317.6598642668154
 20
536.5411551731396
 30
0.0
 10
317.627207375247
 20
536.5411551731396
 30
0.0
 10
317.4614699721876
 20
536.5411551731396
 30
0.0
 10
317.2161698987688
 20
536.5411551731396
 30
0.0
 10
317.0192037424471
 20
536.5411551731396
 30
0.0
  0
SPLINE
  5
11E
330
1F
100
AcDbEntity
  8
0
  6
Continuous
 62
     7
370
    15
100
AcDbSpline
210
0.0
220
0.0
230
1.0
 70
     8
 71
     3
 72
    13
 73
     9
 74
     0
 42
0.00000001
 43
0.00000001
 40
0.0
 40
0.0
 40
0.0
 40
0.0
 40
0.1768576985124456
 40
0.3537276817053297
 40
0.5305875817102148
 40
0.7074521439525769
 40
0.8843171741316485
 40
0.9999999999999999
 40
0.9999999999999999
 40
0.9999999999999999
 40
0.9999999999999999
 10
315.1568268141177
 20
556.3310446279812
 30
0.0
 10
314.9601660248861
 20
556.3283486597766
 30
0.0
 10
314.566830786204
 20
556.3229565361032
 30
0.0
 10
314.0334345868465
 20
556.0323043113837
 30
0.0
 10
313.6443489300657
 20
555.5779083779546
 30
0.0
 10
313.4661348292103
 20
555.0142445250754
 30
0.0
 10
313.4871039609449
 20
554.481078703459
 30
0.0
 10
313.6532106407471
 20
554.2078163644844
 30
0.0
 10
313.7188945612337
 20
554.0997596519757
 30
0.0
  0
SPLINE
  5
11F
330
1F
100
AcDbEntity
  8
0
  6
Continuous
 62
     7
370
    15
100
AcDbSpline
210
0.0
220
0.0
230
1.0
 70
     8
 71
     3
 72
    10
 73
     6
 74
     0
 42
0.00000001
 43
0.00000001
 40
0.0
 40
0.0
 40
0.0
 40
0.0
 40
0.1474521529467936
 40
0.5737191691814364
 40
0.9999999999999999
 40
0.9999999999999999
 40
0.9999999999999999
 40
0.9999999999999999
 10
316.245416243973
 20
555.618515803175
 30
0.0
 10
316.2173592606263
 20
555.6788077704238
 30
0.0
 10
316.1081928032115
 20
555.9133967992512
 30
0.0
 10
315.7231279120275
 20
556.202213549833
 30
0.0
 10
315.3455958859155
 20
556.2881004713647
 30
0.0
 10
315.1568268141177
 20
556.3310446279812
 30
0.0
  0
SPLINE
  5
120
330
1F
100
AcDbEntity
  8
0
  6
Continuous
 62
     7
370
    15
100
AcDbSpline
210
0.0
220
0.0
230
1.0
 70
     8
 71
     3
 72
    13
 73
     9
 74
     0
 42
0.00000001
 43
0.00000001
 40
0.0
 40
0.0
 40
0.0
 40
0.0
 40
0.1768650521954994
 40
0.3537334552900266
 40
0.5305917752866345
 40
0.7074547574790687
 40
0.8843182076040318
 40
0.9999999999999999
 40
0.9999999999999999
 40
0.9999999999999999
 40
0.9999999999999999
 10
315.1396308741
 20
530.4550143020916
 30
0.0
 10
314.9429598756408
 20
530.4577088604151
 30
0.0
 10
314.5496141525785
 20
530.4630980281134
 30
0.0
 10
314.0162088102968
 20
530.7537544772156
 30
0.0
 10
313.6271231968983
 20
531.2081505900513
 30
0.0
 10
313.4489090843895
 20
531.771814394739
 30
0.0
 10
313.4698782189821
 20
532.3049802281743
 30
0.0
 10
313.635984898514
 20
532.5782425660306
 30
0.0
 10
313.7016688188937
 20
532.6862992780972
 30
0.0
  0
SPLINE
  5
121
330
1F
100
AcDbEntity
  8
0
  6
Continuous
 62
     7
370
    15
100
AcDbSpline
210
0.0
220
0.0
230
1.0
 70
     8
 71
     3
 72
    10
 73
     6
 74
     0
 42
0.00000001
 43
0.00000001
 40
0.0
 40
0.0
 40
0.0
 40
0.0
 40
0.1474642454108359
 40
0.5737320827069983
 40
1.0
 40
1.0
 40
1.0
 40
1.0
 10
316.2281905016329
 20
531.1675431268978
 30
0.0
 10
316.2001342483798
 20
531.107245631235
 30
0.0
 10
316.090977126482
 20
530.8726490504004
 30
0.0
 10
315.7059025630082
 20
530.5838557825933
 30
0.0
 10
315.328388115544
 20
530.4979614649454
 30
0.0
 10
315.1396308741
 20
530.4550143020916
 30
0.0
  0
LINE
  5
122
330
1F
100
AcDbEntity
  8
0
  6
Continuous
 62
     7
370
    15
100
AcDbLine
 10
819.7612260184
 20
63.4073825615
 30
0.0
 11
819.7612260184
 21
28.4073861378
 31
0.0
  0
LINE
  5
123
330
1F
100
AcDbEntity
  8
0
  6
Continuous
 62
     7
370
    15
100
AcDbLine
 10
830.3598557314
 20
63.4073825615
 30
0.0
 11
819.7612260184
 21
63.4073825615
 31
0.0
  0
LINE
  5
124
330
1F
100
AcDbEntity
  8
0
  6
Continuous
 62
     7
370
    15
100
AcDbLine
 10
830.3598557314
 20
28.4073861378
 30
0.0
 11
819.7612260184
 21
28.4073861378
 31
0.0
  0
LINE
  5
125
330
1F
100
AcDbEntity
  8
0
  6
Continuous
 62
     7
370
    15
100
AcDbLine
 10
819.7612260184
 20
588.407388522
 30
0.0
 11
819.7612260184
 21
553.4073920983
 31
0.0
  0
LINE
  5
126
330
1F
100
AcDbEntity
  8
0
  6
Continuous
 62
     7
370
    15
100
AcDbLine
 10
830.3598557314
 20
588.407388522
 30
0.0
 11
819.7612260184
 21
588.407388522
 31
0.0
  0
LINE
  5
127
330
1F
100
AcDbEntity
  8
0
  6
Continuous
 62
     7
370
    15
100
AcDbLine
 10
830.3598557314
 20
553.4073920983
 30
0.0
 11
819.7612260184
 21
553.4073920983
 31
0.0
  0
LINE
  5
128
330
1F
100
AcDbEntity
  8
0
  6
Continuous
 62
     7
370
    15
100
AcDbLine
 10
827.3598645529
 20
100.4073830384
 30
0.0
 11
822.3598693213
 21
100.4073830384
 31
0.0
  0
LINE
  5
129
330
1F
100
AcDbEntity
  8
0
  6
Continuous
 62
     7
370
    15
100
AcDbLine
 10
822.3598693213
 20
516.4073916214
 30
0.0
 11
827.3598645529
 21
516.4073916214
 31
0.0
  0
LINE
  5
12A
330
1F
100
AcDbEntity
  8
0
  6
Continuous
 62
     7
370
    15
100
AcDbLine
 10
819.2977104983
 20
28.4073861378
 30
0.0
 11
819.2977104983
 21
63.4073825615
 31
0.0
  0
LINE
  5
12B
330
1F
100
AcDbEntity
  8
0
  6
Continuous
 62
     7
370
    15
100
AcDbLine
 10
819.2977104983
 20
63.4073825615
 30
0.0
 11
819.7612260184
 21
63.4073825615
 31
0.0
  0
LINE
  5
12C
330
1F
100
AcDbEntity
  8
0
  6
Continuous
 62
     7
370
    15
100
AcDbLine
 10
819.7612260184
 20
28.4073861378
 30
0.0
 11
819.2977104983
 21
28.4073861378
 31
0.0
  0
LINE
  5
12D
330
1F
100
AcDbEntity
  8
0
  6
Continuous
 62
     7
370
    15
100
AcDbLine
 10
819.2977104983
 20
553.4073920983
 30
0.0
 11
819.2977104983
 21
588.407388522
 31
0.0
  0
LINE
  5
12E
330
1F
100
AcDbEntity
  8
0
  6
Continuous
 62
     7
370
    15
100
AcDbLine
 10
819.2977104983
 20
588.407388522
 30
0.0
 11
819.7612260184
 21
588.407388522
 31
0.0
  0
LINE
  5
12F
330
1F
100
AcDbEntity
  8
0
  6
Continuous
 62
     7
370
    15
100
AcDbLine
 10
819.7612260184
 20
553.4073920983
 30
0.0
 11
819.2977104983
 21
553.4073920983
 31
0.0
  0
LINE
  5
130
330
1F
100
AcDbEntity
  8
0
  6
Continuous
 62
     7
370
    15
100
AcDbLine
 10
819.2977104983
 20
588.407388522
 30
0.0
 11
818.8598547778
 21
588.407388522
 31
0.0
  0
LINE
  5
131
330
1F
100
AcDbEntity
  8
0
  6
Continuous
 62
     7
370
    15
100
AcDbLine
 10
819.2977104983
 20
553.4073920983
 30
0.0
 11
818.8598547778
 21
553.4073920983
 31
0.0
  0
LINE
  5
132
330
1F
100
AcDbEntity
  8
0
  6
Continuous
 62
     7
370
    15
100
AcDbLine
 10
819.2977104983
 20
63.4073825615
 30
0.0
 11
818.8598547778
 21
63.4073825615
 31
0.0
  0
LINE
  5
133
330
1F
100
AcDbEntity
  8
0
  6
Continuous
 62
     7
370
    15
100
AcDbLine
 10
819.2977104983
 20
28.4073861378
 30
0.0
 11
818.8598547778
 21
28.4073861378
 31
0.0
  0
LINE
  5
134
330
1F
100
AcDbEntity
  8
0
  6
Continuous
 62
     7
370
    15
100
AcDbLine
 10
313.6598561606
 20
66.6573854225
 30
0.0
 11
310.5598483881
 21
66.6573854225
 31
0.0
  0
LINE
  5
135
330
1F
100
AcDbEntity
  8
0
  6
Continuous
 62
     7
370
    15
100
AcDbLine
 10
313.6598561606
 20
80.1573904293
 30
0.0
 11
315.2199183306
 21
80.1573904293
 31
0.0
  0
LINE
  5
136
330
1F
100
AcDbEntity
  8
0
  6
Continuous
 62
     7
370
    15
100
AcDbLine
 10
313.6598561606
 20
66.6573854225
 30
0.0
 11
315.2193818888
 21
66.6573854225
 31
0.0
  0
LINE
  5
137
330
1F
100
AcDbEntity
  8
0
  6
Continuous
 62
     7
370
    15
100
AcDbLine
 10
313.6598561606
 20
80.1573904293
 30
0.0
 11
310.5598483881
 21
80.1573904293
 31
0.0
  0
LINE
  5
138
330
1F
100
AcDbEntity
  8
0
  6
Continuous
 62
     7
370
    15
100
AcDbLine
 10
313.6598561606
 20
550.1573892372
 30
0.0
 11
310.5598483881
 21
550.1573892372
 31
0.0
  0
LINE
  5
139
330
1F
100
AcDbEntity
  8
0
  6
Continuous
 62
     7
370
    15
100
AcDbLine
 10
313.6598561606
 20
536.6573842305
 30
0.0
 11
310.5598483881
 21
536.6573842305
 31
0.0
  0
LINE
  5
13A
330
1F
100
AcDbEntity
  8
0
  6
Continuous
 62
     7
370
    15
100
AcDbLine
 10
313.6598561606
 20
550.1573892372
 30
0.0
 11
315.0827382407
 21
550.1573892372
 31
0.0
  0
LINE
  5
13B
330
1F
100
AcDbEntity
  8
0
  6
Continuous
 62
     7
370
    15
100
AcDbLine
 10
313.6598561606
 20
536.6573842305
 30
0.0
 11
315.1171897253
 21
536.6573842305
 31
0.0
  0
LINE
  5
13C
330
1F
100
AcDbEntity
  8
0
  6
Continuous
 62
     8
370
    15
100
AcDbLine
 10
313.6598561606
 20
66.9073822039
 30
0.0
 11
313.6598561606
 21
66.6573854225
 31
0.0
  0
LINE
  5
13D
330
1F
100
AcDbEntity
  8
0
  6
Continuous
 62
     8
370
    15
100
AcDbLine
 10
313.6598561606
 20
80.1573904293
 30
0.0
 11
313.6598561606
 21
79.907393648
 31
0.0
  0
LINE
  5
13E
330
1F
100
AcDbEntity
  8
0
  6
Continuous
 62
     8
370
    15
100
AcDbLine
 10
313.6598561606
 20
550.1573892372
 30
0.0
 11
313.6598561606
 21
549.9073924559
 31
0.0
  0
LINE
  5
13F
330
1F
100
AcDbEntity
  8
0
  6
Continuous
 62
     8
370
    15
100
AcDbLine
 10
313.6598561606
 20
536.9073810118
 30
0.0
 11
313.6598561606
 21
536.6573842305
 31
0.0
  0
LINE
  5
140
330
1F
100
AcDbEntity
  8
0
  6
Continuous
 62
     7
370
    15
100
AcDbLine
 10
247.5499519955
 20
549.9073924559
 30
0.0
 11
247.5499519955
 21
536.9073810118
 31
0.0
  0
LINE
  5
141
330
1F
100
AcDbEntity
  8
0
  6
Continuous
 62
     7
370
    15
100
AcDbLine
 10
247.5499519955
 20
79.907393648
 30
0.0
 11
247.5499519955
 21
66.9073822039
 31
0.0
  0
LINE
  5
142
330
1F
100
AcDbEntity
  8
0
  6
Continuous
 62
     7
370
    15
100
AcDbLine
 10
237.7599486958
 20
80.6073905962
 30
0.0
 11
237.7599486958
 21
81.4073892372
 31
0.0
  0
LINE
  5
143
330
1F
100
AcDbEntity
  8
0
  6
Continuous
 62
     7
370
    15
100
AcDbLine
 10
237.7599486958
 20
65.4073866146
 30
0.0
 11
237.7599486958
 21
66.2073852557
 31
0.0
  0
LINE
  5
144
330
1F
100
AcDbEntity
  8
0
  6
Continuous
 62
     7
370
    15
100
AcDbLine
 10
232.8299442183
 20
81.7073943156
 30
0.0
 11
232.8299442183
 21
81.4073892372
 31
0.0
  0
LINE
  5
145
330
1F
100
AcDbEntity
  8
0
  6
Continuous
 62
     7
370
    15
100
AcDbLine
 10
237.2299441944
 20
81.4073892372
 30
0.0
 11
237.2299441944
 21
81.7073943156
 31
0.0
  0
ARC
  5
146
330
1F
100
AcDbEntity
  8
0
  6
Continuous
 62
     7
370
    15
100
AcDbCircle
 10
235.0299488484
 20
78.6002444728
 30
0.0
 40
3.807142857143287
100
AcDbArc
 50
54.6997515601
 51
125.3002484399
  0
LINE
  5
147
330
1F
100
AcDbEntity
  8
0
  6
Continuous
 62
     7
370
    15
100
AcDbLine
 10
232.929945911
 20
65.0073947447
 30
0.0
 11
232.929945911
 21
64.6073879736
 31
0.0
  0
LINE
  5
148
330
1F
100
AcDbEntity
  8
0
  6
Continuous
 62
     7
370
    15
100
AcDbLine
 10
237.1299425017
 20
64.6073879736
 30
0.0
 11
237.1299425017
 21
65.0073947447
 31
0.0
  0
ARC
  5
149
330
1F
100
AcDbEntity
  8
0
  6
Continuous
 62
     7
370
    15
100
AcDbCircle
 10
233.1299488484
 20
65.4073873299
 30
0.0
 40
0.4000000000008015
100
AcDbArc
 50
270.0
 51
0.0
  0
ARC
  5
14A
330
1F
100
AcDbEntity
  8
0
  6
Continuous
 62
     7
370
    15
100
AcDbCircle
 10
236.9299488484
 20
65.4073873299
 30
0.0
 40
0.4000000000008015
100
AcDbArc
 50
180.0
 51
270.0
  0
LINE
  5
14B
330
1F
100
AcDbEntity
  8
0
  6
Continuous
 62
     7
370
    15
100
AcDbLine
 10
233.5299560677
 20
80.6073905962
 30
0.0
 11
233.5299560677
 21
80.1573904293
 31
0.0
  0
LINE
  5
14C
330
1F
100
AcDbEntity
  8
0
  6
Continuous
 62
     7
370
    15
100
AcDbLine
 10
233.5299560677
 20
79.1573884028
 30
0.0
 11
233.5299560677
 21
78.6686899203
 31
0.0
  0
LINE
  5
14D
330
1F
100
AcDbEntity
  8
0
  6
Continuous
 62
     7
370
    15
100
AcDbLine
 10
233.5299560677
 20
77.8725655812
 30
0.0
 11
233.5299560677
 21
77.716878249
 31
0.0
  0
LINE
  5
14E
330
1F
100
AcDbEntity
  8
0
  6
Continuous
 62
     7
370
    15
100
AcDbLine
 10
233.5299560677
 20
68.4177639025
 30
0.0
 11
233.5299560677
 21
67.6573874491
 31
0.0
  0
LINE
  5
14F
330
1F
100
AcDbEntity
  8
0
  6
Continuous
 62
     7
370
    15
100
AcDbLine
 10
233.5299560677
 20
66.6573854225
 30
0.0
 11
233.5299560677
 21
66.2073852557
 31
0.0
  0
LINE
  5
150
330
1F
100
AcDbEntity
  8
0
  6
Continuous
 62
     7
370
    15
100
AcDbLine
 10
236.5299472462
 20
66.2073852557
 30
0.0
 11
236.5299472462
 21
66.6573854225
 31
0.0
  0
LINE
  5
151
330
1F
100
AcDbEntity
  8
0
  6
Continuous
 62
     7
370
    15
100
AcDbLine
 10
236.5299472462
 20
67.6573874491
 30
0.0
 11
236.5299472462
 21
68.1445362109
 31
0.0
  0
LINE
  5
152
330
1F
100
AcDbEntity
  8
0
  6
Continuous
 62
     7
370
    15
100
AcDbLine
 10
236.5299472462
 20
77.4524422425
 30
0.0
 11
236.5299472462
 21
77.6403905886
 31
0.0
  0
LINE
  5
153
330
1F
100
AcDbEntity
  8
0
  6
Continuous
 62
     7
370
    15
100
AcDbLine
 10
236.5299472462
 20
78.3954622286
 30
0.0
 11
236.5299472462
 21
79.1573884028
 31
0.0
  0
LINE
  5
154
330
1F
100
AcDbEntity
  8
0
  6
Continuous
 62
     7
370
    15
100
AcDbLine
 10
236.5299472462
 20
80.1573904293
 30
0.0
 11
236.5299472462
 21
80.6073905962
 31
0.0
  0
SPLINE
  5
155
330
1F
100
AcDbEntity
  8
0
  6
Continuous
 62
     7
370
    15
100
AcDbSpline
210
0.0
220
0.0
230
1.0
 70
     8
 71
     3
 72
    15
 73
    11
 74
     0
 42
0.00000001
 43
0.00000001
 40
0.0
 40
0.0
 40
0.0
 40
0.0
 40
0.135596524218426
 40
0.2953255930354361
 40
0.4038106354482965
 40
0.5319576936985174
 40
0.6738361567850103
 40
0.826100990935627
 40
0.9126193315542663
 40
0.9999999999999999
 40
0.9999999999999999
 40
0.9999999999999999
 40
0.9999999999999999
 10
236.5299472461889
 20
67.97342617686274
 30
0.0
 10
236.5743295144634
 20
67.96610576691408
 30
0.0
 10
236.6709929044282
 20
67.9501621103801
 30
0.0
 10
236.8778431422751
 20
67.99783306148922
 30
0.0
 10
237.0710997611528
 20
68.08554883004689
 30
0.0
 10
237.2176877163753
 20
68.20521640271721
 30
0.0
 10
237.3163947948528
 20
68.35612447438882
 30
0.0
 10
237.3460511488124
 20
68.47795241896715
 30
0.0
 10
237.3248818198655
 20
68.60720350065722
 30
0.0
 10
237.2786240517926
 20
68.67387953714926
 30
0.0
 10
237.255380476589
 20
68.70738287146568
 30
0.0
  0
SPLINE
  5
156
330
1F
100
AcDbEntity
  8
0
  6
Continuous
 62
     7
370
    15
100
AcDbSpline
210
0.0
220
0.0
230
1.0
 70
     8
 71
     3
 72
    20
 73
    16
 74
     0
 42
0.00000001
 43
0.00000001
 40
0.0
 40
0.0
 40
0.0
 40
0.0
 40
0.0607080703525387
 40
0.2265356748708075
 40
0.3908031508966114
 40
0.47059448168422
 40
0.5476204260356007
 40
0.6228574358877381
 40
0.7003372698834802
 40
0.7786473610714315
 40
0.8566576136431394
 40
0.9330986217031314
 40
0.9703734372930525
 40
0.9892322546654578
 40
1.0
 40
1.0
 40
1.0
 40
1.0
 10
232.7937492977331
 20
68.70738287146571
 30
0.0
 10
232.8400241661361
 20
68.65405142582549
 30
0.0
 10
233.0127015133547
 20
68.45504205261047
 30
0.0
 10
233.4296599371984
 20
68.43711519465437
 30
0.0
 10
233.9946289233873
 20
68.36208994336934
 30
0.0
 10
234.5142392388079
 20
68.31915223682253
 30
0.0
 10
234.9081303178629
 20
68.28859166129139
 30
0.0
 10
235.3010421437268
 20
68.2609196632624
 30
0.0
 10
235.6822035212532
 20
68.22961102090972
 30
0.0
 10
236.0379275252542
 20
68.19712869178049
 30
0.0
 10
236.3405506161017
 20
68.16632675082963
 30
0.0
 10
236.5330676468188
 20
68.14339123357524
 30
0.0
 10
236.6211827223081
 20
68.13538489217515
 30
0.0
 10
236.666609842389
 20
68.12758972499205
 30
0.0
 10
236.6660604232783
 20
68.13154886525675
 30
0.0
 10
236.665860737438
 20
68.13298781092647
 30
0.0
  0
SPLINE
  5
157
330
1F
100
AcDbEntity
  8
0
  6
Continuous
 62
     7
370
    15
100
AcDbSpline
210
0.0
220
0.0
230
1.0
 70
     8
 71
     3
 72
    18
 73
    14
 74
     0
 42
0.00000001
 43
0.00000001
 40
0.0
 40
0.0
 40
0.0
 40
0.0
 40
0.005750901312886
 40
0.1156365085951078
 40
0.2383915781740809
 40
0.3593074919734304
 40
0.4757058261774768
 40
0.587213241086234
 40
0.7047338023862616
 40
0.8265047115699417
 40
0.8891451544712452
 40
0.9517986728193887
 40
1.0
 40
1.0
 40
1.0
 40
1.0
 10
237.0365718256186
 20
77.35421378787044
 30
0.0
 10
237.0319245926133
 20
77.35716598372211
 30
0.0
 10
236.9384801444959
 20
77.41652739550887
 30
0.0
 10
236.7161738310323
 20
77.42270545461031
 30
0.0
 10
236.32477547349
 20
77.48190794064801
 30
0.0
 10
235.8128972420349
 20
77.52744472925274
 30
0.0
 10
235.2618655473479
 20
77.57361153416251
 30
0.0
 10
234.6997479124693
 20
77.61249106430179
 30
0.0
 10
234.1654679330215
 20
77.65724454917358
 30
0.0
 10
233.767827531458
 20
77.69828469100968
 30
0.0
 10
233.5530996207728
 20
77.71943236542495
 30
0.0
 10
233.4570524786579
 20
77.7217077421322
 30
0.0
 10
233.4416039208084
 20
77.70563004731635
 30
0.0
 10
233.4348866592596
 20
77.69863922770503
 30
0.0
  0
SPLINE
  5
158
330
1F
100
AcDbEntity
  8
0
  6
Continuous
 62
     7
370
    15
100
AcDbSpline
210
0.0
220
0.0
230
1.0
 70
     8
 71
     3
 72
    12
 73
     8
 74
     0
 42
0.00000001
 43
0.00000001
 40
0.0
 40
0.0
 40
0.0
 40
0.0
 40
0.2236853795816241
 40
0.4523160769523714
 40
0.682243963857253
 40
0.9102242834447114
 40
0.9999999999999999
 40
0.9999999999999999
 40
0.9999999999999999
 40
0.9999999999999999
 10
232.7356496702383
 20
78.50923259432793
 30
0.0
 10
232.7229083122297
 20
78.46669008902582
 30
0.0
 10
232.6971439056319
 20
78.38066453322959
 30
0.0
 10
232.8183005696177
 20
78.28904295912875
 30
0.0
 10
233.0499649386107
 20
78.19271502538832
 30
0.0
 10
233.2948277412166
 20
78.13025283565433
 30
0.0
 10
233.4781593331873
 20
78.13545680323999
 30
0.0
 10
233.5299560676764
 20
78.13692708189967
 30
0.0
  0
SPLINE
  5
159
330
1F
100
AcDbEntity
  8
0
  6
Continuous
 62
     7
370
    15
100
AcDbSpline
210
0.0
220
0.0
230
1.0
 70
     8
 71
     3
 72
    19
 73
    15
 74
     0
 42
0.00000001
 43
0.00000001
 40
0.0
 40
0.0
 40
0.0
 40
0.0
 40
0.097905926904403
 40
0.1753762581042611
 40
0.2884839064449838
 40
0.3734533498119171
 40
0.4570019163582772
 40
0.616887651372184
 40
0.6796676605733577
 40
0.7634259747055082
 40
0.8137554513749908
 40
0.8702985965080506
 40
0.9324002880724418
 40
0.9999999999999999
 40
0.9999999999999999
 40
0.9999999999999999
 40
0.9999999999999999
 10
232.911885703678
 20
78.01411171133995
 30
0.0
 10
232.962395058278
 20
77.98773061048448
 30
0.0
 10
233.0528711090045
 20
77.94047485285077
 30
0.0
 10
233.4275107394952
 20
77.87982579864075
 30
0.0
 10
233.9140135111666
 20
77.82593622404552
 30
0.0
 10
234.5053532909549
 20
77.77271278665334
 30
0.0
 10
235.2594481505069
 20
77.72116054062606
 30
0.0
 10
235.9005584800597
 20
77.6542246258233
 30
0.0
 10
236.5498185260724
 20
77.61870646920754
 30
0.0
 10
236.9281638251895
 20
77.69688688312301
 30
0.0
 10
237.1800058808206
 20
77.8050963381059
 30
0.0
 10
237.3135964363588
 20
77.89341536535133
 30
0.0
 10
237.3753706519474
 20
77.96725564753082
 30
0.0
 10
237.3039266884138
 20
78.04778073793611
 30
0.0
 10
237.2666904579351
 20
78.08975000555995
 30
0.0
  0
SPLINE
  5
15A
330
1F
100
AcDbEntity
  8
0
  6
Continuous
 62
     7
370
    15
100
AcDbSpline
210
0.0
220
0.0
230
1.0
 70
     8
 71
     3
 72
    25
 73
    21
 74
     0
 42
0.00000001
 43
0.00000001
 40
0.0
 40
0.0
 40
0.0
 40
0.0
 40
0.0176257152332822
 40
0.0344972878751767
 40
0.0503151928262487
 40
0.0649722332787061
 40
0.0909443007661495
 40
0.1134367202712146
 40
0.1538393106223322
 40
0.1912330264523711
 40
0.2995696854287082
 40
0.3999623312216071
 40
0.5012942975292105
 40
0.5949046217113428
 40
0.678488170197744
 40
0.7336282960994625
 40
0.8075181316366539
 40
0.8952811567272466
 40
0.9453086460221393
 40
1.0
 40
1.0
 40
1.0
 40
1.0
 10
236.9093755136679
 20
77.46416945631981
 30
0.0
 10
236.9490796787693
 20
77.46855953914728
 30
0.0
 10
237.0267892068774
 20
77.47715186854165
 30
0.0
 10
237.1286826512412
 20
77.52316583061048
 30
0.0
 10
237.2096845610261
 20
77.5821147456409
 30
0.0
 10
237.2859013784499
 20
77.66569522806368
 30
0.0
 10
237.3389442859684
 20
77.76932992597894
 30
0.0
 10
237.3630919092965
 20
77.90168958741927
 30
0.0
 10
237.340218767632
 20
78.03353944345517
 30
0.0
 10
237.1689721112121
 20
78.27874588592432
 30
0.0
 10
236.8261930760126
 20
78.36583826851206
 30
0.0
 10
236.3310771191942
 20
78.42439686174501
 30
0.0
 10
235.7178653389682
 20
78.48274049152609
 30
0.0
 10
235.0683892265928
 20
78.53236490980461
 30
0.0
 10
234.5286939204216
 20
78.57185034720202
 30
0.0
 10
234.0826734409187
 20
78.61102847736225
 30
0.0
 10
233.6939872654006
 20
78.6492568639246
 30
0.0
 10
233.4338094633138
 20
78.67708577636701
 30
0.0
 10
233.3033831805829
 20
78.699601432596
 30
0.0
 10
233.2947107961697
 20
78.71205828504374
 30
0.0
 10
233.2901814829062
 20
78.7185641067791
 30
0.0
  0
SPLINE
  5
15B
330
1F
100
AcDbEntity
  8
0
  6
Continuous
 62
     7
370
    15
100
AcDbSpline
210
0.0
220
0.0
230
1.0
 70
     8
 71
     3
 72
    12
 73
     8
 74
     0
 42
0.00000001
 43
0.00000001
 40
0.0
 40
0.0
 40
0.0
 40
0.0
 40
0.1756461954222045
 40
0.5723020993583655
 40
0.7586211437608602
 40
0.920748017050884
 40
1.0
 40
1.0
 40
1.0
 40
1.0
 10
233.3785155664633
 20
77.90007312472346
 30
0.0
 10
233.3129518762337
 20
77.89090242356062
 30
0.0
 10
233.0993279063557
 20
77.86102183596522
 30
0.0
 10
232.8834093126512
 20
77.78708711249327
 30
0.0
 10
232.7222510319649
 20
77.5721707871721
 30
0.0
 10
232.6910478980556
 20
77.41192317273126
 30
0.0
 10
232.7220226518374
 20
77.33327614365415
 30
0.0
 10
232.7321926008414
 20
77.30745394404411
 30
0.0
  0
LINE
  5
15C
330
1F
100
AcDbEntity
  8
0
  6
Continuous
 62
     7
370
    15
100
AcDbLine
 10
232.8897127758
 20
68.6096461552
 30
0.0
 11
231.7712465178
 21
68.6096461552
 31
0.0
  0
LINE
  5
15D
330
1F
100
AcDbEntity
  8
0
  6
Continuous
 62
     7
370
    15
100
AcDbLine
 10
231.7712465178
 20
67.8096475142
 30
0.0
 11
233.5299560677
 21
67.8096475142
 31
0.0
  0
LINE
  5
15E
330
1F
100
AcDbEntity
  8
0
  6
Continuous
 62
     7
370
    15
100
AcDbLine
 10
230.3609559189
 20
81.4073892372
 30
0.0
 11
230.3609559189
 21
81.4608546036
 31
0.0
  0
LINE
  5
15F
330
1F
100
AcDbEntity
  8
0
  6
Continuous
 62
     7
370
    15
100
AcDbLine
 10
227.3609647404
 20
81.4608546036
 30
0.0
 11
227.3609647404
 21
81.4073892372
 31
0.0
  0
SPLINE
  5
160
330
1F
100
AcDbEntity
  8
0
  6
Continuous
 62
     7
370
    15
100
AcDbSpline
210
0.0
220
0.0
230
1.0
 70
     8
 71
     3
 72
    15
 73
    11
 74
     0
 42
0.00000001
 43
0.00000001
 40
0.0
 40
0.0
 40
0.0
 40
0.0
 40
0.1077555984635169
 40
0.23525132098926
 40
0.3627905294629136
 40
0.4902569079919491
 40
0.6176632052480955
 40
0.745097043409137
 40
0.8724966518631685
 40
1.0
 40
1.0
 40
1.0
 40
1.0
 10
227.3770132909964
 20
65.4073866146374
 30
0.0
 10
227.3935524196175
 20
65.09486436976411
 30
0.0
 10
227.42966053754
 20
64.41256783952984
 30
0.0
 10
227.765873232328
 20
63.40341994652157
 30
0.0
 10
228.3239527599247
 20
62.43994122182023
 30
0.0
 10
229.0787780093097
 20
61.61901372738179
 30
0.0
 10
229.9939421091206
 20
60.98374828073547
 30
0.0
 10
231.021197566351
 20
60.56358742931805
 30
0.0
 10
232.1171752150356
 20
60.34978639872324
 30
0.0
 10
232.8529356518866
 20
60.41531088007149
 30
0.0
 10
233.2209655891607
 20
60.44808645422939
 30
0.0
  0
SPLINE
  5
161
330
1F
100
AcDbEntity
  8
0
  6
Continuous
 62
     7
370
    15
100
AcDbSpline
210
0.0
220
0.0
230
1.0
 70
     8
 71
     3
 72
    15
 73
    11
 74
     0
 42
0.00000001
 43
0.00000001
 40
0.0
 40
0.0
 40
0.0
 40
0.0
 40
0.1316482969619113
 40
0.2633124770330245
 40
0.395188977732187
 40
0.5266689414245758
 40
0.6575479995356969
 40
0.7882111448988456
 40
0.9184605172600675
 40
1.0
 40
1.0
 40
1.0
 40
1.0
 10
232.7232668052862
 20
63.40577323611263
 30
0.0
 10
232.5710888401059
 20
63.3939589967879
 30
0.0
 10
232.2667145497718
 20
63.37032909277357
 30
0.0
 10
231.8158455154339
 20
63.47179650010781
 30
0.0
 10
231.3968245172138
 20
63.6586714061578
 30
0.0
 10
231.0264301930374
 20
63.93125972579134
 30
0.0
 10
230.7241631144193
 20
64.2771647742899
 30
0.0
 10
230.5050054795518
 20
64.67887208559524
 30
0.0
 10
230.3876517176248
 20
65.06518644818726
 30
0.0
 10
230.3774681217267
 20
65.31226172908686
 30
0.0
 10
230.373547400112
 20
65.4073866146374
 30
0.0
  0
SPLINE
  5
162
330
1F
100
AcDbEntity
  8
0
  6
Continuous
 62
     7
370
    15
100
AcDbSpline
210
0.0
220
0.0
230
1.0
 70
     8
 71
     3
 72
    15
 73
    11
 74
     0
 42
0.00000001
 43
0.00000001
 40
0.0
 40
0.0
 40
0.0
 40
0.0
 40
0.1249271724452606
 40
0.2499156778186059
 40
0.3749661225157206
 40
0.4999574189332024
 40
0.6249212965006179
 40
0.749916905720849
 40
0.8748746059781706
 40
1.0
 40
1.0
 40
1.0
 40
1.0
 10
233.3918372045706
 20
86.33791525538447
 30
0.0
 10
233.0254605364923
 20
86.38124785071452
 30
0.0
 10
232.2925273279078
 20
86.46793431548896
 30
0.0
 10
231.1885044974037
 20
86.30273501801328
 30
0.0
 10
230.1477015771443
 20
85.91381328768568
 30
0.0
 10
229.2125150179655
 20
85.30878729227615
 30
0.0
 10
228.4318582611046
 20
84.51260322948892
 30
0.0
 10
227.8439022577279
 20
83.56823329641588
 30
0.0
 10
227.4480790736071
 20
82.51979002023285
 30
0.0
 10
227.3900158296077
 20
81.78066935160325
 30
0.0
 10
227.3609647403906
 20
81.41086120779994
 30
0.0
  0
SPLINE
  5
163
330
1F
100
AcDbEntity
  8
0
  6
Continuous
 62
     7
370
    15
100
AcDbSpline
210
0.0
220
0.0
230
1.0
 70
     8
 71
     3
 72
    15
 73
    11
 74
     0
 42
0.00000001
 43
0.00000001
 40
0.0
 40
0.0
 40
0.0
 40
0.0
 40
0.1242507383329018
 40
0.2486342929277865
 40
0.373543301615439
 40
0.4985839319264021
 40
0.6236668945760945
 40
0.7490739423946668
 40
0.8744400150810326
 40
0.9999999999999999
 40
0.9999999999999999
 40
0.9999999999999999
 40
0.9999999999999999
 10
230.3609559189032
 20
81.41086120779994
 30
0.0
 10
230.3745125843448
 20
81.56281471875096
 30
0.0
 10
230.401640406455
 20
81.86688416944499
 30
0.0
 10
230.5761180207311
 20
82.29419376999414
 30
0.0
 10
230.8294463690021
 20
82.6758396657924
 30
0.0
 10
231.1592668433263
 20
82.99577486494111
 30
0.0
 10
231.5501980015699
 20
83.23634334364894
 30
0.0
 10
231.9828904329485
 20
83.38798171229772
 30
0.0
 10
232.4404228315899
 20
83.44141407860423
 30
0.0
 10
232.7423353484376
 20
83.40073349541002
 30
0.0
 10
232.8934082637976
 20
83.38037748511317
 30
0.0
  0
LINE
  5
164
330
1F
100
AcDbEntity
  8
0
  6
Continuous
 62
     7
370
    15
100
AcDbLine
 10
248.2640156399
 20
66.0225214499
 30
0.0
 11
232.7230432879
 21
63.4061010617
 31
0.0
  0
LINE
  5
165
330
1F
100
AcDbEntity
  8
0
  6
Continuous
 62
     7
370
    15
100
AcDbLine
 10
233.2211146008
 20
60.4477437275
 30
0.0
 11
248.7620720516
 21
63.0641641157
 31
0.0
  0
LINE
  5
166
330
1F
100
AcDbEntity
  8
0
  6
Continuous
 62
     7
370
    15
100
AcDbLine
 10
232.8936317812
 20
83.3799453514
 30
0.0
 11
248.4346041332
 21
80.7635249632
 31
0.0
  0
LINE
  5
167
330
1F
100
AcDbEntity
  8
0
  6
Continuous
 62
     7
370
    15
100
AcDbLine
 10
248.932660545
 20
83.7218971985
 30
0.0
 11
233.391688193
 21
86.3383175867
 31
0.0
  0
SPLINE
  5
168
330
1F
100
AcDbEntity
  8
0
  6
Continuous
 62
     7
370
    15
100
AcDbSpline
210
0.0
220
0.0
230
1.0
 70
     8
 71
     3
 72
    12
 73
     8
 74
     0
 42
0.00000001
 43
0.00000001
 40
0.0
 40
0.0
 40
0.0
 40
0.0
 40
0.1526135397173891
 40
0.2973904856902686
 40
0.5623705157137553
 40
0.7966016097880517
 40
1.0
 40
1.0
 40
1.0
 40
1.0
 10
248.7617293249319
 20
63.06446213896755
 30
0.0
 10
249.0129490744598
 20
63.11719985606148
 30
0.0
 10
249.5024886229524
 20
63.21996724701373
 30
0.0
 10
250.3520092346966
 20
63.6492200302245
 30
0.0
 10
251.1639989764749
 20
64.39361420511203
 30
0.0
 10
251.7284490308569
 20
65.46465292216564
 30
0.0
 10
251.8101364322074
 20
66.19958141024505
 30
0.0
 10
251.8481025348852
 20
66.5411563652325
 30
0.0
  0
SPLINE
  5
169
330
1F
100
AcDbEntity
  8
0
  6
Continuous
 62
     7
370
    15
100
AcDbSpline
210
0.0
220
0.0
230
1.0
 70
     8
 71
     3
 72
    11
 73
     7
 74
     0
 42
0.00000001
 43
0.00000001
 40
0.0
 40
0.0
 40
0.0
 40
0.0
 40
0.2003641189614822
 40
0.4328060802232906
 40
0.699024866168115
 40
0.9999999999999999
 40
0.9999999999999999
 40
0.9999999999999999
 40
0.9999999999999999
 10
248.8497802864264
 20
66.54115636523247
 30
0.0
 10
248.8365536385222
 20
66.48472797030777
 30
0.0
 10
248.8079827862981
 20
66.3628371220498
 30
0.0
 10
248.6920879660924
 20
66.19713764773974
 30
0.0
 10
248.5073563600257
 20
66.05821998889851
 30
0.0
 10
248.3497297210122
 20
66.03483893738598
 30
0.0
 10
248.2660869013021
 20
66.02243204291347
 30
0.0
  0
SPLINE
  5
16A
330
1F
100
AcDbEntity
  8
0
  6
Continuous
 62
     7
370
    15
100
AcDbSpline
210
0.0
220
0.0
230
1.0
 70
     8
 71
     3
 72
    12
 73
     8
 74
     0
 42
0.00000001
 43
0.00000001
 40
0.0
 40
0.0
 40
0.0
 40
0.0
 40
0.2034078427593986
 40
0.4376400322228931
 40
0.7026181682021735
 40
0.8473893355518703
 40
1.0
 40
1.0
 40
1.0
 40
1.0
 10
251.8481025348852
 20
80.09978254015925
 30
0.0
 10
251.8266616248252
 20
80.44279290998068
 30
0.0
 10
251.780530657394
 20
81.18079330989158
 30
0.0
 10
251.2684337953554
 20
82.27790970907564
 30
0.0
 10
250.4932192951054
 20
83.06065702661635
 30
0.0
 10
249.665372337067
 20
83.53038497506849
 30
0.0
 10
249.181389104691
 20
83.65665222675788
 30
0.0
 10
248.9330181728552
 20
83.72145016367915
 30
0.0
  0
SPLINE
  5
16B
330
1F
100
AcDbEntity
  8
0
  6
Continuous
 62
     7
370
    15
100
AcDbSpline
210
0.0
220
0.0
230
1.0
 70
     8
 71
     3
 72
    12
 73
     8
 74
     0
 42
0.00000001
 43
0.00000001
 40
0.0
 40
0.0
 40
0.0
 40
0.0
 40
0.1555606298326515
 40
0.3022104918759382
 40
0.5679679576816538
 40
0.7999533683161958
 40
0.9999999999999999
 40
0.9999999999999999
 40
0.9999999999999999
 40
0.9999999999999999
 10
248.4326818834494
 20
80.76444883521083
 30
0.0
 10
248.4732290858197
 20
80.74869879232857
 30
0.0
 10
248.552000880365
 20
80.71810089482956
 30
0.0
 10
248.681627679707
 20
80.62306385324337
 30
0.0
 10
248.7960693254899
 20
80.47688406100853
 30
0.0
 10
248.8601968007926
 20
80.2826316272906
 30
0.0
 10
248.8530770099175
 20
80.15765246283121
 30
0.0
 10
248.8497802864264
 20
80.09978254015925
 30
0.0
  0
LINE
  5
16C
330
1F
100
AcDbEntity
  8
0
  6
Continuous
 62
     7
370
    15
100
AcDbLine
 10
248.8489458214
 20
80.149775936
 30
0.0
 11
248.8489458214
 21
79.907393648
 31
0.0
  0
LINE
  5
16D
330
1F
100
AcDbEntity
  8
0
  6
Continuous
 62
     7
370
    15
100
AcDbLine
 10
248.8489458214
 20
66.9073822039
 30
0.0
 11
248.8489458214
 21
66.4911480683
 31
0.0
  0
LINE
  5
16E
330
1F
100
AcDbEntity
  8
0
  6
Continuous
 62
     7
370
    15
100
AcDbLine
 10
251.8489369999
 20
66.4911480683
 30
0.0
 11
251.8489369999
 21
66.9101389187
 31
0.0
  0
LINE
  5
16F
330
1F
100
AcDbEntity
  8
0
  6
Continuous
 62
     7
370
    15
100
AcDbLine
 10
251.8489369999
 20
79.9046369332
 30
0.0
 11
251.8489369999
 21
80.149775936
 31
0.0
  0
LINE
  5
170
330
1F
100
AcDbEntity
  8
0
  6
Continuous
 62
     7
370
    15
100
AcDbLine
 10
238.148228253
 20
79.0073933142
 30
0.0
 11
236.5299472462
 21
79.0073933142
 31
0.0
  0
LINE
  5
171
330
1F
100
AcDbEntity
  8
0
  6
Continuous
 62
     7
370
    15
100
AcDbLine
 10
237.1568688999
 20
78.2073946732
 30
0.0
 11
238.148228253
 21
78.2073946732
 31
0.0
  0
LINE
  5
172
330
1F
100
AcDbEntity
  8
0
  6
Continuous
 62
     7
370
    15
100
AcDbLine
 10
238.4864548098
 20
80.2755268353
 30
0.0
 11
238.2199177395
 21
79.067281081
 31
0.0
  0
LINE
  5
173
330
1F
100
AcDbEntity
  8
0
  6
Continuous
 62
     7
370
    15
100
AcDbLine
 10
238.988072599
 20
78.8357319372
 30
0.0
 11
239.2676630865
 21
80.1031949061
 31
0.0
  0
SPLINE
  5
174
330
1F
100
AcDbEntity
  8
0
  6
Continuous
 62
     7
370
    15
100
AcDbSpline
210
0.0
220
0.0
230
1.0
 70
     8
 71
     3
 72
    11
 73
     7
 74
     0
 42
0.00000001
 43
0.00000001
 40
0.0
 40
0.0
 40
0.0
 40
0.0
 40
0.2541311630691059
 40
0.5022676364033828
 40
0.7495179365131207
 40
1.0
 40
1.0
 40
1.0
 40
1.0
 10
238.148228253002
 20
78.20739467318538
 30
0.0
 10
238.2483166862974
 20
78.2176397974377
 30
0.0
 10
238.4461325708804
 20
78.23788837412043
 30
0.0
 10
238.7042841580297
 20
78.39191401102394
 30
0.0
 10
238.907725575302
 20
78.61099524227191
 30
0.0
 10
238.9694615549314
 20
78.79804526766235
 30
0.0
 10
239.0005299698065
 20
78.89217753584865
 30
0.0
  0
LINE
  5
175
330
1F
100
AcDbEntity
  8
0
  6
Continuous
 62
     7
370
    15
100
AcDbLine
 10
237.7599486958
 20
550.6073894041
 30
0.0
 11
237.7599486958
 21
551.4073880451
 31
0.0
  0
LINE
  5
176
330
1F
100
AcDbEntity
  8
0
  6
Continuous
 62
     7
370
    15
100
AcDbLine
 10
237.7599486958
 20
535.4073854225
 30
0.0
 11
237.7599486958
 21
536.2073840636
 31
0.0
  0
LINE
  5
177
330
1F
100
AcDbEntity
  8
0
  6
Continuous
 62
     7
370
    15
100
AcDbLine
 10
232.8299442183
 20
551.7073931235
 30
0.0
 11
232.8299442183
 21
551.4073880451
 31
0.0
  0
LINE
  5
178
330
1F
100
AcDbEntity
  8
0
  6
Continuous
 62
     7
370
    15
100
AcDbLine
 10
237.2299441944
 20
551.4073880451
 30
0.0
 11
237.2299441944
 21
551.7073931235
 31
0.0
  0
ARC
  5
179
330
1F
100
AcDbEntity
  8
0
  6
Continuous
 62
     7
370
    15
100
AcDbCircle
 10
235.0299488484
 20
548.6002444728
 30
0.0
 40
3.807142857143368
100
AcDbArc
 50
54.6997515601
 51
125.3002484399
  0
LINE
  5
17A
330
1F
100
AcDbEntity
  8
0
  6
Continuous
 62
     7
370
    15
100
AcDbLine
 10
232.929945911
 20
535.0073935526
 30
0.0
 11
232.929945911
 21
534.6073867815
 31
0.0
  0
LINE
  5
17B
330
1F
100
AcDbEntity
  8
0
  6
Continuous
 62
     7
370
    15
100
AcDbLine
 10
237.1299425017
 20
534.6073867815
 30
0.0
 11
237.1299425017
 21
535.0073935526
 31
0.0
  0
ARC
  5
17C
330
1F
100
AcDbEntity
  8
0
  6
Continuous
 62
     7
370
    15
100
AcDbCircle
 10
233.1299488484
 20
535.4073873299
 30
0.0
 40
0.4000000000008015
100
AcDbArc
 50
270.0
 51
0.0
  0
ARC
  5
17D
330
1F
100
AcDbEntity
  8
0
  6
Continuous
 62
     7
370
    15
100
AcDbCircle
 10
236.9299488484
 20
535.4073873299
 30
0.0
 40
0.4000000000007731
100
AcDbArc
 50
180.0
 51
270.0
  0
LINE
  5
17E
330
1F
100
AcDbEntity
  8
0
  6
Continuous
 62
     7
370
    15
100
AcDbLine
 10
233.5299560677
 20
550.6073894041
 30
0.0
 11
233.5299560677
 21
550.1573892372
 31
0.0
  0
LINE
  5
17F
330
1F
100
AcDbEntity
  8
0
  6
Continuous
 62
     7
370
    15
100
AcDbLine
 10
233.5299560677
 20
549.1573872107
 30
0.0
 11
233.5299560677
 21
548.6686887282
 31
0.0
  0
LINE
  5
180
330
1F
100
AcDbEntity
  8
0
  6
Continuous
 62
     7
370
    15
100
AcDbLine
 10
233.5299560677
 20
547.8725643891
 30
0.0
 11
233.5299560677
 21
547.7168770569
 31
0.0
  0
LINE
  5
181
330
1F
100
AcDbEntity
  8
0
  6
Continuous
 62
     7
370
    15
100
AcDbLine
 10
233.5299560677
 20
538.4177627104
 30
0.0
 11
233.5299560677
 21
537.657386257
 31
0.0
  0
LINE
  5
182
330
1F
100
AcDbEntity
  8
0
  6
Continuous
 62
     7
370
    15
100
AcDbLine
 10
233.5299560677
 20
536.6573842305
 30
0.0
 11
233.5299560677
 21
536.2073840636
 31
0.0
  0
LINE
  5
183
330
1F
100
AcDbEntity
  8
0
  6
Continuous
 62
     7
370
    15
100
AcDbLine
 10
236.5299472462
 20
536.2073840636
 30
0.0
 11
236.5299472462
 21
536.6573842305
 31
0.0
  0
LINE
  5
184
330
1F
100
AcDbEntity
  8
0
  6
Continuous
 62
     7
370
    15
100
AcDbLine
 10
236.5299472462
 20
537.657386257
 30
0.0
 11
236.5299472462
 21
538.1445350188
 31
0.0
  0
LINE
  5
185
330
1F
100
AcDbEntity
  8
0
  6
Continuous
 62
     7
370
    15
100
AcDbLine
 10
236.5299472462
 20
547.4524410504
 30
0.0
 11
236.5299472462
 21
547.6403893965
 31
0.0
  0
LINE
  5
186
330
1F
100
AcDbEntity
  8
0
  6
Continuous
 62
     7
370
    15
100
AcDbLine
 10
236.5299472462
 20
548.3954610365
 30
0.0
 11
236.5299472462
 21
549.1573872107
 31
0.0
  0
LINE
  5
187
330
1F
100
AcDbEntity
  8
0
  6
Continuous
 62
     7
370
    15
100
AcDbLine
 10
236.5299472462
 20
550.1573892372
 30
0.0
 11
236.5299472462
 21
550.6073894041
 31
0.0
  0
SPLINE
  5
188
330
1F
100
AcDbEntity
  8
0
  6
Continuous
 62
     7
370
    15
100
AcDbSpline
210
0.0
220
0.0
230
1.0
 70
     8
 71
     3
 72
    15
 73
    11
 74
     0
 42
0.00000001
 43
0.00000001
 40
0.0
 40
0.0
 40
0.0
 40
0.0
 40
0.1355968094159872
 40
0.2953258255326759
 40
0.4038108321524486
 40
0.5319578481223808
 40
0.6738362643981046
 40
0.8261010483111174
 40
0.9126193603842679
 40
1.0
 40
1.0
 40
1.0
 40
1.0
 10
236.5299472461889
 20
537.973439885931
 30
0.0
 10
236.5743294710416
 20
537.9661132523266
 30
0.0
 10
236.670992639224
 20
537.9501560618372
 30
0.0
 10
236.8778431600872
 20
537.9978327614277
 30
0.0
 10
237.0710997563653
 20
538.0855473981976
 30
0.0
 10
237.217687717909
 20
538.2052152874318
 30
0.0
 10
237.3163947943814
 20
538.3561232586882
 30
0.0
 10
237.3460511488814
 20
538.477951230329
 30
0.0
 10
237.3248818198523
 20
538.6072023079006
 30
0.0
 10
237.2786240517882
 20
538.6738783448344
 30
0.0
 10
237.255380476589
 20
538.7073816793728
 30
0.0
  0
SPLINE
  5
189
330
1F
100
AcDbEntity
  8
0
  6
Continuous
 62
     7
370
    15
100
AcDbSpline
210
0.0
220
0.0
230
1.0
 70
     8
 71
     3
 72
    20
 73
    16
 74
     0
 42
0.00000001
 43
0.00000001
 40
0.0
 40
0.0
 40
0.0
 40
0.0
 40
0.0607080703525387
 40
0.2265356748708075
 40
0.3908031508966114
 40
0.47059448168422
 40
0.5476204260356007
 40
0.6228574358877381
 40
0.7003372698834802
 40
0.7786473610714315
 40
0.8566576136431394
 40
0.9330986217031314
 40
0.9703734372930525
 40
0.9892322546654578
 40
1.0
 40
1.0
 40
1.0
 40
1.0
 10
232.7937492977331
 20
538.7073816793728
 30
0.0
 10
232.8400241661361
 20
538.6540502337325
 30
0.0
 10
233.0127015133547
 20
538.4550408605176
 30
0.0
 10
233.4296599371984
 20
538.4371140025614
 30
0.0
 10
233.9946289233873
 20
538.3620887512766
 30
0.0
 10
234.5142392388079
 20
538.3191510447296
 30
0.0
 10
234.9081303178629
 20
538.2885904691985
 30
0.0
 10
235.3010421437268
 20
538.2609184711696
 30
0.0
 10
235.6822035212532
 20
538.2296098288166
 30
0.0
 10
236.0379275252542
 20
538.1971274996878
 30
0.0
 10
236.3405506161017
 20
538.1663255587367
 30
0.0
 10
236.5330676468188
 20
538.1433900414823
 30
0.0
 10
236.6211827223081
 20
538.1353837000822
 30
0.0
 10
236.666609842389
 20
538.1275885328992
 30
0.0
 10
236.6660604232783
 20
538.1315476731638
 30
0.0
 10
236.665860737438
 20
538.1329866188336
 30
0.0
  0
SPLINE
  5
18A
330
1F
100
AcDbEntity
  8
0
  6
Continuous
 62
     7
370
    15
100
AcDbSpline
210
0.0
220
0.0
230
1.0
 70
     8
 71
     3
 72
    18
 73
    14
 74
     0
 42
0.00000001
 43
0.00000001
 40
0.0
 40
0.0
 40
0.0
 40
0.0
 40
0.005750901312886
 40
0.1156365085951078
 40
0.2383915781740809
 40
0.3593074919734304
 40
0.4757058261774768
 40
0.587213241086234
 40
0.7047338023862616
 40
0.8265047115699417
 40
0.8891451544712452
 40
0.9517986728193887
 40
1.0
 40
1.0
 40
1.0
 40
1.0
 10
237.0365718256186
 20
547.3542125957775
 30
0.0
 10
237.0319245926133
 20
547.3571647916292
 30
0.0
 10
236.9384801444959
 20
547.4165262034157
 30
0.0
 10
236.7161738310323
 20
547.4227042625178
 30
0.0
 10
236.32477547349
 20
547.481906748555
 30
0.0
 10
235.8128972420349
 20
547.5274435371598
 30
0.0
 10
235.2618655473479
 20
547.5736103420696
 30
0.0
 10
234.6997479124693
 20
547.612489872209
 30
0.0
 10
234.1654679330215
 20
547.6572433570807
 30
0.0
 10
233.767827531458
 20
547.6982834989169
 30
0.0
 10
233.5530996207728
 20
547.7194311733318
 30
0.0
 10
233.4570524786579
 20
547.7217065500394
 30
0.0
 10
233.4416039208084
 20
547.7056288552236
 30
0.0
 10
233.4348866592596
 20
547.6986380356121
 30
0.0
  0
SPLINE
  5
18B
330
1F
100
AcDbEntity
  8
0
  6
Continuous
 62
     7
370
    15
100
AcDbSpline
210
0.0
220
0.0
230
1.0
 70
     8
 71
     3
 72
    12
 73
     8
 74
     0
 42
0.00000001
 43
0.00000001
 40
0.0
 40
0.0
 40
0.0
 40
0.0
 40
0.223685368258904
 40
0.4523160540566043
 40
0.6822439293227767
 40
0.9102242373701094
 40
1.0
 40
1.0
 40
1.0
 40
1.0
 10
232.7356496702383
 20
548.5092314022351
 30
0.0
 10
232.7229083117077
 20
548.4666889838388
 30
0.0
 10
232.6971439040544
 20
548.3806636037754
 30
0.0
 10
232.818300576106
 20
548.2890406867743
 30
0.0
 10
233.0499649142312
 20
548.1927178923883
 30
0.0
 10
233.2948278309101
 20
548.130240472151
 30
0.0
 10
233.4781593366082
 20
548.1354647682809
 30
0.0
 10
233.5299560676764
 20
548.136940790968
 30
0.0
  0
SPLINE
  5
18C
330
1F
100
AcDbEntity
  8
0
  6
Continuous
 62
     7
370
    15
100
AcDbSpline
210
0.0
220
0.0
230
1.0
 70
     8
 71
     3
 72
    19
 73
    15
 74
     0
 42
0.00000001
 43
0.00000001
 40
0.0
 40
0.0
 40
0.0
 40
0.0
 40
0.0979059402848396
 40
0.175376282072278
 40
0.2884837535259853
 40
0.3734533885407971
 40
0.4570019665054271
 40
0.616887723370319
 40
0.6796677411514015
 40
0.7634260667304875
 40
0.8137555502783114
 40
0.8702987031389112
 40
0.9324008463493529
 40
0.9999999999999999
 40
0.9999999999999999
 40
0.9999999999999999
 40
0.9999999999999999
 10
232.911885703678
 20
548.0141105192471
 30
0.0
 10
232.9623950962276
 20
547.9877299256584
 30
0.0
 10
233.0528712149321
 20
547.9404750766777
 30
0.0
 10
233.4275101065535
 20
547.8798195254387
 30
0.0
 10
233.9140150833548
 20
547.8259614510921
 30
0.0
 10
234.5053524474354
 20
547.7727056497146
 30
0.0
 10
235.2594483896121
 20
547.7211626812821
 30
0.0
 10
235.9005584509837
 20
547.6542229533121
 30
0.0
 10
236.5498185332258
 20
547.6187054906467
 30
0.0
 10
236.9281638214148
 20
547.6968851351929
 30
0.0
 10
237.1800058869784
 20
547.805096346412
 30
0.0
 10
237.3135967600884
 20
547.8934090121857
 30
0.0
 10
237.3753707556463
 20
547.9672776629955
 30
0.0
 10
237.3039265419112
 20
548.047787702395
 30
0.0
 10
237.2666904579351
 20
548.089748813467
 30
0.0
  0
SPLINE
  5
18D
330
1F
100
AcDbEntity
  8
0
  6
Continuous
 62
     7
370
    15
100
AcDbSpline
210
0.0
220
0.0
230
1.0
 70
     8
 71
     3
 72
    25
 73
    21
 74
     0
 42
0.00000001
 43
0.00000001
 40
0.0
 40
0.0
 40
0.0
 40
0.0
 40
0.0176257056667395
 40
0.03449726915141
 40
0.0503151655171473
 40
0.0649735457748045
 40
0.0909441428182818
 40
0.1134365501153491
 40
0.1538391185375348
 40
0.1912339518788564
 40
0.2995700322177675
 40
0.3999626235214994
 40
0.501294712481956
 40
0.594904985856098
 40
0.6784883285335787
 40
0.7336284245074124
 40
0.8075182199401166
 40
0.8952813232319288
 40
0.9453086757064482
 40
0.9999999999999999
 40
0.9999999999999999
 40
0.9999999999999999
 40
0.9999999999999999
 10
236.9093755136679
 20
547.4641682642269
 30
0.0
 10
236.949079731396
 20
547.4685582512788
 30
0.0
 10
237.0267893625058
 20
547.4771503932196
 30
0.0
 10
237.1286820749996
 20
547.523165687223
 30
0.0
 10
237.2096888185044
 20
547.582111679697
 30
0.0
 10
237.2858937583966
 20
547.6657123004859
 30
0.0
 10
237.3389471603412
 20
547.769326476514
 30
0.0
 10
237.363090878526
 20
547.9016910555213
 30
0.0
 10
237.3402175499202
 20
548.0335350452665
 30
0.0
 10
237.1689770568802
 20
548.2787723150309
 30
0.0
 10
236.8261907223377
 20
548.3658291566761
 30
0.0
 10
236.3310768831944
 20
548.424393322033
 30
0.0
 10
235.7178658523273
 20
548.4827565345818
 30
0.0
 10
235.0683900204091
 20
548.5323841751568
 30
0.0
 10
234.5286933265581
 20
548.5718454901572
 30
0.0
 10
234.0826735446578
 20
548.611029590559
 30
0.0
 10
233.6939868501397
 20
548.6492477756826
 30
0.0
 10
233.4338099055775
 20
548.6771122281093
 30
0.0
 10
233.303383053007
 20
548.6995944094924
 30
0.0
 10
233.2947107555162
 20
548.7120550879376
 30
0.0
 10
233.2901814829062
 20
548.7185629146862
 30
0.0
  0
SPLINE
  5
18E
330
1F
100
AcDbEntity
  8
0
  6
Continuous
 62
     7
370
    15
100
AcDbSpline
210
0.0
220
0.0
230
1.0
 70
     8
 71
     3
 72
    12
 73
     8
 74
     0
 42
0.00000001
 43
0.00000001
 40
0.0
 40
0.0
 40
0.0
 40
0.0
 40
0.1756461954222045
 40
0.5723020993583655
 40
0.7586211437608602
 40
0.920748017050884
 40
1.0
 40
1.0
 40
1.0
 40
1.0
 10
233.3785155664633
 20
547.9000719326306
 30
0.0
 10
233.3129518762337
 20
547.8909012314676
 30
0.0
 10
233.0993279063557
 20
547.8610206438723
 30
0.0
 10
232.8834093126512
 20
547.7870859204004
 30
0.0
 10
232.7222510319649
 20
547.572169595079
 30
0.0
 10
232.6910478980556
 20
547.4119219806386
 30
0.0
 10
232.7220226518374
 20
547.3332749515613
 30
0.0
 10
232.7321926008414
 20
547.3074527519512
 30
0.0
  0
LINE
  5
18F
330
1F
100
AcDbEntity
  8
0
  6
Continuous
 62
     7
370
    15
100
AcDbLine
 10
232.8897127758
 20
538.6096449631
 30
0.0
 11
231.7712465178
 21
538.6096449631
 31
0.0
  0
LINE
  5
190
330
1F
100
AcDbEntity
  8
0
  6
Continuous
 62
     7
370
    15
100
AcDbLine
 10
231.7712465178
 20
537.8096463221
 30
0.0
 11
233.5299560677
 21
537.8096463221
 31
0.0
  0
LINE
  5
191
330
1F
100
AcDbEntity
  8
0
  6
Continuous
 62
     7
370
    15
100
AcDbLine
 10
230.3609559189
 20
551.4073880451
 30
0.0
 11
230.3609559189
 21
551.4608534115
 31
0.0
  0
LINE
  5
192
330
1F
100
AcDbEntity
  8
0
  6
Continuous
 62
     7
370
    15
100
AcDbLine
 10
227.3609647404
 20
551.4608534115
 30
0.0
 11
227.3609647404
 21
551.4073880451
 31
0.0
  0
SPLINE
  5
193
330
1F
100
AcDbEntity
  8
0
  6
Continuous
 62
     7
370
    15
100
AcDbSpline
210
0.0
220
0.0
230
1.0
 70
     8
 71
     3
 72
    15
 73
    11
 74
     0
 42
0.00000001
 43
0.00000001
 40
0.0
 40
0.0
 40
0.0
 40
0.0
 40
0.1077555984635169
 40
0.23525132098926
 40
0.3627905294629136
 40
0.4902569079919491
 40
0.6176632052480955
 40
0.745097043409137
 40
0.8724966518631685
 40
1.0
 40
1.0
 40
1.0
 40
1.0
 10
227.3770132909964
 20
535.4073854225445
 30
0.0
 10
227.3935524196175
 20
535.0948631776713
 30
0.0
 10
227.42966053754
 20
534.4125666474371
 30
0.0
 10
227.765873232328
 20
533.4034187544286
 30
0.0
 10
228.3239527599247
 20
532.4399400297275
 30
0.0
 10
229.0787780093097
 20
531.6190125352889
 30
0.0
 10
229.9939421091206
 20
530.9837470886426
 30
0.0
 10
231.021197566351
 20
530.5635862372251
 30
0.0
 10
232.1171752150356
 20
530.3497852066305
 30
0.0
 10
232.8529356518866
 20
530.4153096879785
 30
0.0
 10
233.2209655891607
 20
530.4480852621365
 30
0.0
  0
SPLINE
  5
194
330
1F
100
AcDbEntity
  8
0
  6
Continuous
 62
     7
370
    15
100
AcDbSpline
210
0.0
220
0.0
230
1.0
 70
     8
 71
     3
 72
    15
 73
    11
 74
     0
 42
0.00000001
 43
0.00000001
 40
0.0
 40
0.0
 40
0.0
 40
0.0
 40
0.1316483452905108
 40
0.2633125736960542
 40
0.3951891228075907
 40
0.5266691347667831
 40
0.6575482409241131
 40
0.7882151506106828
 40
0.9184604873266078
 40
1.0
 40
1.0
 40
1.0
 40
1.0
 10
232.7232668052862
 20
533.4057720440197
 30
0.0
 10
232.5710888363034
 20
533.3939578027025
 30
0.0
 10
232.2667145383638
 20
533.370327894703
 30
0.0
 10
231.8158455611031
 20
533.4717953319453
 30
0.0
 10
231.396824345865
 20
533.6586701242791
 30
0.0
 10
231.0264308293328
 20
533.9312588671141
 30
0.0
 10
230.7241578949551
 20
534.2771656157239
 30
0.0
 10
230.5050127801119
 20
534.6788792000128
 30
0.0
 10
230.387650140536
 20
535.0651895317085
 30
0.0
 10
230.3774677379027
 20
535.3122604012834
 30
0.0
 10
230.373547400112
 20
535.4073854225445
 30
0.0
  0
SPLINE
  5
195
330
1F
100
AcDbEntity
  8
0
  6
Continuous
 62
     7
370
    15
100
AcDbSpline
210
0.0
220
0.0
230
1.0
 70
     8
 71
     3
 72
    15
 73
    11
 74
     0
 42
0.00000001
 43
0.00000001
 40
0.0
 40
0.0
 40
0.0
 40
0.0
 40
0.1249271724452606
 40
0.2499156778186059
 40
0.3749661225157206
 40
0.4999574189332024
 40
0.6249212965006179
 40
0.749916905720849
 40
0.8748746059781706
 40
1.0
 40
1.0
 40
1.0
 40
1.0
 10
233.3918372045706
 20
556.3379140632916
 30
0.0
 10
233.0254605364923
 20
556.3812466586215
 30
0.0
 10
232.2925273279078
 20
556.4679331233959
 30
0.0
 10
231.1885044974037
 20
556.3027338259204
 30
0.0
 10
230.1477015771443
 20
555.9138120955928
 30
0.0
 10
229.2125150179655
 20
555.3087861001832
 30
0.0
 10
228.4318582611046
 20
554.512602037396
 30
0.0
 10
227.8439022577279
 20
553.568232104323
 30
0.0
 10
227.4480790736071
 20
552.51978882814
 30
0.0
 10
227.3900158296077
 20
551.7806681595104
 30
0.0
 10
227.3609647403906
 20
551.410860015707
 30
0.0
  0
SPLINE
  5
196
330
1F
100
AcDbEntity
  8
0
  6
Continuous
 62
     7
370
    15
100
AcDbSpline
210
0.0
220
0.0
230
1.0
 70
     8
 71
     3
 72
    15
 73
    11
 74
     0
 42
0.00000001
 43
0.00000001
 40
0.0
 40
0.0
 40
0.0
 40
0.0
 40
0.1242507383329018
 40
0.2486342929277865
 40
0.373543301615439
 40
0.4985839319264021
 40
0.6236668945760945
 40
0.7490739423946668
 40
0.8744400150810326
 40
0.9999999999999999
 40
0.9999999999999999
 40
0.9999999999999999
 40
0.9999999999999999
 10
230.3609559189032
 20
551.410860015707
 30
0.0
 10
230.3745125843448
 20
551.562813526658
 30
0.0
 10
230.401640406455
 20
551.8668829773521
 30
0.0
 10
230.5761180207311
 20
552.2941925779013
 30
0.0
 10
230.8294463690021
 20
552.6758384736994
 30
0.0
 10
231.1592668433263
 20
552.9957736728481
 30
0.0
 10
231.5501980015699
 20
553.2363421515561
 30
0.0
 10
231.9828904329485
 20
553.3879805202048
 30
0.0
 10
232.4404228315899
 20
553.4414128865113
 30
0.0
 10
232.7423353484376
 20
553.4007323033172
 30
0.0
 10
232.8934082637976
 20
553.3803762930203
 30
0.0
  0
LINE
  5
197
330
1F
100
AcDbEntity
  8
0
  6
Continuous
 62
     7
370
    15
100
AcDbLine
 10
248.2640156399
 20
536.0225202578
 30
0.0
 11
232.7230432879
 21
533.4060998696
 31
0.0
  0
LINE
  5
198
330
1F
100
AcDbEntity
  8
0
  6
Continuous
 62
     7
370
    15
100
AcDbLine
 10
233.2211146008
 20
530.4477425354
 30
0.0
 11
248.7620720516
 21
533.0641629237
 31
0.0
  0
LINE
  5
199
330
1F
100
AcDbEntity
  8
0
  6
Continuous
 62
     7
370
    15
100
AcDbLine
 10
232.8936317812
 20
553.3799441593
 30
0.0
 11
248.4346041332
 21
550.7635386723
 31
0.0
  0
LINE
  5
19A
330
1F
100
AcDbEntity
  8
0
  6
Continuous
 62
     7
370
    15
100
AcDbLine
 10
248.932660545
 20
553.7218960064
 30
0.0
 11
233.391688193
 21
556.3383163946
 31
0.0
  0
SPLINE
  5
19B
330
1F
100
AcDbEntity
  8
0
  6
Continuous
 62
     7
370
    15
100
AcDbSpline
210
0.0
220
0.0
230
1.0
 70
     8
 71
     3
 72
    12
 73
     8
 74
     0
 42
0.00000001
 43
0.00000001
 40
0.0
 40
0.0
 40
0.0
 40
0.0
 40
0.1526135397173891
 40
0.2973904856902686
 40
0.5623705157137553
 40
0.7966016097880517
 40
1.0
 40
1.0
 40
1.0
 40
1.0
 10
248.7617293249319
 20
533.0644609468746
 30
0.0
 10
249.0129490744598
 20
533.1171986639686
 30
0.0
 10
249.5024886229524
 20
533.2199660549209
 30
0.0
 10
250.3520092346966
 20
533.6492188381316
 30
0.0
 10
251.1639989764749
 20
534.3936130130191
 30
0.0
 10
251.7284490308569
 20
535.4646517300728
 30
0.0
 10
251.8101364322074
 20
536.1995802181522
 30
0.0
 10
251.8481025348852
 20
536.5411551731396
 30
0.0
  0
SPLINE
  5
19C
330
1F
100
AcDbEntity
  8
0
  6
Continuous
 62
     7
370
    15
100
AcDbSpline
210
0.0
220
0.0
230
1.0
 70
     8
 71
     3
 72
    11
 73
     7
 74
     0
 42
0.00000001
 43
0.00000001
 40
0.0
 40
0.0
 40
0.0
 40
0.0
 40
0.2003641189614822
 40
0.4328060802232906
 40
0.699024866168115
 40
0.9999999999999999
 40
0.9999999999999999
 40
0.9999999999999999
 40
0.9999999999999999
 10
248.8497802864264
 20
536.5411551731396
 30
0.0
 10
248.8365536385222
 20
536.4847267782148
 30
0.0
 10
248.8079827862981
 20
536.362835929957
 30
0.0
 10
248.6920879660924
 20
536.1971364556468
 30
0.0
 10
248.5073563600257
 20
536.0582187968057
 30
0.0
 10
248.3497297210122
 20
536.0348377452932
 30
0.0
 10
248.2660869013021
 20
536.0224308508206
 30
0.0
  0
SPLINE
  5
19D
330
1F
100
AcDbEntity
  8
0
  6
Continuous
 62
     7
370
    15
100
AcDbSpline
210
0.0
220
0.0
230
1.0
 70
     8
 71
     3
 72
    12
 73
     8
 74
     0
 42
0.00000001
 43
0.00000001
 40
0.0
 40
0.0
 40
0.0
 40
0.0
 40
0.2034078427593986
 40
0.4376400322228931
 40
0.7026181682021735
 40
0.8473893355518703
 40
1.0
 40
1.0
 40
1.0
 40
1.0
 10
251.8481025348852
 20
550.0997813480664
 30
0.0
 10
251.8266616248252
 20
550.4427917178878
 30
0.0
 10
251.780530657394
 20
551.1807921177987
 30
0.0
 10
251.2684337953554
 20
552.2779085169828
 30
0.0
 10
250.4932192951054
 20
553.0606558345233
 30
0.0
 10
249.665372337067
 20
553.5303837829757
 30
0.0
 10
249.181389104691
 20
553.656651034665
 30
0.0
 10
248.9330181728552
 20
553.7214489715863
 30
0.0
  0
SPLINE
  5
19E
330
1F
100
AcDbEntity
  8
0
  6
Continuous
 62
     7
370
    15
100
AcDbSpline
210
0.0
220
0.0
230
1.0
 70
     8
 71
     3
 72
    12
 73
     8
 74
     0
 42
0.00000001
 43
0.00000001
 40
0.0
 40
0.0
 40
0.0
 40
0.0
 40
0.1555606298326515
 40
0.3022104918759382
 40
0.5679679576816538
 40
0.7999533683161958
 40
0.9999999999999999
 40
0.9999999999999999
 40
0.9999999999999999
 40
0.9999999999999999
 10
248.4326818834494
 20
550.7644476431179
 30
0.0
 10
248.4732290858197
 20
550.7486976002357
 30
0.0
 10
248.552000880365
 20
550.7180997027367
 30
0.0
 10
248.681627679707
 20
550.6230626611504
 30
0.0
 10
248.7960693254899
 20
550.4768828689157
 30
0.0
 10
248.8601968007926
 20
550.2826304351978
 30
0.0
 10
248.8530770099175
 20
550.1576512707383
 30
0.0
 10
248.8497802864264
 20
550.0997813480664
 30
0.0
  0
LINE
  5
19F
330
1F
100
AcDbEntity
  8
0
  6
Continuous
 62
     7
370
    15
100
AcDbLine
 10
248.8489458214
 20
550.149789645
 30
0.0
 11
248.8489458214
 21
549.9073924559
 31
0.0
  0
LINE
  5
1A0
330
1F
100
AcDbEntity
  8
0
  6
Continuous
 62
     7
370
    15
100
AcDbLine
 10
248.8489458214
 20
536.9073810118
 30
0.0
 11
248.8489458214
 21
536.4911468762
 31
0.0
  0
LINE
  5
1A1
330
1F
100
AcDbEntity
  8
0
  6
Continuous
 62
     7
370
    15
100
AcDbLine
 10
251.8489369999
 20
536.4911468762
 30
0.0
 11
251.8489369999
 21
536.9101377266
 31
0.0
  0
LINE
  5
1A2
330
1F
100
AcDbEntity
  8
0
  6
Continuous
 62
     7
370
    15
100
AcDbLine
 10
251.8489369999
 20
549.9046357411
 30
0.0
 11
251.8489369999
 21
550.149789645
 31
0.0
  0
LINE
  5
1A3
330
1F
100
AcDbEntity
  8
0
  6
Continuous
 62
     7
370
    15
100
AcDbLine
 10
238.148228253
 20
549.0073921221
 30
0.0
 11
236.5299472462
 21
549.0073921221
 31
0.0
  0
LINE
  5
1A4
330
1F
100
AcDbEntity
  8
0
  6
Continuous
 62
     7
370
    15
100
AcDbLine
 10
237.1568688999
 20
548.2073934811
 30
0.0
 11
238.148228253
 21
548.2073934811
 31
0.0
  0
LINE
  5
1A5
330
1F
100
AcDbEntity
  8
0
  6
Continuous
 62
     7
370
    15
100
AcDbLine
 10
238.4864548098
 20
550.2755256432
 30
0.0
 11
238.2199177395
 21
549.0672798889
 31
0.0
  0
LINE
  5
1A6
330
1F
100
AcDbEntity
  8
0
  6
Continuous
 62
     7
370
    15
100
AcDbLine
 10
238.988072599
 20
548.8357307452
 30
0.0
 11
239.2676630865
 21
550.103193714
 31
0.0
  0
SPLINE
  5
1A7
330
1F
100
AcDbEntity
  8
0
  6
Continuous
 62
     7
370
    15
100
AcDbSpline
210
0.0
220
0.0
230
1.0
 70
     8
 71
     3
 72
    11
 73
     7
 74
     0
 42
0.00000001
 43
0.00000001
 40
0.0
 40
0.0
 40
0.0
 40
0.0
 40
0.2541311630691059
 40
0.5022676364033828
 40
0.7495179365131207
 40
1.0
 40
1.0
 40
1.0
 40
1.0
 10
238.148228253002
 20
548.2073934810925
 30
0.0
 10
238.2483166862974
 20
548.2176386053447
 30
0.0
 10
238.4461325708804
 20
548.2378871820276
 30
0.0
 10
238.7042841580297
 20
548.391912818931
 30
0.0
 10
238.907725575302
 20
548.6109940501792
 30
0.0
 10
238.9694615549314
 20
548.7980440755695
 30
0.0
 10
239.0005299698065
 20
548.8921763437558
 30
0.0
  0
LINE
  5
1A8
330
1F
100
AcDbEntity
  8
0
  6
Continuous
 62
     7
370
    15
100
AcDbLine
 10
250.8475342642
 20
549.9073924559
 30
0.0
 11
251.7995694529
 21
549.9073924559
 31
0.0
  0
LWPOLYLINE
  5
1A9
330
1F
100
AcDbEntity
  8
0
  6
Continuous
 62
     7
370
    15
100
AcDbPolyline
 90
        9
 70
   128
 43
0.0
 10
251.7995694529
 20
549.9073924559
 10
251.9420841585
 20
549.8843254584
 10
252.0791152369
 20
549.8160483378
 10
252.2054174792
 20
549.7051538962
 10
252.3161182057
 20
549.5559187668
 10
252.4069705855
 20
549.3740649956
 10
252.4744728457
 20
549.1666110295
 10
252.5160470854
 20
548.9414991873
 10
252.5300839792
 20
548.7073870438
  0
LINE
  5
1AA
330
1F
100
AcDbEntity
  8
0
  6
Continuous
 62
     7
370
    15
100
AcDbLine
 10
252.5300839792
 20
548.7073870438
 30
0.0
 11
251.5780487906
 21
548.7073870438
 31
0.0
  0
LWPOLYLINE
  5
1AB
330
1F
100
AcDbEntity
  8
0
  6
Continuous
 62
     7
370
    15
100
AcDbPolyline
 90
        9
 70
   128
 43
0.0
 10
251.5780487906
 20
548.7073870438
 10
251.5640118967
 20
548.9414991873
 10
251.5224525582
 20
549.1666110295
 10
251.4549353968
 20
549.3740649956
 10
251.3640979181
 20
549.5559187668
 10
251.2533971916
 20
549.7051538962
 10
251.1270949494
 20
549.8160483378
 10
250.9900489699
 20
549.8843254584
 10
250.8475342642
 20
549.9073924559
  0
LINE
  5
1AC
330
1F
100
AcDbEntity
  8
0
  6
Continuous
 62
     7
370
    15
100
AcDbLine
 10
251.7995694529
 20
536.9073810118
 30
0.0
 11
250.8475342642
 21
536.9073810118
 31
0.0
  0
LWPOLYLINE
  5
1AD
330
1F
100
AcDbEntity
  8
0
  6
Continuous
 62
     7
370
    15
100
AcDbPolyline
 90
        9
 70
   128
 43
0.0
 10
250.8475342642
 20
536.9073810118
 10
250.9900489699
 20
536.9304480093
 10
251.1270949494
 20
536.9987251299
 10
251.2533971916
 20
537.1096195715
 10
251.3640979181
 20
537.2588547009
 10
251.4549353968
 20
537.4407084721
 10
251.5224525582
 20
537.6481624382
 10
251.5640118967
 20
537.8732742804
 10
251.5780487906
 20
538.1073864239
  0
LINE
  5
1AE
330
1F
100
AcDbEntity
  8
0
  6
Continuous
 62
     7
370
    15
100
AcDbLine
 10
251.5780487906
 20
538.1073864239
 30
0.0
 11
252.5300839792
 21
538.1073864239
 31
0.0
  0
LWPOLYLINE
  5
1AF
330
1F
100
AcDbEntity
  8
0
  6
Continuous
 62
     7
370
    15
100
AcDbPolyline
 90
        9
 70
   128
 43
0.0
 10
252.5300839792
 20
538.1073864239
 10
252.5160470854
 20
537.8732742804
 10
252.4744728457
 20
537.6481624382
 10
252.4069705855
 20
537.4407084721
 10
252.3161182057
 20
537.2588547009
 10
252.2054174792
 20
537.1096195715
 10
252.0791152369
 20
536.9987251299
 10
251.9420841585
 20
536.9304480093
 10
251.7995694529
 20
536.9073810118
  0
LINE
  5
1B0
330
1F
100
AcDbEntity
  8
0
  6
Continuous
 62
     7
370
    15
100
AcDbLine
 10
248.1285640846
 20
549.9073924559
 30
0.0
 11
248.1285640846
 21
536.9073810118
 31
0.0
  0
LINE
  5
1B1
330
1F
100
AcDbEntity
  8
0
  6
Continuous
 62
     7
370
    15
100
AcDbLine
 10
248.1285640846
 20
549.9073924559
 30
0.0
 11
250.8475342642
 21
549.9073924559
 31
0.0
  0
LINE
  5
1B2
330
1F
100
AcDbEntity
  8
0
  6
Continuous
 62
     7
370
    15
100
AcDbLine
 10
251.5780487906
 20
548.7073870438
 30
0.0
 11
251.5780487906
 21
538.1073864239
 31
0.0
  0
LINE
  5
1B3
330
1F
100
AcDbEntity
  8
0
  6
Continuous
 62
     7
370
    15
100
AcDbLine
 10
250.8475342642
 20
536.9073810118
 30
0.0
 11
248.1285640846
 21
536.9073810118
 31
0.0
  0
LINE
  5
1B4
330
1F
100
AcDbEntity
  8
0
  6
Continuous
 62
     7
370
    15
100
AcDbLine
 10
252.5300839792
 20
548.7073870438
 30
0.0
 11
252.5300839792
 21
538.1073864239
 31
0.0
  0
LINE
  5
1B5
330
1F
100
AcDbEntity
  8
0
  6
Continuous
 62
     7
370
    15
100
AcDbLine
 10
252.5300839792
 20
78.7073882359
 30
0.0
 11
251.5780487906
 21
78.7073882359
 31
0.0
  0
LINE
  5
1B6
330
1F
100
AcDbEntity
  8
0
  6
Continuous
 62
     7
370
    15
100
AcDbLine
 10
252.5300839792
 20
78.7073882359
 30
0.0
 11
252.5300839792
 21
68.107387616
 31
0.0
  0
LINE
  5
1B7
330
1F
100
AcDbEntity
  8
0
  6
Continuous
 62
     7
370
    15
100
AcDbLine
 10
251.5780487906
 20
68.107387616
 30
0.0
 11
252.5300839792
 21
68.107387616
 31
0.0
  0
LINE
  5
1B8
330
1F
100
AcDbEntity
  8
0
  6
Continuous
 62
     7
370
    15
100
AcDbLine
 10
251.5780487906
 20
78.7073882359
 30
0.0
 11
251.5780487906
 21
68.107387616
 31
0.0
  0
LINE
  5
1B9
330
1F
100
AcDbEntity
  8
0
  6
Continuous
 62
     7
370
    15
100
AcDbLine
 10
251.7995694529
 20
66.9073822039
 30
0.0
 11
250.8475342642
 21
66.9073822039
 31
0.0
  0
LWPOLYLINE
  5
1BA
330
1F
100
AcDbEntity
  8
0
  6
Continuous
 62
     7
370
    15
100
AcDbPolyline
 90
        9
 70
   128
 43
0.0
 10
250.8475342642
 20
66.9073822039
 10
250.9900489699
 20
66.9304492014
 10
251.1270949494
 20
66.998726322
 10
251.2533971916
 20
67.1096207636
 10
251.3640979181
 20
67.258855893
 10
251.4549353968
 20
67.4407096642
 10
251.5224525582
 20
67.6481636303
 10
251.5640118967
 20
67.8732754725
 10
251.5780487906
 20
68.107387616
  0
LWPOLYLINE
  5
1BB
330
1F
100
AcDbEntity
  8
0
  6
Continuous
 62
     7
370
    15
100
AcDbPolyline
 90
        9
 70
   128
 43
0.0
 10
252.5300839792
 20
68.107387616
 10
252.5160470854
 20
67.8732754725
 10
252.4744728457
 20
67.6481636303
 10
252.4069705855
 20
67.4407096642
 10
252.3161182057
 20
67.258855893
 10
252.2054174792
 20
67.1096207636
 10
252.0791152369
 20
66.998726322
 10
251.9420841585
 20
66.9304492014
 10
251.7995694529
 20
66.9073822039
  0
LINE
  5
1BC
330
1F
100
AcDbEntity
  8
0
  6
Continuous
 62
     7
370
    15
100
AcDbLine
 10
250.8475342642
 20
79.907393648
 30
0.0
 11
251.7995694529
 21
79.907393648
 31
0.0
  0
LWPOLYLINE
  5
1BD
330
1F
100
AcDbEntity
  8
0
  6
Continuous
 62
     7
370
    15
100
AcDbPolyline
 90
        9
 70
   128
 43
0.0
 10
251.7995694529
 20
79.907393648
 10
251.9420841585
 20
79.8843266505
 10
252.0791152369
 20
79.8160495299
 10
252.2054174792
 20
79.7051550883
 10
252.3161182057
 20
79.5559199589
 10
252.4069705855
 20
79.3740661877
 10
252.4744728457
 20
79.1666122216
 10
252.5160470854
 20
78.9415003794
 10
252.5300839792
 20
78.7073882359
  0
LWPOLYLINE
  5
1BE
330
1F
100
AcDbEntity
  8
0
  6
Continuous
 62
     7
370
    15
100
AcDbPolyline
 90
        9
 70
   128
 43
0.0
 10
251.5780487906
 20
78.7073882359
 10
251.5640118967
 20
78.9415003794
 10
251.5224525582
 20
79.1666122216
 10
251.4549353968
 20
79.3740661877
 10
251.3640979181
 20
79.5559199589
 10
251.2533971916
 20
79.7051550883
 10
251.1270949494
 20
79.8160495299
 10
250.9900489699
 20
79.8843266505
 10
250.8475342642
 20
79.907393648
  0
LINE
  5
1BF
330
1F
100
AcDbEntity
  8
0
  6
Continuous
 62
     7
370
    15
100
AcDbLine
 10
248.1285640846
 20
79.907393648
 30
0.0
 11
248.1285640846
 21
66.9073822039
 31
0.0
  0
LINE
  5
1C0
330
1F
100
AcDbEntity
  8
0
  6
Continuous
 62
     7
370
    15
100
AcDbLine
 10
248.1285640846
 20
79.907393648
 30
0.0
 11
250.8475342642
 21
79.907393648
 31
0.0
  0
LINE
  5
1C1
330
1F
100
AcDbEntity
  8
0
  6
Continuous
 62
     7
370
    15
100
AcDbLine
 10
250.8475342642
 20
66.9073822039
 30
0.0
 11
248.1285640846
 21
66.9073822039
 31
0.0
  0
LINE
  5
1C2
330
1F
100
AcDbEntity
  8
0
  6
Continuous
 62
     7
370
    15
100
AcDbLine
 10
247.5499519955
 20
549.9073924559
 30
0.0
 11
248.1285640846
 21
549.9073924559
 31
0.0
  0
LINE
  5
1C3
330
1F
100
AcDbEntity
  8
0
  6
Continuous
 62
     7
370
    15
100
AcDbLine
 10
248.1285640846
 20
536.9073810118
 30
0.0
 11
247.5499519955
 21
536.9073810118
 31
0.0
  0
LINE
  5
1C4
330
1F
100
AcDbEntity
  8
0
  6
Continuous
 62
     7
370
    15
100
AcDbLine
 10
247.5499519955
 20
79.907393648
 30
0.0
 11
248.1285640846
 21
79.907393648
 31
0.0
  0
LINE
  5
1C5
330
1F
100
AcDbEntity
  8
0
  6
Continuous
 62
     7
370
    15
100
AcDbLine
 10
248.1285640846
 20
66.9073822039
 30
0.0
 11
247.5499519955
 21
66.9073822039
 31
0.0
  0
LINE
  5
1C6
330
1F
100
AcDbEntity
  8
0
  6
Continuous
 62
     7
370
    15
100
AcDbLine
 10
256.1499485623
 20
538.0073847311
 30
0.0
 11
257.6499441515
 21
538.0073847311
 31
0.0
  0
LINE
  5
1C7
330
1F
100
AcDbEntity
  8
0
  6
Continuous
 62
     7
370
    15
100
AcDbLine
 10
257.6499441515
 20
536.5073891419
 30
0.0
 11
258.4499427925
 21
536.5073891419
 31
0.0
  0
LINE
  5
1C8
330
1F
100
AcDbEntity
  8
0
  6
Continuous
 62
     7
370
    15
100
AcDbLine
 10
258.4499427925
 20
536.5073891419
 30
0.0
 11
258.4499427925
 21
538.0073847311
 31
0.0
  0
LINE
  5
1C9
330
1F
100
AcDbEntity
  8
0
  6
Continuous
 62
     7
370
    15
100
AcDbLine
 10
258.4499427925
 20
538.8073833721
 30
0.0
 11
258.4499427925
 21
540.3073938626
 31
0.0
  0
LINE
  5
1CA
330
1F
100
AcDbEntity
  8
0
  6
Continuous
 62
     7
370
    15
100
AcDbLine
 10
257.6499441515
 20
538.8073833721
 30
0.0
 11
256.1499485623
 21
538.8073833721
 31
0.0
  0
LINE
  5
1CB
330
1F
100
AcDbEntity
  8
0
  6
Continuous
 62
     7
370
    15
100
AcDbLine
 10
259.9499532829
 20
538.8073833721
 30
0.0
 11
258.4499427925
 21
538.8073833721
 31
0.0
  0
LINE
  5
1CC
330
1F
100
AcDbEntity
  8
0
  6
Continuous
 62
     7
370
    15
100
AcDbLine
 10
259.9499532829
 20
538.0073847311
 30
0.0
 11
259.9499532829
 21
538.8073833721
 31
0.0
  0
LINE
  5
1CD
330
1F
100
AcDbEntity
  8
0
  6
Continuous
 62
     7
370
    15
100
AcDbLine
 10
258.4499427925
 20
538.0073847311
 30
0.0
 11
259.9499532829
 21
538.0073847311
 31
0.0
  0
LINE
  5
1CE
330
1F
100
AcDbEntity
  8
0
  6
Continuous
 62
     7
370
    15
100
AcDbLine
 10
258.4499427925
 20
540.3073938626
 30
0.0
 11
257.6499441515
 21
540.3073938626
 31
0.0
  0
CIRCLE
  5
1CF
330
1F
100
AcDbEntity
  8
0
  6
Continuous
 62
     7
370
    15
100
AcDbCircle
 10
258.0499488484
 20
538.4073873299
 30
0.0
 40
3.000000000000028
  0
LINE
  5
1D0
330
1F
100
AcDbEntity
  8
0
  6
Continuous
 62
     7
370
    15
100
AcDbLine
 10
257.6499441515
 20
538.0073847311
 30
0.0
 11
257.6499441515
 21
536.5073891419
 31
0.0
  0
LINE
  5
1D1
330
1F
100
AcDbEntity
  8
0
  6
Continuous
 62
     7
370
    15
100
AcDbLine
 10
257.6499441515
 20
540.3073938626
 30
0.0
 11
257.6499441515
 21
538.8073833721
 31
0.0
  0
LINE
  5
1D2
330
1F
100
AcDbEntity
  8
0
  6
Continuous
 62
     7
370
    15
100
AcDbLine
 10
256.1499485623
 20
538.8073833721
 30
0.0
 11
256.1499485623
 21
538.0073847311
 31
0.0
  0
LINE
  5
1D3
330
1F
100
AcDbEntity
  8
0
  6
Continuous
 62
     7
370
    15
100
AcDbLine
 10
258.4499427925
 20
550.3073843258
 30
0.0
 11
257.6499441515
 21
550.3073843258
 31
0.0
  0
LINE
  5
1D4
330
1F
100
AcDbEntity
  8
0
  6
Continuous
 62
     7
370
    15
100
AcDbLine
 10
257.6499441515
 20
548.8073887366
 30
0.0
 11
256.1499485623
 21
548.8073887366
 31
0.0
  0
LINE
  5
1D5
330
1F
100
AcDbEntity
  8
0
  6
Continuous
 62
     7
370
    15
100
AcDbLine
 10
257.6499441515
 20
550.3073843258
 30
0.0
 11
257.6499441515
 21
548.8073887366
 31
0.0
  0
LINE
  5
1D6
330
1F
100
AcDbEntity
  8
0
  6
Continuous
 62
     7
370
    15
100
AcDbLine
 10
259.9499532829
 20
548.8073887366
 30
0.0
 11
258.4499427925
 21
548.8073887366
 31
0.0
  0
LINE
  5
1D7
330
1F
100
AcDbEntity
  8
0
  6
Continuous
 62
     7
370
    15
100
AcDbLine
 10
256.1499485623
 20
548.0073900955
 30
0.0
 11
257.6499441515
 21
548.0073900955
 31
0.0
  0
LINE
  5
1D8
330
1F
100
AcDbEntity
  8
0
  6
Continuous
 62
     7
370
    15
100
AcDbLine
 10
259.9499532829
 20
548.0073900955
 30
0.0
 11
259.9499532829
 21
548.8073887366
 31
0.0
  0
LINE
  5
1D9
330
1F
100
AcDbEntity
  8
0
  6
Continuous
 62
     7
370
    15
100
AcDbLine
 10
258.4499427925
 20
548.0073900955
 30
0.0
 11
259.9499532829
 21
548.0073900955
 31
0.0
  0
LINE
  5
1DA
330
1F
100
AcDbEntity
  8
0
  6
Continuous
 62
     7
370
    15
100
AcDbLine
 10
257.6499441515
 20
548.0073900955
 30
0.0
 11
257.6499441515
 21
546.5073945063
 31
0.0
  0
CIRCLE
  5
1DB
330
1F
100
AcDbEntity
  8
0
  6
Continuous
 62
     7
370
    15
100
AcDbCircle
 10
258.0499488484
 20
548.4073873299
 30
0.0
 40
3.0
  0
LINE
  5
1DC
330
1F
100
AcDbEntity
  8
0
  6
Continuous
 62
     7
370
    15
100
AcDbLine
 10
256.1499485623
 20
548.8073887366
 30
0.0
 11
256.1499485623
 21
548.0073900955
 31
0.0
  0
LINE
  5
1DD
330
1F
100
AcDbEntity
  8
0
  6
Continuous
 62
     7
370
    15
100
AcDbLine
 10
257.6499441515
 20
546.5073945063
 30
0.0
 11
258.4499427925
 21
546.5073945063
 31
0.0
  0
LINE
  5
1DE
330
1F
100
AcDbEntity
  8
0
  6
Continuous
 62
     7
370
    15
100
AcDbLine
 10
258.4499427925
 20
548.8073887366
 30
0.0
 11
258.4499427925
 21
550.3073843258
 31
0.0
  0
LINE
  5
1DF
330
1F
100
AcDbEntity
  8
0
  6
Continuous
 62
     7
370
    15
100
AcDbLine
 10
258.4499427925
 20
546.5073945063
 30
0.0
 11
258.4499427925
 21
548.0073900955
 31
0.0
  0
CIRCLE
  5
1E0
330
1F
100
AcDbEntity
  8
0
  6
Continuous
 62
     7
370
    15
100
AcDbCircle
 10
258.0499488484
 20
78.4073873299
 30
0.0
 40
3.0
  0
LINE
  5
1E1
330
1F
100
AcDbEntity
  8
0
  6
Continuous
 62
     7
370
    15
100
AcDbLine
 10
257.6499441515
 20
78.8073899287
 30
0.0
 11
256.1499485623
 21
78.8073899287
 31
0.0
  0
LINE
  5
1E2
330
1F
100
AcDbEntity
  8
0
  6
Continuous
 62
     7
370
    15
100
AcDbLine
 10
256.1499485623
 20
78.8073899287
 30
0.0
 11
256.1499485623
 21
78.0073912876
 31
0.0
  0
LINE
  5
1E3
330
1F
100
AcDbEntity
  8
0
  6
Continuous
 62
     7
370
    15
100
AcDbLine
 10
256.1499485623
 20
78.0073912876
 30
0.0
 11
257.6499441515
 21
78.0073912876
 31
0.0
  0
LINE
  5
1E4
330
1F
100
AcDbEntity
  8
0
  6
Continuous
 62
     7
370
    15
100
AcDbLine
 10
257.6499441515
 20
78.0073912876
 30
0.0
 11
257.6499441515
 21
76.5073807972
 31
0.0
  0
LINE
  5
1E5
330
1F
100
AcDbEntity
  8
0
  6
Continuous
 62
     7
370
    15
100
AcDbLine
 10
257.6499441515
 20
76.5073807972
 30
0.0
 11
258.4499427925
 21
76.5073807972
 31
0.0
  0
LINE
  5
1E6
330
1F
100
AcDbEntity
  8
0
  6
Continuous
 62
     7
370
    15
100
AcDbLine
 10
258.4499427925
 20
76.5073807972
 30
0.0
 11
258.4499427925
 21
78.0073912876
 31
0.0
  0
LINE
  5
1E7
330
1F
100
AcDbEntity
  8
0
  6
Continuous
 62
     7
370
    15
100
AcDbLine
 10
258.4499427925
 20
78.0073912876
 30
0.0
 11
259.9499532829
 21
78.0073912876
 31
0.0
  0
LINE
  5
1E8
330
1F
100
AcDbEntity
  8
0
  6
Continuous
 62
     7
370
    15
100
AcDbLine
 10
259.9499532829
 20
78.0073912876
 30
0.0
 11
259.9499532829
 21
78.8073899287
 31
0.0
  0
LINE
  5
1E9
330
1F
100
AcDbEntity
  8
0
  6
Continuous
 62
     7
370
    15
100
AcDbLine
 10
259.9499532829
 20
78.8073899287
 30
0.0
 11
258.4499427925
 21
78.8073899287
 31
0.0
  0
LINE
  5
1EA
330
1F
100
AcDbEntity
  8
0
  6
Continuous
 62
     7
370
    15
100
AcDbLine
 10
258.4499427925
 20
78.8073899287
 30
0.0
 11
258.4499427925
 21
80.3073855179
 31
0.0
  0
LINE
  5
1EB
330
1F
100
AcDbEntity
  8
0
  6
Continuous
 62
     7
370
    15
100
AcDbLine
 10
258.4499427925
 20
80.3073855179
 30
0.0
 11
257.6499441515
 21
80.3073855179
 31
0.0
  0
LINE
  5
1EC
330
1F
100
AcDbEntity
  8
0
  6
Continuous
 62
     7
370
    15
100
AcDbLine
 10
257.6499441515
 20
80.3073855179
 30
0.0
 11
257.6499441515
 21
78.8073899287
 31
0.0
  0
LINE
  5
1ED
330
1F
100
AcDbEntity
  8
0
  6
Continuous
 62
     7
370
    15
100
AcDbLine
 10
259.9499532829
 20
68.0073859232
 30
0.0
 11
259.9499532829
 21
68.8073845642
 31
0.0
  0
LINE
  5
1EE
330
1F
100
AcDbEntity
  8
0
  6
Continuous
 62
     7
370
    15
100
AcDbLine
 10
258.4499427925
 20
68.8073845642
 30
0.0
 11
258.4499427925
 21
70.3073801535
 31
0.0
  0
LINE
  5
1EF
330
1F
100
AcDbEntity
  8
0
  6
Continuous
 62
     7
370
    15
100
AcDbLine
 10
258.4499427925
 20
68.0073859232
 30
0.0
 11
259.9499532829
 21
68.0073859232
 31
0.0
  0
LINE
  5
1F0
330
1F
100
AcDbEntity
  8
0
  6
Continuous
 62
     7
370
    15
100
AcDbLine
 10
259.9499532829
 20
68.8073845642
 30
0.0
 11
258.4499427925
 21
68.8073845642
 31
0.0
  0
LINE
  5
1F1
330
1F
100
AcDbEntity
  8
0
  6
Continuous
 62
     7
370
    15
100
AcDbLine
 10
257.6499441515
 20
70.3073801535
 30
0.0
 11
257.6499441515
 21
68.8073845642
 31
0.0
  0
LINE
  5
1F2
330
1F
100
AcDbEntity
  8
0
  6
Continuous
 62
     7
370
    15
100
AcDbLine
 10
257.6499441515
 20
68.8073845642
 30
0.0
 11
256.1499485623
 21
68.8073845642
 31
0.0
  0
LINE
  5
1F3
330
1F
100
AcDbEntity
  8
0
  6
Continuous
 62
     7
370
    15
100
AcDbLine
 10
257.6499441515
 20
68.0073859232
 30
0.0
 11
257.6499441515
 21
66.507390334
 31
0.0
  0
LINE
  5
1F4
330
1F
100
AcDbEntity
  8
0
  6
Continuous
 62
     7
370
    15
100
AcDbLine
 10
258.4499427925
 20
66.507390334
 30
0.0
 11
258.4499427925
 21
68.0073859232
 31
0.0
  0
LINE
  5
1F5
330
1F
100
AcDbEntity
  8
0
  6
Continuous
 62
     7
370
    15
100
AcDbLine
 10
258.4499427925
 20
70.3073801535
 30
0.0
 11
257.6499441515
 21
70.3073801535
 31
0.0
  0
LINE
  5
1F6
330
1F
100
AcDbEntity
  8
0
  6
Continuous
 62
     7
370
    15
100
AcDbLine
 10
256.1499485623
 20
68.8073845642
 30
0.0
 11
256.1499485623
 21
68.0073859232
 31
0.0
  0
LINE
  5
1F7
330
1F
100
AcDbEntity
  8
0
  6
Continuous
 62
     7
370
    15
100
AcDbLine
 10
256.1499485623
 20
68.0073859232
 30
0.0
 11
257.6499441515
 21
68.0073859232
 31
0.0
  0
CIRCLE
  5
1F8
330
1F
100
AcDbEntity
  8
0
  6
Continuous
 62
     7
370
    15
100
AcDbCircle
 10
258.0499488484
 20
68.4073873299
 30
0.0
 40
2.999999999999972
  0
LINE
  5
1F9
330
1F
100
AcDbEntity
  8
0
  6
Continuous
 62
     7
370
    15
100
AcDbLine
 10
257.6499441515
 20
66.507390334
 30
0.0
 11
258.4499427925
 21
66.507390334
 31
0.0
  0
ARC
  5
1FA
330
1F
100
AcDbEntity
  8
0
  6
Continuous
 62
     7
370
    15
100
AcDbCircle
 10
258.0499488483
 20
533.4073873299
 30
0.0
 40
1.500000000000178
100
AcDbArc
 50
227.2726046868
 51
316.3971810272
  0
ARC
  5
1FB
330
1F
100
AcDbEntity
  8
0
  6
Continuous
 62
     7
370
    15
100
AcDbCircle
 10
247.5499488484
 20
543.4073873299
 30
0.0
 40
16.00000000000015
100
AcDbArc
 50
316.3971810272
 51
43.6028189726
  0
LINE
  5
1FC
330
1F
100
AcDbEntity
  8
0
  6
Continuous
 62
     7
370
    15
100
AcDbLine
 10
252.0499536644
 20
549.9073924559
 30
0.0
 11
257.0321867119
 21
554.5092733639
 31
0.0
  0
LINE
  5
1FD
330
1F
100
AcDbEntity
  8
0
  6
Continuous
 62
     7
370
    15
100
AcDbLine
 10
257.0321867119
 20
532.3055001038
 30
0.0
 11
252.0499536644
 21
536.9073810118
 31
0.0
  0
ARC
  5
1FE
330
1F
100
AcDbEntity
  8
0
  6
Continuous
 62
     7
370
    15
100
AcDbCircle
 10
258.0499488484
 20
553.4073873299
 30
0.0
 40
1.500000000000028
100
AcDbArc
 50
43.6028189726
 51
132.7273953127
  0
LINE
  5
1FF
330
1F
100
AcDbEntity
  8
0
  6
Continuous
 62
     7
370
    15
100
AcDbLine
 10
251.8489369999
 20
549.9073924559
 30
0.0
 11
252.0499536644
 21
549.9073924559
 31
0.0
  0
LINE
  5
200
330
1F
100
AcDbEntity
  8
0
  6
Continuous
 62
     7
370
    15
100
AcDbLine
 10
252.0499536644
 20
536.9073810118
 30
0.0
 11
251.8489369999
 21
536.9073810118
 31
0.0
  0
LINE
  5
201
330
1F
100
AcDbEntity
  8
0
  6
Continuous
 62
     7
370
    15
100
AcDbLine
 10
252.0499536644
 20
79.907393648
 30
0.0
 11
257.0321867119
 21
84.509274556
 31
0.0
  0
ARC
  5
202
330
1F
100
AcDbEntity
  8
0
  6
Continuous
 62
     7
370
    15
100
AcDbCircle
 10
258.0499488484
 20
83.4073873299
 30
0.0
 40
1.499999999999978
100
AcDbArc
 50
43.6028189726
 51
132.7273953127
  0
ARC
  5
203
330
1F
100
AcDbEntity
  8
0
  6
Continuous
 62
     7
370
    15
100
AcDbCircle
 10
247.5499488484
 20
73.4073873299
 30
0.0
 40
16.00000000000016
100
AcDbArc
 50
316.3971810272
 51
43.6028189726
  0
ARC
  5
204
330
1F
100
AcDbEntity
  8
0
  6
Continuous
 62
     7
370
    15
100
AcDbCircle
 10
258.0499488483
 20
63.4073873299
 30
0.0
 40
1.500000000000144
100
AcDbArc
 50
227.2726046868
 51
316.3971810272
  0
LINE
  5
205
330
1F
100
AcDbEntity
  8
0
  6
Continuous
 62
     7
370
    15
100
AcDbLine
 10
257.0321867119
 20
62.3055012959
 30
0.0
 11
252.0499536644
 21
66.9073822039
 31
0.0
  0
LINE
  5
206
330
1F
100
AcDbEntity
  8
0
  6
Continuous
 62
     7
370
    15
100
AcDbLine
 10
251.8489369999
 20
79.907393648
 30
0.0
 11
252.0499536644
 21
79.907393648
 31
0.0
  0
LINE
  5
207
330
1F
100
AcDbEntity
  8
0
  6
Continuous
 62
     7
370
    15
100
AcDbLine
 10
252.0499536644
 20
66.9073822039
 30
0.0
 11
251.8489369999
 21
66.9073822039
 31
0.0
  0
LINE
  5
208
330
1F
100
AcDbEntity
  8
0
  6
Continuous
 62
     7
370
    15
100
AcDbLine
 10
260.0499549757
 20
553.3948751229
 30
0.0
 11
260.0499549757
 21
593.4073837536
 31
0.0
  0
LINE
  5
209
330
1F
100
AcDbEntity
  8
0
  6
Continuous
 62
     7
370
    15
100
AcDbLine
 10
255.0499448429
 20
552.678367688
 30
0.0
 11
255.0499448429
 21
593.4073837536
 31
0.0
  0
LINE
  5
20A
330
1F
100
AcDbEntity
  8
0
  6
Continuous
 62
     7
370
    15
100
AcDbLine
 10
255.0499448429
 20
593.4073837536
 30
0.0
 11
260.0499549757
 21
593.4073837536
 31
0.0
  0
LINE
  5
20B
330
1F
100
AcDbEntity
  8
0
  6
Continuous
 62
     7
370
    15
100
AcDbLine
 10
260.0499549757
 20
593.4073837536
 30
0.0
 11
275.0499555718
 21
593.4073837536
 31
0.0
  0
LINE
  5
20C
330
1F
100
AcDbEntity
  8
0
  6
Continuous
 62
     7
370
    15
100
AcDbLine
 10
260.0499549757
 20
593.4073837536
 30
0.0
 11
260.0499549757
 21
608.4073992508
 31
0.0
  0
ARC
  5
20D
330
1F
100
AcDbEntity
  8
0
  6
Continuous
 62
     7
370
    15
100
AcDbCircle
 10
260.0499488484
 20
593.4073873299
 30
0.0
 40
15.00000000000006
100
AcDbArc
 50
0.0
 51
90.0
  0
LINE
  5
20E
330
1F
100
AcDbEntity
  8
0
  6
Continuous
 62
     7
370
    15
100
AcDbLine
 10
255.0499448429
 20
593.4073837536
 30
0.0
 11
255.0499448429
 21
608.4073992508
 31
0.0
  0
LINE
  5
20F
330
1F
100
AcDbEntity
  8
0
  6
Continuous
 62
     7
370
    15
100
AcDbLine
 10
255.0499448429
 20
608.4073992508
 30
0.0
 11
260.0499549757
 21
608.4073992508
 31
0.0
  0
LINE
  5
210
330
1F
100
AcDbEntity
  8
0
  6
Continuous
 62
     7
370
    15
100
AcDbLine
 10
260.0499549757
 20
63.4198995369
 30
0.0
 11
260.0499549757
 21
23.4073909062
 31
0.0
  0
LINE
  5
211
330
1F
100
AcDbEntity
  8
0
  6
Continuous
 62
     7
370
    15
100
AcDbLine
 10
260.0499549757
 20
83.394876315
 30
0.0
 11
260.0499549757
 21
533.4198983448
 31
0.0
  0
LINE
  5
212
330
1F
100
AcDbEntity
  8
0
  6
Continuous
 62
     7
370
    15
100
AcDbLine
 10
275.0499555718
 20
593.4073837536
 30
0.0
 11
275.0499555718
 21
23.4073909062
 31
0.0
  0
LINE
  5
213
330
1F
100
AcDbEntity
  8
0
  6
Continuous
 62
     7
370
    15
100
AcDbLine
 10
260.0499549757
 20
23.4073909062
 30
0.0
 11
275.0499555718
 21
23.4073909062
 31
0.0
  0
LINE
  5
214
330
1F
100
AcDbEntity
  8
0
  6
Continuous
 62
     7
370
    15
100
AcDbLine
 10
255.0499448429
 20
82.6783688801
 30
0.0
 11
255.0499448429
 21
534.1364057797
 31
0.0
  0
LINE
  5
215
330
1F
100
AcDbEntity
  8
0
  6
Continuous
 62
     7
370
    15
100
AcDbLine
 10
255.0499448429
 20
23.4073909062
 30
0.0
 11
260.0499549757
 21
23.4073909062
 31
0.0
  0
LINE
  5
216
330
1F
100
AcDbEntity
  8
0
  6
Continuous
 62
     7
370
    15
100
AcDbLine
 10
255.0499448429
 20
64.1364069718
 30
0.0
 11
255.0499448429
 21
23.4073909062
 31
0.0
  0
LINE
  5
217
330
1F
100
AcDbEntity
  8
0
  6
Continuous
 62
     7
370
    15
100
AcDbLine
 10
260.0499549757
 20
23.4073909062
 30
0.0
 11
260.0499549757
 21
8.407375409
 31
0.0
  0
ARC
  5
218
330
1F
100
AcDbEntity
  8
0
  6
Continuous
 62
     7
370
    15
100
AcDbCircle
 10
260.0499488484
 20
23.4073873299
 30
0.0
 40
15.00000000000006
100
AcDbArc
 50
270.0
 51
0.0
  0
LINE
  5
219
330
1F
100
AcDbEntity
  8
0
  6
Continuous
 62
     7
370
    15
100
AcDbLine
 10
255.0499448429
 20
8.407375409
 30
0.0
 11
260.0499549757
 21
8.407375409
 31
0.0
  0
LINE
  5
21A
330
1F
100
AcDbEntity
  8
0
  6
Continuous
 62
     7
370
    15
100
AcDbLine
 10
255.0499448429
 20
23.4073909062
 30
0.0
 11
255.0499448429
 21
8.407375409
 31
0.0
  0
LINE
  5
21B
330
1F
100
AcDbEntity
  8
0
  6
Continuous
 62
     7
370
    15
100
AcDbLine
 10
238.2608810316
 20
68.7073828715
 30
0.0
 11
238.2608810316
 21
77.3073943394
 31
0.0
  0
LINE
  5
21C
330
1F
100
AcDbEntity
  8
0
  6
Continuous
 62
     7
370
    15
100
AcDbLine
 10
238.2608810316
 20
68.7073828715
 30
0.0
 11
232.7465871226
 21
68.7073828715
 31
0.0
  0
LINE
  5
21D
330
1F
100
AcDbEntity
  8
0
  6
Continuous
 62
     7
370
    15
100
AcDbLine
 10
232.7465871226
 20
68.7073828715
 30
0.0
 11
232.7465871226
 21
77.3073943394
 31
0.0
  0
LINE
  5
21E
330
1F
100
AcDbEntity
  8
0
  6
Continuous
 62
     7
370
    15
100
AcDbLine
 10
238.2608810316
 20
77.3073943394
 30
0.0
 11
232.7465871226
 21
77.3073943394
 31
0.0
  0
LINE
  5
21F
330
1F
100
AcDbEntity
  8
0
  6
Continuous
 62
     7
370
    15
100
AcDbLine
 10
231.632322992
 20
80.6073905962
 30
0.0
 11
206.8202206742
 21
80.6073905962
 31
0.0
  0
LINE
  5
220
330
1F
100
AcDbEntity
  8
0
  6
Continuous
 62
     7
370
    15
100
AcDbLine
 10
231.632322992
 20
77.3073943394
 30
0.0
 11
231.632322992
 21
80.6073905962
 31
0.0
  0
LINE
  5
221
330
1F
100
AcDbEntity
  8
0
  6
Continuous
 62
     7
370
    15
100
AcDbLine
 10
231.632322992
 20
66.2073852557
 30
0.0
 11
231.632322992
 21
68.7073828715
 31
0.0
  0
LINE
  5
222
330
1F
100
AcDbEntity
  8
0
  6
Continuous
 62
     7
370
    15
100
AcDbLine
 10
206.8202206742
 20
66.2073852557
 30
0.0
 11
231.632322992
 21
66.2073852557
 31
0.0
  0
LINE
  5
223
330
1F
100
AcDbEntity
  8
0
  6
Continuous
 62
     7
370
    15
100
AcDbLine
 10
206.8202206742
 20
66.2073852557
 30
0.0
 11
206.8202206742
 21
80.6073905962
 31
0.0
  0
LINE
  5
224
330
1F
100
AcDbEntity
  8
0
  6
Continuous
 62
     7
370
    15
100
AcDbLine
 10
231.632322992
 20
68.7073828715
 30
0.0
 11
232.7465871226
 21
68.7073828715
 31
0.0
  0
LINE
  5
225
330
1F
100
AcDbEntity
  8
0
  6
Continuous
 62
     7
370
    15
100
AcDbLine
 10
231.632322992
 20
77.3073943394
 30
0.0
 11
232.7465871226
 21
77.3073943394
 31
0.0
  0
LINE
  5
226
330
1F
100
AcDbEntity
  8
0
  6
Continuous
 62
     7
370
    15
100
AcDbLine
 10
231.7599514376
 20
65.4100390213
 30
0.0
 11
233.6521753918
 21
65.4100390213
 31
0.0
  0
LINE
  5
227
330
1F
100
AcDbEntity
  8
0
  6
Continuous
 62
     7
370
    15
100
AcDbLine
 10
233.6521753918
 20
65.4100390213
 30
0.0
 11
234.3249330174
 21
65.4073866146
 31
0.0
  0
LINE
  5
228
330
1F
100
AcDbEntity
  8
0
  6
Continuous
 62
     7
370
    15
100
AcDbLine
 10
234.3249330174
 20
65.4073866146
 30
0.0
 11
206.9591292988
 21
65.4073866146
 31
0.0
  0
ARC
  5
229
330
1F
100
AcDbEntity
  8
0
  6
Continuous
 62
     7
370
    15
100
AcDbCircle
 10
208.0761279598
 20
66.0133969735
 30
0.0
 40
1.270800756943095
100
AcDbArc
 50
171.2194457622
 51
208.4813602857
  0
ARC
  5
22A
330
1F
100
AcDbEntity
  8
0
  6
Continuous
 62
     7
370
    15
100
AcDbCircle
 10
233.1065311
 20
66.0344689949
 30
0.0
 40
1.484314514888961
100
AcDbArc
 50
173.3100976524
 51
204.877889688
  0
LINE
  5
22B
330
1F
100
AcDbEntity
  8
0
  6
Continuous
 62
     7
370
    15
100
AcDbLine
 10
233.6521753918
 20
81.4047368305
 30
0.0
 11
231.7599514376
 21
81.4047368305
 31
0.0
  0
ARC
  5
22C
330
1F
100
AcDbEntity
  8
0
  6
Continuous
 62
     7
370
    15
100
AcDbCircle
 10
233.1065311
 20
80.780306857
 30
0.0
 40
1.484314514888961
100
AcDbArc
 50
155.122110312
 51
186.6899023476
  0
ARC
  5
22D
330
1F
100
AcDbEntity
  8
0
  6
Continuous
 62
     7
370
    15
100
AcDbCircle
 10
208.0761279598
 20
80.8013788784
 30
0.0
 40
1.270800756943095
100
AcDbArc
 50
151.5186397143
 51
188.7805542378
  0
LINE
  5
22E
330
1F
100
AcDbEntity
  8
0
  6
Continuous
 62
     7
370
    15
100
AcDbLine
 10
206.9591292988
 20
81.4073892372
 30
0.0
 11
234.3249330174
 21
81.4073892372
 31
0.0
  0
LINE
  5
22F
330
1F
100
AcDbEntity
  8
0
  6
Continuous
 62
     7
370
    15
100
AcDbLine
 10
234.3249330174
 20
81.4073892372
 30
0.0
 11
233.6521753918
 21
81.4047368305
 31
0.0
  0
LINE
  5
230
330
1F
100
AcDbEntity
  8
0
  6
Continuous
 62
     7
370
    15
100
AcDbLine
 10
231.7599514376
 20
65.4100390213
 30
0.0
 11
231.7599514376
 21
66.2073852557
 31
0.0
  0
LINE
  5
231
330
1F
100
AcDbEntity
  8
0
  6
Continuous
 62
     7
370
    15
100
AcDbLine
 10
231.7712465178
 20
68.7073828715
 30
0.0
 11
231.7712465178
 21
66.2073852557
 31
0.0
  0
LINE
  5
232
330
1F
100
AcDbEntity
  8
0
  6
Continuous
 62
     7
370
    15
100
AcDbLine
 10
231.7599514376
 20
80.6073905962
 30
0.0
 11
231.7599514376
 21
81.4047368305
 31
0.0
  0
LINE
  5
233
330
1F
100
AcDbEntity
  8
0
  6
Continuous
 62
     7
370
    15
100
AcDbLine
 10
231.7712465178
 20
80.6073905962
 30
0.0
 11
231.7712465178
 21
77.3073943394
 31
0.0
  0
LINE
  5
234
330
1F
100
AcDbEntity
  8
0
  6
Continuous
 62
     7
370
    15
100
AcDbLine
 10
233.6521753918
 20
80.6073905962
 30
0.0
 11
233.6521753918
 21
81.4047368305
 31
0.0
  0
LINE
  5
235
330
1F
100
AcDbEntity
  8
0
  6
Continuous
 62
     7
370
    15
100
AcDbLine
 10
237.7599486958
 20
81.4073892372
 30
0.0
 11
234.3249330174
 21
81.4073892372
 31
0.0
  0
LINE
  5
236
330
1F
100
AcDbEntity
  8
0
  6
Continuous
 62
     7
370
    15
100
AcDbLine
 10
237.7599486958
 20
80.6073905962
 30
0.0
 11
233.6521753918
 21
80.6073905962
 31
0.0
  0
LINE
  5
237
330
1F
100
AcDbEntity
  8
0
  6
Continuous
 62
     7
370
    15
100
AcDbLine
 10
237.7599486958
 20
65.4073866146
 30
0.0
 11
234.3249330174
 21
65.4073866146
 31
0.0
  0
LINE
  5
238
330
1F
100
AcDbEntity
  8
0
  6
Continuous
 62
     7
370
    15
100
AcDbLine
 10
233.6521753918
 20
65.4100390213
 30
0.0
 11
233.6521753918
 21
66.2073852557
 31
0.0
  0
LINE
  5
239
330
1F
100
AcDbEntity
  8
0
  6
Continuous
 62
     7
370
    15
100
AcDbLine
 10
237.7599486958
 20
66.2073852557
 30
0.0
 11
233.6521753918
 21
66.2073852557
 31
0.0
  0
LINE
  5
23A
330
1F
100
AcDbEntity
  8
0
  6
Continuous
 62
     7
370
    15
100
AcDbLine
 10
231.7599514376
 20
66.2073852557
 30
0.0
 11
233.6521753918
 21
66.2073852557
 31
0.0
  0
LINE
  5
23B
330
1F
100
AcDbEntity
  8
0
  6
Continuous
 62
     7
370
    15
100
AcDbLine
 10
231.7599514376
 20
80.6073905962
 30
0.0
 11
233.6521753918
 21
80.6073905962
 31
0.0
  0
LINE
  5
23C
330
1F
100
AcDbEntity
  8
0
  6
Continuous
 62
     7
370
    15
100
AcDbLine
 10
232.8299442183
 20
81.7073943156
 30
0.0
 11
237.2299441944
 21
81.7073943156
 31
0.0
  0
LINE
  5
23D
330
1F
100
AcDbEntity
  8
0
  6
Continuous
 62
     7
370
    15
100
AcDbLine
 10
232.929945911
 20
65.0073947447
 30
0.0
 11
237.1299425017
 21
65.0073947447
 31
0.0
  0
LINE
  5
23E
330
1F
100
AcDbEntity
  8
0
  6
Continuous
 62
     7
370
    15
100
AcDbLine
 10
232.929945911
 20
64.6073879736
 30
0.0
 11
237.1299425017
 21
64.6073879736
 31
0.0
  0
ARC
  5
23F
330
1F
100
AcDbEntity
  8
0
  6
Continuous
 62
     7
370
    15
100
AcDbCircle
 10
215.2258651141
 20
73.4073879259
 30
0.0
 40
16.90401408232909
100
AcDbArc
 50
154.7901718738
 51
205.2098281262
  0
SPLINE
  5
240
330
1F
100
AcDbEntity
  8
0
  6
Continuous
 62
     7
370
    15
100
AcDbSpline
210
0.0
220
0.0
230
1.0
 70
     8
 71
     3
 72
    12
 73
     8
 74
     0
 42
0.00000001
 43
0.00000001
 40
0.0
 40
0.0
 40
0.0
 40
0.0
 40
0.181883395813801
 40
0.363345223030703
 40
0.5550762443184742
 40
0.7712683290148971
 40
1.0
 40
1.0
 40
1.0
 40
1.0
 10
200.0642651568602
 20
65.40738661463737
 30
0.0
 10
200.0881253413226
 20
65.41470867100324
 30
0.0
 10
200.1357904072086
 20
65.42933581270258
 30
0.0
 10
200.150539648764
 20
65.54133518302795
 30
0.0
 10
200.1233032024222
 20
65.7107137448178
 30
0.0
 10
200.0516325271089
 20
65.93913520960601
 30
0.0
 10
199.9725476045368
 20
66.11630414972558
 30
0.0
 10
199.9318906913946
 20
66.2073852556515
 30
0.0
  0
LINE
  5
241
330
1F
100
AcDbEntity
  8
0
  6
Continuous
 62
     7
370
    15
100
AcDbLine
 10
199.679904605
 20
66.1618920105
 30
0.0
 11
200.0343510758
 21
65.4073866146
 31
0.0
  0
ARC
  5
242
330
1F
100
AcDbEntity
  8
0
  6
Continuous
 62
     7
370
    15
100
AcDbCircle
 10
214.9505485044
 20
73.4073879259
 30
0.0
 40
16.90236007663538
100
AcDbArc
 50
154.6169609233
 51
205.3830390767
  0
LINE
  5
243
330
1F
100
AcDbEntity
  8
0
  6
Continuous
 62
     7
370
    15
100
AcDbLine
 10
200.0343510758
 20
81.4073892372
 30
0.0
 11
199.679904605
 21
80.6528838414
 31
0.0
  0
SPLINE
  5
244
330
1F
100
AcDbEntity
  8
0
  6
Continuous
 62
     7
370
    15
100
AcDbSpline
210
0.0
220
0.0
230
1.0
 70
     8
 71
     3
 72
    12
 73
     8
 74
     0
 42
0.00000001
 43
0.00000001
 40
0.0
 40
0.0
 40
0.0
 40
0.0
 40
0.2510121095181576
 40
0.5023980275182197
 40
0.7402792926063967
 40
0.9473070668864495
 40
1.0
 40
1.0
 40
1.0
 40
1.0
 10
199.9318906913946
 20
80.60739059622767
 30
0.0
 10
199.9762089752604
 20
80.70727049030779
 30
0.0
 10
200.0649115420009
 20
80.90717902010294
 30
0.0
 10
200.1398972556086
 20
81.16590164395446
 30
0.0
 10
200.1513943459658
 20
81.34315804373385
 30
0.0
 10
200.1097467475392
 20
81.40357058726406
 30
0.0
 10
200.0719362637032
 20
81.40674516847594
 30
0.0
 10
200.0642651568602
 20
81.40738923724177
 30
0.0
  0
LINE
  5
245
330
1F
100
AcDbEntity
  8
0
  6
Continuous
 62
     7
370
    15
100
AcDbLine
 10
200.0642651569
 20
81.4073892372
 30
0.0
 11
200.0343510758
 21
81.4073892372
 31
0.0
  0
LINE
  5
246
330
1F
100
AcDbEntity
  8
0
  6
Continuous
 62
     7
370
    15
100
AcDbLine
 10
200.0642651569
 20
65.4073866146
 30
0.0
 11
200.0343510758
 21
65.4073866146
 31
0.0
  0
LINE
  5
247
330
1F
100
AcDbEntity
  8
0
  6
Continuous
 62
     7
370
    15
100
AcDbLine
 10
201.9213670741
 20
80.6073905962
 30
0.0
 11
199.9318906914
 21
80.6073905962
 31
0.0
  0
LINE
  5
248
330
1F
100
AcDbEntity
  8
0
  6
Continuous
 62
     7
370
    15
100
AcDbLine
 10
201.9213670741
 20
66.2073852557
 30
0.0
 11
201.9213670741
 21
80.6073905962
 31
0.0
  0
LINE
  5
249
330
1F
100
AcDbEntity
  8
0
  6
Continuous
 62
     7
370
    15
100
AcDbLine
 10
199.9318906914
 20
66.2073852557
 30
0.0
 11
201.9213670741
 21
66.2073852557
 31
0.0
  0
LWPOLYLINE
  5
24A
330
1F
100
AcDbEntity
  8
0
  6
Continuous
 62
     7
370
    15
100
AcDbPolyline
 90
        9
 70
   128
 43
0.0
 10
201.9213670741
 20
80.6073905962
 10
201.9161069642
 20
80.7634653586
 10
201.9005427014
 20
80.913534953
 10
201.8752554308
 20
81.0518475312
 10
201.8412286292
 20
81.1730684775
 10
201.7997661482
 20
81.2725635308
 10
201.752462412
 20
81.3464881914
 10
201.7011279117
 20
81.3920112389
 10
201.6477519523
 20
81.4073892372
  0
LINE
  5
24B
330
1F
100
AcDbEntity
  8
0
  6
Continuous
 62
     7
370
    15
100
AcDbLine
 10
200.0642651569
 20
81.4073892372
 30
0.0
 11
201.6477519523
 21
81.4073892372
 31
0.0
  0
LWPOLYLINE
  5
24C
330
1F
100
AcDbEntity
  8
0
  6
Continuous
 62
     7
370
    15
100
AcDbPolyline
 90
        9
 70
   128
 43
0.0
 10
201.9213670741
 20
66.2073852557
 10
201.9161069642
 20
66.0513104933
 10
201.9005427014
 20
65.9012408989
 10
201.8752554308
 20
65.7629283207
 10
201.8412286292
 20
65.6417073744
 10
201.7997661482
 20
65.5422123211
 10
201.752462412
 20
65.4682876604
 10
201.7011279117
 20
65.422764613
 10
201.6477519523
 20
65.4073866146
  0
LINE
  5
24D
330
1F
100
AcDbEntity
  8
0
  6
Continuous
 62
     7
370
    15
100
AcDbLine
 10
201.6477519523
 20
65.4073866146
 30
0.0
 11
200.0642651569
 21
65.4073866146
 31
0.0
  0
LINE
  5
24E
330
1F
100
AcDbEntity
  8
0
  6
Continuous
 62
     7
370
    15
100
AcDbLine
 10
206.8202206742
 20
80.6073905962
 30
0.0
 11
201.9213670741
 21
80.6073905962
 31
0.0
  0
LINE
  5
24F
330
1F
100
AcDbEntity
  8
0
  6
Continuous
 62
     7
370
    15
100
AcDbLine
 10
201.9213670741
 20
66.2073852557
 30
0.0
 11
206.8202206742
 21
66.2073852557
 31
0.0
  0
LINE
  5
250
330
1F
100
AcDbEntity
  8
0
  6
Continuous
 62
     7
370
    15
100
AcDbLine
 10
201.6477519523
 20
81.4073892372
 30
0.0
 11
206.9591292988
 21
81.4073892372
 31
0.0
  0
LINE
  5
251
330
1F
100
AcDbEntity
  8
0
  6
Continuous
 62
     7
370
    15
100
AcDbLine
 10
206.9591292988
 20
65.4073866146
 30
0.0
 11
201.6477519523
 21
65.4073866146
 31
0.0
  0
SPLINE
  5
252
330
1F
100
AcDbEntity
  8
0
  6
Continuous
 62
     7
370
    15
100
AcDbSpline
210
0.0
220
0.0
230
1.0
 70
     8
 71
     3
 72
    16
 73
    12
 74
     0
 42
0.00000001
 43
0.00000001
 40
0.0
 40
0.0
 40
0.0
 40
0.0
 40
0.1207066173428478
 40
0.2414140994291852
 40
0.3621161221902013
 40
0.4828242250540115
 40
0.6035297490179651
 40
0.72423647820977
 40
0.8449396443412759
 40
0.9656486508632849
 40
1.0
 40
1.0
 40
1.0
 40
1.0
 10
233.2022497307013
 20
60.45501549418453
 30
0.0
 10
233.221650743271
 20
60.4576932496273
 30
0.0
 10
233.2604529073996
 20
60.46304877969622
 30
0.0
 10
233.265374538616
 20
60.75395446435516
 30
0.0
 10
233.2281656444163
 20
61.20733039640994
 30
0.0
 10
233.151237691816
 20
61.77483887341312
 30
0.0
 10
233.0474332945972
 20
62.36317547026543
 30
0.0
 10
232.9313396906643
 20
62.88987419993389
 30
0.0
 10
232.8243233387519
 20
63.25314956338509
 30
0.0
 10
232.7517536033622
 20
63.42362857511932
 30
0.0
 10
232.7322025200502
 20
63.39046940028206
 30
0.0
 10
232.7278712640951
 20
63.38312347109798
 30
0.0
  0
SPLINE
  5
253
330
1F
100
AcDbEntity
  8
0
  6
Continuous
 62
     7
370
    15
100
AcDbSpline
210
0.0
220
0.0
230
1.0
 70
     8
 71
     3
 72
    16
 73
    12
 74
     0
 42
0.00000001
 43
0.00000001
 40
0.0
 40
0.0
 40
0.0
 40
0.0
 40
0.1205773093028023
 40
0.2411629940041617
 40
0.3617418042313628
 40
0.4823237930595241
 40
0.6029061009156373
 40
0.7234902030977304
 40
0.8440715231095615
 40
0.9646564239597908
 40
1.0
 40
1.0
 40
1.0
 40
1.0
 10
233.3728382240484
 20
86.33104582007411
 30
0.0
 10
233.3922392545145
 20
86.3283678504774
 30
0.0
 10
233.4310426630582
 20
86.32301172527002
 30
0.0
 10
233.435962551212
 20
86.03208950280877
 30
0.0
 10
233.3987556422529
 20
85.57871952812674
 30
0.0
 10
233.3218233755228
 20
85.01122177628612
 30
0.0
 10
233.2180269055357
 20
84.42287109565395
 30
0.0
 10
233.1019081869742
 20
83.89623456348222
 30
0.0
 10
232.9948960955643
 20
83.53273141589274
 30
0.0
 10
232.9221341601065
 20
83.36220999125321
 30
0.0
 10
232.9024942183508
 20
83.3957886599242
 30
0.0
 10
232.8980425249289
 20
83.40339977915767
 30
0.0
  0
SPLINE
  5
254
330
1F
100
AcDbEntity
  8
0
  6
Continuous
 62
     7
370
    15
100
AcDbSpline
210
0.0
220
0.0
230
1.0
 70
     8
 71
     3
 72
    16
 73
    12
 74
     0
 42
0.00000001
 43
0.00000001
 40
0.0
 40
0.0
 40
0.0
 40
0.0
 40
0.1205177302061663
 40
0.2410325934015554
 40
0.3615499889352475
 40
0.4820676074668435
 40
0.6025845352465417
 40
0.7230999940129991
 40
0.8436164931761072
 40
0.9641310894240808
 40
0.9999999999999999
 40
0.9999999999999999
 40
0.9999999999999999
 40
0.9999999999999999
 10
248.7432220827291
 20
63.07143588240627
 30
0.0
 10
248.762623182582
 20
63.07410388438617
 30
0.0
 10
248.8014249207526
 20
63.07943982487643
 30
0.0
 10
248.8063460744654
 20
63.37039844535899
 30
0.0
 10
248.7691396557083
 20
63.8237329409492
 30
0.0
 10
248.6922094615408
 20
64.39126222125124
 30
0.0
 10
248.5884050316498
 20
64.97960941777367
 30
0.0
 10
248.4723187562166
 20
65.5062183105003
 30
0.0
 10
248.3652626682378
 20
65.86980004554118
 30
0.0
 10
248.2924097392631
 20
66.04040129912961
 30
0.0
 10
248.2727191899772
 20
66.00658490292658
 30
0.0
 10
248.2682028661917
 20
65.99882860358241
 30
0.0
  0
SPLINE
  5
255
330
1F
100
AcDbEntity
  8
0
  6
Continuous
 62
     7
370
    15
100
AcDbSpline
210
0.0
220
0.0
230
1.0
 70
     8
 71
     3
 72
    16
 73
    12
 74
     0
 42
0.00000001
 43
0.00000001
 40
0.0
 40
0.0
 40
0.0
 40
0.0
 40
0.1205181162498971
 40
0.2410328176295806
 40
0.3615500513441671
 40
0.4820646142895711
 40
0.6025813802507916
 40
0.723097164529483
 40
0.843617588722802
 40
0.9641311375853857
 40
1.0
 40
1.0
 40
1.0
 40
1.0
 10
248.9137956749151
 20
83.71462543185237
 30
0.0
 10
248.9332031004896
 20
83.71195125945744
 30
0.0
 10
248.9720174017309
 20
83.70660299044003
 30
0.0
 10
248.9769331831884
 20
83.41564904377948
 30
0.0
 10
248.9397299902248
 20
82.9623168351106
 30
0.0
 10
248.8627945564982
 20
82.39479371925171
 30
0.0
 10
248.7590006903483
 20
81.80645629938144
 30
0.0
 10
248.6428789624746
 20
81.27981555404266
 30
0.0
 10
248.5358612775807
 20
80.91625052855001
 30
0.0
 10
248.462997535659
 20
80.74566091394337
 30
0.0
 10
248.4433075740958
 20
80.77947654329847
 30
0.0
 10
248.4387913595388
 20
80.78723271067622
 30
0.0
  0
SPLINE
  5
256
330
1F
100
AcDbEntity
  8
0
  6
Continuous
 62
     7
370
    15
100
AcDbSpline
210
0.0
220
0.0
230
1.0
 70
    24
 71
     3
 72
    16
 73
    12
 74
     0
 42
0.00000001
 43
0.00000001
 40
0.0
 40
0.0
 40
0.0
 40
0.0
 40
0.0611042412805948
 40
0.1864670502232474
 40
0.311832109630077
 40
0.4371980005123943
 40
0.5625599899456356
 40
0.68792400593719
 40
0.8132867973268191
 40
0.9386468025897463
 40
1.0
 40
1.0
 40
1.0
 40
1.0
 10
251.8201330553244
 20
66.5411563652325
 30
0.0
 10
251.8259060782553
 20
66.54115636523252
 30
0.0
 10
251.8435231623438
 20
66.54115636523242
 30
0.0
 10
251.62508337442
 20
66.54115636523258
 30
0.0
 10
251.2123557555022
 20
66.54115636523244
 30
0.0
 10
250.655879366064
 20
66.54115636523252
 30
0.0
 10
250.0567703286408
 20
66.54115636523247
 30
0.0
 10
249.498083525729
 20
66.54115636523255
 30
0.0
 10
249.0811274476874
 20
66.54115636523244
 30
0.0
 10
248.8581252266623
 20
66.54115636523258
 30
0.0
 10
248.8729409758376
 20
66.5411563652325
 30
0.0
 10
248.877809370632
 20
66.5411563652325
 30
0.0
  0
SPLINE
  5
257
330
1F
100
AcDbEntity
  8
0
  6
Continuous
 62
     7
370
    15
100
AcDbSpline
210
0.0
220
0.0
230
1.0
 70
    24
 71
     3
 72
    16
 73
    12
 74
     0
 42
0.00000001
 43
0.00000001
 40
0.0
 40
0.0
 40
0.0
 40
0.0
 40
0.0610064913464802
 40
0.1861687543686247
 40
0.3113332642548242
 40
0.4364986042863799
 40
0.5616600491101023
 40
0.6868235172502032
 40
0.8119857627474041
 40
0.9371452265749375
 40
1.0
 40
1.0
 40
1.0
 40
1.0
 10
251.8201330553244
 20
80.09978254015925
 30
0.0
 10
251.825906072031
 20
80.09978254015925
 30
0.0
 10
251.8435231371254
 20
80.09978254015918
 30
0.0
 10
251.6250836082345
 20
80.09978254015934
 30
0.0
 10
251.2123548988223
 20
80.09978254015915
 30
0.0
 10
250.6558825589435
 20
80.09978254015931
 30
0.0
 10
250.0567584141317
 20
80.09978254015923
 30
0.0
 10
249.4981279916374
 20
80.0997825401592
 30
0.0
 10
249.0809615021815
 20
80.09978254015928
 30
0.0
 10
248.8574692729611
 20
80.09978254015923
 30
0.0
 10
248.8726908608249
 20
80.09978254015923
 30
0.0
 10
248.8777795683096
 20
80.09978254015925
 30
0.0
  0
SPLINE
  5
258
330
1F
100
AcDbEntity
  8
0
  6
Continuous
 62
     7
370
    15
100
AcDbSpline
210
0.0
220
0.0
230
1.0
 70
     8
 71
     3
 72
    19
 73
    15
 74
     0
 42
0.00000001
 43
0.00000001
 40
0.0
 40
0.0
 40
0.0
 40
0.0
 40
0.003953643606286
 40
0.1157767832426191
 40
0.2280457028451627
 40
0.3355275063018638
 40
0.4377157972172647
 40
0.5348805011114118
 40
0.6283084881993899
 40
0.7303075123809571
 40
0.8413439207008482
 40
0.9641174937051638
 40
0.9937689117660614
 40
1.0
 40
1.0
 40
1.0
 40
1.0
 10
238.148228253002
 20
79.00739331419948
 30
0.0
 10
238.1486205137994
 20
79.00738627310172
 30
0.0
 10
238.160107308727
 20
79.00718008465097
 30
0.0
 10
238.1834242742188
 20
78.9921144440213
 30
0.0
 10
238.2268978260766
 20
78.92517282965281
 30
0.0
 10
238.2648804905734
 20
78.82049692754259
 30
0.0
 10
238.2883588844066
 20
78.69541447752859
 30
0.0
 10
238.2997009190567
 20
78.56698076008465
 30
0.0
 10
238.3003086088591
 20
78.44581142164758
 30
0.0
 10
238.2845101882849
 20
78.33657732835373
 30
0.0
 10
238.2441454721609
 20
78.24716424017697
 30
0.0
 10
238.192258110541
 20
78.21210944604576
 30
0.0
 10
238.1575684954019
 20
78.20749762530693
 30
0.0
 10
238.1496102265706
 20
78.20740990588546
 30
0.0
 10
238.148228253002
 20
78.20739467318538
 30
0.0
  0
SPLINE
  5
259
330
1F
100
AcDbEntity
  8
0
  6
Continuous
 62
     7
370
    15
100
AcDbSpline
210
0.0
220
0.0
230
1.0
 70
     8
 71
     3
 72
    30
 73
    26
 74
     0
 42
0.00000001
 43
0.00000001
 40
0.0
 40
0.0
 40
0.0
 40
0.0
 40
0.1247232616015811
 40
0.2494249701916693
 40
0.3741220461539542
 40
0.4367845043751706
 40
0.4681543241527593
 40
0.4838433442513496
 40
0.4916944920166305
 40
0.4956137147182473
 40
0.4975717612271945
 40
0.4985535315064625
 40
0.4990416657565275
 40
0.4992871083263445
 40
0.4994085232564097
 40
0.4994726374853025
 40
0.4995083546255512
 40
0.4995202603389674
 40
0.4995370975603503
 40
0.5609251010496817
 40
0.6646215493476941
 40
0.7325831335816372
 40
0.8111551208643246
 40
0.9002871034151999
 40
0.9999999999999999
 40
0.9999999999999999
 40
0.9999999999999999
 40
0.9999999999999999
 10
238.2199177395056
 20
79.06728108103755
 30
0.0
 10
238.2256870440256
 20
79.06548985199092
 30
0.0
 10
238.2372246560913
 20
79.0619077034339
 30
0.0
 10
238.3270673016448
 20
79.04005355498956
 30
0.0
 10
238.4345403121474
 20
79.01438377047049
 30
0.0
 10
238.5200877518278
 20
78.9939693235609
 30
0.0
 10
238.5641987910769
 20
78.98344954034384
 30
0.0
 10
238.5864160760915
 20
78.97809622037528
 30
0.0
 10
238.5975613400427
 20
78.9754729343638
 30
0.0
 10
238.6031204911842
 20
78.97409690169854
 30
0.0
 10
238.6059137688079
 20
78.97347495688881
 30
0.0
 10
238.6072926871304
 20
78.97309218240781
 30
0.0
 10
238.6079975729036
 20
78.97296336390966
 30
0.0
 10
238.608337559939
 20
78.97285122263054
 30
0.0
 10
238.6085197810084
 20
78.97284053944794
 30
0.0
 10
238.6086022306229
 20
78.9727891144553
 30
0.0
 10
238.6086485276486
 20
78.97279110427365
 30
0.0
 10
238.6086772550622
 20
78.97279535536511
 30
0.0
 10
238.6245485949658
 20
78.94929475960733
 30
0.0
 10
238.7082989701097
 20
78.9662340084289
 30
0.0
 10
238.7903945813018
 20
78.92982078809358
 30
0.0
 10
238.8758146890092
 20
78.91611033073534
 30
0.0
 10
238.9388351843533
 20
78.90229355927563
 30
0.0
 10
238.9895387124743
 20
78.89295602288985
 30
0.0
 10
238.9967318739036
 20
78.89244654678632
 30
0.0
 10
239.0005299698065
 20
78.89217753584865
 30
0.0
  0
ELLIPSE
  5
25A
330
1F
100
AcDbEntity
  8
0
  6
Continuous
 62
     7
370
    15
100
AcDbEllipse
 10
238.8770572421
 20
80.1893625086
 30
0.0
 11
0.3906095144045878
 21
-0.08616383961160068
 31
0.0
210
0.0
220
0.0
230
1.0
 40
0.0142285888
 41
0.0
 42
6.283185307179586
  0
LINE
  5
25B
330
1F
100
AcDbEntity
  8
0
  6
Continuous
 62
     7
370
    15
100
AcDbLine
 10
238.2608810316
 20
538.7073816794
 30
0.0
 11
238.2608810316
 21
547.3073931473
 31
0.0
  0
LINE
  5
25C
330
1F
100
AcDbEntity
  8
0
  6
Continuous
 62
     7
370
    15
100
AcDbLine
 10
232.7465871226
 20
538.7073816794
 30
0.0
 11
232.7465871226
 21
547.3073931473
 31
0.0
  0
LINE
  5
25D
330
1F
100
AcDbEntity
  8
0
  6
Continuous
 62
     7
370
    15
100
AcDbLine
 10
238.2608810316
 20
547.3073931473
 30
0.0
 11
232.7465871226
 21
547.3073931473
 31
0.0
  0
LINE
  5
25E
330
1F
100
AcDbEntity
  8
0
  6
Continuous
 62
     7
370
    15
100
AcDbLine
 10
238.2608810316
 20
538.7073816794
 30
0.0
 11
232.7465871226
 21
538.7073816794
 31
0.0
  0
LINE
  5
25F
330
1F
100
AcDbEntity
  8
0
  6
Continuous
 62
     7
370
    15
100
AcDbLine
 10
231.632322992
 20
550.6073894041
 30
0.0
 11
206.8202206742
 21
550.6073894041
 31
0.0
  0
LINE
  5
260
330
1F
100
AcDbEntity
  8
0
  6
Continuous
 62
     7
370
    15
100
AcDbLine
 10
231.632322992
 20
547.3073931473
 30
0.0
 11
231.632322992
 21
550.6073894041
 31
0.0
  0
LINE
  5
261
330
1F
100
AcDbEntity
  8
0
  6
Continuous
 62
     7
370
    15
100
AcDbLine
 10
231.632322992
 20
536.2073840636
 30
0.0
 11
231.632322992
 21
538.7073816794
 31
0.0
  0
LINE
  5
262
330
1F
100
AcDbEntity
  8
0
  6
Continuous
 62
     7
370
    15
100
AcDbLine
 10
206.8202206742
 20
536.2073840636
 30
0.0
 11
231.632322992
 21
536.2073840636
 31
0.0
  0
LINE
  5
263
330
1F
100
AcDbEntity
  8
0
  6
Continuous
 62
     7
370
    15
100
AcDbLine
 10
206.8202206742
 20
536.2073840636
 30
0.0
 11
206.8202206742
 21
550.6073894041
 31
0.0
  0
LINE
  5
264
330
1F
100
AcDbEntity
  8
0
  6
Continuous
 62
     7
370
    15
100
AcDbLine
 10
231.632322992
 20
547.3073931473
 30
0.0
 11
232.7465871226
 21
547.3073931473
 31
0.0
  0
LINE
  5
265
330
1F
100
AcDbEntity
  8
0
  6
Continuous
 62
     7
370
    15
100
AcDbLine
 10
231.632322992
 20
538.7073816794
 30
0.0
 11
232.7465871226
 21
538.7073816794
 31
0.0
  0
LINE
  5
266
330
1F
100
AcDbEntity
  8
0
  6
Continuous
 62
     7
370
    15
100
AcDbLine
 10
233.6521753918
 20
551.4047356385
 30
0.0
 11
231.7599514376
 21
551.4047356385
 31
0.0
  0
ARC
  5
267
330
1F
100
AcDbEntity
  8
0
  6
Continuous
 62
     7
370
    15
100
AcDbCircle
 10
233.1065311
 20
550.7803056649
 30
0.0
 40
1.484314514888965
100
AcDbArc
 50
155.122110312
 51
186.6899023476
  0
ARC
  5
268
330
1F
100
AcDbEntity
  8
0
  6
Continuous
 62
     7
370
    15
100
AcDbCircle
 10
208.0761279598
 20
550.8013776863
 30
0.0
 40
1.270800756943102
100
AcDbArc
 50
151.5186397143
 51
188.7805542378
  0
LINE
  5
269
330
1F
100
AcDbEntity
  8
0
  6
Continuous
 62
     7
370
    15
100
AcDbLine
 10
206.9591292988
 20
551.4073880451
 30
0.0
 11
234.3249330174
 21
551.4073880451
 31
0.0
  0
LINE
  5
26A
330
1F
100
AcDbEntity
  8
0
  6
Continuous
 62
     7
370
    15
100
AcDbLine
 10
234.3249330174
 20
551.4073880451
 30
0.0
 11
233.6521753918
 21
551.4047356385
 31
0.0
  0
LINE
  5
26B
330
1F
100
AcDbEntity
  8
0
  6
Continuous
 62
     7
370
    15
100
AcDbLine
 10
231.7599514376
 20
535.4100378292
 30
0.0
 11
233.6521753918
 21
535.4100378292
 31
0.0
  0
LINE
  5
26C
330
1F
100
AcDbEntity
  8
0
  6
Continuous
 62
     7
370
    15
100
AcDbLine
 10
233.6521753918
 20
535.4100378292
 30
0.0
 11
234.3249330174
 21
535.4073854225
 31
0.0
  0
LINE
  5
26D
330
1F
100
AcDbEntity
  8
0
  6
Continuous
 62
     7
370
    15
100
AcDbLine
 10
234.3249330174
 20
535.4073854225
 30
0.0
 11
206.9591292988
 21
535.4073854225
 31
0.0
  0
ARC
  5
26E
330
1F
100
AcDbEntity
  8
0
  6
Continuous
 62
     7
370
    15
100
AcDbCircle
 10
208.0761279598
 20
536.0133957814
 30
0.0
 40
1.270800756943102
100
AcDbArc
 50
171.2194457622
 51
208.4813602857
  0
ARC
  5
26F
330
1F
100
AcDbEntity
  8
0
  6
Continuous
 62
     7
370
    15
100
AcDbCircle
 10
233.1065311
 20
536.0344678028
 30
0.0
 40
1.484314514888973
100
AcDbArc
 50
173.3100976524
 51
204.877889688
  0
LINE
  5
270
330
1F
100
AcDbEntity
  8
0
  6
Continuous
 62
     7
370
    15
100
AcDbLine
 10
231.7599514376
 20
535.4100378292
 30
0.0
 11
231.7599514376
 21
536.2073840636
 31
0.0
  0
LINE
  5
271
330
1F
100
AcDbEntity
  8
0
  6
Continuous
 62
     7
370
    15
100
AcDbLine
 10
231.7712465178
 20
538.7073816794
 30
0.0
 11
231.7712465178
 21
536.2073840636
 31
0.0
  0
LINE
  5
272
330
1F
100
AcDbEntity
  8
0
  6
Continuous
 62
     7
370
    15
100
AcDbLine
 10
231.7599514376
 20
550.6073894041
 30
0.0
 11
231.7599514376
 21
551.4047356385
 31
0.0
  0
LINE
  5
273
330
1F
100
AcDbEntity
  8
0
  6
Continuous
 62
     7
370
    15
100
AcDbLine
 10
231.7712465178
 20
550.6073894041
 30
0.0
 11
231.7712465178
 21
547.3073931473
 31
0.0
  0
LINE
  5
274
330
1F
100
AcDbEntity
  8
0
  6
Continuous
 62
     7
370
    15
100
AcDbLine
 10
233.6521753918
 20
550.6073894041
 30
0.0
 11
233.6521753918
 21
551.4047356385
 31
0.0
  0
LINE
  5
275
330
1F
100
AcDbEntity
  8
0
  6
Continuous
 62
     7
370
    15
100
AcDbLine
 10
237.7599486958
 20
551.4073880451
 30
0.0
 11
234.3249330174
 21
551.4073880451
 31
0.0
  0
LINE
  5
276
330
1F
100
AcDbEntity
  8
0
  6
Continuous
 62
     7
370
    15
100
AcDbLine
 10
237.7599486958
 20
550.6073894041
 30
0.0
 11
233.6521753918
 21
550.6073894041
 31
0.0
  0
LINE
  5
277
330
1F
100
AcDbEntity
  8
0
  6
Continuous
 62
     7
370
    15
100
AcDbLine
 10
237.7599486958
 20
535.4073854225
 30
0.0
 11
234.3249330174
 21
535.4073854225
 31
0.0
  0
LINE
  5
278
330
1F
100
AcDbEntity
  8
0
  6
Continuous
 62
     7
370
    15
100
AcDbLine
 10
233.6521753918
 20
535.4100378292
 30
0.0
 11
233.6521753918
 21
536.2073840636
 31
0.0
  0
LINE
  5
279
330
1F
100
AcDbEntity
  8
0
  6
Continuous
 62
     7
370
    15
100
AcDbLine
 10
237.7599486958
 20
536.2073840636
 30
0.0
 11
233.6521753918
 21
536.2073840636
 31
0.0
  0
LINE
  5
27A
330
1F
100
AcDbEntity
  8
0
  6
Continuous
 62
     7
370
    15
100
AcDbLine
 10
231.7599514376
 20
536.2073840636
 30
0.0
 11
233.6521753918
 21
536.2073840636
 31
0.0
  0
LINE
  5
27B
330
1F
100
AcDbEntity
  8
0
  6
Continuous
 62
     7
370
    15
100
AcDbLine
 10
231.7599514376
 20
550.6073894041
 30
0.0
 11
233.6521753918
 21
550.6073894041
 31
0.0
  0
LINE
  5
27C
330
1F
100
AcDbEntity
  8
0
  6
Continuous
 62
     7
370
    15
100
AcDbLine
 10
232.8299442183
 20
551.7073931235
 30
0.0
 11
237.2299441944
 21
551.7073931235
 31
0.0
  0
LINE
  5
27D
330
1F
100
AcDbEntity
  8
0
  6
Continuous
 62
     7
370
    15
100
AcDbLine
 10
232.929945911
 20
535.0073935526
 30
0.0
 11
237.1299425017
 21
535.0073935526
 31
0.0
  0
LINE
  5
27E
330
1F
100
AcDbEntity
  8
0
  6
Continuous
 62
     7
370
    15
100
AcDbLine
 10
232.929945911
 20
534.6073867815
 30
0.0
 11
237.1299425017
 21
534.6073867815
 31
0.0
  0
ARC
  5
27F
330
1F
100
AcDbEntity
  8
0
  6
Continuous
 62
     7
370
    15
100
AcDbCircle
 10
215.2258651141
 20
543.4073867338
 30
0.0
 40
16.90401408232909
100
AcDbArc
 50
154.7901718738
 51
205.2098281262
  0
SPLINE
  5
280
330
1F
100
AcDbEntity
  8
0
  6
Continuous
 62
     7
370
    15
100
AcDbSpline
210
0.0
220
0.0
230
1.0
 70
     8
 71
     3
 72
    12
 73
     8
 74
     0
 42
0.00000001
 43
0.00000001
 40
0.0
 40
0.0
 40
0.0
 40
0.0
 40
0.1818837080735567
 40
0.36334584682646
 40
0.5550842991093163
 40
0.7712679363254195
 40
1.0
 40
1.0
 40
1.0
 40
1.0
 10
200.0642651568602
 20
535.4073854225445
 30
0.0
 10
200.0881254011712
 20
535.4147077385572
 30
0.0
 10
200.1357905866157
 20
535.4293353989482
 30
0.0
 10
200.1505391048983
 20
535.5413322457052
 30
0.0
 10
200.1233057339468
 20
535.710727813903
 30
0.0
 10
200.0516299876208
 20
535.9391342709957
 30
0.0
 10
199.9725472745073
 20
536.116301851369
 30
0.0
 10
199.9318906913946
 20
536.2073840635586
 30
0.0
  0
LINE
  5
281
330
1F
100
AcDbEntity
  8
0
  6
Continuous
 62
     7
370
    15
100
AcDbLine
 10
199.679904605
 20
536.1618908184
 30
0.0
 11
200.0343510758
 21
535.4073854225
 31
0.0
  0
ARC
  5
282
330
1F
100
AcDbEntity
  8
0
  6
Continuous
 62
     7
370
    15
100
AcDbCircle
 10
214.9505485044
 20
543.4073867338
 30
0.0
 40
16.90236007663538
100
AcDbArc
 50
154.6169609233
 51
205.3830390767
  0
LINE
  5
283
330
1F
100
AcDbEntity
  8
0
  6
Continuous
 62
     7
370
    15
100
AcDbLine
 10
200.0343510758
 20
551.4073880451
 30
0.0
 11
199.679904605
 21
550.6528826493
 31
0.0
  0
SPLINE
  5
284
330
1F
100
AcDbEntity
  8
0
  6
Continuous
 62
     7
370
    15
100
AcDbSpline
210
0.0
220
0.0
230
1.0
 70
     8
 71
     3
 72
    12
 73
     8
 74
     0
 42
0.00000001
 43
0.00000001
 40
0.0
 40
0.0
 40
0.0
 40
0.0
 40
0.2510115209817573
 40
0.5023968495689679
 40
0.7402775569080239
 40
0.9473076809133472
 40
1.0
 40
1.0
 40
1.0
 40
1.0
 10
199.9318906913946
 20
550.6073894041348
 30
0.0
 10
199.9762089611843
 20
550.7072689165677
 30
0.0
 10
200.0649114997515
 20
550.9071766825001
 30
0.0
 10
200.1398974211095
 20
551.1659049391071
 30
0.0
 10
200.1513938410619
 20
551.3431426146087
 30
0.0
 10
200.1097474989216
 20
551.4036030183822
 30
0.0
 10
200.0719362735001
 20
551.4067496571395
 30
0.0
 10
200.0642651568602
 20
551.4073880451489
 30
0.0
  0
LINE
  5
285
330
1F
100
AcDbEntity
  8
0
  6
Continuous
 62
     7
370
    15
100
AcDbLine
 10
200.0642651569
 20
551.4073880451
 30
0.0
 11
200.0343510758
 21
551.4073880451
 31
0.0
  0
LINE
  5
286
330
1F
100
AcDbEntity
  8
0
  6
Continuous
 62
     7
370
    15
100
AcDbLine
 10
200.0642651569
 20
535.4073854225
 30
0.0
 11
200.0343510758
 21
535.4073854225
 31
0.0
  0
LINE
  5
287
330
1F
100
AcDbEntity
  8
0
  6
Continuous
 62
     7
370
    15
100
AcDbLine
 10
201.9213670741
 20
550.6073894041
 30
0.0
 11
199.9318906914
 21
550.6073894041
 31
0.0
  0
LINE
  5
288
330
1F
100
AcDbEntity
  8
0
  6
Continuous
 62
     7
370
    15
100
AcDbLine
 10
201.9213670741
 20
536.2073840636
 30
0.0
 11
201.9213670741
 21
550.6073894041
 31
0.0
  0
LINE
  5
289
330
1F
100
AcDbEntity
  8
0
  6
Continuous
 62
     7
370
    15
100
AcDbLine
 10
199.9318906914
 20
536.2073840636
 30
0.0
 11
201.9213670741
 21
536.2073840636
 31
0.0
  0
LWPOLYLINE
  5
28A
330
1F
100
AcDbEntity
  8
0
  6
Continuous
 62
     7
370
    15
100
AcDbPolyline
 90
        9
 70
   128
 43
0.0
 10
201.9213670741
 20
550.6073894041
 10
201.9161069642
 20
550.7634641665
 10
201.9005427014
 20
550.9135337609
 10
201.8752554308
 20
551.0518463391
 10
201.8412286292
 20
551.1730672854
 10
201.7997661482
 20
551.2725623387
 10
201.752462412
 20
551.3464869993
 10
201.7011279117
 20
551.3920100468
 10
201.6477519523
 20
551.4073880451
  0
LINE
  5
28B
330
1F
100
AcDbEntity
  8
0
  6
Continuous
 62
     7
370
    15
100
AcDbLine
 10
200.0642651569
 20
551.4073880451
 30
0.0
 11
201.6477519523
 21
551.4073880451
 31
0.0
  0
LWPOLYLINE
  5
28C
330
1F
100
AcDbEntity
  8
0
  6
Continuous
 62
     7
370
    15
100
AcDbPolyline
 90
        9
 70
   128
 43
0.0
 10
201.9213670741
 20
536.2073840636
 10
201.9161069642
 20
536.0513093012
 10
201.9005427014
 20
535.9012397068
 10
201.8752554308
 20
535.7629271286
 10
201.8412286292
 20
535.6417061823
 10
201.7997661482
 20
535.542211129
 10
201.752462412
 20
535.4682864683
 10
201.7011279117
 20
535.4227634209
 10
201.6477519523
 20
535.4073854225
  0
LINE
  5
28D
330
1F
100
AcDbEntity
  8
0
  6
Continuous
 62
     7
370
    15
100
AcDbLine
 10
201.6477519523
 20
535.4073854225
 30
0.0
 11
200.0642651569
 21
535.4073854225
 31
0.0
  0
LINE
  5
28E
330
1F
100
AcDbEntity
  8
0
  6
Continuous
 62
     7
370
    15
100
AcDbLine
 10
206.8202206742
 20
550.6073894041
 30
0.0
 11
201.9213670741
 21
550.6073894041
 31
0.0
  0
LINE
  5
28F
330
1F
100
AcDbEntity
  8
0
  6
Continuous
 62
     7
370
    15
100
AcDbLine
 10
201.9213670741
 20
536.2073840636
 30
0.0
 11
206.8202206742
 21
536.2073840636
 31
0.0
  0
LINE
  5
290
330
1F
100
AcDbEntity
  8
0
  6
Continuous
 62
     7
370
    15
100
AcDbLine
 10
206.9591292988
 20
535.4073854225
 30
0.0
 11
201.6477519523
 21
535.4073854225
 31
0.0
  0
LINE
  5
291
330
1F
100
AcDbEntity
  8
0
  6
Continuous
 62
     7
370
    15
100
AcDbLine
 10
201.6477519523
 20
551.4073880451
 30
0.0
 11
206.9591292988
 21
551.4073880451
 31
0.0
  0
SPLINE
  5
292
330
1F
100
AcDbEntity
  8
0
  6
Continuous
 62
     7
370
    15
100
AcDbSpline
210
0.0
220
0.0
230
1.0
 70
     8
 71
     3
 72
    16
 73
    12
 74
     0
 42
0.00000001
 43
0.00000001
 40
0.0
 40
0.0
 40
0.0
 40
0.0
 40
0.1207067955157754
 40
0.2414158779518819
 40
0.3621180788790437
 40
0.4828234616598915
 40
0.6035291637951588
 40
0.7242360711600564
 40
0.8449394154593958
 40
0.9656486001578589
 40
1.0
 40
1.0
 40
1.0
 40
1.0
 10
233.2022497307013
 20
530.4550143020916
 30
0.0
 10
233.2216507493891
 20
530.4576908386456
 30
0.0
 10
233.2604531543379
 20
530.4630439624633
 30
0.0
 10
233.2653743992335
 20
530.7539707394591
 30
0.0
 10
233.2281667159339
 20
531.2073396497515
 30
0.0
 10
233.1512362727433
 20
531.7748420030612
 30
0.0
 10
233.0474334522524
 20
532.3631743819016
 30
0.0
 10
232.9313396483198
 20
532.8898729799805
 30
0.0
 10
232.8243233504796
 20
533.2531483790084
 30
0.0
 10
232.7517536026826
 20
533.4236273825796
 30
0.0
 10
232.732202519927
 20
533.3904682081081
 30
0.0
 10
232.7278712640951
 20
533.3831222790051
 30
0.0
  0
SPLINE
  5
293
330
1F
100
AcDbEntity
  8
0
  6
Continuous
 62
     7
370
    15
100
AcDbSpline
210
0.0
220
0.0
230
1.0
 70
     8
 71
     3
 72
    16
 73
    12
 74
     0
 42
0.00000001
 43
0.00000001
 40
0.0
 40
0.0
 40
0.0
 40
0.0
 40
0.1205773093028023
 40
0.2411629940041617
 40
0.3617418042313628
 40
0.4823237930595241
 40
0.6029061009156373
 40
0.7234902030977304
 40
0.8440715231095615
 40
0.9646564239597908
 40
1.0
 40
1.0
 40
1.0
 40
1.0
 10
233.3728382240484
 20
556.3310446279812
 30
0.0
 10
233.3922392545145
 20
556.3283666583844
 30
0.0
 10
233.4310426630582
 20
556.3230105331771
 30
0.0
 10
233.435962551212
 20
556.032088310716
 30
0.0
 10
233.3987556422529
 20
555.5787183360337
 30
0.0
 10
233.3218233755228
 20
555.0112205841933
 30
0.0
 10
233.2180269055357
 20
554.422869903561
 30
0.0
 10
233.1019081869742
 20
553.8962333713893
 30
0.0
 10
232.9948960955643
 20
553.5327302237998
 30
0.0
 10
232.9221341601065
 20
553.3622087991603
 30
0.0
 10
232.9024942183508
 20
553.3957874678313
 30
0.0
 10
232.8980425249289
 20
553.4033985870648
 30
0.0
  0
SPLINE
  5
294
330
1F
100
AcDbEntity
  8
0
  6
Continuous
 62
     7
370
    15
100
AcDbSpline
210
0.0
220
0.0
230
1.0
 70
     8
 71
     3
 72
    16
 73
    12
 74
     0
 42
0.00000001
 43
0.00000001
 40
0.0
 40
0.0
 40
0.0
 40
0.0
 40
0.1205176402004448
 40
0.2410324133922535
 40
0.3615497189204739
 40
0.4820672474464318
 40
0.6025840852210076
 40
0.7231021263394293
 40
0.8436166099673077
 40
0.9641311162119002
 40
1.0
 40
1.0
 40
1.0
 40
1.0
 10
248.7432220827292
 20
533.0714346903134
 30
0.0
 10
248.7626231808333
 20
533.0741026883414
 30
0.0
 10
248.8014249155064
 20
533.0794386209282
 30
0.0
 10
248.8063460954498
 20
533.3703973006873
 30
0.0
 10
248.7691395770141
 20
533.8237315710224
 30
0.0
 10
248.6922097553318
 20
534.3912616930706
 30
0.0
 10
248.5884031679234
 20
534.9796100965762
 30
0.0
 10
248.4723217050651
 20
535.506231117727
 30
0.0
 10
248.3652612404933
 20
535.8697965986006
 30
0.0
 10
248.2924097954365
 20
536.0404003168906
 30
0.0
 10
248.2727192004576
 20
536.0065837499866
 30
0.0
 10
248.2682028661917
 20
535.9988274114895
 30
0.0
  0
SPLINE
  5
295
330
1F
100
AcDbEntity
  8
0
  6
Continuous
 62
     7
370
    15
100
AcDbSpline
210
0.0
220
0.0
230
1.0
 70
     8
 71
     3
 72
    16
 73
    12
 74
     0
 42
0.00000001
 43
0.00000001
 40
0.0
 40
0.0
 40
0.0
 40
0.0
 40
0.1205181162498971
 40
0.2410328176295806
 40
0.3615500513441671
 40
0.4820646142895711
 40
0.6025813802507916
 40
0.723097164529483
 40
0.843617588722802
 40
0.9641311375853857
 40
1.0
 40
1.0
 40
1.0
 40
1.0
 10
248.9137956749151
 20
553.7146242397595
 30
0.0
 10
248.9332031004896
 20
553.7119500673646
 30
0.0
 10
248.9720174017309
 20
553.706601798347
 30
0.0
 10
248.9769331831884
 20
553.4156478516865
 30
0.0
 10
248.9397299902248
 20
552.9623156430176
 30
0.0
 10
248.8627945564982
 20
552.3947925271589
 30
0.0
 10
248.7590006903483
 20
551.8064551072887
 30
0.0
 10
248.6428789624746
 20
551.2798143619499
 30
0.0
 10
248.5358612775807
 20
550.9162493364571
 30
0.0
 10
248.462997535659
 20
550.7456597218503
 30
0.0
 10
248.4433075740958
 20
550.7794753512056
 30
0.0
 10
248.4387913595388
 20
550.7872315185833
 30
0.0
  0
SPLINE
  5
296
330
1F
100
AcDbEntity
  8
0
  6
Continuous
 62
     7
370
    15
100
AcDbSpline
210
0.0
220
0.0
230
1.0
 70
    24
 71
     3
 72
    16
 73
    12
 74
     0
 42
0.00000001
 43
0.00000001
 40
0.0
 40
0.0
 40
0.0
 40
0.0
 40
0.0611042412805948
 40
0.1864670502232474
 40
0.311832109630077
 40
0.4371980005123943
 40
0.5625599899456356
 40
0.68792400593719
 40
0.8132867973268191
 40
0.9386468025897463
 40
1.0
 40
1.0
 40
1.0
 40
1.0
 10
251.8201330553244
 20
536.5411551731396
 30
0.0
 10
251.8259060782553
 20
536.5411551731396
 30
0.0
 10
251.8435231623438
 20
536.5411551731396
 30
0.0
 10
251.62508337442
 20
536.5411551731396
 30
0.0
 10
251.2123557555022
 20
536.5411551731396
 30
0.0
 10
250.655879366064
 20
536.5411551731396
 30
0.0
 10
250.0567703286408
 20
536.5411551731396
 30
0.0
 10
249.498083525729
 20
536.5411551731396
 30
0.0
 10
249.0811274476874
 20
536.5411551731396
 30
0.0
 10
248.8581252266623
 20
536.5411551731395
 30
0.0
 10
248.8729409758376
 20
536.5411551731396
 30
0.0
 10
248.877809370632
 20
536.5411551731396
 30
0.0
  0
SPLINE
  5
297
330
1F
100
AcDbEntity
  8
0
  6
Continuous
 62
     7
370
    15
100
AcDbSpline
210
0.0
220
0.0
230
1.0
 70
    24
 71
     3
 72
    16
 73
    12
 74
     0
 42
0.00000001
 43
0.00000001
 40
0.0
 40
0.0
 40
0.0
 40
0.0
 40
0.0610064913464802
 40
0.1861687543686247
 40
0.3113332642548242
 40
0.4364986042863799
 40
0.5616600491101023
 40
0.6868235172502032
 40
0.8119857627474041
 40
0.9371452265749375
 40
1.0
 40
1.0
 40
1.0
 40
1.0
 10
251.8201330553244
 20
550.0997813480664
 30
0.0
 10
251.825906072031
 20
550.0997813480664
 30
0.0
 10
251.8435231371254
 20
550.0997813480665
 30
0.0
 10
251.6250836082345
 20
550.0997813480664
 30
0.0
 10
251.2123548988223
 20
550.0997813480664
 30
0.0
 10
250.6558825589435
 20
550.0997813480664
 30
0.0
 10
250.0567584141317
 20
550.0997813480664
 30
0.0
 10
249.4981279916374
 20
550.0997813480664
 30
0.0
 10
249.0809615021815
 20
550.0997813480664
 30
0.0
 10
248.8574692729611
 20
550.0997813480665
 30
0.0
 10
248.8726908608249
 20
550.0997813480664
 30
0.0
 10
248.8777795683096
 20
550.0997813480664
 30
0.0
  0
SPLINE
  5
298
330
1F
100
AcDbEntity
  8
0
  6
Continuous
 62
     7
370
    15
100
AcDbSpline
210
0.0
220
0.0
230
1.0
 70
     8
 71
     3
 72
    19
 73
    15
 74
     0
 42
0.00000001
 43
0.00000001
 40
0.0
 40
0.0
 40
0.0
 40
0.0
 40
0.003953643606286
 40
0.1157767832426191
 40
0.2280457028451627
 40
0.3355275063018638
 40
0.4377157972172647
 40
0.5348805011114118
 40
0.6283084881993899
 40
0.7303075123809571
 40
0.8413439207008482
 40
0.9641174937051638
 40
0.9937689117660614
 40
1.0
 40
1.0
 40
1.0
 40
1.0
 10
238.148228253002
 20
549.0073921221066
 30
0.0
 10
238.1486205137994
 20
549.0073850810089
 30
0.0
 10
238.160107308727
 20
549.0071788925592
 30
0.0
 10
238.1834242742188
 20
548.9921132519282
 30
0.0
 10
238.2268978260766
 20
548.92517163756
 30
0.0
 10
238.2648804905734
 20
548.8204957354496
 30
0.0
 10
238.2883588844066
 20
548.6954132854357
 30
0.0
 10
238.2997009190567
 20
548.5669795679918
 30
0.0
 10
238.3003086088591
 20
548.4458102295546
 30
0.0
 10
238.2845101882849
 20
548.3365761362609
 30
0.0
 10
238.2441454721609
 20
548.2471630480841
 30
0.0
 10
238.192258110541
 20
548.2121082539526
 30
0.0
 10
238.1575684954019
 20
548.2074964332143
 30
0.0
 10
238.1496102265706
 20
548.2074087137926
 30
0.0
 10
238.148228253002
 20
548.2073934810925
 30
0.0
  0
SPLINE
  5
299
330
1F
100
AcDbEntity
  8
0
  6
Continuous
 62
     7
370
    15
100
AcDbSpline
210
0.0
220
0.0
230
1.0
 70
     8
 71
     3
 72
    30
 73
    26
 74
     0
 42
0.00000001
 43
0.00000001
 40
0.0
 40
0.0
 40
0.0
 40
0.0
 40
0.1247232616015811
 40
0.2494249701916693
 40
0.3741220461539542
 40
0.4367845043751706
 40
0.4681543241527593
 40
0.4838433442513496
 40
0.4916944920166305
 40
0.4956137147182473
 40
0.4975717612271945
 40
0.4985535315064625
 40
0.4990416657565275
 40
0.4992871083263445
 40
0.4994085232564097
 40
0.4994726374853025
 40
0.4995083546255512
 40
0.4995202603389674
 40
0.4995370975603503
 40
0.5609251010496817
 40
0.6646215493476941
 40
0.7325831335816372
 40
0.8111551208643246
 40
0.9002871034151999
 40
0.9999999999999999
 40
0.9999999999999999
 40
0.9999999999999999
 40
0.9999999999999999
 10
238.2199177395056
 20
549.0672798889447
 30
0.0
 10
238.2256870440256
 20
549.065488659898
 30
0.0
 10
238.2372246560913
 20
549.061906511341
 30
0.0
 10
238.3270673016448
 20
549.0400523628967
 30
0.0
 10
238.4345403121474
 20
549.0143825783773
 30
0.0
 10
238.5200877518278
 20
548.993968131468
 30
0.0
 10
238.5641987910769
 20
548.9834483482509
 30
0.0
 10
238.5864160760915
 20
548.9780950282823
 30
0.0
 10
238.5975613400427
 20
548.975471742271
 30
0.0
 10
238.6031204911842
 20
548.9740957096056
 30
0.0
 10
238.6059137688079
 20
548.9734737647959
 30
0.0
 10
238.6072926871304
 20
548.9730909903151
 30
0.0
 10
238.6079975729036
 20
548.9729621718167
 30
0.0
 10
238.608337559939
 20
548.9728500305375
 30
0.0
 10
238.6085197810084
 20
548.9728393473551
 30
0.0
 10
238.6086022306229
 20
548.9727879223623
 30
0.0
 10
238.6086485276486
 20
548.9727899121808
 30
0.0
 10
238.6086772550622
 20
548.9727941632723
 30
0.0
 10
238.6245485949658
 20
548.9492935674116
 30
0.0
 10
238.7082989701097
 20
548.966232816419
 30
0.0
 10
238.7903945813018
 20
548.929819595984
 30
0.0
 10
238.8758146890092
 20
548.9161091386468
 30
0.0
 10
238.9388351843533
 20
548.9022923671812
 30
0.0
 10
238.9895387124743
 20
548.8929548307975
 30
0.0
 10
238.9967318739036
 20
548.8924453546937
 30
0.0
 10
239.0005299698065
 20
548.8921763437558
 30
0.0
  0
ELLIPSE
  5
29A
330
1F
100
AcDbEntity
  8
0
  6
Continuous
 62
     7
370
    15
100
AcDbEllipse
 10
238.8770572421
 20
550.1893625086
 30
0.0
 11
0.3906095144045878
 21
-0.08616383961157226
 31
0.0
210
0.0
220
0.0
230
1.0
 40
0.0142285888
 41
0.0
 42
6.283185307179586
  0
LINE
  5
29B
330
1F
100
AcDbEntity
  8
0
  6
Continuous
 62
     7
370
    15
100
AcDbLine
 10
238.0499550949
 20
537.657386257
 30
0.0
 11
238.0499550949
 21
536.6573842305
 31
0.0
  0
LINE
  5
29C
330
1F
100
AcDbEntity
  8
0
  6
Continuous
 62
     7
370
    15
100
AcDbLine
 10
238.0499550949
 20
536.6573842305
 30
0.0
 11
231.8499544512
 21
536.6573842305
 31
0.0
  0
LINE
  5
29D
330
1F
100
AcDbEntity
  8
0
  6
Continuous
 62
     7
370
    15
100
AcDbLine
 10
231.8499544512
 20
537.657386257
 30
0.0
 11
231.8499544512
 21
536.6573842305
 31
0.0
  0
LINE
  5
29E
330
1F
100
AcDbEntity
  8
0
  6
Continuous
 62
     7
370
    15
100
AcDbLine
 10
238.0499550949
 20
537.657386257
 30
0.0
 11
231.8499544512
 21
537.657386257
 31
0.0
  0
LINE
  5
29F
330
1F
100
AcDbEntity
  8
0
  6
Continuous
 62
     7
370
    15
100
AcDbLine
 10
238.0499550949
 20
67.6573874491
 30
0.0
 11
238.0499550949
 21
66.6573854225
 31
0.0
  0
LINE
  5
2A0
330
1F
100
AcDbEntity
  8
0
  6
Continuous
 62
     7
370
    15
100
AcDbLine
 10
238.0499550949
 20
66.6573854225
 30
0.0
 11
231.8499544512
 21
66.6573854225
 31
0.0
  0
LINE
  5
2A1
330
1F
100
AcDbEntity
  8
0
  6
Continuous
 62
     7
370
    15
100
AcDbLine
 10
231.8499544512
 20
67.6573874491
 30
0.0
 11
231.8499544512
 21
66.6573854225
 31
0.0
  0
LINE
  5
2A2
330
1F
100
AcDbEntity
  8
0
  6
Continuous
 62
     7
370
    15
100
AcDbLine
 10
238.0499550949
 20
67.6573874491
 30
0.0
 11
231.8499544512
 21
67.6573874491
 31
0.0
  0
LINE
  5
2A3
330
1F
100
AcDbEntity
  8
0
  6
Continuous
 62
     7
370
    15
100
AcDbLine
 10
238.0499550949
 20
80.1573904293
 30
0.0
 11
238.0499550949
 21
79.1573884028
 31
0.0
  0
LINE
  5
2A4
330
1F
100
AcDbEntity
  8
0
  6
Continuous
 62
     7
370
    15
100
AcDbLine
 10
231.8499544512
 20
80.1573904293
 30
0.0
 11
231.8499544512
 21
79.1573884028
 31
0.0
  0
LINE
  5
2A5
330
1F
100
AcDbEntity
  8
0
  6
Continuous
 62
     7
370
    15
100
AcDbLine
 10
238.0499550949
 20
80.1573904293
 30
0.0
 11
231.8499544512
 21
80.1573904293
 31
0.0
  0
LINE
  5
2A6
330
1F
100
AcDbEntity
  8
0
  6
Continuous
 62
     7
370
    15
100
AcDbLine
 10
238.0499550949
 20
79.1573884028
 30
0.0
 11
231.8499544512
 21
79.1573884028
 31
0.0
  0
LINE
  5
2A7
330
1F
100
AcDbEntity
  8
0
  6
Continuous
 62
     7
370
    15
100
AcDbLine
 10
238.0499550949
 20
550.1573892372
 30
0.0
 11
238.0499550949
 21
549.1573872107
 31
0.0
  0
LINE
  5
2A8
330
1F
100
AcDbEntity
  8
0
  6
Continuous
 62
     7
370
    15
100
AcDbLine
 10
231.8499544512
 20
550.1573892372
 30
0.0
 11
231.8499544512
 21
549.1573872107
 31
0.0
  0
LINE
  5
2A9
330
1F
100
AcDbEntity
  8
0
  6
Continuous
 62
     7
370
    15
100
AcDbLine
 10
238.0499550949
 20
549.1573872107
 30
0.0
 11
231.8499544512
 21
549.1573872107
 31
0.0
  0
LINE
  5
2AA
330
1F
100
AcDbEntity
  8
0
  6
Continuous
 62
     7
370
    15
100
AcDbLine
 10
238.0499550949
 20
550.1573892372
 30
0.0
 11
231.8499544512
 21
550.1573892372
 31
0.0
  0
LWPOLYLINE
  5
2AB
330
1F
100
AcDbEntity
  8
0
  6
Continuous
 62
     7
370
    15
100
AcDbPolyline
 90
        3
 70
   128
 43
0.0
 10
231.7712465178
 20
537.046244933
 10
231.7738244187
 20
537.0400758522
 10
231.8499544512
 20
536.6573842305
  0
LWPOLYLINE
  5
2AC
330
1F
100
AcDbEntity
  8
0
  6
Continuous
 62
     7
370
    15
100
AcDbPolyline
 90
        3
 70
   128
 43
0.0
 10
231.8499544512
 20
550.1573892372
 10
231.7738244187
 20
549.7746976155
 10
231.7712465178
 20
549.7685285347
  0
LINE
  5
2AD
330
1F
100
AcDbEntity
  8
0
  6
Continuous
 62
     7
370
    15
100
AcDbLine
 10
238.0499550949
 20
549.1573872107
 30
0.0
 11
238.0499550949
 21
549.0073921221
 31
0.0
  0
LINE
  5
2AE
330
1F
100
AcDbEntity
  8
0
  6
Continuous
 62
     7
370
    15
100
AcDbLine
 10
238.0499550949
 20
548.2073934811
 30
0.0
 11
238.0499550949
 21
547.3073931473
 31
0.0
  0
LINE
  5
2AF
330
1F
100
AcDbEntity
  8
0
  6
Continuous
 62
     7
370
    15
100
AcDbLine
 10
238.0499550949
 20
538.7073816794
 30
0.0
 11
238.0499550949
 21
537.657386257
 31
0.0
  0
LWPOLYLINE
  5
2B0
330
1F
100
AcDbEntity
  8
0
  6
Continuous
 62
     7
370
    15
100
AcDbPolyline
 90
        3
 70
   128
 43
0.0
 10
231.7712465178
 20
67.0462461251
 10
231.7738244187
 20
67.0400770443
 10
231.8499544512
 20
66.6573854225
  0
LWPOLYLINE
  5
2B1
330
1F
100
AcDbEntity
  8
0
  6
Continuous
 62
     7
370
    15
100
AcDbPolyline
 90
        3
 70
   128
 43
0.0
 10
231.8499544512
 20
80.1573904293
 10
231.7738244187
 20
79.7746988076
 10
231.7712465178
 20
79.7685297268
  0
LINE
  5
2B2
330
1F
100
AcDbEntity
  8
0
  6
Continuous
 62
     7
370
    15
100
AcDbLine
 10
238.0499550949
 20
79.1573884028
 30
0.0
 11
238.0499550949
 21
79.0073933142
 31
0.0
  0
LINE
  5
2B3
330
1F
100
AcDbEntity
  8
0
  6
Continuous
 62
     7
370
    15
100
AcDbLine
 10
238.0499550949
 20
78.2073946732
 30
0.0
 11
238.0499550949
 21
77.3073943394
 31
0.0
  0
LINE
  5
2B4
330
1F
100
AcDbEntity
  8
0
  6
Continuous
 62
     7
370
    15
100
AcDbLine
 10
238.0499550949
 20
68.7073828715
 30
0.0
 11
238.0499550949
 21
67.6573874491
 31
0.0
  0
LINE
  5
2B5
330
1F
100
AcDbEntity
  8
0
  6
Continuous
 62
     7
370
    15
100
AcDbLine
 10
90.049948531
 20
23.4073909062
 30
0.0
 11
75.0499488662
 21
23.4073909062
 31
0.0
  0
LINE
  5
2B6
330
1F
100
AcDbEntity
  8
0
  6
Continuous
 62
     7
370
    15
100
AcDbLine
 10
90.049948531
 20
23.4073909062
 30
0.0
 11
90.049948531
 21
8.407375409
 31
0.0
  0
ARC
  5
2B7
330
1F
100
AcDbEntity
  8
0
  6
Continuous
 62
     7
370
    15
100
AcDbCircle
 10
90.0499488484
 20
23.4073873299
 30
0.0
 40
15.00000000000001
100
AcDbArc
 50
180.0
 51
270.0
  0
LINE
  5
2B8
330
1F
100
AcDbEntity
  8
0
  6
Continuous
 62
     7
370
    15
100
AcDbLine
 10
231.0499558102
 20
28.4073861378
 30
0.0
 11
95.0499484192
 21
28.4073861378
 31
0.0
  0
LINE
  5
2B9
330
1F
100
AcDbEntity
  8
0
  6
Continuous
 62
     7
370
    15
100
AcDbLine
 10
231.0499558102
 20
28.4073861378
 30
0.0
 11
231.0499558102
 21
60.5948479908
 31
0.0
  0
LINE
  5
2BA
330
1F
100
AcDbEntity
  8
0
  6
Continuous
 62
     7
370
    15
100
AcDbLine
 10
231.0499558102
 20
63.934630348
 30
0.0
 11
231.0499558102
 21
65.4073866146
 31
0.0
  0
LINE
  5
2BB
330
1F
100
AcDbEntity
  8
0
  6
Continuous
 62
     7
370
    15
100
AcDbLine
 10
231.0499558102
 20
81.4073892372
 30
0.0
 11
231.0499558102
 21
82.8667940634
 31
0.0
  0
LINE
  5
2BC
330
1F
100
AcDbEntity
  8
0
  6
Continuous
 62
     7
370
    15
100
AcDbLine
 10
231.0499558102
 20
86.2095119494
 30
0.0
 11
231.0499558102
 21
530.5948467987
 31
0.0
  0
LINE
  5
2BD
330
1F
100
AcDbEntity
  8
0
  6
Continuous
 62
     7
370
    15
100
AcDbLine
 10
231.0499558102
 20
533.934629156
 30
0.0
 11
231.0499558102
 21
535.4073854225
 31
0.0
  0
LINE
  5
2BE
330
1F
100
AcDbEntity
  8
0
  6
Continuous
 62
     7
370
    15
100
AcDbLine
 10
231.0499558102
 20
551.4073880451
 30
0.0
 11
231.0499558102
 21
552.8667928713
 31
0.0
  0
LINE
  5
2BF
330
1F
100
AcDbEntity
  8
0
  6
Continuous
 62
     7
370
    15
100
AcDbLine
 10
231.0499558102
 20
556.2095107573
 30
0.0
 11
231.0499558102
 21
588.407388522
 31
0.0
  0
LINE
  5
2C0
330
1F
100
AcDbEntity
  8
0
  6
Continuous
 62
     7
370
    15
100
AcDbLine
 10
231.0499558102
 20
588.407388522
 30
0.0
 11
95.0499484192
 21
588.407388522
 31
0.0
  0
LINE
  5
2C1
330
1F
100
AcDbEntity
  8
0
  6
Continuous
 62
     7
370
    15
100
AcDbLine
 10
95.0499484192
 20
588.407388522
 30
0.0
 11
95.0499484192
 21
28.4073861378
 31
0.0
  0
LINE
  5
2C2
330
1F
100
AcDbEntity
  8
0
  6
Continuous
 62
     7
370
    15
100
AcDbLine
 10
251.0499516379
 20
593.4073837536
 30
0.0
 11
251.0499516379
 21
552.3833097952
 31
0.0
  0
LINE
  5
2C3
330
1F
100
AcDbEntity
  8
0
  6
Continuous
 62
     7
370
    15
100
AcDbLine
 10
251.0499516379
 20
534.3994857806
 30
0.0
 11
251.0499516379
 21
82.3833109873
 31
0.0
  0
LINE
  5
2C4
330
1F
100
AcDbEntity
  8
0
  6
Continuous
 62
     7
370
    15
100
AcDbLine
 10
251.0499516379
 20
64.3994869726
 30
0.0
 11
251.0499516379
 21
23.4073909062
 31
0.0
  0
LINE
  5
2C5
330
1F
100
AcDbEntity
  8
0
  6
Continuous
 62
     7
370
    15
100
AcDbLine
 10
251.0499516379
 20
23.4073909062
 30
0.0
 11
90.049948531
 21
23.4073909062
 31
0.0
  0
LINE
  5
2C6
330
1F
100
AcDbEntity
  8
0
  6
Continuous
 62
     7
370
    15
100
AcDbLine
 10
90.049948531
 20
593.4073837536
 30
0.0
 11
90.049948531
 21
23.4073909062
 31
0.0
  0
LINE
  5
2C7
330
1F
100
AcDbEntity
  8
0
  6
Continuous
 62
     7
370
    15
100
AcDbLine
 10
251.0499516379
 20
593.4073837536
 30
0.0
 11
90.049948531
 21
593.4073837536
 31
0.0
  0
LINE
  5
2C8
330
1F
100
AcDbEntity
  8
0
  6
Continuous
 62
     7
370
    15
100
AcDbLine
 10
251.0499516379
 20
608.4073992508
 30
0.0
 11
251.0499516379
 21
593.4073837536
 31
0.0
  0
LINE
  5
2C9
330
1F
100
AcDbEntity
  8
0
  6
Continuous
 62
     7
370
    15
100
AcDbLine
 10
90.049948531
 20
608.4073992508
 30
0.0
 11
90.049948531
 21
593.4073837536
 31
0.0
  0
LINE
  5
2CA
330
1F
100
AcDbEntity
  8
0
  6
Continuous
 62
     7
370
    15
100
AcDbLine
 10
251.0499516379
 20
608.4073992508
 30
0.0
 11
90.049948531
 21
608.4073992508
 31
0.0
  0
LINE
  5
2CB
330
1F
100
AcDbEntity
  8
0
  6
Continuous
 62
     7
370
    15
100
AcDbLine
 10
251.0499516379
 20
23.4073909062
 30
0.0
 11
251.0499516379
 21
8.407375409
 31
0.0
  0
LINE
  5
2CC
330
1F
100
AcDbEntity
  8
0
  6
Continuous
 62
     7
370
    15
100
AcDbLine
 10
251.0499516379
 20
8.407375409
 30
0.0
 11
90.049948531
 21
8.407375409
 31
0.0
  0
ARC
  5
2CD
330
1F
100
AcDbEntity
  8
0
  6
Continuous
 62
     7
370
    15
100
AcDbCircle
 10
90.0499488484
 20
593.4073873299
 30
0.0
 40
15.00000000000011
100
AcDbArc
 50
90.0
 51
180.0
  0
LINE
  5
2CE
330
1F
100
AcDbEntity
  8
0
  6
Continuous
 62
     7
370
    15
100
AcDbLine
 10
75.0499488662
 20
593.4073837536
 30
0.0
 11
90.049948531
 21
593.4073837536
 31
0.0
  0
LINE
  5
2CF
330
1F
100
AcDbEntity
  8
0
  6
Continuous
 62
     7
370
    15
100
AcDbLine
 10
75.0499488662
 20
593.4073837536
 30
0.0
 11
75.0499488662
 21
23.4073909062
 31
0.0
  0
LINE
  5
2D0
330
1F
100
AcDbEntity
  8
0
  6
Continuous
 62
     7
370
    15
100
AcDbLine
 10
255.0499448429
 20
588.407388522
 30
0.0
 11
251.0499516379
 21
588.407388522
 31
0.0
  0
LINE
  5
2D1
330
1F
100
AcDbEntity
  8
0
  6
Continuous
 62
     7
370
    15
100
AcDbLine
 10
255.0499448429
 20
28.4073861378
 30
0.0
 11
251.0499516379
 21
28.4073861378
 31
0.0
  0
LINE
  5
2D2
330
1F
100
AcDbEntity
  8
0
  6
Continuous
 62
     7
370
    15
100
AcDbLine
 10
255.0499448429
 20
13.4074004429
 30
0.0
 11
251.0499516379
 21
13.4074004429
 31
0.0
  0
LINE
  5
2D3
330
1F
100
AcDbEntity
  8
0
  6
Continuous
 62
     7
370
    15
100
AcDbLine
 10
255.0499448429
 20
603.4073742169
 30
0.0
 11
251.0499516379
 21
603.4073742169
 31
0.0
  0
LINE
  5
2D4
330
1F
100
AcDbEntity
  8
0
  6
Continuous
 62
     7
370
    15
100
AcDbLine
 10
317.6598642668
 20
692.3914993831
 30
0.0
 11
318.8598547778
 21
692.3914993831
 31
0.0
  0
LINE
  5
2D5
330
1F
100
AcDbEntity
  8
0
  6
Continuous
 62
     7
370
    15
100
AcDbLine
 10
317.5598476729
 20
694.8915119001
 30
0.0
 11
317.6598642668
 21
694.8915119001
 31
0.0
  0
LINE
  5
2D6
330
1F
100
AcDbEntity
  8
0
  6
Continuous
 62
     7
370
    15
100
AcDbLine
 10
317.6598642668
 20
700.8915091583
 30
0.0
 11
317.5598476729
 21
700.8915091583
 31
0.0
  0
LINE
  5
2D7
330
1F
100
AcDbEntity
  8
0
  6
Continuous
 62
     7
370
    15
100
AcDbLine
 10
313.4116028151
 20
757.8915054628
 30
0.0
 11
312.6598690352
 21
757.6178903409
 31
0.0
  0
SPLINE
  5
2D8
330
1F
100
AcDbEntity
  8
0
  6
Continuous
 62
     7
370
    15
100
AcDbSpline
210
0.0
220
0.0
230
1.0
 70
     8
 71
     3
 72
    15
 73
    11
 74
     0
 42
0.00000001
 43
0.00000001
 40
0.0
 40
0.0
 40
0.0
 40
0.0
 40
0.1250747765816227
 40
0.2501517239422072
 40
0.3752907867813094
 40
0.5003033076392224
 40
0.6252866256659232
 40
0.7502629057026486
 40
0.875078903365568
 40
1.0
 40
1.0
 40
1.0
 40
1.0
 10
316.4742980799105
 20
722.9493404456526
 30
0.0
 10
316.4481649698653
 20
723.2081015464521
 30
0.0
 10
316.3958982962127
 20
723.7256282390697
 30
0.0
 10
316.3170638940448
 20
724.506744612658
 30
0.0
 10
316.2426184861843
 20
725.2439160127536
 30
0.0
 10
316.1756423199039
 20
725.9074994788923
 30
0.0
 10
316.1194923140696
 20
726.4632555378289
 30
0.0
 10
316.0770158937246
 20
726.8843587687546
 30
0.0
 10
316.0481533796611
 20
727.1699537775194
 30
0.0
 10
316.04380371238
 20
727.2129965376985
 30
0.0
 10
316.041627963486
 20
727.2345269748122
 30
0.0
  0
SPLINE
  5
2D9
330
1F
100
AcDbEntity
  8
0
  6
Continuous
 62
     7
370
    15
100
AcDbSpline
210
0.0
220
0.0
230
1.0
 70
     8
 71
     3
 72
    15
 73
    11
 74
     0
 42
0.00000001
 43
0.00000001
 40
0.0
 40
0.0
 40
0.0
 40
0.0
 40
0.1249401490732204
 40
0.2497679325805339
 40
0.3747519068214989
 40
0.4997360836885724
 40
0.6247478144203327
 40
0.7498807487630104
 40
0.8749438905378667
 40
1.0
 40
1.0
 40
1.0
 40
1.0
 10
313.0574022135165
 20
726.9331509896666
 30
0.0
 10
313.0595789662148
 20
726.9115704214581
 30
0.0
 10
313.0639305139377
 20
726.8684286936364
 30
0.0
 10
313.0927758996827
 20
726.5827122064911
 30
0.0
 10
313.1353166630515
 20
726.1615416845681
 30
0.0
 10
313.1914022485788
 20
725.6057585437496
 30
0.0
 10
313.2583960453416
 20
724.9422302871874
 30
0.0
 10
313.3328303846691
 20
724.2051828808687
 30
0.0
 10
313.4116872008439
 20
723.4242719004176
 30
0.0
 10
313.4639047065251
 20
722.906917506568
 30
0.0
 10
313.4900127252963
 20
722.6482475825698
 30
0.0
  0
LINE
  5
2DA
330
1F
100
AcDbEntity
  8
0
  6
Continuous
 62
     7
370
    15
100
AcDbLine
 10
313.4897445044
 20
722.6481134721
 30
0.0
 11
315.0588069758
 21
707.1071411201
 31
0.0
  0
LINE
  5
2DB
330
1F
100
AcDbEntity
  8
0
  6
Continuous
 62
     7
370
    15
100
AcDbLine
 10
318.0436585745
 20
707.4085022041
 30
0.0
 11
316.4745663008
 21
722.9494745561
 31
0.0
  0
SPLINE
  5
2DC
330
1F
100
AcDbEntity
  8
0
  6
Continuous
 62
     7
370
    15
100
AcDbSpline
210
0.0
220
0.0
230
1.0
 70
     8
 71
     3
 72
     9
 73
     5
 74
     0
 42
0.00000001
 43
0.00000001
 40
0.0
 40
0.0
 40
0.0
 40
0.0
 40
0.4837392129289095
 40
1.0
 40
1.0
 40
1.0
 40
1.0
 10
315.2288888296511
 20
705.4257685967833
 30
0.0
 10
315.238355561681
 20
705.3615365612515
 30
0.0
 10
315.2579254699642
 20
705.2287541987405
 30
0.0
 10
315.2917655727233
 20
705.192612444341
 30
0.0
 10
315.3092358908083
 20
705.1739538737685
 30
0.0
  0
SPLINE
  5
2DD
330
1F
100
AcDbEntity
  8
0
  6
Continuous
 62
     7
370
    15
100
AcDbSpline
210
0.0
220
0.0
230
1.0
 70
     8
 71
     3
 72
    11
 73
     7
 74
     0
 42
0.00000001
 43
0.00000001
 40
0.0
 40
0.0
 40
0.0
 40
0.0
 40
0.2484477836589677
 40
0.4978918583921694
 40
0.7483925980266407
 40
1.0
 40
1.0
 40
1.0
 40
1.0
 10
315.0591049990084
 20
707.1073050328642
 30
0.0
 10
315.0771192105698
 20
706.9288278871132
 30
0.0
 10
315.113219871802
 20
706.5711578911495
 30
0.0
 10
315.1602208306896
 20
706.1063253176602
 30
0.0
 10
315.1990235493761
 20
705.7234444661466
 30
0.0
 10
315.2140549803186
 20
705.5761534761658
 30
0.0
 10
315.2215872606661
 20
705.5023456641585
 30
0.0
  0
SPLINE
  5
2DE
330
1F
100
AcDbEntity
  8
0
  6
Continuous
 62
     7
370
    15
100
AcDbSpline
210
0.0
220
0.0
230
1.0
 70
     8
 71
     3
 72
    19
 73
    15
 74
     0
 42
0.00000001
 43
0.00000001
 40
0.0
 40
0.0
 40
0.0
 40
0.0
 40
0.0802800492723805
 40
0.1534410941016428
 40
0.2193417841561021
 40
0.2779524555746665
 40
0.3728467479716723
 40
0.4421526848778168
 40
0.5315391818761616
 40
0.6554834361444658
 40
0.7303558701030318
 40
0.8130797582012325
 40
0.9031427134902461
 40
1.0
 40
1.0
 40
1.0
 40
1.0
 10
315.2445350489047
 20
705.3431267568022
 30
0.0
 10
315.2798953427172
 20
705.2202525431302
 30
0.0
 10
315.3474802809371
 20
704.985400248524
 30
0.0
 10
315.5447103460487
 20
704.6909906233587
 30
0.0
 10
315.7695547781298
 20
704.4668457215854
 30
0.0
 10
316.0652415857
 20
704.273825666684
 30
0.0
 10
316.4071828487881
 20
704.155916294773
 30
0.0
 10
316.8169350922153
 20
704.126114292727
 30
0.0
 10
317.2560227152292
 20
704.2284178890912
 30
0.0
 10
317.6425518398101
 20
704.4796537698505
 30
0.0
 10
317.935398224684
 20
704.8203666190744
 30
0.0
 10
318.1161560677768
 20
705.1758395313475
 30
0.0
 10
318.2220840173105
 20
705.6027770480324
 30
0.0
 10
318.1898123914368
 20
705.897842718119
 30
0.0
 10
318.1730900606539
 20
706.0507381984145
 30
0.0
  0
SPLINE
  5
2DF
330
1F
100
AcDbEntity
  8
0
  6
Continuous
 62
     7
370
    15
100
AcDbSpline
210
0.0
220
0.0
230
1.0
 70
     8
 71
     3
 72
    11
 73
     7
 74
     0
 42
0.00000001
 43
0.00000001
 40
0.0
 40
0.0
 40
0.0
 40
0.0
 40
0.247742100245226
 40
0.4969496549537624
 40
0.747681273709302
 40
1.0
 40
1.0
 40
1.0
 40
1.0
 10
318.1968723139193
 20
705.8830554315001
 30
0.0
 10
318.1904280505781
 20
705.9476816262443
 30
0.0
 10
318.1775014045187
 20
706.0773162953108
 30
0.0
 10
318.1415807291668
 20
706.4351866360912
 30
0.0
 10
318.0965646850495
 20
706.8815186092044
 30
0.0
 10
318.0611325249889
 20
707.2323826106335
 30
0.0
 10
318.0433605513003
 20
707.4083680936247
 30
0.0
  0
LINE
  5
2E0
330
1F
100
AcDbEntity
  8
0
  6
Continuous
 62
     7
370
    15
100
AcDbLine
 10
318.3271680674
 20
717.0631731578
 30
0.0
 11
318.3271680674
 21
717.3629994222
 31
0.0
  0
LINE
  5
2E1
330
1F
100
AcDbEntity
  8
0
  6
Continuous
 62
     7
370
    15
100
AcDbLine
 10
317.5271545252
 20
717.3629994222
 30
0.0
 11
317.5271545252
 21
717.0656169483
 31
0.0
  0
SPLINE
  5
2E2
330
1F
100
AcDbEntity
  8
0
  6
Continuous
 62
     7
370
    15
100
AcDbSpline
210
0.0
220
0.0
230
1.0
 70
    24
 71
     3
 72
    11
 73
     7
 74
     0
 42
0.00000001
 43
0.00000001
 40
0.0
 40
0.0
 40
0.0
 40
0.0
 40
0.0207852832108836
 40
0.34656035810907
 40
0.6711462475793438
 40
1.0
 40
1.0
 40
1.0
 40
1.0
 10
317.527154525223
 20
717.6493103333861
 30
0.0
 10
317.527154525223
 20
717.6459886287048
 30
0.0
 10
317.5271545252227
 20
717.5906046749608
 30
0.0
 10
317.527154525223
 20
717.4973675236486
 30
0.0
 10
317.527154525223
 20
717.3846522272003
 30
0.0
 10
317.5271545252231
 20
717.3501358663259
 30
0.0
 10
317.527154525223
 20
717.3327649661452
 30
0.0
  0
SPLINE
  5
2E3
330
1F
100
AcDbEntity
  8
0
  6
Continuous
 62
     7
370
    15
100
AcDbSpline
210
0.0
220
0.0
230
1.0
 70
    24
 71
     3
 72
    11
 73
     7
 74
     0
 42
0.00000001
 43
0.00000001
 40
0.0
 40
0.0
 40
0.0
 40
0.0
 40
0.2504884286733861
 40
0.497727503351466
 40
0.7458863506510961
 40
1.0
 40
1.0
 40
1.0
 40
1.0
 10
318.3271680673983
 20
717.3303062745482
 30
0.0
 10
318.3271680673983
 20
717.3465234988125
 30
0.0
 10
318.3271680673983
 20
717.3787475763363
 30
0.0
 10
318.3271680673983
 20
717.4875246964399
 30
0.0
 10
318.3271680673983
 20
717.6263610607123
 30
0.0
 10
318.3271680673983
 20
717.7333864024918
 30
0.0
 10
318.3271680673983
 20
717.7875335046202
 30
0.0
  0
LINE
  5
2E4
330
1F
100
AcDbEntity
  8
0
  6
Continuous
 62
     7
370
    15
100
AcDbLine
 10
317.3204158148
 20
717.8914989063
 30
0.0
 11
317.5293300948
 21
717.6442737409
 31
0.0
  0
LINE
  5
2E5
330
1F
100
AcDbEntity
  8
0
  6
Continuous
 62
     7
370
    15
100
AcDbLine
 10
318.3271680674
 20
717.7875335046
 30
0.0
 11
318.3271680674
 21
717.8914989063
 31
0.0
  0
LINE
  5
2E6
330
1F
100
AcDbEntity
  8
0
  6
Continuous
 62
     7
370
    15
100
AcDbLine
 10
313.0507860979
 20
727.0295317003
 30
0.0
 11
313.035169681
 21
727.4887556859
 31
0.0
  0
SPLINE
  5
2E7
330
1F
100
AcDbEntity
  8
0
  6
Continuous
 62
     7
370
    15
100
AcDbSpline
210
0.0
220
0.0
230
1.0
 70
     8
 71
     3
 72
    11
 73
     7
 74
     0
 42
0.00000001
 43
0.00000001
 40
0.0
 40
0.0
 40
0.0
 40
0.0
 40
0.1207523663378
 40
0.4133916369619322
 40
0.7063558914115577
 40
1.0
 40
1.0
 40
1.0
 40
1.0
 10
315.0834534963992
 20
706.8660850354582
 30
0.0
 10
315.0933772847573
 20
706.7677896298438
 30
0.0
 10
315.1273510381388
 20
706.4312786374294
 30
0.0
 10
315.1746818172565
 20
705.9623661786599
 30
0.0
 10
315.2175813831981
 20
705.5376224903147
 30
0.0
 10
315.2251167697693
 20
705.4630820243701
 30
0.0
 10
315.2288888296511
 20
705.4257685967833
 30
0.0
  0
LINE
  5
2E8
330
1F
100
AcDbEntity
  8
0
  6
Continuous
 62
     7
370
    15
100
AcDbLine
 10
318.8598547778
 20
756.8915034362
 30
0.0
 11
318.5598646006
 21
756.8915034362
 31
0.0
  0
LINE
  5
2E9
330
1F
100
AcDbEntity
  8
0
  6
Continuous
 62
     7
370
    15
100
AcDbLine
 10
318.5598646006
 20
755.8915088602
 30
0.0
 11
318.4598480067
 21
755.8915088602
 31
0.0
  0
LINE
  5
2EA
330
1F
100
AcDbEntity
  8
0
  6
Continuous
 62
     7
370
    15
100
AcDbLine
 10
318.4598480067
 20
749.8915041515
 30
0.0
 11
318.5598646006
 21
749.8915041515
 31
0.0
  0
LINE
  5
2EB
330
1F
100
AcDbEntity
  8
0
  6
Continuous
 62
     7
370
    15
100
AcDbLine
 10
318.5598646006
 20
732.8914995023
 30
0.0
 11
318.4598480067
 21
732.8914995023
 31
0.0
  0
LINE
  5
2EC
330
1F
100
AcDbEntity
  8
0
  6
Continuous
 62
     7
370
    15
100
AcDbLine
 10
318.4598480067
 20
726.8915022441
 30
0.0
 11
318.5598646006
 21
726.8915022441
 31
0.0
  0
LINE
  5
2ED
330
1F
100
AcDbEntity
  8
0
  6
Continuous
 62
     7
370
    15
100
AcDbLine
 10
333.8598553738
 20
700.8915091583
 30
0.0
 11
333.8598553738
 21
695.8914990255
 31
0.0
  0
LINE
  5
2EE
330
1F
100
AcDbEntity
  8
0
  6
Continuous
 62
     7
370
    15
100
AcDbLine
 10
803.8598541817
 20
700.8915091583
 30
0.0
 11
333.8598553738
 21
700.8915091583
 31
0.0
  0
LINE
  5
2EF
330
1F
100
AcDbEntity
  8
0
  6
Continuous
 62
     7
370
    15
100
AcDbLine
 10
803.8598541817
 20
700.8915091583
 30
0.0
 11
803.8598541817
 21
695.8914990255
 31
0.0
  0
LINE
  5
2F0
330
1F
100
AcDbEntity
  8
0
  6
Continuous
 62
     7
370
    15
100
AcDbLine
 10
803.8598541817
 20
695.8914990255
 30
0.0
 11
333.8598553738
 21
695.8914990255
 31
0.0
  0
LINE
  5
2F1
330
1F
100
AcDbEntity
  8
0
  6
Continuous
 62
     7
370
    15
100
AcDbLine
 10
818.8598547778
 20
700.8915091583
 30
0.0
 11
803.8598541817
 21
700.8915091583
 31
0.0
  0
LINE
  5
2F2
330
1F
100
AcDbEntity
  8
0
  6
Continuous
 62
     7
370
    15
100
AcDbLine
 10
818.8598547778
 20
700.8915091583
 30
0.0
 11
818.8598547778
 21
695.8914990255
 31
0.0
  0
LINE
  5
2F3
330
1F
100
AcDbEntity
  8
0
  6
Continuous
 62
     7
370
    15
100
AcDbLine
 10
818.8598547778
 20
695.8914990255
 30
0.0
 11
803.8598541817
 21
695.8914990255
 31
0.0
  0
LINE
  5
2F4
330
1F
100
AcDbEntity
  8
0
  6
Continuous
 62
     7
370
    15
100
AcDbLine
 10
803.8598541817
 20
695.8914990255
 30
0.0
 11
803.8598541817
 21
680.8914984294
 31
0.0
  0
LINE
  5
2F5
330
1F
100
AcDbEntity
  8
0
  6
Continuous
 62
     7
370
    15
100
AcDbLine
 10
803.8598541817
 20
680.8914984294
 30
0.0
 11
333.8598553738
 21
680.8914984294
 31
0.0
  0
LINE
  5
2F6
330
1F
100
AcDbEntity
  8
0
  6
Continuous
 62
     7
370
    15
100
AcDbLine
 10
333.8598553738
 20
680.8914984294
 30
0.0
 11
333.8598553738
 21
695.8914990255
 31
0.0
  0
ARC
  5
2F7
330
1F
100
AcDbEntity
  8
0
  6
Continuous
 62
     7
370
    15
100
AcDbCircle
 10
803.8598547778
 20
695.8915051528
 30
0.0
 40
15.0
100
AcDbArc
 50
270.0
 51
0.0
  0
LINE
  5
2F8
330
1F
100
AcDbEntity
  8
0
  6
Continuous
 62
     7
370
    15
100
AcDbLine
 10
318.8598547778
 20
700.8915091583
 30
0.0
 11
318.8598547778
 21
695.8914990255
 31
0.0
  0
LINE
  5
2F9
330
1F
100
AcDbEntity
  8
0
  6
Continuous
 62
     7
370
    15
100
AcDbLine
 10
318.8598547778
 20
695.8914990255
 30
0.0
 11
333.8598553738
 21
695.8914990255
 31
0.0
  0
LINE
  5
2FA
330
1F
100
AcDbEntity
  8
0
  6
Continuous
 62
     7
370
    15
100
AcDbLine
 10
318.8598547778
 20
700.8915091583
 30
0.0
 11
333.8598553738
 21
700.8915091583
 31
0.0
  0
ARC
  5
2FB
330
1F
100
AcDbEntity
  8
0
  6
Continuous
 62
     7
370
    15
100
AcDbCircle
 10
333.8598547778
 20
695.8915051528
 30
0.0
 40
15.00000000000006
100
AcDbArc
 50
180.0
 51
270.0
  0
LINE
  5
2FC
330
1F
100
AcDbEntity
  8
0
  6
Continuous
 62
     7
370
    15
100
AcDbLine
 10
317.6598642668
 20
696.8052978345
 30
0.0
 11
317.6598642668
 21
698.9092672893
 31
0.0
  0
LINE
  5
2FD
330
1F
100
AcDbEntity
  8
0
  6
Continuous
 62
     7
370
    15
100
AcDbLine
 10
317.6598642668
 20
698.9092672893
 30
0.0
 11
318.8598547778
 21
698.9092672893
 31
0.0
  0
LINE
  5
2FE
330
1F
100
AcDbEntity
  8
0
  6
Continuous
 62
     7
370
    15
100
AcDbLine
 10
317.6598642668
 20
696.8052978345
 30
0.0
 11
318.8598547778
 21
696.8052978345
 31
0.0
  0
LINE
  5
2FF
330
1F
100
AcDbEntity
  8
0
  6
Continuous
 62
     7
370
    15
100
AcDbLine
 10
317.6598642668
 20
703.8915003368
 30
0.0
 11
318.8598547778
 21
703.8915003368
 31
0.0
  0
LINE
  5
300
330
1F
100
AcDbEntity
  8
0
  6
Continuous
 62
     7
370
    15
100
AcDbLine
 10
318.8598547778
 20
700.8915091583
 30
0.0
 11
318.8598547778
 21
703.8915003368
 31
0.0
  0
LINE
  5
301
330
1F
100
AcDbEntity
  8
0
  6
Continuous
 62
     7
370
    15
100
AcDbLine
 10
317.6598642668
 20
703.8915003368
 30
0.0
 11
317.6598642668
 21
698.9092672893
 31
0.0
  0
LINE
  5
302
330
1F
100
AcDbEntity
  8
0
  6
Continuous
 62
     7
370
    15
100
AcDbLine
 10
318.8598547778
 20
695.8914990255
 30
0.0
 11
318.8598547778
 21
692.3914993831
 31
0.0
  0
LINE
  5
303
330
1F
100
AcDbEntity
  8
0
  6
Continuous
 62
     7
370
    15
100
AcDbLine
 10
317.6598642668
 20
692.3914993831
 30
0.0
 11
317.6598642668
 21
696.8052978345
 31
0.0
  0
LINE
  5
304
330
1F
100
AcDbEntity
  8
0
  6
Continuous
 62
     7
370
    15
100
AcDbLine
 10
317.5598476729
 20
694.8915119001
 30
0.0
 11
317.5598476729
 21
700.8915091583
 31
0.0
  0
LINE
  5
305
330
1F
100
AcDbEntity
  8
0
  6
Continuous
 62
     7
370
    15
100
AcDbLine
 10
310.8118866286
 20
705.093919737
 30
0.0
 11
311.5424011549
 21
704.1418845483
 31
0.0
  0
ARC
  5
306
330
1F
100
AcDbEntity
  8
0
  6
Continuous
 62
     7
370
    15
100
AcDbCircle
 10
316.0598547778
 20
705.5915051528
 30
0.0
 40
2.800000000000011
100
AcDbArc
 50
0.0
 51
45.4024529621
  0
LINE
  5
307
330
1F
100
AcDbEntity
  8
0
  6
Continuous
 62
     7
370
    15
100
AcDbLine
 10
314.9522040686
 20
708.1630970069
 30
0.0
 11
314.3553231558
 21
707.8128899166
 31
0.0
  0
LINE
  5
308
330
1F
100
AcDbEntity
  8
0
  6
Continuous
 62
     7
370
    15
100
AcDbLine
 10
311.5424011549
 20
704.1418845483
 30
0.0
 11
315.0858376822
 21
706.860869629
 31
0.0
  0
LINE
  5
309
330
1F
100
AcDbEntity
  8
0
  6
Continuous
 62
     7
370
    15
100
AcDbLine
 10
314.3553231558
 20
707.8128899166
 30
0.0
 11
310.8118866286
 21
705.093919737
 31
0.0
  0
LINE
  5
30A
330
1F
100
AcDbEntity
  8
0
  6
Continuous
 62
     7
370
    15
100
AcDbLine
 10
318.8598547778
 20
703.8915003368
 30
0.0
 11
318.8598547778
 21
704.8915023633
 31
0.0
  0
LINE
  5
30B
330
1F
100
AcDbEntity
  8
0
  6
Continuous
 62
     7
370
    15
100
AcDbLine
 10
317.6598642668
 20
704.5324439832
 30
0.0
 11
317.6598642668
 21
703.8915003368
 31
0.0
  0
LINE
  5
30C
330
1F
100
AcDbEntity
  8
0
  6
Continuous
 62
     7
370
    15
100
AcDbLine
 10
310.5903659663
 20
703.411370022
 30
0.0
 11
309.8598514399
 21
704.3634052106
 31
0.0
  0
LWPOLYLINE
  5
30D
330
1F
100
AcDbEntity
  8
0
  6
Continuous
 62
     7
370
    15
100
AcDbPolyline
 90
        9
 70
   128
 43
0.0
 10
311.5424011549
 20
704.1418845483
 10
311.3566730818
 20
703.9993698427
 10
311.1780677637
 20
703.8623387643
 10
311.0134695372
 20
703.736036522
 10
310.8691964945
 20
703.6253357955
 10
310.75082167
 20
703.5344834157
 10
310.6628452143
 20
703.4669811555
 10
310.6086645922
 20
703.4254069158
 10
310.5903659663
 20
703.411370022
  0
LWPOLYLINE
  5
30E
330
1F
100
AcDbEntity
  8
0
  6
Continuous
 62
     7
370
    15
100
AcDbPolyline
 90
        9
 70
   128
 43
0.0
 10
309.8598514399
 20
704.3634052106
 10
309.8781500658
 20
704.3774421045
 10
309.9323306879
 20
704.419001443
 10
310.0203071436
 20
704.4865186044
 10
310.1386819682
 20
704.5773560831
 10
310.2829550108
 20
704.6880568096
 10
310.4475532374
 20
704.8143590518
 10
310.6261585555
 20
704.9514050313
 10
310.8118866286
 20
705.093919737
  0
ARC
  5
30F
330
1F
100
AcDbEntity
  8
0
  6
Continuous
 62
     7
370
    15
100
AcDbCircle
 10
313.9598547778
 20
720.9115051528
 30
0.0
 40
2.200000000000062
100
AcDbArc
 50
103.5934783353
 51
268.1042765976
  0
LINE
  5
310
330
1F
100
AcDbEntity
  8
0
  6
Continuous
 62
     7
370
    15
100
AcDbLine
 10
310.4130421481
 20
722.2892786094
 30
0.0
 11
310.7466791472
 21
724.1815025636
 31
0.0
  0
LWPOLYLINE
  5
311
330
1F
100
AcDbEntity
  8
0
  6
Continuous
 62
     7
370
    15
100
AcDbPolyline
 90
        9
 70
   128
 43
0.0
 10
310.7466791472
 20
724.1815025636
 10
310.6024359068
 20
724.2069388458
 10
310.4654048285
 20
724.2311085292
 10
310.3402946791
 20
724.2531622478
 10
310.2314565977
 20
724.2723549434
 10
310.1426158747
 20
724.2880160638
 10
310.0768719515
 20
724.2996091672
 10
310.036519607
 20
724.3067319223
 10
310.0228999457
 20
724.3091310092
  0
LINE
  5
312
330
1F
100
AcDbEntity
  8
0
  6
Continuous
 62
     7
370
    15
100
AcDbLine
 10
310.0228999457
 20
724.3091310092
 30
0.0
 11
314.3979404768
 21
749.121233327
 31
0.0
  0
LWPOLYLINE
  5
313
330
1F
100
AcDbEntity
  8
0
  6
Continuous
 62
     7
370
    15
100
AcDbPolyline
 90
        9
 70
   128
 43
0.0
 10
314.3979404768
 20
749.121233327
 10
314.4130800566
 20
749.1185660192
 10
314.4579027495
 20
749.1106684038
 10
314.5307098231
 20
749.0978236028
 10
314.6286998591
 20
749.080553157
 10
314.7480879626
 20
749.0594978162
 10
314.8842845759
 20
749.0354771444
 10
315.0320742926
 20
749.0094150134
 10
315.1857946715
 20
748.9823247024
  0
LINE
  5
314
330
1F
100
AcDbEntity
  8
0
  6
Continuous
 62
     7
370
    15
100
AcDbLine
 10
315.1857946715
 20
748.9823247024
 30
0.0
 11
310.3604708514
 21
721.6165209838
 31
0.0
  0
LINE
  5
315
330
1F
100
AcDbEntity
  8
0
  6
Continuous
 62
     7
370
    15
100
AcDbLine
 10
310.3604708514
 20
721.6165209838
 30
0.0
 11
310.4130421481
 21
722.2892786094
 31
0.0
  0
LINE
  5
316
330
1F
100
AcDbEntity
  8
0
  6
Continuous
 62
     7
370
    15
100
AcDbLine
 10
314.1447697482
 20
755.8771888443
 30
0.0
 11
314.7210870585
 21
754.2937020489
 31
0.0
  0
LWPOLYLINE
  5
317
330
1F
100
AcDbEntity
  8
0
  6
Continuous
 62
     7
370
    15
100
AcDbPolyline
 90
        9
 70
   128
 43
0.0
 10
313.9693532786
 20
754.0200869271
 10
313.9837776026
 20
754.025347037
 10
314.0265737376
 20
754.0409112998
 10
314.0960429511
 20
754.0661985704
 10
314.1895328364
 20
754.100225372
 10
314.3034373125
 20
754.141687853
 10
314.4334052405
 20
754.1889915892
 10
314.57442983
 20
754.2403260895
 10
314.7210870585
 20
754.2937020489
  0
LINE
  5
318
330
1F
100
AcDbEntity
  8
0
  6
Continuous
 62
     7
370
    15
100
AcDbLine
 10
313.9693532786
 20
754.0200869271
 30
0.0
 11
313.2452462515
 21
756.0095633098
 31
0.0
  0
SPLINE
  5
319
330
1F
100
AcDbEntity
  8
0
  6
Continuous
 62
     7
370
    15
100
AcDbSpline
210
0.0
220
0.0
230
1.0
 70
     8
 71
     3
 72
    12
 73
     8
 74
     0
 42
0.00000001
 43
0.00000001
 40
0.0
 40
0.0
 40
0.0
 40
0.0
 40
0.2510115209817573
 40
0.5023968495689679
 40
0.7402775569080239
 40
0.9473076809133472
 40
1.0
 40
1.0
 40
1.0
 40
1.0
 10
313.2452462515261
 20
756.0095633098036
 30
0.0
 10
313.2729488514336
 20
755.965245040014
 30
0.0
 10
313.3283953060982
 20
755.8765425014468
 30
0.0
 10
313.5354112883082
 20
755.8015565800887
 30
0.0
 10
313.7967954286306
 20
755.7900601601364
 30
0.0
 10
314.0133805158953
 20
755.8317065022767
 30
0.0
 10
314.1226094529667
 20
755.8695177276982
 30
0.0
 10
314.1447697481539
 20
755.8771888443381
 30
0.0
  0
LWPOLYLINE
  5
31A
330
1F
100
AcDbEntity
  8
0
  6
Continuous
 62
     7
370
    15
100
AcDbPolyline
 90
        5
 70
   128
 43
0.0
 10
313.2452462515
 20
756.0095633098
 10
312.9917774996
 20
756.7059690782
 10
312.808224996
 20
757.2102839776
 10
312.6970623335
 20
757.5156385728
 10
312.6598690352
 20
757.6178903409
  0
LWPOLYLINE
  5
31B
330
1F
100
AcDbEntity
  8
0
  6
Continuous
 62
     7
370
    15
100
AcDbPolyline
 90
        5
 70
   128
 43
0.0
 10
314.0048776469
 20
756.2615493962
 10
313.7480114302
 20
756.9672236868
 10
313.5619853339
 20
757.4783409664
 10
313.4493325552
 20
757.7878529855
 10
313.4116028151
 20
757.8915054628
  0
LINE
  5
31C
330
1F
100
AcDbEntity
  8
0
  6
Continuous
 62
     7
370
    15
100
AcDbLine
 10
314.2269645533
 20
755.9071029254
 30
0.0
 11
314.0048776469
 21
756.2615493962
 31
0.0
  0
LINE
  5
31D
330
1F
100
AcDbEntity
  8
0
  6
Continuous
 62
     7
370
    15
100
AcDbLine
 10
314.1447697482
 20
755.8771888443
 30
0.0
 11
314.2269645533
 21
755.9071029254
 31
0.0
  0
ARC
  5
31E
330
1F
100
AcDbEntity
  8
0
  6
Continuous
 62
     7
370
    15
100
AcDbCircle
 10
314.5498602839
 20
727.0804960713
 30
0.0
 40
1.600000000000007
100
AcDbArc
 50
347.034367059
 51
204.5705045339
  0
ARC
  5
31F
330
1F
100
AcDbEntity
  8
0
  6
Continuous
 62
     7
370
    15
100
AcDbCircle
 10
315.0625692491
 20
755.1035700072
 30
0.0
 40
0.4999999999998863
100
AcDbArc
 50
36.8410865502
 51
90.0
  0
ARC
  5
320
330
1F
100
AcDbEntity
  8
0
  6
Continuous
 62
     7
370
    15
100
AcDbCircle
 10
307.8598547778
 20
749.7071911988
 30
0.0
 40
9.5
100
AcDbArc
 50
0.0
 51
36.8410865502
  0
LINE
  5
321
330
1F
100
AcDbEntity
  8
0
  6
Continuous
 62
     7
370
    15
100
AcDbLine
 10
317.3598442873
 20
749.7071916887
 30
0.0
 11
317.3598442873
 21
721.6815049478
 31
0.0
  0
ARC
  5
322
330
1F
100
AcDbEntity
  8
0
  6
Continuous
 62
     7
370
    15
100
AcDbCircle
 10
305.0422677373
 20
750.7708956211
 30
0.0
 40
10.30000000000016
100
AcDbArc
 50
350.0
 51
20.0
  0
ARC
  5
323
330
1F
100
AcDbEntity
  8
0
  6
Continuous
 62
     7
370
    15
100
AcDbCircle
 10
314.9445567035
 20
756.6035700072
 30
0.0
 40
1.0
100
AcDbArc
 50
224.1440002858
 51
270.0
  0
LINE
  5
324
330
1F
100
AcDbEntity
  8
0
  6
Continuous
 62
     7
370
    15
100
AcDbLine
 10
314.9445448718
 20
755.6035737225
 30
0.0
 11
315.0625620684
 21
755.6035737225
 31
0.0
  0
LWPOLYLINE
  5
325
330
1F
100
AcDbEntity
  8
0
  6
Continuous
 62
     7
370
    15
100
AcDbPolyline
 90
        3
 70
   128
 43
0.0
 10
317.3598442873
 20
721.6815049478
 10
317.1512280306
 20
720.491229994
 10
316.7950604758
 20
719.7750652858
  0
ARC
  5
326
330
1F
100
AcDbEntity
  8
0
  6
Continuous
 62
     7
370
    15
100
AcDbCircle
 10
313.8598547778
 20
721.6815051528
 30
0.0
 40
3.500000000000012
100
AcDbArc
 50
181.0639402281
 51
271.3221928089
  0
ARC
  5
327
330
1F
100
AcDbEntity
  8
0
  6
Continuous
 62
     7
370
    15
100
AcDbCircle
 10
305.0422677373
 20
750.7708956211
 30
0.0
 40
9.50000000000002
100
AcDbArc
 50
350.0
 51
20.0
  0
ARC
  5
328
330
1F
100
AcDbEntity
  8
0
  6
Continuous
 62
     7
370
    15
100
AcDbCircle
 10
314.4534725711
 20
722.3790006796
 30
0.0
 40
4.698428302688391
100
AcDbArc
 50
170.0
 51
264.3261771657
  0
LINE
  5
329
330
1F
100
AcDbEntity
  8
0
  6
Continuous
 62
     7
370
    15
100
AcDbLine
 10
310.0228999457
 20
724.3091310092
 30
0.0
 11
309.8264132342
 21
723.1948668786
 31
0.0
  0
SPLINE
  5
32A
330
1F
100
AcDbEntity
  8
0
  6
Continuous
 62
     7
370
    15
100
AcDbSpline
210
0.0
220
0.0
230
1.0
 70
     8
 71
     3
 72
    12
 73
     8
 74
     0
 42
0.00000001
 43
0.00000001
 40
0.0
 40
0.0
 40
0.0
 40
0.0
 40
0.2340470625943748
 40
0.468110382289208
 40
0.7021603582588167
 40
0.9362165040643773
 40
1.0
 40
1.0
 40
1.0
 40
1.0
 10
315.1568268141176
 20
722.5686157771498
 30
0.0
 10
314.9604403580475
 20
722.5492371548017
 30
0.0
 10
314.5676538047435
 20
722.5104785640508
 30
0.0
 10
314.0301423241104
 20
722.50522253094
 30
0.0
 10
313.6566942382057
 20
722.5437067500596
 30
0.0
 10
313.4774314152071
 20
722.5983673904233
 30
0.0
 10
313.5061783903331
 20
722.6423215115137
 30
0.0
 10
313.5123346647646
 20
722.6517344542891
 30
0.0
  0
SPLINE
  5
32B
330
1F
100
AcDbEntity
  8
0
  6
Continuous
 62
     7
370
    15
100
AcDbSpline
210
0.0
220
0.0
230
1.0
 70
     8
 71
     3
 72
    11
 73
     7
 74
     0
 42
0.00000001
 43
0.00000001
 40
0.0
 40
0.0
 40
0.0
 40
0.0
 40
0.1986866801470759
 40
0.4657866974251356
 40
0.7328890205481572
 40
1.0
 40
1.0
 40
1.0
 40
1.0
 10
316.4527510008242
 20
722.9475076028258
 30
0.0
 10
316.4515687141841
 20
722.9230141610785
 30
0.0
 10
316.4487970468077
 20
722.8655935059464
 30
0.0
 10
316.1792516647383
 20
722.7585172903991
 30
0.0
 10
315.7322036719288
 20
722.6476940861253
 30
0.0
 10
315.3486211718964
 20
722.5949754982234
 30
0.0
 10
315.1568268141177
 20
722.5686157771498
 30
0.0
  0
SPLINE
  5
32C
330
1F
100
AcDbEntity
  8
0
  6
Continuous
 62
     7
370
    15
100
AcDbSpline
210
0.0
220
0.0
230
1.0
 70
     8
 71
     3
 72
    12
 73
     8
 74
     0
 42
0.00000001
 43
0.00000001
 40
0.0
 40
0.0
 40
0.0
 40
0.0
 40
0.2339746063686035
 40
0.4679314347940849
 40
0.7019014784153117
 40
0.9358644000539801
 40
1.0
 40
1.0
 40
1.0
 40
1.0
 10
314.5498727163699
 20
728.5804892608077
 30
0.0
 10
314.3537809296215
 20
728.5579890779462
 30
0.0
 10
313.9616122556418
 20
728.5129904218404
 30
0.0
 10
313.4586878192667
 20
728.1654786820249
 30
0.0
 10
313.138846608164
 20
727.6720031921944
 30
0.0
 10
313.0109644458466
 20
727.2184134542483
 30
0.0
 10
313.0687270892712
 20
726.9754177031211
 30
0.0
 10
313.0811546644595
 20
726.9231374093443
 30
0.0
  0
SPLINE
  5
32D
330
1F
100
AcDbEntity
  8
0
  6
Continuous
 62
     7
370
    15
100
AcDbSpline
210
0.0
220
0.0
230
1.0
 70
     8
 71
     3
 72
    11
 73
     7
 74
     0
 42
0.00000001
 43
0.00000001
 40
0.0
 40
0.0
 40
0.0
 40
0.0
 40
0.1976869012946596
 40
0.465132349840553
 40
0.7325626924186095
 40
1.0
 40
1.0
 40
1.0
 40
1.0
 10
316.0200808843996
 20
727.230205638066
 30
0.0
 10
316.0018007484418
 20
727.3749544407322
 30
0.0
 10
315.9587898937126
 20
727.7155301201515
 30
0.0
 10
315.6333187562479
 20
728.1652912243312
 30
0.0
 10
315.1400390956267
 20
728.5130312413771
 30
0.0
 10
314.7465965505811
 20
728.5580030591243
 30
0.0
 10
314.5498727163699
 20
728.5804892608077
 30
0.0
  0
SPLINE
  5
32E
330
1F
100
AcDbEntity
  8
0
  6
Continuous
 62
     7
370
    15
100
AcDbSpline
210
0.0
220
0.0
230
1.0
 70
     8
 71
     3
 72
    12
 73
     8
 74
     0
 42
0.00000001
 43
0.00000001
 40
0.0
 40
0.0
 40
0.0
 40
0.0
 40
0.2350197708745228
 40
0.4700328824845291
 40
0.7050509323460378
 40
0.9400637739983508
 40
1.0
 40
1.0
 40
1.0
 40
1.0
 10
316.7259190878298
 20
707.0276583262831
 30
0.0
 10
316.5295279709049
 20
707.0082740668491
 30
0.0
 10
316.1367513017802
 20
706.9695060972325
 30
0.0
 10
315.5991494604557
 20
706.9642428337049
 30
0.0
 10
315.2260624825939
 20
707.0027664678071
 30
0.0
 10
315.0470886472226
 20
707.0568879890001
 30
0.0
 10
315.0749340453984
 20
707.1001895988534
 30
0.0
 10
315.0805924734499
 20
707.1089888640792
 30
0.0
  0
SPLINE
  5
32F
330
1F
100
AcDbEntity
  8
0
  6
Continuous
 62
     7
370
    15
100
AcDbSpline
210
0.0
220
0.0
230
1.0
 70
     8
 71
     3
 72
    11
 73
     7
 74
     0
 42
0.00000001
 43
0.00000001
 40
0.0
 40
0.0
 40
0.0
 40
0.0
 40
0.1989278475480005
 40
0.465944563505036
 40
0.7329800263452918
 40
1.0
 40
1.0
 40
1.0
 40
1.0
 10
318.0218730768588
 20
707.4066544600875
 30
0.0
 10
318.0206921438698
 20
707.3821225514625
 30
0.0
 10
318.0179260690701
 20
707.3246619716738
 30
0.0
 10
317.7483610314133
 20
707.2175422823418
 30
0.0
 10
317.301271637321
 20
707.1067231117547
 30
0.0
 10
316.9176995627524
 20
707.0540127451882
 30
0.0
 10
316.7259190878298
 20
707.0276583262831
 30
0.0
  0
LINE
  5
330
330
1F
100
AcDbEntity
  8
0
  6
Continuous
 62
     7
370
    15
100
AcDbLine
 10
315.2490053973
 20
705.425232155
 30
0.0
 11
315.2479921183
 21
705.6287522146
 31
0.0
  0
ARC
  5
331
330
1F
100
AcDbEntity
  8
0
  6
Continuous
 62
     7
370
    15
100
AcDbCircle
 10
317.9271543583
 20
717.329278109
 30
0.0
 40
0.4000150304833838
100
AcDbArc
 50
0.1472684924
 51
179.5005569488
  0
ELLIPSE
  5
332
330
1F
100
AcDbEntity
  8
0
  6
Continuous
 62
     7
370
    15
100
AcDbEllipse
 10
317.9271541781
 20
717.0643967591
 30
0.0
 11
0.3991830274373456
 21
-0.02624604221159644
 31
0.0
210
0.0
220
0.0
230
1.0
 40
0.9763157485
 41
0.0
 42
6.283185307179586
  0
SPLINE
  5
333
330
1F
100
AcDbEntity
  8
0
  6
Continuous
 62
     7
370
    15
100
AcDbSpline
210
0.0
220
0.0
230
1.0
 70
     8
 71
     3
 72
    13
 73
     9
 74
     0
 42
0.00000001
 43
0.00000001
 40
0.0
 40
0.0
 40
0.0
 40
0.0
 40
0.0081674686320837
 40
0.2391726062395227
 40
0.4710986396720295
 40
0.6931354102237988
 40
0.9042368001646622
 40
1.0
 40
1.0
 40
1.0
 40
1.0
 10
317.9271612963107
 20
717.7932257481963
 30
0.0
 10
317.9255023855865
 20
717.7928334804844
 30
0.0
 10
317.8769235640106
 20
717.7813464830774
 30
0.0
 10
317.7808059475041
 20
717.7580641558221
 30
0.0
 10
317.6579766447277
 20
717.7144367883627
 30
0.0
 10
317.5723126550379
 20
717.6769873445721
 30
0.0
 10
317.5282845295943
 20
717.6558570287037
 30
0.0
 10
317.5315345210788
 20
717.6508674352755
 30
0.0
 10
317.5325487455751
 20
717.6493103333861
 30
0.0
  0
SPLINE
  5
334
330
1F
100
AcDbEntity
  8
0
  6
Continuous
 62
     7
370
    15
100
AcDbSpline
210
0.0
220
0.0
230
1.0
 70
     8
 71
     3
 72
    13
 73
     9
 74
     0
 42
0.00000001
 43
0.00000001
 40
0.0
 40
0.0
 40
0.0
 40
0.0
 40
0.1252365436611285
 40
0.2499770095114142
 40
0.499999035945601
 40
0.7499966957796651
 40
0.8747778920522121
 40
1.0
 40
1.0
 40
1.0
 40
1.0
 10
318.3271680673983
 20
717.7875335046202
 30
0.0
 10
318.3254462248889
 20
717.7875633447833
 30
0.0
 10
318.3220093603064
 20
717.7876229069087
 30
0.0
 10
318.2876629243954
 20
717.7880973819588
 30
0.0
 10
318.2123708003684
 20
717.7891694413397
 30
0.0
 10
318.1037186509338
 20
717.7907041407124
 30
0.0
 10
318.0050067578353
 20
717.7921369899356
 30
0.0
 10
317.9531402744666
 20
717.7928624023247
 30
0.0
 10
317.9271612963107
 20
717.7932257481963
 30
0.0
  0
SPLINE
  5
335
330
1F
100
AcDbEntity
  8
0
  6
Continuous
 62
     7
370
    15
100
AcDbSpline
210
0.0
220
0.0
230
1.0
 70
     8
 71
     3
 72
    10
 73
     6
 74
     0
 42
0.00000001
 43
0.00000001
 40
0.0
 40
0.0
 40
0.0
 40
0.0
 40
0.0189739094627935
 40
0.5253083415553117
 40
1.0
 40
1.0
 40
1.0
 40
1.0
 10
317.9271612963107
 20
717.7932257481963
 30
0.0
 10
317.9286806414914
 20
717.7939660120816
 30
0.0
 10
317.9707449666507
 20
717.8144608286428
 30
0.0
 10
318.0533298862938
 20
717.852718888518
 30
0.0
 10
318.1234734766733
 20
717.8788532193198
 30
0.0
 10
318.157414039078
 20
717.8914989062697
 30
0.0
  0
LINE
  5
336
330
1F
100
AcDbEntity
  8
0
  6
Continuous
 62
     7
370
    15
100
AcDbLine
 10
313.0506370863
 20
727.032467229
 30
0.0
 11
313.0630944571
 21
726.8816972801
 31
0.0
  0
LINE
  5
337
330
1F
100
AcDbEntity
  8
0
  6
Continuous
 62
     7
370
    15
100
AcDbLine
 10
316.0428498587
 20
727.2251988479
 30
0.0
 11
316.0072658858
 21
727.4353648254
 31
0.0
  0
LINE
  5
338
330
1F
100
AcDbEntity
  8
0
  6
Continuous
 62
     7
370
    15
100
AcDbLine
 10
333.8598553738
 20
865.8915054702
 30
0.0
 11
333.8598553738
 21
880.891505135
 31
0.0
  0
LINE
  5
339
330
1F
100
AcDbEntity
  8
0
  6
Continuous
 62
     7
370
    15
100
AcDbLine
 10
333.8598553738
 20
865.8915054702
 30
0.0
 11
318.8598547778
 21
865.8915054702
 31
0.0
  0
ARC
  5
33A
330
1F
100
AcDbEntity
  8
0
  6
Continuous
 62
     7
370
    15
100
AcDbCircle
 10
333.8598547778
 20
865.8915051528
 30
0.0
 40
15.0
100
AcDbArc
 50
90.0
 51
180.0
  0
LINE
  5
33B
330
1F
100
AcDbEntity
  8
0
  6
Continuous
 62
     7
370
    15
100
AcDbLine
 10
803.8598541817
 20
865.8915054702
 30
0.0
 11
818.8598547778
 21
865.8915054702
 31
0.0
  0
LINE
  5
33C
330
1F
100
AcDbEntity
  8
0
  6
Continuous
 62
     7
370
    15
100
AcDbLine
 10
803.8598541817
 20
865.8915054702
 30
0.0
 11
803.8598541817
 21
880.891505135
 31
0.0
  0
ARC
  5
33D
330
1F
100
AcDbEntity
  8
0
  6
Continuous
 62
     7
370
    15
100
AcDbCircle
 10
803.8598547778
 20
865.8915051528
 30
0.0
 40
15.0
100
AcDbArc
 50
0.0
 51
90.0
  0
LINE
  5
33E
330
1F
100
AcDbEntity
  8
0
  6
Continuous
 62
     7
370
    15
100
AcDbLine
 10
803.8598541817
 20
865.8915054702
 30
0.0
 11
333.8598553738
 21
865.8915054702
 31
0.0
  0
LINE
  5
33F
330
1F
100
AcDbEntity
  8
0
  6
Continuous
 62
     7
370
    15
100
AcDbLine
 10
803.8598541817
 20
880.891505135
 30
0.0
 11
333.8598553738
 21
880.891505135
 31
0.0
  0
LINE
  5
340
330
1F
100
AcDbEntity
  8
0
  6
Continuous
 62
     7
370
    15
100
AcDbLine
 10
798.8598589501
 20
860.891505582
 30
0.0
 11
338.8598506054
 21
860.891505582
 31
0.0
  0
LINE
  5
341
330
1F
100
AcDbEntity
  8
0
  6
Continuous
 62
     7
370
    15
100
AcDbLine
 10
338.8598506054
 20
724.891498191
 30
0.0
 11
338.8598506054
 21
860.891505582
 31
0.0
  0
LINE
  5
342
330
1F
100
AcDbEntity
  8
0
  6
Continuous
 62
     7
370
    15
100
AcDbLine
 10
338.8598506054
 20
724.891498191
 30
0.0
 11
798.8598589501
 21
724.891498191
 31
0.0
  0
LINE
  5
343
330
1F
100
AcDbEntity
  8
0
  6
Continuous
 62
     7
370
    15
100
AcDbLine
 10
798.8598589501
 20
860.891505582
 30
0.0
 11
798.8598589501
 21
724.891498191
 31
0.0
  0
LINE
  5
344
330
1F
100
AcDbEntity
  8
0
  6
Continuous
 62
     7
370
    15
100
AcDbLine
 10
803.8598541817
 20
865.8915054702
 30
0.0
 11
803.8598541817
 21
704.8915023633
 31
0.0
  0
LINE
  5
345
330
1F
100
AcDbEntity
  8
0
  6
Continuous
 62
     7
370
    15
100
AcDbLine
 10
803.8598541817
 20
704.8915023633
 30
0.0
 11
333.8598553738
 21
704.8915023633
 31
0.0
  0
LINE
  5
346
330
1F
100
AcDbEntity
  8
0
  6
Continuous
 62
     7
370
    15
100
AcDbLine
 10
333.8598553738
 20
704.8915023633
 30
0.0
 11
333.8598553738
 21
865.8915054702
 31
0.0
  0
LINE
  5
347
330
1F
100
AcDbEntity
  8
0
  6
Continuous
 62
     7
370
    15
100
AcDbLine
 10
818.8598547778
 20
865.8915054702
 30
0.0
 11
818.8598547778
 21
704.8915023633
 31
0.0
  0
LINE
  5
348
330
1F
100
AcDbEntity
  8
0
  6
Continuous
 62
     7
370
    15
100
AcDbLine
 10
818.8598547778
 20
704.8915023633
 30
0.0
 11
803.8598541817
 21
704.8915023633
 31
0.0
  0
LINE
  5
349
330
1F
100
AcDbEntity
  8
0
  6
Continuous
 62
     7
370
    15
100
AcDbLine
 10
333.8598553738
 20
704.8915023633
 30
0.0
 11
318.8598547778
 21
704.8915023633
 31
0.0
  0
LINE
  5
34A
330
1F
100
AcDbEntity
  8
0
  6
Continuous
 62
     7
370
    15
100
AcDbLine
 10
318.8598547778
 20
704.8915023633
 30
0.0
 11
318.8598547778
 21
865.8915054702
 31
0.0
  0
LINE
  5
34B
330
1F
100
AcDbEntity
  8
0
  6
Continuous
 62
     7
370
    15
100
AcDbLine
 10
813.8598595461
 20
700.8915091583
 30
0.0
 11
813.8598595461
 21
704.8915023633
 31
0.0
  0
LINE
  5
34C
330
1F
100
AcDbEntity
  8
0
  6
Continuous
 62
     7
370
    15
100
AcDbLine
 10
798.8598589501
 20
700.8915091583
 30
0.0
 11
798.8598589501
 21
704.8915023633
 31
0.0
  0
LINE
  5
34D
330
1F
100
AcDbEntity
  8
0
  6
Continuous
 62
     7
370
    15
100
AcDbLine
 10
338.8598506054
 20
700.8915091583
 30
0.0
 11
338.8598506054
 21
704.8915023633
 31
0.0
  0
LINE
  5
34E
330
1F
100
AcDbEntity
  8
0
  6
Continuous
 62
     7
370
    15
100
AcDbLine
 10
323.8598500094
 20
700.8915091583
 30
0.0
 11
323.8598500094
 21
704.8915023633
 31
0.0
  0
ARC
  5
34F
330
1F
100
AcDbEntity
  8
0
  6
Continuous
 62
     7
370
    15
100
AcDbCircle
 10
819.2977059124
 20
700.3915051528
 30
0.0
 40
0.5
100
AcDbArc
 50
22.024312837
 51
90.0
  0
ARC
  5
350
330
1F
100
AcDbEntity
  8
0
  6
Continuous
 62
     7
370
    15
100
AcDbCircle
 10
824.8598547778
 20
702.6415051528
 30
0.0
 40
5.500000000000063
100
AcDbArc
 50
202.024312837
 51
152.720387264
  0
LINE
  5
351
330
1F
100
AcDbEntity
  8
0
  6
Continuous
 62
     7
370
    15
100
AcDbLine
 10
818.8598547778
 20
704.8915023633
 30
0.0
 11
819.5271585783
 21
704.8915023633
 31
0.0
  0
ARC
  5
352
330
1F
100
AcDbEntity
  8
0
  6
Continuous
 62
     7
370
    15
100
AcDbCircle
 10
819.5271725258
 20
705.3915051528
 30
0.0
 40
0.499999999999953
100
AcDbArc
 50
270.0
 51
332.720387264
  0
LINE
  5
353
330
1F
100
AcDbEntity
  8
0
  6
Continuous
 62
     7
370
    15
100
AcDbLine
 10
819.2977104983
 20
700.8915091583
 30
0.0
 11
818.8598547778
 21
700.8915091583
 31
0.0
  0
LINE
  5
354
330
1F
100
AcDbEntity
  8
0
  6
Continuous
 62
     7
370
    15
100
AcDbLine
 10
318.5598646006
 20
717.8914989063
 30
0.0
 11
318.5598646006
 21
724.09149955
 31
0.0
  0
LINE
  5
355
330
1F
100
AcDbEntity
  8
0
  6
Continuous
 62
     7
370
    15
100
AcDbLine
 10
318.5598646006
 20
724.09149955
 30
0.0
 11
318.8598547778
 21
724.0925724336
 31
0.0
  0
LINE
  5
356
330
1F
100
AcDbEntity
  8
0
  6
Continuous
 62
     7
370
    15
100
AcDbLine
 10
318.8598547778
 20
717.8914989063
 30
0.0
 11
318.5598646006
 21
717.8914989063
 31
0.0
  0
ARC
  5
357
330
1F
100
AcDbEntity
  8
0
  6
Continuous
 62
     7
370
    15
100
AcDbCircle
 10
313.6598547778
 20
720.9915051528
 30
0.0
 40
3.099999999999987
100
AcDbArc
 50
192.3149307508
 51
270.0
  0
LINE
  5
358
330
1F
100
AcDbEntity
  8
0
  6
Continuous
 62
     7
370
    15
100
AcDbLine
 10
318.5598646006
 20
724.09149955
 30
0.0
 11
317.3598442873
 21
724.09149955
 31
0.0
  0
LINE
  5
359
330
1F
100
AcDbEntity
  8
0
  6
Continuous
 62
     7
370
    15
100
AcDbLine
 10
313.6598561606
 20
717.8914989063
 30
0.0
 11
313.9699791274
 21
717.8914989063
 31
0.0
  0
LINE
  5
35A
330
1F
100
AcDbEntity
  8
0
  6
Continuous
 62
     7
370
    15
100
AcDbLine
 10
316.9852290949
 20
717.8914989063
 30
0.0
 11
318.5598646006
 21
717.8914989063
 31
0.0
  0
LINE
  5
35B
330
1F
100
AcDbEntity
  8
0
  6
Continuous
 62
     7
370
    15
100
AcDbLine
 10
318.8598547778
 20
726.0915036031
 30
0.0
 11
318.5598646006
 21
726.0915036031
 31
0.0
  0
LINE
  5
35C
330
1F
100
AcDbEntity
  8
0
  6
Continuous
 62
     7
370
    15
100
AcDbLine
 10
318.5598646006
 20
724.09149955
 30
0.0
 11
318.5598646006
 21
726.0915036031
 31
0.0
  0
LINE
  5
35D
330
1F
100
AcDbEntity
  8
0
  6
Continuous
 62
     7
370
    15
100
AcDbLine
 10
318.5598646006
 20
756.8915034362
 30
0.0
 11
318.5598646006
 21
750.1415009328
 31
0.0
  0
LINE
  5
35E
330
1F
100
AcDbEntity
  8
0
  6
Continuous
 62
     7
370
    15
100
AcDbLine
 10
318.5598646006
 20
726.0915036031
 30
0.0
 11
318.5598646006
 21
750.1415009328
 31
0.0
  0
LINE
  5
35F
330
1F
100
AcDbEntity
  8
0
  6
Continuous
 62
     7
370
    15
100
AcDbLine
 10
318.4598480067
 20
749.8915041515
 30
0.0
 11
318.4598480067
 21
755.8915088602
 31
0.0
  0
LINE
  5
360
330
1F
100
AcDbEntity
  8
0
  6
Continuous
 62
     7
370
    15
100
AcDbLine
 10
318.4598480067
 20
726.8915022441
 30
0.0
 11
318.4598480067
 21
732.8914995023
 31
0.0
  0
LINE
  5
361
330
1F
100
AcDbEntity
  8
0
  6
Continuous
 62
     7
370
    15
100
AcDbLine
 10
317.3598442873
 20
742.2483260461
 30
0.0
 11
318.5598646006
 21
741.9267738887
 31
0.0
  0
LINE
  5
362
330
1F
100
AcDbEntity
  8
0
  6
Continuous
 62
     7
370
    15
100
AcDbLine
 10
318.5598646006
 20
740.8915008136
 30
0.0
 11
317.3598442873
 21
741.2130380699
 31
0.0
  0
LINE
  5
363
330
1F
100
AcDbEntity
  8
0
  6
Continuous
 62
     8
370
    15
100
AcDbLine
 10
318.8598547778
 20
750.1415009328
 30
0.0
 11
318.5598646006
 21
750.1415009328
 31
0.0
  0
ENDSEC
  0
SECTION
  2
OBJECTS
  0
DICTIONARY
  5
C
330
0
100
AcDbDictionary
281
     1
  3
ACAD_GROUP
350
D
  3
ACAD_LAYOUT
350
1A
  3
ACAD_MLINESTYLE
350
17
  3
ACAD_PLOTSETTINGS
350
19
  3
ACAD_PLOTSTYLENAME
350
E
  0
DICTIONARY
  5
D
102
{ACAD_REACTORS
330
C
102
}
330
C
100
AcDbDictionary
281
     1
  0
DICTIONARY
  5
1A
102
{ACAD_REACTORS
330
C
102
}
330
C
100
AcDbDictionary
281
     1
  3
Layout1
350
1E
  3
Layout2
350
26
  3
Model
350
22
  0
DICTIONARY
  5
17
102
{ACAD_REACTORS
330
C
102
}
330
C
100
AcDbDictionary
281
     1
  3
Standard
350
18
  0
DICTIONARY
  5
19
102
{ACAD_REACTORS
330
C
102
}
330
C
100
AcDbDictionary
281
     1
  0
ACDBDICTIONARYWDFLT
  5
E
102
{ACAD_REACTORS
330
C
102
}
330
C
100
AcDbDictionary
281
     1
  3
Normal
350
F
100
AcDbDictionaryWithDefault
340
F
  0
LAYOUT
  5
1E
102
{ACAD_REACTORS
330
1A
102
}
330
1A
100
AcDbPlotSettings
  1

  2
none_device
  4

  6

 40
0.0
 41
0.0
 42
0.0
 43
0.0
 44
0.0
 45
0.0
 46
0.0
 47
0.0
 48
0.0
 49
0.0
140
0.0
141
0.0
142
1.0
143
1.0
 70
   688
 72
     0
 73
     0
 74
     5
  7

 75
    16
147
1.0
148
0.0
149
0.0
100
AcDbLayout
  1
Layout1
 70
     1
 71
     1
 10
0.0
 20
0.0
 11
420.0
 21
297.0
 12
0.0
 22
0.0
 32
0.0
 14
1.0000000000E+20
 24
1.0000000000E+20
 34
1.0000000000E+20
 15
-1.0000000000E+20
 25
-1.0000000000E+20
 35
-1.0000000000E+20
146
0.0
 13
0.0
 23
0.0
 33
0.0
 16
1.0
 26
0.0
 36
0.0
 17
0.0
 27
1.0
 37
0.0
 76
     0
330
1B
  0
LAYOUT
  5
26
102
{ACAD_REACTORS
330
1A
102
}
330
1A
100
AcDbPlotSettings
  1

  2
none_device
  4

  6

 40
0.0
 41
0.0
 42
0.0
 43
0.0
 44
0.0
 45
0.0
 46
0.0
 47
0.0
 48
0.0
 49
0.0
140
0.0
141
0.0
142
1.0
143
1.0
 70
   688
 72
     0
 73
     0
 74
     5
  7

 75
    16
147
1.0
148
0.0
149
0.0
100
AcDbLayout
  1
Layout2
 70
     1
 71
     2
 10
0.0
 20
0.0
 11
0.0
 21
0.0
 12
0.0
 22
0.0
 32
0.0
 14
0.0
 24
0.0
 34
0.0
 15
0.0
 25
0.0
 35
0.0
146
0.0
 13
0.0
 23
0.0
 33
0.0
 16
1.0
 26
0.0
 36
0.0
 17
0.0
 27
1.0
 37
0.0
 76
     0
330
23
  0
LAYOUT
  5
22
102
{ACAD_REACTORS
330
1A
102
}
330
1A
100
AcDbPlotSettings
  1

  2
none_device
  4

  6

 40
0.0
 41
0.0
 42
0.0
 43
0.0
 44
0.0
 45
0.0
 46
0.0
 47
0.0
 48
0.0
 49
0.0
140
0.0
141
0.0
142
1.0
143
1.0
 70
  1712
 72
     0
 73
     0
 74
     0
  7

 75
     0
147
1.0
148
0.0
149
0.0
100
AcDbLayout
  1
Model
 70
     1
 71
     0
 10
0.0
 20
0.0
 11
840.0
 21
594.0
 12
0.0
 22
0.0
 32
0.0
 14
0.0
 24
0.0
 34
0.0
 15
840.0
 25
594.0
 35
0.0
146
0.0
 13
0.0
 23
0.0
 33
0.0
 16
1.0
 26
0.0
 36
0.0
 17
0.0
 27
1.0
 37
0.0
 76
     0
330
1F
331
29
  0
MLINESTYLE
  5
18
102
{ACAD_REACTORS
330
17
102
}
330
17
100
AcDbMlineStyle
  2
Standard
 70
     0
  3

 62
   256
 51
90.0
 52
90.0
 71
     2
 49
0.5
 62
   256
  6
BYLAYER
 49
-0.5
 62
   256
  6
BYLAYER
  0
ACDBPLACEHOLDER
  5
F
102
{ACAD_REACTORS
330
E
102
}
330
E
  0
ENDSEC
  0
EOF
