  0
SECTION
  2
HEADER
  9
$ACADVER
  1
AC1015
  9
$ACADMAINTVER
 70
     6
  9
$DWGCODEPAGE
  3
DOS932
  9
$INSBASE
 10
0.0
 20
0.0
 30
0.0
  9
$EXTMIN
 10
0.0
 20
0.0
 30
0.0
  9
$EXTMAX
 10
840.0
 20
594.0
 30
0.0
  9
$LIMMIN
 10
0.0
 20
0.0
  9
$LIMMAX
 10
840.0
 20
594.0
  9
$ORTHOMODE
 70
     0
  9
$REGENMODE
 70
     1
  9
$FILLMODE
 70
     1
  9
$QTEXTMODE
 70
     0
  9
$MIRRTEXT
 70
     1
  9
$LTSCALE
 40
2.0
  9
$ATTMODE
 70
     1
  9
$TEXTSIZE
 40
7.0
  9
$TRACEWID
 40
1.0
  9
$TEXTSTYLE
  7
Standard
  9
$CLAYER
  8
0
  9
$CELTYPE
  6
ByLayer
  9
$CECOLOR
 62
   256
  9
$CELTSCALE
 40
1.0
  9
$DISPSILH
 70
     0
  9
$DIMSCALE
 40
1.0
  9
$DIMASZ
 40
6.0
  9
$DIMEXO
 40
2.0
  9
$DIMDLI
 40
3.75
  9
$DIMRND
 40
0.0
  9
$DIMDLE
 40
0.0
  9
$DIMEXE
 40
2.0
  9
$DIMTP
 40
0.0
  9
$DIMTM
 40
0.0
  9
$DIMTXT
 40
7.0
  9
$DIMCEN
 40
2.5
  9
$DIMTSZ
 40
0.0
  9
$DIMTOL
 70
     0
  9
$DIMLIM
 70
     0
  9
$DIMTIH
 70
     1
  9
$DIMTOH
 70
     1
  9
$DIMSE1
 70
     0
  9
$DIMSE2
 70
     0
  9
$DIMTAD
 70
     1
  9
$DIMZIN
 70
     0
  9
$DIMBLK
  1

  9
$DIMASO
 70
     1
  9
$DIMSHO
 70
     1
  9
$DIMPOST
  1

  9
$DIMAPOST
  1

  9
$DIMALT
 70
     0
  9
$DIMALTD
 70
     3
  9
$DIMALTF
 40
0.0393700787
  9
$DIMLFAC
 40
1.0
  9
$DIMTOFL
 70
     1
  9
$DIMTVP
 40
0.0
  9
$DIMTIX
 70
     0
  9
$DIMSOXD
 70
     0
  9
$DIMSAH
 70
     0
  9
$DIMBLK1
  1

  9
$DIMBLK2
  1

  9
$DIMSTYLE
  2
ISO-25
  9
$DIMCLRD
 70
     0
  9
$DIMCLRE
 70
     0
  9
$DIMCLRT
 70
     0
  9
$DIMTFAC
 40
1.0
  9
$DIMGAP
 40
3.048
  9
$DIMJUST
 70
     0
  9
$DIMSD1
 70
     0
  9
$DIMSD2
 70
     0
  9
$DIMTOLJ
 70
     0
  9
$DIMTZIN
 70
     0
  9
$DIMALTZ
 70
     0
  9
$DIMALTTZ
 70
     0
  9
$DIMUPT
 70
     0
  9
$DIMDEC
 70
     1
  9
$DIMTDEC
 70
     1
  9
$DIMALTU
 70
     2
  9
$DIMALTTD
 70
     3
  9
$DIMTXSTY
  7
Standard
  9
$DIMAUNIT
 70
     0
  9
$DIMADEC
 70
     2
  9
$DIMALTRND
 40
0.0
  9
$DIMAZIN
 70
     0
  9
$DIMDSEP
 70
    44
  9
$DIMATFIT
 70
     3
  9
$DIMFRAC
 70
     0
  9
$DIMLDRBLK
  1

  9
$DIMLUNIT
 70
     2
  9
$DIMLWD
 70
    -2
  9
$DIMLWE
 70
    -2
  9
$DIMTMOVE
 70
     0
  9
$LUNITS
 70
     2
  9
$LUPREC
 70
     1
  9
$SKETCHINC
 40
1.0
  9
$FILLETRAD
 40
10.0
  9
$AUNITS
 70
     0
  9
$AUPREC
 70
     2
  9
$MENU
  1
.
  9
$ELEVATION
 40
0.0
  9
$PELEVATION
 40
0.0
  9
$THICKNESS
 40
0.0
  9
$LIMCHECK
 70
     0
  9
$CHAMFERA
 40
10.0
  9
$CHAMFERB
 40
10.0
  9
$CHAMFERC
 40
20.0
  9
$CHAMFERD
 40
0.0
  9
$SKPOLY
 70
     0
  9
$TDCREATE
 40
2460451.5765761
  9
$TDUCREATE
 40
2460451.2015761
  9
$TDUPDATE
 40
2460451.576576111
  9
$TDUUPDATE
 40
2460451.201576111
  9
$TDINDWG
 40
0.0000000116
  9
$TDUSRTIMER
 40
0.0000000116
  9
$USRTIMER
 70
     1
  9
$ANGBASE
 50
0.0
  9
$ANGDIR
 70
     0
  9
$PDMODE
 70
     0
  9
$PDSIZE
 40
-1.0
  9
$PLINEWID
 40
0.0
  9
$SPLFRAME
 70
     0
  9
$SPLINETYPE
 70
     6
  9
$SPLINESEGS
 70
     8
  9
$HANDSEED
  5
363
  9
$SURFTAB1
 70
     6
  9
$SURFTAB2
 70
     6
  9
$SURFTYPE
 70
     6
  9
$SURFU
 70
     6
  9
$SURFV
 70
     6
  9
$UCSBASE
  2

  9
$UCSNAME
  2

  9
$UCSORG
 10
0.0
 20
0.0
 30
0.0
  9
$UCSXDIR
 10
1.0
 20
0.0
 30
0.0
  9
$UCSYDIR
 10
0.0
 20
1.0
 30
0.0
  9
$UCSORTHOREF
  2

  9
$UCSORTHOVIEW
 70
     0
  9
$UCSORGTOP
 10
0.0
 20
0.0
 30
0.0
  9
$UCSORGBOTTOM
 10
0.0
 20
0.0
 30
0.0
  9
$UCSORGLEFT
 10
0.0
 20
0.0
 30
0.0
  9
$UCSORGRIGHT
 10
0.0
 20
0.0
 30
0.0
  9
$UCSORGFRONT
 10
0.0
 20
0.0
 30
0.0
  9
$UCSORGBACK
 10
0.0
 20
0.0
 30
0.0
  9
$PUCSBASE
  2

  9
$PUCSNAME
  2

  9
$PUCSORG
 10
0.0
 20
0.0
 30
0.0
  9
$PUCSXDIR
 10
1.0
 20
0.0
 30
0.0
  9
$PUCSYDIR
 10
0.0
 20
1.0
 30
0.0
  9
$PUCSORTHOREF
  2

  9
$PUCSORTHOVIEW
 70
     0
  9
$PUCSORGTOP
 10
0.0
 20
0.0
 30
0.0
  9
$PUCSORGBOTTOM
 10
0.0
 20
0.0
 30
0.0
  9
$PUCSORGLEFT
 10
0.0
 20
0.0
 30
0.0
  9
$PUCSORGRIGHT
 10
0.0
 20
0.0
 30
0.0
  9
$PUCSORGFRONT
 10
0.0
 20
0.0
 30
0.0
  9
$PUCSORGBACK
 10
0.0
 20
0.0
 30
0.0
  9
$USERI1
 70
     0
  9
$USERI2
 70
     0
  9
$USERI3
 70
     0
  9
$USERI4
 70
     0
  9
$USERI5
 70
     0
  9
$USERR1
 40
0.0
  9
$USERR2
 40
0.0
  9
$USERR3
 40
0.0
  9
$USERR4
 40
0.0
  9
$USERR5
 40
0.0
  9
$WORLDVIEW
 70
     1
  9
$SHADEDGE
 70
     3
  9
$SHADEDIF
 70
    70
  9
$TILEMODE
 70
     1
  9
$MAXACTVP
 70
    64
  9
$PINSBASE
 10
0.0
 20
0.0
 30
0.0
  9
$PLIMCHECK
 70
     0
  9
$PEXTMIN
 10
1.0000000000E+20
 20
1.0000000000E+20
 30
1.0000000000E+20
  9
$PEXTMAX
 10
-1.0000000000E+20
 20
-1.0000000000E+20
 30
-1.0000000000E+20
  9
$PLIMMIN
 10
0.0
 20
0.0
  9
$PLIMMAX
 10
420.0
 20
297.0
  9
$UNITMODE
 70
     0
  9
$VISRETAIN
 70
     1
  9
$PLINEGEN
 70
     0
  9
$PSLTSCALE
 70
     1
  9
$TREEDEPTH
 70
  3020
  9
$CMLSTYLE
  2
Standard
  9
$CMLJUST
 70
     0
  9
$CMLSCALE
 40
20.0
  9
$PROXYGRAPHICS
 70
     1
  9
$MEASUREMENT
 70
     1
  9
$CELWEIGHT
370
    -1
  9
$ENDCAPS
280
     0
  9
$JOINSTYLE
280
     0
  9
$LWDISPLAY
290
     1
  9
$INSUNITS
 70
     4
  9
$HYPERLINKBASE
  1

  9
$STYLESHEET
  1

  9
$XEDIT
290
     1
  9
$CEPSNTYPE
380
     0
  9
$PSTYLEMODE
290
     1
  9
$FINGERPRINTGUID
  2
{6A2667A3-E04F-47FA-9B27-6787261A234D}
  9
$VERSIONGUID
  2
{FAEB1C32-E019-11D5-929B-00C0DF256EC4}
  9
$EXTNAMES
290
     1
  9
$PSVPSCALE
 40
0.0
  9
$OLESTARTUP
290
     0
  0
ENDSEC
  0
SECTION
  2
CLASSES
  0
CLASS
  1
ACDBDICTIONARYWDFLT
  2
AcDbDictionaryWithDefault
  3
ObjectDBX Classes
 90
        0
280
     0
281
     0
  0
CLASS
  1
VISUALSTYLE
  2
AcDbVisualStyle
  3
ObjectDBX Classes
 90
     4095
280
     0
281
     0
  0
CLASS
  1
MATERIAL
  2
AcDbMaterial
  3
ObjectDBX Classes
 90
     1153
280
     0
281
     0
  0
CLASS
  1
ACDBPLACEHOLDER
  2
AcDbPlaceHolder
  3
ObjectDBX Classes
 90
        0
280
     0
281
     0
  0
CLASS
  1
LAYOUT
  2
AcDbLayout
  3
ObjectDBX Classes
 90
        0
280
     0
281
     0
  0
ENDSEC
  0
SECTION
  2
TABLES
  0
TABLE
  2
VPORT
  5
8
330
0
100
AcDbSymbolTable
 70
     1
  0
VPORT
  5
29
330
8
100
AcDbSymbolTableRecord
100
AcDbViewportTableRecord
  2
*Active
 70
     0
 10
0.0
 20
0.0
 11
1.0
 21
1.0
 12
420.0
 22
297.0
 13
0.0
 23
0.0
 14
10.0
 24
10.0
 15
10.0
 25
10.0
 16
0.0
 26
0.0
 36
1.0
 17
0.0
 27
0.0
 37
0.0
 40
594.0
 41
1.4141414141
 42
50.0
 43
0.0
 44
0.0
 50
0.0
 51
0.0
 71
     0
 72
  2000
 73
     1
 74
     3
 75
     0
 76
     0
 77
     0
 78
     0
281
     0
 65
     1
110
0.0
120
0.0
130
0.0
111
1.0
121
0.0
131
0.0
112
0.0
122
1.0
132
0.0
 79
     0
146
0.0
  0
ENDTAB
  0
TABLE
  2
LTYPE
  5
5
330
0
100
AcDbSymbolTable
 70
     6
  0
LTYPE
  5
14
330
5
100
AcDbSymbolTableRecord
100
AcDbLinetypeTableRecord
  2
ByBlock
 70
     0
  3

 72
    65
 73
     0
 40
0.0
  0
LTYPE
  5
15
330
5
100
AcDbSymbolTableRecord
100
AcDbLinetypeTableRecord
  2
ByLayer
 70
     0
  3

 72
    65
 73
     0
 40
0.0
  0
LTYPE
  5
16
330
5
100
AcDbSymbolTableRecord
100
AcDbLinetypeTableRecord
  2
Continuous
 70
     0
  3
Solid line
 72
    65
 73
     0
 40
0.0
  0
LTYPE
  5
3F
330
5
100
AcDbSymbolTableRecord
100
AcDbLinetypeTableRecord
  2
HIDDEN
 70
     0
  3
Hidden __ __ __ __ __ __ __ __ __ __ __ __ __ __
 72
    65
 73
     2
 40
1.905
 49
1.27
 74
     0
 49
-0.635
 74
     0
  0
LTYPE
  5
40
330
5
100
AcDbSymbolTableRecord
100
AcDbLinetypeTableRecord
  2
PHANTOM
 70
     0
  3
Phantom ______  __  __  ______  __  __  ______
 72
    65
 73
     6
 40
12.7
 49
6.35
 74
     0
 49
-1.27
 74
     0
 49
1.27
 74
     0
 49
-1.27
 74
     0
 49
1.27
 74
     0
 49
-1.27
 74
     0
  0
LTYPE
  5
41
330
5
100
AcDbSymbolTableRecord
100
AcDbLinetypeTableRecord
  2
CENTER
 70
     0
  3
Center ____ _ ____ _ ____ _ ____ _ ____ _ ____
 72
    65
 73
     4
 40
10.16
 49
6.35
 74
     0
 49
-1.27
 74
     0
 49
1.27
 74
     0
 49
-1.27
 74
     0
  0
LTYPE
  5
42
330
5
100
AcDbSymbolTableRecord
100
AcDbLinetypeTableRecord
  2
CENTERX2
 70
     0
  3
Center (2x) ________  __  ________  __  _____
 72
    65
 73
     4
 40
20.32
 49
12.7
 74
     0
 49
-2.54
 74
     0
 49
2.54
 74
     0
 49
-2.54
 74
     0
  0
LTYPE
  5
43
330
5
100
AcDbSymbolTableRecord
100
AcDbLinetypeTableRecord
  2
DOT2
 70
     0
  3
Dot (.5x) ........................................
 72
    65
 73
     2
 40
0.635
 49
0.0
 74
     0
 49
-0.635
 74
     0
  0
ENDTAB
  0
TABLE
  2
LAYER
  5
2
330
0
100
AcDbSymbolTable
 70
     1
  0
LAYER
  5
10
330
2
100
AcDbSymbolTableRecord
100
AcDbLayerTableRecord
  2
0
 70
     0
 62
     7
  6
Continuous
370
    -3
390
F
  0
ENDTAB
  0
TABLE
  2
STYLE
  5
3
330
0
100
AcDbSymbolTable
 70
     2
  0
STYLE
  5
11
330
3
100
AcDbSymbolTableRecord
100
AcDbTextStyleTableRecord
  2
Standard
 70
     0
 40
0.0
 41
1.0
 50
0.0
 71
     0
 42
2.5
  3
txt
  4
bigfont
  0
STYLE
  5
44
330
3
100
AcDbSymbolTableRecord
100
AcDbTextStyleTableRecord
  2
SLDTEXTSTYLE0
 70
     0
 40
0.0
 41
0.7
 50
0.0
 71
     0
 42
0.2
  3
TXT
  4
bigfont
  0
ENDTAB
  0
TABLE
  2
VIEW
  5
6
330
0
100
AcDbSymbolTable
 70
     0
  0
ENDTAB
  0
TABLE
  2
UCS
  5
7
330
0
100
AcDbSymbolTable
 70
     0
  0
ENDTAB
  0
TABLE
  2
APPID
  5
9
330
0
100
AcDbSymbolTable
 70
     1
  0
APPID
  5
12
330
9
100
AcDbSymbolTableRecord
100
AcDbRegAppTableRecord
  2
ACAD
 70
     0
  0
ENDTAB
  0
TABLE
  2
DIMSTYLE
  5
A
330
0
100
AcDbSymbolTable
 70
     1
100
AcDbDimStyleTable
  0
DIMSTYLE
105
27
330
A
100
AcDbSymbolTableRecord
100
AcDbDimStyleTableRecord
  2
ISO-25
 70
     0
 41
2.5
 42
0.625
 43
3.75
 44
1.25
 73
     0
 74
     0
 77
     1
 78
     8
140
2.5
141
2.5
143
0.0393700787
147
0.625
171
     3
172
     1
178
     0
271
     2
272
     2
274
     3
278
    44
283
     0
284
     8
340
11
  0
ENDTAB
  0
TABLE
  2
BLOCK_RECORD
  5
1
330
0
100
AcDbSymbolTable
 70
     1
  0
BLOCK_RECORD
  5
1F
330
1
100
AcDbSymbolTableRecord
100
AcDbBlockTableRecord
  2
*Model_Space
340
22
  0
BLOCK_RECORD
  5
1B
330
1
100
AcDbSymbolTableRecord
100
AcDbBlockTableRecord
  2
*Paper_Space
340
1E
  0
BLOCK_RECORD
  5
23
330
1
100
AcDbSymbolTableRecord
100
AcDbBlockTableRecord
  2
*Paper_Space0
340
26
  0
ENDTAB
  0
ENDSEC
  0
SECTION
  2
BLOCKS
  0
BLOCK
  5
20
330
1F
100
AcDbEntity
  8
0
100
AcDbBlockBegin
  2
*Model_Space
 70
     0
 10
0.0
 20
0.0
 30
0.0
  3
*Model_Space
  1

  0
ENDBLK
  5
21
330
1F
100
AcDbEntity
  8
0
100
AcDbBlockEnd
  0
BLOCK
  5
1C
330
1B
100
AcDbEntity
 67
     1
  8
0
100
AcDbBlockBegin
  2
*Paper_Space
 70
     0
 10
0.0
 20
0.0
 30
0.0
  3
*Paper_Space
  1

  0
ENDBLK
  5
1D
330
1B
100
AcDbEntity
 67
     1
  8
0
100
AcDbBlockEnd
  0
BLOCK
  5
24
330
23
100
AcDbEntity
  8
0
100
AcDbBlockBegin
  2
*Paper_Space0
 70
     0
 10
0.0
 20
0.0
 30
0.0
  3
*Paper_Space0
  1

  0
ENDBLK
  5
25
330
23
100
AcDbEntity
  8
0
100
AcDbBlockEnd
  0
ENDSEC
  0
SECTION
  2
ENTITIES
  0
MTEXT
  5
45
330
1F
100
AcDbEntity
  8
0
  6
Continuous
 62
     7
370
     0
100
AcDbMText
 10
11.7916643363
 20
550.6414678953
 30
0.0
 40
7.0
 41
0.0
 71
     1
 72
     1
  1
CHB-521N
  7
SLDTEXTSTYLE0
 73
     1
 44
1.0
  0
LINE
  5
46
330
1F
100
AcDbEntity
  8
0
  6
Continuous
 62
     7
370
    15
100
AcDbLine
 10
311.7527985277
 20
56.782911609
 30
0.0
 11
311.8528151216
 21
56.782911609
 31
0.0
  0
LINE
  5
47
330
1F
100
AcDbEntity
  8
0
  6
Continuous
 62
     7
370
    15
100
AcDbLine
 10
311.8528151216
 20
62.7829088672
 30
0.0
 11
311.7527985277
 21
62.7829088672
 31
0.0
  0
LINE
  5
48
330
1F
100
AcDbEntity
  8
0
  6
Continuous
 62
     7
370
    15
100
AcDbLine
 10
311.7527985277
 20
66.7829169734
 30
0.0
 11
311.8528151216
 21
66.7829169734
 31
0.0
  0
LINE
  5
49
330
1F
100
AcDbEntity
  8
0
  6
Continuous
 62
     7
370
    15
100
AcDbLine
 10
311.8528151216
 20
72.7829142316
 30
0.0
 11
311.7527985277
 21
72.7829142316
 31
0.0
  0
LINE
  5
4A
330
1F
100
AcDbEntity
  8
0
  6
Continuous
 62
     7
370
    15
100
AcDbLine
 10
311.7527985277
 20
526.7829104169
 30
0.0
 11
311.8528151216
 21
526.7829104169
 31
0.0
  0
LINE
  5
4B
330
1F
100
AcDbEntity
  8
0
  6
Continuous
 62
     7
370
    15
100
AcDbLine
 10
311.8528151216
 20
532.7829076751
 30
0.0
 11
311.7527985277
 21
532.7829076751
 31
0.0
  0
LINE
  5
4C
330
1F
100
AcDbEntity
  8
0
  6
Continuous
 62
     7
370
    15
100
AcDbLine
 10
311.7527985277
 20
536.7829157813
 30
0.0
 11
311.8528151216
 21
536.7829157813
 31
0.0
  0
LINE
  5
4D
330
1F
100
AcDbEntity
  8
0
  6
Continuous
 62
     7
370
    15
100
AcDbLine
 10
311.8528151216
 20
542.7829130395
 30
0.0
 11
311.7527985277
 21
542.7829130395
 31
0.0
  0
LINE
  5
4E
330
1F
100
AcDbEntity
  8
0
  6
Continuous
 62
     7
370
    15
100
AcDbLine
 10
313.0528056325
 20
76.2829138739
 30
0.0
 11
311.8528151216
 21
76.2829138739
 31
0.0
  0
LINE
  5
4F
330
1F
100
AcDbEntity
  8
0
  6
Continuous
 62
     7
370
    15
100
AcDbLine
 10
313.0528056325
 20
546.2829126819
 30
0.0
 11
311.8528151216
 21
546.2829126819
 31
0.0
  0
LINE
  5
50
330
1F
100
AcDbEntity
  8
0
  6
Continuous
 62
     7
370
    15
100
AcDbLine
 10
311.8528151216
 20
53.2829119666
 30
0.0
 11
313.0528056325
 21
53.2829119666
 31
0.0
  0
LINE
  5
51
330
1F
100
AcDbEntity
  8
0
  6
Continuous
 62
     7
370
    15
100
AcDbLine
 10
311.8528151216
 20
523.2829107745
 30
0.0
 11
313.0528056325
 21
523.2829107745
 31
0.0
  0
LINE
  5
52
330
1F
100
AcDbEntity
  8
0
  6
Continuous
 62
     7
370
    15
100
AcDbLine
 10
824.5528065862
 20
55.7829095824
 30
0.0
 11
824.5528065862
 21
90.7829060061
 31
0.0
  0
LINE
  5
53
330
1F
100
AcDbEntity
  8
0
  6
Continuous
 62
     7
370
    15
100
AcDbLine
 10
824.5528065862
 20
508.7829186423
 30
0.0
 11
824.5528065862
 21
543.782915066
 31
0.0
  0
LINE
  5
54
330
1F
100
AcDbEntity
  8
0
  6
Continuous
 62
     7
370
    15
100
AcDbLine
 10
303.9479875268
 20
68.6829193337
 30
0.0
 11
303.9479875268
 21
60.0829078658
 31
0.0
  0
LINE
  5
55
330
1F
100
AcDbEntity
  8
0
  6
Continuous
 62
     7
370
    15
100
AcDbLine
 10
304.5527958574
 20
57.58291025
 30
0.0
 11
304.5527958574
 21
56.7831649287
 31
0.0
  0
LINE
  5
56
330
1F
100
AcDbEntity
  8
0
  6
Continuous
 62
     7
370
    15
100
AcDbLine
 10
304.5527958574
 20
72.7826609118
 30
0.0
 11
304.5527958574
 21
71.9829155906
 31
0.0
  0
ARC
  5
57
330
1F
100
AcDbEntity
  8
0
  6
Continuous
 62
     7
370
    15
100
AcDbCircle
 10
308.1528056325
 20
69.9757694671
 30
0.0
 40
3.807142857143189
100
AcDbArc
 50
77.9663271603
 51
90.0
  0
ARC
  5
58
330
1F
100
AcDbEntity
  8
0
  6
Continuous
 62
     7
370
    15
100
AcDbCircle
 10
308.1528056325
 20
69.9757694671
 30
0.0
 40
3.807142857143298
100
AcDbArc
 50
90.0
 51
125.3002484399
  0
LINE
  5
59
330
1F
100
AcDbEntity
  8
0
  6
Continuous
 62
     7
370
    15
100
AcDbLine
 10
305.9528195562
 20
73.0829193099
 30
0.0
 11
305.9528195562
 21
72.7829142316
 31
0.0
  0
LINE
  5
5A
330
1F
100
AcDbEntity
  8
0
  6
Continuous
 62
     7
370
    15
100
AcDbLine
 10
306.0528063478
 20
56.382919739
 30
0.0
 11
306.0528063478
 21
55.982912968
 31
0.0
  0
ARC
  5
5B
330
1F
100
AcDbEntity
  8
0
  6
Continuous
 62
     7
370
    15
100
AcDbCircle
 10
306.2528056325
 20
56.7829123243
 30
0.0
 40
0.4000000000008299
100
AcDbArc
 50
270.0
 51
0.0
  0
LINE
  5
5C
330
1F
100
AcDbEntity
  8
0
  6
Continuous
 62
     7
370
    15
100
AcDbLine
 10
306.6528165044
 20
71.9829155906
 30
0.0
 11
306.6528165044
 21
71.5329154237
 31
0.0
  0
LINE
  5
5D
330
1F
100
AcDbEntity
  8
0
  6
Continuous
 62
     7
370
    15
100
AcDbLine
 10
306.6528165044
 20
58.0329104169
 30
0.0
 11
306.6528165044
 21
57.58291025
 31
0.0
  0
SPLINE
  5
5E
330
1F
100
AcDbEntity
  8
0
  6
Continuous
 62
     7
370
    15
100
AcDbSpline
210
0.0
220
0.0
230
1.0
 70
     8
 71
     3
 72
    11
 73
     7
 74
     0
 42
0.00000001
 43
0.00000001
 40
0.0
 40
0.0
 40
0.0
 40
0.0
 40
0.2262262702538957
 40
0.4679469806289493
 40
0.7254864912811284
 40
1.0
 40
1.0
 40
1.0
 40
1.0
 10
309.3733215035878
 20
73.01334578827684
 30
0.0
 10
309.3761422420037
 20
72.99044661280521
 30
0.0
 10
309.3819769137393
 20
72.94307987679873
 30
0.0
 10
309.398743669864
 20
72.61829950103757
 30
0.0
 10
309.4123388710932
 20
72.11780066193838
 30
0.0
 10
309.41288528539
 20
71.69397894794763
 30
0.0
 10
309.4131672086201
 20
71.47530753449266
 30
0.0
  0
SPLINE
  5
5F
330
1F
100
AcDbEntity
  8
0
  6
Continuous
 62
     7
370
    15
100
AcDbSpline
210
0.0
220
0.0
230
1.0
 70
     8
 71
     3
 72
    12
 73
     8
 74
     0
 42
0.00000001
 43
0.00000001
 40
0.0
 40
0.0
 40
0.0
 40
0.0
 40
0.248946245326258
 40
0.4822936287519815
 40
0.699811415192867
 40
0.9035372363555159
 40
1.0
 40
1.0
 40
1.0
 40
1.0
 10
309.4131672086201
 20
57.9166813595659
 30
0.0
 10
309.4117413415625
 20
57.77934568174409
 30
0.0
 10
309.408978951648
 20
57.51327971908218
 30
0.0
 10
309.3980780198476
 20
57.17747579586619
 30
0.0
 10
309.3955676889547
 20
56.94429821826355
 30
0.0
 10
309.4003567051051
 20
56.82418437975304
 30
0.0
 10
309.4267873076028
 20
56.82284498813045
 30
0.0
 10
309.4352805318318
 20
56.8224145872957
 30
0.0
  0
LINE
  5
60
330
1F
100
AcDbEntity
  8
0
  6
Continuous
 62
     7
370
    15
100
AcDbLine
 10
309.4123327436
 20
71.5253009303
 30
0.0
 11
309.4123327436
 21
57.8666730626
 31
0.0
  0
LINE
  5
61
330
1F
100
AcDbEntity
  8
0
  6
Continuous
 62
     7
370
    15
100
AcDbLine
 10
307.8886890115
 20
75.4632009967
 30
0.0
 11
309.3760633172
 21
72.9830517276
 31
0.0
  0
LINE
  5
62
330
1F
100
AcDbEntity
  8
0
  6
Continuous
 62
     7
370
    15
100
AcDbLine
 10
311.8528151216
 20
74.6861650451
 30
0.0
 11
310.4615235033
 21
77.0061268313
 31
0.0
  0
LINE
  5
63
330
1F
100
AcDbEntity
  8
0
  6
Continuous
 62
     7
370
    15
100
AcDbLine
 10
309.4405555429
 20
56.6903306945
 30
0.0
 11
307.8714632692
 21
54.0739103063
 31
0.0
  0
LINE
  5
64
330
1F
100
AcDbEntity
  8
0
  6
Continuous
 62
     7
370
    15
100
AcDbLine
 10
310.4442977609
 20
52.5309844716
 30
0.0
 11
311.8528151216
 21
54.8796607955
 31
0.0
  0
LINE
  5
65
330
1F
100
AcDbEntity
  8
0
  6
Continuous
 62
     7
370
    15
100
AcDbLine
 10
310.4814016523
 20
76.9706173642
 30
0.0
 11
310.3914582433
 21
77.0844026311
 31
0.0
  0
SPLINE
  5
66
330
1F
100
AcDbEntity
  8
0
  6
Continuous
 62
     7
370
    15
100
AcDbSpline
210
0.0
220
0.0
230
1.0
 70
     8
 71
     3
 72
    20
 73
    16
 74
     0
 42
0.00000001
 43
0.00000001
 40
0.0
 40
0.0
 40
0.0
 40
0.0
 40
0.0337781842898247
 40
0.1101041171070845
 40
0.1739272789651672
 40
0.2252747007360955
 40
0.2665353570161498
 40
0.3037734465098283
 40
0.3388578121458197
 40
0.3726395203360093
 40
0.4139179590234036
 40
0.6259818905904043
 40
0.8390272038629291
 40
0.9659458002563539
 40
1.0
 40
1.0
 40
1.0
 40
1.0
 10
310.2791332902394
 20
77.22647030190294
 30
0.0
 10
310.2384834526958
 20
77.28265398302273
 30
0.0
 10
310.1059803425557
 20
77.46579155348645
 30
0.0
 10
309.7961021549718
 20
77.64297359627484
 30
0.0
 10
309.4088288529479
 20
77.76591771717212
 30
0.0
 10
309.0389749256397
 20
77.78072212864315
 30
0.0
 10
308.7046600995623
 20
77.73012798257606
 30
0.0
 10
308.4301787147256
 20
77.62907929688306
 30
0.0
 10
308.2026748899996
 20
77.49435659333612
 30
0.0
 10
307.9966454664215
 20
77.31818276617744
 30
0.0
 10
307.6520810129232
 20
76.87570224494497
 30
0.0
 10
307.471002129724
 20
76.18900986769705
 30
0.0
 10
307.3212839919162
 20
75.00817907827495
 30
0.0
 10
307.2660766687513
 20
74.10353741629625
 30
0.0
 10
307.2595434051143
 20
73.6889486060354
 30
0.0
 10
307.2581612767659
 20
73.60124130085771
 30
0.0
  0
SPLINE
  5
67
330
1F
100
AcDbEntity
  8
0
  6
Continuous
 62
     7
370
    15
100
AcDbSpline
210
0.0
220
0.0
230
1.0
 70
     8
 71
     3
 72
    19
 73
    15
 74
     0
 42
0.00000001
 43
0.00000001
 40
0.0
 40
0.0
 40
0.0
 40
0.0
 40
0.0102730546330942
 40
0.1295977814996322
 40
0.3268131659535557
 40
0.5525082917097263
 40
0.5858522211323304
 40
0.6185996602035791
 40
0.6529077732634752
 40
0.6960083279230418
 40
0.7523127563035826
 40
0.8223129648801066
 40
0.9054595978852741
 40
1.0
 40
1.0
 40
1.0
 40
1.0
 10
307.2553002538166
 20
55.98291296795671
 30
0.0
 10
307.2556234172179
 20
55.95571554291715
 30
0.0
 10
307.2597002241031
 20
55.61261156133454
 30
0.0
 10
307.29951496646
 20
54.79262902355858
 30
0.0
 10
307.434481433183
 20
53.57019927712348
 30
0.0
 10
307.524913683944
 20
52.92681167847949
 30
0.0
 10
307.8757612864697
 20
52.3867379861328
 30
0.0
 10
308.0449897767264
 20
52.19888858553684
 30
0.0
 10
308.2817126414964
 20
52.02240738638633
 30
0.0
 10
308.5953493913354
 20
51.86894807083875
 30
0.0
 10
308.998817567821
 20
51.76713065833352
 30
0.0
 10
309.4846745490937
 20
51.79033104651115
 30
0.0
 10
310.0144376066493
 20
52.00061844221263
 30
0.0
 10
310.2796659699844
 20
52.32245178520328
 30
0.0
 10
310.4207837285481
 20
52.49368686512773
 30
0.0
  0
LINE
  5
68
330
1F
100
AcDbEntity
  8
0
  6
Continuous
 62
     7
370
    15
100
AcDbLine
 10
303.9479875268
 20
538.6829181416
 30
0.0
 11
303.9479875268
 21
530.0829066737
 31
0.0
  0
LINE
  5
69
330
1F
100
AcDbEntity
  8
0
  6
Continuous
 62
     7
370
    15
100
AcDbLine
 10
304.5527958574
 20
542.7826597197
 30
0.0
 11
304.5527958574
 21
541.9829143985
 31
0.0
  0
LINE
  5
6A
330
1F
100
AcDbEntity
  8
0
  6
Continuous
 62
     7
370
    15
100
AcDbLine
 10
304.5527958574
 20
527.5829090579
 30
0.0
 11
304.5527958574
 21
526.7831637366
 31
0.0
  0
LINE
  5
6B
330
1F
100
AcDbEntity
  8
0
  6
Continuous
 62
     7
370
    15
100
AcDbLine
 10
305.9528195562
 20
543.0829181178
 30
0.0
 11
305.9528195562
 21
542.7829130395
 31
0.0
  0
ARC
  5
6C
330
1F
100
AcDbEntity
  8
0
  6
Continuous
 62
     7
370
    15
100
AcDbCircle
 10
308.1528056325
 20
539.9757694671
 30
0.0
 40
3.807142857143092
100
AcDbArc
 50
77.9663271603
 51
90.0
  0
ARC
  5
6D
330
1F
100
AcDbEntity
  8
0
  6
Continuous
 62
     7
370
    15
100
AcDbCircle
 10
308.1528056325
 20
539.9757694671
 30
0.0
 40
3.807142857143182
100
AcDbArc
 50
90.0
 51
125.3002484399
  0
LINE
  5
6E
330
1F
100
AcDbEntity
  8
0
  6
Continuous
 62
     7
370
    15
100
AcDbLine
 10
306.0528063478
 20
526.382918547
 30
0.0
 11
306.0528063478
 21
525.9829117759
 31
0.0
  0
ARC
  5
6F
330
1F
100
AcDbEntity
  8
0
  6
Continuous
 62
     7
370
    15
100
AcDbCircle
 10
306.2528056325
 20
526.7829123243
 30
0.0
 40
0.4000000000008299
100
AcDbArc
 50
270.0
 51
0.0
  0
LINE
  5
70
330
1F
100
AcDbEntity
  8
0
  6
Continuous
 62
     7
370
    15
100
AcDbLine
 10
306.6528165044
 20
541.9829143985
 30
0.0
 11
306.6528165044
 21
541.5329142316
 31
0.0
  0
LINE
  5
71
330
1F
100
AcDbEntity
  8
0
  6
Continuous
 62
     7
370
    15
100
AcDbLine
 10
306.6528165044
 20
528.0329092248
 30
0.0
 11
306.6528165044
 21
527.5829090579
 31
0.0
  0
SPLINE
  5
72
330
1F
100
AcDbEntity
  8
0
  6
Continuous
 62
     7
370
    15
100
AcDbSpline
210
0.0
220
0.0
230
1.0
 70
     8
 71
     3
 72
    11
 73
     7
 74
     0
 42
0.00000001
 43
0.00000001
 40
0.0
 40
0.0
 40
0.0
 40
0.0
 40
0.2262262702538957
 40
0.4679469806289493
 40
0.7254864912811284
 40
1.0
 40
1.0
 40
1.0
 40
1.0
 10
309.3733215035878
 20
543.013344596184
 30
0.0
 10
309.3761422420037
 20
542.9904454207123
 30
0.0
 10
309.3819769137393
 20
542.9430786847057
 30
0.0
 10
309.398743669864
 20
542.6182983089448
 30
0.0
 10
309.4123388710932
 20
542.1177994698455
 30
0.0
 10
309.41288528539
 20
541.6939777558547
 30
0.0
 10
309.4131672086201
 20
541.4753063423998
 30
0.0
  0
SPLINE
  5
73
330
1F
100
AcDbEntity
  8
0
  6
Continuous
 62
     7
370
    15
100
AcDbSpline
210
0.0
220
0.0
230
1.0
 70
     8
 71
     3
 72
    12
 73
     8
 74
     0
 42
0.00000001
 43
0.00000001
 40
0.0
 40
0.0
 40
0.0
 40
0.0
 40
0.248946245326258
 40
0.4822936287519815
 40
0.699811415192867
 40
0.9035372363555159
 40
1.0
 40
1.0
 40
1.0
 40
1.0
 10
309.4131672086201
 20
527.916680167473
 30
0.0
 10
309.4117413415625
 20
527.7793444896512
 30
0.0
 10
309.408978951648
 20
527.5132785269891
 30
0.0
 10
309.3980780198476
 20
527.1774746037735
 30
0.0
 10
309.3955676889547
 20
526.9442970261706
 30
0.0
 10
309.4003567051051
 20
526.8241831876599
 30
0.0
 10
309.4267873076028
 20
526.8228437960377
 30
0.0
 10
309.4352805318318
 20
526.8224133952028
 30
0.0
  0
LINE
  5
74
330
1F
100
AcDbEntity
  8
0
  6
Continuous
 62
     7
370
    15
100
AcDbLine
 10
309.4123327436
 20
541.5253146394
 30
0.0
 11
309.4123327436
 21
527.8666718705
 31
0.0
  0
LINE
  5
75
330
1F
100
AcDbEntity
  8
0
  6
Continuous
 62
     7
370
    15
100
AcDbLine
 10
307.8886890115
 20
545.4631998046
 30
0.0
 11
309.3760633172
 21
542.9830505355
 31
0.0
  0
LINE
  5
76
330
1F
100
AcDbEntity
  8
0
  6
Continuous
 62
     7
370
    15
100
AcDbLine
 10
311.8528151216
 20
544.686163853
 30
0.0
 11
310.4615235033
 21
547.0061256392
 31
0.0
  0
LINE
  5
77
330
1F
100
AcDbEntity
  8
0
  6
Continuous
 62
     7
370
    15
100
AcDbLine
 10
309.4405555429
 20
526.6903295024
 30
0.0
 11
307.8714632692
 21
524.0739091142
 31
0.0
  0
LINE
  5
78
330
1F
100
AcDbEntity
  8
0
  6
Continuous
 62
     7
370
    15
100
AcDbLine
 10
310.4442977609
 20
522.5309832795
 30
0.0
 11
311.8528151216
 21
524.8796596034
 31
0.0
  0
LINE
  5
79
330
1F
100
AcDbEntity
  8
0
  6
Continuous
 62
     7
370
    15
100
AcDbLine
 10
310.4814016523
 20
546.9706161721
 30
0.0
 11
310.3914582433
 21
547.084401439
 31
0.0
  0
SPLINE
  5
7A
330
1F
100
AcDbEntity
  8
0
  6
Continuous
 62
     7
370
    15
100
AcDbSpline
210
0.0
220
0.0
230
1.0
 70
     8
 71
     3
 72
    20
 73
    16
 74
     0
 42
0.00000001
 43
0.00000001
 40
0.0
 40
0.0
 40
0.0
 40
0.0
 40
0.0337781842898247
 40
0.1101041171070845
 40
0.1739272789651672
 40
0.2252747007360955
 40
0.2665353570161498
 40
0.3037734465098283
 40
0.3388578121458197
 40
0.3726395203360093
 40
0.4139179590234036
 40
0.6259818905904043
 40
0.8390272038629291
 40
0.9659458002563539
 40
1.0
 40
1.0
 40
1.0
 40
1.0
 10
310.2791332902394
 20
547.2264691098101
 30
0.0
 10
310.2384834526958
 20
547.2826527909298
 30
0.0
 10
310.1059803425557
 20
547.4657903613936
 30
0.0
 10
309.7961021549718
 20
547.6429724041822
 30
0.0
 10
309.4088288529479
 20
547.7659165250792
 30
0.0
 10
309.0389749256397
 20
547.7807209365504
 30
0.0
 10
308.7046600995623
 20
547.7301267904833
 30
0.0
 10
308.4301787147256
 20
547.6290781047901
 30
0.0
 10
308.2026748899996
 20
547.4943554012433
 30
0.0
 10
307.9966454664215
 20
547.3181815740845
 30
0.0
 10
307.6520810129232
 20
546.875701052852
 30
0.0
 10
307.471002129724
 20
546.1890086756043
 30
0.0
 10
307.3212839919162
 20
545.008177886182
 30
0.0
 10
307.2660766687513
 20
544.1035362242031
 30
0.0
 10
307.2595434051143
 20
543.6889474139426
 30
0.0
 10
307.2581612767659
 20
543.6012401087648
 30
0.0
  0
SPLINE
  5
7B
330
1F
100
AcDbEntity
  8
0
  6
Continuous
 62
     7
370
    15
100
AcDbSpline
210
0.0
220
0.0
230
1.0
 70
     8
 71
     3
 72
    19
 73
    15
 74
     0
 42
0.00000001
 43
0.00000001
 40
0.0
 40
0.0
 40
0.0
 40
0.0
 40
0.010273060262085
 40
0.1295978525111032
 40
0.3268133450267111
 40
0.5525085944496814
 40
0.5858525421426714
 40
0.6185999991574667
 40
0.6529081310160607
 40
0.6960087092920332
 40
0.7523131685238759
 40
0.8223134154561319
 40
0.9054607059180457
 40
1.0
 40
1.0
 40
1.0
 40
1.0
 10
307.2553002538166
 20
525.9829117758638
 30
0.0
 10
307.2556234172178
 20
525.9557143508245
 30
0.0
 10
307.2597002241023
 20
525.6126103692442
 30
0.0
 10
307.2995149665221
 20
524.7926278312673
 30
0.0
 10
307.4344814327819
 20
523.570198086313
 30
0.0
 10
307.5249136850227
 20
522.9268104829385
 30
0.0
 10
307.8757612859685
 20
522.3867367956422
 30
0.0
 10
308.0449897786923
 20
522.19888738716
 30
0.0
 10
308.2817126328928
 20
522.022406221796
 30
0.0
 10
308.5953494381407
 20
521.8689467291271
 30
0.0
 10
308.9988173101332
 20
521.7671302899694
 30
0.0
 10
309.4846772792686
 20
521.7903257321458
 30
0.0
 10
310.0144314557222
 20
522.0006374643754
 30
0.0
 10
310.2796646798541
 20
522.3224586396964
 30
0.0
 10
310.4207837285481
 20
522.4936856730349
 30
0.0
  0
LINE
  5
7C
330
1F
100
AcDbEntity
  8
0
  6
Continuous
 62
     7
370
    15
100
AcDbLine
 10
824.5528065862
 20
19.7829111321
 30
0.0
 11
824.5528065862
 21
54.7829075559
 31
0.0
  0
LINE
  5
7D
330
1F
100
AcDbEntity
  8
0
  6
Continuous
 62
     7
370
    15
100
AcDbLine
 10
824.5528065862
 20
544.7829170926
 30
0.0
 11
824.5528065862
 21
579.7829135163
 31
0.0
  0
LINE
  5
7E
330
1F
100
AcDbEntity
  8
0
  6
Continuous
 62
     7
370
    15
100
AcDbLine
 10
821.5528154077
 20
54.7829075559
 30
0.0
 11
821.5528154077
 21
55.7829095824
 31
0.0
  0
LINE
  5
7F
330
1F
100
AcDbEntity
  8
0
  6
Continuous
 62
     7
370
    15
100
AcDbLine
 10
821.5528154077
 20
90.7829060061
 30
0.0
 11
821.5528154077
 21
91.7829080327
 31
0.0
  0
LINE
  5
80
330
1F
100
AcDbEntity
  8
0
  6
Continuous
 62
     7
370
    15
100
AcDbLine
 10
816.5528201761
 20
91.7829080327
 30
0.0
 11
816.5528201761
 21
90.7829060061
 31
0.0
  0
LINE
  5
81
330
1F
100
AcDbEntity
  8
0
  6
Continuous
 62
     7
370
    15
100
AcDbLine
 10
816.5528201761
 20
55.7829095824
 30
0.0
 11
816.5528201761
 21
54.7829075559
 31
0.0
  0
LINE
  5
82
330
1F
100
AcDbEntity
  8
0
  6
Continuous
 62
     7
370
    15
100
AcDbLine
 10
816.5528201761
 20
544.7829170926
 30
0.0
 11
816.5528201761
 21
543.782915066
 31
0.0
  0
LINE
  5
83
330
1F
100
AcDbEntity
  8
0
  6
Continuous
 62
     7
370
    15
100
AcDbLine
 10
816.5528201761
 20
508.7829186423
 30
0.0
 11
816.5528201761
 21
507.7829166158
 31
0.0
  0
LINE
  5
84
330
1F
100
AcDbEntity
  8
0
  6
Continuous
 62
     7
370
    15
100
AcDbLine
 10
821.5528154077
 20
507.7829166158
 30
0.0
 11
821.5528154077
 21
508.7829186423
 31
0.0
  0
LINE
  5
85
330
1F
100
AcDbEntity
  8
0
  6
Continuous
 62
     7
370
    15
100
AcDbLine
 10
821.5528154077
 20
543.782915066
 30
0.0
 11
821.5528154077
 21
544.7829170926
 31
0.0
  0
LINE
  5
86
330
1F
100
AcDbEntity
  8
0
  6
Continuous
 62
     7
370
    15
100
AcDbLine
 10
304.7527992429
 20
58.3257182343
 30
0.0
 11
304.7527992429
 21
58.0329104169
 31
0.0
  0
LINE
  5
87
330
1F
100
AcDbEntity
  8
0
  6
Continuous
 62
     7
370
    15
100
AcDbLine
 10
304.7527992429
 20
71.5329154237
 30
0.0
 11
304.7527992429
 21
71.2401076062
 31
0.0
  0
LINE
  5
88
330
1F
100
AcDbEntity
  8
0
  6
Continuous
 62
     7
370
    15
100
AcDbLine
 10
304.7527992429
 20
528.3257170422
 30
0.0
 11
304.7527992429
 21
528.0329092248
 31
0.0
  0
LINE
  5
89
330
1F
100
AcDbEntity
  8
0
  6
Continuous
 62
     7
370
    15
100
AcDbLine
 10
304.7527992429
 20
541.5329142316
 30
0.0
 11
304.7527992429
 21
541.2401064141
 31
0.0
  0
LINE
  5
8A
330
1F
100
AcDbEntity
  8
0
  6
Continuous
 62
     7
370
    15
100
AcDbLine
 10
328.0528062286
 20
-0.2170995967
 30
0.0
 11
328.0528062286
 21
14.7829159005
 31
0.0
  0
LINE
  5
8B
330
1F
100
AcDbEntity
  8
0
  6
Continuous
 62
     7
370
    15
100
AcDbLine
 10
328.0528062286
 20
14.7829159005
 30
0.0
 11
798.0528050365
 21
14.7829159005
 31
0.0
  0
LINE
  5
8C
330
1F
100
AcDbEntity
  8
0
  6
Continuous
 62
     7
370
    15
100
AcDbLine
 10
798.0528050365
 20
14.7829159005
 30
0.0
 11
798.0528050365
 21
-0.2170995967
 31
0.0
  0
LINE
  5
8D
330
1F
100
AcDbEntity
  8
0
  6
Continuous
 62
     7
370
    15
100
AcDbLine
 10
328.0528062286
 20
-0.2170995967
 30
0.0
 11
798.0528050365
 21
-0.2170995967
 31
0.0
  0
LINE
  5
8E
330
1F
100
AcDbEntity
  8
0
  6
Continuous
 62
     7
370
    15
100
AcDbLine
 10
333.0528014602
 20
579.7829135163
 30
0.0
 11
793.0528098049
 21
579.7829135163
 31
0.0
  0
LINE
  5
8F
330
1F
100
AcDbEntity
  8
0
  6
Continuous
 62
     7
370
    15
100
AcDbLine
 10
333.0528014602
 20
19.7829111321
 30
0.0
 11
333.0528014602
 21
579.7829135163
 31
0.0
  0
LINE
  5
90
330
1F
100
AcDbEntity
  8
0
  6
Continuous
 62
     7
370
    15
100
AcDbLine
 10
793.0528098049
 20
19.7829111321
 30
0.0
 11
793.0528098049
 21
579.7829135163
 31
0.0
  0
LINE
  5
91
330
1F
100
AcDbEntity
  8
0
  6
Continuous
 62
     7
370
    15
100
AcDbLine
 10
328.0528062286
 20
584.7829087479
 30
0.0
 11
328.0528062286
 21
14.7829159005
 31
0.0
  0
LINE
  5
92
330
1F
100
AcDbEntity
  8
0
  6
Continuous
 62
     7
370
    15
100
AcDbLine
 10
798.0528050365
 20
584.7829087479
 30
0.0
 11
328.0528062286
 21
584.7829087479
 31
0.0
  0
LINE
  5
93
330
1F
100
AcDbEntity
  8
0
  6
Continuous
 62
     7
370
    15
100
AcDbLine
 10
798.0528050365
 20
14.7829159005
 30
0.0
 11
798.0528050365
 21
584.7829087479
 31
0.0
  0
LINE
  5
94
330
1F
100
AcDbEntity
  8
0
  6
Continuous
 62
     7
370
    15
100
AcDbLine
 10
793.0528098049
 20
19.7829111321
 30
0.0
 11
333.0528014602
 21
19.7829111321
 31
0.0
  0
LINE
  5
95
330
1F
100
AcDbEntity
  8
0
  6
Continuous
 62
     7
370
    15
100
AcDbLine
 10
313.0528056325
 20
54.7954245313
 30
0.0
 11
313.0528056325
 21
14.7829159005
 31
0.0
  0
LINE
  5
96
330
1F
100
AcDbEntity
  8
0
  6
Continuous
 62
     7
370
    15
100
AcDbLine
 10
313.0528056325
 20
74.7704013093
 30
0.0
 11
313.0528056325
 21
524.7954233392
 31
0.0
  0
LINE
  5
97
330
1F
100
AcDbEntity
  8
0
  6
Continuous
 62
     7
370
    15
100
AcDbLine
 10
313.0528056325
 20
544.7704001172
 30
0.0
 11
313.0528056325
 21
584.7829087479
 31
0.0
  0
LINE
  5
98
330
1F
100
AcDbEntity
  8
0
  6
Continuous
 62
     7
370
    15
100
AcDbLine
 10
313.0528056325
 20
584.7829087479
 30
0.0
 11
328.0528062286
 21
584.7829087479
 31
0.0
  0
LINE
  5
99
330
1F
100
AcDbEntity
  8
0
  6
Continuous
 62
     7
370
    15
100
AcDbLine
 10
313.0528056325
 20
14.7829159005
 30
0.0
 11
328.0528062286
 21
14.7829159005
 31
0.0
  0
LINE
  5
9A
330
1F
100
AcDbEntity
  8
0
  6
Continuous
 62
     7
370
    15
100
AcDbLine
 10
798.0528050365
 20
14.7829159005
 30
0.0
 11
813.0528056325
 21
14.7829159005
 31
0.0
  0
ARC
  5
9B
330
1F
100
AcDbEntity
  8
0
  6
Continuous
 62
     7
370
    15
100
AcDbCircle
 10
798.0528056325
 20
14.7829123242
 30
0.0
 40
15.00000000000001
100
AcDbArc
 50
270.0
 51
0.0
  0
LINE
  5
9C
330
1F
100
AcDbEntity
  8
0
  6
Continuous
 62
     7
370
    15
100
AcDbLine
 10
813.0528056325
 20
14.7829159005
 30
0.0
 11
813.0528056325
 21
584.7829087479
 31
0.0
  0
LINE
  5
9D
330
1F
100
AcDbEntity
  8
0
  6
Continuous
 62
     7
370
    15
100
AcDbLine
 10
813.0528056325
 20
584.7829087479
 30
0.0
 11
798.0528050365
 21
584.7829087479
 31
0.0
  0
ARC
  5
9E
330
1F
100
AcDbEntity
  8
0
  6
Continuous
 62
     7
370
    15
100
AcDbCircle
 10
328.0528056325
 20
14.7829123242
 30
0.0
 40
15.00000000000001
100
AcDbArc
 50
180.0
 51
270.0
  0
LINE
  5
9F
330
1F
100
AcDbEntity
  8
0
  6
Continuous
 62
     7
370
    15
100
AcDbLine
 10
798.0528050365
 20
599.7829242452
 30
0.0
 11
798.0528050365
 21
584.7829087479
 31
0.0
  0
LINE
  5
A0
330
1F
100
AcDbEntity
  8
0
  6
Continuous
 62
     7
370
    15
100
AcDbLine
 10
328.0528062286
 20
584.7829087479
 30
0.0
 11
328.0528062286
 21
599.7829242452
 31
0.0
  0
LINE
  5
A1
330
1F
100
AcDbEntity
  8
0
  6
Continuous
 62
     7
370
    15
100
AcDbLine
 10
798.0528050365
 20
599.7829242452
 30
0.0
 11
328.0528062286
 21
599.7829242452
 31
0.0
  0
ARC
  5
A2
330
1F
100
AcDbEntity
  8
0
  6
Continuous
 62
     7
370
    15
100
AcDbCircle
 10
328.0528056325
 20
584.7829123242
 30
0.0
 40
15.0
100
AcDbArc
 50
90.0
 51
180.0
  0
ARC
  5
A3
330
1F
100
AcDbEntity
  8
0
  6
Continuous
 62
     7
370
    15
100
AcDbCircle
 10
798.0528056325
 20
584.7829123242
 30
0.0
 40
15.00000000000023
100
AcDbArc
 50
0.0
 51
90.0
  0
LINE
  5
A4
330
1F
100
AcDbEntity
  8
0
  6
Continuous
 62
     7
370
    15
100
AcDbLine
 10
311.8528151216
 20
75.8174015983
 30
0.0
 11
313.0528056325
 21
75.8174015983
 31
0.0
  0
LINE
  5
A5
330
1F
100
AcDbEntity
  8
0
  6
Continuous
 62
     7
370
    15
100
AcDbLine
 10
311.8528151216
 20
53.7484242423
 30
0.0
 11
313.0528056325
 21
53.7484242423
 31
0.0
  0
LINE
  5
A6
330
1F
100
AcDbEntity
  8
0
  6
Continuous
 62
     7
370
    15
100
AcDbLine
 10
311.8528151216
 20
53.7484242423
 30
0.0
 11
311.8528151216
 21
75.8174015983
 31
0.0
  0
LINE
  5
A7
330
1F
100
AcDbEntity
  8
0
  6
Continuous
 62
     7
370
    15
100
AcDbLine
 10
313.0528056325
 20
74.7704013093
 30
0.0
 11
313.0528056325
 21
54.7954245313
 31
0.0
  0
LINE
  5
A8
330
1F
100
AcDbEntity
  8
0
  6
Continuous
 62
     7
370
    15
100
AcDbLine
 10
311.8528151216
 20
545.8174004062
 30
0.0
 11
313.0528056325
 21
545.8174004062
 31
0.0
  0
LINE
  5
A9
330
1F
100
AcDbEntity
  8
0
  6
Continuous
 62
     7
370
    15
100
AcDbLine
 10
313.0528056325
 20
544.7704001172
 30
0.0
 11
313.0528056325
 21
524.7954233392
 31
0.0
  0
LINE
  5
AA
330
1F
100
AcDbEntity
  8
0
  6
Continuous
 62
     7
370
    15
100
AcDbLine
 10
311.8528151216
 20
523.7484230502
 30
0.0
 11
313.0528056325
 21
523.7484230502
 31
0.0
  0
LINE
  5
AB
330
1F
100
AcDbEntity
  8
0
  6
Continuous
 62
     7
370
    15
100
AcDbLine
 10
311.8528151216
 20
523.7484230502
 30
0.0
 11
311.8528151216
 21
545.8174004062
 31
0.0
  0
LINE
  5
AC
330
1F
100
AcDbEntity
  8
0
  6
Continuous
 62
     7
370
    15
100
AcDbLine
 10
311.7527985277
 20
56.782911609
 30
0.0
 11
311.7527985277
 21
62.7829088672
 31
0.0
  0
LINE
  5
AD
330
1F
100
AcDbEntity
  8
0
  6
Continuous
 62
     7
370
    15
100
AcDbLine
 10
311.7527985277
 20
69.7829081519
 30
0.0
 11
311.7527985277
 21
72.7829142316
 31
0.0
  0
LINE
  5
AE
330
1F
100
AcDbEntity
  8
0
  6
Continuous
 62
     7
370
    15
100
AcDbLine
 10
311.7527985277
 20
66.7829169734
 30
0.0
 11
311.7527985277
 21
69.7829081519
 31
0.0
  0
LINE
  5
AF
330
1F
100
AcDbEntity
  8
0
  6
Continuous
 62
     7
370
    15
100
AcDbLine
 10
311.7527985277
 20
526.7829104169
 30
0.0
 11
311.7527985277
 21
532.7829076751
 31
0.0
  0
LINE
  5
B0
330
1F
100
AcDbEntity
  8
0
  6
Continuous
 62
     7
370
    15
100
AcDbLine
 10
311.7527985277
 20
539.7829069598
 30
0.0
 11
311.7527985277
 21
542.7829130395
 31
0.0
  0
LINE
  5
B1
330
1F
100
AcDbEntity
  8
0
  6
Continuous
 62
     7
370
    15
100
AcDbLine
 10
311.7527985277
 20
536.7829157813
 30
0.0
 11
311.7527985277
 21
539.7829069598
 31
0.0
  0
LINE
  5
B2
330
1F
100
AcDbEntity
  8
0
  6
Continuous
 62
     7
370
    15
100
AcDbLine
 10
311.8528151216
 20
75.8174015983
 30
0.0
 11
311.8528151216
 21
76.2829138739
 31
0.0
  0
LINE
  5
B3
330
1F
100
AcDbEntity
  8
0
  6
Continuous
 62
     7
370
    15
100
AcDbLine
 10
311.8528151216
 20
545.8174004062
 30
0.0
 11
311.8528151216
 21
546.2829126819
 31
0.0
  0
LINE
  5
B4
330
1F
100
AcDbEntity
  8
0
  6
Continuous
 62
     7
370
    15
100
AcDbLine
 10
311.8528151216
 20
53.2829119666
 30
0.0
 11
311.8528151216
 21
53.7484242423
 31
0.0
  0
LINE
  5
B5
330
1F
100
AcDbEntity
  8
0
  6
Continuous
 62
     7
370
    15
100
AcDbLine
 10
311.8528151216
 20
523.2829107745
 30
0.0
 11
311.8528151216
 21
523.7484230502
 31
0.0
  0
LINE
  5
B6
330
1F
100
AcDbEntity
  8
0
  6
Continuous
 62
     7
370
    15
100
AcDbLine
 10
813.9541768732
 20
90.7829060061
 30
0.0
 11
813.9541768732
 21
55.7829095824
 31
0.0
  0
LINE
  5
B7
330
1F
100
AcDbEntity
  8
0
  6
Continuous
 62
     7
370
    15
100
AcDbLine
 10
813.9541768732
 20
90.7829060061
 30
0.0
 11
824.5528065862
 21
90.7829060061
 31
0.0
  0
LINE
  5
B8
330
1F
100
AcDbEntity
  8
0
  6
Continuous
 62
     7
370
    15
100
AcDbLine
 10
813.9541768732
 20
55.7829095824
 30
0.0
 11
824.5528065862
 21
55.7829095824
 31
0.0
  0
LINE
  5
B9
330
1F
100
AcDbEntity
  8
0
  6
Continuous
 62
     7
370
    15
100
AcDbLine
 10
813.9541768732
 20
508.7829186423
 30
0.0
 11
824.5528065862
 21
508.7829186423
 31
0.0
  0
LINE
  5
BA
330
1F
100
AcDbEntity
  8
0
  6
Continuous
 62
     7
370
    15
100
AcDbLine
 10
813.9541768732
 20
543.782915066
 30
0.0
 11
813.9541768732
 21
508.7829186423
 31
0.0
  0
LINE
  5
BB
330
1F
100
AcDbEntity
  8
0
  6
Continuous
 62
     7
370
    15
100
AcDbLine
 10
813.9541768732
 20
543.782915066
 30
0.0
 11
824.5528065862
 21
543.782915066
 31
0.0
  0
LINE
  5
BC
330
1F
100
AcDbEntity
  8
0
  6
Continuous
 62
     7
370
    15
100
AcDbLine
 10
813.4906613531
 20
90.7829060061
 30
0.0
 11
813.4906613531
 21
55.7829095824
 31
0.0
  0
LINE
  5
BD
330
1F
100
AcDbEntity
  8
0
  6
Continuous
 62
     7
370
    15
100
AcDbLine
 10
813.4906613531
 20
90.7829060061
 30
0.0
 11
813.9541768732
 21
90.7829060061
 31
0.0
  0
LINE
  5
BE
330
1F
100
AcDbEntity
  8
0
  6
Continuous
 62
     7
370
    15
100
AcDbLine
 10
813.4906613531
 20
55.7829095824
 30
0.0
 11
813.9541768732
 21
55.7829095824
 31
0.0
  0
LINE
  5
BF
330
1F
100
AcDbEntity
  8
0
  6
Continuous
 62
     7
370
    15
100
AcDbLine
 10
813.4906613531
 20
543.782915066
 30
0.0
 11
813.4906613531
 21
508.7829186423
 31
0.0
  0
LINE
  5
C0
330
1F
100
AcDbEntity
  8
0
  6
Continuous
 62
     7
370
    15
100
AcDbLine
 10
813.4906613531
 20
543.782915066
 30
0.0
 11
813.9541768732
 21
543.782915066
 31
0.0
  0
LINE
  5
C1
330
1F
100
AcDbEntity
  8
0
  6
Continuous
 62
     7
370
    15
100
AcDbLine
 10
813.4906613531
 20
508.7829186423
 30
0.0
 11
813.9541768732
 21
508.7829186423
 31
0.0
  0
LINE
  5
C2
330
1F
100
AcDbEntity
  8
0
  6
Continuous
 62
     7
370
    15
100
AcDbLine
 10
813.0528056325
 20
90.7829060061
 30
0.0
 11
813.4906613531
 21
90.7829060061
 31
0.0
  0
LINE
  5
C3
330
1F
100
AcDbEntity
  8
0
  6
Continuous
 62
     7
370
    15
100
AcDbLine
 10
813.0528056325
 20
55.7829095824
 30
0.0
 11
813.4906613531
 21
55.7829095824
 31
0.0
  0
LINE
  5
C4
330
1F
100
AcDbEntity
  8
0
  6
Continuous
 62
     7
370
    15
100
AcDbLine
 10
813.0528056325
 20
543.782915066
 30
0.0
 11
813.4906613531
 21
543.782915066
 31
0.0
  0
LINE
  5
C5
330
1F
100
AcDbEntity
  8
0
  6
Continuous
 62
     7
370
    15
100
AcDbLine
 10
813.0528056325
 20
508.7829186423
 30
0.0
 11
813.4906613531
 21
508.7829186423
 31
0.0
  0
LINE
  5
C6
330
1F
100
AcDbEntity
  8
0
  6
Continuous
 62
     7
370
    15
100
AcDbLine
 10
304.783316821
 20
70.0829132302
 30
0.0
 11
304.0528022947
 21
70.0829132302
 31
0.0
  0
LINE
  5
C7
330
1F
100
AcDbEntity
  8
0
  6
Continuous
 62
     7
370
    15
100
AcDbLine
 10
304.783316821
 20
70.0829132302
 30
0.0
 11
304.783316821
 21
59.4829126103
 31
0.0
  0
LINE
  5
C8
330
1F
100
AcDbEntity
  8
0
  6
Continuous
 62
     7
370
    15
100
AcDbLine
 10
304.0528022947
 20
59.4829126103
 30
0.0
 11
304.783316821
 21
59.4829126103
 31
0.0
  0
LINE
  5
C9
330
1F
100
AcDbEntity
  8
0
  6
Continuous
 62
     7
370
    15
100
AcDbLine
 10
304.0528022947
 20
70.0829132302
 30
0.0
 11
304.0528022947
 21
59.4829126103
 31
0.0
  0
ARC
  5
CA
330
1F
100
AcDbEntity
  8
0
  6
Continuous
 62
     7
370
    15
100
AcDbCircle
 10
305.8754823708
 20
70.1940893618
 30
0.0
 40
1.097809509998412
100
AcDbArc
 50
97.3335515103
 51
185.8123579011
  0
LINE
  5
CB
330
1F
100
AcDbEntity
  8
0
  6
Continuous
 62
     7
370
    15
100
AcDbLine
 10
305.7353520097
 20
71.2829186423
 30
0.0
 11
309.278788537
 21
71.2829186423
 31
0.0
  0
LINE
  5
CC
330
1F
100
AcDbEntity
  8
0
  6
Continuous
 62
     7
370
    15
100
AcDbLine
 10
309.278788537
 20
71.2829186423
 30
0.0
 11
309.278788537
 21
58.2829071982
 31
0.0
  0
LINE
  5
CD
330
1F
100
AcDbEntity
  8
0
  6
Continuous
 62
     7
370
    15
100
AcDbLine
 10
309.278788537
 20
58.2829071982
 30
0.0
 11
305.7353520097
 21
58.2829071982
 31
0.0
  0
ARC
  5
CE
330
1F
100
AcDbEntity
  8
0
  6
Continuous
 62
     7
370
    15
100
AcDbCircle
 10
305.8754823708
 20
59.3717364788
 30
0.0
 40
1.097809509998404
100
AcDbArc
 50
174.1876420989
 51
262.6664484898
  0
LINE
  5
CF
330
1F
100
AcDbEntity
  8
0
  6
Continuous
 62
     7
370
    15
100
AcDbLine
 10
305.0048374834
 20
71.2829186423
 30
0.0
 11
305.7353520097
 21
71.2829186423
 31
0.0
  0
ARC
  5
D0
330
1F
100
AcDbEntity
  8
0
  6
Continuous
 62
     7
370
    15
100
AcDbCircle
 10
305.1449678444
 20
70.1940893618
 30
0.0
 40
1.097809509998397
100
AcDbArc
 50
97.3335515102
 51
185.8123579011
  0
LINE
  5
D1
330
1F
100
AcDbEntity
  8
0
  6
Continuous
 62
     7
370
    15
100
AcDbLine
 10
305.7353520097
 20
58.2829071982
 30
0.0
 11
305.0048374834
 21
58.2829071982
 31
0.0
  0
ARC
  5
D2
330
1F
100
AcDbEntity
  8
0
  6
Continuous
 62
     7
370
    15
100
AcDbCircle
 10
305.1449678444
 20
59.3717364788
 30
0.0
 40
1.097809509998412
100
AcDbArc
 50
174.1876420989
 51
262.6664484898
  0
ARC
  5
D3
330
1F
100
AcDbEntity
  8
0
  6
Continuous
 62
     7
370
    15
100
AcDbCircle
 10
305.8754823708
 20
540.1940881697
 30
0.0
 40
1.097809509998475
100
AcDbArc
 50
97.3335515102
 51
185.8123579011
  0
LINE
  5
D4
330
1F
100
AcDbEntity
  8
0
  6
Continuous
 62
     7
370
    15
100
AcDbLine
 10
305.7353520097
 20
541.2829174502
 30
0.0
 11
309.278788537
 21
541.2829174502
 31
0.0
  0
LINE
  5
D5
330
1F
100
AcDbEntity
  8
0
  6
Continuous
 62
     7
370
    15
100
AcDbLine
 10
309.278788537
 20
541.2829174502
 30
0.0
 11
309.278788537
 21
528.2829060061
 31
0.0
  0
LINE
  5
D6
330
1F
100
AcDbEntity
  8
0
  6
Continuous
 62
     7
370
    15
100
AcDbLine
 10
309.278788537
 20
528.2829060061
 30
0.0
 11
305.7353520097
 21
528.2829060061
 31
0.0
  0
ARC
  5
D7
330
1F
100
AcDbEntity
  8
0
  6
Continuous
 62
     7
370
    15
100
AcDbCircle
 10
305.8754823708
 20
529.3717352867
 30
0.0
 40
1.097809509998581
100
AcDbArc
 50
174.1876420989
 51
262.6664484898
  0
LINE
  5
D8
330
1F
100
AcDbEntity
  8
0
  6
Continuous
 62
     7
370
    15
100
AcDbLine
 10
304.783316821
 20
540.0829120381
 30
0.0
 11
304.783316821
 21
529.4829114182
 31
0.0
  0
LINE
  5
D9
330
1F
100
AcDbEntity
  8
0
  6
Continuous
 62
     7
370
    15
100
AcDbLine
 10
304.783316821
 20
540.0829120381
 30
0.0
 11
304.0528022947
 21
540.0829120381
 31
0.0
  0
LINE
  5
DA
330
1F
100
AcDbEntity
  8
0
  6
Continuous
 62
     7
370
    15
100
AcDbLine
 10
304.0528022947
 20
529.4829114182
 30
0.0
 11
304.783316821
 21
529.4829114182
 31
0.0
  0
LINE
  5
DB
330
1F
100
AcDbEntity
  8
0
  6
Continuous
 62
     7
370
    15
100
AcDbLine
 10
304.0528022947
 20
540.0829120381
 30
0.0
 11
304.0528022947
 21
529.4829114182
 31
0.0
  0
LINE
  5
DC
330
1F
100
AcDbEntity
  8
0
  6
Continuous
 62
     7
370
    15
100
AcDbLine
 10
305.0048374834
 20
541.2829174502
 30
0.0
 11
305.7353520097
 21
541.2829174502
 31
0.0
  0
ARC
  5
DD
330
1F
100
AcDbEntity
  8
0
  6
Continuous
 62
     7
370
    15
100
AcDbCircle
 10
305.1449678444
 20
540.1940881697
 30
0.0
 40
1.097809509998468
100
AcDbArc
 50
97.3335515102
 51
185.8123579011
  0
LINE
  5
DE
330
1F
100
AcDbEntity
  8
0
  6
Continuous
 62
     7
370
    15
100
AcDbLine
 10
305.7353520097
 20
528.2829060061
 30
0.0
 11
305.0048374834
 21
528.2829060061
 31
0.0
  0
ARC
  5
DF
330
1F
100
AcDbEntity
  8
0
  6
Continuous
 62
     7
370
    15
100
AcDbCircle
 10
305.1449678444
 20
529.3717352867
 30
0.0
 40
1.097809509998588
100
AcDbArc
 50
174.1876420989
 51
262.6664484898
  0
LINE
  5
E0
330
1F
100
AcDbEntity
  8
0
  6
Continuous
 62
     7
370
    15
100
AcDbLine
 10
309.360327691
 20
71.2829186423
 30
0.0
 11
309.278788537
 21
71.2829186423
 31
0.0
  0
LINE
  5
E1
330
1F
100
AcDbEntity
  8
0
  6
Continuous
 62
     7
370
    15
100
AcDbLine
 10
309.278788537
 20
58.2829071982
 30
0.0
 11
309.4123327436
 21
58.2829071982
 31
0.0
  0
LINE
  5
E2
330
1F
100
AcDbEntity
  8
0
  6
Continuous
 62
     7
370
    15
100
AcDbLine
 10
309.360327691
 20
541.2829174502
 30
0.0
 11
309.278788537
 21
541.2829174502
 31
0.0
  0
LINE
  5
E3
330
1F
100
AcDbEntity
  8
0
  6
Continuous
 62
     7
370
    15
100
AcDbLine
 10
309.278788537
 20
528.2829060061
 30
0.0
 11
309.4123327436
 21
528.2829060061
 31
0.0
  0
LINE
  5
E4
330
1F
100
AcDbEntity
  8
0
  6
Continuous
 62
     7
370
    15
100
AcDbLine
 10
304.0528022947
 20
60.0829078658
 30
0.0
 11
303.9479875268
 21
60.0829078658
 31
0.0
  0
LINE
  5
E5
330
1F
100
AcDbEntity
  8
0
  6
Continuous
 62
     7
370
    15
100
AcDbLine
 10
304.0528022947
 20
68.6829193337
 30
0.0
 11
303.9479875268
 21
68.6829193337
 31
0.0
  0
LINE
  5
E6
330
1F
100
AcDbEntity
  8
0
  6
Continuous
 62
     7
370
    15
100
AcDbLine
 10
309.4186806383
 20
57.58291025
 30
0.0
 11
304.5527958574
 21
57.58291025
 31
0.0
  0
LINE
  5
E7
330
1F
100
AcDbEntity
  8
0
  6
Continuous
 62
     7
370
    15
100
AcDbLine
 10
309.4269656839
 20
56.782911609
 30
0.0
 11
304.5534217061
 21
56.782911609
 31
0.0
  0
LINE
  5
E8
330
1F
100
AcDbEntity
  8
0
  6
Continuous
 62
     7
370
    15
100
AcDbLine
 10
309.3812787237
 20
72.7829142316
 30
0.0
 11
304.5534217061
 21
72.7829142316
 31
0.0
  0
LINE
  5
E9
330
1F
100
AcDbEntity
  8
0
  6
Continuous
 62
     7
370
    15
100
AcDbLine
 10
309.4209456148
 20
71.9829155906
 30
0.0
 11
304.5527958574
 21
71.9829155906
 31
0.0
  0
LINE
  5
EA
330
1F
100
AcDbEntity
  8
0
  6
Continuous
 62
     7
370
    15
100
AcDbLine
 10
308.1527971925
 20
73.0829193099
 30
0.0
 11
309.3161606492
 21
73.0829193099
 31
0.0
  0
LINE
  5
EB
330
1F
100
AcDbEntity
  8
0
  6
Continuous
 62
     7
370
    15
100
AcDbLine
 10
309.4793283643
 20
73.0829193099
 30
0.0
 11
309.5416450204
 21
73.0829193099
 31
0.0
  0
LINE
  5
EC
330
1F
100
AcDbEntity
  8
0
  6
Continuous
 62
     7
370
    15
100
AcDbLine
 10
305.9528195562
 20
73.0829193099
 30
0.0
 11
308.1527971925
 21
73.0829193099
 31
0.0
  0
LINE
  5
ED
330
1F
100
AcDbEntity
  8
0
  6
Continuous
 62
     7
370
    15
100
AcDbLine
 10
308.1527971925
 20
56.382919739
 30
0.0
 11
309.2561983766
 21
56.382919739
 31
0.0
  0
LINE
  5
EE
330
1F
100
AcDbEntity
  8
0
  6
Continuous
 62
     7
370
    15
100
AcDbLine
 10
306.0528063478
 20
56.382919739
 30
0.0
 11
308.1527971925
 21
56.382919739
 31
0.0
  0
LINE
  5
EF
330
1F
100
AcDbEntity
  8
0
  6
Continuous
 62
     7
370
    15
100
AcDbLine
 10
308.1527971925
 20
55.982912968
 30
0.0
 11
309.0163194837
 21
55.982912968
 31
0.0
  0
LINE
  5
F0
330
1F
100
AcDbEntity
  8
0
  6
Continuous
 62
     7
370
    15
100
AcDbLine
 10
306.0528063478
 20
55.982912968
 30
0.0
 11
308.1527971925
 21
55.982912968
 31
0.0
  0
ARC
  5
F1
330
1F
100
AcDbEntity
  8
0
  6
Continuous
 62
     7
370
    15
100
AcDbCircle
 10
305.0187513233
 20
71.9850742313
 30
0.0
 40
0.8029034246592581
100
AcDbArc
 50
125.4743278821
 51
180.1540423808
  0
ARC
  5
F2
330
1F
100
AcDbEntity
  8
0
  6
Continuous
 62
     7
370
    15
100
AcDbCircle
 10
305.0187513233
 20
57.5807516092
 30
0.0
 40
0.8029034246593127
100
AcDbArc
 50
179.8459576192
 51
234.5256721179
  0
LINE
  5
F3
330
1F
100
AcDbEntity
  8
0
  6
Continuous
 62
     7
370
    15
100
AcDbLine
 10
305.0037049951
 20
58.0329104169
 30
0.0
 11
305.0037049951
 21
57.58291025
 31
0.0
  0
LINE
  5
F4
330
1F
100
AcDbEntity
  8
0
  6
Continuous
 62
     7
370
    15
100
AcDbLine
 10
305.0037049951
 20
71.9829155906
 30
0.0
 11
305.0037049951
 21
71.5329154237
 31
0.0
  0
LINE
  5
F5
330
1F
100
AcDbEntity
  8
0
  6
Continuous
 62
     7
370
    15
100
AcDbLine
 10
304.2158508005
 20
70.7544638617
 30
0.0
 11
304.2158508005
 21
71.9829155906
 31
0.0
  0
LINE
  5
F6
330
1F
100
AcDbEntity
  8
0
  6
Continuous
 62
     7
370
    15
100
AcDbLine
 10
304.2158508005
 20
57.58291025
 30
0.0
 11
304.2158508005
 21
58.8113619788
 31
0.0
  0
SPLINE
  5
F7
330
1F
100
AcDbEntity
  8
0
  6
Continuous
 62
     7
370
    15
100
AcDbSpline
210
0.0
220
0.0
230
1.0
 70
    24
 71
     3
 72
    12
 73
     8
 74
     0
 42
0.00000001
 43
0.00000001
 40
0.0
 40
0.0
 40
0.0
 40
0.0
 40
0.2185041607748386
 40
0.4370097499429002
 40
0.655519261637946
 40
0.8740302225829159
 40
1.0
 40
1.0
 40
1.0
 40
1.0
 10
311.2121545972309
 20
71.47530753449266
 30
0.0
 10
311.0154341769542
 20
71.47530753449269
 30
0.0
 10
310.6219920504109
 20
71.47530753449269
 30
0.0
 10
310.0612446092322
 20
71.47530753449257
 30
0.0
 10
309.6435490904596
 20
71.47530753449257
 30
0.0
 10
309.4169861626175
 20
71.47530753449274
 30
0.0
 10
309.4345281983513
 20
71.47530753449263
 30
0.0
 10
309.4409429730854
 20
71.47530753449266
 30
0.0
  0
SPLINE
  5
F8
330
1F
100
AcDbEntity
  8
0
  6
Continuous
 62
     7
370
    15
100
AcDbSpline
210
0.0
220
0.0
230
1.0
 70
    24
 71
     3
 72
     9
 73
     5
 74
     0
 42
0.00000001
 43
0.00000001
 40
0.0
 40
0.0
 40
0.0
 40
0.0
 40
0.1970399618046988
 40
1.0
 40
1.0
 40
1.0
 40
1.0
 10
311.8528151215992
 20
71.47530753449266
 30
0.0
 10
311.8201582300309
 20
71.47530753449266
 30
0.0
 10
311.6544208269714
 20
71.47530753449266
 30
0.0
 10
311.4091207535526
 20
71.47530753449266
 30
0.0
 10
311.2121545972309
 20
71.47530753449266
 30
0.0
  0
SPLINE
  5
F9
330
1F
100
AcDbEntity
  8
0
  6
Continuous
 62
     7
370
    15
100
AcDbSpline
210
0.0
220
0.0
230
1.0
 70
     8
 71
     3
 72
    13
 73
     9
 74
     0
 42
0.00000001
 43
0.00000001
 40
0.0
 40
0.0
 40
0.0
 40
0.0
 40
0.1877403276500716
 40
0.375475335694488
 40
0.5632142885515116
 40
0.7509490809462165
 40
0.93868730514789
 40
0.9999999999999999
 40
0.9999999999999999
 40
0.9999999999999999
 40
0.9999999999999999
 10
310.9188699426136
 20
75.09015042618577
 30
0.0
 10
310.7221729418429
 20
75.0874488206115
 30
0.0
 10
310.3287845136936
 20
75.08204568601253
 30
0.0
 10
309.7957707975178
 20
74.79150322515615
 30
0.0
 10
309.4052488216583
 20
74.33660735945094
 30
0.0
 10
309.232299998346
 20
73.77492732052221
 30
0.0
 10
309.2355843250492
 20
73.30174089600267
 30
0.0
 10
309.3628995797068
 20
73.08030302422245
 30
0.0
 10
309.3942427339039
 20
73.0257882578737
 30
0.0
  0
SPLINE
  5
FA
330
1F
100
AcDbEntity
  8
0
  6
Continuous
 62
     7
370
    15
100
AcDbSpline
210
0.0
220
0.0
230
1.0
 70
     8
 71
     3
 72
    10
 73
     6
 74
     0
 42
0.00000001
 43
0.00000001
 40
0.0
 40
0.0
 40
0.0
 40
0.0
 40
0.2093333647866524
 40
0.6046781482275657
 40
0.9999999999999999
 40
0.9999999999999999
 40
0.9999999999999999
 40
0.9999999999999999
 10
312.0560371579609
 20
74.284027407921
 30
0.0
 10
312.0143404473362
 20
74.37709119681887
 30
0.0
 10
311.8938957690909
 20
74.6459142752382
 30
0.0
 10
311.4871654959124
 20
74.9625458803867
 30
0.0
 10
311.1082981309555
 20
75.04761640001823
 30
0.0
 10
310.9188699426136
 20
75.09015042618577
 30
0.0
  0
SPLINE
  5
FB
330
1F
100
AcDbEntity
  8
0
  6
Continuous
 62
     7
370
    15
100
AcDbSpline
210
0.0
220
0.0
230
1.0
 70
     8
 71
     3
 72
    13
 73
     9
 74
     0
 42
0.00000001
 43
0.00000001
 40
0.0
 40
0.0
 40
0.0
 40
0.0
 40
0.1768655441741053
 40
0.3537268808725106
 40
0.5305919338987228
 40
0.7074573141850448
 40
0.8843216807598565
 40
1.0
 40
1.0
 40
1.0
 40
1.0
 10
310.9016442002736
 20
54.44696087673967
 30
0.0
 10
310.7049714478928
 20
54.44964686045986
 30
0.0
 10
310.311630621803
 20
54.45501876400308
 30
0.0
 10
309.7782517025578
 20
54.74570766461917
 30
0.0
 10
309.3891207349465
 20
55.20006711206729
 30
0.0
 10
309.210962597107
 20
55.76376629196003
 30
0.0
 10
309.2319285806033
 20
56.296916578013
 30
0.0
 10
309.398009721348
 20
56.57018789141588
 30
0.0
 10
309.4636821450673
 20
56.67824585274522
 30
0.0
  0
SPLINE
  5
FC
330
1F
100
AcDbEntity
  8
0
  6
Continuous
 62
     7
370
    15
100
AcDbSpline
210
0.0
220
0.0
230
1.0
 70
     8
 71
     3
 72
    10
 73
     6
 74
     0
 42
0.00000001
 43
0.00000001
 40
0.0
 40
0.0
 40
0.0
 40
0.0
 40
0.0588225777550384
 40
0.5294258028009099
 40
1.0
 40
1.0
 40
1.0
 40
1.0
 10
311.9317614736042
 20
55.04686672524278
 30
0.0
 10
311.9211269783713
 20
55.02538573405116
 30
0.0
 10
311.8254124348926
 20
54.83204855909854
 30
0.0
 10
311.4645173889085
 20
54.57789040840136
 30
0.0
 10
311.0892647386308
 20
54.49060315658746
 30
0.0
 10
310.9016442002736
 20
54.44696087673967
 30
0.0
  0
SPLINE
  5
FD
330
1F
100
AcDbEntity
  8
0
  6
Continuous
 62
     7
370
    15
100
AcDbSpline
210
0.0
220
0.0
230
1.0
 70
    24
 71
     3
 72
    12
 73
     8
 74
     0
 42
0.00000001
 43
0.00000001
 40
0.0
 40
0.0
 40
0.0
 40
0.0
 40
0.2193522884941657
 40
0.4387060109258876
 40
0.6580636711099509
 40
0.877422786169227
 40
1.0
 40
1.0
 40
1.0
 40
1.0
 10
311.2121545972309
 20
57.9166813595659
 30
0.0
 10
311.0154388563909
 20
57.91668135956588
 30
0.0
 10
310.6220060887517
 20
57.91668135956588
 30
0.0
 10
310.0611884550204
 20
57.9166813595659
 30
0.0
 10
309.6437596735196
 20
57.91668135956588
 30
0.0
 10
309.4179025637213
 20
57.91668135956593
 30
0.0
 10
309.434906877398
 20
57.9166813595659
 30
0.0
 10
309.4410025777302
 20
57.9166813595659
 30
0.0
  0
SPLINE
  5
FE
330
1F
100
AcDbEntity
  8
0
  6
Continuous
 62
     7
370
    15
100
AcDbSpline
210
0.0
220
0.0
230
1.0
 70
    24
 71
     3
 72
     9
 73
     5
 74
     0
 42
0.00000001
 43
0.00000001
 40
0.0
 40
0.0
 40
0.0
 40
0.0
 40
0.1970399618046988
 40
1.0
 40
1.0
 40
1.0
 40
1.0
 10
311.8528151215992
 20
57.9166813595659
 30
0.0
 10
311.8201582300309
 20
57.91668135956596
 30
0.0
 10
311.6544208269714
 20
57.91668135956585
 30
0.0
 10
311.4091207535526
 20
57.91668135956585
 30
0.0
 10
311.2121545972309
 20
57.9166813595659
 30
0.0
  0
SPLINE
  5
FF
330
1F
100
AcDbEntity
  8
0
  6
Continuous
 62
     7
370
    15
100
AcDbSpline
210
0.0
220
0.0
230
1.0
 70
     8
 71
     3
 72
    13
 73
     9
 74
     0
 42
0.00000001
 43
0.00000001
 40
0.0
 40
0.0
 40
0.0
 40
0.0
 40
0.1768576985124456
 40
0.3537276817053297
 40
0.5305875817102148
 40
0.7074521439525769
 40
0.8843171741316485
 40
0.9999999999999999
 40
0.9999999999999999
 40
0.9999999999999999
 40
0.9999999999999999
 10
309.3497776689015
 20
77.70657081440751
 30
0.0
 10
309.1531168796699
 20
77.7038748462029
 30
0.0
 10
308.7597816409878
 20
77.6984827225296
 30
0.0
 10
308.2263854416303
 20
77.40783049780985
 30
0.0
 10
307.8372997848495
 20
76.953434564381
 30
0.0
 10
307.6590856839941
 20
76.38977071150154
 30
0.0
 10
307.6800548157287
 20
75.85660488988543
 30
0.0
 10
307.8461614955309
 20
75.58334255091073
 30
0.0
 10
307.9118454160175
 20
75.47528583840193
 30
0.0
  0
SPLINE
  5
100
330
1F
100
AcDbEntity
  8
0
  6
Continuous
 62
     7
370
    15
100
AcDbSpline
210
0.0
220
0.0
230
1.0
 70
     8
 71
     3
 72
    10
 73
     6
 74
     0
 42
0.00000001
 43
0.00000001
 40
0.0
 40
0.0
 40
0.0
 40
0.0
 40
0.1474521529467936
 40
0.5737191691814364
 40
0.9999999999999999
 40
0.9999999999999999
 40
0.9999999999999999
 40
0.9999999999999999
 10
310.4383670987568
 20
76.9940419896013
 30
0.0
 10
310.4103101154101
 20
77.0543339568501
 30
0.0
 10
310.3011436579953
 20
77.28892298567757
 30
0.0
 10
309.9160787668113
 20
77.57773973625942
 30
0.0
 10
309.5385467406994
 20
77.66362665779097
 30
0.0
 10
309.3497776689015
 20
77.70657081440751
 30
0.0
  0
SPLINE
  5
101
330
1F
100
AcDbEntity
  8
0
  6
Continuous
 62
     7
370
    15
100
AcDbSpline
210
0.0
220
0.0
230
1.0
 70
     8
 71
     3
 72
    13
 73
     9
 74
     0
 42
0.00000001
 43
0.00000001
 40
0.0
 40
0.0
 40
0.0
 40
0.0
 40
0.1768646696685564
 40
0.353730606397486
 40
0.5305885438817114
 40
0.7074553902012259
 40
0.8843184578027109
 40
1.0
 40
1.0
 40
1.0
 40
1.0
 10
309.3325817288838
 20
51.83054048851793
 30
0.0
 10
309.1359113702798
 20
51.83323626569819
 30
0.0
 10
308.742569244123
 20
51.83862783937129
 30
0.0
 10
308.2091560655077
 20
52.1292631995898
 30
0.0
 10
307.8200705140477
 20
52.5836663384599
 30
0.0
 10
307.6418616961875
 20
53.14733618261502
 30
0.0
 10
307.6628287776352
 20
53.68050634996371
 30
0.0
 10
307.8289356693815
 20
53.95376873414038
 30
0.0
 10
307.8946196736775
 20
54.06182546452348
 30
0.0
  0
SPLINE
  5
102
330
1F
100
AcDbEntity
  8
0
  6
Continuous
 62
     7
370
    15
100
AcDbSpline
210
0.0
220
0.0
230
1.0
 70
     8
 71
     3
 72
    10
 73
     6
 74
     0
 42
0.00000001
 43
0.00000001
 40
0.0
 40
0.0
 40
0.0
 40
0.0
 40
0.1474642454108359
 40
0.5737320827069983
 40
1.0
 40
1.0
 40
1.0
 40
1.0
 10
310.4211413564167
 20
52.54306931332414
 30
0.0
 10
310.3930851031636
 20
52.48277181766112
 30
0.0
 10
310.2839279812658
 20
52.24817523682646
 30
0.0
 10
309.898853417792
 20
51.95938196901967
 30
0.0
 10
309.5213389703278
 20
51.87348765137181
 30
0.0
 10
309.3325817288838
 20
51.83054048851793
 30
0.0
  0
LINE
  5
103
330
1F
100
AcDbEntity
  8
0
  6
Continuous
 62
     7
370
    15
100
AcDbLine
 10
304.0528022947
 20
530.0829066737
 30
0.0
 11
303.9479875268
 21
530.0829066737
 31
0.0
  0
LINE
  5
104
330
1F
100
AcDbEntity
  8
0
  6
Continuous
 62
     7
370
    15
100
AcDbLine
 10
304.0528022947
 20
538.6829181416
 30
0.0
 11
303.9479875268
 21
538.6829181416
 31
0.0
  0
LINE
  5
105
330
1F
100
AcDbEntity
  8
0
  6
Continuous
 62
     7
370
    15
100
AcDbLine
 10
309.4209456148
 20
541.9829143985
 30
0.0
 11
304.5527958574
 21
541.9829143985
 31
0.0
  0
LINE
  5
106
330
1F
100
AcDbEntity
  8
0
  6
Continuous
 62
     7
370
    15
100
AcDbLine
 10
309.3812787237
 20
542.7829130395
 30
0.0
 11
304.5534217061
 21
542.7829130395
 31
0.0
  0
LINE
  5
107
330
1F
100
AcDbEntity
  8
0
  6
Continuous
 62
     7
370
    15
100
AcDbLine
 10
309.4186806383
 20
527.5829090579
 30
0.0
 11
304.5527958574
 21
527.5829090579
 31
0.0
  0
LINE
  5
108
330
1F
100
AcDbEntity
  8
0
  6
Continuous
 62
     7
370
    15
100
AcDbLine
 10
309.4269656839
 20
526.7829104169
 30
0.0
 11
304.5534217061
 21
526.7829104169
 31
0.0
  0
LINE
  5
109
330
1F
100
AcDbEntity
  8
0
  6
Continuous
 62
     7
370
    15
100
AcDbLine
 10
308.1527971925
 20
543.0829181178
 30
0.0
 11
309.3161606492
 21
543.0829181178
 31
0.0
  0
LINE
  5
10A
330
1F
100
AcDbEntity
  8
0
  6
Continuous
 62
     7
370
    15
100
AcDbLine
 10
309.4793283643
 20
543.0829181178
 30
0.0
 11
309.5416450204
 21
543.0829181178
 31
0.0
  0
LINE
  5
10B
330
1F
100
AcDbEntity
  8
0
  6
Continuous
 62
     7
370
    15
100
AcDbLine
 10
305.9528195562
 20
543.0829181178
 30
0.0
 11
308.1527971925
 21
543.0829181178
 31
0.0
  0
LINE
  5
10C
330
1F
100
AcDbEntity
  8
0
  6
Continuous
 62
     7
370
    15
100
AcDbLine
 10
308.1527971925
 20
525.9829117759
 30
0.0
 11
309.0163194837
 21
525.9829117759
 31
0.0
  0
LINE
  5
10D
330
1F
100
AcDbEntity
  8
0
  6
Continuous
 62
     7
370
    15
100
AcDbLine
 10
306.0528063478
 20
525.9829117759
 30
0.0
 11
308.1527971925
 21
525.9829117759
 31
0.0
  0
LINE
  5
10E
330
1F
100
AcDbEntity
  8
0
  6
Continuous
 62
     7
370
    15
100
AcDbLine
 10
308.1527971925
 20
526.382918547
 30
0.0
 11
309.2561983766
 21
526.382918547
 31
0.0
  0
LINE
  5
10F
330
1F
100
AcDbEntity
  8
0
  6
Continuous
 62
     7
370
    15
100
AcDbLine
 10
306.0528063478
 20
526.382918547
 30
0.0
 11
308.1527971925
 21
526.382918547
 31
0.0
  0
ARC
  5
110
330
1F
100
AcDbEntity
  8
0
  6
Continuous
 62
     7
370
    15
100
AcDbCircle
 10
305.0187513233
 20
541.9850730392
 30
0.0
 40
0.802903424659256
100
AcDbArc
 50
125.4743278821
 51
180.1540423808
  0
ARC
  5
111
330
1F
100
AcDbEntity
  8
0
  6
Continuous
 62
     7
370
    15
100
AcDbCircle
 10
305.0187513233
 20
527.5807504171
 30
0.0
 40
0.8029034246593129
100
AcDbArc
 50
179.8459576192
 51
234.5256721179
  0
LINE
  5
112
330
1F
100
AcDbEntity
  8
0
  6
Continuous
 62
     7
370
    15
100
AcDbLine
 10
305.0037049951
 20
528.0329092248
 30
0.0
 11
305.0037049951
 21
527.5829090579
 31
0.0
  0
LINE
  5
113
330
1F
100
AcDbEntity
  8
0
  6
Continuous
 62
     7
370
    15
100
AcDbLine
 10
305.0037049951
 20
541.9829143985
 30
0.0
 11
305.0037049951
 21
541.5329142316
 31
0.0
  0
LINE
  5
114
330
1F
100
AcDbEntity
  8
0
  6
Continuous
 62
     7
370
    15
100
AcDbLine
 10
304.2158508005
 20
527.5829090579
 30
0.0
 11
304.2158508005
 21
528.8113607867
 31
0.0
  0
LINE
  5
115
330
1F
100
AcDbEntity
  8
0
  6
Continuous
 62
     7
370
    15
100
AcDbLine
 10
304.2158508005
 20
540.7544626696
 30
0.0
 11
304.2158508005
 21
541.9829143985
 31
0.0
  0
SPLINE
  5
116
330
1F
100
AcDbEntity
  8
0
  6
Continuous
 62
     7
370
    15
100
AcDbSpline
210
0.0
220
0.0
230
1.0
 70
    24
 71
     3
 72
    12
 73
     8
 74
     0
 42
0.00000001
 43
0.00000001
 40
0.0
 40
0.0
 40
0.0
 40
0.0
 40
0.2185041607748386
 40
0.4370097499429002
 40
0.655519261637946
 40
0.8740302225829159
 40
1.0
 40
1.0
 40
1.0
 40
1.0
 10
311.2121545972309
 20
541.4753063423998
 30
0.0
 10
311.0154341769542
 20
541.4753063423997
 30
0.0
 10
310.6219920504109
 20
541.4753063423997
 30
0.0
 10
310.0612446092322
 20
541.4753063423999
 30
0.0
 10
309.6435490904596
 20
541.4753063423998
 30
0.0
 10
309.4169861626175
 20
541.4753063423997
 30
0.0
 10
309.4345281983513
 20
541.4753063423998
 30
0.0
 10
309.4409429730854
 20
541.4753063423998
 30
0.0
  0
SPLINE
  5
117
330
1F
100
AcDbEntity
  8
0
  6
Continuous
 62
     7
370
    15
100
AcDbSpline
210
0.0
220
0.0
230
1.0
 70
    24
 71
     3
 72
     9
 73
     5
 74
     0
 42
0.00000001
 43
0.00000001
 40
0.0
 40
0.0
 40
0.0
 40
0.0
 40
0.1970399618046988
 40
1.0
 40
1.0
 40
1.0
 40
1.0
 10
311.8528151215992
 20
541.4753063423998
 30
0.0
 10
311.8201582300309
 20
541.4753063423998
 30
0.0
 10
311.6544208269714
 20
541.4753063423997
 30
0.0
 10
311.4091207535526
 20
541.4753063423998
 30
0.0
 10
311.2121545972309
 20
541.4753063423998
 30
0.0
  0
SPLINE
  5
118
330
1F
100
AcDbEntity
  8
0
  6
Continuous
 62
     7
370
    15
100
AcDbSpline
210
0.0
220
0.0
230
1.0
 70
     8
 71
     3
 72
    13
 73
     9
 74
     0
 42
0.00000001
 43
0.00000001
 40
0.0
 40
0.0
 40
0.0
 40
0.0
 40
0.1877403276500716
 40
0.375475335694488
 40
0.5632142885515116
 40
0.7509490809462165
 40
0.93868730514789
 40
0.9999999999999999
 40
0.9999999999999999
 40
0.9999999999999999
 40
0.9999999999999999
 10
310.9188699426136
 20
545.0901492340929
 30
0.0
 10
310.7221729418429
 20
545.0874476285186
 30
0.0
 10
310.3287845136936
 20
545.0820444939196
 30
0.0
 10
309.7957707975178
 20
544.7915020330634
 30
0.0
 10
309.4052488216583
 20
544.3366061673579
 30
0.0
 10
309.232299998346
 20
543.7749261284295
 30
0.0
 10
309.2355843250492
 20
543.3017397039096
 30
0.0
 10
309.3628995797068
 20
543.0803018321295
 30
0.0
 10
309.3942427339039
 20
543.0257870657808
 30
0.0
  0
SPLINE
  5
119
330
1F
100
AcDbEntity
  8
0
  6
Continuous
 62
     7
370
    15
100
AcDbSpline
210
0.0
220
0.0
230
1.0
 70
     8
 71
     3
 72
    10
 73
     6
 74
     0
 42
0.00000001
 43
0.00000001
 40
0.0
 40
0.0
 40
0.0
 40
0.0
 40
0.2093333647866524
 40
0.6046781482275657
 40
0.9999999999999999
 40
0.9999999999999999
 40
0.9999999999999999
 40
0.9999999999999999
 10
312.0560371579609
 20
544.2840262158281
 30
0.0
 10
312.0143404473362
 20
544.377090004726
 30
0.0
 10
311.8938957690909
 20
544.6459130831453
 30
0.0
 10
311.4871654959124
 20
544.9625446882939
 30
0.0
 10
311.1082981309555
 20
545.0476152079253
 30
0.0
 10
310.9188699426136
 20
545.0901492340929
 30
0.0
  0
SPLINE
  5
11A
330
1F
100
AcDbEntity
  8
0
  6
Continuous
 62
     7
370
    15
100
AcDbSpline
210
0.0
220
0.0
230
1.0
 70
     8
 71
     3
 72
    13
 73
     9
 74
     0
 42
0.00000001
 43
0.00000001
 40
0.0
 40
0.0
 40
0.0
 40
0.0
 40
0.1768655441741053
 40
0.3537268808725106
 40
0.5305919338987228
 40
0.7074573141850448
 40
0.8843216807598565
 40
1.0
 40
1.0
 40
1.0
 40
1.0
 10
310.9016442002736
 20
524.4469596846468
 30
0.0
 10
310.7049714478928
 20
524.4496456683669
 30
0.0
 10
310.311630621803
 20
524.4550175719102
 30
0.0
 10
309.7782517025578
 20
524.7457064725263
 30
0.0
 10
309.3891207349465
 20
525.2000659199745
 30
0.0
 10
309.210962597107
 20
525.7637650998671
 30
0.0
 10
309.2319285806033
 20
526.2969153859201
 30
0.0
 10
309.398009721348
 20
526.5701866993229
 30
0.0
 10
309.4636821450673
 20
526.6782446606524
 30
0.0
  0
SPLINE
  5
11B
330
1F
100
AcDbEntity
  8
0
  6
Continuous
 62
     7
370
    15
100
AcDbSpline
210
0.0
220
0.0
230
1.0
 70
     8
 71
     3
 72
    10
 73
     6
 74
     0
 42
0.00000001
 43
0.00000001
 40
0.0
 40
0.0
 40
0.0
 40
0.0
 40
0.0588225777550384
 40
0.5294258028009099
 40
1.0
 40
1.0
 40
1.0
 40
1.0
 10
311.9317614736042
 20
525.0468655331499
 30
0.0
 10
311.9211269783713
 20
525.0253845419583
 30
0.0
 10
311.8254124348926
 20
524.8320473670059
 30
0.0
 10
311.4645173889085
 20
524.5778892163087
 30
0.0
 10
311.0892647386308
 20
524.4906019644945
 30
0.0
 10
310.9016442002736
 20
524.4469596846468
 30
0.0
  0
SPLINE
  5
11C
330
1F
100
AcDbEntity
  8
0
  6
Continuous
 62
     7
370
    15
100
AcDbSpline
210
0.0
220
0.0
230
1.0
 70
    24
 71
     3
 72
    12
 73
     8
 74
     0
 42
0.00000001
 43
0.00000001
 40
0.0
 40
0.0
 40
0.0
 40
0.0
 40
0.2193522884941657
 40
0.4387060109258876
 40
0.6580636711099509
 40
0.877422786169227
 40
1.0
 40
1.0
 40
1.0
 40
1.0
 10
311.2121545972309
 20
527.916680167473
 30
0.0
 10
311.0154388563909
 20
527.916680167473
 30
0.0
 10
310.6220060887517
 20
527.916680167473
 30
0.0
 10
310.0611884550204
 20
527.9166801674729
 30
0.0
 10
309.6437596735196
 20
527.916680167473
 30
0.0
 10
309.4179025637213
 20
527.9166801674729
 30
0.0
 10
309.434906877398
 20
527.916680167473
 30
0.0
 10
309.4410025777302
 20
527.916680167473
 30
0.0
  0
SPLINE
  5
11D
330
1F
100
AcDbEntity
  8
0
  6
Continuous
 62
     7
370
    15
100
AcDbSpline
210
0.0
220
0.0
230
1.0
 70
    24
 71
     3
 72
     9
 73
     5
 74
     0
 42
0.00000001
 43
0.00000001
 40
0.0
 40
0.0
 40
0.0
 40
0.0
 40
0.1970399618046988
 40
1.0
 40
1.0
 40
1.0
 40
1.0
 10
311.8528151215992
 20
527.916680167473
 30
0.0
 10
311.8201582300309
 20
527.916680167473
 30
0.0
 10
311.6544208269714
 20
527.916680167473
 30
0.0
 10
311.4091207535526
 20
527.916680167473
 30
0.0
 10
311.2121545972309
 20
527.916680167473
 30
0.0
  0
SPLINE
  5
11E
330
1F
100
AcDbEntity
  8
0
  6
Continuous
 62
     7
370
    15
100
AcDbSpline
210
0.0
220
0.0
230
1.0
 70
     8
 71
     3
 72
    13
 73
     9
 74
     0
 42
0.00000001
 43
0.00000001
 40
0.0
 40
0.0
 40
0.0
 40
0.0
 40
0.1768576985124456
 40
0.3537276817053297
 40
0.5305875817102148
 40
0.7074521439525769
 40
0.8843171741316485
 40
0.9999999999999999
 40
0.9999999999999999
 40
0.9999999999999999
 40
0.9999999999999999
 10
309.3497776689015
 20
547.7065696223146
 30
0.0
 10
309.1531168796699
 20
547.70387365411
 30
0.0
 10
308.7597816409878
 20
547.6984815304367
 30
0.0
 10
308.2263854416303
 20
547.4078293057171
 30
0.0
 10
307.8372997848495
 20
546.953433372288
 30
0.0
 10
307.6590856839941
 20
546.3897695194087
 30
0.0
 10
307.6800548157287
 20
545.8566036977926
 30
0.0
 10
307.8461614955309
 20
545.5833413588178
 30
0.0
 10
307.9118454160175
 20
545.4752846463091
 30
0.0
  0
SPLINE
  5
11F
330
1F
100
AcDbEntity
  8
0
  6
Continuous
 62
     7
370
    15
100
AcDbSpline
210
0.0
220
0.0
230
1.0
 70
     8
 71
     3
 72
    10
 73
     6
 74
     0
 42
0.00000001
 43
0.00000001
 40
0.0
 40
0.0
 40
0.0
 40
0.0
 40
0.1474521529467936
 40
0.5737191691814364
 40
0.9999999999999999
 40
0.9999999999999999
 40
0.9999999999999999
 40
0.9999999999999999
 10
310.4383670987568
 20
546.9940407975084
 30
0.0
 10
310.4103101154101
 20
547.0543327647572
 30
0.0
 10
310.3011436579953
 20
547.2889217935846
 30
0.0
 10
309.9160787668113
 20
547.5777385441664
 30
0.0
 10
309.5385467406994
 20
547.6636254656981
 30
0.0
 10
309.3497776689015
 20
547.7065696223146
 30
0.0
  0
SPLINE
  5
120
330
1F
100
AcDbEntity
  8
0
  6
Continuous
 62
     7
370
    15
100
AcDbSpline
210
0.0
220
0.0
230
1.0
 70
     8
 71
     3
 72
    13
 73
     9
 74
     0
 42
0.00000001
 43
0.00000001
 40
0.0
 40
0.0
 40
0.0
 40
0.0
 40
0.1768650521954994
 40
0.3537334552900266
 40
0.5305917752866345
 40
0.7074547574790687
 40
0.8843182076040318
 40
0.9999999999999999
 40
0.9999999999999999
 40
0.9999999999999999
 40
0.9999999999999999
 10
309.3325817288838
 20
521.8305392964251
 30
0.0
 10
309.1359107304246
 20
521.8332338547485
 30
0.0
 10
308.7425650073623
 20
521.8386230224468
 30
0.0
 10
308.2091596650806
 20
522.1292794715491
 30
0.0
 10
307.8200740516821
 20
522.5836755843847
 30
0.0
 10
307.6418599391733
 20
523.1473393890723
 30
0.0
 10
307.6628290737659
 20
523.6805052225077
 30
0.0
 10
307.8289357532978
 20
523.9537675603641
 30
0.0
 10
307.8946196736775
 20
524.0618242724306
 30
0.0
  0
SPLINE
  5
121
330
1F
100
AcDbEntity
  8
0
  6
Continuous
 62
     7
370
    15
100
AcDbSpline
210
0.0
220
0.0
230
1.0
 70
     8
 71
     3
 72
    10
 73
     6
 74
     0
 42
0.00000001
 43
0.00000001
 40
0.0
 40
0.0
 40
0.0
 40
0.0
 40
0.1474642454108359
 40
0.5737320827069983
 40
1.0
 40
1.0
 40
1.0
 40
1.0
 10
310.4211413564167
 20
522.5430681212313
 30
0.0
 10
310.3930851031636
 20
522.4827706255683
 30
0.0
 10
310.2839279812658
 20
522.2481740447337
 30
0.0
 10
309.898853417792
 20
521.9593807769269
 30
0.0
 10
309.5213389703278
 20
521.8734864592789
 30
0.0
 10
309.3325817288838
 20
521.8305392964251
 30
0.0
  0
LINE
  5
122
330
1F
100
AcDbEntity
  8
0
  6
Continuous
 62
     7
370
    15
100
AcDbLine
 10
813.9541768732
 20
54.7829075559
 30
0.0
 11
813.9541768732
 21
19.7829111321
 31
0.0
  0
LINE
  5
123
330
1F
100
AcDbEntity
  8
0
  6
Continuous
 62
     7
370
    15
100
AcDbLine
 10
824.5528065862
 20
54.7829075559
 30
0.0
 11
813.9541768732
 21
54.7829075559
 31
0.0
  0
LINE
  5
124
330
1F
100
AcDbEntity
  8
0
  6
Continuous
 62
     7
370
    15
100
AcDbLine
 10
824.5528065862
 20
19.7829111321
 30
0.0
 11
813.9541768732
 21
19.7829111321
 31
0.0
  0
LINE
  5
125
330
1F
100
AcDbEntity
  8
0
  6
Continuous
 62
     7
370
    15
100
AcDbLine
 10
813.9541768732
 20
579.7829135163
 30
0.0
 11
813.9541768732
 21
544.7829170926
 31
0.0
  0
LINE
  5
126
330
1F
100
AcDbEntity
  8
0
  6
Continuous
 62
     7
370
    15
100
AcDbLine
 10
824.5528065862
 20
544.7829170926
 30
0.0
 11
813.9541768732
 21
544.7829170926
 31
0.0
  0
LINE
  5
127
330
1F
100
AcDbEntity
  8
0
  6
Continuous
 62
     7
370
    15
100
AcDbLine
 10
824.5528065862
 20
579.7829135163
 30
0.0
 11
813.9541768732
 21
579.7829135163
 31
0.0
  0
LINE
  5
128
330
1F
100
AcDbEntity
  8
0
  6
Continuous
 62
     7
370
    15
100
AcDbLine
 10
821.5528154077
 20
91.7829080327
 30
0.0
 11
816.5528201761
 21
91.7829080327
 31
0.0
  0
LINE
  5
129
330
1F
100
AcDbEntity
  8
0
  6
Continuous
 62
     7
370
    15
100
AcDbLine
 10
816.5528201761
 20
507.7829166158
 30
0.0
 11
821.5528154077
 21
507.7829166158
 31
0.0
  0
LINE
  5
12A
330
1F
100
AcDbEntity
  8
0
  6
Continuous
 62
     7
370
    15
100
AcDbLine
 10
813.4906613531
 20
19.7829111321
 30
0.0
 11
813.4906613531
 21
54.7829075559
 31
0.0
  0
LINE
  5
12B
330
1F
100
AcDbEntity
  8
0
  6
Continuous
 62
     7
370
    15
100
AcDbLine
 10
813.9541768732
 20
19.7829111321
 30
0.0
 11
813.4906613531
 21
19.7829111321
 31
0.0
  0
LINE
  5
12C
330
1F
100
AcDbEntity
  8
0
  6
Continuous
 62
     7
370
    15
100
AcDbLine
 10
813.4906613531
 20
54.7829075559
 30
0.0
 11
813.9541768732
 21
54.7829075559
 31
0.0
  0
LINE
  5
12D
330
1F
100
AcDbEntity
  8
0
  6
Continuous
 62
     7
370
    15
100
AcDbLine
 10
813.4906613531
 20
544.7829170926
 30
0.0
 11
813.4906613531
 21
579.7829135163
 31
0.0
  0
LINE
  5
12E
330
1F
100
AcDbEntity
  8
0
  6
Continuous
 62
     7
370
    15
100
AcDbLine
 10
813.9541768732
 20
544.7829170926
 30
0.0
 11
813.4906613531
 21
544.7829170926
 31
0.0
  0
LINE
  5
12F
330
1F
100
AcDbEntity
  8
0
  6
Continuous
 62
     7
370
    15
100
AcDbLine
 10
813.4906613531
 20
579.7829135163
 30
0.0
 11
813.9541768732
 21
579.7829135163
 31
0.0
  0
LINE
  5
130
330
1F
100
AcDbEntity
  8
0
  6
Continuous
 62
     7
370
    15
100
AcDbLine
 10
813.4906613531
 20
544.7829170926
 30
0.0
 11
813.0528056325
 21
544.7829170926
 31
0.0
  0
LINE
  5
131
330
1F
100
AcDbEntity
  8
0
  6
Continuous
 62
     7
370
    15
100
AcDbLine
 10
813.4906613531
 20
579.7829135163
 30
0.0
 11
813.0528056325
 21
579.7829135163
 31
0.0
  0
LINE
  5
132
330
1F
100
AcDbEntity
  8
0
  6
Continuous
 62
     7
370
    15
100
AcDbLine
 10
813.4906613531
 20
19.7829111321
 30
0.0
 11
813.0528056325
 21
19.7829111321
 31
0.0
  0
LINE
  5
133
330
1F
100
AcDbEntity
  8
0
  6
Continuous
 62
     7
370
    15
100
AcDbLine
 10
813.4906613531
 20
54.7829075559
 30
0.0
 11
813.0528056325
 21
54.7829075559
 31
0.0
  0
LINE
  5
134
330
1F
100
AcDbEntity
  8
0
  6
Continuous
 62
     7
370
    15
100
AcDbLine
 10
307.8528070154
 20
58.0329104169
 30
0.0
 11
304.7527992429
 21
58.0329104169
 31
0.0
  0
LINE
  5
135
330
1F
100
AcDbEntity
  8
0
  6
Continuous
 62
     7
370
    15
100
AcDbLine
 10
307.8528070154
 20
71.5329154237
 30
0.0
 11
304.7527992429
 21
71.5329154237
 31
0.0
  0
LINE
  5
136
330
1F
100
AcDbEntity
  8
0
  6
Continuous
 62
     7
370
    15
100
AcDbLine
 10
307.8528070154
 20
71.5329154237
 30
0.0
 11
309.4128691854
 21
71.5329154237
 31
0.0
  0
LINE
  5
137
330
1F
100
AcDbEntity
  8
0
  6
Continuous
 62
     7
370
    15
100
AcDbLine
 10
307.8528070154
 20
58.0329104169
 30
0.0
 11
309.4123327436
 21
58.0329104169
 31
0.0
  0
LINE
  5
138
330
1F
100
AcDbEntity
  8
0
  6
Continuous
 62
     7
370
    15
100
AcDbLine
 10
307.8528070154
 20
528.0329092248
 30
0.0
 11
304.7527992429
 21
528.0329092248
 31
0.0
  0
LINE
  5
139
330
1F
100
AcDbEntity
  8
0
  6
Continuous
 62
     7
370
    15
100
AcDbLine
 10
307.8528070154
 20
541.5329142316
 30
0.0
 11
309.4128691854
 21
541.5329142316
 31
0.0
  0
LINE
  5
13A
330
1F
100
AcDbEntity
  8
0
  6
Continuous
 62
     7
370
    15
100
AcDbLine
 10
307.8528070154
 20
528.0329092248
 30
0.0
 11
309.4123327436
 21
528.0329092248
 31
0.0
  0
LINE
  5
13B
330
1F
100
AcDbEntity
  8
0
  6
Continuous
 62
     7
370
    15
100
AcDbLine
 10
307.8528070154
 20
541.5329142316
 30
0.0
 11
304.7527992429
 21
541.5329142316
 31
0.0
  0
LINE
  5
13C
330
1F
100
AcDbEntity
  8
0
  6
Continuous
 62
     8
370
    15
100
AcDbLine
 10
307.8528070154
 20
58.2829071982
 30
0.0
 11
307.8528070154
 21
58.0329104169
 31
0.0
  0
LINE
  5
13D
330
1F
100
AcDbEntity
  8
0
  6
Continuous
 62
     8
370
    15
100
AcDbLine
 10
307.8528070154
 20
71.5329154237
 30
0.0
 11
307.8528070154
 21
71.2829186423
 31
0.0
  0
LINE
  5
13E
330
1F
100
AcDbEntity
  8
0
  6
Continuous
 62
     8
370
    15
100
AcDbLine
 10
307.8528070154
 20
528.2829060061
 30
0.0
 11
307.8528070154
 21
528.0329092248
 31
0.0
  0
LINE
  5
13F
330
1F
100
AcDbEntity
  8
0
  6
Continuous
 62
     8
370
    15
100
AcDbLine
 10
307.8528070154
 20
541.5329142316
 30
0.0
 11
307.8528070154
 21
541.2829174502
 31
0.0
  0
LINE
  5
140
330
1F
100
AcDbEntity
  8
0
  6
Continuous
 62
     7
370
    15
100
AcDbLine
 10
242.9819749536
 20
541.2829174502
 30
0.0
 11
242.9819749536
 21
528.2829060061
 31
0.0
  0
LINE
  5
141
330
1F
100
AcDbEntity
  8
0
  6
Continuous
 62
     7
370
    15
100
AcDbLine
 10
242.9819749536
 20
71.2829186423
 30
0.0
 11
242.9819749536
 21
58.2829071982
 31
0.0
  0
LINE
  5
142
330
1F
100
AcDbEntity
  8
0
  6
Continuous
 62
     7
370
    15
100
AcDbLine
 10
233.1919716539
 20
56.782911609
 30
0.0
 11
233.1919716539
 21
57.58291025
 31
0.0
  0
LINE
  5
143
330
1F
100
AcDbEntity
  8
0
  6
Continuous
 62
     7
370
    15
100
AcDbLine
 10
233.1919716539
 20
71.9829155906
 30
0.0
 11
233.1919716539
 21
72.7829142316
 31
0.0
  0
ARC
  5
144
330
1F
100
AcDbEntity
  8
0
  6
Continuous
 62
     7
370
    15
100
AcDbCircle
 10
230.4619718065
 20
69.9757694671
 30
0.0
 40
3.807142857143298
100
AcDbArc
 50
54.6997515601
 51
125.3002484399
  0
LINE
  5
145
330
1F
100
AcDbEntity
  8
0
  6
Continuous
 62
     7
370
    15
100
AcDbLine
 10
228.2619671764
 20
73.0829193099
 30
0.0
 11
228.2619671764
 21
72.7829142316
 31
0.0
  0
LINE
  5
146
330
1F
100
AcDbEntity
  8
0
  6
Continuous
 62
     7
370
    15
100
AcDbLine
 10
232.6619671525
 20
72.7829142316
 30
0.0
 11
232.6619671525
 21
73.0829193099
 31
0.0
  0
LINE
  5
147
330
1F
100
AcDbEntity
  8
0
  6
Continuous
 62
     7
370
    15
100
AcDbLine
 10
228.3619688692
 20
56.382919739
 30
0.0
 11
228.3619688692
 21
55.982912968
 31
0.0
  0
LINE
  5
148
330
1F
100
AcDbEntity
  8
0
  6
Continuous
 62
     7
370
    15
100
AcDbLine
 10
232.5619654598
 20
55.982912968
 30
0.0
 11
232.5619654598
 21
56.382919739
 31
0.0
  0
ARC
  5
149
330
1F
100
AcDbEntity
  8
0
  6
Continuous
 62
     7
370
    15
100
AcDbCircle
 10
228.5619718065
 20
56.7829123243
 30
0.0
 40
0.4000000000007731
100
AcDbArc
 50
270.0
 51
0.0
  0
ARC
  5
14A
330
1F
100
AcDbEntity
  8
0
  6
Continuous
 62
     7
370
    15
100
AcDbCircle
 10
232.3619718065
 20
56.7829123243
 30
0.0
 40
0.4000000000007731
100
AcDbArc
 50
180.0
 51
270.0
  0
LINE
  5
14B
330
1F
100
AcDbEntity
  8
0
  6
Continuous
 62
     7
370
    15
100
AcDbLine
 10
228.9619790258
 20
71.9829155906
 30
0.0
 11
228.9619790258
 21
71.5329154237
 31
0.0
  0
LINE
  5
14C
330
1F
100
AcDbEntity
  8
0
  6
Continuous
 62
     7
370
    15
100
AcDbLine
 10
228.9619790258
 20
70.5329133971
 30
0.0
 11
228.9619790258
 21
70.0442149146
 31
0.0
  0
LINE
  5
14D
330
1F
100
AcDbEntity
  8
0
  6
Continuous
 62
     7
370
    15
100
AcDbLine
 10
228.9619790258
 20
69.2480905755
 30
0.0
 11
228.9619790258
 21
69.0924032433
 31
0.0
  0
LINE
  5
14E
330
1F
100
AcDbEntity
  8
0
  6
Continuous
 62
     7
370
    15
100
AcDbLine
 10
228.9619790258
 20
59.7932888968
 30
0.0
 11
228.9619790258
 21
59.0329124434
 31
0.0
  0
LINE
  5
14F
330
1F
100
AcDbEntity
  8
0
  6
Continuous
 62
     7
370
    15
100
AcDbLine
 10
228.9619790258
 20
58.0329104169
 30
0.0
 11
228.9619790258
 21
57.58291025
 31
0.0
  0
LINE
  5
150
330
1F
100
AcDbEntity
  8
0
  6
Continuous
 62
     7
370
    15
100
AcDbLine
 10
231.9619702043
 20
57.58291025
 30
0.0
 11
231.9619702043
 21
58.0329104169
 31
0.0
  0
LINE
  5
151
330
1F
100
AcDbEntity
  8
0
  6
Continuous
 62
     7
370
    15
100
AcDbLine
 10
231.9619702043
 20
59.0329124434
 30
0.0
 11
231.9619702043
 21
59.5200612052
 31
0.0
  0
LINE
  5
152
330
1F
100
AcDbEntity
  8
0
  6
Continuous
 62
     7
370
    15
100
AcDbLine
 10
231.9619702043
 20
68.8279672368
 30
0.0
 11
231.9619702043
 21
69.0159155829
 31
0.0
  0
LINE
  5
153
330
1F
100
AcDbEntity
  8
0
  6
Continuous
 62
     7
370
    15
100
AcDbLine
 10
231.9619702043
 20
69.7709872229
 30
0.0
 11
231.9619702043
 21
70.5329133971
 31
0.0
  0
LINE
  5
154
330
1F
100
AcDbEntity
  8
0
  6
Continuous
 62
     7
370
    15
100
AcDbLine
 10
231.9619702043
 20
71.5329154237
 30
0.0
 11
231.9619702043
 21
71.9829155906
 31
0.0
  0
SPLINE
  5
155
330
1F
100
AcDbEntity
  8
0
  6
Continuous
 62
     7
370
    15
100
AcDbSpline
210
0.0
220
0.0
230
1.0
 70
     8
 71
     3
 72
    15
 73
    11
 74
     0
 42
0.00000001
 43
0.00000001
 40
0.0
 40
0.0
 40
0.0
 40
0.0
 40
0.135596524218426
 40
0.2953255930354361
 40
0.4038106354482965
 40
0.5319576936985174
 40
0.6738361567850103
 40
0.826100990935627
 40
0.9126193315542663
 40
0.9999999999999999
 40
0.9999999999999999
 40
0.9999999999999999
 40
0.9999999999999999
 10
231.9619702042977
 20
59.34895117119615
 30
0.0
 10
232.0063524725721
 20
59.34163076124749
 30
0.0
 10
232.103015862537
 20
59.3256871047135
 30
0.0
 10
232.3098661003838
 20
59.37335805582261
 30
0.0
 10
232.5031227192616
 20
59.46107382438029
 30
0.0
 10
232.6497106744841
 20
59.58074139705061
 30
0.0
 10
232.7484177529615
 20
59.73164946872222
 30
0.0
 10
232.7780741069212
 20
59.85347741330055
 30
0.0
 10
232.7569047779743
 20
59.98272849499062
 30
0.0
 10
232.7106470099014
 20
60.04940453148266
 30
0.0
 10
232.6874034346978
 20
60.08290786579909
 30
0.0
  0
SPLINE
  5
156
330
1F
100
AcDbEntity
  8
0
  6
Continuous
 62
     7
370
    15
100
AcDbSpline
210
0.0
220
0.0
230
1.0
 70
     8
 71
     3
 72
    20
 73
    16
 74
     0
 42
0.00000001
 43
0.00000001
 40
0.0
 40
0.0
 40
0.0
 40
0.0
 40
0.0607080703525387
 40
0.2265356748708075
 40
0.3908031508966114
 40
0.47059448168422
 40
0.5476204260356007
 40
0.6228574358877381
 40
0.7003372698834802
 40
0.7786473610714315
 40
0.8566576136431394
 40
0.9330986217031314
 40
0.9703734372930525
 40
0.9892322546654578
 40
1.0
 40
1.0
 40
1.0
 40
1.0
 10
228.2257722558419
 20
60.08290786579911
 30
0.0
 10
228.2720471242449
 20
60.02957642015888
 30
0.0
 10
228.4447244714634
 20
59.83056704694387
 30
0.0
 10
228.8616828953072
 20
59.81264018898777
 30
0.0
 10
229.426651881496
 20
59.73761493770274
 30
0.0
 10
229.9462621969166
 20
59.69467723115593
 30
0.0
 10
230.3401532759716
 20
59.6641166556248
 30
0.0
 10
230.7330651018356
 20
59.6364446575958
 30
0.0
 10
231.1142264793619
 20
59.60513601524312
 30
0.0
 10
231.469950483363
 20
59.57265368611389
 30
0.0
 10
231.7725735742105
 20
59.54185174516302
 30
0.0
 10
231.9650906049276
 20
59.51891622790864
 30
0.0
 10
232.0532056804169
 20
59.51090988650856
 30
0.0
 10
232.0986328004978
 20
59.50311471932545
 30
0.0
 10
232.098083381387
 20
59.50707385959014
 30
0.0
 10
232.0978836955468
 20
59.50851280525987
 30
0.0
  0
SPLINE
  5
157
330
1F
100
AcDbEntity
  8
0
  6
Continuous
 62
     7
370
    15
100
AcDbSpline
210
0.0
220
0.0
230
1.0
 70
     8
 71
     3
 72
    18
 73
    14
 74
     0
 42
0.00000001
 43
0.00000001
 40
0.0
 40
0.0
 40
0.0
 40
0.0
 40
0.005750901312886
 40
0.1156365085951078
 40
0.2383915781740809
 40
0.3593074919734304
 40
0.4757058261774768
 40
0.587213241086234
 40
0.7047338023862616
 40
0.8265047115699417
 40
0.8891451544712452
 40
0.9517986728193887
 40
1.0
 40
1.0
 40
1.0
 40
1.0
 10
232.4685947837273
 20
68.72973878220384
 30
0.0
 10
232.463947550722
 20
68.73269097805552
 30
0.0
 10
232.3705031026047
 20
68.79205238984227
 30
0.0
 10
232.1481967891411
 20
68.7982304489437
 30
0.0
 10
231.7567984315988
 20
68.85743293498142
 30
0.0
 10
231.2449202001437
 20
68.90296972358614
 30
0.0
 10
230.6938885054567
 20
68.94913652849591
 30
0.0
 10
230.1317708705781
 20
68.9880160586352
 30
0.0
 10
229.5974908911303
 20
69.03276954350699
 30
0.0
 10
229.1998504895667
 20
69.07380968534308
 30
0.0
 10
228.9851225788816
 20
69.09495735975835
 30
0.0
 10
228.8890754367666
 20
69.09723273646559
 30
0.0
 10
228.8736268789172
 20
69.08115504164975
 30
0.0
 10
228.8669096173683
 20
69.07416422203843
 30
0.0
  0
SPLINE
  5
158
330
1F
100
AcDbEntity
  8
0
  6
Continuous
 62
     7
370
    15
100
AcDbSpline
210
0.0
220
0.0
230
1.0
 70
     8
 71
     3
 72
    12
 73
     8
 74
     0
 42
0.00000001
 43
0.00000001
 40
0.0
 40
0.0
 40
0.0
 40
0.0
 40
0.2236853795816241
 40
0.4523160769523714
 40
0.682243963857253
 40
0.9102242834447114
 40
0.9999999999999999
 40
0.9999999999999999
 40
0.9999999999999999
 40
0.9999999999999999
 10
228.1676726283471
 20
69.88475758866133
 30
0.0
 10
228.1549312703384
 20
69.84221508335922
 30
0.0
 10
228.1291668637407
 20
69.756189527563
 30
0.0
 10
228.2503235277265
 20
69.66456795346215
 30
0.0
 10
228.4819878967195
 20
69.56824001972173
 30
0.0
 10
228.7268506993254
 20
69.50577782998774
 30
0.0
 10
228.910182291296
 20
69.5109817975734
 30
0.0
 10
228.9619790257851
 20
69.51245207623307
 30
0.0
  0
SPLINE
  5
159
330
1F
100
AcDbEntity
  8
0
  6
Continuous
 62
     7
370
    15
100
AcDbSpline
210
0.0
220
0.0
230
1.0
 70
     8
 71
     3
 72
    19
 73
    15
 74
     0
 42
0.00000001
 43
0.00000001
 40
0.0
 40
0.0
 40
0.0
 40
0.0
 40
0.097905926904403
 40
0.1753762581042611
 40
0.2884839064449838
 40
0.3734533498119171
 40
0.4570019163582772
 40
0.616887651372184
 40
0.6796676605733577
 40
0.7634259747055082
 40
0.8137554513749908
 40
0.8702985965080506
 40
0.9324002880724418
 40
0.9999999999999999
 40
0.9999999999999999
 40
0.9999999999999999
 40
0.9999999999999999
 10
228.3439086617867
 20
69.38963670567335
 30
0.0
 10
228.3944180163868
 20
69.36325560481788
 30
0.0
 10
228.4848940671132
 20
69.31599984718417
 30
0.0
 10
228.859533697604
 20
69.25535079297416
 30
0.0
 10
229.3460364692754
 20
69.20146121837892
 30
0.0
 10
229.9373762490637
 20
69.14823778098675
 30
0.0
 10
230.6914711086157
 20
69.09668553495946
 30
0.0
 10
231.3325814381685
 20
69.02974962015671
 30
0.0
 10
231.9818414841811
 20
68.99423146354094
 30
0.0
 10
232.3601867832982
 20
69.07241187745642
 30
0.0
 10
232.6120288389293
 20
69.1806213324393
 30
0.0
 10
232.7456193944676
 20
69.26894035968473
 30
0.0
 10
232.8073936100562
 20
69.34278064186422
 30
0.0
 10
232.7359496465226
 20
69.42330573226951
 30
0.0
 10
232.6987134160439
 20
69.46527499989335
 30
0.0
  0
SPLINE
  5
15A
330
1F
100
AcDbEntity
  8
0
  6
Continuous
 62
     7
370
    15
100
AcDbSpline
210
0.0
220
0.0
230
1.0
 70
     8
 71
     3
 72
    25
 73
    21
 74
     0
 42
0.00000001
 43
0.00000001
 40
0.0
 40
0.0
 40
0.0
 40
0.0
 40
0.0176257152332822
 40
0.0344972878751767
 40
0.0503151928262487
 40
0.0649722332787061
 40
0.0909443007661495
 40
0.1134367202712146
 40
0.1538393106223322
 40
0.1912330264523711
 40
0.2995696854287082
 40
0.3999623312216071
 40
0.5012942975292105
 40
0.5949046217113428
 40
0.678488170197744
 40
0.7336282960994625
 40
0.8075181316366539
 40
0.8952811567272466
 40
0.9453086460221393
 40
1.0
 40
1.0
 40
1.0
 40
1.0
 10
232.3413984717766
 20
68.83969445065321
 30
0.0
 10
232.3811026368781
 20
68.84408453348068
 30
0.0
 10
232.4588121649861
 20
68.85267686287506
 30
0.0
 10
232.56070560935
 20
68.89869082494387
 30
0.0
 10
232.6417075191349
 20
68.9576397399743
 30
0.0
 10
232.7179243365586
 20
69.04122022239709
 30
0.0
 10
232.7709672440772
 20
69.14485492031233
 30
0.0
 10
232.7951148674053
 20
69.27721458175267
 30
0.0
 10
232.7722417257408
 20
69.40906443778857
 30
0.0
 10
232.6009950693208
 20
69.65427088025771
 30
0.0
 10
232.2582160341213
 20
69.74136326284547
 30
0.0
 10
231.7631000773029
 20
69.79992185607841
 30
0.0
 10
231.149888297077
 20
69.85826548585949
 30
0.0
 10
230.5004121847016
 20
69.90788990413802
 30
0.0
 10
229.9607168785303
 20
69.94737534153542
 30
0.0
 10
229.5146963990274
 20
69.98655347169566
 30
0.0
 10
229.1260102235093
 20
70.024781858258
 30
0.0
 10
228.8658324214225
 20
70.05261077070041
 30
0.0
 10
228.7354061386917
 20
70.0751264269294
 30
0.0
 10
228.7267337542785
 20
70.08758327937714
 30
0.0
 10
228.7222044410149
 20
70.0940891011125
 30
0.0
  0
SPLINE
  5
15B
330
1F
100
AcDbEntity
  8
0
  6
Continuous
 62
     7
370
    15
100
AcDbSpline
210
0.0
220
0.0
230
1.0
 70
     8
 71
     3
 72
    12
 73
     8
 74
     0
 42
0.00000001
 43
0.00000001
 40
0.0
 40
0.0
 40
0.0
 40
0.0
 40
0.1756461954222045
 40
0.5723020993583655
 40
0.7586211437608602
 40
0.920748017050884
 40
1.0
 40
1.0
 40
1.0
 40
1.0
 10
228.810538524572
 20
69.27559811905687
 30
0.0
 10
228.7449748343425
 20
69.26642741789402
 30
0.0
 10
228.5313508644644
 20
69.23654683029862
 30
0.0
 10
228.31543227076
 20
69.16261210682667
 30
0.0
 10
228.1542739900736
 20
68.9476957815055
 30
0.0
 10
228.1230708561644
 20
68.78744816706467
 30
0.0
 10
228.1540456099462
 20
68.70880113798755
 30
0.0
 10
228.1642155589501
 20
68.68297893837752
 30
0.0
  0
LINE
  5
15C
330
1F
100
AcDbEntity
  8
0
  6
Continuous
 62
     7
370
    15
100
AcDbLine
 10
228.3217357339
 20
59.9851711495
 30
0.0
 11
227.2032694759
 21
59.9851711495
 31
0.0
  0
LINE
  5
15D
330
1F
100
AcDbEntity
  8
0
  6
Continuous
 62
     7
370
    15
100
AcDbLine
 10
227.2032694759
 20
59.1851725085
 30
0.0
 11
228.9619790258
 21
59.1851725085
 31
0.0
  0
LINE
  5
15E
330
1F
100
AcDbEntity
  8
0
  6
Continuous
 62
     7
370
    15
100
AcDbLine
 10
225.792978877
 20
72.7829142316
 30
0.0
 11
225.792978877
 21
72.8363795979
 31
0.0
  0
LINE
  5
15F
330
1F
100
AcDbEntity
  8
0
  6
Continuous
 62
     7
370
    15
100
AcDbLine
 10
222.7929876985
 20
72.8363795979
 30
0.0
 11
222.7929876985
 21
72.7829142316
 31
0.0
  0
SPLINE
  5
160
330
1F
100
AcDbEntity
  8
0
  6
Continuous
 62
     7
370
    15
100
AcDbSpline
210
0.0
220
0.0
230
1.0
 70
     8
 71
     3
 72
    15
 73
    11
 74
     0
 42
0.00000001
 43
0.00000001
 40
0.0
 40
0.0
 40
0.0
 40
0.0
 40
0.1077555984635169
 40
0.23525132098926
 40
0.3627905294629136
 40
0.4902569079919491
 40
0.6176632052480955
 40
0.745097043409137
 40
0.8724966518631685
 40
1.0
 40
1.0
 40
1.0
 40
1.0
 10
222.8090362491051
 20
56.78291160897081
 30
0.0
 10
222.8255753777263
 20
56.47038936409751
 30
0.0
 10
222.8616834956488
 20
55.78809283386324
 30
0.0
 10
223.1978961904367
 20
54.77894494085497
 30
0.0
 10
223.7559757180335
 20
53.81546621615363
 30
0.0
 10
224.5108009674185
 20
52.99453872171519
 30
0.0
 10
225.4259650672294
 20
52.35927327506887
 30
0.0
 10
226.4532205244598
 20
51.93911242365146
 30
0.0
 10
227.5491981731444
 20
51.72531139305664
 30
0.0
 10
228.2849586099954
 20
51.79083587440489
 30
0.0
 10
228.6529885472695
 20
51.82361144856279
 30
0.0
  0
SPLINE
  5
161
330
1F
100
AcDbEntity
  8
0
  6
Continuous
 62
     7
370
    15
100
AcDbSpline
210
0.0
220
0.0
230
1.0
 70
     8
 71
     3
 72
    15
 73
    11
 74
     0
 42
0.00000001
 43
0.00000001
 40
0.0
 40
0.0
 40
0.0
 40
0.0
 40
0.1316482969619113
 40
0.2633124770330245
 40
0.395188977732187
 40
0.5266689414245758
 40
0.6575479995356969
 40
0.7882111448988456
 40
0.9184605172600675
 40
1.0
 40
1.0
 40
1.0
 40
1.0
 10
228.155289763395
 20
54.78129823044603
 30
0.0
 10
228.0031117982147
 20
54.76948399112131
 30
0.0
 10
227.6987375078806
 20
54.74585408710697
 30
0.0
 10
227.2478684735427
 20
54.84732149444122
 30
0.0
 10
226.8288474753226
 20
55.0341964004912
 30
0.0
 10
226.4584531511462
 20
55.30678472012474
 30
0.0
 10
226.156186072528
 20
55.65268976862331
 30
0.0
 10
225.9370284376605
 20
56.05439707992866
 30
0.0
 10
225.8196746757336
 20
56.44071144252067
 30
0.0
 10
225.8094910798355
 20
56.68778672342026
 30
0.0
 10
225.8055703582207
 20
56.78291160897081
 30
0.0
  0
SPLINE
  5
162
330
1F
100
AcDbEntity
  8
0
  6
Continuous
 62
     7
370
    15
100
AcDbSpline
210
0.0
220
0.0
230
1.0
 70
     8
 71
     3
 72
    15
 73
    11
 74
     0
 42
0.00000001
 43
0.00000001
 40
0.0
 40
0.0
 40
0.0
 40
0.0
 40
0.1249271724452606
 40
0.2499156778186059
 40
0.3749661225157206
 40
0.4999574189332024
 40
0.6249212965006179
 40
0.749916905720849
 40
0.8748746059781706
 40
1.0
 40
1.0
 40
1.0
 40
1.0
 10
228.8238601626793
 20
77.71344024971788
 30
0.0
 10
228.4574834946011
 20
77.75677284504792
 30
0.0
 10
227.7245502860166
 20
77.84345930982236
 30
0.0
 10
226.6205274555125
 20
77.67826001234668
 30
0.0
 10
225.5797245352531
 20
77.28933828201909
 30
0.0
 10
224.6445379760743
 20
76.68431228660954
 30
0.0
 10
223.8638812192134
 20
75.88812822382232
 30
0.0
 10
223.2759252158367
 20
74.94375829074929
 30
0.0
 10
222.8801020317159
 20
73.89531501456625
 30
0.0
 10
222.8220387877165
 20
73.15619434593665
 30
0.0
 10
222.7929876984993
 20
72.78638620213334
 30
0.0
  0
SPLINE
  5
163
330
1F
100
AcDbEntity
  8
0
  6
Continuous
 62
     7
370
    15
100
AcDbSpline
210
0.0
220
0.0
230
1.0
 70
     8
 71
     3
 72
    15
 73
    11
 74
     0
 42
0.00000001
 43
0.00000001
 40
0.0
 40
0.0
 40
0.0
 40
0.0
 40
0.1242507383329018
 40
0.2486342929277865
 40
0.373543301615439
 40
0.4985839319264021
 40
0.6236668945760945
 40
0.7490739423946668
 40
0.8744400150810326
 40
0.9999999999999999
 40
0.9999999999999999
 40
0.9999999999999999
 40
0.9999999999999999
 10
225.7929788770119
 20
72.78638620213334
 30
0.0
 10
225.8065355424536
 20
72.93833971308436
 30
0.0
 10
225.8336633645638
 20
73.24240916377839
 30
0.0
 10
226.0081409788399
 20
73.66971876432754
 30
0.0
 10
226.2614693271109
 20
74.0513646601258
 30
0.0
 10
226.5912898014351
 20
74.37129985927452
 30
0.0
 10
226.9822209596787
 20
74.61186833798233
 30
0.0
 10
227.4149133910572
 20
74.76350670663112
 30
0.0
 10
227.8724457896986
 20
74.81693907293763
 30
0.0
 10
228.1743583065463
 20
74.77625848974343
 30
0.0
 10
228.3254312219063
 20
74.75590247944658
 30
0.0
  0
LINE
  5
164
330
1F
100
AcDbEntity
  8
0
  6
Continuous
 62
     7
370
    15
100
AcDbLine
 10
243.696038598
 20
57.3980464442
 30
0.0
 11
228.155066246
 21
54.781626056
 31
0.0
  0
LINE
  5
165
330
1F
100
AcDbEntity
  8
0
  6
Continuous
 62
     7
370
    15
100
AcDbLine
 10
228.6531375589
 20
51.8232687219
 30
0.0
 11
244.1940950097
 21
54.4396891101
 31
0.0
  0
LINE
  5
166
330
1F
100
AcDbEntity
  8
0
  6
Continuous
 62
     7
370
    15
100
AcDbLine
 10
228.3256547393
 20
74.7554703458
 30
0.0
 11
243.8666270914
 21
72.1390499576
 31
0.0
  0
LINE
  5
167
330
1F
100
AcDbEntity
  8
0
  6
Continuous
 62
     7
370
    15
100
AcDbLine
 10
244.3646835031
 20
75.0974221928
 30
0.0
 11
228.8237111511
 21
77.7138425811
 31
0.0
  0
SPLINE
  5
168
330
1F
100
AcDbEntity
  8
0
  6
Continuous
 62
     7
370
    15
100
AcDbSpline
210
0.0
220
0.0
230
1.0
 70
     8
 71
     3
 72
    12
 73
     8
 74
     0
 42
0.00000001
 43
0.00000001
 40
0.0
 40
0.0
 40
0.0
 40
0.0
 40
0.1526135397173891
 40
0.2973904856902686
 40
0.5623705157137553
 40
0.7966016097880517
 40
1.0
 40
1.0
 40
1.0
 40
1.0
 10
244.1937522830407
 20
54.43998713330095
 30
0.0
 10
244.4449720325686
 20
54.49272485039489
 30
0.0
 10
244.9345115810612
 20
54.59549224134713
 30
0.0
 10
245.7840321928054
 20
55.02474502455789
 30
0.0
 10
246.5960219345837
 20
55.76913919944543
 30
0.0
 10
247.1604719889657
 20
56.84017791649904
 30
0.0
 10
247.2421593903161
 20
57.57510640457844
 30
0.0
 10
247.280125492994
 20
57.9166813595659
 30
0.0
  0
SPLINE
  5
169
330
1F
100
AcDbEntity
  8
0
  6
Continuous
 62
     7
370
    15
100
AcDbSpline
210
0.0
220
0.0
230
1.0
 70
     8
 71
     3
 72
    11
 73
     7
 74
     0
 42
0.00000001
 43
0.00000001
 40
0.0
 40
0.0
 40
0.0
 40
0.0
 40
0.2003641189614822
 40
0.4328060802232906
 40
0.699024866168115
 40
0.9999999999999999
 40
0.9999999999999999
 40
0.9999999999999999
 40
0.9999999999999999
 10
244.2818032445351
 20
57.91668135956588
 30
0.0
 10
244.268576596631
 20
57.86025296464118
 30
0.0
 10
244.2400057444068
 20
57.73836211638319
 30
0.0
 10
244.1241109242012
 20
57.57266264207314
 30
0.0
 10
243.9393793181345
 20
57.43374498323192
 30
0.0
 10
243.781752679121
 20
57.41036393171939
 30
0.0
 10
243.6981098594109
 20
57.39795703724687
 30
0.0
  0
SPLINE
  5
16A
330
1F
100
AcDbEntity
  8
0
  6
Continuous
 62
     7
370
    15
100
AcDbSpline
210
0.0
220
0.0
230
1.0
 70
     8
 71
     3
 72
    12
 73
     8
 74
     0
 42
0.00000001
 43
0.00000001
 40
0.0
 40
0.0
 40
0.0
 40
0.0
 40
0.2034078427593986
 40
0.4376400322228931
 40
0.7026181682021735
 40
0.8473893355518703
 40
1.0
 40
1.0
 40
1.0
 40
1.0
 10
247.280125492994
 20
71.47530753449266
 30
0.0
 10
247.258684582934
 20
71.81831790431409
 30
0.0
 10
247.2125536155028
 20
72.55631830422499
 30
0.0
 10
246.7004567534642
 20
73.65343470340905
 30
0.0
 10
245.9252422532141
 20
74.43618202094976
 30
0.0
 10
245.0973952951758
 20
74.90590996940189
 30
0.0
 10
244.6134120627997
 20
75.03217722109129
 30
0.0
 10
244.3650411309639
 20
75.09697515801255
 30
0.0
  0
SPLINE
  5
16B
330
1F
100
AcDbEntity
  8
0
  6
Continuous
 62
     7
370
    15
100
AcDbSpline
210
0.0
220
0.0
230
1.0
 70
     8
 71
     3
 72
    12
 73
     8
 74
     0
 42
0.00000001
 43
0.00000001
 40
0.0
 40
0.0
 40
0.0
 40
0.0
 40
0.1555606298326515
 40
0.3022104918759382
 40
0.5679679576816538
 40
0.7999533683161958
 40
0.9999999999999999
 40
0.9999999999999999
 40
0.9999999999999999
 40
0.9999999999999999
 10
243.8647048415581
 20
72.13997382954423
 30
0.0
 10
243.9052520439284
 20
72.12422378666197
 30
0.0
 10
243.9840238384738
 20
72.09362588916296
 30
0.0
 10
244.1136506378157
 20
71.99858884757676
 30
0.0
 10
244.2280922835986
 20
71.85240905534194
 30
0.0
 10
244.2922197589014
 20
71.658156621624
 30
0.0
 10
244.2850999680263
 20
71.53317745716461
 30
0.0
 10
244.2818032445351
 20
71.47530753449266
 30
0.0
  0
LINE
  5
16C
330
1F
100
AcDbEntity
  8
0
  6
Continuous
 62
     7
370
    15
100
AcDbLine
 10
244.2809687795
 20
71.5253009303
 30
0.0
 11
244.2809687795
 21
71.2829186423
 31
0.0
  0
LINE
  5
16D
330
1F
100
AcDbEntity
  8
0
  6
Continuous
 62
     7
370
    15
100
AcDbLine
 10
244.2809687795
 20
58.2829071982
 30
0.0
 11
244.2809687795
 21
57.8666730626
 31
0.0
  0
LINE
  5
16E
330
1F
100
AcDbEntity
  8
0
  6
Continuous
 62
     7
370
    15
100
AcDbLine
 10
247.280959958
 20
57.8666730626
 30
0.0
 11
247.280959958
 21
58.285663913
 31
0.0
  0
LINE
  5
16F
330
1F
100
AcDbEntity
  8
0
  6
Continuous
 62
     7
370
    15
100
AcDbLine
 10
247.280959958
 20
71.2801619275
 30
0.0
 11
247.280959958
 21
71.5253009303
 31
0.0
  0
LINE
  5
170
330
1F
100
AcDbEntity
  8
0
  6
Continuous
 62
     7
370
    15
100
AcDbLine
 10
233.5802512111
 20
70.3829183085
 30
0.0
 11
231.9619702043
 21
70.3829183085
 31
0.0
  0
LINE
  5
171
330
1F
100
AcDbEntity
  8
0
  6
Continuous
 62
     7
370
    15
100
AcDbLine
 10
232.588891858
 20
69.5829196675
 30
0.0
 11
233.5802512111
 21
69.5829196675
 31
0.0
  0
LINE
  5
172
330
1F
100
AcDbEntity
  8
0
  6
Continuous
 62
     7
370
    15
100
AcDbLine
 10
233.9184777679
 20
71.6510518296
 30
0.0
 11
233.6519406976
 21
70.4428060754
 31
0.0
  0
LINE
  5
173
330
1F
100
AcDbEntity
  8
0
  6
Continuous
 62
     7
370
    15
100
AcDbLine
 10
234.4200955572
 20
70.2112569316
 30
0.0
 11
234.6996860446
 21
71.4787199004
 31
0.0
  0
SPLINE
  5
174
330
1F
100
AcDbEntity
  8
0
  6
Continuous
 62
     7
370
    15
100
AcDbSpline
210
0.0
220
0.0
230
1.0
 70
     8
 71
     3
 72
    11
 73
     7
 74
     0
 42
0.00000001
 43
0.00000001
 40
0.0
 40
0.0
 40
0.0
 40
0.0
 40
0.2541311630691059
 40
0.5022676364033828
 40
0.7495179365131207
 40
1.0
 40
1.0
 40
1.0
 40
1.0
 10
233.5802512111107
 20
69.58291966751878
 30
0.0
 10
233.6803396444062
 20
69.5931647917711
 30
0.0
 10
233.8781555289892
 20
69.61341336845383
 30
0.0
 10
234.1363071161385
 20
69.76743900535735
 30
0.0
 10
234.3397485334108
 20
69.98652023660532
 30
0.0
 10
234.4014845130401
 20
70.17357026199575
 30
0.0
 10
234.4325529279152
 20
70.26770253018205
 30
0.0
  0
LINE
  5
175
330
1F
100
AcDbEntity
  8
0
  6
Continuous
 62
     7
370
    15
100
AcDbLine
 10
233.1919716539
 20
541.9829143985
 30
0.0
 11
233.1919716539
 21
542.7829130395
 31
0.0
  0
LINE
  5
176
330
1F
100
AcDbEntity
  8
0
  6
Continuous
 62
     7
370
    15
100
AcDbLine
 10
233.1919716539
 20
526.7829104169
 30
0.0
 11
233.1919716539
 21
527.5829090579
 31
0.0
  0
ARC
  5
177
330
1F
100
AcDbEntity
  8
0
  6
Continuous
 62
     7
370
    15
100
AcDbCircle
 10
230.4619718065
 20
539.9757694671
 30
0.0
 40
3.807142857143182
100
AcDbArc
 50
54.6997515601
 51
125.3002484399
  0
LINE
  5
178
330
1F
100
AcDbEntity
  8
0
  6
Continuous
 62
     7
370
    15
100
AcDbLine
 10
228.2619671764
 20
543.0829181178
 30
0.0
 11
228.2619671764
 21
542.7829130395
 31
0.0
  0
LINE
  5
179
330
1F
100
AcDbEntity
  8
0
  6
Continuous
 62
     7
370
    15
100
AcDbLine
 10
232.6619671525
 20
542.7829130395
 30
0.0
 11
232.6619671525
 21
543.0829181178
 31
0.0
  0
LINE
  5
17A
330
1F
100
AcDbEntity
  8
0
  6
Continuous
 62
     7
370
    15
100
AcDbLine
 10
228.3619688692
 20
526.382918547
 30
0.0
 11
228.3619688692
 21
525.9829117759
 31
0.0
  0
LINE
  5
17B
330
1F
100
AcDbEntity
  8
0
  6
Continuous
 62
     7
370
    15
100
AcDbLine
 10
232.5619654598
 20
525.9829117759
 30
0.0
 11
232.5619654598
 21
526.382918547
 31
0.0
  0
ARC
  5
17C
330
1F
100
AcDbEntity
  8
0
  6
Continuous
 62
     7
370
    15
100
AcDbCircle
 10
228.5619718065
 20
526.7829123243
 30
0.0
 40
0.4000000000007731
100
AcDbArc
 50
270.0
 51
0.0
  0
ARC
  5
17D
330
1F
100
AcDbEntity
  8
0
  6
Continuous
 62
     7
370
    15
100
AcDbCircle
 10
232.3619718065
 20
526.7829123243
 30
0.0
 40
0.4000000000008015
100
AcDbArc
 50
180.0
 51
270.0
  0
LINE
  5
17E
330
1F
100
AcDbEntity
  8
0
  6
Continuous
 62
     7
370
    15
100
AcDbLine
 10
228.9619790258
 20
541.9829143985
 30
0.0
 11
228.9619790258
 21
541.5329142316
 31
0.0
  0
LINE
  5
17F
330
1F
100
AcDbEntity
  8
0
  6
Continuous
 62
     7
370
    15
100
AcDbLine
 10
228.9619790258
 20
540.532912205
 30
0.0
 11
228.9619790258
 21
540.0442137225
 31
0.0
  0
LINE
  5
180
330
1F
100
AcDbEntity
  8
0
  6
Continuous
 62
     7
370
    15
100
AcDbLine
 10
228.9619790258
 20
539.2480893834
 30
0.0
 11
228.9619790258
 21
539.0924020512
 31
0.0
  0
LINE
  5
181
330
1F
100
AcDbEntity
  8
0
  6
Continuous
 62
     7
370
    15
100
AcDbLine
 10
228.9619790258
 20
529.7932877047
 30
0.0
 11
228.9619790258
 21
529.0329112513
 31
0.0
  0
LINE
  5
182
330
1F
100
AcDbEntity
  8
0
  6
Continuous
 62
     7
370
    15
100
AcDbLine
 10
228.9619790258
 20
528.0329092248
 30
0.0
 11
228.9619790258
 21
527.5829090579
 31
0.0
  0
LINE
  5
183
330
1F
100
AcDbEntity
  8
0
  6
Continuous
 62
     7
370
    15
100
AcDbLine
 10
231.9619702043
 20
527.5829090579
 30
0.0
 11
231.9619702043
 21
528.0329092248
 31
0.0
  0
LINE
  5
184
330
1F
100
AcDbEntity
  8
0
  6
Continuous
 62
     7
370
    15
100
AcDbLine
 10
231.9619702043
 20
529.0329112513
 30
0.0
 11
231.9619702043
 21
529.5200600131
 31
0.0
  0
LINE
  5
185
330
1F
100
AcDbEntity
  8
0
  6
Continuous
 62
     7
370
    15
100
AcDbLine
 10
231.9619702043
 20
538.8279660447
 30
0.0
 11
231.9619702043
 21
539.0159143908
 31
0.0
  0
LINE
  5
186
330
1F
100
AcDbEntity
  8
0
  6
Continuous
 62
     7
370
    15
100
AcDbLine
 10
231.9619702043
 20
539.7709860309
 30
0.0
 11
231.9619702043
 21
540.532912205
 31
0.0
  0
LINE
  5
187
330
1F
100
AcDbEntity
  8
0
  6
Continuous
 62
     7
370
    15
100
AcDbLine
 10
231.9619702043
 20
541.5329142316
 30
0.0
 11
231.9619702043
 21
541.9829143985
 31
0.0
  0
SPLINE
  5
188
330
1F
100
AcDbEntity
  8
0
  6
Continuous
 62
     7
370
    15
100
AcDbSpline
210
0.0
220
0.0
230
1.0
 70
     8
 71
     3
 72
    15
 73
    11
 74
     0
 42
0.00000001
 43
0.00000001
 40
0.0
 40
0.0
 40
0.0
 40
0.0
 40
0.1355968094159872
 40
0.2953258255326759
 40
0.4038108321524486
 40
0.5319578481223808
 40
0.6738362643981046
 40
0.8261010483111174
 40
0.9126193603842679
 40
1.0
 40
1.0
 40
1.0
 40
1.0
 10
231.9619702042977
 20
529.3489648802645
 30
0.0
 10
232.0063524291503
 20
529.3416382466601
 30
0.0
 10
232.1030155973328
 20
529.3256810561708
 30
0.0
 10
232.3098661181959
 20
529.3733577557612
 30
0.0
 10
232.5031227144741
 20
529.4610723925309
 30
0.0
 10
232.6497106760177
 20
529.5807402817652
 30
0.0
 10
232.7484177524901
 20
529.7316482530216
 30
0.0
 10
232.7780741069902
 20
529.8534762246624
 30
0.0
 10
232.756904777961
 20
529.982727302234
 30
0.0
 10
232.7106470098969
 20
530.0494033391677
 30
0.0
 10
232.6874034346978
 20
530.0829066737062
 30
0.0
  0
SPLINE
  5
189
330
1F
100
AcDbEntity
  8
0
  6
Continuous
 62
     7
370
    15
100
AcDbSpline
210
0.0
220
0.0
230
1.0
 70
     8
 71
     3
 72
    20
 73
    16
 74
     0
 42
0.00000001
 43
0.00000001
 40
0.0
 40
0.0
 40
0.0
 40
0.0
 40
0.0607080703525387
 40
0.2265356748708075
 40
0.3908031508966114
 40
0.47059448168422
 40
0.5476204260356007
 40
0.6228574358877381
 40
0.7003372698834802
 40
0.7786473610714315
 40
0.8566576136431394
 40
0.9330986217031314
 40
0.9703734372930525
 40
0.9892322546654578
 40
1.0
 40
1.0
 40
1.0
 40
1.0
 10
228.2257722558419
 20
530.0829066737062
 30
0.0
 10
228.2720471242449
 20
530.0295752280659
 30
0.0
 10
228.4447244714634
 20
529.8305658548509
 30
0.0
 10
228.8616828953072
 20
529.8126389968949
 30
0.0
 10
229.426651881496
 20
529.7376137456099
 30
0.0
 10
229.9462621969166
 20
529.694676039063
 30
0.0
 10
230.3401532759716
 20
529.6641154635319
 30
0.0
 10
230.7330651018356
 20
529.6364434655031
 30
0.0
 10
231.1142264793619
 20
529.6051348231501
 30
0.0
 10
231.469950483363
 20
529.5726524940211
 30
0.0
 10
231.7725735742105
 20
529.5418505530702
 30
0.0
 10
231.9650906049276
 20
529.5189150358158
 30
0.0
 10
232.0532056804169
 20
529.5109086944157
 30
0.0
 10
232.0986328004978
 20
529.5031135272326
 30
0.0
 10
232.098083381387
 20
529.5070726674973
 30
0.0
 10
232.0978836955468
 20
529.508511613167
 30
0.0
  0
SPLINE
  5
18A
330
1F
100
AcDbEntity
  8
0
  6
Continuous
 62
     7
370
    15
100
AcDbSpline
210
0.0
220
0.0
230
1.0
 70
     8
 71
     3
 72
    18
 73
    14
 74
     0
 42
0.00000001
 43
0.00000001
 40
0.0
 40
0.0
 40
0.0
 40
0.0
 40
0.005750901312886
 40
0.1156365085951078
 40
0.2383915781740809
 40
0.3593074919734304
 40
0.4757058261774768
 40
0.587213241086234
 40
0.7047338023862616
 40
0.8265047115699417
 40
0.8891451544712452
 40
0.9517986728193887
 40
1.0
 40
1.0
 40
1.0
 40
1.0
 10
232.4685947837273
 20
538.729737590111
 30
0.0
 10
232.463947550722
 20
538.7326897859626
 30
0.0
 10
232.3705031026047
 20
538.7920511977491
 30
0.0
 10
232.1481967891411
 20
538.7982292568511
 30
0.0
 10
231.7567984315988
 20
538.8574317428884
 30
0.0
 10
231.2449202001437
 20
538.9029685314932
 30
0.0
 10
230.6938885054567
 20
538.949135336403
 30
0.0
 10
230.1317708705781
 20
538.9880148665425
 30
0.0
 10
229.5974908911303
 20
539.032768351414
 30
0.0
 10
229.1998504895667
 20
539.0738084932503
 30
0.0
 10
228.9851225788816
 20
539.0949561676654
 30
0.0
 10
228.8890754367666
 20
539.0972315443728
 30
0.0
 10
228.8736268789172
 20
539.0811538495569
 30
0.0
 10
228.8669096173683
 20
539.0741630299456
 30
0.0
  0
SPLINE
  5
18B
330
1F
100
AcDbEntity
  8
0
  6
Continuous
 62
     7
370
    15
100
AcDbSpline
210
0.0
220
0.0
230
1.0
 70
     8
 71
     3
 72
    12
 73
     8
 74
     0
 42
0.00000001
 43
0.00000001
 40
0.0
 40
0.0
 40
0.0
 40
0.0
 40
0.223685368258904
 40
0.4523160540566043
 40
0.6822439293227767
 40
0.9102242373701094
 40
1.0
 40
1.0
 40
1.0
 40
1.0
 10
228.167672628347
 20
539.8847563965685
 30
0.0
 10
228.1549312698164
 20
539.8422139781721
 30
0.0
 10
228.1291668621632
 20
539.7561885981088
 30
0.0
 10
228.2503235342147
 20
539.6645656811077
 30
0.0
 10
228.4819878723399
 20
539.5682428867217
 30
0.0
 10
228.7268507890188
 20
539.5057654664844
 30
0.0
 10
228.9101822947169
 20
539.5109897626143
 30
0.0
 10
228.9619790257851
 20
539.5124657853014
 30
0.0
  0
SPLINE
  5
18C
330
1F
100
AcDbEntity
  8
0
  6
Continuous
 62
     7
370
    15
100
AcDbSpline
210
0.0
220
0.0
230
1.0
 70
     8
 71
     3
 72
    19
 73
    15
 74
     0
 42
0.00000001
 43
0.00000001
 40
0.0
 40
0.0
 40
0.0
 40
0.0
 40
0.0979059402848396
 40
0.175376282072278
 40
0.2884837535259853
 40
0.3734533885407971
 40
0.4570019665054271
 40
0.616887723370319
 40
0.6796677411514015
 40
0.7634260667304875
 40
0.8137555502783114
 40
0.8702987031389112
 40
0.9324008463493529
 40
0.9999999999999999
 40
0.9999999999999999
 40
0.9999999999999999
 40
0.9999999999999999
 10
228.3439086617867
 20
539.3896355135805
 30
0.0
 10
228.3944180543364
 20
539.3632549199917
 30
0.0
 10
228.4848941730409
 20
539.316000071011
 30
0.0
 10
228.8595330646623
 20
539.255344519772
 30
0.0
 10
229.3460380414636
 20
539.2014864454254
 30
0.0
 10
229.9373754055442
 20
539.1482306440479
 30
0.0
 10
230.6914713477209
 20
539.0966876756154
 30
0.0
 10
231.3325814090924
 20
539.0297479476454
 30
0.0
 10
231.9818414913345
 20
538.9942304849801
 30
0.0
 10
232.3601867795236
 20
539.0724101295262
 30
0.0
 10
232.6120288450871
 20
539.1806213407455
 30
0.0
 10
232.7456197181972
 20
539.268934006519
 30
0.0
 10
232.807393713755
 20
539.3428026573289
 30
0.0
 10
232.73594950002
 20
539.4233126967284
 30
0.0
 10
232.6987134160439
 20
539.4652738078005
 30
0.0
  0
SPLINE
  5
18D
330
1F
100
AcDbEntity
  8
0
  6
Continuous
 62
     7
370
    15
100
AcDbSpline
210
0.0
220
0.0
230
1.0
 70
     8
 71
     3
 72
    25
 73
    21
 74
     0
 42
0.00000001
 43
0.00000001
 40
0.0
 40
0.0
 40
0.0
 40
0.0
 40
0.0176257056667395
 40
0.03449726915141
 40
0.0503151655171473
 40
0.0649735457748045
 40
0.0909441428182818
 40
0.1134365501153491
 40
0.1538391185375348
 40
0.1912339518788564
 40
0.2995700322177675
 40
0.3999626235214994
 40
0.501294712481956
 40
0.594904985856098
 40
0.6784883285335787
 40
0.7336284245074124
 40
0.8075182199401166
 40
0.8952813232319288
 40
0.9453086757064482
 40
0.9999999999999999
 40
0.9999999999999999
 40
0.9999999999999999
 40
0.9999999999999999
 10
232.3413984717766
 20
538.8396932585604
 30
0.0
 10
232.3811026895047
 20
538.8440832456121
 30
0.0
 10
232.4588123206146
 20
538.852675387553
 30
0.0
 10
232.5607050331083
 20
538.8986906815564
 30
0.0
 10
232.6417117766131
 20
538.9576366740305
 30
0.0
 10
232.7179167165054
 20
539.0412372948193
 30
0.0
 10
232.77097011845
 20
539.1448514708475
 30
0.0
 10
232.7951138366347
 20
539.2772160498546
 30
0.0
 10
232.7722405080289
 20
539.4090600395999
 30
0.0
 10
232.601000014989
 20
539.6542973093643
 30
0.0
 10
232.2582136804465
 20
539.7413541510094
 30
0.0
 10
231.7630998413032
 20
539.7999183163664
 30
0.0
 10
231.149888810436
 20
539.8582815289152
 30
0.0
 10
230.5004129785178
 20
539.9079091694902
 30
0.0
 10
229.9607162846669
 20
539.9473704844908
 30
0.0
 10
229.5146965027666
 20
539.9865545848925
 30
0.0
 10
229.1260098082484
 20
540.0247727700159
 30
0.0
 10
228.8658328636863
 20
540.0526372224426
 30
0.0
 10
228.7354060111158
 20
540.0751194038259
 30
0.0
 10
228.726733713625
 20
540.087580082271
 30
0.0
 10
228.7222044410149
 20
540.0940879090197
 30
0.0
  0
SPLINE
  5
18E
330
1F
100
AcDbEntity
  8
0
  6
Continuous
 62
     7
370
    15
100
AcDbSpline
210
0.0
220
0.0
230
1.0
 70
     8
 71
     3
 72
    12
 73
     8
 74
     0
 42
0.00000001
 43
0.00000001
 40
0.0
 40
0.0
 40
0.0
 40
0.0
 40
0.1756461954222045
 40
0.5723020993583655
 40
0.7586211437608602
 40
0.920748017050884
 40
1.0
 40
1.0
 40
1.0
 40
1.0
 10
228.810538524572
 20
539.275596926964
 30
0.0
 10
228.7449748343425
 20
539.2664262258011
 30
0.0
 10
228.5313508644644
 20
539.2365456382058
 30
0.0
 10
228.31543227076
 20
539.1626109147337
 30
0.0
 10
228.1542739900736
 20
538.9476945894125
 30
0.0
 10
228.1230708561644
 20
538.787446974972
 30
0.0
 10
228.1540456099462
 20
538.7087999458946
 30
0.0
 10
228.1642155589501
 20
538.6829777462847
 30
0.0
  0
LINE
  5
18F
330
1F
100
AcDbEntity
  8
0
  6
Continuous
 62
     7
370
    15
100
AcDbLine
 10
228.3217357339
 20
529.9851699574
 30
0.0
 11
227.2032694759
 21
529.9851699574
 31
0.0
  0
LINE
  5
190
330
1F
100
AcDbEntity
  8
0
  6
Continuous
 62
     7
370
    15
100
AcDbLine
 10
227.2032694759
 20
529.1851713164
 30
0.0
 11
228.9619790258
 21
529.1851713164
 31
0.0
  0
LINE
  5
191
330
1F
100
AcDbEntity
  8
0
  6
Continuous
 62
     7
370
    15
100
AcDbLine
 10
225.792978877
 20
542.7829130395
 30
0.0
 11
225.792978877
 21
542.8363784058
 31
0.0
  0
LINE
  5
192
330
1F
100
AcDbEntity
  8
0
  6
Continuous
 62
     7
370
    15
100
AcDbLine
 10
222.7929876985
 20
542.8363784058
 30
0.0
 11
222.7929876985
 21
542.7829130395
 31
0.0
  0
SPLINE
  5
193
330
1F
100
AcDbEntity
  8
0
  6
Continuous
 62
     7
370
    15
100
AcDbSpline
210
0.0
220
0.0
230
1.0
 70
     8
 71
     3
 72
    15
 73
    11
 74
     0
 42
0.00000001
 43
0.00000001
 40
0.0
 40
0.0
 40
0.0
 40
0.0
 40
0.1077555984635169
 40
0.23525132098926
 40
0.3627905294629136
 40
0.4902569079919491
 40
0.6176632052480955
 40
0.745097043409137
 40
0.8724966518631685
 40
1.0
 40
1.0
 40
1.0
 40
1.0
 10
222.8090362491051
 20
526.7829104168779
 30
0.0
 10
222.8255753777263
 20
526.4703881720046
 30
0.0
 10
222.8616834956488
 20
525.7880916417704
 30
0.0
 10
223.1978961904367
 20
524.778943748762
 30
0.0
 10
223.7559757180335
 20
523.8154650240609
 30
0.0
 10
224.5108009674185
 20
522.9945375296223
 30
0.0
 10
225.4259650672294
 20
522.359272082976
 30
0.0
 10
226.4532205244598
 20
521.9391112315584
 30
0.0
 10
227.5491981731444
 20
521.7253102009638
 30
0.0
 10
228.2849586099954
 20
521.7908346823119
 30
0.0
 10
228.6529885472695
 20
521.8236102564699
 30
0.0
  0
SPLINE
  5
194
330
1F
100
AcDbEntity
  8
0
  6
Continuous
 62
     7
370
    15
100
AcDbSpline
210
0.0
220
0.0
230
1.0
 70
     8
 71
     3
 72
    15
 73
    11
 74
     0
 42
0.00000001
 43
0.00000001
 40
0.0
 40
0.0
 40
0.0
 40
0.0
 40
0.1316483452905108
 40
0.2633125736960542
 40
0.3951891228075907
 40
0.5266691347667831
 40
0.6575482409241131
 40
0.7882151506106828
 40
0.9184604873266078
 40
1.0
 40
1.0
 40
1.0
 40
1.0
 10
228.155289763395
 20
524.7812970383532
 30
0.0
 10
228.0031117944121
 20
524.769482797036
 30
0.0
 10
227.6987374964726
 20
524.7458528890363
 30
0.0
 10
227.2478685192118
 20
524.8473203262787
 30
0.0
 10
226.8288473039737
 20
525.0341951186124
 30
0.0
 10
226.4584537874416
 20
525.3067838614475
 30
0.0
 10
226.1561808530639
 20
525.6526906100572
 30
0.0
 10
225.9370357382207
 20
526.0544041943463
 30
0.0
 10
225.8196730986447
 20
526.4407145260418
 30
0.0
 10
225.8094906960114
 20
526.6877853956169
 30
0.0
 10
225.8055703582207
 20
526.7829104168779
 30
0.0
  0
SPLINE
  5
195
330
1F
100
AcDbEntity
  8
0
  6
Continuous
 62
     7
370
    15
100
AcDbSpline
210
0.0
220
0.0
230
1.0
 70
     8
 71
     3
 72
    15
 73
    11
 74
     0
 42
0.00000001
 43
0.00000001
 40
0.0
 40
0.0
 40
0.0
 40
0.0
 40
0.1249271724452606
 40
0.2499156778186059
 40
0.3749661225157206
 40
0.4999574189332024
 40
0.6249212965006179
 40
0.749916905720849
 40
0.8748746059781706
 40
1.0
 40
1.0
 40
1.0
 40
1.0
 10
228.8238601626793
 20
547.713439057625
 30
0.0
 10
228.4574834946011
 20
547.756771652955
 30
0.0
 10
227.7245502860166
 20
547.8434581177293
 30
0.0
 10
226.6205274555125
 20
547.6782588202539
 30
0.0
 10
225.5797245352531
 20
547.2893370899262
 30
0.0
 10
224.6445379760743
 20
546.6843110945166
 30
0.0
 10
223.8638812192134
 20
545.8881270317295
 30
0.0
 10
223.2759252158367
 20
544.9437570986564
 30
0.0
 10
222.8801020317159
 20
543.8953138224733
 30
0.0
 10
222.8220387877165
 20
543.1561931538438
 30
0.0
 10
222.7929876984993
 20
542.7863850100405
 30
0.0
  0
SPLINE
  5
196
330
1F
100
AcDbEntity
  8
0
  6
Continuous
 62
     7
370
    15
100
AcDbSpline
210
0.0
220
0.0
230
1.0
 70
     8
 71
     3
 72
    15
 73
    11
 74
     0
 42
0.00000001
 43
0.00000001
 40
0.0
 40
0.0
 40
0.0
 40
0.0
 40
0.1242507383329018
 40
0.2486342929277865
 40
0.373543301615439
 40
0.4985839319264021
 40
0.6236668945760945
 40
0.7490739423946668
 40
0.8744400150810326
 40
0.9999999999999999
 40
0.9999999999999999
 40
0.9999999999999999
 40
0.9999999999999999
 10
225.7929788770119
 20
542.7863850100405
 30
0.0
 10
225.8065355424536
 20
542.9383385209915
 30
0.0
 10
225.8336633645638
 20
543.2424079716855
 30
0.0
 10
226.0081409788399
 20
543.6697175722347
 30
0.0
 10
226.2614693271109
 20
544.0513634680328
 30
0.0
 10
226.5912898014351
 20
544.3712986671816
 30
0.0
 10
226.9822209596787
 20
544.6118671458895
 30
0.0
 10
227.4149133910572
 20
544.7635055145381
 30
0.0
 10
227.8724457896986
 20
544.8169378808448
 30
0.0
 10
228.1743583065463
 20
544.7762572976505
 30
0.0
 10
228.3254312219063
 20
544.7559012873537
 30
0.0
  0
LINE
  5
197
330
1F
100
AcDbEntity
  8
0
  6
Continuous
 62
     7
370
    15
100
AcDbLine
 10
243.696038598
 20
527.3980452521
 30
0.0
 11
228.155066246
 21
524.7816248639
 31
0.0
  0
LINE
  5
198
330
1F
100
AcDbEntity
  8
0
  6
Continuous
 62
     7
370
    15
100
AcDbLine
 10
228.6531375589
 20
521.8232675298
 30
0.0
 11
244.1940950097
 21
524.439687918
 31
0.0
  0
LINE
  5
199
330
1F
100
AcDbEntity
  8
0
  6
Continuous
 62
     7
370
    15
100
AcDbLine
 10
228.3256547393
 20
544.7554691537
 30
0.0
 11
243.8666270914
 21
542.1390636666
 31
0.0
  0
LINE
  5
19A
330
1F
100
AcDbEntity
  8
0
  6
Continuous
 62
     7
370
    15
100
AcDbLine
 10
244.3646835031
 20
545.0974210008
 30
0.0
 11
228.8237111511
 21
547.713841389
 31
0.0
  0
SPLINE
  5
19B
330
1F
100
AcDbEntity
  8
0
  6
Continuous
 62
     7
370
    15
100
AcDbSpline
210
0.0
220
0.0
230
1.0
 70
     8
 71
     3
 72
    12
 73
     8
 74
     0
 42
0.00000001
 43
0.00000001
 40
0.0
 40
0.0
 40
0.0
 40
0.0
 40
0.1526135397173891
 40
0.2973904856902686
 40
0.5623705157137553
 40
0.7966016097880517
 40
1.0
 40
1.0
 40
1.0
 40
1.0
 10
244.1937522830407
 20
524.4399859412081
 30
0.0
 10
244.4449720325686
 20
524.4927236583019
 30
0.0
 10
244.9345115810612
 20
524.5954910492543
 30
0.0
 10
245.7840321928054
 20
525.0247438324649
 30
0.0
 10
246.5960219345837
 20
525.7691380073526
 30
0.0
 10
247.1604719889657
 20
526.8401767244062
 30
0.0
 10
247.2421593903161
 20
527.5751052124855
 30
0.0
 10
247.280125492994
 20
527.916680167473
 30
0.0
  0
SPLINE
  5
19C
330
1F
100
AcDbEntity
  8
0
  6
Continuous
 62
     7
370
    15
100
AcDbSpline
210
0.0
220
0.0
230
1.0
 70
     8
 71
     3
 72
    11
 73
     7
 74
     0
 42
0.00000001
 43
0.00000001
 40
0.0
 40
0.0
 40
0.0
 40
0.0
 40
0.2003641189614822
 40
0.4328060802232906
 40
0.699024866168115
 40
0.9999999999999999
 40
0.9999999999999999
 40
0.9999999999999999
 40
0.9999999999999999
 10
244.2818032445351
 20
527.916680167473
 30
0.0
 10
244.268576596631
 20
527.8602517725483
 30
0.0
 10
244.2400057444068
 20
527.7383609242904
 30
0.0
 10
244.1241109242012
 20
527.5726614499802
 30
0.0
 10
243.9393793181345
 20
527.4337437911391
 30
0.0
 10
243.781752679121
 20
527.4103627396265
 30
0.0
 10
243.6981098594109
 20
527.397955845154
 30
0.0
  0
SPLINE
  5
19D
330
1F
100
AcDbEntity
  8
0
  6
Continuous
 62
     7
370
    15
100
AcDbSpline
210
0.0
220
0.0
230
1.0
 70
     8
 71
     3
 72
    12
 73
     8
 74
     0
 42
0.00000001
 43
0.00000001
 40
0.0
 40
0.0
 40
0.0
 40
0.0
 40
0.2034078427593986
 40
0.4376400322228931
 40
0.7026181682021735
 40
0.8473893355518703
 40
1.0
 40
1.0
 40
1.0
 40
1.0
 10
247.280125492994
 20
541.4753063423998
 30
0.0
 10
247.258684582934
 20
541.8183167122213
 30
0.0
 10
247.2125536155028
 20
542.5563171121321
 30
0.0
 10
246.7004567534642
 20
543.6534335113164
 30
0.0
 10
245.9252422532141
 20
544.4361808288567
 30
0.0
 10
245.0973952951758
 20
544.905908777309
 30
0.0
 10
244.6134120627997
 20
545.0321760289985
 30
0.0
 10
244.3650411309639
 20
545.0969739659197
 30
0.0
  0
SPLINE
  5
19E
330
1F
100
AcDbEntity
  8
0
  6
Continuous
 62
     7
370
    15
100
AcDbSpline
210
0.0
220
0.0
230
1.0
 70
     8
 71
     3
 72
    12
 73
     8
 74
     0
 42
0.00000001
 43
0.00000001
 40
0.0
 40
0.0
 40
0.0
 40
0.0
 40
0.1555606298326515
 40
0.3022104918759382
 40
0.5679679576816538
 40
0.7999533683161958
 40
0.9999999999999999
 40
0.9999999999999999
 40
0.9999999999999999
 40
0.9999999999999999
 10
243.8647048415581
 20
542.1399726374514
 30
0.0
 10
243.9052520439284
 20
542.1242225945691
 30
0.0
 10
243.9840238384738
 20
542.09362469707
 30
0.0
 10
244.1136506378157
 20
541.9985876554838
 30
0.0
 10
244.2280922835986
 20
541.852407863249
 30
0.0
 10
244.2922197589014
 20
541.6581554295311
 30
0.0
 10
244.2850999680263
 20
541.5331762650717
 30
0.0
 10
244.2818032445351
 20
541.4753063423998
 30
0.0
  0
LINE
  5
19F
330
1F
100
AcDbEntity
  8
0
  6
Continuous
 62
     7
370
    15
100
AcDbLine
 10
244.2809687795
 20
541.5253146394
 30
0.0
 11
244.2809687795
 21
541.2829174502
 31
0.0
  0
LINE
  5
1A0
330
1F
100
AcDbEntity
  8
0
  6
Continuous
 62
     7
370
    15
100
AcDbLine
 10
244.2809687795
 20
528.2829060061
 30
0.0
 11
244.2809687795
 21
527.8666718705
 31
0.0
  0
LINE
  5
1A1
330
1F
100
AcDbEntity
  8
0
  6
Continuous
 62
     7
370
    15
100
AcDbLine
 10
247.280959958
 20
527.8666718705
 30
0.0
 11
247.280959958
 21
528.285662721
 31
0.0
  0
LINE
  5
1A2
330
1F
100
AcDbEntity
  8
0
  6
Continuous
 62
     7
370
    15
100
AcDbLine
 10
247.280959958
 20
541.2801607354
 30
0.0
 11
247.280959958
 21
541.5253146394
 31
0.0
  0
LINE
  5
1A3
330
1F
100
AcDbEntity
  8
0
  6
Continuous
 62
     7
370
    15
100
AcDbLine
 10
233.5802512111
 20
540.3829171164
 30
0.0
 11
231.9619702043
 21
540.3829171164
 31
0.0
  0
LINE
  5
1A4
330
1F
100
AcDbEntity
  8
0
  6
Continuous
 62
     7
370
    15
100
AcDbLine
 10
232.588891858
 20
539.5829184754
 30
0.0
 11
233.5802512111
 21
539.5829184754
 31
0.0
  0
LINE
  5
1A5
330
1F
100
AcDbEntity
  8
0
  6
Continuous
 62
     7
370
    15
100
AcDbLine
 10
233.9184777679
 20
541.6510506375
 30
0.0
 11
233.6519406976
 21
540.4428048833
 31
0.0
  0
LINE
  5
1A6
330
1F
100
AcDbEntity
  8
0
  6
Continuous
 62
     7
370
    15
100
AcDbLine
 10
234.4200955572
 20
540.2112557395
 30
0.0
 11
234.6996860446
 21
541.4787187083
 31
0.0
  0
SPLINE
  5
1A7
330
1F
100
AcDbEntity
  8
0
  6
Continuous
 62
     7
370
    15
100
AcDbSpline
210
0.0
220
0.0
230
1.0
 70
     8
 71
     3
 72
    11
 73
     7
 74
     0
 42
0.00000001
 43
0.00000001
 40
0.0
 40
0.0
 40
0.0
 40
0.0
 40
0.2541311630691059
 40
0.5022676364033828
 40
0.7495179365131207
 40
1.0
 40
1.0
 40
1.0
 40
1.0
 10
233.5802512111107
 20
539.5829184754259
 30
0.0
 10
233.6803396444062
 20
539.5931635996783
 30
0.0
 10
233.8781555289892
 20
539.613412176361
 30
0.0
 10
234.1363071161385
 20
539.7674378132645
 30
0.0
 10
234.3397485334108
 20
539.9865190445125
 30
0.0
 10
234.4014845130401
 20
540.1735690699029
 30
0.0
 10
234.4325529279152
 20
540.2677013380892
 30
0.0
  0
LINE
  5
1A8
330
1F
100
AcDbEntity
  8
0
  6
Continuous
 62
     7
370
    15
100
AcDbLine
 10
243.5605870428
 20
541.2829174502
 30
0.0
 11
243.5605870428
 21
528.2829060061
 31
0.0
  0
LINE
  5
1A9
330
1F
100
AcDbEntity
  8
0
  6
Continuous
 62
     7
370
    15
100
AcDbLine
 10
243.5605870428
 20
541.2829174502
 30
0.0
 11
246.2795572223
 21
541.2829174502
 31
0.0
  0
LWPOLYLINE
  5
1AA
330
1F
100
AcDbEntity
  8
0
  6
Continuous
 62
     7
370
    15
100
AcDbPolyline
 90
        9
 70
   128
 43
0.0
 10
247.0100717487
 20
540.0829120381
 10
246.9960348548
 20
540.3170241816
 10
246.9544755163
 20
540.5421360238
 10
246.8869583549
 20
540.7495899899
 10
246.7961208763
 20
540.9314437611
 10
246.6854201497
 20
541.0806788905
 10
246.5591179075
 20
541.1915733321
 10
246.422071928
 20
541.2598504527
 10
246.2795572223
 20
541.2829174502
  0
LINE
  5
1AB
330
1F
100
AcDbEntity
  8
0
  6
Continuous
 62
     7
370
    15
100
AcDbLine
 10
247.0100717487
 20
540.0829120381
 30
0.0
 11
247.0100717487
 21
529.4829114182
 31
0.0
  0
LWPOLYLINE
  5
1AC
330
1F
100
AcDbEntity
  8
0
  6
Continuous
 62
     7
370
    15
100
AcDbPolyline
 90
        9
 70
   128
 43
0.0
 10
246.2795572223
 20
528.2829060061
 10
246.422071928
 20
528.3059730037
 10
246.5591179075
 20
528.3742501243
 10
246.6854201497
 20
528.4851445659
 10
246.7961208763
 20
528.6343796952
 10
246.8869583549
 20
528.8162334664
 10
246.9544755163
 20
529.0236874326
 10
246.9960348548
 20
529.2487992747
 10
247.0100717487
 20
529.4829114182
  0
LINE
  5
1AD
330
1F
100
AcDbEntity
  8
0
  6
Continuous
 62
     7
370
    15
100
AcDbLine
 10
246.2795572223
 20
528.2829060061
 30
0.0
 11
243.5605870428
 21
528.2829060061
 31
0.0
  0
LINE
  5
1AE
330
1F
100
AcDbEntity
  8
0
  6
Continuous
 62
     7
370
    15
100
AcDbLine
 10
246.2795572223
 20
541.2829174502
 30
0.0
 11
247.231592411
 21
541.2829174502
 31
0.0
  0
LWPOLYLINE
  5
1AF
330
1F
100
AcDbEntity
  8
0
  6
Continuous
 62
     7
370
    15
100
AcDbPolyline
 90
        9
 70
   128
 43
0.0
 10
247.231592411
 20
541.2829174502
 10
247.3741071166
 20
541.2598504527
 10
247.511138195
 20
541.1915733321
 10
247.6374404373
 20
541.0806788905
 10
247.7481411638
 20
540.9314437611
 10
247.8389935436
 20
540.7495899899
 10
247.9064958038
 20
540.5421360238
 10
247.9480700435
 20
540.3170241816
 10
247.9621069374
 20
540.0829120381
  0
LINE
  5
1B0
330
1F
100
AcDbEntity
  8
0
  6
Continuous
 62
     7
370
    15
100
AcDbLine
 10
247.9621069374
 20
540.0829120381
 30
0.0
 11
247.0100717487
 21
540.0829120381
 31
0.0
  0
LINE
  5
1B1
330
1F
100
AcDbEntity
  8
0
  6
Continuous
 62
     7
370
    15
100
AcDbLine
 10
247.9621069374
 20
540.0829120381
 30
0.0
 11
247.9621069374
 21
529.4829114182
 31
0.0
  0
LINE
  5
1B2
330
1F
100
AcDbEntity
  8
0
  6
Continuous
 62
     7
370
    15
100
AcDbLine
 10
247.0100717487
 20
529.4829114182
 30
0.0
 11
247.9621069374
 21
529.4829114182
 31
0.0
  0
LINE
  5
1B3
330
1F
100
AcDbEntity
  8
0
  6
Continuous
 62
     7
370
    15
100
AcDbLine
 10
247.231592411
 20
528.2829060061
 30
0.0
 11
246.2795572223
 21
528.2829060061
 31
0.0
  0
LWPOLYLINE
  5
1B4
330
1F
100
AcDbEntity
  8
0
  6
Continuous
 62
     7
370
    15
100
AcDbPolyline
 90
        9
 70
   128
 43
0.0
 10
247.9621069374
 20
529.4829114182
 10
247.9480700435
 20
529.2487992747
 10
247.9064958038
 20
529.0236874326
 10
247.8389935436
 20
528.8162334664
 10
247.7481411638
 20
528.6343796952
 10
247.6374404373
 20
528.4851445659
 10
247.511138195
 20
528.3742501243
 10
247.3741071166
 20
528.3059730037
 10
247.231592411
 20
528.2829060061
  0
LINE
  5
1B5
330
1F
100
AcDbEntity
  8
0
  6
Continuous
 62
     7
370
    15
100
AcDbLine
 10
246.2795572223
 20
71.2829186423
 30
0.0
 11
247.231592411
 21
71.2829186423
 31
0.0
  0
LWPOLYLINE
  5
1B6
330
1F
100
AcDbEntity
  8
0
  6
Continuous
 62
     7
370
    15
100
AcDbPolyline
 90
        9
 70
   128
 43
0.0
 10
247.231592411
 20
71.2829186423
 10
247.3741071166
 20
71.2598516448
 10
247.511138195
 20
71.1915745242
 10
247.6374404373
 20
71.0806800826
 10
247.7481411638
 20
70.9314449532
 10
247.8389935436
 20
70.749591182
 10
247.9064958038
 20
70.5421372159
 10
247.9480700435
 20
70.3170253737
 10
247.9621069374
 20
70.0829132302
  0
LINE
  5
1B7
330
1F
100
AcDbEntity
  8
0
  6
Continuous
 62
     7
370
    15
100
AcDbLine
 10
247.9621069374
 20
70.0829132302
 30
0.0
 11
247.0100717487
 21
70.0829132302
 31
0.0
  0
LWPOLYLINE
  5
1B8
330
1F
100
AcDbEntity
  8
0
  6
Continuous
 62
     7
370
    15
100
AcDbPolyline
 90
        9
 70
   128
 43
0.0
 10
247.0100717487
 20
70.0829132302
 10
246.9960348548
 20
70.3170253737
 10
246.9544755163
 20
70.5421372159
 10
246.8869583549
 20
70.749591182
 10
246.7961208763
 20
70.9314449532
 10
246.6854201497
 20
71.0806800826
 10
246.5591179075
 20
71.1915745242
 10
246.422071928
 20
71.2598516448
 10
246.2795572223
 20
71.2829186423
  0
LINE
  5
1B9
330
1F
100
AcDbEntity
  8
0
  6
Continuous
 62
     7
370
    15
100
AcDbLine
 10
247.231592411
 20
58.2829071982
 30
0.0
 11
246.2795572223
 21
58.2829071982
 31
0.0
  0
LWPOLYLINE
  5
1BA
330
1F
100
AcDbEntity
  8
0
  6
Continuous
 62
     7
370
    15
100
AcDbPolyline
 90
        9
 70
   128
 43
0.0
 10
246.2795572223
 20
58.2829071982
 10
246.422071928
 20
58.3059741958
 10
246.5591179075
 20
58.3742513163
 10
246.6854201497
 20
58.4851457579
 10
246.7961208763
 20
58.6343808873
 10
246.8869583549
 20
58.8162346585
 10
246.9544755163
 20
59.0236886247
 10
246.9960348548
 20
59.2488004668
 10
247.0100717487
 20
59.4829126103
  0
LINE
  5
1BB
330
1F
100
AcDbEntity
  8
0
  6
Continuous
 62
     7
370
    15
100
AcDbLine
 10
247.0100717487
 20
59.4829126103
 30
0.0
 11
247.9621069374
 21
59.4829126103
 31
0.0
  0
LWPOLYLINE
  5
1BC
330
1F
100
AcDbEntity
  8
0
  6
Continuous
 62
     7
370
    15
100
AcDbPolyline
 90
        9
 70
   128
 43
0.0
 10
247.9621069374
 20
59.4829126103
 10
247.9480700435
 20
59.2488004668
 10
247.9064958038
 20
59.0236886247
 10
247.8389935436
 20
58.8162346585
 10
247.7481411638
 20
58.6343808873
 10
247.6374404373
 20
58.4851457579
 10
247.511138195
 20
58.3742513163
 10
247.3741071166
 20
58.3059741958
 10
247.231592411
 20
58.2829071982
  0
LINE
  5
1BD
330
1F
100
AcDbEntity
  8
0
  6
Continuous
 62
     7
370
    15
100
AcDbLine
 10
247.9621069374
 20
70.0829132302
 30
0.0
 11
247.9621069374
 21
59.4829126103
 31
0.0
  0
LINE
  5
1BE
330
1F
100
AcDbEntity
  8
0
  6
Continuous
 62
     7
370
    15
100
AcDbLine
 10
247.0100717487
 20
70.0829132302
 30
0.0
 11
247.0100717487
 21
59.4829126103
 31
0.0
  0
LINE
  5
1BF
330
1F
100
AcDbEntity
  8
0
  6
Continuous
 62
     7
370
    15
100
AcDbLine
 10
243.5605870428
 20
71.2829186423
 30
0.0
 11
243.5605870428
 21
58.2829071982
 31
0.0
  0
LINE
  5
1C0
330
1F
100
AcDbEntity
  8
0
  6
Continuous
 62
     7
370
    15
100
AcDbLine
 10
243.5605870428
 20
71.2829186423
 30
0.0
 11
246.2795572223
 21
71.2829186423
 31
0.0
  0
LINE
  5
1C1
330
1F
100
AcDbEntity
  8
0
  6
Continuous
 62
     7
370
    15
100
AcDbLine
 10
246.2795572223
 20
58.2829071982
 30
0.0
 11
243.5605870428
 21
58.2829071982
 31
0.0
  0
LINE
  5
1C2
330
1F
100
AcDbEntity
  8
0
  6
Continuous
 62
     7
370
    15
100
AcDbLine
 10
242.9819749536
 20
541.2829174502
 30
0.0
 11
243.5605870428
 21
541.2829174502
 31
0.0
  0
LINE
  5
1C3
330
1F
100
AcDbEntity
  8
0
  6
Continuous
 62
     7
370
    15
100
AcDbLine
 10
243.5605870428
 20
528.2829060061
 30
0.0
 11
242.9819749536
 21
528.2829060061
 31
0.0
  0
LINE
  5
1C4
330
1F
100
AcDbEntity
  8
0
  6
Continuous
 62
     7
370
    15
100
AcDbLine
 10
242.9819749536
 20
71.2829186423
 30
0.0
 11
243.5605870428
 21
71.2829186423
 31
0.0
  0
LINE
  5
1C5
330
1F
100
AcDbEntity
  8
0
  6
Continuous
 62
     7
370
    15
100
AcDbLine
 10
243.5605870428
 20
58.2829071982
 30
0.0
 11
242.9819749536
 21
58.2829071982
 31
0.0
  0
LINE
  5
1C6
330
1F
100
AcDbEntity
  8
0
  6
Continuous
 62
     7
370
    15
100
AcDbLine
 10
253.0819671096
 20
540.1829137309
 30
0.0
 11
251.5819715204
 21
540.1829137309
 31
0.0
  0
LINE
  5
1C7
330
1F
100
AcDbEntity
  8
0
  6
Continuous
 62
     7
370
    15
100
AcDbLine
 10
253.0819671096
 20
539.3829150899
 30
0.0
 11
253.0819671096
 21
537.8829195006
 31
0.0
  0
LINE
  5
1C8
330
1F
100
AcDbEntity
  8
0
  6
Continuous
 62
     7
370
    15
100
AcDbLine
 10
253.8819657506
 20
537.8829195006
 30
0.0
 11
253.8819657506
 21
539.3829150899
 31
0.0
  0
LINE
  5
1C9
330
1F
100
AcDbEntity
  8
0
  6
Continuous
 62
     7
370
    15
100
AcDbLine
 10
253.8819657506
 20
539.3829150899
 30
0.0
 11
255.3819762411
 21
539.3829150899
 31
0.0
  0
LINE
  5
1CA
330
1F
100
AcDbEntity
  8
0
  6
Continuous
 62
     7
370
    15
100
AcDbLine
 10
255.3819762411
 20
539.3829150899
 30
0.0
 11
255.3819762411
 21
540.1829137309
 31
0.0
  0
LINE
  5
1CB
330
1F
100
AcDbEntity
  8
0
  6
Continuous
 62
     7
370
    15
100
AcDbLine
 10
253.0819671096
 20
541.6829093202
 30
0.0
 11
253.0819671096
 21
540.1829137309
 31
0.0
  0
LINE
  5
1CC
330
1F
100
AcDbEntity
  8
0
  6
Continuous
 62
     7
370
    15
100
AcDbLine
 10
253.8819657506
 20
541.6829093202
 30
0.0
 11
253.0819671096
 21
541.6829093202
 31
0.0
  0
LINE
  5
1CD
330
1F
100
AcDbEntity
  8
0
  6
Continuous
 62
     7
370
    15
100
AcDbLine
 10
253.8819657506
 20
540.1829137309
 30
0.0
 11
253.8819657506
 21
541.6829093202
 31
0.0
  0
LINE
  5
1CE
330
1F
100
AcDbEntity
  8
0
  6
Continuous
 62
     7
370
    15
100
AcDbLine
 10
255.3819762411
 20
540.1829137309
 30
0.0
 11
253.8819657506
 21
540.1829137309
 31
0.0
  0
CIRCLE
  5
1CF
330
1F
100
AcDbEntity
  8
0
  6
Continuous
 62
     7
370
    15
100
AcDbCircle
 10
253.4819718065
 20
539.7829123242
 30
0.0
 40
2.999999999999972
  0
LINE
  5
1D0
330
1F
100
AcDbEntity
  8
0
  6
Continuous
 62
     7
370
    15
100
AcDbLine
 10
253.0819671096
 20
537.8829195006
 30
0.0
 11
253.8819657506
 21
537.8829195006
 31
0.0
  0
LINE
  5
1D1
330
1F
100
AcDbEntity
  8
0
  6
Continuous
 62
     7
370
    15
100
AcDbLine
 10
251.5819715204
 20
540.1829137309
 30
0.0
 11
251.5819715204
 21
539.3829150899
 31
0.0
  0
LINE
  5
1D2
330
1F
100
AcDbEntity
  8
0
  6
Continuous
 62
     7
370
    15
100
AcDbLine
 10
251.5819715204
 20
539.3829150899
 30
0.0
 11
253.0819671096
 21
539.3829150899
 31
0.0
  0
LINE
  5
1D3
330
1F
100
AcDbEntity
  8
0
  6
Continuous
 62
     7
370
    15
100
AcDbLine
 10
255.3819762411
 20
529.3829097255
 30
0.0
 11
255.3819762411
 21
530.1829083665
 31
0.0
  0
LINE
  5
1D4
330
1F
100
AcDbEntity
  8
0
  6
Continuous
 62
     7
370
    15
100
AcDbLine
 10
255.3819762411
 20
530.1829083665
 30
0.0
 11
253.8819657506
 21
530.1829083665
 31
0.0
  0
LINE
  5
1D5
330
1F
100
AcDbEntity
  8
0
  6
Continuous
 62
     7
370
    15
100
AcDbLine
 10
253.8819657506
 20
527.8829141362
 30
0.0
 11
253.8819657506
 21
529.3829097255
 31
0.0
  0
LINE
  5
1D6
330
1F
100
AcDbEntity
  8
0
  6
Continuous
 62
     7
370
    15
100
AcDbLine
 10
253.0819671096
 20
531.6829188569
 30
0.0
 11
253.0819671096
 21
530.1829083665
 31
0.0
  0
LINE
  5
1D7
330
1F
100
AcDbEntity
  8
0
  6
Continuous
 62
     7
370
    15
100
AcDbLine
 10
253.8819657506
 20
530.1829083665
 30
0.0
 11
253.8819657506
 21
531.6829188569
 31
0.0
  0
LINE
  5
1D8
330
1F
100
AcDbEntity
  8
0
  6
Continuous
 62
     7
370
    15
100
AcDbLine
 10
253.0819671096
 20
527.8829141362
 30
0.0
 11
253.8819657506
 21
527.8829141362
 31
0.0
  0
LINE
  5
1D9
330
1F
100
AcDbEntity
  8
0
  6
Continuous
 62
     7
370
    15
100
AcDbLine
 10
251.5819715204
 20
529.3829097255
 30
0.0
 11
253.0819671096
 21
529.3829097255
 31
0.0
  0
LINE
  5
1DA
330
1F
100
AcDbEntity
  8
0
  6
Continuous
 62
     7
370
    15
100
AcDbLine
 10
251.5819715204
 20
530.1829083665
 30
0.0
 11
251.5819715204
 21
529.3829097255
 31
0.0
  0
LINE
  5
1DB
330
1F
100
AcDbEntity
  8
0
  6
Continuous
 62
     7
370
    15
100
AcDbLine
 10
253.8819657506
 20
529.3829097255
 30
0.0
 11
255.3819762411
 21
529.3829097255
 31
0.0
  0
LINE
  5
1DC
330
1F
100
AcDbEntity
  8
0
  6
Continuous
 62
     7
370
    15
100
AcDbLine
 10
253.0819671096
 20
530.1829083665
 30
0.0
 11
251.5819715204
 21
530.1829083665
 31
0.0
  0
LINE
  5
1DD
330
1F
100
AcDbEntity
  8
0
  6
Continuous
 62
     7
370
    15
100
AcDbLine
 10
253.8819657506
 20
531.6829188569
 30
0.0
 11
253.0819671096
 21
531.6829188569
 31
0.0
  0
CIRCLE
  5
1DE
330
1F
100
AcDbEntity
  8
0
  6
Continuous
 62
     7
370
    15
100
AcDbCircle
 10
253.4819718065
 20
529.7829123242
 30
0.0
 40
3.0
  0
LINE
  5
1DF
330
1F
100
AcDbEntity
  8
0
  6
Continuous
 62
     7
370
    15
100
AcDbLine
 10
253.0819671096
 20
529.3829097255
 30
0.0
 11
253.0819671096
 21
527.8829141362
 31
0.0
  0
LINE
  5
1E0
330
1F
100
AcDbEntity
  8
0
  6
Continuous
 62
     7
370
    15
100
AcDbLine
 10
253.8819657506
 20
57.8829153283
 30
0.0
 11
253.8819657506
 21
59.3829109176
 31
0.0
  0
LINE
  5
1E1
330
1F
100
AcDbEntity
  8
0
  6
Continuous
 62
     7
370
    15
100
AcDbLine
 10
253.8819657506
 20
59.3829109176
 30
0.0
 11
255.3819762411
 21
59.3829109176
 31
0.0
  0
LINE
  5
1E2
330
1F
100
AcDbEntity
  8
0
  6
Continuous
 62
     7
370
    15
100
AcDbLine
 10
253.8819657506
 20
61.6829051478
 30
0.0
 11
253.0819671096
 21
61.6829051478
 31
0.0
  0
LINE
  5
1E3
330
1F
100
AcDbEntity
  8
0
  6
Continuous
 62
     7
370
    15
100
AcDbLine
 10
253.0819671096
 20
60.1829095586
 30
0.0
 11
251.5819715204
 21
60.1829095586
 31
0.0
  0
LINE
  5
1E4
330
1F
100
AcDbEntity
  8
0
  6
Continuous
 62
     7
370
    15
100
AcDbLine
 10
251.5819715204
 20
59.3829109176
 30
0.0
 11
253.0819671096
 21
59.3829109176
 31
0.0
  0
LINE
  5
1E5
330
1F
100
AcDbEntity
  8
0
  6
Continuous
 62
     7
370
    15
100
AcDbLine
 10
253.0819671096
 20
59.3829109176
 30
0.0
 11
253.0819671096
 21
57.8829153283
 31
0.0
  0
LINE
  5
1E6
330
1F
100
AcDbEntity
  8
0
  6
Continuous
 62
     7
370
    15
100
AcDbLine
 10
255.3819762411
 20
59.3829109176
 30
0.0
 11
255.3819762411
 21
60.1829095586
 31
0.0
  0
CIRCLE
  5
1E7
330
1F
100
AcDbEntity
  8
0
  6
Continuous
 62
     7
370
    15
100
AcDbCircle
 10
253.4819718065
 20
59.7829123242
 30
0.0
 40
3.0
  0
LINE
  5
1E8
330
1F
100
AcDbEntity
  8
0
  6
Continuous
 62
     7
370
    15
100
AcDbLine
 10
251.5819715204
 20
60.1829095586
 30
0.0
 11
251.5819715204
 21
59.3829109176
 31
0.0
  0
LINE
  5
1E9
330
1F
100
AcDbEntity
  8
0
  6
Continuous
 62
     7
370
    15
100
AcDbLine
 10
253.0819671096
 20
61.6829051478
 30
0.0
 11
253.0819671096
 21
60.1829095586
 31
0.0
  0
LINE
  5
1EA
330
1F
100
AcDbEntity
  8
0
  6
Continuous
 62
     7
370
    15
100
AcDbLine
 10
253.8819657506
 20
60.1829095586
 30
0.0
 11
253.8819657506
 21
61.6829051478
 31
0.0
  0
LINE
  5
1EB
330
1F
100
AcDbEntity
  8
0
  6
Continuous
 62
     7
370
    15
100
AcDbLine
 10
255.3819762411
 20
60.1829095586
 30
0.0
 11
253.8819657506
 21
60.1829095586
 31
0.0
  0
LINE
  5
1EC
330
1F
100
AcDbEntity
  8
0
  6
Continuous
 62
     7
370
    15
100
AcDbLine
 10
253.0819671096
 20
57.8829153283
 30
0.0
 11
253.8819657506
 21
57.8829153283
 31
0.0
  0
CIRCLE
  5
1ED
330
1F
100
AcDbEntity
  8
0
  6
Continuous
 62
     7
370
    15
100
AcDbCircle
 10
253.4819718065
 20
69.7829123242
 30
0.0
 40
3.0
  0
LINE
  5
1EE
330
1F
100
AcDbEntity
  8
0
  6
Continuous
 62
     7
370
    15
100
AcDbLine
 10
251.5819715204
 20
69.382916282
 30
0.0
 11
253.0819671096
 21
69.382916282
 31
0.0
  0
LINE
  5
1EF
330
1F
100
AcDbEntity
  8
0
  6
Continuous
 62
     7
370
    15
100
AcDbLine
 10
253.8819657506
 20
71.6829105122
 30
0.0
 11
253.0819671096
 21
71.6829105122
 31
0.0
  0
LINE
  5
1F0
330
1F
100
AcDbEntity
  8
0
  6
Continuous
 62
     7
370
    15
100
AcDbLine
 10
251.5819715204
 20
70.182914923
 30
0.0
 11
251.5819715204
 21
69.382916282
 31
0.0
  0
LINE
  5
1F1
330
1F
100
AcDbEntity
  8
0
  6
Continuous
 62
     7
370
    15
100
AcDbLine
 10
255.3819762411
 20
70.182914923
 30
0.0
 11
253.8819657506
 21
70.182914923
 31
0.0
  0
LINE
  5
1F2
330
1F
100
AcDbEntity
  8
0
  6
Continuous
 62
     7
370
    15
100
AcDbLine
 10
253.8819657506
 20
69.382916282
 30
0.0
 11
255.3819762411
 21
69.382916282
 31
0.0
  0
LINE
  5
1F3
330
1F
100
AcDbEntity
  8
0
  6
Continuous
 62
     7
370
    15
100
AcDbLine
 10
253.0819671096
 20
67.8829057916
 30
0.0
 11
253.8819657506
 21
67.8829057916
 31
0.0
  0
LINE
  5
1F4
330
1F
100
AcDbEntity
  8
0
  6
Continuous
 62
     7
370
    15
100
AcDbLine
 10
253.0819671096
 20
69.382916282
 30
0.0
 11
253.0819671096
 21
67.8829057916
 31
0.0
  0
LINE
  5
1F5
330
1F
100
AcDbEntity
  8
0
  6
Continuous
 62
     7
370
    15
100
AcDbLine
 10
253.0819671096
 20
70.182914923
 30
0.0
 11
251.5819715204
 21
70.182914923
 31
0.0
  0
LINE
  5
1F6
330
1F
100
AcDbEntity
  8
0
  6
Continuous
 62
     7
370
    15
100
AcDbLine
 10
253.8819657506
 20
70.182914923
 30
0.0
 11
253.8819657506
 21
71.6829105122
 31
0.0
  0
LINE
  5
1F7
330
1F
100
AcDbEntity
  8
0
  6
Continuous
 62
     7
370
    15
100
AcDbLine
 10
253.8819657506
 20
67.8829057916
 30
0.0
 11
253.8819657506
 21
69.382916282
 31
0.0
  0
LINE
  5
1F8
330
1F
100
AcDbEntity
  8
0
  6
Continuous
 62
     7
370
    15
100
AcDbLine
 10
255.3819762411
 20
69.382916282
 30
0.0
 11
255.3819762411
 21
70.182914923
 31
0.0
  0
LINE
  5
1F9
330
1F
100
AcDbEntity
  8
0
  6
Continuous
 62
     7
370
    15
100
AcDbLine
 10
253.0819671096
 20
71.6829105122
 30
0.0
 11
253.0819671096
 21
70.182914923
 31
0.0
  0
ARC
  5
1FA
330
1F
100
AcDbEntity
  8
0
  6
Continuous
 62
     7
370
    15
100
AcDbCircle
 10
253.4819718065
 20
544.7829123242
 30
0.0
 40
1.500000000000069
100
AcDbArc
 50
43.6028189726
 51
132.7273953127
  0
ARC
  5
1FB
330
1F
100
AcDbEntity
  8
0
  6
Continuous
 62
     7
370
    15
100
AcDbCircle
 10
253.4819718064
 20
524.7829123242
 30
0.0
 40
1.500000000000139
100
AcDbArc
 50
227.2726046868
 51
316.3971810272
  0
ARC
  5
1FC
330
1F
100
AcDbEntity
  8
0
  6
Continuous
 62
     7
370
    15
100
AcDbCircle
 10
242.9819718065
 20
534.7829123242
 30
0.0
 40
16.00000000000019
100
AcDbArc
 50
316.3971810272
 51
43.6028189726
  0
LINE
  5
1FD
330
1F
100
AcDbEntity
  8
0
  6
Continuous
 62
     7
370
    15
100
AcDbLine
 10
247.4819766225
 20
541.2829174502
 30
0.0
 11
252.46420967
 21
545.8847983582
 31
0.0
  0
LINE
  5
1FE
330
1F
100
AcDbEntity
  8
0
  6
Continuous
 62
     7
370
    15
100
AcDbLine
 10
252.46420967
 20
523.6810250981
 30
0.0
 11
247.4819766225
 21
528.2829060061
 31
0.0
  0
LINE
  5
1FF
330
1F
100
AcDbEntity
  8
0
  6
Continuous
 62
     7
370
    15
100
AcDbLine
 10
247.280959958
 20
541.2829174502
 30
0.0
 11
247.4819766225
 21
541.2829174502
 31
0.0
  0
LINE
  5
200
330
1F
100
AcDbEntity
  8
0
  6
Continuous
 62
     7
370
    15
100
AcDbLine
 10
247.4819766225
 20
528.2829060061
 30
0.0
 11
247.280959958
 21
528.2829060061
 31
0.0
  0
LINE
  5
201
330
1F
100
AcDbEntity
  8
0
  6
Continuous
 62
     7
370
    15
100
AcDbLine
 10
252.46420967
 20
53.6810262902
 30
0.0
 11
247.4819766225
 21
58.2829071982
 31
0.0
  0
ARC
  5
202
330
1F
100
AcDbEntity
  8
0
  6
Continuous
 62
     7
370
    15
100
AcDbCircle
 10
253.4819718065
 20
74.7829123242
 30
0.0
 40
1.499999999999989
100
AcDbArc
 50
43.6028189726
 51
132.7273953127
  0
ARC
  5
203
330
1F
100
AcDbEntity
  8
0
  6
Continuous
 62
     7
370
    15
100
AcDbCircle
 10
242.9819718065
 20
64.7829123242
 30
0.0
 40
16.00000000000011
100
AcDbArc
 50
316.3971810272
 51
43.6028189726
  0
ARC
  5
204
330
1F
100
AcDbEntity
  8
0
  6
Continuous
 62
     7
370
    15
100
AcDbCircle
 10
253.4819718064
 20
54.7829123242
 30
0.0
 40
1.500000000000113
100
AcDbArc
 50
227.2726046868
 51
316.3971810272
  0
LINE
  5
205
330
1F
100
AcDbEntity
  8
0
  6
Continuous
 62
     7
370
    15
100
AcDbLine
 10
247.4819766225
 20
71.2829186423
 30
0.0
 11
252.46420967
 21
75.8847995503
 31
0.0
  0
LINE
  5
206
330
1F
100
AcDbEntity
  8
0
  6
Continuous
 62
     7
370
    15
100
AcDbLine
 10
247.280959958
 20
71.2829186423
 30
0.0
 11
247.4819766225
 21
71.2829186423
 31
0.0
  0
LINE
  5
207
330
1F
100
AcDbEntity
  8
0
  6
Continuous
 62
     7
370
    15
100
AcDbLine
 10
247.4819766225
 20
58.2829071982
 30
0.0
 11
247.280959958
 21
58.2829071982
 31
0.0
  0
LINE
  5
208
330
1F
100
AcDbEntity
  8
0
  6
Continuous
 62
     7
370
    15
100
AcDbLine
 10
255.4819779338
 20
584.7829087479
 30
0.0
 11
270.4819785299
 21
584.7829087479
 31
0.0
  0
LINE
  5
209
330
1F
100
AcDbEntity
  8
0
  6
Continuous
 62
     7
370
    15
100
AcDbLine
 10
255.4819779338
 20
584.7829087479
 30
0.0
 11
255.4819779338
 21
599.7829242452
 31
0.0
  0
ARC
  5
20A
330
1F
100
AcDbEntity
  8
0
  6
Continuous
 62
     7
370
    15
100
AcDbCircle
 10
255.4819718065
 20
584.7829123242
 30
0.0
 40
15.0
100
AcDbArc
 50
0.0
 51
90.0
  0
LINE
  5
20B
330
1F
100
AcDbEntity
  8
0
  6
Continuous
 62
     7
370
    15
100
AcDbLine
 10
250.481967801
 20
584.7829087479
 30
0.0
 11
255.4819779338
 21
584.7829087479
 31
0.0
  0
LINE
  5
20C
330
1F
100
AcDbEntity
  8
0
  6
Continuous
 62
     7
370
    15
100
AcDbLine
 10
250.481967801
 20
599.7829242452
 30
0.0
 11
255.4819779338
 21
599.7829242452
 31
0.0
  0
LINE
  5
20D
330
1F
100
AcDbEntity
  8
0
  6
Continuous
 62
     7
370
    15
100
AcDbLine
 10
250.481967801
 20
584.7829087479
 30
0.0
 11
250.481967801
 21
599.7829242452
 31
0.0
  0
LINE
  5
20E
330
1F
100
AcDbEntity
  8
0
  6
Continuous
 62
     7
370
    15
100
AcDbLine
 10
255.4819779338
 20
54.7954245313
 30
0.0
 11
255.4819779338
 21
14.7829159005
 31
0.0
  0
LINE
  5
20F
330
1F
100
AcDbEntity
  8
0
  6
Continuous
 62
     7
370
    15
100
AcDbLine
 10
255.4819779338
 20
74.7704013093
 30
0.0
 11
255.4819779338
 21
524.7954233392
 31
0.0
  0
LINE
  5
210
330
1F
100
AcDbEntity
  8
0
  6
Continuous
 62
     7
370
    15
100
AcDbLine
 10
255.4819779338
 20
544.7704001172
 30
0.0
 11
255.4819779338
 21
584.7829087479
 31
0.0
  0
LINE
  5
211
330
1F
100
AcDbEntity
  8
0
  6
Continuous
 62
     7
370
    15
100
AcDbLine
 10
270.4819785299
 20
584.7829087479
 30
0.0
 11
270.4819785299
 21
14.7829159005
 31
0.0
  0
LINE
  5
212
330
1F
100
AcDbEntity
  8
0
  6
Continuous
 62
     7
370
    15
100
AcDbLine
 10
255.4819779338
 20
14.7829159005
 30
0.0
 11
270.4819785299
 21
14.7829159005
 31
0.0
  0
LINE
  5
213
330
1F
100
AcDbEntity
  8
0
  6
Continuous
 62
     7
370
    15
100
AcDbLine
 10
250.481967801
 20
544.0538926824
 30
0.0
 11
250.481967801
 21
584.7829087479
 31
0.0
  0
LINE
  5
214
330
1F
100
AcDbEntity
  8
0
  6
Continuous
 62
     7
370
    15
100
AcDbLine
 10
250.481967801
 20
74.0538938744
 30
0.0
 11
250.481967801
 21
525.511930774
 31
0.0
  0
LINE
  5
215
330
1F
100
AcDbEntity
  8
0
  6
Continuous
 62
     7
370
    15
100
AcDbLine
 10
250.481967801
 20
14.7829159005
 30
0.0
 11
255.4819779338
 21
14.7829159005
 31
0.0
  0
LINE
  5
216
330
1F
100
AcDbEntity
  8
0
  6
Continuous
 62
     7
370
    15
100
AcDbLine
 10
250.481967801
 20
55.5119319661
 30
0.0
 11
250.481967801
 21
14.7829159005
 31
0.0
  0
LINE
  5
217
330
1F
100
AcDbEntity
  8
0
  6
Continuous
 62
     7
370
    15
100
AcDbLine
 10
255.4819779338
 20
14.7829159005
 30
0.0
 11
255.4819779338
 21
-0.2170995967
 31
0.0
  0
ARC
  5
218
330
1F
100
AcDbEntity
  8
0
  6
Continuous
 62
     7
370
    15
100
AcDbCircle
 10
255.4819718065
 20
14.7829123242
 30
0.0
 40
15.00000000000003
100
AcDbArc
 50
270.0
 51
0.0
  0
LINE
  5
219
330
1F
100
AcDbEntity
  8
0
  6
Continuous
 62
     7
370
    15
100
AcDbLine
 10
250.481967801
 20
-0.2170995967
 30
0.0
 11
255.4819779338
 21
-0.2170995967
 31
0.0
  0
LINE
  5
21A
330
1F
100
AcDbEntity
  8
0
  6
Continuous
 62
     7
370
    15
100
AcDbLine
 10
250.481967801
 20
14.7829159005
 30
0.0
 11
250.481967801
 21
-0.2170995967
 31
0.0
  0
LINE
  5
21B
330
1F
100
AcDbEntity
  8
0
  6
Continuous
 62
     7
370
    15
100
AcDbLine
 10
233.6929039897
 20
60.0829078658
 30
0.0
 11
233.6929039897
 21
68.6829193337
 31
0.0
  0
LINE
  5
21C
330
1F
100
AcDbEntity
  8
0
  6
Continuous
 62
     7
370
    15
100
AcDbLine
 10
233.6929039897
 20
60.0829078658
 30
0.0
 11
228.1786100807
 21
60.0829078658
 31
0.0
  0
LINE
  5
21D
330
1F
100
AcDbEntity
  8
0
  6
Continuous
 62
     7
370
    15
100
AcDbLine
 10
228.1786100807
 20
60.0829078658
 30
0.0
 11
228.1786100807
 21
68.6829193337
 31
0.0
  0
LINE
  5
21E
330
1F
100
AcDbEntity
  8
0
  6
Continuous
 62
     7
370
    15
100
AcDbLine
 10
233.6929039897
 20
68.6829193337
 30
0.0
 11
228.1786100807
 21
68.6829193337
 31
0.0
  0
LINE
  5
21F
330
1F
100
AcDbEntity
  8
0
  6
Continuous
 62
     7
370
    15
100
AcDbLine
 10
227.0643459501
 20
71.9829155906
 30
0.0
 11
202.2522436323
 21
71.9829155906
 31
0.0
  0
LINE
  5
220
330
1F
100
AcDbEntity
  8
0
  6
Continuous
 62
     7
370
    15
100
AcDbLine
 10
227.0643459501
 20
68.6829193337
 30
0.0
 11
227.0643459501
 21
71.9829155906
 31
0.0
  0
LINE
  5
221
330
1F
100
AcDbEntity
  8
0
  6
Continuous
 62
     7
370
    15
100
AcDbLine
 10
227.0643459501
 20
57.58291025
 30
0.0
 11
227.0643459501
 21
60.0829078658
 31
0.0
  0
LINE
  5
222
330
1F
100
AcDbEntity
  8
0
  6
Continuous
 62
     7
370
    15
100
AcDbLine
 10
202.2522436323
 20
57.58291025
 30
0.0
 11
227.0643459501
 21
57.58291025
 31
0.0
  0
LINE
  5
223
330
1F
100
AcDbEntity
  8
0
  6
Continuous
 62
     7
370
    15
100
AcDbLine
 10
202.2522436323
 20
57.58291025
 30
0.0
 11
202.2522436323
 21
71.9829155906
 31
0.0
  0
LINE
  5
224
330
1F
100
AcDbEntity
  8
0
  6
Continuous
 62
     7
370
    15
100
AcDbLine
 10
227.0643459501
 20
60.0829078658
 30
0.0
 11
228.1786100807
 21
60.0829078658
 31
0.0
  0
LINE
  5
225
330
1F
100
AcDbEntity
  8
0
  6
Continuous
 62
     7
370
    15
100
AcDbLine
 10
227.0643459501
 20
68.6829193337
 30
0.0
 11
228.1786100807
 21
68.6829193337
 31
0.0
  0
LINE
  5
226
330
1F
100
AcDbEntity
  8
0
  6
Continuous
 62
     7
370
    15
100
AcDbLine
 10
227.1919743957
 20
56.7855640157
 30
0.0
 11
229.0841983499
 21
56.7855640157
 31
0.0
  0
LINE
  5
227
330
1F
100
AcDbEntity
  8
0
  6
Continuous
 62
     7
370
    15
100
AcDbLine
 10
229.0841983499
 20
56.7855640157
 30
0.0
 11
229.7569559755
 21
56.782911609
 31
0.0
  0
LINE
  5
228
330
1F
100
AcDbEntity
  8
0
  6
Continuous
 62
     7
370
    15
100
AcDbLine
 10
229.7569559755
 20
56.782911609
 30
0.0
 11
202.3911522569
 21
56.782911609
 31
0.0
  0
ARC
  5
229
330
1F
100
AcDbEntity
  8
0
  6
Continuous
 62
     7
370
    15
100
AcDbCircle
 10
203.5081509179
 20
57.3889219679
 30
0.0
 40
1.270800756943098
100
AcDbArc
 50
171.2194457622
 51
208.4813602857
  0
ARC
  5
22A
330
1F
100
AcDbEntity
  8
0
  6
Continuous
 62
     7
370
    15
100
AcDbCircle
 10
228.5385540581
 20
57.4099939892
 30
0.0
 40
1.484314514888937
100
AcDbArc
 50
173.3100976524
 51
204.877889688
  0
LINE
  5
22B
330
1F
100
AcDbEntity
  8
0
  6
Continuous
 62
     7
370
    15
100
AcDbLine
 10
229.0841983499
 20
72.7802618249
 30
0.0
 11
227.1919743957
 21
72.7802618249
 31
0.0
  0
ARC
  5
22C
330
1F
100
AcDbEntity
  8
0
  6
Continuous
 62
     7
370
    15
100
AcDbCircle
 10
228.5385540581
 20
72.1558318514
 30
0.0
 40
1.484314514888934
100
AcDbArc
 50
155.122110312
 51
186.6899023476
  0
ARC
  5
22D
330
1F
100
AcDbEntity
  8
0
  6
Continuous
 62
     7
370
    15
100
AcDbCircle
 10
203.5081509179
 20
72.1769038727
 30
0.0
 40
1.270800756943095
100
AcDbArc
 50
151.5186397143
 51
188.7805542378
  0
LINE
  5
22E
330
1F
100
AcDbEntity
  8
0
  6
Continuous
 62
     7
370
    15
100
AcDbLine
 10
202.3911522569
 20
72.7829142316
 30
0.0
 11
229.7569559755
 21
72.7829142316
 31
0.0
  0
LINE
  5
22F
330
1F
100
AcDbEntity
  8
0
  6
Continuous
 62
     7
370
    15
100
AcDbLine
 10
229.7569559755
 20
72.7829142316
 30
0.0
 11
229.0841983499
 21
72.7802618249
 31
0.0
  0
LINE
  5
230
330
1F
100
AcDbEntity
  8
0
  6
Continuous
 62
     7
370
    15
100
AcDbLine
 10
227.1919743957
 20
56.7855640157
 30
0.0
 11
227.1919743957
 21
57.58291025
 31
0.0
  0
LINE
  5
231
330
1F
100
AcDbEntity
  8
0
  6
Continuous
 62
     7
370
    15
100
AcDbLine
 10
227.2032694759
 20
60.0829078658
 30
0.0
 11
227.2032694759
 21
57.58291025
 31
0.0
  0
LINE
  5
232
330
1F
100
AcDbEntity
  8
0
  6
Continuous
 62
     7
370
    15
100
AcDbLine
 10
227.1919743957
 20
71.9829155906
 30
0.0
 11
227.1919743957
 21
72.7802618249
 31
0.0
  0
LINE
  5
233
330
1F
100
AcDbEntity
  8
0
  6
Continuous
 62
     7
370
    15
100
AcDbLine
 10
227.2032694759
 20
71.9829155906
 30
0.0
 11
227.2032694759
 21
68.6829193337
 31
0.0
  0
LINE
  5
234
330
1F
100
AcDbEntity
  8
0
  6
Continuous
 62
     7
370
    15
100
AcDbLine
 10
233.1919716539
 20
56.782911609
 30
0.0
 11
229.7569559755
 21
56.782911609
 31
0.0
  0
LINE
  5
235
330
1F
100
AcDbEntity
  8
0
  6
Continuous
 62
     7
370
    15
100
AcDbLine
 10
229.0841983499
 20
56.7855640157
 30
0.0
 11
229.0841983499
 21
57.58291025
 31
0.0
  0
LINE
  5
236
330
1F
100
AcDbEntity
  8
0
  6
Continuous
 62
     7
370
    15
100
AcDbLine
 10
233.1919716539
 20
57.58291025
 30
0.0
 11
229.0841983499
 21
57.58291025
 31
0.0
  0
LINE
  5
237
330
1F
100
AcDbEntity
  8
0
  6
Continuous
 62
     7
370
    15
100
AcDbLine
 10
229.0841983499
 20
71.9829155906
 30
0.0
 11
229.0841983499
 21
72.7802618249
 31
0.0
  0
LINE
  5
238
330
1F
100
AcDbEntity
  8
0
  6
Continuous
 62
     7
370
    15
100
AcDbLine
 10
233.1919716539
 20
72.7829142316
 30
0.0
 11
229.7569559755
 21
72.7829142316
 31
0.0
  0
LINE
  5
239
330
1F
100
AcDbEntity
  8
0
  6
Continuous
 62
     7
370
    15
100
AcDbLine
 10
233.1919716539
 20
71.9829155906
 30
0.0
 11
229.0841983499
 21
71.9829155906
 31
0.0
  0
LINE
  5
23A
330
1F
100
AcDbEntity
  8
0
  6
Continuous
 62
     7
370
    15
100
AcDbLine
 10
227.1919743957
 20
57.58291025
 30
0.0
 11
229.0841983499
 21
57.58291025
 31
0.0
  0
LINE
  5
23B
330
1F
100
AcDbEntity
  8
0
  6
Continuous
 62
     7
370
    15
100
AcDbLine
 10
227.1919743957
 20
71.9829155906
 30
0.0
 11
229.0841983499
 21
71.9829155906
 31
0.0
  0
LINE
  5
23C
330
1F
100
AcDbEntity
  8
0
  6
Continuous
 62
     7
370
    15
100
AcDbLine
 10
228.2619671764
 20
73.0829193099
 30
0.0
 11
232.6619671525
 21
73.0829193099
 31
0.0
  0
LINE
  5
23D
330
1F
100
AcDbEntity
  8
0
  6
Continuous
 62
     7
370
    15
100
AcDbLine
 10
228.3619688692
 20
56.382919739
 30
0.0
 11
232.5619654598
 21
56.382919739
 31
0.0
  0
LINE
  5
23E
330
1F
100
AcDbEntity
  8
0
  6
Continuous
 62
     7
370
    15
100
AcDbLine
 10
228.3619688692
 20
55.982912968
 30
0.0
 11
232.5619654598
 21
55.982912968
 31
0.0
  0
ARC
  5
23F
330
1F
100
AcDbEntity
  8
0
  6
Continuous
 62
     7
370
    15
100
AcDbCircle
 10
210.6578880722
 20
64.7829129203
 30
0.0
 40
16.90401408232907
100
AcDbArc
 50
154.7901718738
 51
205.2098281262
  0
SPLINE
  5
240
330
1F
100
AcDbEntity
  8
0
  6
Continuous
 62
     7
370
    15
100
AcDbSpline
210
0.0
220
0.0
230
1.0
 70
     8
 71
     3
 72
    12
 73
     8
 74
     0
 42
0.00000001
 43
0.00000001
 40
0.0
 40
0.0
 40
0.0
 40
0.0
 40
0.181883395813801
 40
0.363345223030703
 40
0.5550762443184742
 40
0.7712683290148971
 40
1.0
 40
1.0
 40
1.0
 40
1.0
 10
195.4962881149689
 20
56.78291160897079
 30
0.0
 10
195.5201482994314
 20
56.79023366533664
 30
0.0
 10
195.5678133653174
 20
56.80486080703598
 30
0.0
 10
195.5825626068727
 20
56.91686017736136
 30
0.0
 10
195.5553261605309
 20
57.0862387391512
 30
0.0
 10
195.4836554852177
 20
57.31466020393941
 30
0.0
 10
195.4045705626456
 20
57.49182914405898
 30
0.0
 10
195.3639136495034
 20
57.58291024998491
 30
0.0
  0
LINE
  5
241
330
1F
100
AcDbEntity
  8
0
  6
Continuous
 62
     7
370
    15
100
AcDbLine
 10
195.1119275631
 20
57.5374170049
 30
0.0
 11
195.4663740339
 21
56.782911609
 31
0.0
  0
ARC
  5
242
330
1F
100
AcDbEntity
  8
0
  6
Continuous
 62
     7
370
    15
100
AcDbCircle
 10
210.3825714625
 20
64.7829129203
 30
0.0
 40
16.90236007663538
100
AcDbArc
 50
154.6169609233
 51
205.3830390767
  0
LINE
  5
243
330
1F
100
AcDbEntity
  8
0
  6
Continuous
 62
     7
370
    15
100
AcDbLine
 10
195.4663740339
 20
72.7829142316
 30
0.0
 11
195.1119275631
 21
72.0284088357
 31
0.0
  0
SPLINE
  5
244
330
1F
100
AcDbEntity
  8
0
  6
Continuous
 62
     7
370
    15
100
AcDbSpline
210
0.0
220
0.0
230
1.0
 70
     8
 71
     3
 72
    12
 73
     8
 74
     0
 42
0.00000001
 43
0.00000001
 40
0.0
 40
0.0
 40
0.0
 40
0.0
 40
0.2510121095181576
 40
0.5023980275182197
 40
0.7402792926063967
 40
0.9473070668864495
 40
1.0
 40
1.0
 40
1.0
 40
1.0
 10
195.3639136495034
 20
71.98291559056108
 30
0.0
 10
195.4082319333692
 20
72.0827954846412
 30
0.0
 10
195.4969345001096
 20
72.28270401443635
 30
0.0
 10
195.5719202137174
 20
72.54142663828786
 30
0.0
 10
195.5834173040745
 20
72.71868303806725
 30
0.0
 10
195.5417697056479
 20
72.77909558159746
 30
0.0
 10
195.503959221812
 20
72.78227016280933
 30
0.0
 10
195.4962881149689
 20
72.78291423157518
 30
0.0
  0
LINE
  5
245
330
1F
100
AcDbEntity
  8
0
  6
Continuous
 62
     7
370
    15
100
AcDbLine
 10
195.496288115
 20
56.782911609
 30
0.0
 11
195.4663740339
 21
56.782911609
 31
0.0
  0
LINE
  5
246
330
1F
100
AcDbEntity
  8
0
  6
Continuous
 62
     7
370
    15
100
AcDbLine
 10
195.496288115
 20
72.7829142316
 30
0.0
 11
195.4663740339
 21
72.7829142316
 31
0.0
  0
LINE
  5
247
330
1F
100
AcDbEntity
  8
0
  6
Continuous
 62
     7
370
    15
100
AcDbLine
 10
197.3533900322
 20
71.9829155906
 30
0.0
 11
195.3639136495
 21
71.9829155906
 31
0.0
  0
LINE
  5
248
330
1F
100
AcDbEntity
  8
0
  6
Continuous
 62
     7
370
    15
100
AcDbLine
 10
197.3533900322
 20
57.58291025
 30
0.0
 11
197.3533900322
 21
71.9829155906
 31
0.0
  0
LINE
  5
249
330
1F
100
AcDbEntity
  8
0
  6
Continuous
 62
     7
370
    15
100
AcDbLine
 10
195.3639136495
 20
57.58291025
 30
0.0
 11
197.3533900322
 21
57.58291025
 31
0.0
  0
LWPOLYLINE
  5
24A
330
1F
100
AcDbEntity
  8
0
  6
Continuous
 62
     7
370
    15
100
AcDbPolyline
 90
        9
 70
   128
 43
0.0
 10
197.3533900322
 20
71.9829155906
 10
197.3481299223
 20
72.1389903529
 10
197.3325656595
 20
72.2890599473
 10
197.3072783889
 20
72.4273725255
 10
197.2732515873
 20
72.5485934718
 10
197.2317891063
 20
72.6480885251
 10
197.1844853701
 20
72.7220131858
 10
197.1331508698
 20
72.7675362332
 10
197.0797749104
 20
72.7829142316
  0
LINE
  5
24B
330
1F
100
AcDbEntity
  8
0
  6
Continuous
 62
     7
370
    15
100
AcDbLine
 10
195.496288115
 20
72.7829142316
 30
0.0
 11
197.0797749104
 21
72.7829142316
 31
0.0
  0
LWPOLYLINE
  5
24C
330
1F
100
AcDbEntity
  8
0
  6
Continuous
 62
     7
370
    15
100
AcDbPolyline
 90
        9
 70
   128
 43
0.0
 10
197.3533900322
 20
57.58291025
 10
197.3481299223
 20
57.4268354876
 10
197.3325656595
 20
57.2767658933
 10
197.3072783889
 20
57.1384533151
 10
197.2732515873
 20
57.0172323687
 10
197.2317891063
 20
56.9177373155
 10
197.1844853701
 20
56.8438126548
 10
197.1331508698
 20
56.7982896073
 10
197.0797749104
 20
56.782911609
  0
LINE
  5
24D
330
1F
100
AcDbEntity
  8
0
  6
Continuous
 62
     7
370
    15
100
AcDbLine
 10
197.0797749104
 20
56.782911609
 30
0.0
 11
195.496288115
 21
56.782911609
 31
0.0
  0
LINE
  5
24E
330
1F
100
AcDbEntity
  8
0
  6
Continuous
 62
     7
370
    15
100
AcDbLine
 10
202.2522436323
 20
71.9829155906
 30
0.0
 11
197.3533900322
 21
71.9829155906
 31
0.0
  0
LINE
  5
24F
330
1F
100
AcDbEntity
  8
0
  6
Continuous
 62
     7
370
    15
100
AcDbLine
 10
197.0797749104
 20
72.7829142316
 30
0.0
 11
202.3911522569
 21
72.7829142316
 31
0.0
  0
LINE
  5
250
330
1F
100
AcDbEntity
  8
0
  6
Continuous
 62
     7
370
    15
100
AcDbLine
 10
197.3533900322
 20
57.58291025
 30
0.0
 11
202.2522436323
 21
57.58291025
 31
0.0
  0
LINE
  5
251
330
1F
100
AcDbEntity
  8
0
  6
Continuous
 62
     7
370
    15
100
AcDbLine
 10
202.3911522569
 20
56.782911609
 30
0.0
 11
197.0797749104
 21
56.782911609
 31
0.0
  0
SPLINE
  5
252
330
1F
100
AcDbEntity
  8
0
  6
Continuous
 62
     7
370
    15
100
AcDbSpline
210
0.0
220
0.0
230
1.0
 70
     8
 71
     3
 72
    16
 73
    12
 74
     0
 42
0.00000001
 43
0.00000001
 40
0.0
 40
0.0
 40
0.0
 40
0.0
 40
0.1207066173428478
 40
0.2414140994291852
 40
0.3621161221902013
 40
0.4828242250540115
 40
0.6035297490179651
 40
0.72423647820977
 40
0.8449396443412759
 40
0.9656486508632849
 40
1.0
 40
1.0
 40
1.0
 40
1.0
 10
228.63427268881
 20
51.83054048851793
 30
0.0
 10
228.6536737013798
 20
51.8332182439607
 30
0.0
 10
228.6924758655084
 20
51.83857377402962
 30
0.0
 10
228.6973974967248
 20
52.12947945868856
 30
0.0
 10
228.660188602525
 20
52.58285539074334
 30
0.0
 10
228.5832606499247
 20
53.15036386774652
 30
0.0
 10
228.479456252706
 20
53.73870046459884
 30
0.0
 10
228.363362648773
 20
54.26539919426729
 30
0.0
 10
228.2563462968606
 20
54.6286745577185
 30
0.0
 10
228.1837765614709
 20
54.79915356945273
 30
0.0
 10
228.164225478159
 20
54.76599439461546
 30
0.0
 10
228.1598942222039
 20
54.75864846543138
 30
0.0
  0
SPLINE
  5
253
330
1F
100
AcDbEntity
  8
0
  6
Continuous
 62
     7
370
    15
100
AcDbSpline
210
0.0
220
0.0
230
1.0
 70
     8
 71
     3
 72
    16
 73
    12
 74
     0
 42
0.00000001
 43
0.00000001
 40
0.0
 40
0.0
 40
0.0
 40
0.0
 40
0.1205773093028023
 40
0.2411629940041617
 40
0.3617418042313628
 40
0.4823237930595241
 40
0.6029061009156373
 40
0.7234902030977304
 40
0.8440715231095615
 40
0.9646564239597908
 40
1.0
 40
1.0
 40
1.0
 40
1.0
 10
228.8048611821572
 20
77.70657081440751
 30
0.0
 10
228.8242622126232
 20
77.7038928448108
 30
0.0
 10
228.8630656211669
 20
77.69853671960341
 30
0.0
 10
228.8679855093208
 20
77.40761449714218
 30
0.0
 10
228.8307786003616
 20
76.95424452246013
 30
0.0
 10
228.7538463336315
 20
76.38674677061952
 30
0.0
 10
228.6500498636444
 20
75.79839608998734
 30
0.0
 10
228.5339311450829
 20
75.27175955781561
 30
0.0
 10
228.4269190536731
 20
74.90825641022613
 30
0.0
 10
228.3541571182153
 20
74.73773498558661
 30
0.0
 10
228.3345171764595
 20
74.7713136542576
 30
0.0
 10
228.3300654830376
 20
74.77892477349107
 30
0.0
  0
SPLINE
  5
254
330
1F
100
AcDbEntity
  8
0
  6
Continuous
 62
     7
370
    15
100
AcDbSpline
210
0.0
220
0.0
230
1.0
 70
     8
 71
     3
 72
    16
 73
    12
 74
     0
 42
0.00000001
 43
0.00000001
 40
0.0
 40
0.0
 40
0.0
 40
0.0
 40
0.1205177302061663
 40
0.2410325934015554
 40
0.3615499889352475
 40
0.4820676074668435
 40
0.6025845352465417
 40
0.7230999940129991
 40
0.8436164931761072
 40
0.9641310894240808
 40
0.9999999999999999
 40
0.9999999999999999
 40
0.9999999999999999
 40
0.9999999999999999
 10
244.1752450408379
 20
54.44696087673967
 30
0.0
 10
244.1946461406907
 20
54.44962887871957
 30
0.0
 10
244.2334478788613
 20
54.45496481920983
 30
0.0
 10
244.2383690325741
 20
54.7459234396924
 30
0.0
 10
244.201162613817
 20
55.1992579352826
 30
0.0
 10
244.1242324196496
 20
55.76678721558464
 30
0.0
 10
244.0204279897586
 20
56.35513441210707
 30
0.0
 10
243.9043417143253
 20
56.8817433048337
 30
0.0
 10
243.7972856263466
 20
57.24532503987459
 30
0.0
 10
243.7244326973719
 20
57.41592629346301
 30
0.0
 10
243.7047421480859
 20
57.38210989725997
 30
0.0
 10
243.7002258243004
 20
57.37435359791581
 30
0.0
  0
SPLINE
  5
255
330
1F
100
AcDbEntity
  8
0
  6
Continuous
 62
     7
370
    15
100
AcDbSpline
210
0.0
220
0.0
230
1.0
 70
     8
 71
     3
 72
    16
 73
    12
 74
     0
 42
0.00000001
 43
0.00000001
 40
0.0
 40
0.0
 40
0.0
 40
0.0
 40
0.1205181162498971
 40
0.2410328176295806
 40
0.3615500513441671
 40
0.4820646142895711
 40
0.6025813802507916
 40
0.723097164529483
 40
0.843617588722802
 40
0.9641311375853857
 40
1.0
 40
1.0
 40
1.0
 40
1.0
 10
244.3458186330239
 20
75.09015042618577
 30
0.0
 10
244.3652260585984
 20
75.08747625379084
 30
0.0
 10
244.4040403598397
 20
75.08212798477342
 30
0.0
 10
244.4089561412972
 20
74.79117403811289
 30
0.0
 10
244.3717529483336
 20
74.337841829444
 30
0.0
 10
244.2948175146069
 20
73.77031871358511
 30
0.0
 10
244.191023648457
 20
73.18198129371484
 30
0.0
 10
244.0749019205833
 20
72.65534054837605
 30
0.0
 10
243.9678842356895
 20
72.29177552288341
 30
0.0
 10
243.8950204937678
 20
72.12118590827676
 30
0.0
 10
243.8753305322045
 20
72.15500153763188
 30
0.0
 10
243.8708143176476
 20
72.16275770500962
 30
0.0
  0
SPLINE
  5
256
330
1F
100
AcDbEntity
  8
0
  6
Continuous
 62
     7
370
    15
100
AcDbSpline
210
0.0
220
0.0
230
1.0
 70
    24
 71
     3
 72
    16
 73
    12
 74
     0
 42
0.00000001
 43
0.00000001
 40
0.0
 40
0.0
 40
0.0
 40
0.0
 40
0.0611042412805948
 40
0.1864670502232474
 40
0.311832109630077
 40
0.4371980005123943
 40
0.5625599899456356
 40
0.68792400593719
 40
0.8132867973268191
 40
0.9386468025897463
 40
1.0
 40
1.0
 40
1.0
 40
1.0
 10
247.2521560134331
 20
57.9166813595659
 30
0.0
 10
247.257929036364
 20
57.91668135956593
 30
0.0
 10
247.2755461204526
 20
57.91668135956582
 30
0.0
 10
247.0571063325288
 20
57.91668135956598
 30
0.0
 10
246.6443787136109
 20
57.91668135956585
 30
0.0
 10
246.0879023241728
 20
57.91668135956593
 30
0.0
 10
245.4887932867496
 20
57.91668135956588
 30
0.0
 10
244.9301064838378
 20
57.91668135956596
 30
0.0
 10
244.5131504057962
 20
57.91668135956585
 30
0.0
 10
244.2901481847711
 20
57.91668135956598
 30
0.0
 10
244.3049639339463
 20
57.9166813595659
 30
0.0
 10
244.3098323287407
 20
57.9166813595659
 30
0.0
  0
SPLINE
  5
257
330
1F
100
AcDbEntity
  8
0
  6
Continuous
 62
     7
370
    15
100
AcDbSpline
210
0.0
220
0.0
230
1.0
 70
    24
 71
     3
 72
    16
 73
    12
 74
     0
 42
0.00000001
 43
0.00000001
 40
0.0
 40
0.0
 40
0.0
 40
0.0
 40
0.0610064913464802
 40
0.1861687543686247
 40
0.3113332642548242
 40
0.4364986042863799
 40
0.5616600491101023
 40
0.6868235172502032
 40
0.8119857627474041
 40
0.9371452265749375
 40
1.0
 40
1.0
 40
1.0
 40
1.0
 10
247.2521560134331
 20
71.47530753449266
 30
0.0
 10
247.2579290301398
 20
71.47530753449266
 30
0.0
 10
247.2755460952341
 20
71.47530753449257
 30
0.0
 10
247.0571065663433
 20
71.47530753449274
 30
0.0
 10
246.644377856931
 20
71.47530753449254
 30
0.0
 10
246.0879055170523
 20
71.47530753449271
 30
0.0
 10
245.4887813722405
 20
71.47530753449263
 30
0.0
 10
244.9301509497461
 20
71.4753075344926
 30
0.0
 10
244.5129844602903
 20
71.47530753449269
 30
0.0
 10
244.2894922310699
 20
71.47530753449263
 30
0.0
 10
244.3047138189336
 20
71.47530753449263
 30
0.0
 10
244.3098025264183
 20
71.47530753449266
 30
0.0
  0
SPLINE
  5
258
330
1F
100
AcDbEntity
  8
0
  6
Continuous
 62
     7
370
    15
100
AcDbSpline
210
0.0
220
0.0
230
1.0
 70
     8
 71
     3
 72
    19
 73
    15
 74
     0
 42
0.00000001
 43
0.00000001
 40
0.0
 40
0.0
 40
0.0
 40
0.0
 40
0.003953643606286
 40
0.1157767832426191
 40
0.2280457028451627
 40
0.3355275063018638
 40
0.4377157972172647
 40
0.5348805011114118
 40
0.6283084881993899
 40
0.7303075123809571
 40
0.8413439207008482
 40
0.9641174937051638
 40
0.9937689117660614
 40
1.0
 40
1.0
 40
1.0
 40
1.0
 10
233.5802512111107
 20
70.38291830853288
 30
0.0
 10
233.5806434719082
 20
70.38291126743512
 30
0.0
 10
233.5921302668357
 20
70.38270507898436
 30
0.0
 10
233.6154472323275
 20
70.3676394383547
 30
0.0
 10
233.6589207841853
 20
70.30069782398621
 30
0.0
 10
233.6969034486821
 20
70.196021921876
 30
0.0
 10
233.7203818425153
 20
70.07093947186199
 30
0.0
 10
233.7317238771655
 20
69.94250575441805
 30
0.0
 10
233.7323315669678
 20
69.82133641598098
 30
0.0
 10
233.7165331463937
 20
69.71210232268713
 30
0.0
 10
233.6761684302697
 20
69.62268923451037
 30
0.0
 10
233.6242810686497
 20
69.58763444037916
 30
0.0
 10
233.5895914535107
 20
69.58302261964033
 30
0.0
 10
233.5816331846793
 20
69.58293490021886
 30
0.0
 10
233.5802512111107
 20
69.58291966751878
 30
0.0
  0
SPLINE
  5
259
330
1F
100
AcDbEntity
  8
0
  6
Continuous
 62
     7
370
    15
100
AcDbSpline
210
0.0
220
0.0
230
1.0
 70
     8
 71
     3
 72
    30
 73
    26
 74
     0
 42
0.00000001
 43
0.00000001
 40
0.0
 40
0.0
 40
0.0
 40
0.0
 40
0.1247232616015811
 40
0.2494249701916693
 40
0.3741220461539542
 40
0.4367845043751706
 40
0.4681543241527593
 40
0.4838433442513496
 40
0.4916944920166305
 40
0.4956137147182473
 40
0.4975717612271945
 40
0.4985535315064625
 40
0.4990416657565275
 40
0.4992871083263445
 40
0.4994085232564097
 40
0.4994726374853025
 40
0.4995083546255512
 40
0.4995202603389674
 40
0.4995370975603503
 40
0.5609251010496817
 40
0.6646215493476941
 40
0.7325831335816372
 40
0.8111551208643246
 40
0.9002871034151999
 40
0.9999999999999999
 40
0.9999999999999999
 40
0.9999999999999999
 40
0.9999999999999999
 10
233.6519406976143
 20
70.44280607537095
 30
0.0
 10
233.6577100021343
 20
70.44101484632431
 30
0.0
 10
233.6692476142
 20
70.4374326977673
 30
0.0
 10
233.7590902597536
 20
70.41557854932296
 30
0.0
 10
233.8665632702561
 20
70.38990876480389
 30
0.0
 10
233.9521107099365
 20
70.3694943178943
 30
0.0
 10
233.9962217491857
 20
70.35897453467724
 30
0.0
 10
234.0184390342003
 20
70.35362121470867
 30
0.0
 10
234.0295842981514
 20
70.3509979286972
 30
0.0
 10
234.035143449293
 20
70.34962189603195
 30
0.0
 10
234.0379367269167
 20
70.34899995122221
 30
0.0
 10
234.0393156452391
 20
70.3486171767412
 30
0.0
 10
234.0400205310123
 20
70.34848835824306
 30
0.0
 10
234.0403605180478
 20
70.34837621696394
 30
0.0
 10
234.0405427391172
 20
70.34836553378135
 30
0.0
 10
234.0406251887317
 20
70.3483141087887
 30
0.0
 10
234.0406714857573
 20
70.34831609860706
 30
0.0
 10
234.0407002131709
 20
70.34832034969851
 30
0.0
 10
234.0565715530745
 20
70.32481975394073
 30
0.0
 10
234.1403219282185
 20
70.34175900276229
 30
0.0
 10
234.2224175394106
 20
70.30534578242697
 30
0.0
 10
234.3078376471179
 20
70.29163532506874
 30
0.0
 10
234.370858142462
 20
70.27781855360904
 30
0.0
 10
234.421561670583
 20
70.26848101722324
 30
0.0
 10
234.4287548320124
 20
70.26797154111972
 30
0.0
 10
234.4325529279152
 20
70.26770253018205
 30
0.0
  0
ELLIPSE
  5
25A
330
1F
100
AcDbEntity
  8
0
  6
Continuous
 62
     7
370
    15
100
AcDbEllipse
 10
234.3090802002
 20
71.564887503
 30
0.0
 11
0.3906095144045878
 21
-0.08616383961160068
 31
0.0
210
0.0
220
0.0
230
1.0
 40
0.0142285888
 41
0.0
 42
6.283185307179586
  0
LINE
  5
25B
330
1F
100
AcDbEntity
  8
0
  6
Continuous
 62
     7
370
    15
100
AcDbLine
 10
233.6929039897
 20
530.0829066737
 30
0.0
 11
233.6929039897
 21
538.6829181416
 31
0.0
  0
LINE
  5
25C
330
1F
100
AcDbEntity
  8
0
  6
Continuous
 62
     7
370
    15
100
AcDbLine
 10
228.1786100807
 20
530.0829066737
 30
0.0
 11
228.1786100807
 21
538.6829181416
 31
0.0
  0
LINE
  5
25D
330
1F
100
AcDbEntity
  8
0
  6
Continuous
 62
     7
370
    15
100
AcDbLine
 10
233.6929039897
 20
538.6829181416
 30
0.0
 11
228.1786100807
 21
538.6829181416
 31
0.0
  0
LINE
  5
25E
330
1F
100
AcDbEntity
  8
0
  6
Continuous
 62
     7
370
    15
100
AcDbLine
 10
233.6929039897
 20
530.0829066737
 30
0.0
 11
228.1786100807
 21
530.0829066737
 31
0.0
  0
LINE
  5
25F
330
1F
100
AcDbEntity
  8
0
  6
Continuous
 62
     7
370
    15
100
AcDbLine
 10
227.0643459501
 20
541.9829143985
 30
0.0
 11
202.2522436323
 21
541.9829143985
 31
0.0
  0
LINE
  5
260
330
1F
100
AcDbEntity
  8
0
  6
Continuous
 62
     7
370
    15
100
AcDbLine
 10
227.0643459501
 20
538.6829181416
 30
0.0
 11
227.0643459501
 21
541.9829143985
 31
0.0
  0
LINE
  5
261
330
1F
100
AcDbEntity
  8
0
  6
Continuous
 62
     7
370
    15
100
AcDbLine
 10
227.0643459501
 20
527.5829090579
 30
0.0
 11
227.0643459501
 21
530.0829066737
 31
0.0
  0
LINE
  5
262
330
1F
100
AcDbEntity
  8
0
  6
Continuous
 62
     7
370
    15
100
AcDbLine
 10
202.2522436323
 20
527.5829090579
 30
0.0
 11
227.0643459501
 21
527.5829090579
 31
0.0
  0
LINE
  5
263
330
1F
100
AcDbEntity
  8
0
  6
Continuous
 62
     7
370
    15
100
AcDbLine
 10
202.2522436323
 20
527.5829090579
 30
0.0
 11
202.2522436323
 21
541.9829143985
 31
0.0
  0
LINE
  5
264
330
1F
100
AcDbEntity
  8
0
  6
Continuous
 62
     7
370
    15
100
AcDbLine
 10
227.0643459501
 20
538.6829181416
 30
0.0
 11
228.1786100807
 21
538.6829181416
 31
0.0
  0
LINE
  5
265
330
1F
100
AcDbEntity
  8
0
  6
Continuous
 62
     7
370
    15
100
AcDbLine
 10
227.0643459501
 20
530.0829066737
 30
0.0
 11
228.1786100807
 21
530.0829066737
 31
0.0
  0
LINE
  5
266
330
1F
100
AcDbEntity
  8
0
  6
Continuous
 62
     7
370
    15
100
AcDbLine
 10
227.1919743957
 20
526.7855628236
 30
0.0
 11
229.0841983499
 21
526.7855628236
 31
0.0
  0
LINE
  5
267
330
1F
100
AcDbEntity
  8
0
  6
Continuous
 62
     7
370
    15
100
AcDbLine
 10
229.0841983499
 20
526.7855628236
 30
0.0
 11
229.7569559755
 21
526.7829104169
 31
0.0
  0
LINE
  5
268
330
1F
100
AcDbEntity
  8
0
  6
Continuous
 62
     7
370
    15
100
AcDbLine
 10
229.7569559755
 20
526.7829104169
 30
0.0
 11
202.3911522569
 21
526.7829104169
 31
0.0
  0
ARC
  5
269
330
1F
100
AcDbEntity
  8
0
  6
Continuous
 62
     7
370
    15
100
AcDbCircle
 10
203.5081509179
 20
527.3889207758
 30
0.0
 40
1.270800756943102
100
AcDbArc
 50
171.2194457622
 51
208.4813602857
  0
ARC
  5
26A
330
1F
100
AcDbEntity
  8
0
  6
Continuous
 62
     7
370
    15
100
AcDbCircle
 10
228.5385540581
 20
527.4099927971
 30
0.0
 40
1.48431451488894
100
AcDbArc
 50
173.3100976524
 51
204.877889688
  0
LINE
  5
26B
330
1F
100
AcDbEntity
  8
0
  6
Continuous
 62
     7
370
    15
100
AcDbLine
 10
229.0841983499
 20
542.7802606328
 30
0.0
 11
227.1919743957
 21
542.7802606328
 31
0.0
  0
ARC
  5
26C
330
1F
100
AcDbEntity
  8
0
  6
Continuous
 62
     7
370
    15
100
AcDbCircle
 10
228.5385540581
 20
542.1558306593
 30
0.0
 40
1.484314514888945
100
AcDbArc
 50
155.122110312
 51
186.6899023476
  0
ARC
  5
26D
330
1F
100
AcDbEntity
  8
0
  6
Continuous
 62
     7
370
    15
100
AcDbCircle
 10
203.5081509179
 20
542.1769026806
 30
0.0
 40
1.270800756943102
100
AcDbArc
 50
151.5186397143
 51
188.7805542378
  0
LINE
  5
26E
330
1F
100
AcDbEntity
  8
0
  6
Continuous
 62
     7
370
    15
100
AcDbLine
 10
202.3911522569
 20
542.7829130395
 30
0.0
 11
229.7569559755
 21
542.7829130395
 31
0.0
  0
LINE
  5
26F
330
1F
100
AcDbEntity
  8
0
  6
Continuous
 62
     7
370
    15
100
AcDbLine
 10
229.7569559755
 20
542.7829130395
 30
0.0
 11
229.0841983499
 21
542.7802606328
 31
0.0
  0
LINE
  5
270
330
1F
100
AcDbEntity
  8
0
  6
Continuous
 62
     7
370
    15
100
AcDbLine
 10
227.1919743957
 20
541.9829143985
 30
0.0
 11
227.1919743957
 21
542.7802606328
 31
0.0
  0
LINE
  5
271
330
1F
100
AcDbEntity
  8
0
  6
Continuous
 62
     7
370
    15
100
AcDbLine
 10
227.2032694759
 20
541.9829143985
 30
0.0
 11
227.2032694759
 21
538.6829181416
 31
0.0
  0
LINE
  5
272
330
1F
100
AcDbEntity
  8
0
  6
Continuous
 62
     7
370
    15
100
AcDbLine
 10
227.1919743957
 20
526.7855628236
 30
0.0
 11
227.1919743957
 21
527.5829090579
 31
0.0
  0
LINE
  5
273
330
1F
100
AcDbEntity
  8
0
  6
Continuous
 62
     7
370
    15
100
AcDbLine
 10
227.2032694759
 20
530.0829066737
 30
0.0
 11
227.2032694759
 21
527.5829090579
 31
0.0
  0
LINE
  5
274
330
1F
100
AcDbEntity
  8
0
  6
Continuous
 62
     7
370
    15
100
AcDbLine
 10
229.0841983499
 20
541.9829143985
 30
0.0
 11
229.0841983499
 21
542.7802606328
 31
0.0
  0
LINE
  5
275
330
1F
100
AcDbEntity
  8
0
  6
Continuous
 62
     7
370
    15
100
AcDbLine
 10
233.1919716539
 20
542.7829130395
 30
0.0
 11
229.7569559755
 21
542.7829130395
 31
0.0
  0
LINE
  5
276
330
1F
100
AcDbEntity
  8
0
  6
Continuous
 62
     7
370
    15
100
AcDbLine
 10
233.1919716539
 20
541.9829143985
 30
0.0
 11
229.0841983499
 21
541.9829143985
 31
0.0
  0
LINE
  5
277
330
1F
100
AcDbEntity
  8
0
  6
Continuous
 62
     7
370
    15
100
AcDbLine
 10
233.1919716539
 20
526.7829104169
 30
0.0
 11
229.7569559755
 21
526.7829104169
 31
0.0
  0
LINE
  5
278
330
1F
100
AcDbEntity
  8
0
  6
Continuous
 62
     7
370
    15
100
AcDbLine
 10
229.0841983499
 20
526.7855628236
 30
0.0
 11
229.0841983499
 21
527.5829090579
 31
0.0
  0
LINE
  5
279
330
1F
100
AcDbEntity
  8
0
  6
Continuous
 62
     7
370
    15
100
AcDbLine
 10
233.1919716539
 20
527.5829090579
 30
0.0
 11
229.0841983499
 21
527.5829090579
 31
0.0
  0
LINE
  5
27A
330
1F
100
AcDbEntity
  8
0
  6
Continuous
 62
     7
370
    15
100
AcDbLine
 10
227.1919743957
 20
541.9829143985
 30
0.0
 11
229.0841983499
 21
541.9829143985
 31
0.0
  0
LINE
  5
27B
330
1F
100
AcDbEntity
  8
0
  6
Continuous
 62
     7
370
    15
100
AcDbLine
 10
227.1919743957
 20
527.5829090579
 30
0.0
 11
229.0841983499
 21
527.5829090579
 31
0.0
  0
LINE
  5
27C
330
1F
100
AcDbEntity
  8
0
  6
Continuous
 62
     7
370
    15
100
AcDbLine
 10
228.2619671764
 20
543.0829181178
 30
0.0
 11
232.6619671525
 21
543.0829181178
 31
0.0
  0
LINE
  5
27D
330
1F
100
AcDbEntity
  8
0
  6
Continuous
 62
     7
370
    15
100
AcDbLine
 10
228.3619688692
 20
526.382918547
 30
0.0
 11
232.5619654598
 21
526.382918547
 31
0.0
  0
LINE
  5
27E
330
1F
100
AcDbEntity
  8
0
  6
Continuous
 62
     7
370
    15
100
AcDbLine
 10
228.3619688692
 20
525.9829117759
 30
0.0
 11
232.5619654598
 21
525.9829117759
 31
0.0
  0
ARC
  5
27F
330
1F
100
AcDbEntity
  8
0
  6
Continuous
 62
     7
370
    15
100
AcDbCircle
 10
210.6578880722
 20
534.7829117282
 30
0.0
 40
16.90401408232907
100
AcDbArc
 50
154.7901718738
 51
205.2098281262
  0
SPLINE
  5
280
330
1F
100
AcDbEntity
  8
0
  6
Continuous
 62
     7
370
    15
100
AcDbSpline
210
0.0
220
0.0
230
1.0
 70
     8
 71
     3
 72
    12
 73
     8
 74
     0
 42
0.00000001
 43
0.00000001
 40
0.0
 40
0.0
 40
0.0
 40
0.0
 40
0.1818837080735567
 40
0.36334584682646
 40
0.5550842991093163
 40
0.7712679363254195
 40
1.0
 40
1.0
 40
1.0
 40
1.0
 10
195.4962881149689
 20
526.7829104168779
 30
0.0
 10
195.5201483592799
 20
526.7902327328906
 30
0.0
 10
195.5678135447245
 20
526.8048603932816
 30
0.0
 10
195.582562063007
 20
526.9168572400386
 30
0.0
 10
195.5553286920555
 20
527.0862528082364
 30
0.0
 10
195.4836529457295
 20
527.314659265329
 30
0.0
 10
195.4045702326161
 20
527.4918268457023
 30
0.0
 10
195.3639136495034
 20
527.582909057892
 30
0.0
  0
LINE
  5
281
330
1F
100
AcDbEntity
  8
0
  6
Continuous
 62
     7
370
    15
100
AcDbLine
 10
195.1119275631
 20
527.5374158128
 30
0.0
 11
195.4663740339
 21
526.7829104169
 31
0.0
  0
ARC
  5
282
330
1F
100
AcDbEntity
  8
0
  6
Continuous
 62
     7
370
    15
100
AcDbCircle
 10
210.3825714625
 20
534.7829117282
 30
0.0
 40
16.90236007663538
100
AcDbArc
 50
154.6169609233
 51
205.3830390767
  0
LINE
  5
283
330
1F
100
AcDbEntity
  8
0
  6
Continuous
 62
     7
370
    15
100
AcDbLine
 10
195.4663740339
 20
542.7829130395
 30
0.0
 11
195.1119275631
 21
542.0284076436
 31
0.0
  0
SPLINE
  5
284
330
1F
100
AcDbEntity
  8
0
  6
Continuous
 62
     7
370
    15
100
AcDbSpline
210
0.0
220
0.0
230
1.0
 70
     8
 71
     3
 72
    12
 73
     8
 74
     0
 42
0.00000001
 43
0.00000001
 40
0.0
 40
0.0
 40
0.0
 40
0.0
 40
0.2510115209817573
 40
0.5023968495689679
 40
0.7402775569080239
 40
0.9473076809133472
 40
1.0
 40
1.0
 40
1.0
 40
1.0
 10
195.3639136495034
 20
541.9829143984682
 30
0.0
 10
195.4082319192931
 20
542.0827939109012
 30
0.0
 10
195.4969344578603
 20
542.2827016768334
 30
0.0
 10
195.5719203792183
 20
542.5414299334404
 30
0.0
 10
195.5834167991706
 20
542.7186676089422
 30
0.0
 10
195.5417704570303
 20
542.7791280127157
 30
0.0
 10
195.5039592316089
 20
542.7822746514728
 30
0.0
 10
195.4962881149689
 20
542.7829130394823
 30
0.0
  0
LINE
  5
285
330
1F
100
AcDbEntity
  8
0
  6
Continuous
 62
     7
370
    15
100
AcDbLine
 10
195.496288115
 20
526.7829104169
 30
0.0
 11
195.4663740339
 21
526.7829104169
 31
0.0
  0
LINE
  5
286
330
1F
100
AcDbEntity
  8
0
  6
Continuous
 62
     7
370
    15
100
AcDbLine
 10
195.496288115
 20
542.7829130395
 30
0.0
 11
195.4663740339
 21
542.7829130395
 31
0.0
  0
LINE
  5
287
330
1F
100
AcDbEntity
  8
0
  6
Continuous
 62
     7
370
    15
100
AcDbLine
 10
197.3533900322
 20
541.9829143985
 30
0.0
 11
195.3639136495
 21
541.9829143985
 31
0.0
  0
LINE
  5
288
330
1F
100
AcDbEntity
  8
0
  6
Continuous
 62
     7
370
    15
100
AcDbLine
 10
197.3533900322
 20
527.5829090579
 30
0.0
 11
197.3533900322
 21
541.9829143985
 31
0.0
  0
LINE
  5
289
330
1F
100
AcDbEntity
  8
0
  6
Continuous
 62
     7
370
    15
100
AcDbLine
 10
195.3639136495
 20
527.5829090579
 30
0.0
 11
197.3533900322
 21
527.5829090579
 31
0.0
  0
LWPOLYLINE
  5
28A
330
1F
100
AcDbEntity
  8
0
  6
Continuous
 62
     7
370
    15
100
AcDbPolyline
 90
        9
 70
   128
 43
0.0
 10
197.3533900322
 20
541.9829143985
 10
197.3481299223
 20
542.1389891608
 10
197.3325656595
 20
542.2890587552
 10
197.3072783889
 20
542.4273713334
 10
197.2732515873
 20
542.5485922797
 10
197.2317891063
 20
542.648087333
 10
197.1844853701
 20
542.7220119937
 10
197.1331508698
 20
542.7675350411
 10
197.0797749104
 20
542.7829130395
  0
LINE
  5
28B
330
1F
100
AcDbEntity
  8
0
  6
Continuous
 62
     7
370
    15
100
AcDbLine
 10
195.496288115
 20
542.7829130395
 30
0.0
 11
197.0797749104
 21
542.7829130395
 31
0.0
  0
LWPOLYLINE
  5
28C
330
1F
100
AcDbEntity
  8
0
  6
Continuous
 62
     7
370
    15
100
AcDbPolyline
 90
        9
 70
   128
 43
0.0
 10
197.3533900322
 20
527.5829090579
 10
197.3481299223
 20
527.4268342955
 10
197.3325656595
 20
527.2767647012
 10
197.3072783889
 20
527.138452123
 10
197.2732515873
 20
527.0172311767
 10
197.2317891063
 20
526.9177361234
 10
197.1844853701
 20
526.8438114627
 10
197.1331508698
 20
526.7982884152
 10
197.0797749104
 20
526.7829104169
  0
LINE
  5
28D
330
1F
100
AcDbEntity
  8
0
  6
Continuous
 62
     7
370
    15
100
AcDbLine
 10
197.0797749104
 20
526.7829104169
 30
0.0
 11
195.496288115
 21
526.7829104169
 31
0.0
  0
LINE
  5
28E
330
1F
100
AcDbEntity
  8
0
  6
Continuous
 62
     7
370
    15
100
AcDbLine
 10
202.2522436323
 20
541.9829143985
 30
0.0
 11
197.3533900322
 21
541.9829143985
 31
0.0
  0
LINE
  5
28F
330
1F
100
AcDbEntity
  8
0
  6
Continuous
 62
     7
370
    15
100
AcDbLine
 10
197.3533900322
 20
527.5829090579
 30
0.0
 11
202.2522436323
 21
527.5829090579
 31
0.0
  0
LINE
  5
290
330
1F
100
AcDbEntity
  8
0
  6
Continuous
 62
     7
370
    15
100
AcDbLine
 10
202.3911522569
 20
526.7829104169
 30
0.0
 11
197.0797749104
 21
526.7829104169
 31
0.0
  0
LINE
  5
291
330
1F
100
AcDbEntity
  8
0
  6
Continuous
 62
     7
370
    15
100
AcDbLine
 10
197.0797749104
 20
542.7829130395
 30
0.0
 11
202.3911522569
 21
542.7829130395
 31
0.0
  0
SPLINE
  5
292
330
1F
100
AcDbEntity
  8
0
  6
Continuous
 62
     7
370
    15
100
AcDbSpline
210
0.0
220
0.0
230
1.0
 70
     8
 71
     3
 72
    16
 73
    12
 74
     0
 42
0.00000001
 43
0.00000001
 40
0.0
 40
0.0
 40
0.0
 40
0.0
 40
0.1207067955157754
 40
0.2414158779518819
 40
0.3621180788790437
 40
0.4828234616598915
 40
0.6035291637951588
 40
0.7242360711600564
 40
0.8449394154593958
 40
0.9656486001578589
 40
1.0
 40
1.0
 40
1.0
 40
1.0
 10
228.63427268881
 20
521.8305392964251
 30
0.0
 10
228.6536737074978
 20
521.8332158329789
 30
0.0
 10
228.6924761124466
 20
521.8385689567968
 30
0.0
 10
228.6973973573423
 20
522.1294957337924
 30
0.0
 10
228.6601896740426
 20
522.5828646440849
 30
0.0
 10
228.583259230852
 20
523.1503669973945
 30
0.0
 10
228.4794564103611
 20
523.7386993762349
 30
0.0
 10
228.3633626064286
 20
524.2653979743139
 30
0.0
 10
228.2563463085883
 20
524.6286733733417
 30
0.0
 10
228.1837765607914
 20
524.7991523769131
 30
0.0
 10
228.1642254780357
 20
524.7659932024415
 30
0.0
 10
228.1598942222039
 20
524.7586472733385
 30
0.0
  0
SPLINE
  5
293
330
1F
100
AcDbEntity
  8
0
  6
Continuous
 62
     7
370
    15
100
AcDbSpline
210
0.0
220
0.0
230
1.0
 70
     8
 71
     3
 72
    16
 73
    12
 74
     0
 42
0.00000001
 43
0.00000001
 40
0.0
 40
0.0
 40
0.0
 40
0.0
 40
0.1205773093028023
 40
0.2411629940041617
 40
0.3617418042313628
 40
0.4823237930595241
 40
0.6029061009156373
 40
0.7234902030977304
 40
0.8440715231095615
 40
0.9646564239597908
 40
1.0
 40
1.0
 40
1.0
 40
1.0
 10
228.8048611821572
 20
547.7065696223146
 30
0.0
 10
228.8242622126232
 20
547.703891652718
 30
0.0
 10
228.8630656211669
 20
547.6985355275106
 30
0.0
 10
228.8679855093208
 20
547.4076133050493
 30
0.0
 10
228.8307786003616
 20
546.9542433303671
 30
0.0
 10
228.7538463336315
 20
546.3867455785268
 30
0.0
 10
228.6500498636444
 20
545.7983948978944
 30
0.0
 10
228.5339311450829
 20
545.2717583657227
 30
0.0
 10
228.4269190536731
 20
544.9082552181331
 30
0.0
 10
228.3541571182153
 20
544.7377337934938
 30
0.0
 10
228.3345171764595
 20
544.7713124621647
 30
0.0
 10
228.3300654830376
 20
544.7789235813982
 30
0.0
  0
SPLINE
  5
294
330
1F
100
AcDbEntity
  8
0
  6
Continuous
 62
     7
370
    15
100
AcDbSpline
210
0.0
220
0.0
230
1.0
 70
     8
 71
     3
 72
    16
 73
    12
 74
     0
 42
0.00000001
 43
0.00000001
 40
0.0
 40
0.0
 40
0.0
 40
0.0
 40
0.1205176402004448
 40
0.2410324133922535
 40
0.3615497189204739
 40
0.4820672474464318
 40
0.6025840852210076
 40
0.7231021263394293
 40
0.8436166099673077
 40
0.9641311162119002
 40
1.0
 40
1.0
 40
1.0
 40
1.0
 10
244.1752450408379
 20
524.4469596846468
 30
0.0
 10
244.194646138942
 20
524.4496276826749
 30
0.0
 10
244.2334478736152
 20
524.4549636152615
 30
0.0
 10
244.2383690535586
 20
524.7459222950206
 30
0.0
 10
244.2011625351229
 20
525.1992565653559
 30
0.0
 10
244.1242327134406
 20
525.7667866874041
 30
0.0
 10
244.0204261260321
 20
526.3551350909096
 30
0.0
 10
243.9043446631739
 20
526.8817561120604
 30
0.0
 10
243.7972841986021
 20
527.245321592934
 30
0.0
 10
243.7244327535452
 20
527.415925311224
 30
0.0
 10
243.7047421585663
 20
527.3821087443199
 30
0.0
 10
243.7002258243004
 20
527.374352405823
 30
0.0
  0
SPLINE
  5
295
330
1F
100
AcDbEntity
  8
0
  6
Continuous
 62
     7
370
    15
100
AcDbSpline
210
0.0
220
0.0
230
1.0
 70
     8
 71
     3
 72
    16
 73
    12
 74
     0
 42
0.00000001
 43
0.00000001
 40
0.0
 40
0.0
 40
0.0
 40
0.0
 40
0.1205181162498971
 40
0.2410328176295806
 40
0.3615500513441671
 40
0.4820646142895711
 40
0.6025813802507916
 40
0.723097164529483
 40
0.843617588722802
 40
0.9641311375853857
 40
1.0
 40
1.0
 40
1.0
 40
1.0
 10
244.3458186330239
 20
545.0901492340929
 30
0.0
 10
244.3652260585984
 20
545.087475061698
 30
0.0
 10
244.4040403598397
 20
545.0821267926805
 30
0.0
 10
244.4089561412972
 20
544.79117284602
 30
0.0
 10
244.3717529483336
 20
544.3378406373512
 30
0.0
 10
244.2948175146069
 20
543.7703175214923
 30
0.0
 10
244.191023648457
 20
543.181980101622
 30
0.0
 10
244.0749019205833
 20
542.6553393562832
 30
0.0
 10
243.9678842356895
 20
542.2917743307904
 30
0.0
 10
243.8950204937678
 20
542.1211847161837
 30
0.0
 10
243.8753305322045
 20
542.155000345539
 30
0.0
 10
243.8708143176476
 20
542.1627565129168
 30
0.0
  0
SPLINE
  5
296
330
1F
100
AcDbEntity
  8
0
  6
Continuous
 62
     7
370
    15
100
AcDbSpline
210
0.0
220
0.0
230
1.0
 70
    24
 71
     3
 72
    16
 73
    12
 74
     0
 42
0.00000001
 43
0.00000001
 40
0.0
 40
0.0
 40
0.0
 40
0.0
 40
0.0611042412805948
 40
0.1864670502232474
 40
0.311832109630077
 40
0.4371980005123943
 40
0.5625599899456356
 40
0.68792400593719
 40
0.8132867973268191
 40
0.9386468025897463
 40
1.0
 40
1.0
 40
1.0
 40
1.0
 10
247.2521560134331
 20
527.916680167473
 30
0.0
 10
247.257929036364
 20
527.916680167473
 30
0.0
 10
247.2755461204526
 20
527.916680167473
 30
0.0
 10
247.0571063325288
 20
527.9166801674729
 30
0.0
 10
246.6443787136109
 20
527.916680167473
 30
0.0
 10
246.0879023241728
 20
527.9166801674729
 30
0.0
 10
245.4887932867496
 20
527.916680167473
 30
0.0
 10
244.9301064838378
 20
527.916680167473
 30
0.0
 10
244.5131504057962
 20
527.916680167473
 30
0.0
 10
244.2901481847711
 20
527.9166801674729
 30
0.0
 10
244.3049639339463
 20
527.916680167473
 30
0.0
 10
244.3098323287407
 20
527.916680167473
 30
0.0
  0
SPLINE
  5
297
330
1F
100
AcDbEntity
  8
0
  6
Continuous
 62
     7
370
    15
100
AcDbSpline
210
0.0
220
0.0
230
1.0
 70
    24
 71
     3
 72
    16
 73
    12
 74
     0
 42
0.00000001
 43
0.00000001
 40
0.0
 40
0.0
 40
0.0
 40
0.0
 40
0.0610064913464802
 40
0.1861687543686247
 40
0.3113332642548242
 40
0.4364986042863799
 40
0.5616600491101023
 40
0.6868235172502032
 40
0.8119857627474041
 40
0.9371452265749375
 40
1.0
 40
1.0
 40
1.0
 40
1.0
 10
247.2521560134331
 20
541.4753063423998
 30
0.0
 10
247.2579290301398
 20
541.4753063423998
 30
0.0
 10
247.2755460952341
 20
541.4753063423998
 30
0.0
 10
247.0571065663433
 20
541.4753063423998
 30
0.0
 10
246.644377856931
 20
541.4753063423998
 30
0.0
 10
246.0879055170523
 20
541.4753063423998
 30
0.0
 10
245.4887813722405
 20
541.4753063423997
 30
0.0
 10
244.9301509497461
 20
541.4753063423998
 30
0.0
 10
244.5129844602903
 20
541.4753063423998
 30
0.0
 10
244.2894922310699
 20
541.4753063423998
 30
0.0
 10
244.3047138189336
 20
541.4753063423998
 30
0.0
 10
244.3098025264183
 20
541.4753063423998
 30
0.0
  0
SPLINE
  5
298
330
1F
100
AcDbEntity
  8
0
  6
Continuous
 62
     7
370
    15
100
AcDbSpline
210
0.0
220
0.0
230
1.0
 70
     8
 71
     3
 72
    19
 73
    15
 74
     0
 42
0.00000001
 43
0.00000001
 40
0.0
 40
0.0
 40
0.0
 40
0.0
 40
0.003953643606286
 40
0.1157767832426191
 40
0.2280457028451627
 40
0.3355275063018638
 40
0.4377157972172647
 40
0.5348805011114118
 40
0.6283084881993899
 40
0.7303075123809571
 40
0.8413439207008482
 40
0.9641174937051638
 40
0.9937689117660614
 40
1.0
 40
1.0
 40
1.0
 40
1.0
 10
233.5802512111107
 20
540.38291711644
 30
0.0
 10
233.5806434719082
 20
540.3829100753422
 30
0.0
 10
233.5921302668357
 20
540.3827038868927
 30
0.0
 10
233.6154472323275
 20
540.3676382462615
 30
0.0
 10
233.6589207841853
 20
540.3006966318933
 30
0.0
 10
233.6969034486821
 20
540.1960207297831
 30
0.0
 10
233.7203818425153
 20
540.070938279769
 30
0.0
 10
233.7317238771655
 20
539.9425045623252
 30
0.0
 10
233.7323315669678
 20
539.8213352238881
 30
0.0
 10
233.7165331463937
 20
539.7121011305943
 30
0.0
 10
233.6761684302697
 20
539.6226880424175
 30
0.0
 10
233.6242810686497
 20
539.5876332482861
 30
0.0
 10
233.5895914535107
 20
539.5830214275477
 30
0.0
 10
233.5816331846793
 20
539.5829337081259
 30
0.0
 10
233.5802512111107
 20
539.5829184754259
 30
0.0
  0
SPLINE
  5
299
330
1F
100
AcDbEntity
  8
0
  6
Continuous
 62
     7
370
    15
100
AcDbSpline
210
0.0
220
0.0
230
1.0
 70
     8
 71
     3
 72
    30
 73
    26
 74
     0
 42
0.00000001
 43
0.00000001
 40
0.0
 40
0.0
 40
0.0
 40
0.0
 40
0.1247232616015811
 40
0.2494249701916693
 40
0.3741220461539542
 40
0.4367845043751706
 40
0.4681543241527593
 40
0.4838433442513496
 40
0.4916944920166305
 40
0.4956137147182473
 40
0.4975717612271945
 40
0.4985535315064625
 40
0.4990416657565275
 40
0.4992871083263445
 40
0.4994085232564097
 40
0.4994726374853025
 40
0.4995083546255512
 40
0.4995202603389674
 40
0.4995370975603503
 40
0.5609251010496817
 40
0.6646215493476941
 40
0.7325831335816372
 40
0.8111551208643246
 40
0.9002871034151999
 40
0.9999999999999999
 40
0.9999999999999999
 40
0.9999999999999999
 40
0.9999999999999999
 10
233.6519406976143
 20
540.4428048832781
 30
0.0
 10
233.6577100021343
 20
540.4410136542315
 30
0.0
 10
233.6692476142
 20
540.4374315056745
 30
0.0
 10
233.7590902597536
 20
540.4155773572302
 30
0.0
 10
233.8665632702561
 20
540.3899075727106
 30
0.0
 10
233.9521107099365
 20
540.3694931258016
 30
0.0
 10
233.9962217491857
 20
540.3589733425845
 30
0.0
 10
234.0184390342003
 20
540.3536200226157
 30
0.0
 10
234.0295842981514
 20
540.3509967366043
 30
0.0
 10
234.035143449293
 20
540.349620703939
 30
0.0
 10
234.0379367269167
 20
540.3489987591292
 30
0.0
 10
234.0393156452391
 20
540.3486159846484
 30
0.0
 10
234.0400205310123
 20
540.34848716615
 30
0.0
 10
234.0403605180478
 20
540.348375024871
 30
0.0
 10
234.0405427391172
 20
540.3483643416886
 30
0.0
 10
234.0406251887317
 20
540.3483129166957
 30
0.0
 10
234.0406714857573
 20
540.3483149065142
 30
0.0
 10
234.0407002131709
 20
540.3483191576056
 30
0.0
 10
234.0565715530745
 20
540.3248185617451
 30
0.0
 10
234.1403219282185
 20
540.3417578107526
 30
0.0
 10
234.2224175394106
 20
540.3053445903174
 30
0.0
 10
234.3078376471179
 20
540.2916341329801
 30
0.0
 10
234.370858142462
 20
540.2778173615147
 30
0.0
 10
234.421561670583
 20
540.2684798251308
 30
0.0
 10
234.4287548320124
 20
540.2679703490271
 30
0.0
 10
234.4325529279152
 20
540.2677013380892
 30
0.0
  0
ELLIPSE
  5
29A
330
1F
100
AcDbEntity
  8
0
  6
Continuous
 62
     7
370
    15
100
AcDbEllipse
 10
234.3090802002
 20
541.564887503
 30
0.0
 11
0.3906095144045879
 21
-0.08616383961168594
 31
0.0
210
0.0
220
0.0
230
1.0
 40
0.0142285888
 41
0.0
 42
6.283185307179586
  0
LINE
  5
29B
330
1F
100
AcDbEntity
  8
0
  6
Continuous
 62
     7
370
    15
100
AcDbLine
 10
233.481978053
 20
59.0329124434
 30
0.0
 11
233.481978053
 21
58.0329104169
 31
0.0
  0
LINE
  5
29C
330
1F
100
AcDbEntity
  8
0
  6
Continuous
 62
     7
370
    15
100
AcDbLine
 10
233.481978053
 20
58.0329104169
 30
0.0
 11
227.2819774093
 21
58.0329104169
 31
0.0
  0
LINE
  5
29D
330
1F
100
AcDbEntity
  8
0
  6
Continuous
 62
     7
370
    15
100
AcDbLine
 10
227.2819774093
 20
59.0329124434
 30
0.0
 11
227.2819774093
 21
58.0329104169
 31
0.0
  0
LINE
  5
29E
330
1F
100
AcDbEntity
  8
0
  6
Continuous
 62
     7
370
    15
100
AcDbLine
 10
233.481978053
 20
59.0329124434
 30
0.0
 11
227.2819774093
 21
59.0329124434
 31
0.0
  0
LINE
  5
29F
330
1F
100
AcDbEntity
  8
0
  6
Continuous
 62
     7
370
    15
100
AcDbLine
 10
233.481978053
 20
71.5329154237
 30
0.0
 11
227.2819774093
 21
71.5329154237
 31
0.0
  0
LINE
  5
2A0
330
1F
100
AcDbEntity
  8
0
  6
Continuous
 62
     7
370
    15
100
AcDbLine
 10
233.481978053
 20
71.5329154237
 30
0.0
 11
233.481978053
 21
70.5329133971
 31
0.0
  0
LINE
  5
2A1
330
1F
100
AcDbEntity
  8
0
  6
Continuous
 62
     7
370
    15
100
AcDbLine
 10
233.481978053
 20
70.5329133971
 30
0.0
 11
227.2819774093
 21
70.5329133971
 31
0.0
  0
LINE
  5
2A2
330
1F
100
AcDbEntity
  8
0
  6
Continuous
 62
     7
370
    15
100
AcDbLine
 10
227.2819774093
 20
71.5329154237
 30
0.0
 11
227.2819774093
 21
70.5329133971
 31
0.0
  0
LINE
  5
2A3
330
1F
100
AcDbEntity
  8
0
  6
Continuous
 62
     7
370
    15
100
AcDbLine
 10
233.481978053
 20
541.5329142316
 30
0.0
 11
227.2819774093
 21
541.5329142316
 31
0.0
  0
LINE
  5
2A4
330
1F
100
AcDbEntity
  8
0
  6
Continuous
 62
     7
370
    15
100
AcDbLine
 10
233.481978053
 20
541.5329142316
 30
0.0
 11
233.481978053
 21
540.532912205
 31
0.0
  0
LINE
  5
2A5
330
1F
100
AcDbEntity
  8
0
  6
Continuous
 62
     7
370
    15
100
AcDbLine
 10
233.481978053
 20
540.532912205
 30
0.0
 11
227.2819774093
 21
540.532912205
 31
0.0
  0
LINE
  5
2A6
330
1F
100
AcDbEntity
  8
0
  6
Continuous
 62
     7
370
    15
100
AcDbLine
 10
227.2819774093
 20
541.5329142316
 30
0.0
 11
227.2819774093
 21
540.532912205
 31
0.0
  0
LINE
  5
2A7
330
1F
100
AcDbEntity
  8
0
  6
Continuous
 62
     7
370
    15
100
AcDbLine
 10
233.481978053
 20
529.0329112513
 30
0.0
 11
233.481978053
 21
528.0329092248
 31
0.0
  0
LINE
  5
2A8
330
1F
100
AcDbEntity
  8
0
  6
Continuous
 62
     7
370
    15
100
AcDbLine
 10
227.2819774093
 20
529.0329112513
 30
0.0
 11
227.2819774093
 21
528.0329092248
 31
0.0
  0
LINE
  5
2A9
330
1F
100
AcDbEntity
  8
0
  6
Continuous
 62
     7
370
    15
100
AcDbLine
 10
233.481978053
 20
529.0329112513
 30
0.0
 11
227.2819774093
 21
529.0329112513
 31
0.0
  0
LINE
  5
2AA
330
1F
100
AcDbEntity
  8
0
  6
Continuous
 62
     7
370
    15
100
AcDbLine
 10
233.481978053
 20
528.0329092248
 30
0.0
 11
227.2819774093
 21
528.0329092248
 31
0.0
  0
LWPOLYLINE
  5
2AB
330
1F
100
AcDbEntity
  8
0
  6
Continuous
 62
     7
370
    15
100
AcDbPolyline
 90
        3
 70
   128
 43
0.0
 10
227.2032694759
 20
58.4217711194
 10
227.2058473768
 20
58.4156020387
 10
227.2819774093
 20
58.0329104169
  0
LWPOLYLINE
  5
2AC
330
1F
100
AcDbEntity
  8
0
  6
Continuous
 62
     7
370
    15
100
AcDbPolyline
 90
        3
 70
   128
 43
0.0
 10
227.2819774093
 20
71.5329154237
 10
227.2058473768
 20
71.1502238019
 10
227.2032694759
 20
71.1440547212
  0
LINE
  5
2AD
330
1F
100
AcDbEntity
  8
0
  6
Continuous
 62
     7
370
    15
100
AcDbLine
 10
233.481978053
 20
70.5329133971
 30
0.0
 11
233.481978053
 21
70.3829183085
 31
0.0
  0
LINE
  5
2AE
330
1F
100
AcDbEntity
  8
0
  6
Continuous
 62
     7
370
    15
100
AcDbLine
 10
233.481978053
 20
69.5829196675
 30
0.0
 11
233.481978053
 21
68.6829193337
 31
0.0
  0
LINE
  5
2AF
330
1F
100
AcDbEntity
  8
0
  6
Continuous
 62
     7
370
    15
100
AcDbLine
 10
233.481978053
 20
60.0829078658
 30
0.0
 11
233.481978053
 21
59.0329124434
 31
0.0
  0
LWPOLYLINE
  5
2B0
330
1F
100
AcDbEntity
  8
0
  6
Continuous
 62
     7
370
    15
100
AcDbPolyline
 90
        3
 70
   128
 43
0.0
 10
227.2032694759
 20
528.4217699273
 10
227.2058473768
 20
528.4156008466
 10
227.2819774093
 20
528.0329092248
  0
LWPOLYLINE
  5
2B1
330
1F
100
AcDbEntity
  8
0
  6
Continuous
 62
     7
370
    15
100
AcDbPolyline
 90
        3
 70
   128
 43
0.0
 10
227.2819774093
 20
541.5329142316
 10
227.2058473768
 20
541.1502226098
 10
227.2032694759
 20
541.1440535291
  0
LINE
  5
2B2
330
1F
100
AcDbEntity
  8
0
  6
Continuous
 62
     7
370
    15
100
AcDbLine
 10
233.481978053
 20
540.532912205
 30
0.0
 11
233.481978053
 21
540.3829171164
 31
0.0
  0
LINE
  5
2B3
330
1F
100
AcDbEntity
  8
0
  6
Continuous
 62
     7
370
    15
100
AcDbLine
 10
233.481978053
 20
539.5829184754
 30
0.0
 11
233.481978053
 21
538.6829181416
 31
0.0
  0
LINE
  5
2B4
330
1F
100
AcDbEntity
  8
0
  6
Continuous
 62
     7
370
    15
100
AcDbLine
 10
233.481978053
 20
530.0829066737
 30
0.0
 11
233.481978053
 21
529.0329112513
 31
0.0
  0
ARC
  5
2B5
330
1F
100
AcDbEntity
  8
0
  6
Continuous
 62
     7
370
    15
100
AcDbCircle
 10
85.4819718065
 20
584.7829123242
 30
0.0
 40
15.0
100
AcDbArc
 50
90.0
 51
180.0
  0
LINE
  5
2B6
330
1F
100
AcDbEntity
  8
0
  6
Continuous
 62
     7
370
    15
100
AcDbLine
 10
85.4819714891
 20
599.7829242452
 30
0.0
 11
85.4819714891
 21
584.7829087479
 31
0.0
  0
LINE
  5
2B7
330
1F
100
AcDbEntity
  8
0
  6
Continuous
 62
     7
370
    15
100
AcDbLine
 10
70.4819718244
 20
584.7829087479
 30
0.0
 11
85.4819714891
 21
584.7829087479
 31
0.0
  0
LINE
  5
2B8
330
1F
100
AcDbEntity
  8
0
  6
Continuous
 62
     7
370
    15
100
AcDbLine
 10
246.481974596
 20
599.7829242452
 30
0.0
 11
246.481974596
 21
584.7829087479
 31
0.0
  0
LINE
  5
2B9
330
1F
100
AcDbEntity
  8
0
  6
Continuous
 62
     7
370
    15
100
AcDbLine
 10
246.481974596
 20
584.7829087479
 30
0.0
 11
85.4819714891
 21
584.7829087479
 31
0.0
  0
LINE
  5
2BA
330
1F
100
AcDbEntity
  8
0
  6
Continuous
 62
     7
370
    15
100
AcDbLine
 10
246.481974596
 20
599.7829242452
 30
0.0
 11
85.4819714891
 21
599.7829242452
 31
0.0
  0
LINE
  5
2BB
330
1F
100
AcDbEntity
  8
0
  6
Continuous
 62
     7
370
    15
100
AcDbLine
 10
85.4819714891
 20
584.7829087479
 30
0.0
 11
85.4819714891
 21
14.7829159005
 31
0.0
  0
LINE
  5
2BC
330
1F
100
AcDbEntity
  8
0
  6
Continuous
 62
     7
370
    15
100
AcDbLine
 10
85.4819714891
 20
14.7829159005
 30
0.0
 11
70.4819718244
 21
14.7829159005
 31
0.0
  0
LINE
  5
2BD
330
1F
100
AcDbEntity
  8
0
  6
Continuous
 62
     7
370
    15
100
AcDbLine
 10
70.4819718244
 20
584.7829087479
 30
0.0
 11
70.4819718244
 21
14.7829159005
 31
0.0
  0
LINE
  5
2BE
330
1F
100
AcDbEntity
  8
0
  6
Continuous
 62
     7
370
    15
100
AcDbLine
 10
246.481974596
 20
14.7829159005
 30
0.0
 11
246.481974596
 21
-0.2170995967
 31
0.0
  0
LINE
  5
2BF
330
1F
100
AcDbEntity
  8
0
  6
Continuous
 62
     7
370
    15
100
AcDbLine
 10
246.481974596
 20
-0.2170995967
 30
0.0
 11
85.4819714891
 21
-0.2170995967
 31
0.0
  0
LINE
  5
2C0
330
1F
100
AcDbEntity
  8
0
  6
Continuous
 62
     7
370
    15
100
AcDbLine
 10
85.4819714891
 20
14.7829159005
 30
0.0
 11
85.4819714891
 21
-0.2170995967
 31
0.0
  0
LINE
  5
2C1
330
1F
100
AcDbEntity
  8
0
  6
Continuous
 62
     7
370
    15
100
AcDbLine
 10
246.481974596
 20
14.7829159005
 30
0.0
 11
85.4819714891
 21
14.7829159005
 31
0.0
  0
LINE
  5
2C2
330
1F
100
AcDbEntity
  8
0
  6
Continuous
 62
     7
370
    15
100
AcDbLine
 10
226.4819787683
 20
19.7829111321
 30
0.0
 11
90.4819713773
 21
19.7829111321
 31
0.0
  0
LINE
  5
2C3
330
1F
100
AcDbEntity
  8
0
  6
Continuous
 62
     7
370
    15
100
AcDbLine
 10
226.4819787683
 20
19.7829111321
 30
0.0
 11
226.4819787683
 21
51.9703729852
 31
0.0
  0
LINE
  5
2C4
330
1F
100
AcDbEntity
  8
0
  6
Continuous
 62
     7
370
    15
100
AcDbLine
 10
226.4819787683
 20
55.3101553424
 30
0.0
 11
226.4819787683
 21
56.782911609
 31
0.0
  0
LINE
  5
2C5
330
1F
100
AcDbEntity
  8
0
  6
Continuous
 62
     7
370
    15
100
AcDbLine
 10
226.4819787683
 20
72.7829142316
 30
0.0
 11
226.4819787683
 21
74.2423190577
 31
0.0
  0
LINE
  5
2C6
330
1F
100
AcDbEntity
  8
0
  6
Continuous
 62
     7
370
    15
100
AcDbLine
 10
226.4819787683
 20
77.5850369437
 30
0.0
 11
226.4819787683
 21
521.9703717931
 31
0.0
  0
LINE
  5
2C7
330
1F
100
AcDbEntity
  8
0
  6
Continuous
 62
     7
370
    15
100
AcDbLine
 10
226.4819787683
 20
525.3101541503
 30
0.0
 11
226.4819787683
 21
526.7829104169
 31
0.0
  0
LINE
  5
2C8
330
1F
100
AcDbEntity
  8
0
  6
Continuous
 62
     7
370
    15
100
AcDbLine
 10
226.4819787683
 20
542.7829130395
 30
0.0
 11
226.4819787683
 21
544.2423178656
 31
0.0
  0
LINE
  5
2C9
330
1F
100
AcDbEntity
  8
0
  6
Continuous
 62
     7
370
    15
100
AcDbLine
 10
226.4819787683
 20
547.5850357516
 30
0.0
 11
226.4819787683
 21
579.7829135163
 31
0.0
  0
LINE
  5
2CA
330
1F
100
AcDbEntity
  8
0
  6
Continuous
 62
     7
370
    15
100
AcDbLine
 10
226.4819787683
 20
579.7829135163
 30
0.0
 11
90.4819713773
 21
579.7829135163
 31
0.0
  0
LINE
  5
2CB
330
1F
100
AcDbEntity
  8
0
  6
Continuous
 62
     7
370
    15
100
AcDbLine
 10
90.4819713773
 20
579.7829135163
 30
0.0
 11
90.4819713773
 21
19.7829111321
 31
0.0
  0
LINE
  5
2CC
330
1F
100
AcDbEntity
  8
0
  6
Continuous
 62
     7
370
    15
100
AcDbLine
 10
246.481974596
 20
584.7829087479
 30
0.0
 11
246.481974596
 21
543.7588347896
 31
0.0
  0
LINE
  5
2CD
330
1F
100
AcDbEntity
  8
0
  6
Continuous
 62
     7
370
    15
100
AcDbLine
 10
246.481974596
 20
525.7750107749
 30
0.0
 11
246.481974596
 21
73.7588359816
 31
0.0
  0
LINE
  5
2CE
330
1F
100
AcDbEntity
  8
0
  6
Continuous
 62
     7
370
    15
100
AcDbLine
 10
246.481974596
 20
55.775011967
 30
0.0
 11
246.481974596
 21
14.7829159005
 31
0.0
  0
ARC
  5
2CF
330
1F
100
AcDbEntity
  8
0
  6
Continuous
 62
     7
370
    15
100
AcDbCircle
 10
85.4819718065
 20
14.7829123242
 30
0.0
 40
15.00000000000001
100
AcDbArc
 50
180.0
 51
270.0
  0
LINE
  5
2D0
330
1F
100
AcDbEntity
  8
0
  6
Continuous
 62
     7
370
    15
100
AcDbLine
 10
250.481967801
 20
579.7829135163
 30
0.0
 11
246.481974596
 21
579.7829135163
 31
0.0
  0
LINE
  5
2D1
330
1F
100
AcDbEntity
  8
0
  6
Continuous
 62
     7
370
    15
100
AcDbLine
 10
250.481967801
 20
19.7829111321
 30
0.0
 11
246.481974596
 21
19.7829111321
 31
0.0
  0
LINE
  5
2D2
330
1F
100
AcDbEntity
  8
0
  6
Continuous
 62
     7
370
    15
100
AcDbLine
 10
250.481967801
 20
4.7829254372
 30
0.0
 11
246.481974596
 21
4.7829254372
 31
0.0
  0
LINE
  5
2D3
330
1F
100
AcDbEntity
  8
0
  6
Continuous
 62
     7
370
    15
100
AcDbLine
 10
250.481967801
 20
594.7828992112
 30
0.0
 11
246.481974596
 21
594.7828992112
 31
0.0
  0
LINE
  5
2D4
330
1F
100
AcDbEntity
  8
0
  6
Continuous
 62
     7
370
    15
100
AcDbLine
 10
311.8528151216
 20
646.645714698
 30
0.0
 11
313.0528056325
 21
646.645714698
 31
0.0
  0
LINE
  5
2D5
330
1F
100
AcDbEntity
  8
0
  6
Continuous
 62
     7
370
    15
100
AcDbLine
 10
311.7527985277
 20
649.145727215
 30
0.0
 11
311.8528151216
 21
649.145727215
 31
0.0
  0
LINE
  5
2D6
330
1F
100
AcDbEntity
  8
0
  6
Continuous
 62
     7
370
    15
100
AcDbLine
 10
311.8528151216
 20
655.1457244732
 30
0.0
 11
311.7527985277
 21
655.1457244732
 31
0.0
  0
LINE
  5
2D7
330
1F
100
AcDbEntity
  8
0
  6
Continuous
 62
     7
370
    15
100
AcDbLine
 10
307.6045536699
 20
712.1457207777
 30
0.0
 11
306.85281989
 21
711.8721056558
 31
0.0
  0
SPLINE
  5
2D8
330
1F
100
AcDbEntity
  8
0
  6
Continuous
 62
     7
370
    15
100
AcDbSpline
210
0.0
220
0.0
230
1.0
 70
     8
 71
     3
 72
    15
 73
    11
 74
     0
 42
0.00000001
 43
0.00000001
 40
0.0
 40
0.0
 40
0.0
 40
0.0
 40
0.1250747765816227
 40
0.2501517239422072
 40
0.3752907867813094
 40
0.5003033076392224
 40
0.6252866256659232
 40
0.7502629057026486
 40
0.875078903365568
 40
1.0
 40
1.0
 40
1.0
 40
1.0
 10
310.6672489346943
 20
677.2035557605539
 30
0.0
 10
310.6411158246491
 20
677.4623168613532
 30
0.0
 10
310.5888491509966
 20
677.9798435539708
 30
0.0
 10
310.5100147488287
 20
678.7609599275593
 30
0.0
 10
310.4355693409681
 20
679.4981313276547
 30
0.0
 10
310.3685931746878
 20
680.1617147937935
 30
0.0
 10
310.3124431688535
 20
680.7174708527299
 30
0.0
 10
310.2699667485084
 20
681.1385740836557
 30
0.0
 10
310.2411042344449
 20
681.4241690924205
 30
0.0
 10
310.2367545671638
 20
681.4672118525995
 30
0.0
 10
310.2345788182698
 20
681.4887422897134
 30
0.0
  0
SPLINE
  5
2D9
330
1F
100
AcDbEntity
  8
0
  6
Continuous
 62
     7
370
    15
100
AcDbSpline
210
0.0
220
0.0
230
1.0
 70
     8
 71
     3
 72
    15
 73
    11
 74
     0
 42
0.00000001
 43
0.00000001
 40
0.0
 40
0.0
 40
0.0
 40
0.0
 40
0.1249401490732204
 40
0.2497679325805339
 40
0.3747519068214989
 40
0.4997360836885724
 40
0.6247478144203327
 40
0.7498807487630104
 40
0.8749438905378667
 40
1.0
 40
1.0
 40
1.0
 40
1.0
 10
307.2503530683003
 20
681.1873663045678
 30
0.0
 10
307.2525298209986
 20
681.1657857363593
 30
0.0
 10
307.2568813687215
 20
681.1226440085373
 30
0.0
 10
307.2857267544665
 20
680.8369275213923
 30
0.0
 10
307.3282675178353
 20
680.4157569994691
 30
0.0
 10
307.3843531033626
 20
679.8599738586507
 30
0.0
 10
307.4513469001254
 20
679.1964456020885
 30
0.0
 10
307.525781239453
 20
678.4593981957698
 30
0.0
 10
307.6046380556277
 20
677.6784872153188
 30
0.0
 10
307.6568555613089
 20
677.1611328214691
 30
0.0
 10
307.6829635800801
 20
676.902462897471
 30
0.0
  0
LINE
  5
2DA
330
1F
100
AcDbEntity
  8
0
  6
Continuous
 62
     7
370
    15
100
AcDbLine
 10
307.6826953592
 20
676.902328787
 30
0.0
 11
309.2517578306
 21
661.361356435
 31
0.0
  0
LINE
  5
2DB
330
1F
100
AcDbEntity
  8
0
  6
Continuous
 62
     7
370
    15
100
AcDbLine
 10
312.2366094293
 20
661.662717519
 30
0.0
 11
310.6675171556
 21
677.203689871
 31
0.0
  0
SPLINE
  5
2DC
330
1F
100
AcDbEntity
  8
0
  6
Continuous
 62
     7
370
    15
100
AcDbSpline
210
0.0
220
0.0
230
1.0
 70
     8
 71
     3
 72
     9
 73
     5
 74
     0
 42
0.00000001
 43
0.00000001
 40
0.0
 40
0.0
 40
0.0
 40
0.0
 40
0.4837392129289095
 40
1.0
 40
1.0
 40
1.0
 40
1.0
 10
309.4218396844349
 20
659.6799839116844
 30
0.0
 10
309.4313064164649
 20
659.6157518761526
 30
0.0
 10
309.450876324748
 20
659.4829695136417
 30
0.0
 10
309.4847164275071
 20
659.4468277592421
 30
0.0
 10
309.5021867455922
 20
659.4281691886697
 30
0.0
  0
SPLINE
  5
2DD
330
1F
100
AcDbEntity
  8
0
  6
Continuous
 62
     7
370
    15
100
AcDbSpline
210
0.0
220
0.0
230
1.0
 70
     8
 71
     3
 72
    11
 73
     7
 74
     0
 42
0.00000001
 43
0.00000001
 40
0.0
 40
0.0
 40
0.0
 40
0.0
 40
0.2484477836589677
 40
0.4978918583921694
 40
0.7483925980266407
 40
1.0
 40
1.0
 40
1.0
 40
1.0
 10
309.2520558537922
 20
661.3615203477655
 30
0.0
 10
309.2700700653536
 20
661.1830432020142
 30
0.0
 10
309.3061707265858
 20
660.8253732060505
 30
0.0
 10
309.3531716854734
 20
660.3605406325612
 30
0.0
 10
309.39197440416
 20
659.9776597810476
 30
0.0
 10
309.4070058351024
 20
659.8303687910669
 30
0.0
 10
309.4145381154499
 20
659.7565609790597
 30
0.0
  0
SPLINE
  5
2DE
330
1F
100
AcDbEntity
  8
0
  6
Continuous
 62
     7
370
    15
100
AcDbSpline
210
0.0
220
0.0
230
1.0
 70
     8
 71
     3
 72
    19
 73
    15
 74
     0
 42
0.00000001
 43
0.00000001
 40
0.0
 40
0.0
 40
0.0
 40
0.0
 40
0.0802800492723805
 40
0.1534410941016428
 40
0.2193417841561021
 40
0.2779524555746665
 40
0.3728467479716723
 40
0.4421526848778168
 40
0.5315391818761616
 40
0.6554834361444658
 40
0.7303558701030318
 40
0.8130797582012325
 40
0.9031427134902461
 40
1.0
 40
1.0
 40
1.0
 40
1.0
 10
309.4374859036885
 20
659.5973420717035
 30
0.0
 10
309.472846197501
 20
659.4744678580313
 30
0.0
 10
309.540431135721
 20
659.239615563425
 30
0.0
 10
309.7376612008325
 20
658.9452059382598
 30
0.0
 10
309.9625056329136
 20
658.7210610364864
 30
0.0
 10
310.2581924404838
 20
658.5280409815851
 30
0.0
 10
310.6001337035719
 20
658.410131609674
 30
0.0
 10
311.0098859469991
 20
658.3803296076281
 30
0.0
 10
311.448973570013
 20
658.4826332039923
 30
0.0
 10
311.8355026945939
 20
658.7338690847516
 30
0.0
 10
312.1283490794679
 20
659.0745819339755
 30
0.0
 10
312.3091069225606
 20
659.4300548462486
 30
0.0
 10
312.4150348720943
 20
659.8569923629336
 30
0.0
 10
312.3827632462206
 20
660.1520580330201
 30
0.0
 10
312.3660409154377
 20
660.3049535133157
 30
0.0
  0
SPLINE
  5
2DF
330
1F
100
AcDbEntity
  8
0
  6
Continuous
 62
     7
370
    15
100
AcDbSpline
210
0.0
220
0.0
230
1.0
 70
     8
 71
     3
 72
    11
 73
     7
 74
     0
 42
0.00000001
 43
0.00000001
 40
0.0
 40
0.0
 40
0.0
 40
0.0
 40
0.247742100245226
 40
0.4969496549537624
 40
0.747681273709302
 40
1.0
 40
1.0
 40
1.0
 40
1.0
 10
312.3898231687031
 20
660.1372707464013
 30
0.0
 10
312.3833789053619
 20
660.2018969411454
 30
0.0
 10
312.3704522593025
 20
660.3315316102119
 30
0.0
 10
312.3345315839506
 20
660.6894019509922
 30
0.0
 10
312.2895155398333
 20
661.1357339241055
 30
0.0
 10
312.2540833797727
 20
661.4865979255346
 30
0.0
 10
312.2363114060841
 20
661.662583408526
 30
0.0
  0
LINE
  5
2E0
330
1F
100
AcDbEntity
  8
0
  6
Continuous
 62
     7
370
    15
100
AcDbLine
 10
312.5201189222
 20
671.3173884727
 30
0.0
 11
312.5201189222
 21
671.6172147371
 31
0.0
  0
LINE
  5
2E1
330
1F
100
AcDbEntity
  8
0
  6
Continuous
 62
     7
370
    15
100
AcDbLine
 10
311.72010538
 20
671.6172147371
 30
0.0
 11
311.72010538
 21
671.3198322632
 31
0.0
  0
SPLINE
  5
2E2
330
1F
100
AcDbEntity
  8
0
  6
Continuous
 62
     7
370
    15
100
AcDbSpline
210
0.0
220
0.0
230
1.0
 70
    24
 71
     3
 72
    11
 73
     7
 74
     0
 42
0.00000001
 43
0.00000001
 40
0.0
 40
0.0
 40
0.0
 40
0.0
 40
0.0207852832108836
 40
0.34656035810907
 40
0.6711462475793438
 40
1.0
 40
1.0
 40
1.0
 40
1.0
 10
311.7201053800068
 20
671.9035256482872
 30
0.0
 10
311.7201053800068
 20
671.9002039436058
 30
0.0
 10
311.7201053800065
 20
671.8448199898619
 30
0.0
 10
311.7201053800068
 20
671.7515828385497
 30
0.0
 10
311.7201053800068
 20
671.6388675421014
 30
0.0
 10
311.7201053800069
 20
671.6043511812271
 30
0.0
 10
311.7201053800068
 20
671.5869802810464
 30
0.0
  0
SPLINE
  5
2E3
330
1F
100
AcDbEntity
  8
0
  6
Continuous
 62
     7
370
    15
100
AcDbSpline
210
0.0
220
0.0
230
1.0
 70
    24
 71
     3
 72
    11
 73
     7
 74
     0
 42
0.00000001
 43
0.00000001
 40
0.0
 40
0.0
 40
0.0
 40
0.0
 40
0.2504884286733861
 40
0.497727503351466
 40
0.7458863506510961
 40
1.0
 40
1.0
 40
1.0
 40
1.0
 10
312.5201189221821
 20
671.5845215894494
 30
0.0
 10
312.5201189221821
 20
671.6007388137137
 30
0.0
 10
312.5201189221821
 20
671.6329628912374
 30
0.0
 10
312.5201189221821
 20
671.741740011341
 30
0.0
 10
312.5201189221821
 20
671.8805763756134
 30
0.0
 10
312.5201189221821
 20
671.9876017173927
 30
0.0
 10
312.5201189221821
 20
672.0417488195214
 30
0.0
  0
LINE
  5
2E4
330
1F
100
AcDbEntity
  8
0
  6
Continuous
 62
     7
370
    15
100
AcDbLine
 10
312.5201189222
 20
672.0417488195
 30
0.0
 11
312.5201189222
 21
672.1457142212
 31
0.0
  0
LINE
  5
2E5
330
1F
100
AcDbEntity
  8
0
  6
Continuous
 62
     7
370
    15
100
AcDbLine
 10
311.5133666696
 20
672.1457142212
 30
0.0
 11
311.7222809495
 21
671.8984890558
 31
0.0
  0
LINE
  5
2E6
330
1F
100
AcDbEntity
  8
0
  6
Continuous
 62
     7
370
    15
100
AcDbLine
 10
307.2437369527
 20
681.2837470152
 30
0.0
 11
307.2281205358
 21
681.7429710008
 31
0.0
  0
SPLINE
  5
2E7
330
1F
100
AcDbEntity
  8
0
  6
Continuous
 62
     7
370
    15
100
AcDbSpline
210
0.0
220
0.0
230
1.0
 70
     8
 71
     3
 72
    11
 73
     7
 74
     0
 42
0.00000001
 43
0.00000001
 40
0.0
 40
0.0
 40
0.0
 40
0.0
 40
0.1207523663378
 40
0.4133916369619322
 40
0.7063558914115577
 40
1.0
 40
1.0
 40
1.0
 40
1.0
 10
309.276404351183
 20
661.1203003503595
 30
0.0
 10
309.2863281395411
 20
661.022004944745
 30
0.0
 10
309.3203018929226
 20
660.6854939523306
 30
0.0
 10
309.3676326720403
 20
660.216581493561
 30
0.0
 10
309.410532237982
 20
659.7918378052158
 30
0.0
 10
309.4180676245531
 20
659.7172973392712
 30
0.0
 10
309.4218396844349
 20
659.6799839116845
 30
0.0
  0
LINE
  5
2E8
330
1F
100
AcDbEntity
  8
0
  6
Continuous
 62
     7
370
    15
100
AcDbLine
 10
313.0528056325
 20
711.1457187511
 30
0.0
 11
312.7528154554
 21
711.1457187511
 31
0.0
  0
LINE
  5
2E9
330
1F
100
AcDbEntity
  8
0
  6
Continuous
 62
     7
370
    15
100
AcDbLine
 10
312.7528154554
 20
710.1457241751
 30
0.0
 11
312.6527988615
 21
710.1457241751
 31
0.0
  0
LINE
  5
2EA
330
1F
100
AcDbEntity
  8
0
  6
Continuous
 62
     7
370
    15
100
AcDbLine
 10
312.6527988615
 20
704.1457194664
 30
0.0
 11
312.7528154554
 21
704.1457194664
 31
0.0
  0
LINE
  5
2EB
330
1F
100
AcDbEntity
  8
0
  6
Continuous
 62
     7
370
    15
100
AcDbLine
 10
312.7528154554
 20
687.1457148172
 30
0.0
 11
312.6527988615
 21
687.1457148172
 31
0.0
  0
LINE
  5
2EC
330
1F
100
AcDbEntity
  8
0
  6
Continuous
 62
     7
370
    15
100
AcDbLine
 10
312.6527988615
 20
681.145717559
 30
0.0
 11
312.7528154554
 21
681.145717559
 31
0.0
  0
LINE
  5
2ED
330
1F
100
AcDbEntity
  8
0
  6
Continuous
 62
     7
370
    15
100
AcDbLine
 10
798.0528050365
 20
655.1457244732
 30
0.0
 11
798.0528050365
 21
650.1457143404
 31
0.0
  0
LINE
  5
2EE
330
1F
100
AcDbEntity
  8
0
  6
Continuous
 62
     7
370
    15
100
AcDbLine
 10
813.0528056325
 20
655.1457244732
 30
0.0
 11
798.0528050365
 21
655.1457244732
 31
0.0
  0
LINE
  5
2EF
330
1F
100
AcDbEntity
  8
0
  6
Continuous
 62
     7
370
    15
100
AcDbLine
 10
813.0528056325
 20
655.1457244732
 30
0.0
 11
813.0528056325
 21
650.1457143404
 31
0.0
  0
LINE
  5
2F0
330
1F
100
AcDbEntity
  8
0
  6
Continuous
 62
     7
370
    15
100
AcDbLine
 10
813.0528056325
 20
650.1457143404
 30
0.0
 11
798.0528050365
 21
650.1457143404
 31
0.0
  0
ARC
  5
2F1
330
1F
100
AcDbEntity
  8
0
  6
Continuous
 62
     7
370
    15
100
AcDbCircle
 10
798.0528056325
 20
650.1457204677
 30
0.0
 40
15.00000000000023
100
AcDbArc
 50
270.0
 51
0.0
  0
LINE
  5
2F2
330
1F
100
AcDbEntity
  8
0
  6
Continuous
 62
     7
370
    15
100
AcDbLine
 10
798.0528050365
 20
650.1457143404
 30
0.0
 11
798.0528050365
 21
635.1457137443
 31
0.0
  0
LINE
  5
2F3
330
1F
100
AcDbEntity
  8
0
  6
Continuous
 62
     7
370
    15
100
AcDbLine
 10
328.0528062286
 20
655.1457244732
 30
0.0
 11
328.0528062286
 21
650.1457143404
 31
0.0
  0
LINE
  5
2F4
330
1F
100
AcDbEntity
  8
0
  6
Continuous
 62
     7
370
    15
100
AcDbLine
 10
798.0528050365
 20
650.1457143404
 30
0.0
 11
328.0528062286
 21
650.1457143404
 31
0.0
  0
LINE
  5
2F5
330
1F
100
AcDbEntity
  8
0
  6
Continuous
 62
     7
370
    15
100
AcDbLine
 10
798.0528050365
 20
655.1457244732
 30
0.0
 11
328.0528062286
 21
655.1457244732
 31
0.0
  0
LINE
  5
2F6
330
1F
100
AcDbEntity
  8
0
  6
Continuous
 62
     7
370
    15
100
AcDbLine
 10
798.0528050365
 20
635.1457137443
 30
0.0
 11
328.0528062286
 21
635.1457137443
 31
0.0
  0
LINE
  5
2F7
330
1F
100
AcDbEntity
  8
0
  6
Continuous
 62
     7
370
    15
100
AcDbLine
 10
328.0528062286
 20
635.1457137443
 30
0.0
 11
328.0528062286
 21
650.1457143404
 31
0.0
  0
LINE
  5
2F8
330
1F
100
AcDbEntity
  8
0
  6
Continuous
 62
     7
370
    15
100
AcDbLine
 10
313.0528056325
 20
655.1457244732
 30
0.0
 11
313.0528056325
 21
650.1457143404
 31
0.0
  0
LINE
  5
2F9
330
1F
100
AcDbEntity
  8
0
  6
Continuous
 62
     7
370
    15
100
AcDbLine
 10
313.0528056325
 20
650.1457143404
 30
0.0
 11
328.0528062286
 21
650.1457143404
 31
0.0
  0
LINE
  5
2FA
330
1F
100
AcDbEntity
  8
0
  6
Continuous
 62
     7
370
    15
100
AcDbLine
 10
313.0528056325
 20
655.1457244732
 30
0.0
 11
328.0528062286
 21
655.1457244732
 31
0.0
  0
ARC
  5
2FB
330
1F
100
AcDbEntity
  8
0
  6
Continuous
 62
     7
370
    15
100
AcDbCircle
 10
328.0528056325
 20
650.1457204677
 30
0.0
 40
15.0
100
AcDbArc
 50
180.0
 51
270.0
  0
LINE
  5
2FC
330
1F
100
AcDbEntity
  8
0
  6
Continuous
 62
     7
370
    15
100
AcDbLine
 10
311.8528151216
 20
653.1634826042
 30
0.0
 11
313.0528056325
 21
653.1634826042
 31
0.0
  0
LINE
  5
2FD
330
1F
100
AcDbEntity
  8
0
  6
Continuous
 62
     7
370
    15
100
AcDbLine
 10
311.8528151216
 20
651.0595131494
 30
0.0
 11
313.0528056325
 21
651.0595131494
 31
0.0
  0
LINE
  5
2FE
330
1F
100
AcDbEntity
  8
0
  6
Continuous
 62
     7
370
    15
100
AcDbLine
 10
311.8528151216
 20
651.0595131494
 30
0.0
 11
311.8528151216
 21
653.1634826042
 31
0.0
  0
LINE
  5
2FF
330
1F
100
AcDbEntity
  8
0
  6
Continuous
 62
     7
370
    15
100
AcDbLine
 10
311.8528151216
 20
658.1457156517
 30
0.0
 11
313.0528056325
 21
658.1457156517
 31
0.0
  0
LINE
  5
300
330
1F
100
AcDbEntity
  8
0
  6
Continuous
 62
     7
370
    15
100
AcDbLine
 10
313.0528056325
 20
655.1457244732
 30
0.0
 11
313.0528056325
 21
658.1457156517
 31
0.0
  0
LINE
  5
301
330
1F
100
AcDbEntity
  8
0
  6
Continuous
 62
     7
370
    15
100
AcDbLine
 10
311.8528151216
 20
658.1457156517
 30
0.0
 11
311.8528151216
 21
653.1634826042
 31
0.0
  0
LINE
  5
302
330
1F
100
AcDbEntity
  8
0
  6
Continuous
 62
     7
370
    15
100
AcDbLine
 10
313.0528056325
 20
650.1457143404
 30
0.0
 11
313.0528056325
 21
646.645714698
 31
0.0
  0
LINE
  5
303
330
1F
100
AcDbEntity
  8
0
  6
Continuous
 62
     7
370
    15
100
AcDbLine
 10
311.8528151216
 20
646.645714698
 30
0.0
 11
311.8528151216
 21
651.0595131494
 31
0.0
  0
LINE
  5
304
330
1F
100
AcDbEntity
  8
0
  6
Continuous
 62
     7
370
    15
100
AcDbLine
 10
311.7527985277
 20
649.145727215
 30
0.0
 11
311.7527985277
 21
655.1457244732
 31
0.0
  0
LINE
  5
305
330
1F
100
AcDbEntity
  8
0
  6
Continuous
 62
     7
370
    15
100
AcDbLine
 10
305.0048374834
 20
659.3481350519
 30
0.0
 11
305.7353520097
 21
658.3960998632
 31
0.0
  0
ARC
  5
306
330
1F
100
AcDbEntity
  8
0
  6
Continuous
 62
     7
370
    15
100
AcDbCircle
 10
310.2528056325
 20
659.8457204677
 30
0.0
 40
2.800000000000011
100
AcDbArc
 50
0.0
 51
45.4024529621
  0
LINE
  5
307
330
1F
100
AcDbEntity
  8
0
  6
Continuous
 62
     7
370
    15
100
AcDbLine
 10
309.1451549234
 20
662.4173123218
 30
0.0
 11
308.5482740106
 21
662.0671052315
 31
0.0
  0
LINE
  5
308
330
1F
100
AcDbEntity
  8
0
  6
Continuous
 62
     7
370
    15
100
AcDbLine
 10
305.7353520097
 20
658.3960998632
 30
0.0
 11
309.278788537
 21
661.1150849439
 31
0.0
  0
LINE
  5
309
330
1F
100
AcDbEntity
  8
0
  6
Continuous
 62
     7
370
    15
100
AcDbLine
 10
308.5482740106
 20
662.0671052315
 30
0.0
 11
305.0048374834
 21
659.3481350519
 31
0.0
  0
LINE
  5
30A
330
1F
100
AcDbEntity
  8
0
  6
Continuous
 62
     7
370
    15
100
AcDbLine
 10
313.0528056325
 20
658.1457156517
 30
0.0
 11
313.0528056325
 21
659.1457176782
 31
0.0
  0
LINE
  5
30B
330
1F
100
AcDbEntity
  8
0
  6
Continuous
 62
     7
370
    15
100
AcDbLine
 10
311.8528151216
 20
658.7866592981
 30
0.0
 11
311.8528151216
 21
658.1457156517
 31
0.0
  0
LINE
  5
30C
330
1F
100
AcDbEntity
  8
0
  6
Continuous
 62
     7
370
    15
100
AcDbLine
 10
304.783316821
 20
657.6655853369
 30
0.0
 11
304.0528022947
 21
658.6176205255
 31
0.0
  0
LWPOLYLINE
  5
30D
330
1F
100
AcDbEntity
  8
0
  6
Continuous
 62
     7
370
    15
100
AcDbPolyline
 90
        9
 70
   128
 43
0.0
 10
305.7353520097
 20
658.3960998632
 10
305.5496239366
 20
658.2535851576
 10
305.3710186185
 20
658.1165540792
 10
305.206420392
 20
657.9902518369
 10
305.0621473493
 20
657.8795511104
 10
304.9437725248
 20
657.7886987306
 10
304.8557960691
 20
657.7211964704
 10
304.801615447
 20
657.6796222307
 10
304.783316821
 20
657.6655853369
  0
LWPOLYLINE
  5
30E
330
1F
100
AcDbEntity
  8
0
  6
Continuous
 62
     7
370
    15
100
AcDbPolyline
 90
        9
 70
   128
 43
0.0
 10
304.0528022947
 20
658.6176205255
 10
304.0711009206
 20
658.6316574194
 10
304.1252815427
 20
658.6732167579
 10
304.2132579984
 20
658.7407339193
 10
304.3316328229
 20
658.831571398
 10
304.4759058656
 20
658.9422721245
 10
304.6405040922
 20
659.0685743667
 10
304.8191094102
 20
659.2056203462
 10
305.0048374834
 20
659.3481350519
  0
ARC
  5
30F
330
1F
100
AcDbEntity
  8
0
  6
Continuous
 62
     7
370
    15
100
AcDbCircle
 10
308.1528056325
 20
675.1657204677
 30
0.0
 40
2.200000000000062
100
AcDbArc
 50
103.5934783353
 51
268.1042765976
  0
LINE
  5
310
330
1F
100
AcDbEntity
  8
0
  6
Continuous
 62
     7
370
    15
100
AcDbLine
 10
304.6059930028
 20
676.5434939243
 30
0.0
 11
304.939630002
 21
678.4357178785
 31
0.0
  0
LWPOLYLINE
  5
311
330
1F
100
AcDbEntity
  8
0
  6
Continuous
 62
     7
370
    15
100
AcDbPolyline
 90
        9
 70
   128
 43
0.0
 10
304.939630002
 20
678.4357178785
 10
304.7953867616
 20
678.4611541607
 10
304.6583556833
 20
678.4853238441
 10
304.5332455339
 20
678.5073775627
 10
304.4244074525
 20
678.5265702583
 10
304.3355667295
 20
678.5422313787
 10
304.2698228063
 20
678.5538244821
 10
304.2294704618
 20
678.5609472372
 10
304.2158508005
 20
678.5633463241
  0
LINE
  5
312
330
1F
100
AcDbEntity
  8
0
  6
Continuous
 62
     7
370
    15
100
AcDbLine
 10
304.2158508005
 20
678.5633463241
 30
0.0
 11
308.5908913316
 21
703.3754486419
 31
0.0
  0
LWPOLYLINE
  5
313
330
1F
100
AcDbEntity
  8
0
  6
Continuous
 62
     7
370
    15
100
AcDbPolyline
 90
        9
 70
   128
 43
0.0
 10
308.5908913316
 20
703.3754486419
 10
308.6060309114
 20
703.3727813341
 10
308.6508536043
 20
703.3648837187
 10
308.7236606779
 20
703.3520389177
 10
308.8216507139
 20
703.3347684719
 10
308.9410388174
 20
703.3137131311
 10
309.0772354307
 20
703.2896924593
 10
309.2250251474
 20
703.2636303283
 10
309.3787455263
 20
703.2365400173
  0
LINE
  5
314
330
1F
100
AcDbEntity
  8
0
  6
Continuous
 62
     7
370
    15
100
AcDbLine
 10
309.3787455263
 20
703.2365400173
 30
0.0
 11
304.5534217061
 21
675.8707362987
 31
0.0
  0
LINE
  5
315
330
1F
100
AcDbEntity
  8
0
  6
Continuous
 62
     7
370
    15
100
AcDbLine
 10
304.5534217061
 20
675.8707362987
 30
0.0
 11
304.6059930028
 21
676.5434939243
 31
0.0
  0
LINE
  5
316
330
1F
100
AcDbEntity
  8
0
  6
Continuous
 62
     7
370
    15
100
AcDbLine
 10
308.3377206029
 20
710.1314041592
 30
0.0
 11
308.9140379133
 21
708.5479173638
 31
0.0
  0
LWPOLYLINE
  5
317
330
1F
100
AcDbEntity
  8
0
  6
Continuous
 62
     7
370
    15
100
AcDbPolyline
 90
        9
 70
   128
 43
0.0
 10
308.1623041334
 20
708.274302242
 10
308.1767284574
 20
708.2795623519
 10
308.2195245923
 20
708.2951266147
 10
308.2889938058
 20
708.3204138853
 10
308.3824836912
 20
708.3544406869
 10
308.4963881673
 20
708.3959031679
 10
308.6263560953
 20
708.4432069041
 10
308.7673806848
 20
708.4945414044
 10
308.9140379133
 20
708.5479173638
  0
LINE
  5
318
330
1F
100
AcDbEntity
  8
0
  6
Continuous
 62
     7
370
    15
100
AcDbLine
 10
308.1623041334
 20
708.274302242
 30
0.0
 11
307.4381971063
 21
710.2637786247
 31
0.0
  0
SPLINE
  5
319
330
1F
100
AcDbEntity
  8
0
  6
Continuous
 62
     7
370
    15
100
AcDbSpline
210
0.0
220
0.0
230
1.0
 70
     8
 71
     3
 72
    12
 73
     8
 74
     0
 42
0.00000001
 43
0.00000001
 40
0.0
 40
0.0
 40
0.0
 40
0.0
 40
0.2510115209817573
 40
0.5023968495689679
 40
0.7402775569080239
 40
0.9473076809133472
 40
1.0
 40
1.0
 40
1.0
 40
1.0
 10
307.4381971063099
 20
710.2637786247049
 30
0.0
 10
307.4658997062174
 20
710.219460354915
 30
0.0
 10
307.521346160882
 20
710.1307578163478
 30
0.0
 10
307.728362143092
 20
710.0557718949898
 30
0.0
 10
307.9897462834144
 20
710.0442754750375
 30
0.0
 10
308.2063313706791
 20
710.0859218171778
 30
0.0
 10
308.3155603077506
 20
710.1237330425993
 30
0.0
 10
308.3377206029377
 20
710.1314041592393
 30
0.0
  0
LWPOLYLINE
  5
31A
330
1F
100
AcDbEntity
  8
0
  6
Continuous
 62
     7
370
    15
100
AcDbPolyline
 90
        5
 70
   128
 43
0.0
 10
307.4381971063
 20
710.2637786247
 10
307.1847283544
 20
710.9601843931
 10
307.0011758508
 20
711.4644992925
 10
306.8900131883
 20
711.7698538877
 10
306.85281989
 20
711.8721056558
  0
LWPOLYLINE
  5
31B
330
1F
100
AcDbEntity
  8
0
  6
Continuous
 62
     7
370
    15
100
AcDbPolyline
 90
        5
 70
   128
 43
0.0
 10
308.1978285016
 20
710.5157647111
 10
307.940962285
 20
711.2214390017
 10
307.7549361886
 20
711.7325562813
 10
307.64228341
 20
712.0420683004
 10
307.6045536699
 20
712.1457207777
  0
LINE
  5
31C
330
1F
100
AcDbEntity
  8
0
  6
Continuous
 62
     7
370
    15
100
AcDbLine
 10
308.4199154081
 20
710.1613182403
 30
0.0
 11
308.1978285016
 21
710.5157647111
 31
0.0
  0
LINE
  5
31D
330
1F
100
AcDbEntity
  8
0
  6
Continuous
 62
     7
370
    15
100
AcDbLine
 10
308.3377206029
 20
710.1314041592
 30
0.0
 11
308.4199154081
 21
710.1613182403
 31
0.0
  0
ARC
  5
31E
330
1F
100
AcDbEntity
  8
0
  6
Continuous
 62
     7
370
    15
100
AcDbCircle
 10
308.7428111387
 20
681.3347113862
 30
0.0
 40
1.599999999999981
100
AcDbArc
 50
347.034367059
 51
204.5705045339
  0
ARC
  5
31F
330
1F
100
AcDbEntity
  8
0
  6
Continuous
 62
     7
370
    15
100
AcDbCircle
 10
302.0528056325
 20
703.9614065137
 30
0.0
 40
9.5
100
AcDbArc
 50
0.0
 51
36.8410865502
  0
LINE
  5
320
330
1F
100
AcDbEntity
  8
0
  6
Continuous
 62
     7
370
    15
100
AcDbLine
 10
311.5527951421
 20
703.9614070036
 30
0.0
 11
311.5527951421
 21
675.9357202627
 31
0.0
  0
ARC
  5
321
330
1F
100
AcDbEntity
  8
0
  6
Continuous
 62
     7
370
    15
100
AcDbCircle
 10
299.235218592
 20
705.025110936
 30
0.0
 40
10.30000000000016
100
AcDbArc
 50
350.0
 51
20.0
  0
ARC
  5
322
330
1F
100
AcDbEntity
  8
0
  6
Continuous
 62
     7
370
    15
100
AcDbCircle
 10
309.1375075583
 20
710.8577853221
 30
0.0
 40
1.000000000000114
100
AcDbArc
 50
224.1440002858
 51
270.0
  0
LINE
  5
323
330
1F
100
AcDbEntity
  8
0
  6
Continuous
 62
     7
370
    15
100
AcDbLine
 10
309.1374957265
 20
709.8577890374
 30
0.0
 11
309.2555129232
 21
709.8577890374
 31
0.0
  0
ARC
  5
324
330
1F
100
AcDbEntity
  8
0
  6
Continuous
 62
     7
370
    15
100
AcDbCircle
 10
309.2555201039
 20
709.3577853221
 30
0.0
 40
0.4999999999998863
100
AcDbArc
 50
36.8410865502
 51
90.0
  0
LWPOLYLINE
  5
325
330
1F
100
AcDbEntity
  8
0
  6
Continuous
 62
     7
370
    15
100
AcDbPolyline
 90
        3
 70
   128
 43
0.0
 10
311.5527951421
 20
675.9357202627
 10
311.3441788854
 20
674.7454453089
 10
310.9880113306
 20
674.0292806007
  0
ARC
  5
326
330
1F
100
AcDbEntity
  8
0
  6
Continuous
 62
     7
370
    15
100
AcDbCircle
 10
308.0528056325
 20
675.9357204677
 30
0.0
 40
3.500000000000008
100
AcDbArc
 50
181.0639402281
 51
271.3221928089
  0
ARC
  5
327
330
1F
100
AcDbEntity
  8
0
  6
Continuous
 62
     7
370
    15
100
AcDbCircle
 10
299.235218592
 20
705.025110936
 30
0.0
 40
9.50000000000002
100
AcDbArc
 50
350.0
 51
20.0
  0
ARC
  5
328
330
1F
100
AcDbEntity
  8
0
  6
Continuous
 62
     7
370
    15
100
AcDbCircle
 10
308.6464234259
 20
676.6332159945
 30
0.0
 40
4.69842830268837
100
AcDbArc
 50
170.0
 51
264.3261771657
  0
LINE
  5
329
330
1F
100
AcDbEntity
  8
0
  6
Continuous
 62
     7
370
    15
100
AcDbLine
 10
304.2158508005
 20
678.5633463241
 30
0.0
 11
304.019364089
 21
677.4490821935
 31
0.0
  0
SPLINE
  5
32A
330
1F
100
AcDbEntity
  8
0
  6
Continuous
 62
     7
370
    15
100
AcDbSpline
210
0.0
220
0.0
230
1.0
 70
     8
 71
     3
 72
    12
 73
     8
 74
     0
 42
0.00000001
 43
0.00000001
 40
0.0
 40
0.0
 40
0.0
 40
0.0
 40
0.2340470625943748
 40
0.468110382289208
 40
0.7021603582588167
 40
0.9362165040643773
 40
1.0
 40
1.0
 40
1.0
 40
1.0
 10
309.3497776689014
 20
676.8228310920509
 30
0.0
 10
309.1533912128314
 20
676.8034524697028
 30
0.0
 10
308.7606046595273
 20
676.7646938789519
 30
0.0
 10
308.2230931788942
 20
676.7594378458411
 30
0.0
 10
307.8496450929895
 20
676.7979220649607
 30
0.0
 10
307.670382269991
 20
676.8525827053244
 30
0.0
 10
307.6991292451169
 20
676.8965368264148
 30
0.0
 10
307.7052855195485
 20
676.9059497691903
 30
0.0
  0
SPLINE
  5
32B
330
1F
100
AcDbEntity
  8
0
  6
Continuous
 62
     7
370
    15
100
AcDbSpline
210
0.0
220
0.0
230
1.0
 70
     8
 71
     3
 72
    11
 73
     7
 74
     0
 42
0.00000001
 43
0.00000001
 40
0.0
 40
0.0
 40
0.0
 40
0.0
 40
0.1986866801470759
 40
0.4657866974251356
 40
0.7328890205481572
 40
1.0
 40
1.0
 40
1.0
 40
1.0
 10
310.645701855608
 20
677.201722917727
 30
0.0
 10
310.644519568968
 20
677.1772294759796
 30
0.0
 10
310.6417479015915
 20
677.1198088208477
 30
0.0
 10
310.3722025195221
 20
677.0127326053004
 30
0.0
 10
309.9251545267126
 20
676.9019094010264
 30
0.0
 10
309.5415720266802
 20
676.8491908131246
 30
0.0
 10
309.3497776689015
 20
676.822831092051
 30
0.0
  0
SPLINE
  5
32C
330
1F
100
AcDbEntity
  8
0
  6
Continuous
 62
     7
370
    15
100
AcDbSpline
210
0.0
220
0.0
230
1.0
 70
     8
 71
     3
 72
    12
 73
     8
 74
     0
 42
0.00000001
 43
0.00000001
 40
0.0
 40
0.0
 40
0.0
 40
0.0
 40
0.2339746063686035
 40
0.4679314347940849
 40
0.7019014784153117
 40
0.9358644000539801
 40
1.0
 40
1.0
 40
1.0
 40
1.0
 10
308.7428235711537
 20
682.8347045757089
 30
0.0
 10
308.5467317844053
 20
682.8122043928473
 30
0.0
 10
308.1545631104256
 20
682.7672057367414
 30
0.0
 10
307.6516386740505
 20
682.419693996926
 30
0.0
 10
307.3317974629478
 20
681.9262185070955
 30
0.0
 10
307.2039153006305
 20
681.4726287691494
 30
0.0
 10
307.2616779440551
 20
681.2296330180224
 30
0.0
 10
307.2741055192433
 20
681.1773527242456
 30
0.0
  0
SPLINE
  5
32D
330
1F
100
AcDbEntity
  8
0
  6
Continuous
 62
     7
370
    15
100
AcDbSpline
210
0.0
220
0.0
230
1.0
 70
     8
 71
     3
 72
    11
 73
     7
 74
     0
 42
0.00000001
 43
0.00000001
 40
0.0
 40
0.0
 40
0.0
 40
0.0
 40
0.1976869012946596
 40
0.465132349840553
 40
0.7325626924186095
 40
1.0
 40
1.0
 40
1.0
 40
1.0
 10
310.2130317391835
 20
681.4844209529672
 30
0.0
 10
310.1947516032257
 20
681.6291697556333
 30
0.0
 10
310.1517407484964
 20
681.9697454350525
 30
0.0
 10
309.8262696110318
 20
682.4195065392324
 30
0.0
 10
309.3329899504105
 20
682.7672465562782
 30
0.0
 10
308.9395474053649
 20
682.8122183740255
 30
0.0
 10
308.7428235711537
 20
682.8347045757089
 30
0.0
  0
SPLINE
  5
32E
330
1F
100
AcDbEntity
  8
0
  6
Continuous
 62
     7
370
    15
100
AcDbSpline
210
0.0
220
0.0
230
1.0
 70
     8
 71
     3
 72
    12
 73
     8
 74
     0
 42
0.00000001
 43
0.00000001
 40
0.0
 40
0.0
 40
0.0
 40
0.0
 40
0.2350197708745228
 40
0.4700328824845291
 40
0.7050509323460378
 40
0.9400637739983508
 40
1.0
 40
1.0
 40
1.0
 40
1.0
 10
310.9188699426136
 20
661.2818736411843
 30
0.0
 10
310.7224788256887
 20
661.2624893817502
 30
0.0
 10
310.329702156564
 20
661.2237214121336
 30
0.0
 10
309.7921003152396
 20
661.218458148606
 30
0.0
 10
309.4190133373777
 20
661.2569817827083
 30
0.0
 10
309.2400395020064
 20
661.3111033039012
 30
0.0
 10
309.2678849001823
 20
661.3544049137544
 30
0.0
 10
309.2735433282338
 20
661.3632041789804
 30
0.0
  0
SPLINE
  5
32F
330
1F
100
AcDbEntity
  8
0
  6
Continuous
 62
     7
370
    15
100
AcDbSpline
210
0.0
220
0.0
230
1.0
 70
     8
 71
     3
 72
    11
 73
     7
 74
     0
 42
0.00000001
 43
0.00000001
 40
0.0
 40
0.0
 40
0.0
 40
0.0
 40
0.1989278475480005
 40
0.465944563505036
 40
0.7329800263452918
 40
1.0
 40
1.0
 40
1.0
 40
1.0
 10
312.2148239316426
 20
661.6608697749887
 30
0.0
 10
312.2136429986536
 20
661.6363378663635
 30
0.0
 10
312.2108769238539
 20
661.5788772865749
 30
0.0
 10
311.9413118861971
 20
661.4717575972429
 30
0.0
 10
311.4942224921048
 20
661.3609384266558
 30
0.0
 10
311.1106504175362
 20
661.3082280600893
 30
0.0
 10
310.9188699426136
 20
661.2818736411843
 30
0.0
  0
ELLIPSE
  5
330
330
1F
100
AcDbEntity
  8
0
  6
Continuous
 62
     7
370
    15
100
AcDbEllipse
 10
312.1201050329
 20
671.318612074
 30
0.0
 11
0.3991830274373456
 21
-0.02624604221148275
 31
0.0
210
0.0
220
0.0
230
1.0
 40
0.9763157485
 41
0.0
 42
6.283185307179586
  0
ARC
  5
331
330
1F
100
AcDbEntity
  8
0
  6
Continuous
 62
     7
370
    15
100
AcDbCircle
 10
312.1201052131
 20
671.5834934239
 30
0.0
 40
0.4000150304833829
100
AcDbArc
 50
0.1472684924
 51
179.5005569488
  0
SPLINE
  5
332
330
1F
100
AcDbEntity
  8
0
  6
Continuous
 62
     7
370
    15
100
AcDbSpline
210
0.0
220
0.0
230
1.0
 70
     8
 71
     3
 72
    13
 73
     9
 74
     0
 42
0.00000001
 43
0.00000001
 40
0.0
 40
0.0
 40
0.0
 40
0.0
 40
0.0081674686320837
 40
0.2391726062395227
 40
0.4710986396720295
 40
0.6931354102237988
 40
0.9042368001646622
 40
1.0
 40
1.0
 40
1.0
 40
1.0
 10
312.1201121510945
 20
672.0474410630975
 30
0.0
 10
312.1184532403703
 20
672.0470487953854
 30
0.0
 10
312.0698744187944
 20
672.0355617979785
 30
0.0
 10
311.9737568022879
 20
672.0122794707232
 30
0.0
 10
311.8509274995116
 20
671.9686521032638
 30
0.0
 10
311.7652635098217
 20
671.9312026594732
 30
0.0
 10
311.7212353843781
 20
671.9100723436048
 30
0.0
 10
311.7244853758626
 20
671.9050827501767
 30
0.0
 10
311.7254996003589
 20
671.9035256482872
 30
0.0
  0
SPLINE
  5
333
330
1F
100
AcDbEntity
  8
0
  6
Continuous
 62
     7
370
    15
100
AcDbSpline
210
0.0
220
0.0
230
1.0
 70
     8
 71
     3
 72
    13
 73
     9
 74
     0
 42
0.00000001
 43
0.00000001
 40
0.0
 40
0.0
 40
0.0
 40
0.0
 40
0.1252365436611285
 40
0.2499770095114142
 40
0.499999035945601
 40
0.7499966957796651
 40
0.8747778920522121
 40
1.0
 40
1.0
 40
1.0
 40
1.0
 10
312.5201189221821
 20
672.0417488195214
 30
0.0
 10
312.5183970796728
 20
672.0417786596844
 30
0.0
 10
312.5149602150902
 20
672.0418382218098
 30
0.0
 10
312.4806137791792
 20
672.04231269686
 30
0.0
 10
312.4053216551522
 20
672.0433847562408
 30
0.0
 10
312.2966695057177
 20
672.0449194556134
 30
0.0
 10
312.1979576126191
 20
672.0463523048367
 30
0.0
 10
312.1460911292505
 20
672.0470777172258
 30
0.0
 10
312.1201121510945
 20
672.0474410630975
 30
0.0
  0
SPLINE
  5
334
330
1F
100
AcDbEntity
  8
0
  6
Continuous
 62
     7
370
    15
100
AcDbSpline
210
0.0
220
0.0
230
1.0
 70
     8
 71
     3
 72
    10
 73
     6
 74
     0
 42
0.00000001
 43
0.00000001
 40
0.0
 40
0.0
 40
0.0
 40
0.0
 40
0.0189739094627935
 40
0.5253083415553117
 40
1.0
 40
1.0
 40
1.0
 40
1.0
 10
312.1201121510945
 20
672.0474410630975
 30
0.0
 10
312.1216314962753
 20
672.0481813269828
 30
0.0
 10
312.1636958214345
 20
672.0686761435439
 30
0.0
 10
312.2462807410776
 20
672.1069342034191
 30
0.0
 10
312.3164243314571
 20
672.1330685342208
 30
0.0
 10
312.3503648938618
 20
672.1457142211709
 30
0.0
  0
LINE
  5
335
330
1F
100
AcDbEntity
  8
0
  6
Continuous
 62
     7
370
    15
100
AcDbLine
 10
307.2435879411
 20
681.2866825439
 30
0.0
 11
307.2560453119
 21
681.135912595
 31
0.0
  0
LINE
  5
336
330
1F
100
AcDbEntity
  8
0
  6
Continuous
 62
     7
370
    15
100
AcDbLine
 10
310.2358007135
 20
681.4794141628
 30
0.0
 11
310.2002167406
 21
681.6895801403
 31
0.0
  0
LINE
  5
337
330
1F
100
AcDbEntity
  8
0
  6
Continuous
 62
     7
370
    15
100
AcDbLine
 10
798.0528050365
 20
820.1457207851
 30
0.0
 11
328.0528062286
 21
820.1457207851
 31
0.0
  0
LINE
  5
338
330
1F
100
AcDbEntity
  8
0
  6
Continuous
 62
     7
370
    15
100
AcDbLine
 10
328.0528062286
 20
820.1457207851
 30
0.0
 11
328.0528062286
 21
835.1457204499
 31
0.0
  0
LINE
  5
339
330
1F
100
AcDbEntity
  8
0
  6
Continuous
 62
     7
370
    15
100
AcDbLine
 10
798.0528050365
 20
835.1457204499
 30
0.0
 11
328.0528062286
 21
835.1457204499
 31
0.0
  0
LINE
  5
33A
330
1F
100
AcDbEntity
  8
0
  6
Continuous
 62
     7
370
    15
100
AcDbLine
 10
798.0528050365
 20
820.1457207851
 30
0.0
 11
798.0528050365
 21
835.1457204499
 31
0.0
  0
LINE
  5
33B
330
1F
100
AcDbEntity
  8
0
  6
Continuous
 62
     7
370
    15
100
AcDbLine
 10
328.0528062286
 20
820.1457207851
 30
0.0
 11
313.0528056325
 21
820.1457207851
 31
0.0
  0
ARC
  5
33C
330
1F
100
AcDbEntity
  8
0
  6
Continuous
 62
     7
370
    15
100
AcDbCircle
 10
328.0528056325
 20
820.1457204677
 30
0.0
 40
15.0
100
AcDbArc
 50
90.0
 51
180.0
  0
LINE
  5
33D
330
1F
100
AcDbEntity
  8
0
  6
Continuous
 62
     7
370
    15
100
AcDbLine
 10
798.0528050365
 20
820.1457207851
 30
0.0
 11
813.0528056325
 21
820.1457207851
 31
0.0
  0
ARC
  5
33E
330
1F
100
AcDbEntity
  8
0
  6
Continuous
 62
     7
370
    15
100
AcDbCircle
 10
798.0528056325
 20
820.1457204677
 30
0.0
 40
15.00000000000011
100
AcDbArc
 50
0.0
 51
90.0
  0
LINE
  5
33F
330
1F
100
AcDbEntity
  8
0
  6
Continuous
 62
     7
370
    15
100
AcDbLine
 10
328.0528062286
 20
659.1457176782
 30
0.0
 11
313.0528056325
 21
659.1457176782
 31
0.0
  0
LINE
  5
340
330
1F
100
AcDbEntity
  8
0
  6
Continuous
 62
     7
370
    15
100
AcDbLine
 10
313.0528056325
 20
659.1457176782
 30
0.0
 11
313.0528056325
 21
820.1457207851
 31
0.0
  0
LINE
  5
341
330
1F
100
AcDbEntity
  8
0
  6
Continuous
 62
     7
370
    15
100
AcDbLine
 10
328.0528062286
 20
659.1457176782
 30
0.0
 11
328.0528062286
 21
820.1457207851
 31
0.0
  0
LINE
  5
342
330
1F
100
AcDbEntity
  8
0
  6
Continuous
 62
     7
370
    15
100
AcDbLine
 10
793.0528098049
 20
815.1457208969
 30
0.0
 11
333.0528014602
 21
815.1457208969
 31
0.0
  0
LINE
  5
343
330
1F
100
AcDbEntity
  8
0
  6
Continuous
 62
     7
370
    15
100
AcDbLine
 10
333.0528014602
 20
679.1457135059
 30
0.0
 11
333.0528014602
 21
815.1457208969
 31
0.0
  0
LINE
  5
344
330
1F
100
AcDbEntity
  8
0
  6
Continuous
 62
     7
370
    15
100
AcDbLine
 10
333.0528014602
 20
679.1457135059
 30
0.0
 11
793.0528098049
 21
679.1457135059
 31
0.0
  0
LINE
  5
345
330
1F
100
AcDbEntity
  8
0
  6
Continuous
 62
     7
370
    15
100
AcDbLine
 10
793.0528098049
 20
815.1457208969
 30
0.0
 11
793.0528098049
 21
679.1457135059
 31
0.0
  0
LINE
  5
346
330
1F
100
AcDbEntity
  8
0
  6
Continuous
 62
     7
370
    15
100
AcDbLine
 10
798.0528050365
 20
820.1457207851
 30
0.0
 11
798.0528050365
 21
659.1457176782
 31
0.0
  0
LINE
  5
347
330
1F
100
AcDbEntity
  8
0
  6
Continuous
 62
     7
370
    15
100
AcDbLine
 10
798.0528050365
 20
659.1457176782
 30
0.0
 11
328.0528062286
 21
659.1457176782
 31
0.0
  0
LINE
  5
348
330
1F
100
AcDbEntity
  8
0
  6
Continuous
 62
     7
370
    15
100
AcDbLine
 10
813.0528056325
 20
820.1457207851
 30
0.0
 11
813.0528056325
 21
659.1457176782
 31
0.0
  0
LINE
  5
349
330
1F
100
AcDbEntity
  8
0
  6
Continuous
 62
     7
370
    15
100
AcDbLine
 10
813.0528056325
 20
659.1457176782
 30
0.0
 11
798.0528050365
 21
659.1457176782
 31
0.0
  0
LINE
  5
34A
330
1F
100
AcDbEntity
  8
0
  6
Continuous
 62
     7
370
    15
100
AcDbLine
 10
808.0528104009
 20
655.1457244732
 30
0.0
 11
808.0528104009
 21
659.1457176782
 31
0.0
  0
LINE
  5
34B
330
1F
100
AcDbEntity
  8
0
  6
Continuous
 62
     7
370
    15
100
AcDbLine
 10
793.0528098049
 20
655.1457244732
 30
0.0
 11
793.0528098049
 21
659.1457176782
 31
0.0
  0
LINE
  5
34C
330
1F
100
AcDbEntity
  8
0
  6
Continuous
 62
     7
370
    15
100
AcDbLine
 10
333.0528014602
 20
655.1457244732
 30
0.0
 11
333.0528014602
 21
659.1457176782
 31
0.0
  0
LINE
  5
34D
330
1F
100
AcDbEntity
  8
0
  6
Continuous
 62
     7
370
    15
100
AcDbLine
 10
318.0528008642
 20
655.1457244732
 30
0.0
 11
318.0528008642
 21
659.1457176782
 31
0.0
  0
LINE
  5
34E
330
1F
100
AcDbEntity
  8
0
  6
Continuous
 62
     7
370
    15
100
AcDbLine
 10
813.0528056325
 20
659.1457176782
 30
0.0
 11
813.7201094331
 21
659.1457176782
 31
0.0
  0
ARC
  5
34F
330
1F
100
AcDbEntity
  8
0
  6
Continuous
 62
     7
370
    15
100
AcDbCircle
 10
813.7201233806
 20
659.6457204677
 30
0.0
 40
0.5000000000001137
100
AcDbArc
 50
270.0
 51
332.720387264
  0
ARC
  5
350
330
1F
100
AcDbEntity
  8
0
  6
Continuous
 62
     7
370
    15
100
AcDbCircle
 10
819.0528056325
 20
656.8957204677
 30
0.0
 40
5.500000000000268
100
AcDbArc
 50
202.024312837
 51
152.720387264
  0
ARC
  5
351
330
1F
100
AcDbEntity
  8
0
  6
Continuous
 62
     7
370
    15
100
AcDbCircle
 10
813.4906567672
 20
654.6457204677
 30
0.0
 40
0.500000000000081
100
AcDbArc
 50
22.024312837
 51
90.0
  0
LINE
  5
352
330
1F
100
AcDbEntity
  8
0
  6
Continuous
 62
     7
370
    15
100
AcDbLine
 10
813.4906613531
 20
655.1457244732
 30
0.0
 11
813.0528056325
 21
655.1457244732
 31
0.0
  0
ARC
  5
353
330
1F
100
AcDbEntity
  8
0
  6
Continuous
 62
     7
370
    15
100
AcDbCircle
 10
307.8528056325
 20
675.2457204677
 30
0.0
 40
3.100000000000023
100
AcDbArc
 50
192.3149307508
 51
270.0
  0
LINE
  5
354
330
1F
100
AcDbEntity
  8
0
  6
Continuous
 62
     7
370
    15
100
AcDbLine
 10
312.7528154554
 20
678.3457148649
 30
0.0
 11
311.5527951421
 21
678.3457148649
 31
0.0
  0
LINE
  5
355
330
1F
100
AcDbEntity
  8
0
  6
Continuous
 62
     7
370
    15
100
AcDbLine
 10
312.7528154554
 20
672.1457142212
 30
0.0
 11
312.7528154554
 21
678.3457148649
 31
0.0
  0
LINE
  5
356
330
1F
100
AcDbEntity
  8
0
  6
Continuous
 62
     7
370
    15
100
AcDbLine
 10
307.8528070154
 20
672.1457142212
 30
0.0
 11
308.1629299821
 21
672.1457142212
 31
0.0
  0
LINE
  5
357
330
1F
100
AcDbEntity
  8
0
  6
Continuous
 62
     7
370
    15
100
AcDbLine
 10
311.1781799497
 20
672.1457142212
 30
0.0
 11
312.7528154554
 21
672.1457142212
 31
0.0
  0
LINE
  5
358
330
1F
100
AcDbEntity
  8
0
  6
Continuous
 62
     7
370
    15
100
AcDbLine
 10
312.7528154554
 20
678.3457148649
 30
0.0
 11
313.0528056325
 21
678.3467877485
 31
0.0
  0
LINE
  5
359
330
1F
100
AcDbEntity
  8
0
  6
Continuous
 62
     7
370
    15
100
AcDbLine
 10
313.0528056325
 20
672.1457142212
 30
0.0
 11
312.7528154554
 21
672.1457142212
 31
0.0
  0
LINE
  5
35A
330
1F
100
AcDbEntity
  8
0
  6
Continuous
 62
     7
370
    15
100
AcDbLine
 10
313.0528056325
 20
680.345718918
 30
0.0
 11
312.7528154554
 21
680.345718918
 31
0.0
  0
LINE
  5
35B
330
1F
100
AcDbEntity
  8
0
  6
Continuous
 62
     7
370
    15
100
AcDbLine
 10
312.7528154554
 20
678.3457148649
 30
0.0
 11
312.7528154554
 21
680.345718918
 31
0.0
  0
LINE
  5
35C
330
1F
100
AcDbEntity
  8
0
  6
Continuous
 62
     7
370
    15
100
AcDbLine
 10
312.7528154554
 20
711.1457187511
 30
0.0
 11
312.7528154554
 21
704.3957162477
 31
0.0
  0
LINE
  5
35D
330
1F
100
AcDbEntity
  8
0
  6
Continuous
 62
     7
370
    15
100
AcDbLine
 10
312.7528154554
 20
680.345718918
 30
0.0
 11
312.7528154554
 21
704.3957162477
 31
0.0
  0
LINE
  5
35E
330
1F
100
AcDbEntity
  8
0
  6
Continuous
 62
     7
370
    15
100
AcDbLine
 10
312.6527988615
 20
704.1457194664
 30
0.0
 11
312.6527988615
 21
710.1457241751
 31
0.0
  0
LINE
  5
35F
330
1F
100
AcDbEntity
  8
0
  6
Continuous
 62
     7
370
    15
100
AcDbLine
 10
312.6527988615
 20
681.145717559
 30
0.0
 11
312.6527988615
 21
687.1457148172
 31
0.0
  0
LINE
  5
360
330
1F
100
AcDbEntity
  8
0
  6
Continuous
 62
     7
370
    15
100
AcDbLine
 10
311.5527951421
 20
696.502541361
 30
0.0
 11
312.7528154554
 21
696.1809892036
 31
0.0
  0
LINE
  5
361
330
1F
100
AcDbEntity
  8
0
  6
Continuous
 62
     7
370
    15
100
AcDbLine
 10
312.7528154554
 20
695.1457161285
 30
0.0
 11
311.5527951421
 21
695.4672533848
 31
0.0
  0
LINE
  5
362
330
1F
100
AcDbEntity
  8
0
  6
Continuous
 62
     8
370
    15
100
AcDbLine
 10
313.0528056325
 20
704.3957162477
 30
0.0
 11
312.7528154554
 21
704.3957162477
 31
0.0
  0
ENDSEC
  0
SECTION
  2
OBJECTS
  0
DICTIONARY
  5
C
330
0
100
AcDbDictionary
281
     1
  3
ACAD_GROUP
350
D
  3
ACAD_LAYOUT
350
1A
  3
ACAD_MLINESTYLE
350
17
  3
ACAD_PLOTSETTINGS
350
19
  3
ACAD_PLOTSTYLENAME
350
E
  0
DICTIONARY
  5
D
102
{ACAD_REACTORS
330
C
102
}
330
C
100
AcDbDictionary
281
     1
  0
DICTIONARY
  5
1A
102
{ACAD_REACTORS
330
C
102
}
330
C
100
AcDbDictionary
281
     1
  3
Layout1
350
1E
  3
Layout2
350
26
  3
Model
350
22
  0
DICTIONARY
  5
17
102
{ACAD_REACTORS
330
C
102
}
330
C
100
AcDbDictionary
281
     1
  3
Standard
350
18
  0
DICTIONARY
  5
19
102
{ACAD_REACTORS
330
C
102
}
330
C
100
AcDbDictionary
281
     1
  0
ACDBDICTIONARYWDFLT
  5
E
102
{ACAD_REACTORS
330
C
102
}
330
C
100
AcDbDictionary
281
     1
  3
Normal
350
F
100
AcDbDictionaryWithDefault
340
F
  0
LAYOUT
  5
1E
102
{ACAD_REACTORS
330
1A
102
}
330
1A
100
AcDbPlotSettings
  1

  2
none_device
  4

  6

 40
0.0
 41
0.0
 42
0.0
 43
0.0
 44
0.0
 45
0.0
 46
0.0
 47
0.0
 48
0.0
 49
0.0
140
0.0
141
0.0
142
1.0
143
1.0
 70
   688
 72
     0
 73
     0
 74
     5
  7

 75
    16
147
1.0
148
0.0
149
0.0
100
AcDbLayout
  1
Layout1
 70
     1
 71
     1
 10
0.0
 20
0.0
 11
420.0
 21
297.0
 12
0.0
 22
0.0
 32
0.0
 14
1.0000000000E+20
 24
1.0000000000E+20
 34
1.0000000000E+20
 15
-1.0000000000E+20
 25
-1.0000000000E+20
 35
-1.0000000000E+20
146
0.0
 13
0.0
 23
0.0
 33
0.0
 16
1.0
 26
0.0
 36
0.0
 17
0.0
 27
1.0
 37
0.0
 76
     0
330
1B
  0
LAYOUT
  5
26
102
{ACAD_REACTORS
330
1A
102
}
330
1A
100
AcDbPlotSettings
  1

  2
none_device
  4

  6

 40
0.0
 41
0.0
 42
0.0
 43
0.0
 44
0.0
 45
0.0
 46
0.0
 47
0.0
 48
0.0
 49
0.0
140
0.0
141
0.0
142
1.0
143
1.0
 70
   688
 72
     0
 73
     0
 74
     5
  7

 75
    16
147
1.0
148
0.0
149
0.0
100
AcDbLayout
  1
Layout2
 70
     1
 71
     2
 10
0.0
 20
0.0
 11
0.0
 21
0.0
 12
0.0
 22
0.0
 32
0.0
 14
0.0
 24
0.0
 34
0.0
 15
0.0
 25
0.0
 35
0.0
146
0.0
 13
0.0
 23
0.0
 33
0.0
 16
1.0
 26
0.0
 36
0.0
 17
0.0
 27
1.0
 37
0.0
 76
     0
330
23
  0
LAYOUT
  5
22
102
{ACAD_REACTORS
330
1A
102
}
330
1A
100
AcDbPlotSettings
  1

  2
none_device
  4

  6

 40
0.0
 41
0.0
 42
0.0
 43
0.0
 44
0.0
 45
0.0
 46
0.0
 47
0.0
 48
0.0
 49
0.0
140
0.0
141
0.0
142
1.0
143
1.0
 70
  1712
 72
     0
 73
     0
 74
     0
  7

 75
     0
147
1.0
148
0.0
149
0.0
100
AcDbLayout
  1
Model
 70
     1
 71
     0
 10
0.0
 20
0.0
 11
840.0
 21
594.0
 12
0.0
 22
0.0
 32
0.0
 14
0.0
 24
0.0
 34
0.0
 15
840.0
 25
594.0
 35
0.0
146
0.0
 13
0.0
 23
0.0
 33
0.0
 16
1.0
 26
0.0
 36
0.0
 17
0.0
 27
1.0
 37
0.0
 76
     0
330
1F
331
29
  0
MLINESTYLE
  5
18
102
{ACAD_REACTORS
330
17
102
}
330
17
100
AcDbMlineStyle
  2
Standard
 70
     0
  3

 62
   256
 51
90.0
 52
90.0
 71
     2
 49
0.5
 62
   256
  6
BYLAYER
 49
-0.5
 62
   256
  6
BYLAYER
  0
ACDBPLACEHOLDER
  5
F
102
{ACAD_REACTORS
330
E
102
}
330
E
  0
ENDSEC
  0
EOF
