  0
SECTION
  2
HEADER
  9
$ACADVER
  1
AC1015
  9
$ACADMAINTVER
 70
     6
  9
$DWGCODEPAGE
  3
DOS932
  9
$INSBASE
 10
0.0
 20
0.0
 30
0.0
  9
$EXTMIN
 10
0.0
 20
0.0
 30
0.0
  9
$EXTMAX
 10
840.0
 20
594.0
 30
0.0
  9
$LIMMIN
 10
0.0
 20
0.0
  9
$LIMMAX
 10
840.0
 20
594.0
  9
$ORTHOMODE
 70
     0
  9
$REGENMODE
 70
     1
  9
$FILLMODE
 70
     1
  9
$QTEXTMODE
 70
     0
  9
$MIRRTEXT
 70
     1
  9
$LTSCALE
 40
2.0
  9
$ATTMODE
 70
     1
  9
$TEXTSIZE
 40
7.0
  9
$TRACEWID
 40
1.0
  9
$TEXTSTYLE
  7
Standard
  9
$CLAYER
  8
0
  9
$CELTYPE
  6
ByLayer
  9
$CECOLOR
 62
   256
  9
$CELTSCALE
 40
1.0
  9
$DISPSILH
 70
     0
  9
$DIMSCALE
 40
1.0
  9
$DIMASZ
 40
6.0
  9
$DIMEXO
 40
2.0
  9
$DIMDLI
 40
3.75
  9
$DIMRND
 40
0.0
  9
$DIMDLE
 40
0.0
  9
$DIMEXE
 40
2.0
  9
$DIMTP
 40
0.0
  9
$DIMTM
 40
0.0
  9
$DIMTXT
 40
7.0
  9
$DIMCEN
 40
2.5
  9
$DIMTSZ
 40
0.0
  9
$DIMTOL
 70
     0
  9
$DIMLIM
 70
     0
  9
$DIMTIH
 70
     1
  9
$DIMTOH
 70
     1
  9
$DIMSE1
 70
     0
  9
$DIMSE2
 70
     0
  9
$DIMTAD
 70
     1
  9
$DIMZIN
 70
     0
  9
$DIMBLK
  1

  9
$DIMASO
 70
     1
  9
$DIMSHO
 70
     1
  9
$DIMPOST
  1

  9
$DIMAPOST
  1

  9
$DIMALT
 70
     0
  9
$DIMALTD
 70
     3
  9
$DIMALTF
 40
0.0393700787
  9
$DIMLFAC
 40
1.0
  9
$DIMTOFL
 70
     1
  9
$DIMTVP
 40
0.0
  9
$DIMTIX
 70
     0
  9
$DIMSOXD
 70
     0
  9
$DIMSAH
 70
     0
  9
$DIMBLK1
  1

  9
$DIMBLK2
  1

  9
$DIMSTYLE
  2
ISO-25
  9
$DIMCLRD
 70
     0
  9
$DIMCLRE
 70
     0
  9
$DIMCLRT
 70
     0
  9
$DIMTFAC
 40
1.0
  9
$DIMGAP
 40
3.048
  9
$DIMJUST
 70
     0
  9
$DIMSD1
 70
     0
  9
$DIMSD2
 70
     0
  9
$DIMTOLJ
 70
     0
  9
$DIMTZIN
 70
     0
  9
$DIMALTZ
 70
     0
  9
$DIMALTTZ
 70
     0
  9
$DIMUPT
 70
     0
  9
$DIMDEC
 70
     1
  9
$DIMTDEC
 70
     1
  9
$DIMALTU
 70
     2
  9
$DIMALTTD
 70
     3
  9
$DIMTXSTY
  7
Standard
  9
$DIMAUNIT
 70
     0
  9
$DIMADEC
 70
     2
  9
$DIMALTRND
 40
0.0
  9
$DIMAZIN
 70
     0
  9
$DIMDSEP
 70
    44
  9
$DIMATFIT
 70
     3
  9
$DIMFRAC
 70
     0
  9
$DIMLDRBLK
  1

  9
$DIMLUNIT
 70
     2
  9
$DIMLWD
 70
    -2
  9
$DIMLWE
 70
    -2
  9
$DIMTMOVE
 70
     0
  9
$LUNITS
 70
     2
  9
$LUPREC
 70
     1
  9
$SKETCHINC
 40
1.0
  9
$FILLETRAD
 40
10.0
  9
$AUNITS
 70
     0
  9
$AUPREC
 70
     2
  9
$MENU
  1
.
  9
$ELEVATION
 40
0.0
  9
$PELEVATION
 40
0.0
  9
$THICKNESS
 40
0.0
  9
$LIMCHECK
 70
     0
  9
$CHAMFERA
 40
10.0
  9
$CHAMFERB
 40
10.0
  9
$CHAMFERC
 40
20.0
  9
$CHAMFERD
 40
0.0
  9
$SKPOLY
 70
     0
  9
$TDCREATE
 40
2460451.508415845
  9
$TDUCREATE
 40
2460451.133415845
  9
$TDUPDATE
 40
2460451.508415856
  9
$TDUUPDATE
 40
2460451.133415856
  9
$TDINDWG
 40
0.0000000116
  9
$TDUSRTIMER
 40
0.0000000116
  9
$USRTIMER
 70
     1
  9
$ANGBASE
 50
0.0
  9
$ANGDIR
 70
     0
  9
$PDMODE
 70
     0
  9
$PDSIZE
 40
-1.0
  9
$PLINEWID
 40
0.0
  9
$SPLFRAME
 70
     0
  9
$SPLINETYPE
 70
     6
  9
$SPLINESEGS
 70
     8
  9
$HANDSEED
  5
253
  9
$SURFTAB1
 70
     6
  9
$SURFTAB2
 70
     6
  9
$SURFTYPE
 70
     6
  9
$SURFU
 70
     6
  9
$SURFV
 70
     6
  9
$UCSBASE
  2

  9
$UCSNAME
  2

  9
$UCSORG
 10
0.0
 20
0.0
 30
0.0
  9
$UCSXDIR
 10
1.0
 20
0.0
 30
0.0
  9
$UCSYDIR
 10
0.0
 20
1.0
 30
0.0
  9
$UCSORTHOREF
  2

  9
$UCSORTHOVIEW
 70
     0
  9
$UCSORGTOP
 10
0.0
 20
0.0
 30
0.0
  9
$UCSORGBOTTOM
 10
0.0
 20
0.0
 30
0.0
  9
$UCSORGLEFT
 10
0.0
 20
0.0
 30
0.0
  9
$UCSORGRIGHT
 10
0.0
 20
0.0
 30
0.0
  9
$UCSORGFRONT
 10
0.0
 20
0.0
 30
0.0
  9
$UCSORGBACK
 10
0.0
 20
0.0
 30
0.0
  9
$PUCSBASE
  2

  9
$PUCSNAME
  2

  9
$PUCSORG
 10
0.0
 20
0.0
 30
0.0
  9
$PUCSXDIR
 10
1.0
 20
0.0
 30
0.0
  9
$PUCSYDIR
 10
0.0
 20
1.0
 30
0.0
  9
$PUCSORTHOREF
  2

  9
$PUCSORTHOVIEW
 70
     0
  9
$PUCSORGTOP
 10
0.0
 20
0.0
 30
0.0
  9
$PUCSORGBOTTOM
 10
0.0
 20
0.0
 30
0.0
  9
$PUCSORGLEFT
 10
0.0
 20
0.0
 30
0.0
  9
$PUCSORGRIGHT
 10
0.0
 20
0.0
 30
0.0
  9
$PUCSORGFRONT
 10
0.0
 20
0.0
 30
0.0
  9
$PUCSORGBACK
 10
0.0
 20
0.0
 30
0.0
  9
$USERI1
 70
     0
  9
$USERI2
 70
     0
  9
$USERI3
 70
     0
  9
$USERI4
 70
     0
  9
$USERI5
 70
     0
  9
$USERR1
 40
0.0
  9
$USERR2
 40
0.0
  9
$USERR3
 40
0.0
  9
$USERR4
 40
0.0
  9
$USERR5
 40
0.0
  9
$WORLDVIEW
 70
     1
  9
$SHADEDGE
 70
     3
  9
$SHADEDIF
 70
    70
  9
$TILEMODE
 70
     1
  9
$MAXACTVP
 70
    64
  9
$PINSBASE
 10
0.0
 20
0.0
 30
0.0
  9
$PLIMCHECK
 70
     0
  9
$PEXTMIN
 10
1.0000000000E+20
 20
1.0000000000E+20
 30
1.0000000000E+20
  9
$PEXTMAX
 10
-1.0000000000E+20
 20
-1.0000000000E+20
 30
-1.0000000000E+20
  9
$PLIMMIN
 10
0.0
 20
0.0
  9
$PLIMMAX
 10
420.0
 20
297.0
  9
$UNITMODE
 70
     0
  9
$VISRETAIN
 70
     1
  9
$PLINEGEN
 70
     0
  9
$PSLTSCALE
 70
     1
  9
$TREEDEPTH
 70
  3020
  9
$CMLSTYLE
  2
Standard
  9
$CMLJUST
 70
     0
  9
$CMLSCALE
 40
20.0
  9
$PROXYGRAPHICS
 70
     1
  9
$MEASUREMENT
 70
     1
  9
$CELWEIGHT
370
    -1
  9
$ENDCAPS
280
     0
  9
$JOINSTYLE
280
     0
  9
$LWDISPLAY
290
     1
  9
$INSUNITS
 70
     4
  9
$HYPERLINKBASE
  1

  9
$STYLESHEET
  1

  9
$XEDIT
290
     1
  9
$CEPSNTYPE
380
     0
  9
$PSTYLEMODE
290
     1
  9
$FINGERPRINTGUID
  2
{7032EE9B-25F8-4697-81C9-0E27D99181F5}
  9
$VERSIONGUID
  2
{FAEB1C32-E019-11D5-929B-00C0DF256EC4}
  9
$EXTNAMES
290
     1
  9
$PSVPSCALE
 40
0.0
  9
$OLESTARTUP
290
     0
  0
ENDSEC
  0
SECTION
  2
CLASSES
  0
CLASS
  1
ACDBDICTIONARYWDFLT
  2
AcDbDictionaryWithDefault
  3
ObjectDBX Classes
 90
        0
280
     0
281
     0
  0
CLASS
  1
VISUALSTYLE
  2
AcDbVisualStyle
  3
ObjectDBX Classes
 90
     4095
280
     0
281
     0
  0
CLASS
  1
MATERIAL
  2
AcDbMaterial
  3
ObjectDBX Classes
 90
     1153
280
     0
281
     0
  0
CLASS
  1
ACDBPLACEHOLDER
  2
AcDbPlaceHolder
  3
ObjectDBX Classes
 90
        0
280
     0
281
     0
  0
CLASS
  1
LAYOUT
  2
AcDbLayout
  3
ObjectDBX Classes
 90
        0
280
     0
281
     0
  0
ENDSEC
  0
SECTION
  2
TABLES
  0
TABLE
  2
VPORT
  5
8
330
0
100
AcDbSymbolTable
 70
     1
  0
VPORT
  5
29
330
8
100
AcDbSymbolTableRecord
100
AcDbViewportTableRecord
  2
*Active
 70
     0
 10
0.0
 20
0.0
 11
1.0
 21
1.0
 12
420.0
 22
297.0
 13
0.0
 23
0.0
 14
10.0
 24
10.0
 15
10.0
 25
10.0
 16
0.0
 26
0.0
 36
1.0
 17
0.0
 27
0.0
 37
0.0
 40
594.0
 41
1.4141414141
 42
50.0
 43
0.0
 44
0.0
 50
0.0
 51
0.0
 71
     0
 72
  2000
 73
     1
 74
     3
 75
     0
 76
     0
 77
     0
 78
     0
281
     0
 65
     1
110
0.0
120
0.0
130
0.0
111
1.0
121
0.0
131
0.0
112
0.0
122
1.0
132
0.0
 79
     0
146
0.0
  0
ENDTAB
  0
TABLE
  2
LTYPE
  5
5
330
0
100
AcDbSymbolTable
 70
     6
  0
LTYPE
  5
14
330
5
100
AcDbSymbolTableRecord
100
AcDbLinetypeTableRecord
  2
ByBlock
 70
     0
  3

 72
    65
 73
     0
 40
0.0
  0
LTYPE
  5
15
330
5
100
AcDbSymbolTableRecord
100
AcDbLinetypeTableRecord
  2
ByLayer
 70
     0
  3

 72
    65
 73
     0
 40
0.0
  0
LTYPE
  5
16
330
5
100
AcDbSymbolTableRecord
100
AcDbLinetypeTableRecord
  2
Continuous
 70
     0
  3
Solid line
 72
    65
 73
     0
 40
0.0
  0
LTYPE
  5
3F
330
5
100
AcDbSymbolTableRecord
100
AcDbLinetypeTableRecord
  2
HIDDEN
 70
     0
  3
Hidden __ __ __ __ __ __ __ __ __ __ __ __ __ __
 72
    65
 73
     2
 40
1.905
 49
1.27
 74
     0
 49
-0.635
 74
     0
  0
LTYPE
  5
40
330
5
100
AcDbSymbolTableRecord
100
AcDbLinetypeTableRecord
  2
PHANTOM
 70
     0
  3
Phantom ______  __  __  ______  __  __  ______
 72
    65
 73
     6
 40
12.7
 49
6.35
 74
     0
 49
-1.27
 74
     0
 49
1.27
 74
     0
 49
-1.27
 74
     0
 49
1.27
 74
     0
 49
-1.27
 74
     0
  0
LTYPE
  5
41
330
5
100
AcDbSymbolTableRecord
100
AcDbLinetypeTableRecord
  2
CENTER
 70
     0
  3
Center ____ _ ____ _ ____ _ ____ _ ____ _ ____
 72
    65
 73
     4
 40
10.16
 49
6.35
 74
     0
 49
-1.27
 74
     0
 49
1.27
 74
     0
 49
-1.27
 74
     0
  0
LTYPE
  5
42
330
5
100
AcDbSymbolTableRecord
100
AcDbLinetypeTableRecord
  2
CENTERX2
 70
     0
  3
Center (2x) ________  __  ________  __  _____
 72
    65
 73
     4
 40
20.32
 49
12.7
 74
     0
 49
-2.54
 74
     0
 49
2.54
 74
     0
 49
-2.54
 74
     0
  0
LTYPE
  5
43
330
5
100
AcDbSymbolTableRecord
100
AcDbLinetypeTableRecord
  2
DOT2
 70
     0
  3
Dot (.5x) ........................................
 72
    65
 73
     2
 40
0.635
 49
0.0
 74
     0
 49
-0.635
 74
     0
  0
ENDTAB
  0
TABLE
  2
LAYER
  5
2
330
0
100
AcDbSymbolTable
 70
     1
  0
LAYER
  5
10
330
2
100
AcDbSymbolTableRecord
100
AcDbLayerTableRecord
  2
0
 70
     0
 62
     7
  6
Continuous
370
    -3
390
F
  0
ENDTAB
  0
TABLE
  2
STYLE
  5
3
330
0
100
AcDbSymbolTable
 70
     2
  0
STYLE
  5
11
330
3
100
AcDbSymbolTableRecord
100
AcDbTextStyleTableRecord
  2
Standard
 70
     0
 40
0.0
 41
1.0
 50
0.0
 71
     0
 42
2.5
  3
txt
  4
bigfont
  0
STYLE
  5
44
330
3
100
AcDbSymbolTableRecord
100
AcDbTextStyleTableRecord
  2
SLDTEXTSTYLE0
 70
     0
 40
0.0
 41
0.7
 50
0.0
 71
     0
 42
0.2
  3
TXT
  4
bigfont
  0
ENDTAB
  0
TABLE
  2
VIEW
  5
6
330
0
100
AcDbSymbolTable
 70
     0
  0
ENDTAB
  0
TABLE
  2
UCS
  5
7
330
0
100
AcDbSymbolTable
 70
     0
  0
ENDTAB
  0
TABLE
  2
APPID
  5
9
330
0
100
AcDbSymbolTable
 70
     1
  0
APPID
  5
12
330
9
100
AcDbSymbolTableRecord
100
AcDbRegAppTableRecord
  2
ACAD
 70
     0
  0
ENDTAB
  0
TABLE
  2
DIMSTYLE
  5
A
330
0
100
AcDbSymbolTable
 70
     1
100
AcDbDimStyleTable
  0
DIMSTYLE
105
27
330
A
100
AcDbSymbolTableRecord
100
AcDbDimStyleTableRecord
  2
ISO-25
 70
     0
 41
2.5
 42
0.625
 43
3.75
 44
1.25
 73
     0
 74
     0
 77
     1
 78
     8
140
2.5
141
2.5
143
0.0393700787
147
0.625
171
     3
172
     1
178
     0
271
     2
272
     2
274
     3
278
    44
283
     0
284
     8
340
11
  0
ENDTAB
  0
TABLE
  2
BLOCK_RECORD
  5
1
330
0
100
AcDbSymbolTable
 70
     1
  0
BLOCK_RECORD
  5
1F
330
1
100
AcDbSymbolTableRecord
100
AcDbBlockTableRecord
  2
*Model_Space
340
22
  0
BLOCK_RECORD
  5
1B
330
1
100
AcDbSymbolTableRecord
100
AcDbBlockTableRecord
  2
*Paper_Space
340
1E
  0
BLOCK_RECORD
  5
23
330
1
100
AcDbSymbolTableRecord
100
AcDbBlockTableRecord
  2
*Paper_Space0
340
26
  0
ENDTAB
  0
ENDSEC
  0
SECTION
  2
BLOCKS
  0
BLOCK
  5
20
330
1F
100
AcDbEntity
  8
0
100
AcDbBlockBegin
  2
*Model_Space
 70
     0
 10
0.0
 20
0.0
 30
0.0
  3
*Model_Space
  1

  0
ENDBLK
  5
21
330
1F
100
AcDbEntity
  8
0
100
AcDbBlockEnd
  0
BLOCK
  5
1C
330
1B
100
AcDbEntity
 67
     1
  8
0
100
AcDbBlockBegin
  2
*Paper_Space
 70
     0
 10
0.0
 20
0.0
 30
0.0
  3
*Paper_Space
  1

  0
ENDBLK
  5
1D
330
1B
100
AcDbEntity
 67
     1
  8
0
100
AcDbBlockEnd
  0
BLOCK
  5
24
330
23
100
AcDbEntity
  8
0
100
AcDbBlockBegin
  2
*Paper_Space0
 70
     0
 10
0.0
 20
0.0
 30
0.0
  3
*Paper_Space0
  1

  0
ENDBLK
  5
25
330
23
100
AcDbEntity
  8
0
100
AcDbBlockEnd
  0
ENDSEC
  0
SECTION
  2
ENTITIES
  0
MTEXT
  5
45
330
1F
100
AcDbEntity
  8
0
  6
Continuous
 62
     7
370
     0
100
AcDbMText
 10
167.3818471904
 20
563.9120835269
 30
0.0
 40
7.0
 41
0.0
 71
     1
 72
     1
  1
CHB-520P
  7
SLDTEXTSTYLE0
 73
     1
 44
1.0
  0
LINE
  5
46
330
1F
100
AcDbEntity
  8
0
  6
Continuous
 62
     7
370
    15
100
AcDbLine
 10
316.09730587
 20
244.8307984394
 30
0.0
 11
316.1973224639
 21
244.8307984394
 31
0.0
  0
LINE
  5
47
330
1F
100
AcDbEntity
  8
0
  6
Continuous
 62
     7
370
    15
100
AcDbLine
 10
316.1973224639
 20
250.8307987244
 30
0.0
 11
316.09730587
 21
250.8307987244
 31
0.0
  0
LINE
  5
48
330
1F
100
AcDbEntity
  8
0
  6
Continuous
 62
     7
370
    15
100
AcDbLine
 10
316.09730587
 20
254.8307989144
 30
0.0
 11
316.1973224639
 21
254.8307989144
 31
0.0
  0
LINE
  5
49
330
1F
100
AcDbEntity
  8
0
  6
Continuous
 62
     7
370
    15
100
AcDbLine
 10
316.1973224639
 20
260.8307991994
 30
0.0
 11
316.09730587
 21
260.8307991994
 31
0.0
  0
LINE
  5
4A
330
1F
100
AcDbEntity
  8
0
  6
Continuous
 62
     7
370
    15
100
AcDbLine
 10
317.3973129748
 20
264.3307988417
 30
0.0
 11
316.1973224639
 21
264.3307988417
 31
0.0
  0
LINE
  5
4B
330
1F
100
AcDbEntity
  8
0
  6
Continuous
 62
     7
370
    15
100
AcDbLine
 10
316.1973224639
 20
241.330798797
 30
0.0
 11
317.3973129748
 21
241.330798797
 31
0.0
  0
LINE
  5
4C
330
1F
100
AcDbEntity
  8
0
  6
Continuous
 62
     7
370
    15
100
AcDbLine
 10
828.8973139285
 20
108.8308050183
 30
0.0
 11
828.8973139285
 21
143.830801442
 31
0.0
  0
LINE
  5
4D
330
1F
100
AcDbEntity
  8
0
  6
Continuous
 62
     7
370
    15
100
AcDbLine
 10
828.8973139285
 20
361.8307961968
 30
0.0
 11
828.8973139285
 21
396.8307926205
 31
0.0
  0
LINE
  5
4E
330
1F
100
AcDbEntity
  8
0
  6
Continuous
 62
     7
370
    15
100
AcDbLine
 10
308.2924948692
 20
256.7307987136
 30
0.0
 11
308.2924948692
 21
248.1307988872
 31
0.0
  0
LINE
  5
4F
330
1F
100
AcDbEntity
  8
0
  6
Continuous
 62
     7
370
    15
100
AcDbLine
 10
308.8973031997
 20
260.8305449483
 30
0.0
 11
308.8973031997
 21
260.0307986957
 31
0.0
  0
LINE
  5
50
330
1F
100
AcDbEntity
  8
0
  6
Continuous
 62
     7
370
    15
100
AcDbLine
 10
308.8973031997
 20
245.6307989431
 30
0.0
 11
308.8973031997
 21
244.8310526905
 31
0.0
  0
LINE
  5
51
330
1F
100
AcDbEntity
  8
0
  6
Continuous
 62
     7
370
    15
100
AcDbLine
 10
310.2973268985
 20
261.1307986897
 30
0.0
 11
310.2973268985
 21
260.8307991994
 31
0.0
  0
ARC
  5
52
330
1F
100
AcDbEntity
  8
0
  6
Continuous
 62
     7
370
    15
100
AcDbCircle
 10
312.4973129748
 20
258.0236559623
 30
0.0
 40
3.807142857143211
100
AcDbArc
 50
77.9663271603
 51
90.0
  0
ARC
  5
53
330
1F
100
AcDbEntity
  8
0
  6
Continuous
 62
     7
370
    15
100
AcDbCircle
 10
312.4973129748
 20
258.0236559623
 30
0.0
 40
3.807142857143189
100
AcDbArc
 50
90.0
 51
125.3002484399
  0
LINE
  5
54
330
1F
100
AcDbEntity
  8
0
  6
Continuous
 62
     7
370
    15
100
AcDbLine
 10
310.3973136901
 20
244.4307991189
 30
0.0
 11
310.3973136901
 21
244.0307988671
 31
0.0
  0
ARC
  5
55
330
1F
100
AcDbEntity
  8
0
  6
Continuous
 62
     7
370
    15
100
AcDbCircle
 10
310.5973129748
 20
244.8307988194
 30
0.0
 40
0.4000000000008299
100
AcDbArc
 50
270.0
 51
0.0
  0
LINE
  5
56
330
1F
100
AcDbEntity
  8
0
  6
Continuous
 62
     7
370
    15
100
AcDbLine
 10
310.9973238467
 20
260.0307986957
 30
0.0
 11
310.9973238467
 21
259.5807989945
 31
0.0
  0
LINE
  5
57
330
1F
100
AcDbEntity
  8
0
  6
Continuous
 62
     7
370
    15
100
AcDbLine
 10
310.9973238467
 20
246.0807986443
 30
0.0
 11
310.9973238467
 21
245.6307989431
 31
0.0
  0
SPLINE
  5
58
330
1F
100
AcDbEntity
  8
0
  6
Continuous
 62
     7
370
    15
100
AcDbSpline
210
0.0
220
0.0
230
1.0
 70
     8
 71
     3
 72
    11
 73
     7
 74
     0
 42
0.00000001
 43
0.00000001
 40
0.0
 40
0.0
 40
0.0
 40
0.0
 40
0.2262262531891582
 40
0.4679482197182449
 40
0.7254882483762183
 40
1.0
 40
1.0
 40
1.0
 40
1.0
 10
313.7178288458958
 20
261.0612335500322
 30
0.0
 10
313.7206495926034
 20
261.0383351248963
 30
0.0
 10
313.7264842973802
 20
260.99096981196
 30
0.0
 10
313.7432509779871
 20
260.6661815927386
 30
0.0
 10
313.756846181475
 20
260.1656841381453
 30
0.0
 10
313.7573926175892
 20
259.7418637422458
 30
0.0
 10
313.7576745509281
 20
259.5231938992641
 30
0.0
  0
SPLINE
  5
59
330
1F
100
AcDbEntity
  8
0
  6
Continuous
 62
     7
370
    15
100
AcDbSpline
210
0.0
220
0.0
230
1.0
 70
     8
 71
     3
 72
    12
 73
     8
 74
     0
 42
0.00000001
 43
0.00000001
 40
0.0
 40
0.0
 40
0.0
 40
0.0
 40
0.2489450918608725
 40
0.4822920041796321
 40
0.6998108393712417
 40
0.9035366771083447
 40
1.0
 40
1.0
 40
1.0
 40
1.0
 10
313.7576745509281
 20
245.9645630677245
 30
0.0
 10
313.7562486800722
 20
245.8272284929112
 30
0.0
 10
313.7534862793048
 20
245.5611643305904
 30
0.0
 10
313.7425853486259
 20
245.2253645590235
 30
0.0
 10
313.7400749949704
 20
244.9921834932918
 30
0.0
 10
313.7448641492688
 20
244.8720797038606
 30
0.0
 10
313.7712946497462
 20
244.8707331806029
 30
0.0
 10
313.7797878741398
 20
244.8703004864059
 30
0.0
  0
LINE
  5
5A
330
1F
100
AcDbEntity
  8
0
  6
Continuous
 62
     7
370
    15
100
AcDbLine
 10
313.7568400859
 20
259.5731938143
 30
0.0
 11
313.7568400859
 21
245.9145631527
 31
0.0
  0
LINE
  5
5B
330
1F
100
AcDbEntity
  8
0
  6
Continuous
 62
     7
370
    15
100
AcDbLine
 10
312.2331963538
 20
263.5110822392
 30
0.0
 11
313.7205706596
 21
261.0309348327
 31
0.0
  0
LINE
  5
5C
330
1F
100
AcDbEntity
  8
0
  6
Continuous
 62
     7
370
    15
100
AcDbLine
 10
316.1973224639
 20
262.7340444249
 30
0.0
 11
314.8060308456
 21
265.0540080738
 31
0.0
  0
LINE
  5
5D
330
1F
100
AcDbEntity
  8
0
  6
Continuous
 62
     7
370
    15
100
AcDbLine
 10
313.7850628852
 20
244.7382147309
 30
0.0
 11
312.2159706115
 21
242.1217962054
 31
0.0
  0
LINE
  5
5E
330
1F
100
AcDbEntity
  8
0
  6
Continuous
 62
     7
370
    15
100
AcDbLine
 10
314.7888051032
 20
240.5788703707
 30
0.0
 11
316.1973224639
 21
242.9275532139
 31
0.0
  0
LINE
  5
5F
330
1F
100
AcDbEntity
  8
0
  6
Continuous
 62
     7
370
    15
100
AcDbLine
 10
314.8259089946
 20
265.018499538
 30
0.0
 11
314.7359655856
 21
265.1322866675
 31
0.0
  0
SPLINE
  5
60
330
1F
100
AcDbEntity
  8
0
  6
Continuous
 62
     7
370
    15
100
AcDbSpline
210
0.0
220
0.0
230
1.0
 70
     8
 71
     3
 72
    20
 73
    16
 74
     0
 42
0.00000001
 43
0.00000001
 40
0.0
 40
0.0
 40
0.0
 40
0.0
 40
0.0337785782231569
 40
0.1101042993354206
 40
0.1739276392103239
 40
0.2252750551910602
 40
0.2665357740175358
 40
0.3037736807865151
 40
0.3388579490142392
 40
0.3726396773516846
 40
0.4139184304500561
 40
0.625982263517727
 40
0.8390270204489249
 40
0.9659462600068899
 40
1.0
 40
1.0
 40
1.0
 40
1.0
 10
314.6236406325474
 20
265.2743562010131
 30
0.0
 10
314.5829909717395
 20
265.3305418490661
 30
0.0
 10
314.4504897636692
 20
265.5136839982325
 30
0.0
 10
314.1406075656537
 20
265.6908547092634
 30
0.0
 10
313.7533372055319
 20
265.813813293852
 30
0.0
 10
313.3834816305905
 20
265.8286030089472
 30
0.0
 10
313.0491686903346
 20
265.7780068994674
 30
0.0
 10
312.7746856307272
 20
265.6769650352769
 30
0.0
 10
312.5471819285743
 20
265.5422432338223
 30
0.0
 10
312.341152094839
 20
265.3660696676149
 30
0.0
 10
311.9965912035854
 20
264.9235810998746
 30
0.0
 10
311.8155087140919
 20
264.2368982487907
 30
0.0
 10
311.6657909567206
 20
263.0560690565727
 30
0.0
 10
311.6105841787656
 20
262.1514277493802
 30
0.0
 10
311.6040507600045
 20
261.7368388317622
 30
0.0
 10
311.6026686190739
 20
261.6491327879033
 30
0.0
  0
SPLINE
  5
61
330
1F
100
AcDbEntity
  8
0
  6
Continuous
 62
     7
370
    15
100
AcDbSpline
210
0.0
220
0.0
230
1.0
 70
     8
 71
     3
 72
    19
 73
    15
 74
     0
 42
0.00000001
 43
0.00000001
 40
0.0
 40
0.0
 40
0.0
 40
0.0
 40
0.0102736458307081
 40
0.1295975646253967
 40
0.3268130855041061
 40
0.5525080689818213
 40
0.5858529946632578
 40
0.6186005369793628
 40
0.6529079054353801
 40
0.6960089484405682
 40
0.7523131513428922
 40
0.8223133556573198
 40
0.9054606198325847
 40
1.0
 40
1.0
 40
1.0
 40
1.0
 10
311.5998075961247
 20
244.0307988670669
 30
0.0
 10
311.6001307548613
 20
244.0035998831649
 30
0.0
 10
311.6042072614829
 20
243.6604965552836
 30
0.0
 10
311.6440234210496
 20
242.8405171531151
 30
0.0
 10
311.7789849186098
 20
241.6180823411347
 30
0.0
 10
311.8694309352843
 20
240.9747162464964
 30
0.0
 10
312.2202668449926
 20
240.4346201053701
 30
0.0
 10
312.3894938167845
 20
240.246767897808
 30
0.0
 10
312.626225895681
 20
240.0703016998666
 30
0.0
 10
312.9398521641625
 20
239.9168232277695
 30
0.0
 10
313.3433268602788
 20
239.8150322273457
 30
0.0
 10
313.8291840975113
 20
239.8381991124595
 30
0.0
 10
314.358939327203
 20
240.0485190999987
 30
0.0
 10
314.6241721530595
 20
240.3703395168824
 30
0.0
 10
314.7652910708561
 20
240.5415662449799
 30
0.0
  0
LINE
  5
62
330
1F
100
AcDbEntity
  8
0
  6
Continuous
 62
     7
370
    15
100
AcDbLine
 10
828.8973139285
 20
72.8307916668
 30
0.0
 11
828.8973139285
 21
107.8308029917
 31
0.0
  0
LINE
  5
63
330
1F
100
AcDbEntity
  8
0
  6
Continuous
 62
     7
370
    15
100
AcDbLine
 10
828.8973139285
 20
397.8307946471
 30
0.0
 11
828.8973139285
 21
432.8308059719
 31
0.0
  0
LINE
  5
64
330
1F
100
AcDbEntity
  8
0
  6
Continuous
 62
     7
370
    15
100
AcDbLine
 10
825.89732275
 20
107.8308029917
 30
0.0
 11
825.89732275
 21
108.8308050183
 31
0.0
  0
LINE
  5
65
330
1F
100
AcDbEntity
  8
0
  6
Continuous
 62
     7
370
    15
100
AcDbLine
 10
825.89732275
 20
143.830801442
 30
0.0
 11
825.89732275
 21
144.830796018
 31
0.0
  0
LINE
  5
66
330
1F
100
AcDbEntity
  8
0
  6
Continuous
 62
     7
370
    15
100
AcDbLine
 10
820.8973275184
 20
144.830796018
 30
0.0
 11
820.8973275184
 21
143.830801442
 31
0.0
  0
LINE
  5
67
330
1F
100
AcDbEntity
  8
0
  6
Continuous
 62
     7
370
    15
100
AcDbLine
 10
820.8973275184
 20
108.8308050183
 30
0.0
 11
820.8973275184
 21
107.8308029917
 31
0.0
  0
LINE
  5
68
330
1F
100
AcDbEntity
  8
0
  6
Continuous
 62
     7
370
    15
100
AcDbLine
 10
820.8973275184
 20
397.8307946471
 30
0.0
 11
820.8973275184
 21
396.8307926205
 31
0.0
  0
LINE
  5
69
330
1F
100
AcDbEntity
  8
0
  6
Continuous
 62
     7
370
    15
100
AcDbLine
 10
820.8973275184
 20
361.8307961968
 30
0.0
 11
820.8973275184
 21
360.8308016208
 31
0.0
  0
LINE
  5
6A
330
1F
100
AcDbEntity
  8
0
  6
Continuous
 62
     7
370
    15
100
AcDbLine
 10
825.89732275
 20
360.8308016208
 30
0.0
 11
825.89732275
 21
361.8307961968
 31
0.0
  0
LINE
  5
6B
330
1F
100
AcDbEntity
  8
0
  6
Continuous
 62
     7
370
    15
100
AcDbLine
 10
825.89732275
 20
396.8307926205
 30
0.0
 11
825.89732275
 21
397.8307946471
 31
0.0
  0
LINE
  5
6C
330
1F
100
AcDbEntity
  8
0
  6
Continuous
 62
     7
370
    15
100
AcDbLine
 10
309.0973065852
 20
259.5807989945
 30
0.0
 11
309.0973065852
 21
259.2879879174
 31
0.0
  0
LINE
  5
6D
330
1F
100
AcDbEntity
  8
0
  6
Continuous
 62
     7
370
    15
100
AcDbLine
 10
309.0973065852
 20
246.3736097214
 30
0.0
 11
309.0973065852
 21
246.0807986443
 31
0.0
  0
LINE
  5
6E
330
1F
100
AcDbEntity
  8
0
  6
Continuous
 62
     7
370
    15
100
AcDbLine
 10
332.3973135709
 20
52.8307958392
 30
0.0
 11
332.3973135709
 21
67.8307964352
 31
0.0
  0
LINE
  5
6F
330
1F
100
AcDbEntity
  8
0
  6
Continuous
 62
     7
370
    15
100
AcDbLine
 10
332.3973135709
 20
67.8307964352
 30
0.0
 11
802.3973123788
 21
67.8307964352
 31
0.0
  0
LINE
  5
70
330
1F
100
AcDbEntity
  8
0
  6
Continuous
 62
     7
370
    15
100
AcDbLine
 10
802.3973123788
 20
67.8307964352
 30
0.0
 11
802.3973123788
 21
52.8307958392
 31
0.0
  0
LINE
  5
71
330
1F
100
AcDbEntity
  8
0
  6
Continuous
 62
     7
370
    15
100
AcDbLine
 10
332.3973135709
 20
52.8307958392
 30
0.0
 11
802.3973123788
 21
52.8307958392
 31
0.0
  0
LINE
  5
72
330
1F
100
AcDbEntity
  8
0
  6
Continuous
 62
     7
370
    15
100
AcDbLine
 10
802.3973123788
 20
67.8307964352
 30
0.0
 11
817.3973129748
 21
67.8307964352
 31
0.0
  0
ARC
  5
73
330
1F
100
AcDbEntity
  8
0
  6
Continuous
 62
     7
370
    15
100
AcDbCircle
 10
802.3973129748
 20
67.8307988194
 30
0.0
 40
15.00000000000001
100
AcDbArc
 50
270.0
 51
0.0
  0
LINE
  5
74
330
1F
100
AcDbEntity
  8
0
  6
Continuous
 62
     7
370
    15
100
AcDbLine
 10
337.3973088025
 20
432.8308059719
 30
0.0
 11
797.3973171472
 21
432.8308059719
 31
0.0
  0
LINE
  5
75
330
1F
100
AcDbEntity
  8
0
  6
Continuous
 62
     7
370
    15
100
AcDbLine
 10
337.3973088025
 20
72.8307916668
 30
0.0
 11
337.3973088025
 21
432.8308059719
 31
0.0
  0
LINE
  5
76
330
1F
100
AcDbEntity
  8
0
  6
Continuous
 62
     7
370
    15
100
AcDbLine
 10
797.3973171472
 20
72.8307916668
 30
0.0
 11
337.3973088025
 21
72.8307916668
 31
0.0
  0
LINE
  5
77
330
1F
100
AcDbEntity
  8
0
  6
Continuous
 62
     7
370
    15
100
AcDbLine
 10
797.3973171472
 20
72.8307916668
 30
0.0
 11
797.3973171472
 21
432.8308059719
 31
0.0
  0
LINE
  5
78
330
1F
100
AcDbEntity
  8
0
  6
Continuous
 62
     7
370
    15
100
AcDbLine
 10
332.3973135709
 20
437.8308012036
 30
0.0
 11
332.3973135709
 21
67.8307964352
 31
0.0
  0
LINE
  5
79
330
1F
100
AcDbEntity
  8
0
  6
Continuous
 62
     7
370
    15
100
AcDbLine
 10
802.3973123788
 20
437.8308012036
 30
0.0
 11
332.3973135709
 21
437.8308012036
 31
0.0
  0
LINE
  5
7A
330
1F
100
AcDbEntity
  8
0
  6
Continuous
 62
     7
370
    15
100
AcDbLine
 10
802.3973123788
 20
67.8307964352
 30
0.0
 11
802.3973123788
 21
437.8308012036
 31
0.0
  0
LINE
  5
7B
330
1F
100
AcDbEntity
  8
0
  6
Continuous
 62
     7
370
    15
100
AcDbLine
 10
817.3973129748
 20
67.8307964352
 30
0.0
 11
817.3973129748
 21
437.8308012036
 31
0.0
  0
LINE
  5
7C
330
1F
100
AcDbEntity
  8
0
  6
Continuous
 62
     7
370
    15
100
AcDbLine
 10
817.3973129748
 20
437.8308012036
 30
0.0
 11
802.3973123788
 21
437.8308012036
 31
0.0
  0
ARC
  5
7D
330
1F
100
AcDbEntity
  8
0
  6
Continuous
 62
     7
370
    15
100
AcDbCircle
 10
332.3973129748
 20
67.8307988194
 30
0.0
 40
15.00000000000002
100
AcDbArc
 50
180.0
 51
270.0
  0
LINE
  5
7E
330
1F
100
AcDbEntity
  8
0
  6
Continuous
 62
     7
370
    15
100
AcDbLine
 10
317.3973129748
 20
67.8307964352
 30
0.0
 11
332.3973135709
 21
67.8307964352
 31
0.0
  0
LINE
  5
7F
330
1F
100
AcDbEntity
  8
0
  6
Continuous
 62
     7
370
    15
100
AcDbLine
 10
317.3973129748
 20
242.8433067051
 30
0.0
 11
317.3973129748
 21
67.8307964352
 31
0.0
  0
LINE
  5
80
330
1F
100
AcDbEntity
  8
0
  6
Continuous
 62
     7
370
    15
100
AcDbLine
 10
317.3973129748
 20
262.8182909337
 30
0.0
 11
317.3973129748
 21
437.8308012036
 31
0.0
  0
LINE
  5
81
330
1F
100
AcDbEntity
  8
0
  6
Continuous
 62
     7
370
    15
100
AcDbLine
 10
317.3973129748
 20
437.8308012036
 30
0.0
 11
332.3973135709
 21
437.8308012036
 31
0.0
  0
ARC
  5
82
330
1F
100
AcDbEntity
  8
0
  6
Continuous
 62
     7
370
    15
100
AcDbCircle
 10
802.3973129748
 20
437.8307988194
 30
0.0
 40
15.00000000000006
100
AcDbArc
 50
0.0
 51
90.0
  0
LINE
  5
83
330
1F
100
AcDbEntity
  8
0
  6
Continuous
 62
     7
370
    15
100
AcDbLine
 10
802.3973123788
 20
452.8308017996
 30
0.0
 11
802.3973123788
 21
437.8308012036
 31
0.0
  0
LINE
  5
84
330
1F
100
AcDbEntity
  8
0
  6
Continuous
 62
     7
370
    15
100
AcDbLine
 10
332.3973135709
 20
437.8308012036
 30
0.0
 11
332.3973135709
 21
452.8308017996
 31
0.0
  0
LINE
  5
85
330
1F
100
AcDbEntity
  8
0
  6
Continuous
 62
     7
370
    15
100
AcDbLine
 10
802.3973123788
 20
452.8308017996
 30
0.0
 11
332.3973135709
 21
452.8308017996
 31
0.0
  0
ARC
  5
86
330
1F
100
AcDbEntity
  8
0
  6
Continuous
 62
     7
370
    15
100
AcDbCircle
 10
332.3973129748
 20
437.8307988194
 30
0.0
 40
15.0
100
AcDbArc
 50
90.0
 51
180.0
  0
LINE
  5
87
330
1F
100
AcDbEntity
  8
0
  6
Continuous
 62
     7
370
    15
100
AcDbLine
 10
316.1973224639
 20
263.8652819094
 30
0.0
 11
317.3973129748
 21
263.8652819094
 31
0.0
  0
LINE
  5
88
330
1F
100
AcDbEntity
  8
0
  6
Continuous
 62
     7
370
    15
100
AcDbLine
 10
316.1973224639
 20
241.7963157293
 30
0.0
 11
317.3973129748
 21
241.7963157293
 31
0.0
  0
LINE
  5
89
330
1F
100
AcDbEntity
  8
0
  6
Continuous
 62
     7
370
    15
100
AcDbLine
 10
317.3973129748
 20
262.8182909337
 30
0.0
 11
317.3973129748
 21
242.8433067051
 31
0.0
  0
LINE
  5
8A
330
1F
100
AcDbEntity
  8
0
  6
Continuous
 62
     7
370
    15
100
AcDbLine
 10
316.1973224639
 20
241.7963157293
 30
0.0
 11
316.1973224639
 21
263.8652819094
 31
0.0
  0
LINE
  5
8B
330
1F
100
AcDbEntity
  8
0
  6
Continuous
 62
     7
370
    15
100
AcDbLine
 10
316.09730587
 20
244.8307984394
 30
0.0
 11
316.09730587
 21
250.8307987244
 31
0.0
  0
LINE
  5
8C
330
1F
100
AcDbEntity
  8
0
  6
Continuous
 62
     7
370
    15
100
AcDbLine
 10
316.09730587
 20
257.8307987076
 30
0.0
 11
316.09730587
 21
260.8307991994
 31
0.0
  0
LINE
  5
8D
330
1F
100
AcDbEntity
  8
0
  6
Continuous
 62
     7
370
    15
100
AcDbLine
 10
316.09730587
 20
254.8307989144
 30
0.0
 11
316.09730587
 21
257.8307987076
 31
0.0
  0
LINE
  5
8E
330
1F
100
AcDbEntity
  8
0
  6
Continuous
 62
     7
370
    15
100
AcDbLine
 10
316.1973224639
 20
263.8652819094
 30
0.0
 11
316.1973224639
 21
264.3307988417
 31
0.0
  0
LINE
  5
8F
330
1F
100
AcDbEntity
  8
0
  6
Continuous
 62
     7
370
    15
100
AcDbLine
 10
316.1973224639
 20
241.330798797
 30
0.0
 11
316.1973224639
 21
241.7963157293
 31
0.0
  0
LINE
  5
90
330
1F
100
AcDbEntity
  8
0
  6
Continuous
 62
     7
370
    15
100
AcDbLine
 10
818.2986842155
 20
143.830801442
 30
0.0
 11
818.2986842155
 21
108.8308050183
 31
0.0
  0
LINE
  5
91
330
1F
100
AcDbEntity
  8
0
  6
Continuous
 62
     7
370
    15
100
AcDbLine
 10
818.2986842155
 20
143.830801442
 30
0.0
 11
828.8973139285
 21
143.830801442
 31
0.0
  0
LINE
  5
92
330
1F
100
AcDbEntity
  8
0
  6
Continuous
 62
     7
370
    15
100
AcDbLine
 10
818.2986842155
 20
108.8308050183
 30
0.0
 11
828.8973139285
 21
108.8308050183
 31
0.0
  0
LINE
  5
93
330
1F
100
AcDbEntity
  8
0
  6
Continuous
 62
     7
370
    15
100
AcDbLine
 10
818.2986842155
 20
361.8307961968
 30
0.0
 11
828.8973139285
 21
361.8307961968
 31
0.0
  0
LINE
  5
94
330
1F
100
AcDbEntity
  8
0
  6
Continuous
 62
     7
370
    15
100
AcDbLine
 10
818.2986842155
 20
396.8307926205
 30
0.0
 11
818.2986842155
 21
361.8307961968
 31
0.0
  0
LINE
  5
95
330
1F
100
AcDbEntity
  8
0
  6
Continuous
 62
     7
370
    15
100
AcDbLine
 10
818.2986842155
 20
396.8307926205
 30
0.0
 11
828.8973139285
 21
396.8307926205
 31
0.0
  0
LINE
  5
96
330
1F
100
AcDbEntity
  8
0
  6
Continuous
 62
     7
370
    15
100
AcDbLine
 10
817.8351686954
 20
143.830801442
 30
0.0
 11
817.8351686954
 21
108.8308050183
 31
0.0
  0
LINE
  5
97
330
1F
100
AcDbEntity
  8
0
  6
Continuous
 62
     7
370
    15
100
AcDbLine
 10
817.8351686954
 20
143.830801442
 30
0.0
 11
818.2986842155
 21
143.830801442
 31
0.0
  0
LINE
  5
98
330
1F
100
AcDbEntity
  8
0
  6
Continuous
 62
     7
370
    15
100
AcDbLine
 10
817.8351686954
 20
108.8308050183
 30
0.0
 11
818.2986842155
 21
108.8308050183
 31
0.0
  0
LINE
  5
99
330
1F
100
AcDbEntity
  8
0
  6
Continuous
 62
     7
370
    15
100
AcDbLine
 10
817.8351686954
 20
396.8307926205
 30
0.0
 11
817.8351686954
 21
361.8307961968
 31
0.0
  0
LINE
  5
9A
330
1F
100
AcDbEntity
  8
0
  6
Continuous
 62
     7
370
    15
100
AcDbLine
 10
817.8351686954
 20
396.8307926205
 30
0.0
 11
818.2986842155
 21
396.8307926205
 31
0.0
  0
LINE
  5
9B
330
1F
100
AcDbEntity
  8
0
  6
Continuous
 62
     7
370
    15
100
AcDbLine
 10
817.8351686954
 20
361.8307961968
 30
0.0
 11
818.2986842155
 21
361.8307961968
 31
0.0
  0
LINE
  5
9C
330
1F
100
AcDbEntity
  8
0
  6
Continuous
 62
     7
370
    15
100
AcDbLine
 10
817.3973129748
 20
143.830801442
 30
0.0
 11
817.8351686954
 21
143.830801442
 31
0.0
  0
LINE
  5
9D
330
1F
100
AcDbEntity
  8
0
  6
Continuous
 62
     7
370
    15
100
AcDbLine
 10
817.3973129748
 20
108.8308050183
 30
0.0
 11
817.8351686954
 21
108.8308050183
 31
0.0
  0
LINE
  5
9E
330
1F
100
AcDbEntity
  8
0
  6
Continuous
 62
     7
370
    15
100
AcDbLine
 10
817.3973129748
 20
396.8307926205
 30
0.0
 11
817.8351686954
 21
396.8307926205
 31
0.0
  0
LINE
  5
9F
330
1F
100
AcDbEntity
  8
0
  6
Continuous
 62
     7
370
    15
100
AcDbLine
 10
817.3973129748
 20
361.8307961968
 30
0.0
 11
817.8351686954
 21
361.8307961968
 31
0.0
  0
LINE
  5
A0
330
1F
100
AcDbEntity
  8
0
  6
Continuous
 62
     7
370
    15
100
AcDbLine
 10
310.079859352
 20
246.3307986853
 30
0.0
 11
309.3493448257
 21
246.3307986853
 31
0.0
  0
ARC
  5
A1
330
1F
100
AcDbEntity
  8
0
  6
Continuous
 62
     7
370
    15
100
AcDbCircle
 10
309.4894734715
 20
247.4196261305
 30
0.0
 40
1.097807470773613
100
AcDbArc
 50
174.187803702
 51
262.6665250475
  0
LINE
  5
A2
330
1F
100
AcDbEntity
  8
0
  6
Continuous
 62
     7
370
    15
100
AcDbLine
 10
308.397309637
 20
247.5307989751
 30
0.0
 11
309.1278241634
 21
247.5307989751
 31
0.0
  0
ARC
  5
A3
330
1F
100
AcDbEntity
  8
0
  6
Continuous
 62
     7
370
    15
100
AcDbCircle
 10
310.2199879979
 20
247.4196261305
 30
0.0
 40
1.097807470773616
100
AcDbArc
 50
174.187803702
 51
262.6665250475
  0
ARC
  5
A4
330
1F
100
AcDbEntity
  8
0
  6
Continuous
 62
     7
370
    15
100
AcDbCircle
 10
310.2199879979
 20
258.2419715083
 30
0.0
 40
1.097807470773616
100
AcDbArc
 50
97.3334749525
 51
185.812196298
  0
LINE
  5
A5
330
1F
100
AcDbEntity
  8
0
  6
Continuous
 62
     7
370
    15
100
AcDbLine
 10
310.079859352
 20
259.3307989535
 30
0.0
 11
313.6232958793
 21
259.3307989535
 31
0.0
  0
LINE
  5
A6
330
1F
100
AcDbEntity
  8
0
  6
Continuous
 62
     7
370
    15
100
AcDbLine
 10
313.6232958793
 20
259.3307989535
 30
0.0
 11
313.6232958793
 21
246.3307986853
 31
0.0
  0
LINE
  5
A7
330
1F
100
AcDbEntity
  8
0
  6
Continuous
 62
     7
370
    15
100
AcDbLine
 10
313.6232958793
 20
246.3307986853
 30
0.0
 11
310.079859352
 21
246.3307986853
 31
0.0
  0
LINE
  5
A8
330
1F
100
AcDbEntity
  8
0
  6
Continuous
 62
     7
370
    15
100
AcDbLine
 10
309.1278241634
 20
258.1307986637
 30
0.0
 11
309.1278241634
 21
247.5307989751
 31
0.0
  0
LINE
  5
A9
330
1F
100
AcDbEntity
  8
0
  6
Continuous
 62
     7
370
    15
100
AcDbLine
 10
309.1278241634
 20
258.1307986637
 30
0.0
 11
308.397309637
 21
258.1307986637
 31
0.0
  0
LINE
  5
AA
330
1F
100
AcDbEntity
  8
0
  6
Continuous
 62
     7
370
    15
100
AcDbLine
 10
308.397309637
 20
258.1307986637
 30
0.0
 11
308.397309637
 21
247.5307989751
 31
0.0
  0
LINE
  5
AB
330
1F
100
AcDbEntity
  8
0
  6
Continuous
 62
     7
370
    15
100
AcDbLine
 10
309.3493448257
 20
259.3307989535
 30
0.0
 11
310.079859352
 21
259.3307989535
 31
0.0
  0
ARC
  5
AC
330
1F
100
AcDbEntity
  8
0
  6
Continuous
 62
     7
370
    15
100
AcDbCircle
 10
309.4894734715
 20
258.2419715083
 30
0.0
 40
1.097807470773611
100
AcDbArc
 50
97.3334749525
 51
185.812196298
  0
LINE
  5
AD
330
1F
100
AcDbEntity
  8
0
  6
Continuous
 62
     7
370
    15
100
AcDbLine
 10
313.7048350333
 20
259.3307989535
 30
0.0
 11
313.6232958793
 21
259.3307989535
 31
0.0
  0
LINE
  5
AE
330
1F
100
AcDbEntity
  8
0
  6
Continuous
 62
     7
370
    15
100
AcDbLine
 10
313.6232958793
 20
246.3307986853
 30
0.0
 11
313.7568400859
 21
246.3307986853
 31
0.0
  0
LINE
  5
AF
330
1F
100
AcDbEntity
  8
0
  6
Continuous
 62
     7
370
    15
100
AcDbLine
 10
308.397309637
 20
248.1307988872
 30
0.0
 11
308.2924948692
 21
248.1307988872
 31
0.0
  0
LINE
  5
B0
330
1F
100
AcDbEntity
  8
0
  6
Continuous
 62
     7
370
    15
100
AcDbLine
 10
308.397309637
 20
256.7307987136
 30
0.0
 11
308.2924948692
 21
256.7307987136
 31
0.0
  0
LINE
  5
B1
330
1F
100
AcDbEntity
  8
0
  6
Continuous
 62
     7
370
    15
100
AcDbLine
 10
313.7654529571
 20
260.0307986957
 30
0.0
 11
308.8973031997
 21
260.0307986957
 31
0.0
  0
LINE
  5
B2
330
1F
100
AcDbEntity
  8
0
  6
Continuous
 62
     7
370
    15
100
AcDbLine
 10
313.725786066
 20
260.8307991994
 30
0.0
 11
308.8979290485
 21
260.8307991994
 31
0.0
  0
LINE
  5
B3
330
1F
100
AcDbEntity
  8
0
  6
Continuous
 62
     7
370
    15
100
AcDbLine
 10
313.7714730262
 20
244.8307984394
 30
0.0
 11
308.8979290485
 21
244.8307984394
 31
0.0
  0
LINE
  5
B4
330
1F
100
AcDbEntity
  8
0
  6
Continuous
 62
     7
370
    15
100
AcDbLine
 10
313.7631879806
 20
245.6307989431
 30
0.0
 11
308.8973031997
 21
245.6307989431
 31
0.0
  0
LINE
  5
B5
330
1F
100
AcDbEntity
  8
0
  6
Continuous
 62
     7
370
    15
100
AcDbLine
 10
312.4973045348
 20
261.1307986897
 30
0.0
 11
313.6606679916
 21
261.1307986897
 31
0.0
  0
LINE
  5
B6
330
1F
100
AcDbEntity
  8
0
  6
Continuous
 62
     7
370
    15
100
AcDbLine
 10
313.8238357066
 20
261.1307986897
 30
0.0
 11
313.8861523627
 21
261.1307986897
 31
0.0
  0
LINE
  5
B7
330
1F
100
AcDbEntity
  8
0
  6
Continuous
 62
     7
370
    15
100
AcDbLine
 10
310.2973268985
 20
261.1307986897
 30
0.0
 11
312.4973045348
 21
261.1307986897
 31
0.0
  0
LINE
  5
B8
330
1F
100
AcDbEntity
  8
0
  6
Continuous
 62
     7
370
    15
100
AcDbLine
 10
312.4973045348
 20
244.0307988671
 30
0.0
 11
313.360826826
 21
244.0307988671
 31
0.0
  0
LINE
  5
B9
330
1F
100
AcDbEntity
  8
0
  6
Continuous
 62
     7
370
    15
100
AcDbLine
 10
310.3973136901
 20
244.0307988671
 30
0.0
 11
312.4973045348
 21
244.0307988671
 31
0.0
  0
LINE
  5
BA
330
1F
100
AcDbEntity
  8
0
  6
Continuous
 62
     7
370
    15
100
AcDbLine
 10
312.4973045348
 20
244.4307991189
 30
0.0
 11
313.6007057189
 21
244.4307991189
 31
0.0
  0
LINE
  5
BB
330
1F
100
AcDbEntity
  8
0
  6
Continuous
 62
     7
370
    15
100
AcDbLine
 10
310.3973136901
 20
244.4307991189
 30
0.0
 11
312.4973045348
 21
244.4307991189
 31
0.0
  0
ARC
  5
BC
330
1F
100
AcDbEntity
  8
0
  6
Continuous
 62
     7
370
    15
100
AcDbCircle
 10
309.3632777719
 20
260.0329568058
 30
0.0
 40
0.802922529472768
100
AcDbArc
 50
125.4750305489
 51
180.1540008468
  0
ARC
  5
BD
330
1F
100
AcDbEntity
  8
0
  6
Continuous
 62
     7
370
    15
100
AcDbCircle
 10
309.3632777719
 20
245.628640833
 30
0.0
 40
0.8029225294727514
100
AcDbArc
 50
179.8459991532
 51
234.5249694511
  0
LINE
  5
BE
330
1F
100
AcDbEntity
  8
0
  6
Continuous
 62
     7
370
    15
100
AcDbLine
 10
309.3482123374
 20
246.0807986443
 30
0.0
 11
309.3482123374
 21
245.6307989431
 31
0.0
  0
LINE
  5
BF
330
1F
100
AcDbEntity
  8
0
  6
Continuous
 62
     7
370
    15
100
AcDbLine
 10
309.3482123374
 20
260.0307986957
 30
0.0
 11
309.3482123374
 21
259.5807989945
 31
0.0
  0
LINE
  5
C0
330
1F
100
AcDbEntity
  8
0
  6
Continuous
 62
     7
370
    15
100
AcDbLine
 10
308.5603581428
 20
245.6307989431
 30
0.0
 11
308.5603581428
 21
246.859240893
 31
0.0
  0
LINE
  5
C1
330
1F
100
AcDbEntity
  8
0
  6
Continuous
 62
     7
370
    15
100
AcDbLine
 10
308.5603581428
 20
258.8023567458
 30
0.0
 11
308.5603581428
 21
260.0307986957
 31
0.0
  0
SPLINE
  5
C2
330
1F
100
AcDbEntity
  8
0
  6
Continuous
 62
     7
370
    15
100
AcDbSpline
210
0.0
220
0.0
230
1.0
 70
    24
 71
     3
 72
    12
 73
     8
 74
     0
 42
0.00000001
 43
0.00000001
 40
0.0
 40
0.0
 40
0.0
 40
0.0
 40
0.2185041607748386
 40
0.4370097499429002
 40
0.655519261637946
 40
0.8740302225829159
 40
1.0
 40
1.0
 40
1.0
 40
1.0
 10
315.556661939539
 20
259.5231938992641
 30
0.0
 10
315.3599415192622
 20
259.5231938992641
 30
0.0
 10
314.9664993927188
 20
259.5231938992641
 30
0.0
 10
314.4057519515402
 20
259.5231938992641
 30
0.0
 10
313.9880564327676
 20
259.5231938992641
 30
0.0
 10
313.7614935049256
 20
259.5231938992641
 30
0.0
 10
313.7790355406593
 20
259.5231938992641
 30
0.0
 10
313.7854503153935
 20
259.5231938992641
 30
0.0
  0
SPLINE
  5
C3
330
1F
100
AcDbEntity
  8
0
  6
Continuous
 62
     7
370
    15
100
AcDbSpline
210
0.0
220
0.0
230
1.0
 70
    24
 71
     3
 72
     9
 73
     5
 74
     0
 42
0.00000001
 43
0.00000001
 40
0.0
 40
0.0
 40
0.0
 40
0.0
 40
0.1970399618046988
 40
1.0
 40
1.0
 40
1.0
 40
1.0
 10
316.1973224639073
 20
259.5231938992641
 30
0.0
 10
316.1646655723388
 20
259.5231938992641
 30
0.0
 10
315.9989281692795
 20
259.5231938992641
 30
0.0
 10
315.7536280958606
 20
259.5231938992641
 30
0.0
 10
315.556661939539
 20
259.5231938992641
 30
0.0
  0
SPLINE
  5
C4
330
1F
100
AcDbEntity
  8
0
  6
Continuous
 62
     7
370
    15
100
AcDbSpline
210
0.0
220
0.0
230
1.0
 70
     8
 71
     3
 72
    13
 73
     9
 74
     0
 42
0.00000001
 43
0.00000001
 40
0.0
 40
0.0
 40
0.0
 40
0.0
 40
0.1877397329411931
 40
0.3754740950771898
 40
0.5632126785307467
 40
0.7509496371851111
 40
0.9386869054096393
 40
1.0
 40
1.0
 40
1.0
 40
1.0
 10
315.2633772849217
 20
263.1380326000057
 30
0.0
 10
315.0666802995638
 20
263.1353339623469
 30
0.0
 10
314.6732919558998
 20
263.1299367642311
 30
0.0
 10
314.1402778360022
 20
262.8393944369697
 30
0.0
 10
313.7497539826473
 20
262.3844970537326
 30
0.0
 10
313.5768082578504
 20
261.8228131255397
 30
0.0
 10
313.5800926651381
 20
261.3496252630433
 30
0.0
 10
313.7074068989772
 20
261.1281867615634
 30
0.0
 10
313.7387500762119
 20
261.0736713630162
 30
0.0
  0
SPLINE
  5
C5
330
1F
100
AcDbEntity
  8
0
  6
Continuous
 62
     7
370
    15
100
AcDbSpline
210
0.0
220
0.0
230
1.0
 70
     8
 71
     3
 72
    10
 73
     6
 74
     0
 42
0.00000001
 43
0.00000001
 40
0.0
 40
0.0
 40
0.0
 40
0.0
 40
0.2093347831693222
 40
0.6046789915504093
 40
1.0
 40
1.0
 40
1.0
 40
1.0
 10
316.4005445002689
 20
262.3319179636441
 30
0.0
 10
316.3588479257913
 20
262.4249824468646
 30
0.0
 10
316.2384042889312
 20
262.6938060843461
 30
0.0
 10
315.8316729027707
 20
263.0104365091577
 30
0.0
 10
315.4528054519245
 20
263.0955014017227
 30
0.0
 10
315.2633772849216
 20
263.1380326000057
 30
0.0
  0
SPLINE
  5
C6
330
1F
100
AcDbEntity
  8
0
  6
Continuous
 62
     7
370
    15
100
AcDbSpline
210
0.0
220
0.0
230
1.0
 70
     8
 71
     3
 72
    13
 73
     9
 74
     0
 42
0.00000001
 43
0.00000001
 40
0.0
 40
0.0
 40
0.0
 40
0.0
 40
0.1768660417769971
 40
0.3537275335964465
 40
0.5305928719988471
 40
0.7074564142833105
 40
0.8843205136307285
 40
1.0
 40
1.0
 40
1.0
 40
1.0
 10
315.2461515425816
 20
242.4948458445273
 30
0.0
 10
315.0494789023234
 20
242.4975350235046
 30
0.0
 10
314.656138681298
 20
242.5029133122787
 30
0.0
 10
314.1227585830332
 20
242.7935984101905
 30
0.0
 10
313.7336303163406
 20
243.2479571379397
 30
0.0
 10
313.5554687678026
 20
243.8116518859478
 30
0.0
 10
313.5764372196988
 20
244.3447999977485
 30
0.0
 10
313.7425171010676
 20
244.6180725448489
 30
0.0
 10
313.8081894873752
 20
244.7261317518554
 30
0.0
  0
SPLINE
  5
C7
330
1F
100
AcDbEntity
  8
0
  6
Continuous
 62
     7
370
    15
100
AcDbSpline
210
0.0
220
0.0
230
1.0
 70
     8
 71
     3
 72
    10
 73
     6
 74
     0
 42
0.00000001
 43
0.00000001
 40
0.0
 40
0.0
 40
0.0
 40
0.0
 40
0.0588213036774467
 40
0.5294238314007006
 40
1.0
 40
1.0
 40
1.0
 40
1.0
 10
316.2762688159123
 20
243.0947554183207
 30
0.0
 10
316.2656342940404
 20
243.073275058611
 30
0.0
 10
316.1699177940219
 20
242.8799400995674
 30
0.0
 10
315.8090234760958
 20
242.6257843048131
 30
0.0
 10
315.4337720172592
 20
242.5384911830309
 30
0.0
 10
315.2461515425815
 20
242.4948458445273
 30
0.0
  0
SPLINE
  5
C8
330
1F
100
AcDbEntity
  8
0
  6
Continuous
 62
     7
370
    15
100
AcDbSpline
210
0.0
220
0.0
230
1.0
 70
    24
 71
     3
 72
    12
 73
     8
 74
     0
 42
0.00000001
 43
0.00000001
 40
0.0
 40
0.0
 40
0.0
 40
0.0
 40
0.2193522884941657
 40
0.4387060109258876
 40
0.6580636711099509
 40
0.877422786169227
 40
1.0
 40
1.0
 40
1.0
 40
1.0
 10
315.556661939539
 20
245.9645630677245
 30
0.0
 10
315.3599461986989
 20
245.9645630677245
 30
0.0
 10
314.9665134310597
 20
245.9645630677245
 30
0.0
 10
314.4056957973284
 20
245.9645630677245
 30
0.0
 10
313.9882670158277
 20
245.9645630677245
 30
0.0
 10
313.7624099060293
 20
245.9645630677245
 30
0.0
 10
313.779414219706
 20
245.9645630677245
 30
0.0
 10
313.7855099200382
 20
245.9645630677245
 30
0.0
  0
SPLINE
  5
C9
330
1F
100
AcDbEntity
  8
0
  6
Continuous
 62
     7
370
    15
100
AcDbSpline
210
0.0
220
0.0
230
1.0
 70
    24
 71
     3
 72
     9
 73
     5
 74
     0
 42
0.00000001
 43
0.00000001
 40
0.0
 40
0.0
 40
0.0
 40
0.0
 40
0.1970399618046988
 40
1.0
 40
1.0
 40
1.0
 40
1.0
 10
316.1973224639073
 20
245.9645630677245
 30
0.0
 10
316.1646655723388
 20
245.9645630677245
 30
0.0
 10
315.9989281692795
 20
245.9645630677245
 30
0.0
 10
315.7536280958606
 20
245.9645630677245
 30
0.0
 10
315.556661939539
 20
245.9645630677245
 30
0.0
  0
SPLINE
  5
CA
330
1F
100
AcDbEntity
  8
0
  6
Continuous
 62
     7
370
    15
100
AcDbSpline
210
0.0
220
0.0
230
1.0
 70
     8
 71
     3
 72
    13
 73
     9
 74
     0
 42
0.00000001
 43
0.00000001
 40
0.0
 40
0.0
 40
0.0
 40
0.0
 40
0.1768570807883106
 40
0.3537263980077571
 40
0.5305861066882113
 40
0.7074523867975918
 40
0.8843164588983377
 40
1.0
 40
1.0
 40
1.0
 40
1.0
 10
313.6942850112094
 20
265.7544511255822
 30
0.0
 10
313.4976242509283
 20
265.7517581142496
 30
0.0
 10
313.1042891237531
 20
265.7463719052595
 30
0.0
 10
312.5708921021921
 20
265.4557198619915
 30
0.0
 10
312.1818054740203
 20
265.0013217301027
 30
0.0
 10
312.0035937269382
 20
264.4376544577881
 30
0.0
 10
312.0245631412628
 20
263.9044868651605
 30
0.0
 10
312.1906687863658
 20
263.6312232092912
 30
0.0
 10
312.2563527583255
 20
263.5231652182541
 30
0.0
  0
SPLINE
  5
CB
330
1F
100
AcDbEntity
  8
0
  6
Continuous
 62
     7
370
    15
100
AcDbSpline
210
0.0
220
0.0
230
1.0
 70
     8
 71
     3
 72
    10
 73
     6
 74
     0
 42
0.00000001
 43
0.00000001
 40
0.0
 40
0.0
 40
0.0
 40
0.0
 40
0.1474560350009615
 40
0.5737214675968891
 40
1.0
 40
1.0
 40
1.0
 40
1.0
 10
314.7828744410648
 20
265.0419250947438
 30
0.0
 10
314.7548177105429
 20
265.1022193792255
 30
0.0
 10
314.6456546735
 20
265.3368121877213
 30
0.0
 10
314.2605859688988
 20
265.6256283190608
 30
0.0
 10
313.8830539307685
 20
265.7115097502033
 30
0.0
 10
313.6942850112095
 20
265.7544511255822
 30
0.0
  0
SPLINE
  5
CC
330
1F
100
AcDbEntity
  8
0
  6
Continuous
 62
     7
370
    15
100
AcDbSpline
210
0.0
220
0.0
230
1.0
 70
     8
 71
     3
 72
    13
 73
     9
 74
     0
 42
0.00000001
 43
0.00000001
 40
0.0
 40
0.0
 40
0.0
 40
0.0
 40
0.1768644493070867
 40
0.3537323315161106
 40
0.5305902608915819
 40
0.7074549757756731
 40
0.8843174826706699
 40
1.0
 40
1.0
 40
1.0
 40
1.0
 10
313.6770890711918
 20
239.8784273189507
 30
0.0
 10
313.480418048024
 20
239.8811188334249
 30
0.0
 10
313.0870721843447
 20
239.886501914615
 30
0.0
 10
312.5536669299999
 20
240.1771595447762
 30
0.0
 10
312.1645794368697
 20
240.6315567464371
 30
0.0
 10
311.986368044875
 20
241.1952240396106
 30
0.0
 10
312.0073373897534
 20
241.7283915713305
 30
0.0
 10
312.1734430414273
 20
242.0016552329629
 30
0.0
 10
312.2391270159854
 20
242.1097132262788
 30
0.0
  0
SPLINE
  5
CD
330
1F
100
AcDbEntity
  8
0
  6
Continuous
 62
     7
370
    15
100
AcDbSpline
210
0.0
220
0.0
230
1.0
 70
     8
 71
     3
 72
    10
 73
     6
 74
     0
 42
0.00000001
 43
0.00000001
 40
0.0
 40
0.0
 40
0.0
 40
0.0
 40
0.1474590645824568
 40
0.5737332550828453
 40
1.0
 40
1.0
 40
1.0
 40
1.0
 10
314.7656486987248
 20
240.5909533497892
 30
0.0
 10
314.7375919760229
 20
240.5306590478407
 30
0.0
 10
314.6284289694066
 20
240.2960661713851
 30
0.0
 10
314.2433676101476
 20
240.0072572380063
 30
0.0
 10
313.8658474851653
 20
239.9213703752744
 30
0.0
 10
313.6770890711918
 20
239.8784273189507
 30
0.0
  0
LINE
  5
CE
330
1F
100
AcDbEntity
  8
0
  6
Continuous
 62
     7
370
    15
100
AcDbLine
 10
818.2986842155
 20
107.8308029917
 30
0.0
 11
818.2986842155
 21
72.8307916668
 31
0.0
  0
LINE
  5
CF
330
1F
100
AcDbEntity
  8
0
  6
Continuous
 62
     7
370
    15
100
AcDbLine
 10
828.8973139285
 20
107.8308029917
 30
0.0
 11
818.2986842155
 21
107.8308029917
 31
0.0
  0
LINE
  5
D0
330
1F
100
AcDbEntity
  8
0
  6
Continuous
 62
     7
370
    15
100
AcDbLine
 10
828.8973139285
 20
72.8307916668
 30
0.0
 11
818.2986842155
 21
72.8307916668
 31
0.0
  0
LINE
  5
D1
330
1F
100
AcDbEntity
  8
0
  6
Continuous
 62
     7
370
    15
100
AcDbLine
 10
818.2986842155
 20
432.8308059719
 30
0.0
 11
818.2986842155
 21
397.8307946471
 31
0.0
  0
LINE
  5
D2
330
1F
100
AcDbEntity
  8
0
  6
Continuous
 62
     7
370
    15
100
AcDbLine
 10
828.8973139285
 20
432.8308059719
 30
0.0
 11
818.2986842155
 21
432.8308059719
 31
0.0
  0
LINE
  5
D3
330
1F
100
AcDbEntity
  8
0
  6
Continuous
 62
     7
370
    15
100
AcDbLine
 10
828.8973139285
 20
397.8307946471
 30
0.0
 11
818.2986842155
 21
397.8307946471
 31
0.0
  0
LINE
  5
D4
330
1F
100
AcDbEntity
  8
0
  6
Continuous
 62
     7
370
    15
100
AcDbLine
 10
825.89732275
 20
144.830796018
 30
0.0
 11
820.8973275184
 21
144.830796018
 31
0.0
  0
LINE
  5
D5
330
1F
100
AcDbEntity
  8
0
  6
Continuous
 62
     7
370
    15
100
AcDbLine
 10
820.8973275184
 20
360.8308016208
 30
0.0
 11
825.89732275
 21
360.8308016208
 31
0.0
  0
LINE
  5
D6
330
1F
100
AcDbEntity
  8
0
  6
Continuous
 62
     7
370
    15
100
AcDbLine
 10
817.8351686954
 20
72.8307916668
 30
0.0
 11
817.8351686954
 21
107.8308029917
 31
0.0
  0
LINE
  5
D7
330
1F
100
AcDbEntity
  8
0
  6
Continuous
 62
     7
370
    15
100
AcDbLine
 10
818.2986842155
 20
72.8307916668
 30
0.0
 11
817.8351686954
 21
72.8307916668
 31
0.0
  0
LINE
  5
D8
330
1F
100
AcDbEntity
  8
0
  6
Continuous
 62
     7
370
    15
100
AcDbLine
 10
817.8351686954
 20
107.8308029917
 30
0.0
 11
818.2986842155
 21
107.8308029917
 31
0.0
  0
LINE
  5
D9
330
1F
100
AcDbEntity
  8
0
  6
Continuous
 62
     7
370
    15
100
AcDbLine
 10
817.8351686954
 20
397.8307946471
 30
0.0
 11
817.8351686954
 21
432.8308059719
 31
0.0
  0
LINE
  5
DA
330
1F
100
AcDbEntity
  8
0
  6
Continuous
 62
     7
370
    15
100
AcDbLine
 10
817.8351686954
 20
432.8308059719
 30
0.0
 11
818.2986842155
 21
432.8308059719
 31
0.0
  0
LINE
  5
DB
330
1F
100
AcDbEntity
  8
0
  6
Continuous
 62
     7
370
    15
100
AcDbLine
 10
818.2986842155
 20
397.8307946471
 30
0.0
 11
817.8351686954
 21
397.8307946471
 31
0.0
  0
LINE
  5
DC
330
1F
100
AcDbEntity
  8
0
  6
Continuous
 62
     7
370
    15
100
AcDbLine
 10
817.8351686954
 20
432.8308059719
 30
0.0
 11
817.3973129748
 21
432.8308059719
 31
0.0
  0
LINE
  5
DD
330
1F
100
AcDbEntity
  8
0
  6
Continuous
 62
     7
370
    15
100
AcDbLine
 10
817.8351686954
 20
397.8307946471
 30
0.0
 11
817.3973129748
 21
397.8307946471
 31
0.0
  0
LINE
  5
DE
330
1F
100
AcDbEntity
  8
0
  6
Continuous
 62
     7
370
    15
100
AcDbLine
 10
817.8351686954
 20
72.8307916668
 30
0.0
 11
817.3973129748
 21
72.8307916668
 31
0.0
  0
LINE
  5
DF
330
1F
100
AcDbEntity
  8
0
  6
Continuous
 62
     7
370
    15
100
AcDbLine
 10
817.8351686954
 20
107.8308029917
 30
0.0
 11
817.3973129748
 21
107.8308029917
 31
0.0
  0
LINE
  5
E0
330
1F
100
AcDbEntity
  8
0
  6
Continuous
 62
     7
370
    15
100
AcDbLine
 10
312.1973143577
 20
259.5807989945
 30
0.0
 11
309.0973065852
 21
259.5807989945
 31
0.0
  0
LINE
  5
E1
330
1F
100
AcDbEntity
  8
0
  6
Continuous
 62
     7
370
    15
100
AcDbLine
 10
312.1973143577
 20
246.0807986443
 30
0.0
 11
309.0973065852
 21
246.0807986443
 31
0.0
  0
LINE
  5
E2
330
1F
100
AcDbEntity
  8
0
  6
Continuous
 62
     7
370
    15
100
AcDbLine
 10
312.1973143577
 20
246.0807986443
 30
0.0
 11
313.7568400859
 21
246.0807986443
 31
0.0
  0
LINE
  5
E3
330
1F
100
AcDbEntity
  8
0
  6
Continuous
 62
     7
370
    15
100
AcDbLine
 10
312.1973143577
 20
259.5807989945
 30
0.0
 11
313.7573765277
 21
259.5807989945
 31
0.0
  0
LINE
  5
E4
330
1F
100
AcDbEntity
  8
0
  6
Continuous
 62
     8
370
    15
100
AcDbLine
 10
312.1973143577
 20
259.5807989945
 30
0.0
 11
312.1973143577
 21
259.3307989535
 31
0.0
  0
LINE
  5
E5
330
1F
100
AcDbEntity
  8
0
  6
Continuous
 62
     8
370
    15
100
AcDbLine
 10
312.1973143577
 20
246.3307986853
 30
0.0
 11
312.1973143577
 21
246.0807986443
 31
0.0
  0
LINE
  5
E6
330
1F
100
AcDbEntity
  8
0
  6
Continuous
 62
     7
370
    15
100
AcDbLine
 10
247.5499519955
 20
259.3307989535
 30
0.0
 11
247.5499519955
 21
246.3307986853
 31
0.0
  0
LINE
  5
E7
330
1F
100
AcDbEntity
  8
0
  6
Continuous
 62
     7
370
    15
100
AcDbLine
 10
237.7599486958
 20
260.0307986957
 30
0.0
 11
237.7599486958
 21
260.8307991994
 31
0.0
  0
LINE
  5
E8
330
1F
100
AcDbEntity
  8
0
  6
Continuous
 62
     7
370
    15
100
AcDbLine
 10
237.7599486958
 20
244.8307984394
 30
0.0
 11
237.7599486958
 21
245.6307989431
 31
0.0
  0
ARC
  5
E9
330
1F
100
AcDbEntity
  8
0
  6
Continuous
 62
     7
370
    15
100
AcDbCircle
 10
235.0299488484
 20
258.0236559623
 30
0.0
 40
3.807142857143189
100
AcDbArc
 50
54.6997515601
 51
125.3002484399
  0
LINE
  5
EA
330
1F
100
AcDbEntity
  8
0
  6
Continuous
 62
     7
370
    15
100
AcDbLine
 10
232.8299442183
 20
261.1307986897
 30
0.0
 11
232.8299442183
 21
260.8307991994
 31
0.0
  0
LINE
  5
EB
330
1F
100
AcDbEntity
  8
0
  6
Continuous
 62
     7
370
    15
100
AcDbLine
 10
237.2299441944
 20
260.8307991994
 30
0.0
 11
237.2299441944
 21
261.1307986897
 31
0.0
  0
LINE
  5
EC
330
1F
100
AcDbEntity
  8
0
  6
Continuous
 62
     7
370
    15
100
AcDbLine
 10
232.929945911
 20
244.4307991189
 30
0.0
 11
232.929945911
 21
244.0307988671
 31
0.0
  0
LINE
  5
ED
330
1F
100
AcDbEntity
  8
0
  6
Continuous
 62
     7
370
    15
100
AcDbLine
 10
237.1299425017
 20
244.0307988671
 30
0.0
 11
237.1299425017
 21
244.4307991189
 31
0.0
  0
ARC
  5
EE
330
1F
100
AcDbEntity
  8
0
  6
Continuous
 62
     7
370
    15
100
AcDbCircle
 10
233.1299488484
 20
244.8307988194
 30
0.0
 40
0.4000000000008015
100
AcDbArc
 50
270.0
 51
0.0
  0
ARC
  5
EF
330
1F
100
AcDbEntity
  8
0
  6
Continuous
 62
     7
370
    15
100
AcDbCircle
 10
236.9299488484
 20
244.8307988194
 30
0.0
 40
0.4000000000008015
100
AcDbArc
 50
180.0
 51
270.0
  0
LINE
  5
F0
330
1F
100
AcDbEntity
  8
0
  6
Continuous
 62
     7
370
    15
100
AcDbLine
 10
233.5299560677
 20
260.0307986957
 30
0.0
 11
233.5299560677
 21
259.5807989945
 31
0.0
  0
LINE
  5
F1
330
1F
100
AcDbEntity
  8
0
  6
Continuous
 62
     7
370
    15
100
AcDbLine
 10
233.5299560677
 20
258.5807988306
 30
0.0
 11
233.5299560677
 21
258.0920942944
 31
0.0
  0
LINE
  5
F2
330
1F
100
AcDbEntity
  8
0
  6
Continuous
 62
     7
370
    15
100
AcDbLine
 10
233.5299560677
 20
257.2959797342
 30
0.0
 11
233.5299560677
 21
257.1402826232
 31
0.0
  0
LINE
  5
F3
330
1F
100
AcDbEntity
  8
0
  6
Continuous
 62
     7
370
    15
100
AcDbLine
 10
233.5299560677
 20
247.841172002
 30
0.0
 11
233.5299560677
 21
247.0807988082
 31
0.0
  0
LINE
  5
F4
330
1F
100
AcDbEntity
  8
0
  6
Continuous
 62
     7
370
    15
100
AcDbLine
 10
233.5299560677
 20
246.0807986443
 30
0.0
 11
233.5299560677
 21
245.6307989431
 31
0.0
  0
LINE
  5
F5
330
1F
100
AcDbEntity
  8
0
  6
Continuous
 62
     7
370
    15
100
AcDbLine
 10
236.5299472462
 20
245.6307989431
 30
0.0
 11
236.5299472462
 21
246.0807986443
 31
0.0
  0
LINE
  5
F6
330
1F
100
AcDbEntity
  8
0
  6
Continuous
 62
     7
370
    15
100
AcDbLine
 10
236.5299472462
 20
247.0807988082
 30
0.0
 11
236.5299472462
 21
247.5679410507
 31
0.0
  0
LINE
  5
F7
330
1F
100
AcDbEntity
  8
0
  6
Continuous
 62
     7
370
    15
100
AcDbLine
 10
236.5299472462
 20
256.8758582582
 30
0.0
 11
236.5299472462
 21
257.0637968254
 31
0.0
  0
LINE
  5
F8
330
1F
100
AcDbEntity
  8
0
  6
Continuous
 62
     7
370
    15
100
AcDbLine
 10
236.5299472462
 20
257.818875916
 30
0.0
 11
236.5299472462
 21
258.5807988306
 31
0.0
  0
LINE
  5
F9
330
1F
100
AcDbEntity
  8
0
  6
Continuous
 62
     7
370
    15
100
AcDbLine
 10
236.5299472462
 20
259.5807989945
 30
0.0
 11
236.5299472462
 21
260.0307986957
 31
0.0
  0
SPLINE
  5
FA
330
1F
100
AcDbEntity
  8
0
  6
Continuous
 62
     7
370
    15
100
AcDbSpline
210
0.0
220
0.0
230
1.0
 70
     8
 71
     3
 72
    15
 73
    11
 74
     0
 42
0.00000001
 43
0.00000001
 40
0.0
 40
0.0
 40
0.0
 40
0.0
 40
0.135596479265748
 40
0.2953252328879971
 40
0.4038105289617855
 40
0.5319572847847419
 40
0.6738336159153973
 40
0.8261016731774934
 40
0.9126171617270653
 40
1.0
 40
1.0
 40
1.0
 40
1.0
 10
236.5299472461889
 20
247.3968440552257
 30
0.0
 10
236.5743294599971
 20
247.389520880463
 30
0.0
 10
236.6709926455012
 20
247.373571216401
 30
0.0
 10
236.8778437286768
 20
247.4212423690033
 30
0.0
 10
237.0710993119487
 20
247.5089613135244
 30
0.0
 10
237.2176868197066
 20
247.6286299549172
 30
0.0
 10
237.3163962104432
 20
247.779524626725
 30
0.0
 10
237.346051722123
 20
247.9013740421368
 30
0.0
 10
237.3248804170902
 20
248.0306105370247
 30
0.0
 10
237.2786240274917
 20
248.0972919086167
 30
0.0
 10
237.255380476589
 20
248.1307988871835
 30
0.0
  0
SPLINE
  5
FB
330
1F
100
AcDbEntity
  8
0
  6
Continuous
 62
     7
370
    15
100
AcDbSpline
210
0.0
220
0.0
230
1.0
 70
     8
 71
     3
 72
    20
 73
    16
 74
     0
 42
0.00000001
 43
0.00000001
 40
0.0
 40
0.0
 40
0.0
 40
0.0
 40
0.0607085120702901
 40
0.2265360354280825
 40
0.3908034390100844
 40
0.470594738141
 40
0.5476205823777552
 40
0.6228576285649229
 40
0.7003374175229532
 40
0.778647426493207
 40
0.8566577528565235
 40
0.9330985790372838
 40
0.9703734567126686
 40
0.9892322709481525
 40
1.0
 40
1.0
 40
1.0
 40
1.0
 10
232.7937492977331
 20
248.1307988871835
 30
0.0
 10
232.8400240893235
 20
248.0774654827248
 30
0.0
 10
233.012700168339
 20
247.8784499313641
 30
0.0
 10
233.4296602298821
 20
247.860526847744
 30
0.0
 10
233.994629001074
 20
247.7855017599679
 30
0.0
 10
234.5142389662206
 20
247.7425600569592
 30
0.0
 10
234.9081307939088
 20
247.7120090793352
 30
0.0
 10
235.3010418590534
 20
247.6843267977935
 30
0.0
 10
235.6822033949743
 20
247.6530190708723
 30
0.0
 10
236.0379280200855
 20
247.6205464896721
 30
0.0
 10
236.3405499244939
 20
247.5897213945137
 30
0.0
 10
236.5330680612943
 20
247.5668173227536
 30
0.0
 10
236.621182640447
 20
247.5587913233164
 30
0.0
 10
236.6666098378379
 20
247.5509968808074
 30
0.0
 10
236.6660604219396
 20
247.5549550064295
 30
0.0
 10
236.665860737438
 20
247.5563935820959
 30
0.0
  0
SPLINE
  5
FC
330
1F
100
AcDbEntity
  8
0
  6
Continuous
 62
     7
370
    15
100
AcDbSpline
210
0.0
220
0.0
230
1.0
 70
     8
 71
     3
 72
    18
 73
    14
 74
     0
 42
0.00000001
 43
0.00000001
 40
0.0
 40
0.0
 40
0.0
 40
0.0
 40
0.0057511428403943
 40
0.1156367113611111
 40
0.2383917566345693
 40
0.3593077027734364
 40
0.4757059219110816
 40
0.5872134071511957
 40
0.704733831801792
 40
0.8265048728965705
 40
0.8891452173726083
 40
0.9517987230752376
 40
1.0
 40
1.0
 40
1.0
 40
1.0
 10
237.0365718256186
 20
256.7776228186689
 30
0.0
 10
237.0319245991613
 20
256.7805762920575
 30
0.0
 10
236.9384840431926
 20
256.8399610020594
 30
0.0
 10
236.7161719921294
 20
256.8461069916038
 30
0.0
 10
236.3247757649758
 20
256.9053202115777
 30
0.0
 10
235.8128976462852
 20
256.950862338068
 30
0.0
 10
235.2618648821878
 20
256.9970142721088
 30
0.0
 10
234.6997486867143
 20
257.0359115525836
 30
0.0
 10
234.1654670149275
 20
257.0806409887476
 30
0.0
 10
233.767828084205
 20
257.1217103231844
 30
0.0
 10
233.5530994585242
 20
257.1428332733876
 30
0.0
 10
233.4570525254785
 20
257.1451233913962
 30
0.0
 10
233.4416039327725
 20
257.1290465987556
 30
0.0
 10
233.4348866592596
 20
257.1220561747454
 30
0.0
  0
SPLINE
  5
FD
330
1F
100
AcDbEntity
  8
0
  6
Continuous
 62
     7
370
    15
100
AcDbSpline
210
0.0
220
0.0
230
1.0
 70
     8
 71
     3
 72
    12
 73
     8
 74
     0
 42
0.00000001
 43
0.00000001
 40
0.0
 40
0.0
 40
0.0
 40
0.0
 40
0.2236869151433675
 40
0.4523172251925509
 40
0.6822435400226152
 40
0.9102243540189298
 40
1.0
 40
1.0
 40
1.0
 40
1.0
 10
232.7356496702383
 20
257.9326495413683
 30
0.0
 10
232.7229082618664
 20
257.8901023784587
 30
0.0
 10
232.6971438648915
 20
257.8040677766816
 30
0.0
 10
232.8182997078516
 20
257.7124440238782
 30
0.0
 10
233.0499666494167
 20
257.6161433275655
 30
0.0
 10
233.2948272160713
 20
257.5536495995282
 30
0.0
 10
233.4781593031197
 20
257.5588700327017
 30
0.0
 10
233.5299560676764
 20
257.5603449602626
 30
0.0
  0
SPLINE
  5
FE
330
1F
100
AcDbEntity
  8
0
  6
Continuous
 62
     7
370
    15
100
AcDbSpline
210
0.0
220
0.0
230
1.0
 70
     8
 71
     3
 72
    19
 73
    15
 74
     0
 42
0.00000001
 43
0.00000001
 40
0.0
 40
0.0
 40
0.0
 40
0.0
 40
0.0979057557133819
 40
0.1753760951868802
 40
0.2884837279174267
 40
0.3734532462378632
 40
0.4570018300577976
 40
0.6168876400346156
 40
0.6796676521753162
 40
0.7634260191404518
 40
0.8137554147058611
 40
0.8702989501326919
 40
0.9324007122665913
 40
1.0
 40
1.0
 40
1.0
 40
1.0
 10
232.9118857036779
 20
257.4375188794933
 30
0.0
 10
232.9623951388977
 20
257.4111423456812
 30
0.0
 10
233.0528714081875
 20
257.3638947301471
 30
0.0
 10
233.4275106079691
 20
257.3032408343378
 30
0.0
 10
233.9140139411292
 20
257.2493580791636
 30
0.0
 10
234.5053530133838
 20
257.196123182484
 30
0.0
 10
235.2594483985433
 20
257.1445726004414
 30
0.0
 10
235.900558179231
 20
257.0776298848427
 30
0.0
 10
236.5498187827457
 20
257.0421095717627
 30
0.0
 10
236.9281632378807
 20
257.1202968212555
 30
0.0
 10
237.1800068643674
 20
257.2284968442266
 30
0.0
 10
237.3135958221427
 20
257.3168347253293
 30
0.0
 10
237.3753708724263
 20
257.3906757898088
 30
0.0
 10
237.3039266770897
 20
257.4711924492063
 30
0.0
 10
237.2666904579351
 20
257.5131571737132
 30
0.0
  0
SPLINE
  5
FF
330
1F
100
AcDbEntity
  8
0
  6
Continuous
 62
     7
370
    15
100
AcDbSpline
210
0.0
220
0.0
230
1.0
 70
     8
 71
     3
 72
    25
 73
    21
 74
     0
 42
0.00000001
 43
0.00000001
 40
0.0
 40
0.0
 40
0.0
 40
0.0
 40
0.0176259290808492
 40
0.0344972729039951
 40
0.0503152440097334
 40
0.0649728274831856
 40
0.090944841512565
 40
0.113436695471488
 40
0.1538392734620355
 40
0.1912334756319529
 40
0.2995698740308627
 40
0.3999624578974064
 40
0.5012944931276727
 40
0.5949047886711225
 40
0.6784882614420625
 40
0.7336283652546701
 40
0.8075181929624605
 40
0.8952812265892609
 40
0.9453086251728124
 40
1.0
 40
1.0
 40
1.0
 40
1.0
 10
236.9093755136679
 20
256.8875752274893
 30
0.0
 10
236.9490794074453
 20
256.8919698205218
 30
0.0
 10
237.0267874279817
 20
256.9005708692636
 30
0.0
 10
237.1286836567807
 20
256.946575813043
 30
0.0
 10
237.2096858856623
 20
257.0055270023411
 30
0.0
 10
237.2858993791547
 20
257.0891146195786
 30
0.0
 10
237.3389441670472
 20
257.192747675722
 30
0.0
 10
237.3630921207644
 20
257.3251003654541
 30
0.0
 10
237.3402180052151
 20
257.456950741944
 30
0.0
 10
237.1689744617479
 20
257.7021689724098
 30
0.0
 10
236.8261921070642
 20
257.7892480389555
 30
0.0
 10
236.3310768216941
 20
257.8478036646832
 30
0.0
 10
235.7178656888927
 20
257.9061605280355
 30
0.0
 10
235.06838944695
 20
257.9557840866091
 30
0.0
 10
234.5286937739191
 20
257.9952627954492
 30
0.0
 10
234.0826733984969
 20
258.034441542391
 30
0.0
 10
233.6939871988474
 20
258.0726682710168
 30
0.0
 10
233.4338096803727
 20
258.1005121194954
 30
0.0
 10
233.3033830789763
 20
258.1230045983685
 30
0.0
 10
233.2947107644291
 20
258.1354680522492
 30
0.0
 10
233.2901814829061
 20
258.1419773285292
 30
0.0
  0
SPLINE
  5
100
330
1F
100
AcDbEntity
  8
0
  6
Continuous
 62
     7
370
    15
100
AcDbSpline
210
0.0
220
0.0
230
1.0
 70
     8
 71
     3
 72
    12
 73
     8
 74
     0
 42
0.00000001
 43
0.00000001
 40
0.0
 40
0.0
 40
0.0
 40
0.0
 40
0.1756461855883292
 40
0.5723035510143818
 40
0.7586188069782646
 40
0.9207450174441087
 40
1.0
 40
1.0
 40
1.0
 40
1.0
 10
233.3785155664633
 20
257.3234896061025
 30
0.0
 10
233.3129517778424
 20
257.3143188897954
 30
0.0
 10
233.0993269335568
 20
257.2844381753902
 30
0.0
 10
232.8834128961044
 20
257.2104845013599
 30
0.0
 10
232.7222497590321
 20
256.995585910948
 30
0.0
 10
232.6910486115777
 20
256.8353411056906
 30
0.0
 10
232.7220226125501
 20
256.7566875718989
 30
0.0
 10
232.7321926008413
 20
256.7308625091813
 30
0.0
  0
LINE
  5
101
330
1F
100
AcDbEntity
  8
0
  6
Continuous
 62
     7
370
    15
100
AcDbLine
 10
232.8897127758
 20
248.0330584456
 30
0.0
 11
231.7712465178
 21
248.0330584456
 31
0.0
  0
LINE
  5
102
330
1F
100
AcDbEntity
  8
0
  6
Continuous
 62
     7
370
    15
100
AcDbLine
 10
231.7712465178
 20
247.2330588733
 30
0.0
 11
233.5299560677
 21
247.2330588733
 31
0.0
  0
LINE
  5
103
330
1F
100
AcDbEntity
  8
0
  6
Continuous
 62
     7
370
    15
100
AcDbLine
 10
230.3609559189
 20
260.8307991994
 30
0.0
 11
230.3609559189
 21
260.8842692223
 31
0.0
  0
LINE
  5
104
330
1F
100
AcDbEntity
  8
0
  6
Continuous
 62
     7
370
    15
100
AcDbLine
 10
227.3609647404
 20
260.8842692223
 30
0.0
 11
227.3609647404
 21
260.8307991994
 31
0.0
  0
SPLINE
  5
105
330
1F
100
AcDbEntity
  8
0
  6
Continuous
 62
     7
370
    15
100
AcDbSpline
210
0.0
220
0.0
230
1.0
 70
     8
 71
     3
 72
    15
 73
    11
 74
     0
 42
0.00000001
 43
0.00000001
 40
0.0
 40
0.0
 40
0.0
 40
0.0
 40
0.1077551389053793
 40
0.2352511295165986
 40
0.362790855184577
 40
0.4902565647040481
 40
0.6176631288114116
 40
0.7450970510317855
 40
0.8724966590167591
 40
1.0
 40
1.0
 40
1.0
 40
1.0
 10
227.3770132909964
 20
244.8307984394036
 30
0.0
 10
227.393552521364
 20
244.5182774122511
 30
0.0
 10
227.4296609860262
 20
243.8359811859905
 30
0.0
 10
227.7658744835796
 20
242.8268328616533
 30
0.0
 10
228.3239483563673
 20
241.8633491188504
 30
0.0
 10
229.0787823263425
 20
241.0424289627518
 30
0.0
 10
229.9939407682186
 20
240.4071575282288
 30
0.0
 10
231.0211973747554
 20
239.9869952801025
 30
0.0
 10
232.1171751687153
 20
239.7731894527439
 30
0.0
 10
232.85293564287
 20
239.8387197810351
 30
0.0
 10
233.2209655891607
 20
239.8714982789956
 30
0.0
  0
SPLINE
  5
106
330
1F
100
AcDbEntity
  8
0
  6
Continuous
 62
     7
370
    15
100
AcDbSpline
210
0.0
220
0.0
230
1.0
 70
     8
 71
     3
 72
    15
 73
    11
 74
     0
 42
0.00000001
 43
0.00000001
 40
0.0
 40
0.0
 40
0.0
 40
0.0
 40
0.1316482330009264
 40
0.2633125318294794
 40
0.3951876945132723
 40
0.5266680860428192
 40
0.6575473014526928
 40
0.7882129600510718
 40
0.9184594834117171
 40
1.0
 40
1.0
 40
1.0
 40
1.0
 10
232.7232668052862
 20
242.8291831982337
 30
0.0
 10
232.571088639158
 20
242.8173695529539
 30
0.0
 10
232.2667137356824
 20
242.7937408207039
 30
0.0
 10
231.81584896673
 20
242.8952159012192
 30
0.0
 10
231.3968206686501
 20
243.0820725357088
 30
0.0
 10
231.0264315750516
 20
243.354668386836
 30
0.0
 10
230.7241595678672
 20
243.7005737785952
 30
0.0
 10
230.5050105218102
 20
244.1022859737702
 30
0.0
 10
230.3876502527717
 20
244.4885986715234
 30
0.0
 10
230.3774677746748
 20
244.7356722051734
 30
0.0
 10
230.373547400112
 20
244.8307984394036
 30
0.0
  0
SPLINE
  5
107
330
1F
100
AcDbEntity
  8
0
  6
Continuous
 62
     7
370
    15
100
AcDbSpline
210
0.0
220
0.0
230
1.0
 70
     8
 71
     3
 72
    15
 73
    11
 74
     0
 42
0.00000001
 43
0.00000001
 40
0.0
 40
0.0
 40
0.0
 40
0.0
 40
0.1249271703977905
 40
0.2499156154893634
 40
0.3749662054276466
 40
0.4999569860757024
 40
0.6249210864808586
 40
0.7499168716966518
 40
0.8748738777143611
 40
1.0
 40
1.0
 40
1.0
 40
1.0
 10
233.3918372045706
 20
265.76131962957
 30
0.0
 10
233.0254606620921
 20
265.8046516705061
 30
0.0
 10
232.2925278755507
 20
265.8913370060217
 30
0.0
 10
231.1885028983675
 20
265.726146060565
 30
0.0
 10
230.1477053176137
 20
265.3372146741423
 30
0.0
 10
229.2125114360238
 20
264.7322016722746
 30
0.0
 10
228.4318587678983
 20
263.9360123609362
 30
0.0
 10
227.8439042389425
 20
262.9916435469106
 30
0.0
 10
227.4480772042543
 20
261.9432008114136
 30
0.0
 10
227.390015316273
 20
261.2040797497831
 30
0.0
 10
227.3609647403906
 20
260.8342693072758
 30
0.0
  0
SPLINE
  5
108
330
1F
100
AcDbEntity
  8
0
  6
Continuous
 62
     7
370
    15
100
AcDbSpline
210
0.0
220
0.0
230
1.0
 70
     8
 71
     3
 72
    15
 73
    11
 74
     0
 42
0.00000001
 43
0.00000001
 40
0.0
 40
0.0
 40
0.0
 40
0.0
 40
0.1242531568038562
 40
0.2486352096291989
 40
0.3735434996803165
 40
0.4985843911945536
 40
0.6236670007799835
 40
0.7490735452495407
 40
0.87443991995396
 40
1.0
 40
1.0
 40
1.0
 40
1.0
 10
230.3609559189032
 20
260.8342693072758
 30
0.0
 10
230.3745120455111
 20
260.9862260539932
 30
0.0
 10
230.4016383613943
 20
261.2902971822164
 30
0.0
 10
230.5761186669806
 20
261.7176065149384
 30
0.0
 10
230.8294478201883
 20
262.0992490571796
 30
0.0
 10
231.1592657217753
 20
262.4191854348815
 30
0.0
 10
231.5501976133607
 20
262.6597545640394
 30
0.0
 10
231.9828922545096
 20
262.8113797933689
 30
0.0
 10
232.4404221821125
 20
262.8648382237614
 30
0.0
 10
232.7423352149119
 20
262.8241481764479
 30
0.0
 10
232.8934082637976
 20
262.8037874472342
 30
0.0
  0
LINE
  5
109
330
1F
100
AcDbEntity
  8
0
  6
Continuous
 62
     7
370
    15
100
AcDbLine
 10
248.2640156399
 20
245.445935603
 30
0.0
 11
232.7230432879
 21
242.829517543
 31
0.0
  0
LINE
  5
10A
330
1F
100
AcDbEntity
  8
0
  6
Continuous
 62
     7
370
    15
100
AcDbLine
 10
233.2211146008
 20
239.8711499644
 30
0.0
 11
248.7620720516
 21
242.4875684899
 31
0.0
  0
LINE
  5
10B
330
1F
100
AcDbEntity
  8
0
  6
Continuous
 62
     7
370
    15
100
AcDbLine
 10
232.8936317812
 20
262.8033618328
 30
0.0
 11
248.4346041332
 21
260.1869428416
 31
0.0
  0
LINE
  5
10C
330
1F
100
AcDbEntity
  8
0
  6
Continuous
 62
     7
370
    15
100
AcDbLine
 10
248.932660545
 20
263.1453099546
 30
0.0
 11
233.391688193
 21
265.7617284802
 31
0.0
  0
SPLINE
  5
10D
330
1F
100
AcDbEntity
  8
0
  6
Continuous
 62
     7
370
    15
100
AcDbSpline
210
0.0
220
0.0
230
1.0
 70
     8
 71
     3
 72
    12
 73
     8
 74
     0
 42
0.00000001
 43
0.00000001
 40
0.0
 40
0.0
 40
0.0
 40
0.0
 40
0.1526137145555179
 40
0.2973904180788561
 40
0.5623703763112813
 40
0.7966025613525135
 40
1.0
 40
1.0
 40
1.0
 40
1.0
 10
248.7617293249319
 20
242.487877689024
 30
0.0
 10
249.0129488961198
 20
242.540615791711
 30
0.0
 10
249.5024874249653
 20
242.6433837929517
 30
0.0
 10
250.3520101421347
 20
243.0726287699422
 30
0.0
 10
251.1640011536702
 20
243.8170237128693
 30
0.0
 10
251.7284471272295
 20
244.8880627702708
 30
0.0
 10
251.8101359577039
 20
245.6229902760746
 30
0.0
 10
251.8481025348852
 20
245.9645630677245
 30
0.0
  0
SPLINE
  5
10E
330
1F
100
AcDbEntity
  8
0
  6
Continuous
 62
     7
370
    15
100
AcDbSpline
210
0.0
220
0.0
230
1.0
 70
     8
 71
     3
 72
    11
 73
     7
 74
     0
 42
0.00000001
 43
0.00000001
 40
0.0
 40
0.0
 40
0.0
 40
0.0
 40
0.2003592305353317
 40
0.4328059080977859
 40
0.6990216722993801
 40
1.0
 40
1.0
 40
1.0
 40
1.0
 10
248.8497802864264
 20
245.9645630677245
 30
0.0
 10
248.8365531394346
 20
245.9081367349682
 30
0.0
 10
248.807980523389
 20
245.7862474158489
 30
0.0
 10
248.6920912737735
 20
245.6205445779701
 30
0.0
 10
248.50735309892
 20
245.4816367336519
 30
0.0
 10
248.3497291537512
 20
245.4582482922111
 30
0.0
 10
248.2660869013021
 20
245.4458373484216
 30
0.0
  0
SPLINE
  5
10F
330
1F
100
AcDbEntity
  8
0
  6
Continuous
 62
     7
370
    15
100
AcDbSpline
210
0.0
220
0.0
230
1.0
 70
     8
 71
     3
 72
    12
 73
     8
 74
     0
 42
0.00000001
 43
0.00000001
 40
0.0
 40
0.0
 40
0.0
 40
0.0
 40
0.2034069195232072
 40
0.4376405555461684
 40
0.7026180145737257
 40
0.8473898701762308
 40
1.0
 40
1.0
 40
1.0
 40
1.0
 10
251.8481025348852
 20
259.5231938992641
 30
0.0
 10
251.8266609956101
 20
259.866202238322
 30
0.0
 10
251.7805284098452
 20
260.6042025011159
 30
0.0
 10
251.2684386789537
 20
261.7013233314173
 30
0.0
 10
250.4932144163565
 20
262.4840612606603
 30
0.0
 10
249.665375984082
 20
262.9538028959051
 30
0.0
 10
249.1813896817353
 20
263.080061367286
 30
0.0
 10
248.9330181728552
 20
263.1448545378647
 30
0.0
  0
SPLINE
  5
110
330
1F
100
AcDbEntity
  8
0
  6
Continuous
 62
     7
370
    15
100
AcDbSpline
210
0.0
220
0.0
230
1.0
 70
     8
 71
     3
 72
    12
 73
     8
 74
     0
 42
0.00000001
 43
0.00000001
 40
0.0
 40
0.0
 40
0.0
 40
0.0
 40
0.1555601585615418
 40
0.302212114556543
 40
0.5679703285681472
 40
0.7999475207940305
 40
1.0
 40
1.0
 40
1.0
 40
1.0
 10
248.4326818834494
 20
260.1878611256383
 30
0.0
 10
248.4732292595118
 20
260.1721116886592
 30
0.0
 10
248.5520020530914
 20
260.1415147112806
 30
0.0
 10
248.6816265696619
 20
260.0464725947639
 30
0.0
 10
248.7960673675645
 20
259.9002952880215
 30
0.0
 10
248.8601978134103
 20
259.7060442952813
 30
0.0
 10
248.853077408641
 20
259.5810656094685
 30
0.0
 10
248.8497802864264
 20
259.5231938992641
 30
0.0
  0
LINE
  5
111
330
1F
100
AcDbEntity
  8
0
  6
Continuous
 62
     7
370
    15
100
AcDbLine
 10
248.8489458214
 20
259.5731938143
 30
0.0
 11
248.8489458214
 21
259.3307989535
 31
0.0
  0
LINE
  5
112
330
1F
100
AcDbEntity
  8
0
  6
Continuous
 62
     7
370
    15
100
AcDbLine
 10
248.8489458214
 20
246.3307986853
 30
0.0
 11
248.8489458214
 21
245.9145631527
 31
0.0
  0
LINE
  5
113
330
1F
100
AcDbEntity
  8
0
  6
Continuous
 62
     7
370
    15
100
AcDbLine
 10
251.8489369999
 20
245.9145631527
 30
0.0
 11
251.8489369999
 21
246.3335432929
 31
0.0
  0
LINE
  5
114
330
1F
100
AcDbEntity
  8
0
  6
Continuous
 62
     7
370
    15
100
AcDbLine
 10
251.8489369999
 20
259.3280543459
 30
0.0
 11
251.8489369999
 21
259.5731938143
 31
0.0
  0
LINE
  5
115
330
1F
100
AcDbEntity
  8
0
  6
Continuous
 62
     7
370
    15
100
AcDbLine
 10
238.148228253
 20
258.4307986197
 30
0.0
 11
236.5299472462
 21
258.4307986197
 31
0.0
  0
LINE
  5
116
330
1F
100
AcDbEntity
  8
0
  6
Continuous
 62
     7
370
    15
100
AcDbLine
 10
237.1568688999
 20
257.6307990474
 30
0.0
 11
238.148228253
 21
257.6307990474
 31
0.0
  0
LINE
  5
117
330
1F
100
AcDbEntity
  8
0
  6
Continuous
 62
     7
370
    15
100
AcDbLine
 10
238.4864548098
 20
259.6989377287
 30
0.0
 11
238.2199177395
 21
258.4906905775
 31
0.0
  0
LINE
  5
118
330
1F
100
AcDbEntity
  8
0
  6
Continuous
 62
     7
370
    15
100
AcDbLine
 10
238.988072599
 20
258.2591405024
 30
0.0
 11
239.2676630865
 21
259.5266099905
 31
0.0
  0
SPLINE
  5
119
330
1F
100
AcDbEntity
  8
0
  6
Continuous
 62
     7
370
    15
100
AcDbSpline
210
0.0
220
0.0
230
1.0
 70
     8
 71
     3
 72
    11
 73
     7
 74
     0
 42
0.00000001
 43
0.00000001
 40
0.0
 40
0.0
 40
0.0
 40
0.0
 40
0.2541315534387046
 40
0.5022702145093869
 40
0.7495144296499624
 40
1.0
 40
1.0
 40
1.0
 40
1.0
 10
238.148228253002
 20
257.6307990473709
 30
0.0
 10
238.2483170383344
 20
257.6410451417109
 30
0.0
 10
238.4461343302002
 20
257.661295708523
 30
0.0
 10
238.7042790618354
 20
257.8153284454485
 30
0.0
 10
238.9077296391804
 20
258.0344009261878
 30
0.0
 10
238.9694625190197
 20
258.2214519769532
 30
0.0
 10
239.0005299698065
 20
258.3155865666471
 30
0.0
  0
LINE
  5
11A
330
1F
100
AcDbEntity
  8
0
  6
Continuous
 62
     7
370
    15
100
AcDbLine
 10
248.1285640846
 20
259.3307989535
 30
0.0
 11
248.1285640846
 21
246.3307986853
 31
0.0
  0
LINE
  5
11B
330
1F
100
AcDbEntity
  8
0
  6
Continuous
 62
     7
370
    15
100
AcDbLine
 10
248.1285640846
 20
259.3307989535
 30
0.0
 11
250.8475342642
 21
259.3307989535
 31
0.0
  0
LWPOLYLINE
  5
11C
330
1F
100
AcDbEntity
  8
0
  6
Continuous
 62
     7
370
    15
100
AcDbPolyline
 90
        9
 70
   128
 43
0.0
 10
251.5780487906
 20
258.1307986637
 10
251.5640118967
 20
258.3649070819
 10
251.5224525582
 20
258.590018924
 10
251.4549353968
 20
258.7974831347
 10
251.3640979181
 20
258.9793271271
 10
251.2533971916
 20
259.1285622564
 10
251.1270949494
 20
259.2394543697
 10
250.9900489699
 20
259.3077412692
 10
250.8475342642
 20
259.3307989535
  0
LINE
  5
11D
330
1F
100
AcDbEntity
  8
0
  6
Continuous
 62
     7
370
    15
100
AcDbLine
 10
251.5780487906
 20
258.1307986637
 30
0.0
 11
251.5780487906
 21
247.5307989751
 31
0.0
  0
LWPOLYLINE
  5
11E
330
1F
100
AcDbEntity
  8
0
  6
Continuous
 62
     7
370
    15
100
AcDbPolyline
 90
        9
 70
   128
 43
0.0
 10
250.8475342642
 20
246.3307986853
 10
250.9900489699
 20
246.3538563696
 10
251.1270949494
 20
246.4221432691
 10
251.2533971916
 20
246.5330353824
 10
251.3640979181
 20
246.6822705117
 10
251.4549353968
 20
246.864114504
 10
251.5224525582
 20
247.0715787147
 10
251.5640118967
 20
247.2966905569
 10
251.5780487906
 20
247.5307989751
  0
LINE
  5
11F
330
1F
100
AcDbEntity
  8
0
  6
Continuous
 62
     7
370
    15
100
AcDbLine
 10
250.8475342642
 20
246.3307986853
 30
0.0
 11
248.1285640846
 21
246.3307986853
 31
0.0
  0
LINE
  5
120
330
1F
100
AcDbEntity
  8
0
  6
Continuous
 62
     7
370
    15
100
AcDbLine
 10
251.7995694529
 20
246.3307986853
 30
0.0
 11
250.8475342642
 21
246.3307986853
 31
0.0
  0
LINE
  5
121
330
1F
100
AcDbEntity
  8
0
  6
Continuous
 62
     7
370
    15
100
AcDbLine
 10
251.5780487906
 20
247.5307989751
 30
0.0
 11
252.5300839792
 21
247.5307989751
 31
0.0
  0
LWPOLYLINE
  5
122
330
1F
100
AcDbEntity
  8
0
  6
Continuous
 62
     7
370
    15
100
AcDbPolyline
 90
        9
 70
   128
 43
0.0
 10
252.5300839792
 20
247.5307989751
 10
252.5160470854
 20
247.2966905569
 10
252.4744728457
 20
247.0715787147
 10
252.4069705855
 20
246.864114504
 10
252.3161182057
 20
246.6822705117
 10
252.2054174792
 20
246.5330353824
 10
252.0791152369
 20
246.4221432691
 10
251.9420841585
 20
246.3538563696
 10
251.7995694529
 20
246.3307986853
  0
LINE
  5
123
330
1F
100
AcDbEntity
  8
0
  6
Continuous
 62
     7
370
    15
100
AcDbLine
 10
250.8475342642
 20
259.3307989535
 30
0.0
 11
251.7995694529
 21
259.3307989535
 31
0.0
  0
LWPOLYLINE
  5
124
330
1F
100
AcDbEntity
  8
0
  6
Continuous
 62
     7
370
    15
100
AcDbPolyline
 90
        9
 70
   128
 43
0.0
 10
251.7995694529
 20
259.3307989535
 10
251.9420841585
 20
259.3077412692
 10
252.0791152369
 20
259.2394543697
 10
252.2054174792
 20
259.1285622564
 10
252.3161182057
 20
258.9793271271
 10
252.4069705855
 20
258.7974831347
 10
252.4744728457
 20
258.590018924
 10
252.5160470854
 20
258.3649070819
 10
252.5300839792
 20
258.1307986637
  0
LINE
  5
125
330
1F
100
AcDbEntity
  8
0
  6
Continuous
 62
     7
370
    15
100
AcDbLine
 10
252.5300839792
 20
258.1307986637
 30
0.0
 11
251.5780487906
 21
258.1307986637
 31
0.0
  0
LINE
  5
126
330
1F
100
AcDbEntity
  8
0
  6
Continuous
 62
     7
370
    15
100
AcDbLine
 10
252.5300839792
 20
258.1307986637
 30
0.0
 11
252.5300839792
 21
247.5307989751
 31
0.0
  0
LINE
  5
127
330
1F
100
AcDbEntity
  8
0
  6
Continuous
 62
     7
370
    15
100
AcDbLine
 10
247.5499519955
 20
259.3307989535
 30
0.0
 11
248.1285640846
 21
259.3307989535
 31
0.0
  0
LINE
  5
128
330
1F
100
AcDbEntity
  8
0
  6
Continuous
 62
     7
370
    15
100
AcDbLine
 10
248.1285640846
 20
246.3307986853
 30
0.0
 11
247.5499519955
 21
246.3307986853
 31
0.0
  0
CIRCLE
  5
129
330
1F
100
AcDbEntity
  8
0
  6
Continuous
 62
     7
370
    15
100
AcDbCircle
 10
258.0499488484
 20
247.8307988194
 30
0.0
 40
3.000000000000028
  0
LINE
  5
12A
330
1F
100
AcDbEntity
  8
0
  6
Continuous
 62
     7
370
    15
100
AcDbLine
 10
257.6499441515
 20
245.9307988991
 30
0.0
 11
258.4499427925
 21
245.9307988991
 31
0.0
  0
LINE
  5
12B
330
1F
100
AcDbEntity
  8
0
  6
Continuous
 62
     7
370
    15
100
AcDbLine
 10
258.4499427925
 20
245.9307988991
 30
0.0
 11
258.4499427925
 21
247.4307986793
 31
0.0
  0
LINE
  5
12C
330
1F
100
AcDbEntity
  8
0
  6
Continuous
 62
     7
370
    15
100
AcDbLine
 10
258.4499427925
 20
247.4307986793
 30
0.0
 11
259.9499532829
 21
247.4307986793
 31
0.0
  0
LINE
  5
12D
330
1F
100
AcDbEntity
  8
0
  6
Continuous
 62
     7
370
    15
100
AcDbLine
 10
259.9499532829
 20
247.4307986793
 30
0.0
 11
259.9499532829
 21
248.2307987173
 31
0.0
  0
LINE
  5
12E
330
1F
100
AcDbEntity
  8
0
  6
Continuous
 62
     7
370
    15
100
AcDbLine
 10
259.9499532829
 20
248.2307987173
 30
0.0
 11
258.4499427925
 21
248.2307987173
 31
0.0
  0
LINE
  5
12F
330
1F
100
AcDbEntity
  8
0
  6
Continuous
 62
     7
370
    15
100
AcDbLine
 10
258.4499427925
 20
248.2307987173
 30
0.0
 11
258.4499427925
 21
249.7307987303
 31
0.0
  0
LINE
  5
130
330
1F
100
AcDbEntity
  8
0
  6
Continuous
 62
     7
370
    15
100
AcDbLine
 10
258.4499427925
 20
249.7307987303
 30
0.0
 11
257.6499441515
 21
249.7307987303
 31
0.0
  0
LINE
  5
131
330
1F
100
AcDbEntity
  8
0
  6
Continuous
 62
     7
370
    15
100
AcDbLine
 10
257.6499441515
 20
249.7307987303
 30
0.0
 11
257.6499441515
 21
248.2307987173
 31
0.0
  0
LINE
  5
132
330
1F
100
AcDbEntity
  8
0
  6
Continuous
 62
     7
370
    15
100
AcDbLine
 10
257.6499441515
 20
248.2307987173
 30
0.0
 11
256.1499485623
 21
248.2307987173
 31
0.0
  0
LINE
  5
133
330
1F
100
AcDbEntity
  8
0
  6
Continuous
 62
     7
370
    15
100
AcDbLine
 10
256.1499485623
 20
248.2307987173
 30
0.0
 11
256.1499485623
 21
247.4307986793
 31
0.0
  0
LINE
  5
134
330
1F
100
AcDbEntity
  8
0
  6
Continuous
 62
     7
370
    15
100
AcDbLine
 10
256.1499485623
 20
247.4307986793
 30
0.0
 11
257.6499441515
 21
247.4307986793
 31
0.0
  0
LINE
  5
135
330
1F
100
AcDbEntity
  8
0
  6
Continuous
 62
     7
370
    15
100
AcDbLine
 10
257.6499441515
 20
247.4307986793
 30
0.0
 11
257.6499441515
 21
245.9307988991
 31
0.0
  0
LINE
  5
136
330
1F
100
AcDbEntity
  8
0
  6
Continuous
 62
     7
370
    15
100
AcDbLine
 10
256.1499485623
 20
257.4307989215
 30
0.0
 11
257.6499441515
 21
257.4307989215
 31
0.0
  0
LINE
  5
137
330
1F
100
AcDbEntity
  8
0
  6
Continuous
 62
     7
370
    15
100
AcDbLine
 10
257.6499441515
 20
257.4307989215
 30
0.0
 11
257.6499441515
 21
255.9307989084
 31
0.0
  0
LINE
  5
138
330
1F
100
AcDbEntity
  8
0
  6
Continuous
 62
     7
370
    15
100
AcDbLine
 10
257.6499441515
 20
255.9307989084
 30
0.0
 11
258.4499427925
 21
255.9307989084
 31
0.0
  0
LINE
  5
139
330
1F
100
AcDbEntity
  8
0
  6
Continuous
 62
     7
370
    15
100
AcDbLine
 10
258.4499427925
 20
255.9307989084
 30
0.0
 11
258.4499427925
 21
257.4307989215
 31
0.0
  0
LINE
  5
13A
330
1F
100
AcDbEntity
  8
0
  6
Continuous
 62
     7
370
    15
100
AcDbLine
 10
258.4499427925
 20
257.4307989215
 30
0.0
 11
259.9499532829
 21
257.4307989215
 31
0.0
  0
LINE
  5
13B
330
1F
100
AcDbEntity
  8
0
  6
Continuous
 62
     7
370
    15
100
AcDbLine
 10
257.6499441515
 20
259.7307987397
 30
0.0
 11
257.6499441515
 21
258.2307989595
 31
0.0
  0
LINE
  5
13C
330
1F
100
AcDbEntity
  8
0
  6
Continuous
 62
     7
370
    15
100
AcDbLine
 10
259.9499532829
 20
257.4307989215
 30
0.0
 11
259.9499532829
 21
258.2307989595
 31
0.0
  0
CIRCLE
  5
13D
330
1F
100
AcDbEntity
  8
0
  6
Continuous
 62
     7
370
    15
100
AcDbCircle
 10
258.0499488484
 20
257.8307988194
 30
0.0
 40
3.0
  0
LINE
  5
13E
330
1F
100
AcDbEntity
  8
0
  6
Continuous
 62
     7
370
    15
100
AcDbLine
 10
257.6499441515
 20
258.2307989595
 30
0.0
 11
256.1499485623
 21
258.2307989595
 31
0.0
  0
LINE
  5
13F
330
1F
100
AcDbEntity
  8
0
  6
Continuous
 62
     7
370
    15
100
AcDbLine
 10
258.4499427925
 20
259.7307987397
 30
0.0
 11
257.6499441515
 21
259.7307987397
 31
0.0
  0
LINE
  5
140
330
1F
100
AcDbEntity
  8
0
  6
Continuous
 62
     7
370
    15
100
AcDbLine
 10
258.4499427925
 20
258.2307989595
 30
0.0
 11
258.4499427925
 21
259.7307987397
 31
0.0
  0
LINE
  5
141
330
1F
100
AcDbEntity
  8
0
  6
Continuous
 62
     7
370
    15
100
AcDbLine
 10
256.1499485623
 20
258.2307989595
 30
0.0
 11
256.1499485623
 21
257.4307989215
 31
0.0
  0
LINE
  5
142
330
1F
100
AcDbEntity
  8
0
  6
Continuous
 62
     7
370
    15
100
AcDbLine
 10
259.9499532829
 20
258.2307989595
 30
0.0
 11
258.4499427925
 21
258.2307989595
 31
0.0
  0
LINE
  5
143
330
1F
100
AcDbEntity
  8
0
  6
Continuous
 62
     7
370
    15
100
AcDbLine
 10
257.0321867119
 20
241.7289131206
 30
0.0
 11
252.0499536644
 21
246.3307986853
 31
0.0
  0
LINE
  5
144
330
1F
100
AcDbEntity
  8
0
  6
Continuous
 62
     7
370
    15
100
AcDbLine
 10
252.0499536644
 20
259.3307989535
 30
0.0
 11
257.0321867119
 21
263.9326845181
 31
0.0
  0
ARC
  5
145
330
1F
100
AcDbEntity
  8
0
  6
Continuous
 62
     7
370
    15
100
AcDbCircle
 10
258.0499488484
 20
262.8307988194
 30
0.0
 40
1.499999999999994
100
AcDbArc
 50
43.6028189726
 51
132.7273953127
  0
ARC
  5
146
330
1F
100
AcDbEntity
  8
0
  6
Continuous
 62
     7
370
    15
100
AcDbCircle
 10
247.5499488484
 20
252.8307988194
 30
0.0
 40
16.00000000000002
100
AcDbArc
 50
316.3971810272
 51
43.6028189726
  0
ARC
  5
147
330
1F
100
AcDbEntity
  8
0
  6
Continuous
 62
     7
370
    15
100
AcDbCircle
 10
258.0499488483
 20
242.8307988194
 30
0.0
 40
1.500000000000011
100
AcDbArc
 50
227.2726046868
 51
316.3971810272
  0
LINE
  5
148
330
1F
100
AcDbEntity
  8
0
  6
Continuous
 62
     7
370
    15
100
AcDbLine
 10
251.8489369999
 20
259.3307989535
 30
0.0
 11
252.0499536644
 21
259.3307989535
 31
0.0
  0
LINE
  5
149
330
1F
100
AcDbEntity
  8
0
  6
Continuous
 62
     7
370
    15
100
AcDbLine
 10
252.0499536644
 20
246.3307986853
 30
0.0
 11
251.8489369999
 21
246.3307986853
 31
0.0
  0
LINE
  5
14A
330
1F
100
AcDbEntity
  8
0
  6
Continuous
 62
     7
370
    15
100
AcDbLine
 10
255.0499448429
 20
52.8307958392
 30
0.0
 11
260.0499549757
 21
52.8307958392
 31
0.0
  0
LINE
  5
14B
330
1F
100
AcDbEntity
  8
0
  6
Continuous
 62
     7
370
    15
100
AcDbLine
 10
255.0499448429
 20
67.8307964352
 30
0.0
 11
255.0499448429
 21
52.8307958392
 31
0.0
  0
LINE
  5
14C
330
1F
100
AcDbEntity
  8
0
  6
Continuous
 62
     7
370
    15
100
AcDbLine
 10
255.0499448429
 20
67.8307964352
 30
0.0
 11
260.0499549757
 21
67.8307964352
 31
0.0
  0
LINE
  5
14D
330
1F
100
AcDbEntity
  8
0
  6
Continuous
 62
     7
370
    15
100
AcDbLine
 10
260.0499549757
 20
67.8307964352
 30
0.0
 11
260.0499549757
 21
52.8307958392
 31
0.0
  0
LINE
  5
14E
330
1F
100
AcDbEntity
  8
0
  6
Continuous
 62
     7
370
    15
100
AcDbLine
 10
260.0499549757
 20
67.8307964352
 30
0.0
 11
275.0499555718
 21
67.8307964352
 31
0.0
  0
ARC
  5
14F
330
1F
100
AcDbEntity
  8
0
  6
Continuous
 62
     7
370
    15
100
AcDbCircle
 10
260.0499488484
 20
67.8307988194
 30
0.0
 40
15.00000000000002
100
AcDbArc
 50
270.0
 51
0.0
  0
LINE
  5
150
330
1F
100
AcDbEntity
  8
0
  6
Continuous
 62
     7
370
    15
100
AcDbLine
 10
260.0499549757
 20
242.8433067051
 30
0.0
 11
260.0499549757
 21
67.8307964352
 31
0.0
  0
LINE
  5
151
330
1F
100
AcDbEntity
  8
0
  6
Continuous
 62
     7
370
    15
100
AcDbLine
 10
260.0499549757
 20
262.8182909337
 30
0.0
 11
260.0499549757
 21
437.8308012036
 31
0.0
  0
LINE
  5
152
330
1F
100
AcDbEntity
  8
0
  6
Continuous
 62
     7
370
    15
100
AcDbLine
 10
260.0499549757
 20
437.8308012036
 30
0.0
 11
275.0499555718
 21
437.8308012036
 31
0.0
  0
LINE
  5
153
330
1F
100
AcDbEntity
  8
0
  6
Continuous
 62
     7
370
    15
100
AcDbLine
 10
275.0499555718
 20
437.8308012036
 30
0.0
 11
275.0499555718
 21
67.8307964352
 31
0.0
  0
LINE
  5
154
330
1F
100
AcDbEntity
  8
0
  6
Continuous
 62
     7
370
    15
100
AcDbLine
 10
255.0499448429
 20
243.5598215905
 30
0.0
 11
255.0499448429
 21
67.8307964352
 31
0.0
  0
LINE
  5
155
330
1F
100
AcDbEntity
  8
0
  6
Continuous
 62
     7
370
    15
100
AcDbLine
 10
255.0499448429
 20
437.8308012036
 30
0.0
 11
260.0499549757
 21
437.8308012036
 31
0.0
  0
LINE
  5
156
330
1F
100
AcDbEntity
  8
0
  6
Continuous
 62
     7
370
    15
100
AcDbLine
 10
255.0499448429
 20
262.1017760483
 30
0.0
 11
255.0499448429
 21
437.8308012036
 31
0.0
  0
LINE
  5
157
330
1F
100
AcDbEntity
  8
0
  6
Continuous
 62
     7
370
    15
100
AcDbLine
 10
255.0499448429
 20
452.8308017996
 30
0.0
 11
260.0499549757
 21
452.8308017996
 31
0.0
  0
LINE
  5
158
330
1F
100
AcDbEntity
  8
0
  6
Continuous
 62
     7
370
    15
100
AcDbLine
 10
260.0499549757
 20
437.8308012036
 30
0.0
 11
260.0499549757
 21
452.8308017996
 31
0.0
  0
LINE
  5
159
330
1F
100
AcDbEntity
  8
0
  6
Continuous
 62
     7
370
    15
100
AcDbLine
 10
255.0499448429
 20
437.8308012036
 30
0.0
 11
255.0499448429
 21
452.8308017996
 31
0.0
  0
ARC
  5
15A
330
1F
100
AcDbEntity
  8
0
  6
Continuous
 62
     7
370
    15
100
AcDbCircle
 10
260.0499488484
 20
437.8307988194
 30
0.0
 40
15.00000000000006
100
AcDbArc
 50
0.0
 51
90.0
  0
LINE
  5
15B
330
1F
100
AcDbEntity
  8
0
  6
Continuous
 62
     7
370
    15
100
AcDbLine
 10
238.2608810316
 20
248.1307988872
 30
0.0
 11
238.2608810316
 21
256.7307987136
 31
0.0
  0
LINE
  5
15C
330
1F
100
AcDbEntity
  8
0
  6
Continuous
 62
     7
370
    15
100
AcDbLine
 10
232.7465871226
 20
248.1307988872
 30
0.0
 11
232.7465871226
 21
256.7307987136
 31
0.0
  0
LINE
  5
15D
330
1F
100
AcDbEntity
  8
0
  6
Continuous
 62
     7
370
    15
100
AcDbLine
 10
238.2608810316
 20
248.1307988872
 30
0.0
 11
232.7465871226
 21
248.1307988872
 31
0.0
  0
LINE
  5
15E
330
1F
100
AcDbEntity
  8
0
  6
Continuous
 62
     7
370
    15
100
AcDbLine
 10
238.2608810316
 20
256.7307987136
 30
0.0
 11
232.7465871226
 21
256.7307987136
 31
0.0
  0
LINE
  5
15F
330
1F
100
AcDbEntity
  8
0
  6
Continuous
 62
     7
370
    15
100
AcDbLine
 10
231.632322992
 20
260.0307986957
 30
0.0
 11
206.8202206742
 21
260.0307986957
 31
0.0
  0
LINE
  5
160
330
1F
100
AcDbEntity
  8
0
  6
Continuous
 62
     7
370
    15
100
AcDbLine
 10
231.632322992
 20
256.7307987136
 30
0.0
 11
231.632322992
 21
260.0307986957
 31
0.0
  0
LINE
  5
161
330
1F
100
AcDbEntity
  8
0
  6
Continuous
 62
     7
370
    15
100
AcDbLine
 10
231.632322992
 20
245.6307989431
 30
0.0
 11
231.632322992
 21
248.1307988872
 31
0.0
  0
LINE
  5
162
330
1F
100
AcDbEntity
  8
0
  6
Continuous
 62
     7
370
    15
100
AcDbLine
 10
206.8202206742
 20
245.6307989431
 30
0.0
 11
231.632322992
 21
245.6307989431
 31
0.0
  0
LINE
  5
163
330
1F
100
AcDbEntity
  8
0
  6
Continuous
 62
     7
370
    15
100
AcDbLine
 10
206.8202206742
 20
245.6307989431
 30
0.0
 11
206.8202206742
 21
260.0307986957
 31
0.0
  0
LINE
  5
164
330
1F
100
AcDbEntity
  8
0
  6
Continuous
 62
     7
370
    15
100
AcDbLine
 10
231.632322992
 20
248.1307988872
 30
0.0
 11
232.7465871226
 21
248.1307988872
 31
0.0
  0
LINE
  5
165
330
1F
100
AcDbEntity
  8
0
  6
Continuous
 62
     7
370
    15
100
AcDbLine
 10
231.632322992
 20
256.7307987136
 30
0.0
 11
232.7465871226
 21
256.7307987136
 31
0.0
  0
LINE
  5
166
330
1F
100
AcDbEntity
  8
0
  6
Continuous
 62
     7
370
    15
100
AcDbLine
 10
231.7599514376
 20
244.8334480521
 30
0.0
 11
233.6521753918
 21
244.8334480521
 31
0.0
  0
LINE
  5
167
330
1F
100
AcDbEntity
  8
0
  6
Continuous
 62
     7
370
    15
100
AcDbLine
 10
233.6521753918
 20
244.8334480521
 30
0.0
 11
234.3249330174
 21
244.8307984394
 31
0.0
  0
LINE
  5
168
330
1F
100
AcDbEntity
  8
0
  6
Continuous
 62
     7
370
    15
100
AcDbLine
 10
234.3249330174
 20
244.8307984394
 30
0.0
 11
206.9591292988
 21
244.8307984394
 31
0.0
  0
ARC
  5
169
330
1F
100
AcDbEntity
  8
0
  6
Continuous
 62
     7
370
    15
100
AcDbCircle
 10
208.0761008366
 20
245.4368045404
 30
0.0
 40
1.270774885943844
100
AcDbArc
 50
171.2189863599
 51
208.481774717
  0
ARC
  5
16A
330
1F
100
AcDbEntity
  8
0
  6
Continuous
 62
     7
370
    15
100
AcDbCircle
 10
233.1065213115
 20
245.4578774687
 30
0.0
 40
1.484305400411365
100
AcDbArc
 50
173.3098537565
 51
204.8780291391
  0
LINE
  5
16B
330
1F
100
AcDbEntity
  8
0
  6
Continuous
 62
     7
370
    15
100
AcDbLine
 10
233.6521753918
 20
260.8281495866
 30
0.0
 11
231.7599514376
 21
260.8281495866
 31
0.0
  0
ARC
  5
16C
330
1F
100
AcDbEntity
  8
0
  6
Continuous
 62
     7
370
    15
100
AcDbCircle
 10
233.1065213115
 20
260.2037201701
 30
0.0
 40
1.48430540041137
100
AcDbArc
 50
155.1219708609
 51
186.6901462435
  0
ARC
  5
16D
330
1F
100
AcDbEntity
  8
0
  6
Continuous
 62
     7
370
    15
100
AcDbCircle
 10
208.0761008366
 20
260.2247930984
 30
0.0
 40
1.270774885943839
100
AcDbArc
 50
151.518225283
 51
188.7810136401
  0
LINE
  5
16E
330
1F
100
AcDbEntity
  8
0
  6
Continuous
 62
     7
370
    15
100
AcDbLine
 10
206.9591292988
 20
260.8307991994
 30
0.0
 11
234.3249330174
 21
260.8307991994
 31
0.0
  0
LINE
  5
16F
330
1F
100
AcDbEntity
  8
0
  6
Continuous
 62
     7
370
    15
100
AcDbLine
 10
234.3249330174
 20
260.8307991994
 30
0.0
 11
233.6521753918
 21
260.8281495866
 31
0.0
  0
LINE
  5
170
330
1F
100
AcDbEntity
  8
0
  6
Continuous
 62
     7
370
    15
100
AcDbLine
 10
231.7599514376
 20
244.8334480521
 30
0.0
 11
231.7599514376
 21
245.6307989431
 31
0.0
  0
LINE
  5
171
330
1F
100
AcDbEntity
  8
0
  6
Continuous
 62
     7
370
    15
100
AcDbLine
 10
231.7712465178
 20
248.1307988872
 30
0.0
 11
231.7712465178
 21
245.6307989431
 31
0.0
  0
LINE
  5
172
330
1F
100
AcDbEntity
  8
0
  6
Continuous
 62
     7
370
    15
100
AcDbLine
 10
231.7599514376
 20
260.0307986957
 30
0.0
 11
231.7599514376
 21
260.8281495866
 31
0.0
  0
LINE
  5
173
330
1F
100
AcDbEntity
  8
0
  6
Continuous
 62
     7
370
    15
100
AcDbLine
 10
231.7712465178
 20
260.0307986957
 30
0.0
 11
231.7712465178
 21
256.7307987136
 31
0.0
  0
LINE
  5
174
330
1F
100
AcDbEntity
  8
0
  6
Continuous
 62
     7
370
    15
100
AcDbLine
 10
233.6521753918
 20
260.0307986957
 30
0.0
 11
233.6521753918
 21
260.8281495866
 31
0.0
  0
LINE
  5
175
330
1F
100
AcDbEntity
  8
0
  6
Continuous
 62
     7
370
    15
100
AcDbLine
 10
237.7599486958
 20
260.8307991994
 30
0.0
 11
234.3249330174
 21
260.8307991994
 31
0.0
  0
LINE
  5
176
330
1F
100
AcDbEntity
  8
0
  6
Continuous
 62
     7
370
    15
100
AcDbLine
 10
237.7599486958
 20
260.0307986957
 30
0.0
 11
233.6521753918
 21
260.0307986957
 31
0.0
  0
LINE
  5
177
330
1F
100
AcDbEntity
  8
0
  6
Continuous
 62
     7
370
    15
100
AcDbLine
 10
237.7599486958
 20
244.8307984394
 30
0.0
 11
234.3249330174
 21
244.8307984394
 31
0.0
  0
LINE
  5
178
330
1F
100
AcDbEntity
  8
0
  6
Continuous
 62
     7
370
    15
100
AcDbLine
 10
233.6521753918
 20
244.8334480521
 30
0.0
 11
233.6521753918
 21
245.6307989431
 31
0.0
  0
LINE
  5
179
330
1F
100
AcDbEntity
  8
0
  6
Continuous
 62
     7
370
    15
100
AcDbLine
 10
237.7599486958
 20
245.6307989431
 30
0.0
 11
233.6521753918
 21
245.6307989431
 31
0.0
  0
LINE
  5
17A
330
1F
100
AcDbEntity
  8
0
  6
Continuous
 62
     7
370
    15
100
AcDbLine
 10
231.7599514376
 20
260.0307986957
 30
0.0
 11
233.6521753918
 21
260.0307986957
 31
0.0
  0
LINE
  5
17B
330
1F
100
AcDbEntity
  8
0
  6
Continuous
 62
     7
370
    15
100
AcDbLine
 10
231.7599514376
 20
245.6307989431
 30
0.0
 11
233.6521753918
 21
245.6307989431
 31
0.0
  0
LINE
  5
17C
330
1F
100
AcDbEntity
  8
0
  6
Continuous
 62
     7
370
    15
100
AcDbLine
 10
232.8299442183
 20
261.1307986897
 30
0.0
 11
237.2299441944
 21
261.1307986897
 31
0.0
  0
LINE
  5
17D
330
1F
100
AcDbEntity
  8
0
  6
Continuous
 62
     7
370
    15
100
AcDbLine
 10
232.929945911
 20
244.0307988671
 30
0.0
 11
237.1299425017
 21
244.0307988671
 31
0.0
  0
LINE
  5
17E
330
1F
100
AcDbEntity
  8
0
  6
Continuous
 62
     7
370
    15
100
AcDbLine
 10
232.929945911
 20
244.4307991189
 30
0.0
 11
237.1299425017
 21
244.4307991189
 31
0.0
  0
ARC
  5
17F
330
1F
100
AcDbEntity
  8
0
  6
Continuous
 62
     7
370
    15
100
AcDbCircle
 10
215.2258478623
 20
252.8307988194
 30
0.0
 40
16.90399728363025
100
AcDbArc
 50
154.7901555355
 51
205.2098444645
  0
SPLINE
  5
180
330
1F
100
AcDbEntity
  8
0
  6
Continuous
 62
     7
370
    15
100
AcDbSpline
210
0.0
220
0.0
230
1.0
 70
     8
 71
     3
 72
    12
 73
     8
 74
     0
 42
0.00000001
 43
0.00000001
 40
0.0
 40
0.0
 40
0.0
 40
0.0
 40
0.1818824542774583
 40
0.3633438662377088
 40
0.5550797750830154
 40
0.7712664045536519
 40
1.0
 40
1.0
 40
1.0
 40
1.0
 10
200.0642651568602
 20
244.8307984394036
 30
0.0
 10
200.0881253863314
 20
244.8381187481232
 30
0.0
 10
200.1357906108844
 20
244.8527424196743
 30
0.0
 10
200.1505392530003
 20
244.9647414525705
 30
0.0
 10
200.1233049047244
 20
245.1341324727885
 30
0.0
 10
200.0516304589989
 20
245.3625458302344
 30
0.0
 10
199.9725473413447
 20
245.5397158123328
 30
0.0
 10
199.9318906913946
 20
245.6307989430628
 30
0.0
  0
LINE
  5
181
330
1F
100
AcDbEntity
  8
0
  6
Continuous
 62
     7
370
    15
100
AcDbLine
 10
199.679904605
 20
245.5852977817
 30
0.0
 11
200.0343510758
 21
244.8307984394
 31
0.0
  0
ARC
  5
182
330
1F
100
AcDbEntity
  8
0
  6
Continuous
 62
     7
370
    15
100
AcDbCircle
 10
214.9505650236
 20
252.8307988194
 30
0.0
 40
16.90237719687146
100
AcDbArc
 50
154.6169692401
 51
205.3830307599
  0
LINE
  5
183
330
1F
100
AcDbEntity
  8
0
  6
Continuous
 62
     7
370
    15
100
AcDbLine
 10
200.0343510758
 20
260.8307991994
 30
0.0
 11
199.679904605
 21
260.0762998571
 31
0.0
  0
SPLINE
  5
184
330
1F
100
AcDbEntity
  8
0
  6
Continuous
 62
     7
370
    15
100
AcDbSpline
210
0.0
220
0.0
230
1.0
 70
     8
 71
     3
 72
    12
 73
     8
 74
     0
 42
0.00000001
 43
0.00000001
 40
0.0
 40
0.0
 40
0.0
 40
0.0
 40
0.2510177057793779
 40
0.5023993650511631
 40
0.7402774422560285
 40
0.9473074508812208
 40
1.0
 40
1.0
 40
1.0
 40
1.0
 10
199.9318906913946
 20
260.0307986957035
 30
0.0
 10
199.9762087041247
 20
260.130681846648
 30
0.0
 10
200.0649089867873
 20
260.3305929702795
 30
0.0
 10
200.1398979365403
 20
260.5893167882675
 30
0.0
 10
200.151393636527
 20
260.7665512796095
 30
0.0
 10
200.1097473402722
 20
260.8269998635641
 30
0.0
 10
200.0719362717672
 20
260.8301583958812
 30
0.0
 10
200.0642651568602
 20
260.8307991993628
 30
0.0
  0
LINE
  5
185
330
1F
100
AcDbEntity
  8
0
  6
Continuous
 62
     7
370
    15
100
AcDbLine
 10
200.0642651569
 20
260.8307991994
 30
0.0
 11
200.0343510758
 21
260.8307991994
 31
0.0
  0
LINE
  5
186
330
1F
100
AcDbEntity
  8
0
  6
Continuous
 62
     7
370
    15
100
AcDbLine
 10
200.0642651569
 20
244.8307984394
 30
0.0
 11
200.0343510758
 21
244.8307984394
 31
0.0
  0
LINE
  5
187
330
1F
100
AcDbEntity
  8
0
  6
Continuous
 62
     7
370
    15
100
AcDbLine
 10
201.9213670741
 20
260.0307986957
 30
0.0
 11
199.9318906914
 21
260.0307986957
 31
0.0
  0
LINE
  5
188
330
1F
100
AcDbEntity
  8
0
  6
Continuous
 62
     7
370
    15
100
AcDbLine
 10
201.9213670741
 20
245.6307989431
 30
0.0
 11
201.9213670741
 21
260.0307986957
 31
0.0
  0
LINE
  5
189
330
1F
100
AcDbEntity
  8
0
  6
Continuous
 62
     7
370
    15
100
AcDbLine
 10
199.9318906914
 20
245.6307989431
 30
0.0
 11
201.9213670741
 21
245.6307989431
 31
0.0
  0
LWPOLYLINE
  5
18A
330
1F
100
AcDbEntity
  8
0
  6
Continuous
 62
     7
370
    15
100
AcDbPolyline
 90
        9
 70
   128
 43
0.0
 10
201.9213670741
 20
260.0307986957
 10
201.9161069642
 20
260.1868711297
 10
201.9005427014
 20
260.3369453807
 10
201.8752554308
 20
260.475255165
 10
201.8412286292
 20
260.5964840275
 10
201.7997661482
 20
260.6959744242
 10
201.752462412
 20
260.7699028102
 10
201.7011279117
 20
260.8154267889
 10
201.6477519523
 20
260.8307991994
  0
LINE
  5
18B
330
1F
100
AcDbEntity
  8
0
  6
Continuous
 62
     7
370
    15
100
AcDbLine
 10
200.0642651569
 20
260.8307991994
 30
0.0
 11
201.6477519523
 21
260.8307991994
 31
0.0
  0
LWPOLYLINE
  5
18C
330
1F
100
AcDbEntity
  8
0
  6
Continuous
 62
     7
370
    15
100
AcDbPolyline
 90
        9
 70
   128
 43
0.0
 10
201.9213670741
 20
245.6307989431
 10
201.9161069642
 20
245.474726509
 10
201.9005427014
 20
245.324652258
 10
201.8752554308
 20
245.1863424738
 10
201.8412286292
 20
245.0651136112
 10
201.7997661482
 20
244.9656232146
 10
201.752462412
 20
244.8916948286
 10
201.7011279117
 20
244.8461708498
 10
201.6477519523
 20
244.8307984394
  0
LINE
  5
18D
330
1F
100
AcDbEntity
  8
0
  6
Continuous
 62
     7
370
    15
100
AcDbLine
 10
201.6477519523
 20
244.8307984394
 30
0.0
 11
200.0642651569
 21
244.8307984394
 31
0.0
  0
LINE
  5
18E
330
1F
100
AcDbEntity
  8
0
  6
Continuous
 62
     7
370
    15
100
AcDbLine
 10
206.8202206742
 20
260.0307986957
 30
0.0
 11
201.9213670741
 21
260.0307986957
 31
0.0
  0
LINE
  5
18F
330
1F
100
AcDbEntity
  8
0
  6
Continuous
 62
     7
370
    15
100
AcDbLine
 10
201.9213670741
 20
245.6307989431
 30
0.0
 11
206.8202206742
 21
245.6307989431
 31
0.0
  0
LINE
  5
190
330
1F
100
AcDbEntity
  8
0
  6
Continuous
 62
     7
370
    15
100
AcDbLine
 10
201.6477519523
 20
260.8307991994
 30
0.0
 11
206.9591292988
 21
260.8307991994
 31
0.0
  0
LINE
  5
191
330
1F
100
AcDbEntity
  8
0
  6
Continuous
 62
     7
370
    15
100
AcDbLine
 10
206.9591292988
 20
244.8307984394
 30
0.0
 11
201.6477519523
 21
244.8307984394
 31
0.0
  0
SPLINE
  5
192
330
1F
100
AcDbEntity
  8
0
  6
Continuous
 62
     7
370
    15
100
AcDbSpline
210
0.0
220
0.0
230
1.0
 70
     8
 71
     3
 72
    16
 73
    12
 74
     0
 42
0.00000001
 43
0.00000001
 40
0.0
 40
0.0
 40
0.0
 40
0.0
 40
0.1207064988727857
 40
0.2414153406334466
 40
0.3621173897814783
 40
0.4828240699053324
 40
0.6035292431201714
 40
0.7242353295631178
 40
0.8449400890215276
 40
0.9656487338981586
 40
1.0
 40
1.0
 40
1.0
 40
1.0
 10
233.2022497307013
 20
239.8784273189507
 30
0.0
 10
233.2216507416505
 20
239.8811008149155
 30
0.0
 10
233.2604531401185
 20
239.8864478587371
 30
0.0
 10
233.2653744914693
 20
240.177375768114
 30
0.0
 10
233.2281661853523
 20
240.6307459472621
 30
0.0
 10
233.1512370830735
 20
241.198251142082
 30
0.0
 10
233.0474337075871
 20
241.786585435807
 30
0.0
 10
232.9313382438781
 20
242.313278100963
 30
0.0
 10
232.8243245623138
 20
242.6765726754487
 30
0.0
 10
232.7517535498416
 20
242.8470338355984
 30
0.0
 10
232.7322025119414
 20
242.813883086949
 30
0.0
 10
232.7278712640951
 20
242.8065390211545
 30
0.0
  0
SPLINE
  5
193
330
1F
100
AcDbEntity
  8
0
  6
Continuous
 62
     7
370
    15
100
AcDbSpline
210
0.0
220
0.0
230
1.0
 70
     8
 71
     3
 72
    16
 73
    12
 74
     0
 42
0.00000001
 43
0.00000001
 40
0.0
 40
0.0
 40
0.0
 40
0.0
 40
0.1205771187383075
 40
0.2411625799959162
 40
0.3617414903710732
 40
0.4823248809963983
 40
0.6029067662518612
 40
0.7234901541341352
 40
0.8440710670591477
 40
0.9646563650547783
 40
1.0
 40
1.0
 40
1.0
 40
1.0
 10
233.3728382240485
 20
265.7544511255822
 30
0.0
 10
233.3922392489451
 20
265.7517761121423
 30
0.0
 10
233.4310426410615
 20
265.7464259001828
 30
0.0
 10
233.4359626235306
 20
265.4555038697536
 30
0.0
 10
233.3987551395795
 20
265.002131662698
 30
0.0
 10
233.3218242312118
 20
264.4346305953067
 30
0.0
 10
233.2180269824804
 20
263.8462799409714
 30
0.0
 10
233.101908069012
 20
263.3196446268004
 30
0.0
 10
232.9948956829926
 20
262.956150236549
 30
0.0
 10
232.9221342073841
 20
262.7856126619938
 30
0.0
 10
232.9024942225211
 20
262.8191980417704
 30
0.0
 10
232.8980425249289
 20
262.8268106726013
 30
0.0
  0
SPLINE
  5
194
330
1F
100
AcDbEntity
  8
0
  6
Continuous
 62
     7
370
    15
100
AcDbSpline
210
0.0
220
0.0
230
1.0
 70
     8
 71
     3
 72
    16
 73
    12
 74
     0
 42
0.00000001
 43
0.00000001
 40
0.0
 40
0.0
 40
0.0
 40
0.0
 40
0.1205179431022635
 40
0.2410327858268665
 40
0.3615502496440239
 40
0.4820664895719758
 40
0.6025831090871046
 40
0.723100640403786
 40
0.8436168468088149
 40
0.9641310962180005
 40
1.0
 40
1.0
 40
1.0
 40
1.0
 10
248.7432220827291
 20
242.4948458445273
 30
0.0
 10
248.762623189612
 20
242.4975170408261
 30
0.0
 10
248.8014249042759
 20
242.5028593647059
 30
0.0
 10
248.8063459989809
 20
242.7938141959607
 30
0.0
 10
248.769140092111
 20
243.2471479244248
 30
0.0
 10
248.6922091532137
 20
243.8146729175916
 30
0.0
 10
248.5884035801889
 20
244.4030194133536
 30
0.0
 10
248.4723202545877
 20
244.9296346344391
 30
0.0
 10
248.3652624872085
 20
245.2932178484393
 30
0.0
 10
248.2924096926885
 20
245.4638078928976
 30
0.0
 10
248.2727191888992
 20
245.4299942496783
 30
0.0
 10
248.2682028661917
 20
245.4222385657035
 30
0.0
  0
SPLINE
  5
195
330
1F
100
AcDbEntity
  8
0
  6
Continuous
 62
     7
370
    15
100
AcDbSpline
210
0.0
220
0.0
230
1.0
 70
     8
 71
     3
 72
    16
 73
    12
 74
     0
 42
0.00000001
 43
0.00000001
 40
0.0
 40
0.0
 40
0.0
 40
0.0
 40
0.1205179291601008
 40
0.2410324105773608
 40
0.3615496018336235
 40
0.482065750063826
 40
0.6025820970199695
 40
0.7230971707386024
 40
0.8436171914444965
 40
0.9641311683000571
 40
1.0
 40
1.0
 40
1.0
 40
1.0
 10
248.9137956749151
 20
263.1380326000057
 30
0.0
 10
248.9332030920804
 20
263.1353613943793
 30
0.0
 10
248.9720173712091
 20
263.1300190595436
 30
0.0
 10
248.9769332875918
 20
262.8390652636221
 30
0.0
 10
248.9397293796994
 20
262.3857314814467
 30
0.0
 10
248.8627955038701
 20
261.818204639747
 30
0.0
 10
248.7590007553515
 20
261.2298669141388
 30
0.0
 10
248.6428788525622
 20
260.7032279084156
 30
0.0
 10
248.5358608363964
 20
260.3396695632516
 30
0.0
 10
248.4629976450997
 20
260.1690696985906
 30
0.0
 10
248.4433075820361
 20
260.2028844132568
 30
0.0
 10
248.4387913595388
 20
260.2106403444908
 30
0.0
  0
SPLINE
  5
196
330
1F
100
AcDbEntity
  8
0
  6
Continuous
 62
     7
370
    15
100
AcDbSpline
210
0.0
220
0.0
230
1.0
 70
    24
 71
     3
 72
    16
 73
    12
 74
     0
 42
0.00000001
 43
0.00000001
 40
0.0
 40
0.0
 40
0.0
 40
0.0
 40
0.0611042412805948
 40
0.1864670502232474
 40
0.311832109630077
 40
0.4371980005123943
 40
0.5625599899456356
 40
0.68792400593719
 40
0.8132867973268191
 40
0.9386468025897463
 40
1.0
 40
1.0
 40
1.0
 40
1.0
 10
251.8201330553244
 20
245.9645630677245
 30
0.0
 10
251.8259060782553
 20
245.9645630677245
 30
0.0
 10
251.8435231623438
 20
245.9645630677245
 30
0.0
 10
251.62508337442
 20
245.9645630677245
 30
0.0
 10
251.2123557555022
 20
245.9645630677245
 30
0.0
 10
250.655879366064
 20
245.9645630677245
 30
0.0
 10
250.0567703286408
 20
245.9645630677245
 30
0.0
 10
249.498083525729
 20
245.9645630677245
 30
0.0
 10
249.0811274476874
 20
245.9645630677245
 30
0.0
 10
248.8581252266623
 20
245.9645630677245
 30
0.0
 10
248.8729409758376
 20
245.9645630677245
 30
0.0
 10
248.877809370632
 20
245.9645630677245
 30
0.0
  0
SPLINE
  5
197
330
1F
100
AcDbEntity
  8
0
  6
Continuous
 62
     7
370
    15
100
AcDbSpline
210
0.0
220
0.0
230
1.0
 70
    24
 71
     3
 72
    16
 73
    12
 74
     0
 42
0.00000001
 43
0.00000001
 40
0.0
 40
0.0
 40
0.0
 40
0.0
 40
0.0610064913464802
 40
0.1861687543686247
 40
0.3113332642548242
 40
0.4364986042863799
 40
0.5616600491101023
 40
0.6868235172502032
 40
0.8119857627474041
 40
0.9371452265749375
 40
1.0
 40
1.0
 40
1.0
 40
1.0
 10
251.8201330553244
 20
259.5231938992641
 30
0.0
 10
251.825906072031
 20
259.5231938992641
 30
0.0
 10
251.8435231371254
 20
259.5231938992641
 30
0.0
 10
251.6250836082345
 20
259.5231938992641
 30
0.0
 10
251.2123548988223
 20
259.5231938992641
 30
0.0
 10
250.6558825589435
 20
259.5231938992641
 30
0.0
 10
250.0567584141317
 20
259.5231938992641
 30
0.0
 10
249.4981279916374
 20
259.5231938992641
 30
0.0
 10
249.0809615021815
 20
259.5231938992641
 30
0.0
 10
248.8574692729611
 20
259.5231938992641
 30
0.0
 10
248.8726908608249
 20
259.5231938992641
 30
0.0
 10
248.8777795683096
 20
259.5231938992641
 30
0.0
  0
SPLINE
  5
198
330
1F
100
AcDbEntity
  8
0
  6
Continuous
 62
     7
370
    15
100
AcDbSpline
210
0.0
220
0.0
230
1.0
 70
     8
 71
     3
 72
    19
 73
    15
 74
     0
 42
0.00000001
 43
0.00000001
 40
0.0
 40
0.0
 40
0.0
 40
0.0
 40
0.0039536270391049
 40
0.1157767945096484
 40
0.2280437365587862
 40
0.3355255667690837
 40
0.437712548903688
 40
0.5348869571443983
 40
0.6283115535344265
 40
0.7303059003380254
 40
0.8413432073336293
 40
0.9641172398440389
 40
0.9937688794264846
 40
1.0
 40
1.0
 40
1.0
 40
1.0
 10
238.148228253002
 20
258.4307986197076
 30
0.0
 10
238.1486205138994
 20
258.4307930032919
 30
0.0
 10
238.1601073610065
 20
258.4306285339049
 30
0.0
 10
238.183423725226
 20
258.4155047199562
 30
0.0
 10
238.2268983941302
 20
258.348593458651
 30
0.0
 10
238.2648800676935
 20
258.2439108445441
 30
0.0
 10
238.2883601452472
 20
258.1188273524739
 30
0.0
 10
238.2997001840207
 20
257.9903905544519
 30
0.0
 10
238.3003089867084
 20
257.8692204390603
 30
0.0
 10
238.2845091954165
 20
257.7599930784741
 30
0.0
 10
238.2441457635851
 20
257.6705799004901
 30
0.0
 10
238.1922579575885
 20
257.6355189783071
 30
0.0
 10
238.157568512771
 20
257.630912102186
 30
0.0
 10
238.1496102269213
 20
257.6308157748293
 30
0.0
 10
238.148228253002
 20
257.6307990473709
 30
0.0
  0
SPLINE
  5
199
330
1F
100
AcDbEntity
  8
0
  6
Continuous
 62
     7
370
    15
100
AcDbSpline
210
0.0
220
0.0
230
1.0
 70
     8
 71
     3
 72
    30
 73
    26
 74
     0
 42
0.00000001
 43
0.00000001
 40
0.0
 40
0.0
 40
0.0
 40
0.0
 40
0.1247239430626617
 40
0.2494257052796339
 40
0.3741243600049823
 40
0.4367876370049001
 40
0.4681568484786985
 40
0.4838454312090021
 40
0.4916974834880816
 40
0.4956160312397341
 40
0.4975751242398571
 40
0.498554598383625
 40
0.4990444223633528
 40
0.4992892475790113
 40
0.4994117035739433
 40
0.499472888318016
 40
0.4995092984646414
 40
0.4995217720366857
 40
0.4995342456087301
 40
0.5609220775659168
 40
0.6646191330419637
 40
0.73258125151403
 40
0.8111535469705378
 40
0.9002866268544109
 40
1.0
 40
1.0
 40
1.0
 40
1.0
 10
238.2199177395056
 20
258.4906905774973
 30
0.0
 10
238.2256869377718
 20
258.4888980836276
 30
0.0
 10
238.2372243083128
 20
258.4853134146645
 30
0.0
 10
238.3270684295241
 20
258.4634726731261
 30
0.0
 10
238.4345394246421
 20
258.4377886442617
 30
0.0
 10
238.5200885792323
 20
258.4173802413121
 30
0.0
 10
238.5641959857205
 20
258.4068468711105
 30
0.0
 10
238.5864203196328
 20
258.4015237625441
 30
0.0
 10
238.5975566732737
 20
258.3988638845427
 30
0.0
 10
238.6031257967919
 20
258.3975273044265
 30
0.0
 10
238.6059073810727
 20
258.3968600635649
 30
0.0
 10
238.6072983326037
 20
258.3965267028539
 30
0.0
 10
238.6079936501078
 20
258.3963595717051
 30
0.0
 10
238.608341213993
 20
258.3962755026141
 30
0.0
 10
238.6085154229157
 20
258.3962354385058
 30
0.0
 10
238.6086040531495
 20
258.3962113109714
 30
0.0
 10
238.6086498134336
 20
258.3962052733254
 30
0.0
 10
238.608674118286
 20
258.3961971301679
 30
0.0
 10
238.633154619355
 20
258.3886563755511
 30
0.0
 10
238.7013388531699
 20
258.3767523722699
 30
0.0
 10
238.7918050537728
 20
258.3558524020556
 30
0.0
 10
238.8754517056079
 20
258.338852113228
 30
0.0
 10
238.9389531261802
 20
258.325931637993
 30
0.0
 10
238.9895032759126
 20
258.3162929251075
 30
0.0
 10
238.9967196374488
 20
258.3158306525466
 30
0.0
 10
239.0005299698065
 20
258.3155865666471
 30
0.0
  0
ELLIPSE
  5
19A
330
1F
100
AcDbEntity
  8
0
  6
Continuous
 62
     7
370
    15
100
AcDbEllipse
 10
238.8770572421
 20
259.6127739981
 30
0.0
 11
0.3906095144045878
 21
-0.0861638396116291
 31
0.0
210
0.0
220
0.0
230
0.9999999999999999
 40
0.0142285888
 41
0.0
 42
6.283185307179586
  0
LINE
  5
19B
330
1F
100
AcDbEntity
  8
0
  6
Continuous
 62
     7
370
    15
100
AcDbLine
 10
238.0499550949
 20
259.5807989945
 30
0.0
 11
238.0499550949
 21
258.5807988306
 31
0.0
  0
LINE
  5
19C
330
1F
100
AcDbEntity
  8
0
  6
Continuous
 62
     7
370
    15
100
AcDbLine
 10
238.0499550949
 20
258.5807988306
 30
0.0
 11
231.8499544512
 21
258.5807988306
 31
0.0
  0
LINE
  5
19D
330
1F
100
AcDbEntity
  8
0
  6
Continuous
 62
     7
370
    15
100
AcDbLine
 10
231.8499544512
 20
259.5807989945
 30
0.0
 11
231.8499544512
 21
258.5807988306
 31
0.0
  0
LINE
  5
19E
330
1F
100
AcDbEntity
  8
0
  6
Continuous
 62
     7
370
    15
100
AcDbLine
 10
238.0499550949
 20
259.5807989945
 30
0.0
 11
231.8499544512
 21
259.5807989945
 31
0.0
  0
LINE
  5
19F
330
1F
100
AcDbEntity
  8
0
  6
Continuous
 62
     7
370
    15
100
AcDbLine
 10
238.0499550949
 20
247.0807988082
 30
0.0
 11
238.0499550949
 21
246.0807986443
 31
0.0
  0
LINE
  5
1A0
330
1F
100
AcDbEntity
  8
0
  6
Continuous
 62
     7
370
    15
100
AcDbLine
 10
238.0499550949
 20
246.0807986443
 30
0.0
 11
231.8499544512
 21
246.0807986443
 31
0.0
  0
LINE
  5
1A1
330
1F
100
AcDbEntity
  8
0
  6
Continuous
 62
     7
370
    15
100
AcDbLine
 10
231.8499544512
 20
247.0807988082
 30
0.0
 11
231.8499544512
 21
246.0807986443
 31
0.0
  0
LINE
  5
1A2
330
1F
100
AcDbEntity
  8
0
  6
Continuous
 62
     7
370
    15
100
AcDbLine
 10
238.0499550949
 20
247.0807988082
 30
0.0
 11
231.8499544512
 21
247.0807988082
 31
0.0
  0
LWPOLYLINE
  5
1A3
330
1F
100
AcDbEntity
  8
0
  6
Continuous
 62
     7
370
    15
100
AcDbPolyline
 90
        3
 70
   128
 43
0.0
 10
231.7712465178
 20
246.4696602781
 10
231.7738244187
 20
246.4634823498
 10
231.8499544512
 20
246.0807986443
  0
LWPOLYLINE
  5
1A4
330
1F
100
AcDbEntity
  8
0
  6
Continuous
 62
     7
370
    15
100
AcDbPolyline
 90
        3
 70
   128
 43
0.0
 10
231.8499544512
 20
259.5807989945
 10
231.7738244187
 20
259.1981152889
 10
231.7712465178
 20
259.1919373606
  0
LINE
  5
1A5
330
1F
100
AcDbEntity
  8
0
  6
Continuous
 62
     7
370
    15
100
AcDbLine
 10
238.0499550949
 20
258.5807988306
 30
0.0
 11
238.0499550949
 21
258.4307986197
 31
0.0
  0
LINE
  5
1A6
330
1F
100
AcDbEntity
  8
0
  6
Continuous
 62
     7
370
    15
100
AcDbLine
 10
238.0499550949
 20
257.6307990474
 30
0.0
 11
238.0499550949
 21
256.7307987136
 31
0.0
  0
LINE
  5
1A7
330
1F
100
AcDbEntity
  8
0
  6
Continuous
 62
     7
370
    15
100
AcDbLine
 10
238.0499550949
 20
248.1307988872
 30
0.0
 11
238.0499550949
 21
247.0807988082
 31
0.0
  0
LINE
  5
1A8
330
1F
100
AcDbEntity
  8
0
  6
Continuous
 62
     7
370
    15
100
AcDbLine
 10
90.049948531
 20
437.8308012036
 30
0.0
 11
90.049948531
 21
67.8307964352
 31
0.0
  0
LINE
  5
1A9
330
1F
100
AcDbEntity
  8
0
  6
Continuous
 62
     7
370
    15
100
AcDbLine
 10
90.049948531
 20
67.8307964352
 30
0.0
 11
75.0499488662
 21
67.8307964352
 31
0.0
  0
LINE
  5
1AA
330
1F
100
AcDbEntity
  8
0
  6
Continuous
 62
     7
370
    15
100
AcDbLine
 10
75.0499488662
 20
437.8308012036
 30
0.0
 11
75.0499488662
 21
67.8307964352
 31
0.0
  0
LINE
  5
1AB
330
1F
100
AcDbEntity
  8
0
  6
Continuous
 62
     7
370
    15
100
AcDbLine
 10
75.0499488662
 20
437.8308012036
 30
0.0
 11
90.049948531
 21
437.8308012036
 31
0.0
  0
LINE
  5
1AC
330
1F
100
AcDbEntity
  8
0
  6
Continuous
 62
     7
370
    15
100
AcDbLine
 10
231.0499558102
 20
72.8307916668
 30
0.0
 11
95.0499484192
 21
72.8307916668
 31
0.0
  0
LINE
  5
1AD
330
1F
100
AcDbEntity
  8
0
  6
Continuous
 62
     7
370
    15
100
AcDbLine
 10
231.0499558102
 20
72.8307916668
 30
0.0
 11
231.0499558102
 21
240.018252365
 31
0.0
  0
LINE
  5
1AE
330
1F
100
AcDbEntity
  8
0
  6
Continuous
 62
     7
370
    15
100
AcDbLine
 10
231.0499558102
 20
243.3580384475
 30
0.0
 11
231.0499558102
 21
244.8307984394
 31
0.0
  0
LINE
  5
1AF
330
1F
100
AcDbEntity
  8
0
  6
Continuous
 62
     7
370
    15
100
AcDbLine
 10
231.0499558102
 20
260.8307991994
 30
0.0
 11
231.0499558102
 21
262.2902012316
 31
0.0
  0
LINE
  5
1B0
330
1F
100
AcDbEntity
  8
0
  6
Continuous
 62
     7
370
    15
100
AcDbLine
 10
231.0499558102
 20
265.6329172549
 30
0.0
 11
231.0499558102
 21
432.8308059719
 31
0.0
  0
LINE
  5
1B1
330
1F
100
AcDbEntity
  8
0
  6
Continuous
 62
     7
370
    15
100
AcDbLine
 10
231.0499558102
 20
432.8308059719
 30
0.0
 11
95.0499484192
 21
432.8308059719
 31
0.0
  0
LINE
  5
1B2
330
1F
100
AcDbEntity
  8
0
  6
Continuous
 62
     7
370
    15
100
AcDbLine
 10
95.0499484192
 20
432.8308059719
 30
0.0
 11
95.0499484192
 21
72.8307916668
 31
0.0
  0
LINE
  5
1B3
330
1F
100
AcDbEntity
  8
0
  6
Continuous
 62
     7
370
    15
100
AcDbLine
 10
251.0499516379
 20
437.8308012036
 30
0.0
 11
251.0499516379
 21
261.8067284
 31
0.0
  0
LINE
  5
1B4
330
1F
100
AcDbEntity
  8
0
  6
Continuous
 62
     7
370
    15
100
AcDbLine
 10
251.0499516379
 20
243.8228913468
 30
0.0
 11
251.0499516379
 21
67.8307964352
 31
0.0
  0
LINE
  5
1B5
330
1F
100
AcDbEntity
  8
0
  6
Continuous
 62
     7
370
    15
100
AcDbLine
 10
251.0499516379
 20
67.8307964352
 30
0.0
 11
90.049948531
 21
67.8307964352
 31
0.0
  0
LINE
  5
1B6
330
1F
100
AcDbEntity
  8
0
  6
Continuous
 62
     7
370
    15
100
AcDbLine
 10
251.0499516379
 20
437.8308012036
 30
0.0
 11
90.049948531
 21
437.8308012036
 31
0.0
  0
LINE
  5
1B7
330
1F
100
AcDbEntity
  8
0
  6
Continuous
 62
     7
370
    15
100
AcDbLine
 10
251.0499516379
 20
67.8307964352
 30
0.0
 11
251.0499516379
 21
52.8307958392
 31
0.0
  0
LINE
  5
1B8
330
1F
100
AcDbEntity
  8
0
  6
Continuous
 62
     7
370
    15
100
AcDbLine
 10
251.0499516379
 20
52.8307958392
 30
0.0
 11
90.049948531
 21
52.8307958392
 31
0.0
  0
LINE
  5
1B9
330
1F
100
AcDbEntity
  8
0
  6
Continuous
 62
     7
370
    15
100
AcDbLine
 10
90.049948531
 20
67.8307964352
 30
0.0
 11
90.049948531
 21
52.8307958392
 31
0.0
  0
LINE
  5
1BA
330
1F
100
AcDbEntity
  8
0
  6
Continuous
 62
     7
370
    15
100
AcDbLine
 10
251.0499516379
 20
452.8308017996
 30
0.0
 11
90.049948531
 21
452.8308017996
 31
0.0
  0
LINE
  5
1BB
330
1F
100
AcDbEntity
  8
0
  6
Continuous
 62
     7
370
    15
100
AcDbLine
 10
251.0499516379
 20
452.8308017996
 30
0.0
 11
251.0499516379
 21
437.8308012036
 31
0.0
  0
LINE
  5
1BC
330
1F
100
AcDbEntity
  8
0
  6
Continuous
 62
     7
370
    15
100
AcDbLine
 10
90.049948531
 20
452.8308017996
 30
0.0
 11
90.049948531
 21
437.8308012036
 31
0.0
  0
ARC
  5
1BD
330
1F
100
AcDbEntity
  8
0
  6
Continuous
 62
     7
370
    15
100
AcDbCircle
 10
90.0499488484
 20
67.8307988194
 30
0.0
 40
15.00000000000002
100
AcDbArc
 50
180.0
 51
270.0
  0
ARC
  5
1BE
330
1F
100
AcDbEntity
  8
0
  6
Continuous
 62
     7
370
    15
100
AcDbCircle
 10
90.0499488484
 20
437.8307988194
 30
0.0
 40
15.00000000000006
100
AcDbArc
 50
90.0
 51
180.0
  0
LINE
  5
1BF
330
1F
100
AcDbEntity
  8
0
  6
Continuous
 62
     7
370
    15
100
AcDbLine
 10
255.0499448429
 20
447.8307916668
 30
0.0
 11
251.0499516379
 21
447.8307916668
 31
0.0
  0
LINE
  5
1C0
330
1F
100
AcDbEntity
  8
0
  6
Continuous
 62
     7
370
    15
100
AcDbLine
 10
255.0499448429
 20
432.8308059719
 30
0.0
 11
251.0499516379
 21
432.8308059719
 31
0.0
  0
LINE
  5
1C1
330
1F
100
AcDbEntity
  8
0
  6
Continuous
 62
     7
370
    15
100
AcDbLine
 10
255.0499448429
 20
72.8307916668
 30
0.0
 11
251.0499516379
 21
72.8307916668
 31
0.0
  0
LINE
  5
1C2
330
1F
100
AcDbEntity
  8
0
  6
Continuous
 62
     7
370
    15
100
AcDbLine
 10
255.0499448429
 20
57.8308059719
 30
0.0
 11
251.0499516379
 21
57.8308059719
 31
0.0
  0
LINE
  5
1C3
330
1F
100
AcDbEntity
  8
0
  6
Continuous
 62
     7
370
    15
100
AcDbLine
 10
316.1973224639
 20
540.2871518807
 30
0.0
 11
317.3973129748
 21
540.2871518807
 31
0.0
  0
LINE
  5
1C4
330
1F
100
AcDbEntity
  8
0
  6
Continuous
 62
     7
370
    15
100
AcDbLine
 10
316.09730587
 20
542.7871643976
 30
0.0
 11
316.1973224639
 21
542.7871643976
 31
0.0
  0
LINE
  5
1C5
330
1F
100
AcDbEntity
  8
0
  6
Continuous
 62
     7
370
    15
100
AcDbLine
 10
316.1973224639
 20
548.7871616558
 30
0.0
 11
316.09730587
 21
548.7871616558
 31
0.0
  0
LINE
  5
1C6
330
1F
100
AcDbEntity
  8
0
  6
Continuous
 62
     7
370
    15
100
AcDbLine
 10
311.9490610122
 20
605.7871579603
 30
0.0
 11
311.1973272323
 21
605.5135428385
 31
0.0
  0
SPLINE
  5
1C7
330
1F
100
AcDbEntity
  8
0
  6
Continuous
 62
     7
370
    15
100
AcDbSpline
210
0.0
220
0.0
230
1.0
 70
     8
 71
     3
 72
    15
 73
    11
 74
     0
 42
0.00000001
 43
0.00000001
 40
0.0
 40
0.0
 40
0.0
 40
0.0
 40
0.1250747348448296
 40
0.2501516639445631
 40
0.3752905555426532
 40
0.5003035363655121
 40
0.625287151282555
 40
0.7502617870385373
 40
0.8750781845442345
 40
0.9999999999999999
 40
0.9999999999999999
 40
0.9999999999999999
 40
0.9999999999999999
 10
315.0117562770023
 20
570.8449929432054
 30
0.0
 10
314.9856231615454
 20
571.1037540976093
 30
0.0
 10
314.933356472164
 20
571.6212809460064
 30
0.0
 10
314.8545221734157
 20
572.4023962951818
 30
0.0
 10
314.7800764638147
 20
573.1395706839008
 30
0.0
 10
314.7131005391221
 20
573.8031517578708
 30
0.0
 10
314.6569510071598
 20
574.3589031231195
 30
0.0
 10
314.6144736653079
 20
574.7800154808372
 30
0.0
 10
314.5856116174598
 20
575.0656058712505
 30
0.0
 10
314.5812619248936
 20
575.1086488823103
 30
0.0
 10
314.5790861605778
 20
575.130179472365
 30
0.0
  0
SPLINE
  5
1C8
330
1F
100
AcDbEntity
  8
0
  6
Continuous
 62
     7
370
    15
100
AcDbSpline
210
0.0
220
0.0
230
1.0
 70
     8
 71
     3
 72
    15
 73
    11
 74
     0
 42
0.00000001
 43
0.00000001
 40
0.0
 40
0.0
 40
0.0
 40
0.0
 40
0.1249397774106945
 40
0.2497690172734843
 40
0.3747514136531435
 40
0.4997367742361576
 40
0.6247481890545774
 40
0.7498807406556697
 40
0.8749439791710037
 40
0.9999999999999999
 40
0.9999999999999999
 40
0.9999999999999999
 40
0.9999999999999999
 10
311.5948604106083
 20
574.8288034872194
 30
0.0
 10
311.5970372380795
 20
574.8072221784702
 30
0.0
 10
311.6013889671248
 20
574.76407865453
 30
0.0
 10
311.6302334432228
 20
574.4783711765765
 30
0.0
 10
311.6727756507231
 20
574.0571863510229
 30
0.0
 10
311.7288599114082
 20
573.5014163335977
 30
0.0
 10
311.7958542675871
 20
572.8378825353519
 30
0.0
 10
311.8702887553617
 20
572.1008336593841
 30
0.0
 10
311.9491453117866
 20
571.3199252512304
 30
0.0
 10
312.0013628878014
 20
570.8025701607235
 30
0.0
 10
312.0274709223881
 20
570.5439000801225
 30
0.0
  0
LINE
  5
1C9
330
1F
100
AcDbEntity
  8
0
  6
Continuous
 62
     7
370
    15
100
AcDbLine
 10
312.0272027015
 20
570.5437659697
 30
0.0
 11
313.5962651729
 21
555.0027936176
 31
0.0
  0
LINE
  5
1CA
330
1F
100
AcDbEntity
  8
0
  6
Continuous
 62
     7
370
    15
100
AcDbLine
 10
316.5811167716
 20
555.3041547016
 30
0.0
 11
315.0120244979
 21
570.8451270537
 31
0.0
  0
SPLINE
  5
1CB
330
1F
100
AcDbEntity
  8
0
  6
Continuous
 62
     7
370
    15
100
AcDbSpline
210
0.0
220
0.0
230
1.0
 70
     8
 71
     3
 72
     9
 73
     5
 74
     0
 42
0.00000001
 43
0.00000001
 40
0.0
 40
0.0
 40
0.0
 40
0.0
 40
0.4837396944284098
 40
1.0
 40
1.0
 40
1.0
 40
1.0
 10
313.7663470267429
 20
553.3214210943361
 30
0.0
 10
313.7758137505851
 20
553.2571890632056
 30
0.0
 10
313.7953836224632
 20
553.1244068419611
 30
0.0
 10
313.8292237653782
 20
553.088264980014
 30
0.0
 10
313.8466940879002
 20
553.0696063713212
 30
0.0
  0
SPLINE
  5
1CC
330
1F
100
AcDbEntity
  8
0
  6
Continuous
 62
     7
370
    15
100
AcDbSpline
210
0.0
220
0.0
230
1.0
 70
     8
 71
     3
 72
    11
 73
     7
 74
     0
 42
0.00000001
 43
0.00000001
 40
0.0
 40
0.0
 40
0.0
 40
0.0
 40
0.2484459403349063
 40
0.4978885345951029
 40
0.7483891003831062
 40
1.0
 40
1.0
 40
1.0
 40
1.0
 10
313.5965631961002
 20
555.002957530417
 30
0.0
 10
313.6145774107752
 20
554.8244803539588
 30
0.0
 10
313.6506781050924
 20
554.4668100304843
 30
0.0
 10
313.6976791406288
 20
554.0019766983746
 30
0.0
 10
313.736481996775
 20
553.6190945012255
 30
0.0
 10
313.751513224432
 20
553.4718055097069
 30
0.0
 10
313.759045457758
 20
553.3979981617113
 30
0.0
  0
SPLINE
  5
1CD
330
1F
100
AcDbEntity
  8
0
  6
Continuous
 62
     7
370
    15
100
AcDbSpline
210
0.0
220
0.0
230
1.0
 70
     8
 71
     3
 72
    19
 73
    15
 74
     0
 42
0.00000001
 43
0.00000001
 40
0.0
 40
0.0
 40
0.0
 40
0.0
 40
0.080280222040227
 40
0.1534412850082278
 40
0.2193419118067342
 40
0.2779525977565788
 40
0.3728469100814392
 40
0.4421528589350319
 40
0.5315395174449103
 40
0.6554834679065943
 40
0.7303559755924375
 40
0.8130799138580646
 40
0.9031428795100213
 40
1.0
 40
1.0
 40
1.0
 40
1.0
 10
313.7819932459965
 20
553.238779254355
 30
0.0
 10
313.8173535115573
 20
553.1159050872056
 30
0.0
 10
313.8849383344192
 20
552.8810530947403
 30
0.0
 10
314.0821683639232
 20
552.5866432925892
 30
0.0
 10
314.3070131571321
 20
552.3624980669907
 30
0.0
 10
314.602699756273
 20
552.1694782101303
 30
0.0
 10
314.9446409641803
 20
552.0515687480132
 30
0.0
 10
315.3543937598525
 20
552.0217668842364
 30
0.0
 10
315.7934794745213
 20
552.1240697918334
 30
0.0
 10
316.1800109259727
 20
552.3753070070466
 30
0.0
 10
316.4728562740253
 20
552.7160189965454
 30
0.0
 10
316.6536142517017
 20
553.071491983694
 30
0.0
 10
316.759542177256
 20
553.4984290656707
 30
0.0
 10
316.7272705661426
 20
553.7934951406284
 30
0.0
 10
316.7105482577458
 20
553.9463906959672
 30
0.0
  0
SPLINE
  5
1CE
330
1F
100
AcDbEntity
  8
0
  6
Continuous
 62
     7
370
    15
100
AcDbSpline
210
0.0
220
0.0
230
1.0
 70
     8
 71
     3
 72
    11
 73
     7
 74
     0
 42
0.00000001
 43
0.00000001
 40
0.0
 40
0.0
 40
0.0
 40
0.0
 40
0.247743179398645
 40
0.4969479496719227
 40
0.747680318514186
 40
1.0
 40
1.0
 40
1.0
 40
1.0
 10
316.7343305110111
 20
553.7787079290529
 30
0.0
 10
316.7278863137094
 20
553.8433334667536
 30
0.0
 10
316.714959900784
 20
553.9729658083372
 30
0.0
 10
316.6790385560112
 20
554.3308428148175
 30
0.0
 10
316.6340228995234
 20
554.7771709316871
 30
0.0
 10
316.5985907325712
 20
555.128035003321
 30
0.0
 10
316.5808187483921
 20
555.3040205911775
 30
0.0
  0
LINE
  5
1CF
330
1F
100
AcDbEntity
  8
0
  6
Continuous
 62
     7
370
    15
100
AcDbLine
 10
316.8646262645
 20
564.9588256554
 30
0.0
 11
316.8646262645
 21
565.2586519198
 31
0.0
  0
LINE
  5
1D0
330
1F
100
AcDbEntity
  8
0
  6
Continuous
 62
     7
370
    15
100
AcDbLine
 10
316.0646127223
 20
565.2586519198
 30
0.0
 11
316.0646127223
 21
564.9612694458
 31
0.0
  0
SPLINE
  5
1D1
330
1F
100
AcDbEntity
  8
0
  6
Continuous
 62
     7
370
    15
100
AcDbSpline
210
0.0
220
0.0
230
1.0
 70
    24
 71
     3
 72
    11
 73
     7
 74
     0
 42
0.00000001
 43
0.00000001
 40
0.0
 40
0.0
 40
0.0
 40
0.0
 40
0.0207833414794417
 40
0.3465559490330116
 40
0.6711464500042603
 40
0.9999999999999999
 40
0.9999999999999999
 40
0.9999999999999999
 40
0.9999999999999999
 10
316.0646127223148
 20
565.5449628309389
 30
0.0
 10
316.0646127223148
 20
565.5416411184432
 30
0.0
 10
316.0646127223151
 20
565.486252564706
 30
0.0
 10
316.0646127223148
 20
565.3930201769302
 30
0.0
 10
316.0646127223148
 20
565.2803051918938
 30
0.0
 10
316.0646127223148
 20
565.2457884351853
 30
0.0
 10
316.0646127223148
 20
565.228417463698
 30
0.0
  0
SPLINE
  5
1D2
330
1F
100
AcDbEntity
  8
0
  6
Continuous
 62
     7
370
    15
100
AcDbSpline
210
0.0
220
0.0
230
1.0
 70
    24
 71
     3
 72
    11
 73
     7
 74
     0
 42
0.00000001
 43
0.00000001
 40
0.0
 40
0.0
 40
0.0
 40
0.0
 40
0.2504889765616955
 40
0.4977290265096876
 40
0.745885531908482
 40
1.0
 40
1.0
 40
1.0
 40
1.0
 10
316.8646262644901
 20
565.225958772101
 30
0.0
 10
316.8646262644902
 20
565.2421760719321
 30
0.0
 10
316.8646262644903
 20
565.2744003277393
 30
0.0
 10
316.8646262644901
 20
565.3831760269896
 30
0.0
 10
316.8646262644902
 20
565.5220148080236
 30
0.0
 10
316.8646262644902
 20
565.6290390950257
 30
0.0
 10
316.8646262644901
 20
565.683186002173
 30
0.0
  0
LINE
  5
1D3
330
1F
100
AcDbEntity
  8
0
  6
Continuous
 62
     7
370
    15
100
AcDbLine
 10
315.8578740119
 20
565.7871514038
 30
0.0
 11
316.0667882918
 21
565.5399262385
 31
0.0
  0
LINE
  5
1D4
330
1F
100
AcDbEntity
  8
0
  6
Continuous
 62
     7
370
    15
100
AcDbLine
 10
316.8646262645
 20
565.6831860022
 30
0.0
 11
316.8646262645
 21
565.7871514038
 31
0.0
  0
LINE
  5
1D5
330
1F
100
AcDbEntity
  8
0
  6
Continuous
 62
     7
370
    15
100
AcDbLine
 10
311.588244295
 20
574.9251841978
 30
0.0
 11
311.5726278781
 21
575.3844081835
 31
0.0
  0
SPLINE
  5
1D6
330
1F
100
AcDbEntity
  8
0
  6
Continuous
 62
     7
370
    15
100
AcDbSpline
210
0.0
220
0.0
230
1.0
 70
     8
 71
     3
 72
    11
 73
     7
 74
     0
 42
0.00000001
 43
0.00000001
 40
0.0
 40
0.0
 40
0.0
 40
0.0
 40
0.1207539141565193
 40
0.4133919937289765
 40
0.7063576933459764
 40
0.9999999999999999
 40
0.9999999999999999
 40
0.9999999999999999
 40
0.9999999999999999
 10
313.620911693491
 20
554.761737533011
 30
0.0
 10
313.6308354580558
 20
554.6634423631081
 30
0.0
 10
313.6648087238285
 20
554.326936200604
 30
0.0
 10
313.7121404353926
 20
553.8580145060591
 30
0.0
 10
313.7550393316903
 20
553.4332774492643
 30
0.0
 10
313.7625748978275
 20
553.3587352055529
 30
0.0
 10
313.7663470267429
 20
553.3214210943361
 30
0.0
  0
LINE
  5
1D7
330
1F
100
AcDbEntity
  8
0
  6
Continuous
 62
     7
370
    15
100
AcDbLine
 10
317.3973129748
 20
604.7871559338
 30
0.0
 11
317.0973227977
 21
604.7871559338
 31
0.0
  0
LINE
  5
1D8
330
1F
100
AcDbEntity
  8
0
  6
Continuous
 62
     7
370
    15
100
AcDbLine
 10
317.0973227977
 20
603.7871613578
 30
0.0
 11
316.9973062038
 21
603.7871613578
 31
0.0
  0
LINE
  5
1D9
330
1F
100
AcDbEntity
  8
0
  6
Continuous
 62
     7
370
    15
100
AcDbLine
 10
316.9973062038
 20
597.787156649
 30
0.0
 11
317.0973227977
 21
597.787156649
 31
0.0
  0
LINE
  5
1DA
330
1F
100
AcDbEntity
  8
0
  6
Continuous
 62
     7
370
    15
100
AcDbLine
 10
317.0973227977
 20
580.7871519999
 30
0.0
 11
316.9973062038
 21
580.7871519999
 31
0.0
  0
LINE
  5
1DB
330
1F
100
AcDbEntity
  8
0
  6
Continuous
 62
     7
370
    15
100
AcDbLine
 10
316.9973062038
 20
574.7871547417
 30
0.0
 11
317.0973227977
 21
574.7871547417
 31
0.0
  0
LINE
  5
1DC
330
1F
100
AcDbEntity
  8
0
  6
Continuous
 62
     7
370
    15
100
AcDbLine
 10
317.3973129748
 20
548.7871616558
 30
0.0
 11
317.3973129748
 21
543.787151523
 31
0.0
  0
LINE
  5
1DD
330
1F
100
AcDbEntity
  8
0
  6
Continuous
 62
     7
370
    15
100
AcDbLine
 10
317.3973129748
 20
548.7871616558
 30
0.0
 11
332.3973135709
 21
548.7871616558
 31
0.0
  0
LINE
  5
1DE
330
1F
100
AcDbEntity
  8
0
  6
Continuous
 62
     7
370
    15
100
AcDbLine
 10
332.3973135709
 20
548.7871616558
 30
0.0
 11
332.3973135709
 21
543.787151523
 31
0.0
  0
LINE
  5
1DF
330
1F
100
AcDbEntity
  8
0
  6
Continuous
 62
     7
370
    15
100
AcDbLine
 10
317.3973129748
 20
543.787151523
 30
0.0
 11
332.3973135709
 21
543.787151523
 31
0.0
  0
LINE
  5
1E0
330
1F
100
AcDbEntity
  8
0
  6
Continuous
 62
     7
370
    15
100
AcDbLine
 10
802.3973123788
 20
548.7871616558
 30
0.0
 11
802.3973123788
 21
543.787151523
 31
0.0
  0
LINE
  5
1E1
330
1F
100
AcDbEntity
  8
0
  6
Continuous
 62
     7
370
    15
100
AcDbLine
 10
802.3973123788
 20
543.787151523
 30
0.0
 11
332.3973135709
 21
543.787151523
 31
0.0
  0
LINE
  5
1E2
330
1F
100
AcDbEntity
  8
0
  6
Continuous
 62
     7
370
    15
100
AcDbLine
 10
802.3973123788
 20
548.7871616558
 30
0.0
 11
332.3973135709
 21
548.7871616558
 31
0.0
  0
LINE
  5
1E3
330
1F
100
AcDbEntity
  8
0
  6
Continuous
 62
     7
370
    15
100
AcDbLine
 10
802.3973123788
 20
543.787151523
 30
0.0
 11
802.3973123788
 21
528.787150927
 31
0.0
  0
LINE
  5
1E4
330
1F
100
AcDbEntity
  8
0
  6
Continuous
 62
     7
370
    15
100
AcDbLine
 10
802.3973123788
 20
528.787150927
 30
0.0
 11
332.3973135709
 21
528.787150927
 31
0.0
  0
LINE
  5
1E5
330
1F
100
AcDbEntity
  8
0
  6
Continuous
 62
     7
370
    15
100
AcDbLine
 10
332.3973135709
 20
528.787150927
 30
0.0
 11
332.3973135709
 21
543.787151523
 31
0.0
  0
ARC
  5
1E6
330
1F
100
AcDbEntity
  8
0
  6
Continuous
 62
     7
370
    15
100
AcDbCircle
 10
332.3973129748
 20
543.7871576504
 30
0.0
 40
15.0
100
AcDbArc
 50
180.0
 51
270.0
  0
LINE
  5
1E7
330
1F
100
AcDbEntity
  8
0
  6
Continuous
 62
     7
370
    15
100
AcDbLine
 10
817.3973129748
 20
548.7871616558
 30
0.0
 11
817.3973129748
 21
543.787151523
 31
0.0
  0
LINE
  5
1E8
330
1F
100
AcDbEntity
  8
0
  6
Continuous
 62
     7
370
    15
100
AcDbLine
 10
817.3973129748
 20
543.787151523
 30
0.0
 11
802.3973123788
 21
543.787151523
 31
0.0
  0
LINE
  5
1E9
330
1F
100
AcDbEntity
  8
0
  6
Continuous
 62
     7
370
    15
100
AcDbLine
 10
817.3973129748
 20
548.7871616558
 30
0.0
 11
802.3973123788
 21
548.7871616558
 31
0.0
  0
ARC
  5
1EA
330
1F
100
AcDbEntity
  8
0
  6
Continuous
 62
     7
370
    15
100
AcDbCircle
 10
802.3973129748
 20
543.7871576504
 30
0.0
 40
15.0
100
AcDbArc
 50
270.0
 51
0.0
  0
LINE
  5
1EB
330
1F
100
AcDbEntity
  8
0
  6
Continuous
 62
     7
370
    15
100
AcDbLine
 10
316.1973224639
 20
546.8049197868
 30
0.0
 11
317.3973129748
 21
546.8049197868
 31
0.0
  0
LINE
  5
1EC
330
1F
100
AcDbEntity
  8
0
  6
Continuous
 62
     7
370
    15
100
AcDbLine
 10
316.1973224639
 20
544.7009503321
 30
0.0
 11
317.3973129748
 21
544.7009503321
 31
0.0
  0
LINE
  5
1ED
330
1F
100
AcDbEntity
  8
0
  6
Continuous
 62
     7
370
    15
100
AcDbLine
 10
316.1973224639
 20
544.7009503321
 30
0.0
 11
316.1973224639
 21
546.8049197868
 31
0.0
  0
LINE
  5
1EE
330
1F
100
AcDbEntity
  8
0
  6
Continuous
 62
     7
370
    15
100
AcDbLine
 10
316.1973224639
 20
551.7871528343
 30
0.0
 11
317.3973129748
 21
551.7871528343
 31
0.0
  0
LINE
  5
1EF
330
1F
100
AcDbEntity
  8
0
  6
Continuous
 62
     7
370
    15
100
AcDbLine
 10
317.3973129748
 20
548.7871616558
 30
0.0
 11
317.3973129748
 21
551.7871528343
 31
0.0
  0
LINE
  5
1F0
330
1F
100
AcDbEntity
  8
0
  6
Continuous
 62
     7
370
    15
100
AcDbLine
 10
316.1973224639
 20
551.7871528343
 30
0.0
 11
316.1973224639
 21
546.8049197868
 31
0.0
  0
LINE
  5
1F1
330
1F
100
AcDbEntity
  8
0
  6
Continuous
 62
     7
370
    15
100
AcDbLine
 10
317.3973129748
 20
543.787151523
 30
0.0
 11
317.3973129748
 21
540.2871518807
 31
0.0
  0
LINE
  5
1F2
330
1F
100
AcDbEntity
  8
0
  6
Continuous
 62
     7
370
    15
100
AcDbLine
 10
316.1973224639
 20
540.2871518807
 30
0.0
 11
316.1973224639
 21
544.7009503321
 31
0.0
  0
LINE
  5
1F3
330
1F
100
AcDbEntity
  8
0
  6
Continuous
 62
     7
370
    15
100
AcDbLine
 10
316.09730587
 20
542.7871643976
 30
0.0
 11
316.09730587
 21
548.7871616558
 31
0.0
  0
ARC
  5
1F4
330
1F
100
AcDbEntity
  8
0
  6
Continuous
 62
     7
370
    15
100
AcDbCircle
 10
314.5973129748
 20
553.4871576504
 30
0.0
 40
2.800000000000011
100
AcDbArc
 50
0.0
 51
45.4024529621
  0
LINE
  5
1F5
330
1F
100
AcDbEntity
  8
0
  6
Continuous
 62
     7
370
    15
100
AcDbLine
 10
313.4896622657
 20
556.0587495045
 30
0.0
 11
312.8927813529
 21
555.7085424141
 31
0.0
  0
LINE
  5
1F6
330
1F
100
AcDbEntity
  8
0
  6
Continuous
 62
     7
370
    15
100
AcDbLine
 10
310.079859352
 20
552.0375370459
 30
0.0
 11
313.6232958793
 21
554.7565221266
 31
0.0
  0
LINE
  5
1F7
330
1F
100
AcDbEntity
  8
0
  6
Continuous
 62
     7
370
    15
100
AcDbLine
 10
309.3493448257
 20
552.9895722345
 30
0.0
 11
310.079859352
 21
552.0375370459
 31
0.0
  0
LINE
  5
1F8
330
1F
100
AcDbEntity
  8
0
  6
Continuous
 62
     7
370
    15
100
AcDbLine
 10
312.8927813529
 20
555.7085424141
 30
0.0
 11
309.3493448257
 21
552.9895722345
 31
0.0
  0
LINE
  5
1F9
330
1F
100
AcDbEntity
  8
0
  6
Continuous
 62
     7
370
    15
100
AcDbLine
 10
317.3973129748
 20
551.7871528343
 30
0.0
 11
317.3973129748
 21
552.7871548609
 31
0.0
  0
LINE
  5
1FA
330
1F
100
AcDbEntity
  8
0
  6
Continuous
 62
     7
370
    15
100
AcDbLine
 10
316.1973224639
 20
552.4280964808
 30
0.0
 11
316.1973224639
 21
551.7871528343
 31
0.0
  0
LINE
  5
1FB
330
1F
100
AcDbEntity
  8
0
  6
Continuous
 62
     7
370
    15
100
AcDbLine
 10
309.1278241634
 20
551.3070225195
 30
0.0
 11
308.397309637
 21
552.2590577082
 31
0.0
  0
LWPOLYLINE
  5
1FC
330
1F
100
AcDbEntity
  8
0
  6
Continuous
 62
     7
370
    15
100
AcDbPolyline
 90
        9
 70
   128
 43
0.0
 10
308.397309637
 20
552.2590577082
 10
308.4156082629
 20
552.273094602
 10
308.469788885
 20
552.3146539406
 10
308.5577653407
 20
552.382171102
 10
308.6761401652
 20
552.4730085806
 10
308.8204132079
 20
552.5837093071
 10
308.9850114345
 20
552.7100115494
 10
309.1636167525
 20
552.8470575289
 10
309.3493448257
 20
552.9895722345
  0
LWPOLYLINE
  5
1FD
330
1F
100
AcDbEntity
  8
0
  6
Continuous
 62
     7
370
    15
100
AcDbPolyline
 90
        9
 70
   128
 43
0.0
 10
310.079859352
 20
552.0375370459
 10
309.8941312789
 20
551.8950223402
 10
309.7155259608
 20
551.7579912619
 10
309.5509277343
 20
551.6316890196
 10
309.4066546916
 20
551.5209882931
 10
309.2882798671
 20
551.4301359133
 10
309.2003034114
 20
551.3626336531
 10
309.1461227893
 20
551.3210594134
 10
309.1278241634
 20
551.3070225195
  0
ARC
  5
1FE
330
1F
100
AcDbEntity
  8
0
  6
Continuous
 62
     7
370
    15
100
AcDbCircle
 10
312.4973129748
 20
568.8071576504
 30
0.0
 40
2.200000000000049
100
AcDbArc
 50
103.5934783353
 51
268.1042765976
  0
LINE
  5
1FF
330
1F
100
AcDbEntity
  8
0
  6
Continuous
 62
     7
370
    15
100
AcDbLine
 10
308.9505003451
 20
570.184931107
 30
0.0
 11
309.2841373443
 21
572.0771550612
 31
0.0
  0
LWPOLYLINE
  5
200
330
1F
100
AcDbEntity
  8
0
  6
Continuous
 62
     7
370
    15
100
AcDbPolyline
 90
        9
 70
   128
 43
0.0
 10
309.2841373443
 20
572.0771550612
 10
309.1398941039
 20
572.1025913433
 10
309.0028630256
 20
572.1267610268
 10
308.8777528762
 20
572.1488147453
 10
308.7689147948
 20
572.168007441
 10
308.6800740718
 20
572.1836685614
 10
308.6143301486
 20
572.1952616648
 10
308.5739778041
 20
572.2023844198
 10
308.5603581428
 20
572.2047835068
  0
LINE
  5
201
330
1F
100
AcDbEntity
  8
0
  6
Continuous
 62
     7
370
    15
100
AcDbLine
 10
308.5603581428
 20
572.2047835068
 30
0.0
 11
312.9353986739
 21
597.0168858246
 31
0.0
  0
LWPOLYLINE
  5
202
330
1F
100
AcDbEntity
  8
0
  6
Continuous
 62
     7
370
    15
100
AcDbPolyline
 90
        9
 70
   128
 43
0.0
 10
312.9353986739
 20
597.0168858246
 10
312.9505382537
 20
597.0142185167
 10
312.9953609466
 20
597.0063209013
 10
313.0681680202
 20
596.9934761004
 10
313.1661580562
 20
596.9762056545
 10
313.2855461597
 20
596.9551503138
 10
313.421742773
 20
596.9311296419
 10
313.5695324897
 20
596.905067511
 10
313.7232528686
 20
596.8779771999
  0
LINE
  5
203
330
1F
100
AcDbEntity
  8
0
  6
Continuous
 62
     7
370
    15
100
AcDbLine
 10
313.7232528686
 20
596.8779771999
 30
0.0
 11
308.8979290485
 21
569.5121734814
 31
0.0
  0
LINE
  5
204
330
1F
100
AcDbEntity
  8
0
  6
Continuous
 62
     7
370
    15
100
AcDbLine
 10
308.8979290485
 20
569.5121734814
 30
0.0
 11
308.9505003451
 21
570.184931107
 31
0.0
  0
LWPOLYLINE
  5
205
330
1F
100
AcDbEntity
  8
0
  6
Continuous
 62
     7
370
    15
100
AcDbPolyline
 90
        5
 70
   128
 43
0.0
 10
311.7827044486
 20
603.9052158074
 10
311.5292356967
 20
604.6016215758
 10
311.3456831931
 20
605.1059364752
 10
311.2345205306
 20
605.4112910704
 10
311.1973272323
 20
605.5135428385
  0
LWPOLYLINE
  5
206
330
1F
100
AcDbEntity
  8
0
  6
Continuous
 62
     7
370
    15
100
AcDbPolyline
 90
        5
 70
   128
 43
0.0
 10
312.542335844
 20
604.1572018937
 10
312.2854696273
 20
604.8628761844
 10
312.099443531
 20
605.3739934639
 10
311.9867907523
 20
605.6835054831
 10
311.9490610122
 20
605.7871579603
  0
LINE
  5
207
330
1F
100
AcDbEntity
  8
0
  6
Continuous
 62
     7
370
    15
100
AcDbLine
 10
312.7644227504
 20
603.802755423
 30
0.0
 11
312.542335844
 21
604.1572018937
 31
0.0
  0
LINE
  5
208
330
1F
100
AcDbEntity
  8
0
  6
Continuous
 62
     7
370
    15
100
AcDbLine
 10
312.6822279452
 20
603.7728413419
 30
0.0
 11
312.7644227504
 21
603.802755423
 31
0.0
  0
SPLINE
  5
209
330
1F
100
AcDbEntity
  8
0
  6
Continuous
 62
     7
370
    15
100
AcDbSpline
210
0.0
220
0.0
230
1.0
 70
     8
 71
     3
 72
    12
 73
     8
 74
     0
 42
0.00000001
 43
0.00000001
 40
0.0
 40
0.0
 40
0.0
 40
0.0
 40
0.2510177057793779
 40
0.5023993650511631
 40
0.7402774422560285
 40
0.9473074508812208
 40
1.0
 40
1.0
 40
1.0
 40
1.0
 10
311.7827044486179
 20
603.9052158073564
 30
0.0
 10
311.8104062714733
 20
603.8608977946263
 30
0.0
 10
311.865850082379
 20
603.7721975119639
 30
0.0
 10
312.0728699397423
 20
603.6972085622108
 30
0.0
 10
312.3342551679576
 20
603.685712862224
 30
0.0
 10
312.5508391872012
 20
603.7273591584789
 30
0.0
 10
312.6600676577473
 20
603.7651702269839
 30
0.0
 10
312.6822279452457
 20
603.7728413418909
 30
0.0
  0
LINE
  5
20A
330
1F
100
AcDbEntity
  8
0
  6
Continuous
 62
     7
370
    15
100
AcDbLine
 10
312.6822279452
 20
603.7728413419
 30
0.0
 11
313.2585452556
 21
602.1893545465
 31
0.0
  0
LWPOLYLINE
  5
20B
330
1F
100
AcDbEntity
  8
0
  6
Continuous
 62
     7
370
    15
100
AcDbPolyline
 90
        9
 70
   128
 43
0.0
 10
312.5068114757
 20
601.9157394246
 10
312.5212357997
 20
601.9209995345
 10
312.5640319347
 20
601.9365637974
 10
312.6335011481
 20
601.9618510679
 10
312.7269910335
 20
601.9958778695
 10
312.8408955096
 20
602.0373403505
 10
312.9708634376
 20
602.0846440868
 10
313.1118880271
 20
602.1359785871
 10
313.2585452556
 20
602.1893545465
  0
LINE
  5
20C
330
1F
100
AcDbEntity
  8
0
  6
Continuous
 62
     7
370
    15
100
AcDbLine
 10
312.5068114757
 20
601.9157394246
 30
0.0
 11
311.7827044486
 21
603.9052158074
 31
0.0
  0
ARC
  5
20D
330
1F
100
AcDbEntity
  8
0
  6
Continuous
 62
     7
370
    15
100
AcDbCircle
 10
313.087318481
 20
574.9761485689
 30
0.0
 40
1.599999999999981
100
AcDbArc
 50
347.034367059
 51
204.5705045338
  0
ARC
  5
20E
330
1F
100
AcDbEntity
  8
0
  6
Continuous
 62
     7
370
    15
100
AcDbCircle
 10
313.6000274462
 20
602.9992225047
 30
0.0
 40
0.4999999999998863
100
AcDbArc
 50
36.8410865502
 51
90.0
  0
ARC
  5
20F
330
1F
100
AcDbEntity
  8
0
  6
Continuous
 62
     7
370
    15
100
AcDbCircle
 10
306.3973129748
 20
597.6028436963
 30
0.0
 40
9.5
100
AcDbArc
 50
0.0
 51
36.8410865502
  0
LINE
  5
210
330
1F
100
AcDbEntity
  8
0
  6
Continuous
 62
     7
370
    15
100
AcDbLine
 10
315.8973024844
 20
597.6028441862
 30
0.0
 11
315.8973024844
 21
569.5771574453
 31
0.0
  0
ARC
  5
211
330
1F
100
AcDbEntity
  8
0
  6
Continuous
 62
     7
370
    15
100
AcDbCircle
 10
303.5797259343
 20
598.6665481187
 30
0.0
 40
10.30000000000012
100
AcDbArc
 50
350.0
 51
20.0
  0
ARC
  5
212
330
1F
100
AcDbEntity
  8
0
  6
Continuous
 62
     7
370
    15
100
AcDbCircle
 10
313.4820149006
 20
604.4992225047
 30
0.0
 40
1.0
100
AcDbArc
 50
224.1440002858
 51
270.0
  0
LINE
  5
213
330
1F
100
AcDbEntity
  8
0
  6
Continuous
 62
     7
370
    15
100
AcDbLine
 10
313.4820030688
 20
603.49922622
 30
0.0
 11
313.6000202655
 21
603.49922622
 31
0.0
  0
LWPOLYLINE
  5
214
330
1F
100
AcDbEntity
  8
0
  6
Continuous
 62
     7
370
    15
100
AcDbPolyline
 90
        3
 70
   128
 43
0.0
 10
315.8973024844
 20
569.5771574453
 10
315.6886862277
 20
568.3868824915
 10
315.3325186729
 20
567.6707177834
  0
ARC
  5
215
330
1F
100
AcDbEntity
  8
0
  6
Continuous
 62
     7
370
    15
100
AcDbCircle
 10
312.3973129748
 20
569.5771576504
 30
0.0
 40
3.50000000000001
100
AcDbArc
 50
181.0639402281
 51
271.3221928089
  0
ARC
  5
216
330
1F
100
AcDbEntity
  8
0
  6
Continuous
 62
     7
370
    15
100
AcDbCircle
 10
303.5797259343
 20
598.6665481187
 30
0.0
 40
9.50000000000002
100
AcDbArc
 50
350.0
 51
20.0
  0
ARC
  5
217
330
1F
100
AcDbEntity
  8
0
  6
Continuous
 62
     7
370
    15
100
AcDbCircle
 10
312.9909307682
 20
570.2746531772
 30
0.0
 40
4.698428302688391
100
AcDbArc
 50
170.0
 51
264.3261771657
  0
LINE
  5
218
330
1F
100
AcDbEntity
  8
0
  6
Continuous
 62
     7
370
    15
100
AcDbLine
 10
308.5603581428
 20
572.2047835068
 30
0.0
 11
308.3638714313
 21
571.0905193762
 31
0.0
  0
SPLINE
  5
219
330
1F
100
AcDbEntity
  8
0
  6
Continuous
 62
     7
370
    15
100
AcDbSpline
210
0.0
220
0.0
230
1.0
 70
     8
 71
     3
 72
    12
 73
     8
 74
     0
 42
0.00000001
 43
0.00000001
 40
0.0
 40
0.0
 40
0.0
 40
0.0
 40
0.2340466320167952
 40
0.4681094573094408
 40
0.7021595669891193
 40
0.9362183730738324
 40
1.0
 40
1.0
 40
1.0
 40
1.0
 10
313.6942850112095
 20
570.4642682747026
 30
0.0
 10
313.4978985842629
 20
570.4448896662179
 30
0.0
 10
313.1051121427375
 20
570.4061311084765
 30
0.0
 10
312.5675998350423
 20
570.4008748564485
 30
0.0
 10
312.1941508920845
 20
570.4393601318679
 30
0.0
 10
312.0148894412644
 20
570.4940183054126
 30
0.0
 10
312.0436367193051
 20
570.5379739777089
 30
0.0
 10
312.0497928618565
 20
570.5473869518419
 30
0.0
  0
SPLINE
  5
21A
330
1F
100
AcDbEntity
  8
0
  6
Continuous
 62
     7
370
    15
100
AcDbSpline
210
0.0
220
0.0
230
1.0
 70
     8
 71
     3
 72
    11
 73
     7
 74
     0
 42
0.00000001
 43
0.00000001
 40
0.0
 40
0.0
 40
0.0
 40
0.0
 40
0.1986860985321953
 40
0.4657897759992707
 40
0.7328907837825996
 40
1.0
 40
1.0
 40
1.0
 40
1.0
 10
314.990209197916
 20
570.8431601003786
 30
0.0
 10
314.9890264790504
 20
570.8186665146897
 30
0.0
 10
314.9862537719535
 20
570.7612449745026
 30
0.0
 10
314.7167140421046
 20
570.6541712316498
 30
0.0
 10
314.2696620178887
 20
570.5433464876467
 30
0.0
 10
313.8860793114223
 20
570.4906279490339
 30
0.0
 10
313.6942850112095
 20
570.4642682747026
 30
0.0
  0
SPLINE
  5
21B
330
1F
100
AcDbEntity
  8
0
  6
Continuous
 62
     7
370
    15
100
AcDbSpline
210
0.0
220
0.0
230
1.0
 70
     8
 71
     3
 72
    12
 73
     8
 74
     0
 42
0.00000001
 43
0.00000001
 40
0.0
 40
0.0
 40
0.0
 40
0.0
 40
0.2339746063686035
 40
0.4679314347940849
 40
0.7019014784153117
 40
0.9358644000539801
 40
1.0
 40
1.0
 40
1.0
 40
1.0
 10
313.0873309134617
 20
576.4761417583604
 30
0.0
 10
312.8912391267133
 20
576.4536415754991
 30
0.0
 10
312.4990704527336
 20
576.4086429193931
 30
0.0
 10
311.9961460163585
 20
576.0611311795777
 30
0.0
 10
311.6763048052558
 20
575.5676556897473
 30
0.0
 10
311.5484226429385
 20
575.1140659518012
 30
0.0
 10
311.6061852863631
 20
574.8710702006741
 30
0.0
 10
311.6186128615513
 20
574.8187899068971
 30
0.0
  0
SPLINE
  5
21C
330
1F
100
AcDbEntity
  8
0
  6
Continuous
 62
     7
370
    15
100
AcDbSpline
210
0.0
220
0.0
230
1.0
 70
     8
 71
     3
 72
    11
 73
     7
 74
     0
 42
0.00000001
 43
0.00000001
 40
0.0
 40
0.0
 40
0.0
 40
0.0
 40
0.1976869012946596
 40
0.465132349840553
 40
0.7325626924186095
 40
1.0
 40
1.0
 40
1.0
 40
1.0
 10
314.5575390814915
 20
575.1258581356187
 30
0.0
 10
314.5392589455337
 20
575.2706069382849
 30
0.0
 10
314.4962480908044
 20
575.6111826177041
 30
0.0
 10
314.1707769533398
 20
576.0609437218841
 30
0.0
 10
313.6774972927185
 20
576.40868373893
 30
0.0
 10
313.2840547476729
 20
576.4536555566773
 30
0.0
 10
313.0873309134617
 20
576.4761417583604
 30
0.0
  0
SPLINE
  5
21D
330
1F
100
AcDbEntity
  8
0
  6
Continuous
 62
     7
370
    15
100
AcDbSpline
210
0.0
220
0.0
230
1.0
 70
     8
 71
     3
 72
    12
 73
     8
 74
     0
 42
0.00000001
 43
0.00000001
 40
0.0
 40
0.0
 40
0.0
 40
0.0
 40
0.2350187178917189
 40
0.4700307124344081
 40
0.7050479913600315
 40
0.9400632363090582
 40
1.0
 40
1.0
 40
1.0
 40
1.0
 10
315.2633772849217
 20
554.9233108238359
 30
0.0
 10
315.0669861730322
 20
554.9039265698887
 30
0.0
 10
314.6742095675547
 20
554.8651586165333
 30
0.0
 10
314.1366074774989
 20
554.859895261867
 30
0.0
 10
313.7635181354604
 20
554.8984194522542
 30
0.0
 10
313.5845469122396
 20
554.9525404308381
 30
0.0
 10
313.6123922586655
 20
554.9958420943107
 30
0.0
 10
313.6180506705418
 20
555.0046413616319
 30
0.0
  0
SPLINE
  5
21E
330
1F
100
AcDbEntity
  8
0
  6
Continuous
 62
     7
370
    15
100
AcDbSpline
210
0.0
220
0.0
230
1.0
 70
     8
 71
     3
 72
    11
 73
     7
 74
     0
 42
0.00000001
 43
0.00000001
 40
0.0
 40
0.0
 40
0.0
 40
0.0
 40
0.198925981755524
 40
0.4659468739183512
 40
0.732981272131178
 40
1.0
 40
1.0
 40
1.0
 40
1.0
 10
316.5593312739506
 20
555.3023069576402
 30
0.0
 10
316.5581497442477
 20
555.2777748456264
 30
0.0
 10
316.5553822320973
 20
555.2203129655712
 30
0.0
 10
316.2858236567586
 20
555.1131963663576
 30
0.0
 10
315.8387296609992
 20
555.0023754315399
 30
0.0
 10
315.4551576586533
 20
554.9496651775241
 30
0.0
 10
315.2633772849217
 20
554.9233108238359
 30
0.0
  0
LINE
  5
21F
330
1F
100
AcDbEntity
  8
0
  6
Continuous
 62
     7
370
    15
100
AcDbLine
 10
313.7864635944
 20
553.3208846525
 30
0.0
 11
313.7854503154
 21
553.5244047121
 31
0.0
  0
ARC
  5
220
330
1F
100
AcDbEntity
  8
0
  6
Continuous
 62
     7
370
    15
100
AcDbCircle
 10
316.4646125554
 20
565.2249306066
 30
0.0
 40
0.4000150304833829
100
AcDbArc
 50
0.1472684924
 51
179.5005569488
  0
ELLIPSE
  5
221
330
1F
100
AcDbEntity
  8
0
  6
Continuous
 62
     7
370
    15
100
AcDbEllipse
 10
316.4646123752
 20
564.9600492566
 30
0.0
 11
0.3991830274373456
 21
-0.02624604221159644
 31
0.0
210
0.0
220
0.0
230
1.0
 40
0.9763157485
 41
0.0
 42
6.283185307179586
  0
SPLINE
  5
222
330
1F
100
AcDbEntity
  8
0
  6
Continuous
 62
     7
370
    15
100
AcDbSpline
210
0.0
220
0.0
230
1.0
 70
     8
 71
     3
 72
    13
 73
     9
 74
     0
 42
0.00000001
 43
0.00000001
 40
0.0
 40
0.0
 40
0.0
 40
0.0
 40
0.008167368037919
 40
0.2391706859696371
 40
0.4710907495309765
 40
0.6931257710527254
 40
0.9042227418905527
 40
1.0
 40
1.0
 40
1.0
 40
1.0
 10
316.4646194934025
 20
565.688878245749
 30
0.0
 10
316.4629605823712
 20
565.6884859779362
 30
0.0
 10
316.4143815435099
 20
565.6769989283197
 30
0.0
 10
316.3182658897588
 20
565.6537172072307
 30
0.0
 10
316.1954334581881
 20
565.6100887023997
 30
0.0
 10
316.1097714015356
 20
565.572640324819
 30
0.0
 10
316.0657419665881
 20
565.5515084376035
 30
0.0
 10
316.0689924481777
 20
565.5465198108066
 30
0.0
 10
316.070006942667
 20
565.5449628309389
 30
0.0
  0
SPLINE
  5
223
330
1F
100
AcDbEntity
  8
0
  6
Continuous
 62
     7
370
    15
100
AcDbSpline
210
0.0
220
0.0
230
1.0
 70
     8
 71
     3
 72
    13
 73
     9
 74
     0
 42
0.00000001
 43
0.00000001
 40
0.0
 40
0.0
 40
0.0
 40
0.0
 40
0.1252331227844872
 40
0.2499760561417319
 40
0.4999927820761884
 40
0.7499959496355044
 40
0.874777008862157
 40
1.0
 40
1.0
 40
1.0
 40
1.0
 10
316.8646262644901
 20
565.683186002173
 30
0.0
 10
316.8629042601754
 20
565.6832158445832
 30
0.0
 10
316.8594669918418
 20
565.6832754125936
 30
0.0
 10
316.8251226241187
 20
565.6837498582704
 30
0.0
 10
316.7498253477123
 20
565.6848219907032
 30
0.0
 10
316.6411786593367
 20
565.68635661226
 30
0.0
 10
316.5424644848296
 20
565.6877894941694
 30
0.0
 10
316.4905983850958
 20
565.6885149011222
 30
0.0
 10
316.4646194934025
 20
565.688878245749
 30
0.0
  0
SPLINE
  5
224
330
1F
100
AcDbEntity
  8
0
  6
Continuous
 62
     7
370
    15
100
AcDbSpline
210
0.0
220
0.0
230
1.0
 70
     8
 71
     3
 72
    10
 73
     6
 74
     0
 42
0.00000001
 43
0.00000001
 40
0.0
 40
0.0
 40
0.0
 40
0.0
 40
0.0189736881922672
 40
0.5252969358884917
 40
1.0
 40
1.0
 40
1.0
 40
1.0
 10
316.4646194934025
 20
565.688878245749
 30
0.0
 10
316.4661388379201
 20
565.6896185093635
 30
0.0
 10
316.5082027219449
 20
565.7101131124377
 30
0.0
 10
316.5907914478635
 20
565.74837279798
 30
0.0
 10
316.6609322264802
 20
565.7745059744453
 30
0.0
 10
316.6948722361698
 20
565.7871514038225
 30
0.0
  0
LINE
  5
225
330
1F
100
AcDbEntity
  8
0
  6
Continuous
 62
     7
370
    15
100
AcDbLine
 10
311.5880952834
 20
574.9281197266
 30
0.0
 11
311.6005526542
 21
574.7773497776
 31
0.0
  0
LINE
  5
226
330
1F
100
AcDbEntity
  8
0
  6
Continuous
 62
     7
370
    15
100
AcDbLine
 10
314.5803080558
 20
575.1208513455
 30
0.0
 11
314.5447240829
 21
575.3310173229
 31
0.0
  0
LINE
  5
227
330
1F
100
AcDbEntity
  8
0
  6
Continuous
 62
     7
370
    15
100
AcDbLine
 10
802.3973123788
 20
713.7871579678
 30
0.0
 11
817.3973129748
 21
713.7871579678
 31
0.0
  0
LINE
  5
228
330
1F
100
AcDbEntity
  8
0
  6
Continuous
 62
     7
370
    15
100
AcDbLine
 10
802.3973123788
 20
713.7871579678
 30
0.0
 11
802.3973123788
 21
728.7871576325
 31
0.0
  0
ARC
  5
229
330
1F
100
AcDbEntity
  8
0
  6
Continuous
 62
     7
370
    15
100
AcDbCircle
 10
802.3973129748
 20
713.7871576504
 30
0.0
 40
15.00000000000011
100
AcDbArc
 50
0.0
 51
90.0
  0
LINE
  5
22A
330
1F
100
AcDbEntity
  8
0
  6
Continuous
 62
     7
370
    15
100
AcDbLine
 10
332.3973135709
 20
713.7871579678
 30
0.0
 11
332.3973135709
 21
728.7871576325
 31
0.0
  0
LINE
  5
22B
330
1F
100
AcDbEntity
  8
0
  6
Continuous
 62
     7
370
    15
100
AcDbLine
 10
332.3973135709
 20
713.7871579678
 30
0.0
 11
317.3973129748
 21
713.7871579678
 31
0.0
  0
ARC
  5
22C
330
1F
100
AcDbEntity
  8
0
  6
Continuous
 62
     7
370
    15
100
AcDbCircle
 10
332.3973129748
 20
713.7871576504
 30
0.0
 40
15.0
100
AcDbArc
 50
90.0
 51
180.0
  0
LINE
  5
22D
330
1F
100
AcDbEntity
  8
0
  6
Continuous
 62
     7
370
    15
100
AcDbLine
 10
802.3973123788
 20
728.7871576325
 30
0.0
 11
332.3973135709
 21
728.7871576325
 31
0.0
  0
LINE
  5
22E
330
1F
100
AcDbEntity
  8
0
  6
Continuous
 62
     7
370
    15
100
AcDbLine
 10
802.3973123788
 20
713.7871579678
 30
0.0
 11
332.3973135709
 21
713.7871579678
 31
0.0
  0
LINE
  5
22F
330
1F
100
AcDbEntity
  8
0
  6
Continuous
 62
     7
370
    15
100
AcDbLine
 10
337.3973088025
 20
572.7871506886
 30
0.0
 11
337.3973088025
 21
708.7871580795
 31
0.0
  0
LINE
  5
230
330
1F
100
AcDbEntity
  8
0
  6
Continuous
 62
     7
370
    15
100
AcDbLine
 10
337.3973088025
 20
572.7871506886
 30
0.0
 11
797.3973171472
 21
572.7871506886
 31
0.0
  0
LINE
  5
231
330
1F
100
AcDbEntity
  8
0
  6
Continuous
 62
     7
370
    15
100
AcDbLine
 10
797.3973171472
 20
708.7871580795
 30
0.0
 11
797.3973171472
 21
572.7871506886
 31
0.0
  0
LINE
  5
232
330
1F
100
AcDbEntity
  8
0
  6
Continuous
 62
     7
370
    15
100
AcDbLine
 10
797.3973171472
 20
708.7871580795
 30
0.0
 11
337.3973088025
 21
708.7871580795
 31
0.0
  0
LINE
  5
233
330
1F
100
AcDbEntity
  8
0
  6
Continuous
 62
     7
370
    15
100
AcDbLine
 10
332.3973135709
 20
552.7871548609
 30
0.0
 11
802.3973123788
 21
552.7871548609
 31
0.0
  0
LINE
  5
234
330
1F
100
AcDbEntity
  8
0
  6
Continuous
 62
     7
370
    15
100
AcDbLine
 10
332.3973135709
 20
552.7871548609
 30
0.0
 11
332.3973135709
 21
713.7871579678
 31
0.0
  0
LINE
  5
235
330
1F
100
AcDbEntity
  8
0
  6
Continuous
 62
     7
370
    15
100
AcDbLine
 10
802.3973123788
 20
552.7871548609
 30
0.0
 11
802.3973123788
 21
713.7871579678
 31
0.0
  0
LINE
  5
236
330
1F
100
AcDbEntity
  8
0
  6
Continuous
 62
     7
370
    15
100
AcDbLine
 10
332.3973135709
 20
552.7871548609
 30
0.0
 11
317.3973129748
 21
552.7871548609
 31
0.0
  0
LINE
  5
237
330
1F
100
AcDbEntity
  8
0
  6
Continuous
 62
     7
370
    15
100
AcDbLine
 10
317.3973129748
 20
552.7871548609
 30
0.0
 11
317.3973129748
 21
713.7871579678
 31
0.0
  0
LINE
  5
238
330
1F
100
AcDbEntity
  8
0
  6
Continuous
 62
     7
370
    15
100
AcDbLine
 10
817.3973129748
 20
552.7871548609
 30
0.0
 11
817.3973129748
 21
713.7871579678
 31
0.0
  0
LINE
  5
239
330
1F
100
AcDbEntity
  8
0
  6
Continuous
 62
     7
370
    15
100
AcDbLine
 10
817.3973129748
 20
552.7871548609
 30
0.0
 11
802.3973123788
 21
552.7871548609
 31
0.0
  0
LINE
  5
23A
330
1F
100
AcDbEntity
  8
0
  6
Continuous
 62
     7
370
    15
100
AcDbLine
 10
797.3973171472
 20
548.7871616558
 30
0.0
 11
797.3973171472
 21
552.7871548609
 31
0.0
  0
LINE
  5
23B
330
1F
100
AcDbEntity
  8
0
  6
Continuous
 62
     7
370
    15
100
AcDbLine
 10
337.3973088025
 20
548.7871616558
 30
0.0
 11
337.3973088025
 21
552.7871548609
 31
0.0
  0
LINE
  5
23C
330
1F
100
AcDbEntity
  8
0
  6
Continuous
 62
     7
370
    15
100
AcDbLine
 10
322.3973082065
 20
548.7871616558
 30
0.0
 11
322.3973082065
 21
552.7871548609
 31
0.0
  0
LINE
  5
23D
330
1F
100
AcDbEntity
  8
0
  6
Continuous
 62
     7
370
    15
100
AcDbLine
 10
812.3973177432
 20
548.7871616558
 30
0.0
 11
812.3973177432
 21
552.7871548609
 31
0.0
  0
LINE
  5
23E
330
1F
100
AcDbEntity
  8
0
  6
Continuous
 62
     7
370
    15
100
AcDbLine
 10
817.3973129748
 20
552.7871548609
 30
0.0
 11
818.0646167754
 21
552.7871548609
 31
0.0
  0
ARC
  5
23F
330
1F
100
AcDbEntity
  8
0
  6
Continuous
 62
     7
370
    15
100
AcDbCircle
 10
818.0646307229
 20
553.2871576504
 30
0.0
 40
0.5000000000001137
100
AcDbArc
 50
270.0
 51
332.720387264
  0
ARC
  5
240
330
1F
100
AcDbEntity
  8
0
  6
Continuous
 62
     7
370
    15
100
AcDbCircle
 10
817.8351641095
 20
548.2871576504
 30
0.0
 40
0.4999999999999757
100
AcDbArc
 50
22.024312837
 51
90.0
  0
ARC
  5
241
330
1F
100
AcDbEntity
  8
0
  6
Continuous
 62
     7
370
    15
100
AcDbCircle
 10
823.3973129748
 20
550.5371576504
 30
0.0
 40
5.500000000000167
100
AcDbArc
 50
202.024312837
 51
152.720387264
  0
LINE
  5
242
330
1F
100
AcDbEntity
  8
0
  6
Continuous
 62
     7
370
    15
100
AcDbLine
 10
817.8351686954
 20
548.7871616558
 30
0.0
 11
817.3973129748
 21
548.7871616558
 31
0.0
  0
LINE
  5
243
330
1F
100
AcDbEntity
  8
0
  6
Continuous
 62
     7
370
    15
100
AcDbLine
 10
317.0973227977
 20
571.9871520476
 30
0.0
 11
317.3973129748
 21
571.9882249312
 31
0.0
  0
LINE
  5
244
330
1F
100
AcDbEntity
  8
0
  6
Continuous
 62
     7
370
    15
100
AcDbLine
 10
317.3973129748
 20
573.9871561007
 30
0.0
 11
317.0973227977
 21
573.9871561007
 31
0.0
  0
LINE
  5
245
330
1F
100
AcDbEntity
  8
0
  6
Continuous
 62
     7
370
    15
100
AcDbLine
 10
317.0973227977
 20
571.9871520476
 30
0.0
 11
317.0973227977
 21
573.9871561007
 31
0.0
  0
LINE
  5
246
330
1F
100
AcDbEntity
  8
0
  6
Continuous
 62
     7
370
    15
100
AcDbLine
 10
317.3973129748
 20
565.7871514038
 30
0.0
 11
317.0973227977
 21
565.7871514038
 31
0.0
  0
LINE
  5
247
330
1F
100
AcDbEntity
  8
0
  6
Continuous
 62
     7
370
    15
100
AcDbLine
 10
317.0973227977
 20
565.7871514038
 30
0.0
 11
317.0973227977
 21
571.9871520476
 31
0.0
  0
ARC
  5
248
330
1F
100
AcDbEntity
  8
0
  6
Continuous
 62
     7
370
    15
100
AcDbCircle
 10
312.1973129748
 20
568.8871576504
 30
0.0
 40
3.100000000000023
100
AcDbArc
 50
192.3149032933
 51
270.0
  0
LINE
  5
249
330
1F
100
AcDbEntity
  8
0
  6
Continuous
 62
     7
370
    15
100
AcDbLine
 10
312.1973143577
 20
565.7871514038
 30
0.0
 11
312.5074373244
 21
565.7871514038
 31
0.0
  0
LINE
  5
24A
330
1F
100
AcDbEntity
  8
0
  6
Continuous
 62
     7
370
    15
100
AcDbLine
 10
315.522687292
 20
565.7871514038
 30
0.0
 11
317.0973227977
 21
565.7871514038
 31
0.0
  0
LINE
  5
24B
330
1F
100
AcDbEntity
  8
0
  6
Continuous
 62
     7
370
    15
100
AcDbLine
 10
317.0973227977
 20
571.9871520476
 30
0.0
 11
315.8973024844
 21
571.9871520476
 31
0.0
  0
LINE
  5
24C
330
1F
100
AcDbEntity
  8
0
  6
Continuous
 62
     7
370
    15
100
AcDbLine
 10
317.0973227977
 20
573.9871561007
 30
0.0
 11
317.0973227977
 21
598.0371534304
 31
0.0
  0
LINE
  5
24D
330
1F
100
AcDbEntity
  8
0
  6
Continuous
 62
     7
370
    15
100
AcDbLine
 10
317.0973227977
 20
604.7871559338
 30
0.0
 11
317.0973227977
 21
598.0371534304
 31
0.0
  0
LINE
  5
24E
330
1F
100
AcDbEntity
  8
0
  6
Continuous
 62
     7
370
    15
100
AcDbLine
 10
316.9973062038
 20
597.787156649
 30
0.0
 11
316.9973062038
 21
603.7871613578
 31
0.0
  0
LINE
  5
24F
330
1F
100
AcDbEntity
  8
0
  6
Continuous
 62
     7
370
    15
100
AcDbLine
 10
316.9973062038
 20
574.7871547417
 30
0.0
 11
316.9973062038
 21
580.7871519999
 31
0.0
  0
LINE
  5
250
330
1F
100
AcDbEntity
  8
0
  6
Continuous
 62
     7
370
    15
100
AcDbLine
 10
315.8973024844
 20
590.1439785437
 30
0.0
 11
317.0973227977
 21
589.8224263863
 31
0.0
  0
LINE
  5
251
330
1F
100
AcDbEntity
  8
0
  6
Continuous
 62
     7
370
    15
100
AcDbLine
 10
317.0973227977
 20
588.7871533112
 30
0.0
 11
315.8973024844
 21
589.1086905674
 31
0.0
  0
LINE
  5
252
330
1F
100
AcDbEntity
  8
0
  6
Continuous
 62
     8
370
    15
100
AcDbLine
 10
317.3973129748
 20
598.0371534304
 30
0.0
 11
317.0973227977
 21
598.0371534304
 31
0.0
  0
ENDSEC
  0
SECTION
  2
OBJECTS
  0
DICTIONARY
  5
C
330
0
100
AcDbDictionary
281
     1
  3
ACAD_GROUP
350
D
  3
ACAD_LAYOUT
350
1A
  3
ACAD_MLINESTYLE
350
17
  3
ACAD_PLOTSETTINGS
350
19
  3
ACAD_PLOTSTYLENAME
350
E
  0
DICTIONARY
  5
D
102
{ACAD_REACTORS
330
C
102
}
330
C
100
AcDbDictionary
281
     1
  0
DICTIONARY
  5
1A
102
{ACAD_REACTORS
330
C
102
}
330
C
100
AcDbDictionary
281
     1
  3
Layout1
350
1E
  3
Layout2
350
26
  3
Model
350
22
  0
DICTIONARY
  5
17
102
{ACAD_REACTORS
330
C
102
}
330
C
100
AcDbDictionary
281
     1
  3
Standard
350
18
  0
DICTIONARY
  5
19
102
{ACAD_REACTORS
330
C
102
}
330
C
100
AcDbDictionary
281
     1
  0
ACDBDICTIONARYWDFLT
  5
E
102
{ACAD_REACTORS
330
C
102
}
330
C
100
AcDbDictionary
281
     1
  3
Normal
350
F
100
AcDbDictionaryWithDefault
340
F
  0
LAYOUT
  5
1E
102
{ACAD_REACTORS
330
1A
102
}
330
1A
100
AcDbPlotSettings
  1

  2
none_device
  4

  6

 40
0.0
 41
0.0
 42
0.0
 43
0.0
 44
0.0
 45
0.0
 46
0.0
 47
0.0
 48
0.0
 49
0.0
140
0.0
141
0.0
142
1.0
143
1.0
 70
   688
 72
     0
 73
     0
 74
     5
  7

 75
    16
147
1.0
148
0.0
149
0.0
100
AcDbLayout
  1
Layout1
 70
     1
 71
     1
 10
0.0
 20
0.0
 11
420.0
 21
297.0
 12
0.0
 22
0.0
 32
0.0
 14
1.0000000000E+20
 24
1.0000000000E+20
 34
1.0000000000E+20
 15
-1.0000000000E+20
 25
-1.0000000000E+20
 35
-1.0000000000E+20
146
0.0
 13
0.0
 23
0.0
 33
0.0
 16
1.0
 26
0.0
 36
0.0
 17
0.0
 27
1.0
 37
0.0
 76
     0
330
1B
  0
LAYOUT
  5
26
102
{ACAD_REACTORS
330
1A
102
}
330
1A
100
AcDbPlotSettings
  1

  2
none_device
  4

  6

 40
0.0
 41
0.0
 42
0.0
 43
0.0
 44
0.0
 45
0.0
 46
0.0
 47
0.0
 48
0.0
 49
0.0
140
0.0
141
0.0
142
1.0
143
1.0
 70
   688
 72
     0
 73
     0
 74
     5
  7

 75
    16
147
1.0
148
0.0
149
0.0
100
AcDbLayout
  1
Layout2
 70
     1
 71
     2
 10
0.0
 20
0.0
 11
0.0
 21
0.0
 12
0.0
 22
0.0
 32
0.0
 14
0.0
 24
0.0
 34
0.0
 15
0.0
 25
0.0
 35
0.0
146
0.0
 13
0.0
 23
0.0
 33
0.0
 16
1.0
 26
0.0
 36
0.0
 17
0.0
 27
1.0
 37
0.0
 76
     0
330
23
  0
LAYOUT
  5
22
102
{ACAD_REACTORS
330
1A
102
}
330
1A
100
AcDbPlotSettings
  1

  2
none_device
  4

  6

 40
0.0
 41
0.0
 42
0.0
 43
0.0
 44
0.0
 45
0.0
 46
0.0
 47
0.0
 48
0.0
 49
0.0
140
0.0
141
0.0
142
1.0
143
1.0
 70
  1712
 72
     0
 73
     0
 74
     0
  7

 75
     0
147
1.0
148
0.0
149
0.0
100
AcDbLayout
  1
Model
 70
     1
 71
     0
 10
0.0
 20
0.0
 11
840.0
 21
594.0
 12
0.0
 22
0.0
 32
0.0
 14
0.0
 24
0.0
 34
0.0
 15
840.0
 25
594.0
 35
0.0
146
0.0
 13
0.0
 23
0.0
 33
0.0
 16
1.0
 26
0.0
 36
0.0
 17
0.0
 27
1.0
 37
0.0
 76
     0
330
1F
331
29
  0
MLINESTYLE
  5
18
102
{ACAD_REACTORS
330
17
102
}
330
17
100
AcDbMlineStyle
  2
Standard
 70
     0
  3

 62
   256
 51
90.0
 52
90.0
 71
     2
 49
0.5
 62
   256
  6
BYLAYER
 49
-0.5
 62
   256
  6
BYLAYER
  0
ACDBPLACEHOLDER
  5
F
102
{ACAD_REACTORS
330
E
102
}
330
E
  0
ENDSEC
  0
EOF
