  0
SECTION
  2
HEADER
  9
$ACADVER
  1
AC1015
  9
$ACADMAINTVER
 70
     6
  9
$DWGCODEPAGE
  3
DOS932
  9
$INSBASE
 10
0.0
 20
0.0
 30
0.0
  9
$EXTMIN
 10
0.0
 20
0.0
 30
0.0
  9
$EXTMAX
 10
840.0
 20
594.0
 30
0.0
  9
$LIMMIN
 10
0.0
 20
0.0
  9
$LIMMAX
 10
840.0
 20
594.0
  9
$ORTHOMODE
 70
     0
  9
$REGENMODE
 70
     1
  9
$FILLMODE
 70
     1
  9
$QTEXTMODE
 70
     0
  9
$MIRRTEXT
 70
     1
  9
$LTSCALE
 40
2.0
  9
$ATTMODE
 70
     1
  9
$TEXTSIZE
 40
7.0
  9
$TRACEWID
 40
1.0
  9
$TEXTSTYLE
  7
Standard
  9
$CLAYER
  8
0
  9
$CELTYPE
  6
ByLayer
  9
$CECOLOR
 62
   256
  9
$CELTSCALE
 40
1.0
  9
$DISPSILH
 70
     0
  9
$DIMSCALE
 40
1.0
  9
$DIMASZ
 40
6.0
  9
$DIMEXO
 40
2.0
  9
$DIMDLI
 40
3.75
  9
$DIMRND
 40
0.0
  9
$DIMDLE
 40
0.0
  9
$DIMEXE
 40
2.0
  9
$DIMTP
 40
0.0
  9
$DIMTM
 40
0.0
  9
$DIMTXT
 40
7.0
  9
$DIMCEN
 40
2.5
  9
$DIMTSZ
 40
0.0
  9
$DIMTOL
 70
     0
  9
$DIMLIM
 70
     0
  9
$DIMTIH
 70
     1
  9
$DIMTOH
 70
     1
  9
$DIMSE1
 70
     0
  9
$DIMSE2
 70
     0
  9
$DIMTAD
 70
     1
  9
$DIMZIN
 70
     0
  9
$DIMBLK
  1

  9
$DIMASO
 70
     1
  9
$DIMSHO
 70
     1
  9
$DIMPOST
  1

  9
$DIMAPOST
  1

  9
$DIMALT
 70
     0
  9
$DIMALTD
 70
     3
  9
$DIMALTF
 40
0.0393700787
  9
$DIMLFAC
 40
1.0
  9
$DIMTOFL
 70
     1
  9
$DIMTVP
 40
0.0
  9
$DIMTIX
 70
     0
  9
$DIMSOXD
 70
     0
  9
$DIMSAH
 70
     0
  9
$DIMBLK1
  1

  9
$DIMBLK2
  1

  9
$DIMSTYLE
  2
ISO-25
  9
$DIMCLRD
 70
     0
  9
$DIMCLRE
 70
     0
  9
$DIMCLRT
 70
     0
  9
$DIMTFAC
 40
1.0
  9
$DIMGAP
 40
3.048
  9
$DIMJUST
 70
     0
  9
$DIMSD1
 70
     0
  9
$DIMSD2
 70
     0
  9
$DIMTOLJ
 70
     0
  9
$DIMTZIN
 70
     0
  9
$DIMALTZ
 70
     0
  9
$DIMALTTZ
 70
     0
  9
$DIMUPT
 70
     0
  9
$DIMDEC
 70
     1
  9
$DIMTDEC
 70
     1
  9
$DIMALTU
 70
     2
  9
$DIMALTTD
 70
     3
  9
$DIMTXSTY
  7
Standard
  9
$DIMAUNIT
 70
     0
  9
$DIMADEC
 70
     2
  9
$DIMALTRND
 40
0.0
  9
$DIMAZIN
 70
     0
  9
$DIMDSEP
 70
    44
  9
$DIMATFIT
 70
     3
  9
$DIMFRAC
 70
     0
  9
$DIMLDRBLK
  1

  9
$DIMLUNIT
 70
     2
  9
$DIMLWD
 70
    -2
  9
$DIMLWE
 70
    -2
  9
$DIMTMOVE
 70
     0
  9
$LUNITS
 70
     2
  9
$LUPREC
 70
     1
  9
$SKETCHINC
 40
1.0
  9
$FILLETRAD
 40
10.0
  9
$AUNITS
 70
     0
  9
$AUPREC
 70
     2
  9
$MENU
  1
.
  9
$ELEVATION
 40
0.0
  9
$PELEVATION
 40
0.0
  9
$THICKNESS
 40
0.0
  9
$LIMCHECK
 70
     0
  9
$CHAMFERA
 40
10.0
  9
$CHAMFERB
 40
10.0
  9
$CHAMFERC
 40
20.0
  9
$CHAMFERD
 40
0.0
  9
$SKPOLY
 70
     0
  9
$TDCREATE
 40
2460451.501936169
  9
$TDUCREATE
 40
2460451.126936169
  9
$TDUPDATE
 40
2460451.501936181
  9
$TDUUPDATE
 40
2460451.126936181
  9
$TDINDWG
 40
0.0000000116
  9
$TDUSRTIMER
 40
0.0000000116
  9
$USRTIMER
 70
     1
  9
$ANGBASE
 50
0.0
  9
$ANGDIR
 70
     0
  9
$PDMODE
 70
     0
  9
$PDSIZE
 40
-1.0
  9
$PLINEWID
 40
0.0
  9
$SPLFRAME
 70
     0
  9
$SPLINETYPE
 70
     6
  9
$SPLINESEGS
 70
     8
  9
$HANDSEED
  5
254
  9
$SURFTAB1
 70
     6
  9
$SURFTAB2
 70
     6
  9
$SURFTYPE
 70
     6
  9
$SURFU
 70
     6
  9
$SURFV
 70
     6
  9
$UCSBASE
  2

  9
$UCSNAME
  2

  9
$UCSORG
 10
0.0
 20
0.0
 30
0.0
  9
$UCSXDIR
 10
1.0
 20
0.0
 30
0.0
  9
$UCSYDIR
 10
0.0
 20
1.0
 30
0.0
  9
$UCSORTHOREF
  2

  9
$UCSORTHOVIEW
 70
     0
  9
$UCSORGTOP
 10
0.0
 20
0.0
 30
0.0
  9
$UCSORGBOTTOM
 10
0.0
 20
0.0
 30
0.0
  9
$UCSORGLEFT
 10
0.0
 20
0.0
 30
0.0
  9
$UCSORGRIGHT
 10
0.0
 20
0.0
 30
0.0
  9
$UCSORGFRONT
 10
0.0
 20
0.0
 30
0.0
  9
$UCSORGBACK
 10
0.0
 20
0.0
 30
0.0
  9
$PUCSBASE
  2

  9
$PUCSNAME
  2

  9
$PUCSORG
 10
0.0
 20
0.0
 30
0.0
  9
$PUCSXDIR
 10
1.0
 20
0.0
 30
0.0
  9
$PUCSYDIR
 10
0.0
 20
1.0
 30
0.0
  9
$PUCSORTHOREF
  2

  9
$PUCSORTHOVIEW
 70
     0
  9
$PUCSORGTOP
 10
0.0
 20
0.0
 30
0.0
  9
$PUCSORGBOTTOM
 10
0.0
 20
0.0
 30
0.0
  9
$PUCSORGLEFT
 10
0.0
 20
0.0
 30
0.0
  9
$PUCSORGRIGHT
 10
0.0
 20
0.0
 30
0.0
  9
$PUCSORGFRONT
 10
0.0
 20
0.0
 30
0.0
  9
$PUCSORGBACK
 10
0.0
 20
0.0
 30
0.0
  9
$USERI1
 70
     0
  9
$USERI2
 70
     0
  9
$USERI3
 70
     0
  9
$USERI4
 70
     0
  9
$USERI5
 70
     0
  9
$USERR1
 40
0.0
  9
$USERR2
 40
0.0
  9
$USERR3
 40
0.0
  9
$USERR4
 40
0.0
  9
$USERR5
 40
0.0
  9
$WORLDVIEW
 70
     1
  9
$SHADEDGE
 70
     3
  9
$SHADEDIF
 70
    70
  9
$TILEMODE
 70
     1
  9
$MAXACTVP
 70
    64
  9
$PINSBASE
 10
0.0
 20
0.0
 30
0.0
  9
$PLIMCHECK
 70
     0
  9
$PEXTMIN
 10
1.0000000000E+20
 20
1.0000000000E+20
 30
1.0000000000E+20
  9
$PEXTMAX
 10
-1.0000000000E+20
 20
-1.0000000000E+20
 30
-1.0000000000E+20
  9
$PLIMMIN
 10
0.0
 20
0.0
  9
$PLIMMAX
 10
420.0
 20
297.0
  9
$UNITMODE
 70
     0
  9
$VISRETAIN
 70
     1
  9
$PLINEGEN
 70
     0
  9
$PSLTSCALE
 70
     1
  9
$TREEDEPTH
 70
  3020
  9
$CMLSTYLE
  2
Standard
  9
$CMLJUST
 70
     0
  9
$CMLSCALE
 40
20.0
  9
$PROXYGRAPHICS
 70
     1
  9
$MEASUREMENT
 70
     1
  9
$CELWEIGHT
370
    -1
  9
$ENDCAPS
280
     0
  9
$JOINSTYLE
280
     0
  9
$LWDISPLAY
290
     1
  9
$INSUNITS
 70
     4
  9
$HYPERLINKBASE
  1

  9
$STYLESHEET
  1

  9
$XEDIT
290
     1
  9
$CEPSNTYPE
380
     0
  9
$PSTYLEMODE
290
     1
  9
$FINGERPRINTGUID
  2
{97B7C3A1-3242-4259-9CEF-CB6D7DE425B9}
  9
$VERSIONGUID
  2
{FAEB1C32-E019-11D5-929B-00C0DF256EC4}
  9
$EXTNAMES
290
     1
  9
$PSVPSCALE
 40
0.0
  9
$OLESTARTUP
290
     0
  0
ENDSEC
  0
SECTION
  2
CLASSES
  0
CLASS
  1
ACDBDICTIONARYWDFLT
  2
AcDbDictionaryWithDefault
  3
ObjectDBX Classes
 90
        0
280
     0
281
     0
  0
CLASS
  1
VISUALSTYLE
  2
AcDbVisualStyle
  3
ObjectDBX Classes
 90
     4095
280
     0
281
     0
  0
CLASS
  1
MATERIAL
  2
AcDbMaterial
  3
ObjectDBX Classes
 90
     1153
280
     0
281
     0
  0
CLASS
  1
ACDBPLACEHOLDER
  2
AcDbPlaceHolder
  3
ObjectDBX Classes
 90
        0
280
     0
281
     0
  0
CLASS
  1
LAYOUT
  2
AcDbLayout
  3
ObjectDBX Classes
 90
        0
280
     0
281
     0
  0
ENDSEC
  0
SECTION
  2
TABLES
  0
TABLE
  2
VPORT
  5
8
330
0
100
AcDbSymbolTable
 70
     1
  0
VPORT
  5
29
330
8
100
AcDbSymbolTableRecord
100
AcDbViewportTableRecord
  2
*Active
 70
     0
 10
0.0
 20
0.0
 11
1.0
 21
1.0
 12
420.0
 22
297.0
 13
0.0
 23
0.0
 14
10.0
 24
10.0
 15
10.0
 25
10.0
 16
0.0
 26
0.0
 36
1.0
 17
0.0
 27
0.0
 37
0.0
 40
594.0
 41
1.4141414141
 42
50.0
 43
0.0
 44
0.0
 50
0.0
 51
0.0
 71
     0
 72
  2000
 73
     1
 74
     3
 75
     0
 76
     0
 77
     0
 78
     0
281
     0
 65
     1
110
0.0
120
0.0
130
0.0
111
1.0
121
0.0
131
0.0
112
0.0
122
1.0
132
0.0
 79
     0
146
0.0
  0
ENDTAB
  0
TABLE
  2
LTYPE
  5
5
330
0
100
AcDbSymbolTable
 70
     6
  0
LTYPE
  5
14
330
5
100
AcDbSymbolTableRecord
100
AcDbLinetypeTableRecord
  2
ByBlock
 70
     0
  3

 72
    65
 73
     0
 40
0.0
  0
LTYPE
  5
15
330
5
100
AcDbSymbolTableRecord
100
AcDbLinetypeTableRecord
  2
ByLayer
 70
     0
  3

 72
    65
 73
     0
 40
0.0
  0
LTYPE
  5
16
330
5
100
AcDbSymbolTableRecord
100
AcDbLinetypeTableRecord
  2
Continuous
 70
     0
  3
Solid line
 72
    65
 73
     0
 40
0.0
  0
LTYPE
  5
3F
330
5
100
AcDbSymbolTableRecord
100
AcDbLinetypeTableRecord
  2
HIDDEN
 70
     0
  3
Hidden __ __ __ __ __ __ __ __ __ __ __ __ __ __
 72
    65
 73
     2
 40
1.905
 49
1.27
 74
     0
 49
-0.635
 74
     0
  0
LTYPE
  5
40
330
5
100
AcDbSymbolTableRecord
100
AcDbLinetypeTableRecord
  2
PHANTOM
 70
     0
  3
Phantom ______  __  __  ______  __  __  ______
 72
    65
 73
     6
 40
12.7
 49
6.35
 74
     0
 49
-1.27
 74
     0
 49
1.27
 74
     0
 49
-1.27
 74
     0
 49
1.27
 74
     0
 49
-1.27
 74
     0
  0
LTYPE
  5
41
330
5
100
AcDbSymbolTableRecord
100
AcDbLinetypeTableRecord
  2
CENTER
 70
     0
  3
Center ____ _ ____ _ ____ _ ____ _ ____ _ ____
 72
    65
 73
     4
 40
10.16
 49
6.35
 74
     0
 49
-1.27
 74
     0
 49
1.27
 74
     0
 49
-1.27
 74
     0
  0
LTYPE
  5
42
330
5
100
AcDbSymbolTableRecord
100
AcDbLinetypeTableRecord
  2
CENTERX2
 70
     0
  3
Center (2x) ________  __  ________  __  _____
 72
    65
 73
     4
 40
20.32
 49
12.7
 74
     0
 49
-2.54
 74
     0
 49
2.54
 74
     0
 49
-2.54
 74
     0
  0
LTYPE
  5
43
330
5
100
AcDbSymbolTableRecord
100
AcDbLinetypeTableRecord
  2
DOT2
 70
     0
  3
Dot (.5x) ........................................
 72
    65
 73
     2
 40
0.635
 49
0.0
 74
     0
 49
-0.635
 74
     0
  0
ENDTAB
  0
TABLE
  2
LAYER
  5
2
330
0
100
AcDbSymbolTable
 70
     1
  0
LAYER
  5
10
330
2
100
AcDbSymbolTableRecord
100
AcDbLayerTableRecord
  2
0
 70
     0
 62
     7
  6
Continuous
370
    -3
390
F
  0
ENDTAB
  0
TABLE
  2
STYLE
  5
3
330
0
100
AcDbSymbolTable
 70
     2
  0
STYLE
  5
11
330
3
100
AcDbSymbolTableRecord
100
AcDbTextStyleTableRecord
  2
Standard
 70
     0
 40
0.0
 41
1.0
 50
0.0
 71
     0
 42
2.5
  3
txt
  4
bigfont
  0
STYLE
  5
44
330
3
100
AcDbSymbolTableRecord
100
AcDbTextStyleTableRecord
  2
SLDTEXTSTYLE0
 70
     0
 40
0.0
 41
0.7
 50
0.0
 71
     0
 42
0.2
  3
TXT
  4
bigfont
  0
ENDTAB
  0
TABLE
  2
VIEW
  5
6
330
0
100
AcDbSymbolTable
 70
     0
  0
ENDTAB
  0
TABLE
  2
UCS
  5
7
330
0
100
AcDbSymbolTable
 70
     0
  0
ENDTAB
  0
TABLE
  2
APPID
  5
9
330
0
100
AcDbSymbolTable
 70
     1
  0
APPID
  5
12
330
9
100
AcDbSymbolTableRecord
100
AcDbRegAppTableRecord
  2
ACAD
 70
     0
  0
ENDTAB
  0
TABLE
  2
DIMSTYLE
  5
A
330
0
100
AcDbSymbolTable
 70
     1
100
AcDbDimStyleTable
  0
DIMSTYLE
105
27
330
A
100
AcDbSymbolTableRecord
100
AcDbDimStyleTableRecord
  2
ISO-25
 70
     0
 41
2.5
 42
0.625
 43
3.75
 44
1.25
 73
     0
 74
     0
 77
     1
 78
     8
140
2.5
141
2.5
143
0.0393700787
147
0.625
171
     3
172
     1
178
     0
271
     2
272
     2
274
     3
278
    44
283
     0
284
     8
340
11
  0
ENDTAB
  0
TABLE
  2
BLOCK_RECORD
  5
1
330
0
100
AcDbSymbolTable
 70
     1
  0
BLOCK_RECORD
  5
1F
330
1
100
AcDbSymbolTableRecord
100
AcDbBlockTableRecord
  2
*Model_Space
340
22
  0
BLOCK_RECORD
  5
1B
330
1
100
AcDbSymbolTableRecord
100
AcDbBlockTableRecord
  2
*Paper_Space
340
1E
  0
BLOCK_RECORD
  5
23
330
1
100
AcDbSymbolTableRecord
100
AcDbBlockTableRecord
  2
*Paper_Space0
340
26
  0
ENDTAB
  0
ENDSEC
  0
SECTION
  2
BLOCKS
  0
BLOCK
  5
20
330
1F
100
AcDbEntity
  8
0
100
AcDbBlockBegin
  2
*Model_Space
 70
     0
 10
0.0
 20
0.0
 30
0.0
  3
*Model_Space
  1

  0
ENDBLK
  5
21
330
1F
100
AcDbEntity
  8
0
100
AcDbBlockEnd
  0
BLOCK
  5
1C
330
1B
100
AcDbEntity
 67
     1
  8
0
100
AcDbBlockBegin
  2
*Paper_Space
 70
     0
 10
0.0
 20
0.0
 30
0.0
  3
*Paper_Space
  1

  0
ENDBLK
  5
1D
330
1B
100
AcDbEntity
 67
     1
  8
0
100
AcDbBlockEnd
  0
BLOCK
  5
24
330
23
100
AcDbEntity
  8
0
100
AcDbBlockBegin
  2
*Paper_Space0
 70
     0
 10
0.0
 20
0.0
 30
0.0
  3
*Paper_Space0
  1

  0
ENDBLK
  5
25
330
23
100
AcDbEntity
  8
0
100
AcDbBlockEnd
  0
ENDSEC
  0
SECTION
  2
ENTITIES
  0
MTEXT
  5
45
330
1F
100
AcDbEntity
  8
0
  6
Continuous
 62
     7
370
     0
100
AcDbMText
 10
136.9014842333
 20
523.7854332578
 30
0.0
 40
7.0
 41
0.0
 71
     1
 72
     1
  1
CHB-520N
  7
SLDTEXTSTYLE0
 73
     1
 44
1.0
  0
LINE
  5
46
330
1F
100
AcDbEntity
  8
0
  6
Continuous
 62
     7
370
    15
100
AcDbLine
 10
316.924413201
 20
202.5725588292
 30
0.0
 11
317.0244297949
 21
202.5725588292
 31
0.0
  0
LINE
  5
47
330
1F
100
AcDbEntity
  8
0
  6
Continuous
 62
     7
370
    15
100
AcDbLine
 10
317.0244297949
 20
208.5725591142
 30
0.0
 11
316.924413201
 21
208.5725591142
 31
0.0
  0
LINE
  5
48
330
1F
100
AcDbEntity
  8
0
  6
Continuous
 62
     7
370
    15
100
AcDbLine
 10
316.924413201
 20
212.5725593042
 30
0.0
 11
317.0244297949
 21
212.5725593042
 31
0.0
  0
LINE
  5
49
330
1F
100
AcDbEntity
  8
0
  6
Continuous
 62
     7
370
    15
100
AcDbLine
 10
317.0244297949
 20
218.5725595891
 30
0.0
 11
316.924413201
 21
218.5725595891
 31
0.0
  0
LINE
  5
4A
330
1F
100
AcDbEntity
  8
0
  6
Continuous
 62
     7
370
    15
100
AcDbLine
 10
318.2244203059
 20
222.0725592315
 30
0.0
 11
317.0244297949
 21
222.0725592315
 31
0.0
  0
LINE
  5
4B
330
1F
100
AcDbEntity
  8
0
  6
Continuous
 62
     7
370
    15
100
AcDbLine
 10
317.0244297949
 20
199.0725591868
 30
0.0
 11
318.2244203059
 21
199.0725591868
 31
0.0
  0
LINE
  5
4C
330
1F
100
AcDbEntity
  8
0
  6
Continuous
 62
     7
370
    15
100
AcDbLine
 10
829.7244212596
 20
66.572565408
 30
0.0
 11
829.7244212596
 21
101.5725618318
 31
0.0
  0
LINE
  5
4D
330
1F
100
AcDbEntity
  8
0
  6
Continuous
 62
     7
370
    15
100
AcDbLine
 10
829.7244212596
 20
319.5725565866
 30
0.0
 11
829.7244212596
 21
354.5725530103
 31
0.0
  0
LINE
  5
4E
330
1F
100
AcDbEntity
  8
0
  6
Continuous
 62
     7
370
    15
100
AcDbLine
 10
309.1196022002
 20
214.4725591034
 30
0.0
 11
309.1196022002
 21
205.872559277
 31
0.0
  0
LINE
  5
4F
330
1F
100
AcDbEntity
  8
0
  6
Continuous
 62
     7
370
    15
100
AcDbLine
 10
309.7244105307
 20
218.5723053381
 30
0.0
 11
309.7244105307
 21
217.7725590855
 31
0.0
  0
LINE
  5
50
330
1F
100
AcDbEntity
  8
0
  6
Continuous
 62
     7
370
    15
100
AcDbLine
 10
309.7244105307
 20
203.3725593328
 30
0.0
 11
309.7244105307
 21
202.5728130802
 31
0.0
  0
LINE
  5
51
330
1F
100
AcDbEntity
  8
0
  6
Continuous
 62
     7
370
    15
100
AcDbLine
 10
311.1244342295
 20
218.8725590795
 30
0.0
 11
311.1244342295
 21
218.5725595891
 31
0.0
  0
ARC
  5
52
330
1F
100
AcDbEntity
  8
0
  6
Continuous
 62
     7
370
    15
100
AcDbCircle
 10
313.3244203059
 20
215.7654163521
 30
0.0
 40
3.807142857143183
100
AcDbArc
 50
77.9663271603
 51
90.0
  0
ARC
  5
53
330
1F
100
AcDbEntity
  8
0
  6
Continuous
 62
     7
370
    15
100
AcDbCircle
 10
313.3244203059
 20
215.7654163521
 30
0.0
 40
3.807142857143189
100
AcDbArc
 50
90.0
 51
125.3002484399
  0
LINE
  5
54
330
1F
100
AcDbEntity
  8
0
  6
Continuous
 62
     7
370
    15
100
AcDbLine
 10
311.2244210211
 20
202.1725595087
 30
0.0
 11
311.2244210211
 21
201.7725592568
 31
0.0
  0
ARC
  5
55
330
1F
100
AcDbEntity
  8
0
  6
Continuous
 62
     7
370
    15
100
AcDbCircle
 10
311.4244203059
 20
202.5725592092
 30
0.0
 40
0.4000000000007731
100
AcDbArc
 50
270.0
 51
0.0
  0
LINE
  5
56
330
1F
100
AcDbEntity
  8
0
  6
Continuous
 62
     7
370
    15
100
AcDbLine
 10
311.8244311778
 20
217.7725590855
 30
0.0
 11
311.8244311778
 21
217.3225593842
 31
0.0
  0
LINE
  5
57
330
1F
100
AcDbEntity
  8
0
  6
Continuous
 62
     7
370
    15
100
AcDbLine
 10
311.8244311778
 20
203.8225590341
 30
0.0
 11
311.8244311778
 21
203.3725593328
 31
0.0
  0
SPLINE
  5
58
330
1F
100
AcDbEntity
  8
0
  6
Continuous
 62
     7
370
    15
100
AcDbSpline
210
0.0
220
0.0
230
1.0
 70
     8
 71
     3
 72
    11
 73
     7
 74
     0
 42
0.00000001
 43
0.00000001
 40
0.0
 40
0.0
 40
0.0
 40
0.0
 40
0.2262262531891582
 40
0.4679482197182449
 40
0.7254882483762183
 40
1.0
 40
1.0
 40
1.0
 40
1.0
 10
314.5449361769251
 20
218.8029939398088
 30
0.0
 10
314.5477569236328
 20
218.7800955146729
 30
0.0
 10
314.5535916284095
 20
218.7327302017366
 30
0.0
 10
314.5703583090165
 20
218.4079419825152
 30
0.0
 10
314.5839535125044
 20
217.9074445279219
 30
0.0
 10
314.5844999486186
 20
217.4836241320223
 30
0.0
 10
314.5847818819575
 20
217.2649542890408
 30
0.0
  0
SPLINE
  5
59
330
1F
100
AcDbEntity
  8
0
  6
Continuous
 62
     7
370
    15
100
AcDbSpline
210
0.0
220
0.0
230
1.0
 70
     8
 71
     3
 72
    12
 73
     8
 74
     0
 42
0.00000001
 43
0.00000001
 40
0.0
 40
0.0
 40
0.0
 40
0.0
 40
0.2489450918608725
 40
0.4822920041796321
 40
0.6998108393712417
 40
0.9035366771083447
 40
1.0
 40
1.0
 40
1.0
 40
1.0
 10
314.5847818819574
 20
203.7063234575011
 30
0.0
 10
314.5833560111016
 20
203.5689888826878
 30
0.0
 10
314.5805936103342
 20
203.302924720367
 30
0.0
 10
314.5696926796552
 20
202.9671249488001
 30
0.0
 10
314.5671823259998
 20
202.7339438830684
 30
0.0
 10
314.5719714802981
 20
202.6138400936372
 30
0.0
 10
314.5984019807756
 20
202.6124935703795
 30
0.0
 10
314.6068952051692
 20
202.6120608761825
 30
0.0
  0
LINE
  5
5A
330
1F
100
AcDbEntity
  8
0
  6
Continuous
 62
     7
370
    15
100
AcDbLine
 10
314.5839474169
 20
217.3149542041
 30
0.0
 11
314.5839474169
 21
203.6563235424
 31
0.0
  0
LINE
  5
5B
330
1F
100
AcDbEntity
  8
0
  6
Continuous
 62
     7
370
    15
100
AcDbLine
 10
313.0603036849
 20
221.2528426289
 30
0.0
 11
314.5476779906
 21
218.7726952225
 31
0.0
  0
LINE
  5
5C
330
1F
100
AcDbEntity
  8
0
  6
Continuous
 62
     7
370
    15
100
AcDbLine
 10
317.0244297949
 20
220.4758048147
 30
0.0
 11
315.6331381766
 21
222.7957684636
 31
0.0
  0
LINE
  5
5D
330
1F
100
AcDbEntity
  8
0
  6
Continuous
 62
     7
370
    15
100
AcDbLine
 10
314.6121702162
 20
202.4799751207
 30
0.0
 11
313.0430779425
 21
199.8635565951
 31
0.0
  0
LINE
  5
5E
330
1F
100
AcDbEntity
  8
0
  6
Continuous
 62
     7
370
    15
100
AcDbLine
 10
315.6159124342
 20
198.3206307605
 30
0.0
 11
317.0244297949
 21
200.6693136036
 31
0.0
  0
LINE
  5
5F
330
1F
100
AcDbEntity
  8
0
  6
Continuous
 62
     7
370
    15
100
AcDbLine
 10
315.6530163256
 20
222.7602599278
 30
0.0
 11
315.5630729167
 21
222.8740470573
 31
0.0
  0
SPLINE
  5
60
330
1F
100
AcDbEntity
  8
0
  6
Continuous
 62
     7
370
    15
100
AcDbSpline
210
0.0
220
0.0
230
1.0
 70
     8
 71
     3
 72
    20
 73
    16
 74
     0
 42
0.00000001
 43
0.00000001
 40
0.0
 40
0.0
 40
0.0
 40
0.0
 40
0.0337785782231569
 40
0.1101042993354206
 40
0.1739276392103239
 40
0.2252750551910602
 40
0.2665357740175358
 40
0.3037736807865151
 40
0.3388579490142392
 40
0.3726396773516846
 40
0.4139184304500561
 40
0.625982263517727
 40
0.8390270204489249
 40
0.9659462600068899
 40
1.0
 40
1.0
 40
1.0
 40
1.0
 10
315.4507479635768
 20
223.0161165907897
 30
0.0
 10
315.4100983027689
 20
223.0723022388427
 30
0.0
 10
315.2775970946985
 20
223.2554443880091
 30
0.0
 10
314.967714896683
 20
223.4326150990399
 30
0.0
 10
314.5804445365613
 20
223.5555736836286
 30
0.0
 10
314.2105889616199
 20
223.5703633987238
 30
0.0
 10
313.876276021364
 20
223.519767289244
 30
0.0
 10
313.6017929617566
 20
223.4187254250535
 30
0.0
 10
313.3742892596036
 20
223.2840036235988
 30
0.0
 10
313.1682594258684
 20
223.1078300573915
 30
0.0
 10
312.8236985346147
 20
222.6653414896512
 30
0.0
 10
312.6426160451213
 20
221.9786586385673
 30
0.0
 10
312.49289828775
 20
220.7978294463492
 30
0.0
 10
312.4376915097949
 20
219.8931881391568
 30
0.0
 10
312.4311580910338
 20
219.4785992215388
 30
0.0
 10
312.4297759501032
 20
219.39089317768
 30
0.0
  0
SPLINE
  5
61
330
1F
100
AcDbEntity
  8
0
  6
Continuous
 62
     7
370
    15
100
AcDbSpline
210
0.0
220
0.0
230
1.0
 70
     8
 71
     3
 72
    19
 73
    15
 74
     0
 42
0.00000001
 43
0.00000001
 40
0.0
 40
0.0
 40
0.0
 40
0.0
 40
0.0102736458307081
 40
0.1295975646253967
 40
0.3268130855041061
 40
0.5525080689818213
 40
0.5858529946632578
 40
0.6186005369793628
 40
0.6529079054353801
 40
0.6960089484405682
 40
0.7523131513428922
 40
0.8223133556573198
 40
0.9054606198325847
 40
1.0
 40
1.0
 40
1.0
 40
1.0
 10
312.426914927154
 20
201.7725592568435
 30
0.0
 10
312.4272380858907
 20
201.7453602729415
 30
0.0
 10
312.4313145925123
 20
201.4022569450602
 30
0.0
 10
312.4711307520789
 20
200.5822775428917
 30
0.0
 10
312.6060922496392
 20
199.3598427309113
 30
0.0
 10
312.6965382663137
 20
198.716476636273
 30
0.0
 10
313.0473741760219
 20
198.1763804951467
 30
0.0
 10
313.2166011478139
 20
197.9885282875846
 30
0.0
 10
313.4533332267104
 20
197.8120620896432
 30
0.0
 10
313.7669594951918
 20
197.6585836175461
 30
0.0
 10
314.1704341913081
 20
197.5567926171223
 30
0.0
 10
314.6562914285407
 20
197.5799595022361
 30
0.0
 10
315.1860466582323
 20
197.7902794897753
 30
0.0
 10
315.4512794840889
 20
198.112099906659
 30
0.0
 10
315.5923984018855
 20
198.2833266347565
 30
0.0
  0
LINE
  5
62
330
1F
100
AcDbEntity
  8
0
  6
Continuous
 62
     7
370
    15
100
AcDbLine
 10
829.7244212596
 20
30.5725520566
 30
0.0
 11
829.7244212596
 21
65.5725633815
 31
0.0
  0
LINE
  5
63
330
1F
100
AcDbEntity
  8
0
  6
Continuous
 62
     7
370
    15
100
AcDbLine
 10
829.7244212596
 20
355.5725550368
 30
0.0
 11
829.7244212596
 21
390.5725663617
 31
0.0
  0
LINE
  5
64
330
1F
100
AcDbEntity
  8
0
  6
Continuous
 62
     7
370
    15
100
AcDbLine
 10
826.724430081
 20
65.5725633815
 30
0.0
 11
826.724430081
 21
66.572565408
 31
0.0
  0
LINE
  5
65
330
1F
100
AcDbEntity
  8
0
  6
Continuous
 62
     7
370
    15
100
AcDbLine
 10
826.724430081
 20
101.5725618318
 30
0.0
 11
826.724430081
 21
102.5725564077
 31
0.0
  0
LINE
  5
66
330
1F
100
AcDbEntity
  8
0
  6
Continuous
 62
     7
370
    15
100
AcDbLine
 10
821.7244348494
 20
102.5725564077
 30
0.0
 11
821.7244348494
 21
101.5725618318
 31
0.0
  0
LINE
  5
67
330
1F
100
AcDbEntity
  8
0
  6
Continuous
 62
     7
370
    15
100
AcDbLine
 10
821.7244348494
 20
66.572565408
 30
0.0
 11
821.7244348494
 21
65.5725633815
 31
0.0
  0
LINE
  5
68
330
1F
100
AcDbEntity
  8
0
  6
Continuous
 62
     7
370
    15
100
AcDbLine
 10
821.7244348494
 20
355.5725550368
 30
0.0
 11
821.7244348494
 21
354.5725530103
 31
0.0
  0
LINE
  5
69
330
1F
100
AcDbEntity
  8
0
  6
Continuous
 62
     7
370
    15
100
AcDbLine
 10
821.7244348494
 20
319.5725565866
 30
0.0
 11
821.7244348494
 21
318.5725620106
 31
0.0
  0
LINE
  5
6A
330
1F
100
AcDbEntity
  8
0
  6
Continuous
 62
     7
370
    15
100
AcDbLine
 10
826.724430081
 20
318.5725620106
 30
0.0
 11
826.724430081
 21
319.5725565866
 31
0.0
  0
LINE
  5
6B
330
1F
100
AcDbEntity
  8
0
  6
Continuous
 62
     7
370
    15
100
AcDbLine
 10
826.724430081
 20
354.5725530103
 30
0.0
 11
826.724430081
 21
355.5725550368
 31
0.0
  0
LINE
  5
6C
330
1F
100
AcDbEntity
  8
0
  6
Continuous
 62
     7
370
    15
100
AcDbLine
 10
309.9244139163
 20
204.1153701112
 30
0.0
 11
309.9244139163
 21
203.8225590341
 31
0.0
  0
LINE
  5
6D
330
1F
100
AcDbEntity
  8
0
  6
Continuous
 62
     7
370
    15
100
AcDbLine
 10
309.9244139163
 20
217.3225593842
 30
0.0
 11
309.9244139163
 21
217.0297483072
 31
0.0
  0
LINE
  5
6E
330
1F
100
AcDbEntity
  8
0
  6
Continuous
 62
     7
370
    15
100
AcDbLine
 10
333.2244209019
 20
10.5725562289
 30
0.0
 11
333.2244209019
 21
25.572556825
 31
0.0
  0
LINE
  5
6F
330
1F
100
AcDbEntity
  8
0
  6
Continuous
 62
     7
370
    15
100
AcDbLine
 10
333.2244209019
 20
25.572556825
 30
0.0
 11
803.2244197098
 21
25.572556825
 31
0.0
  0
LINE
  5
70
330
1F
100
AcDbEntity
  8
0
  6
Continuous
 62
     7
370
    15
100
AcDbLine
 10
803.2244197098
 20
25.572556825
 30
0.0
 11
803.2244197098
 21
10.5725562289
 31
0.0
  0
LINE
  5
71
330
1F
100
AcDbEntity
  8
0
  6
Continuous
 62
     7
370
    15
100
AcDbLine
 10
333.2244209019
 20
10.5725562289
 30
0.0
 11
803.2244197098
 21
10.5725562289
 31
0.0
  0
LINE
  5
72
330
1F
100
AcDbEntity
  8
0
  6
Continuous
 62
     7
370
    15
100
AcDbLine
 10
803.2244197098
 20
25.572556825
 30
0.0
 11
818.2244203059
 21
25.572556825
 31
0.0
  0
ARC
  5
73
330
1F
100
AcDbEntity
  8
0
  6
Continuous
 62
     7
370
    15
100
AcDbCircle
 10
803.2244203059
 20
25.5725592092
 30
0.0
 40
15.00000000000001
100
AcDbArc
 50
270.0
 51
0.0
  0
LINE
  5
74
330
1F
100
AcDbEntity
  8
0
  6
Continuous
 62
     7
370
    15
100
AcDbLine
 10
818.2244203059
 20
25.572556825
 30
0.0
 11
818.2244203059
 21
395.5725615933
 31
0.0
  0
LINE
  5
75
330
1F
100
AcDbEntity
  8
0
  6
Continuous
 62
     7
370
    15
100
AcDbLine
 10
803.2244197098
 20
25.572556825
 30
0.0
 11
803.2244197098
 21
395.5725615933
 31
0.0
  0
LINE
  5
76
330
1F
100
AcDbEntity
  8
0
  6
Continuous
 62
     7
370
    15
100
AcDbLine
 10
818.2244203059
 20
395.5725615933
 30
0.0
 11
803.2244197098
 21
395.5725615933
 31
0.0
  0
LINE
  5
77
330
1F
100
AcDbEntity
  8
0
  6
Continuous
 62
     7
370
    15
100
AcDbLine
 10
338.2244161336
 20
390.5725663617
 30
0.0
 11
798.2244244782
 21
390.5725663617
 31
0.0
  0
LINE
  5
78
330
1F
100
AcDbEntity
  8
0
  6
Continuous
 62
     7
370
    15
100
AcDbLine
 10
338.2244161336
 20
30.5725520566
 30
0.0
 11
338.2244161336
 21
390.5725663617
 31
0.0
  0
LINE
  5
79
330
1F
100
AcDbEntity
  8
0
  6
Continuous
 62
     7
370
    15
100
AcDbLine
 10
798.2244244782
 20
30.5725520566
 30
0.0
 11
338.2244161336
 21
30.5725520566
 31
0.0
  0
LINE
  5
7A
330
1F
100
AcDbEntity
  8
0
  6
Continuous
 62
     7
370
    15
100
AcDbLine
 10
798.2244244782
 20
30.5725520566
 30
0.0
 11
798.2244244782
 21
390.5725663617
 31
0.0
  0
LINE
  5
7B
330
1F
100
AcDbEntity
  8
0
  6
Continuous
 62
     7
370
    15
100
AcDbLine
 10
333.2244209019
 20
395.5725615933
 30
0.0
 11
333.2244209019
 21
25.572556825
 31
0.0
  0
LINE
  5
7C
330
1F
100
AcDbEntity
  8
0
  6
Continuous
 62
     7
370
    15
100
AcDbLine
 10
803.2244197098
 20
395.5725615933
 30
0.0
 11
333.2244209019
 21
395.5725615933
 31
0.0
  0
ARC
  5
7D
330
1F
100
AcDbEntity
  8
0
  6
Continuous
 62
     7
370
    15
100
AcDbCircle
 10
333.2244203059
 20
25.5725592092
 30
0.0
 40
15.00000000000001
100
AcDbArc
 50
180.0
 51
270.0
  0
LINE
  5
7E
330
1F
100
AcDbEntity
  8
0
  6
Continuous
 62
     7
370
    15
100
AcDbLine
 10
318.2244203059
 20
25.572556825
 30
0.0
 11
333.2244209019
 21
25.572556825
 31
0.0
  0
LINE
  5
7F
330
1F
100
AcDbEntity
  8
0
  6
Continuous
 62
     7
370
    15
100
AcDbLine
 10
318.2244203059
 20
200.5850670949
 30
0.0
 11
318.2244203059
 21
25.572556825
 31
0.0
  0
LINE
  5
80
330
1F
100
AcDbEntity
  8
0
  6
Continuous
 62
     7
370
    15
100
AcDbLine
 10
318.2244203059
 20
220.5600513235
 30
0.0
 11
318.2244203059
 21
395.5725615933
 31
0.0
  0
LINE
  5
81
330
1F
100
AcDbEntity
  8
0
  6
Continuous
 62
     7
370
    15
100
AcDbLine
 10
318.2244203059
 20
395.5725615933
 30
0.0
 11
333.2244209019
 21
395.5725615933
 31
0.0
  0
ARC
  5
82
330
1F
100
AcDbEntity
  8
0
  6
Continuous
 62
     7
370
    15
100
AcDbCircle
 10
803.2244203059
 20
395.5725592092
 30
0.0
 40
15.0
100
AcDbArc
 50
0.0
 51
90.0
  0
LINE
  5
83
330
1F
100
AcDbEntity
  8
0
  6
Continuous
 62
     7
370
    15
100
AcDbLine
 10
803.2244197098
 20
410.5725621894
 30
0.0
 11
803.2244197098
 21
395.5725615933
 31
0.0
  0
LINE
  5
84
330
1F
100
AcDbEntity
  8
0
  6
Continuous
 62
     7
370
    15
100
AcDbLine
 10
333.2244209019
 20
395.5725615933
 30
0.0
 11
333.2244209019
 21
410.5725621894
 31
0.0
  0
LINE
  5
85
330
1F
100
AcDbEntity
  8
0
  6
Continuous
 62
     7
370
    15
100
AcDbLine
 10
803.2244197098
 20
410.5725621894
 30
0.0
 11
333.2244209019
 21
410.5725621894
 31
0.0
  0
ARC
  5
86
330
1F
100
AcDbEntity
  8
0
  6
Continuous
 62
     7
370
    15
100
AcDbCircle
 10
333.2244203059
 20
395.5725592092
 30
0.0
 40
15.00000000000006
100
AcDbArc
 50
90.0
 51
180.0
  0
LINE
  5
87
330
1F
100
AcDbEntity
  8
0
  6
Continuous
 62
     7
370
    15
100
AcDbLine
 10
317.0244297949
 20
221.6070422992
 30
0.0
 11
318.2244203059
 21
221.6070422992
 31
0.0
  0
LINE
  5
88
330
1F
100
AcDbEntity
  8
0
  6
Continuous
 62
     7
370
    15
100
AcDbLine
 10
317.0244297949
 20
199.5380761191
 30
0.0
 11
318.2244203059
 21
199.5380761191
 31
0.0
  0
LINE
  5
89
330
1F
100
AcDbEntity
  8
0
  6
Continuous
 62
     7
370
    15
100
AcDbLine
 10
318.2244203059
 20
220.5600513235
 30
0.0
 11
318.2244203059
 21
200.5850670949
 31
0.0
  0
LINE
  5
8A
330
1F
100
AcDbEntity
  8
0
  6
Continuous
 62
     7
370
    15
100
AcDbLine
 10
317.0244297949
 20
199.5380761191
 30
0.0
 11
317.0244297949
 21
221.6070422992
 31
0.0
  0
LINE
  5
8B
330
1F
100
AcDbEntity
  8
0
  6
Continuous
 62
     7
370
    15
100
AcDbLine
 10
316.924413201
 20
202.5725588292
 30
0.0
 11
316.924413201
 21
208.5725591142
 31
0.0
  0
LINE
  5
8C
330
1F
100
AcDbEntity
  8
0
  6
Continuous
 62
     7
370
    15
100
AcDbLine
 10
316.924413201
 20
215.5725590974
 30
0.0
 11
316.924413201
 21
218.5725595891
 31
0.0
  0
LINE
  5
8D
330
1F
100
AcDbEntity
  8
0
  6
Continuous
 62
     7
370
    15
100
AcDbLine
 10
316.924413201
 20
212.5725593042
 30
0.0
 11
316.924413201
 21
215.5725590974
 31
0.0
  0
LINE
  5
8E
330
1F
100
AcDbEntity
  8
0
  6
Continuous
 62
     7
370
    15
100
AcDbLine
 10
317.0244297949
 20
221.6070422992
 30
0.0
 11
317.0244297949
 21
222.0725592315
 31
0.0
  0
LINE
  5
8F
330
1F
100
AcDbEntity
  8
0
  6
Continuous
 62
     7
370
    15
100
AcDbLine
 10
317.0244297949
 20
199.0725591868
 30
0.0
 11
317.0244297949
 21
199.5380761191
 31
0.0
  0
LINE
  5
90
330
1F
100
AcDbEntity
  8
0
  6
Continuous
 62
     7
370
    15
100
AcDbLine
 10
819.1257915465
 20
66.572565408
 30
0.0
 11
829.7244212596
 21
66.572565408
 31
0.0
  0
LINE
  5
91
330
1F
100
AcDbEntity
  8
0
  6
Continuous
 62
     7
370
    15
100
AcDbLine
 10
819.1257915465
 20
101.5725618318
 30
0.0
 11
819.1257915465
 21
66.572565408
 31
0.0
  0
LINE
  5
92
330
1F
100
AcDbEntity
  8
0
  6
Continuous
 62
     7
370
    15
100
AcDbLine
 10
819.1257915465
 20
101.5725618318
 30
0.0
 11
829.7244212596
 21
101.5725618318
 31
0.0
  0
LINE
  5
93
330
1F
100
AcDbEntity
  8
0
  6
Continuous
 62
     7
370
    15
100
AcDbLine
 10
819.1257915465
 20
319.5725565866
 30
0.0
 11
829.7244212596
 21
319.5725565866
 31
0.0
  0
LINE
  5
94
330
1F
100
AcDbEntity
  8
0
  6
Continuous
 62
     7
370
    15
100
AcDbLine
 10
819.1257915465
 20
354.5725530103
 30
0.0
 11
819.1257915465
 21
319.5725565866
 31
0.0
  0
LINE
  5
95
330
1F
100
AcDbEntity
  8
0
  6
Continuous
 62
     7
370
    15
100
AcDbLine
 10
819.1257915465
 20
354.5725530103
 30
0.0
 11
829.7244212596
 21
354.5725530103
 31
0.0
  0
LINE
  5
96
330
1F
100
AcDbEntity
  8
0
  6
Continuous
 62
     7
370
    15
100
AcDbLine
 10
818.6622760264
 20
101.5725618318
 30
0.0
 11
818.6622760264
 21
66.572565408
 31
0.0
  0
LINE
  5
97
330
1F
100
AcDbEntity
  8
0
  6
Continuous
 62
     7
370
    15
100
AcDbLine
 10
818.6622760264
 20
101.5725618318
 30
0.0
 11
819.1257915465
 21
101.5725618318
 31
0.0
  0
LINE
  5
98
330
1F
100
AcDbEntity
  8
0
  6
Continuous
 62
     7
370
    15
100
AcDbLine
 10
818.6622760264
 20
66.572565408
 30
0.0
 11
819.1257915465
 21
66.572565408
 31
0.0
  0
LINE
  5
99
330
1F
100
AcDbEntity
  8
0
  6
Continuous
 62
     7
370
    15
100
AcDbLine
 10
818.6622760264
 20
354.5725530103
 30
0.0
 11
818.6622760264
 21
319.5725565866
 31
0.0
  0
LINE
  5
9A
330
1F
100
AcDbEntity
  8
0
  6
Continuous
 62
     7
370
    15
100
AcDbLine
 10
818.6622760264
 20
354.5725530103
 30
0.0
 11
819.1257915465
 21
354.5725530103
 31
0.0
  0
LINE
  5
9B
330
1F
100
AcDbEntity
  8
0
  6
Continuous
 62
     7
370
    15
100
AcDbLine
 10
818.6622760264
 20
319.5725565866
 30
0.0
 11
819.1257915465
 21
319.5725565866
 31
0.0
  0
LINE
  5
9C
330
1F
100
AcDbEntity
  8
0
  6
Continuous
 62
     7
370
    15
100
AcDbLine
 10
818.2244203059
 20
101.5725618318
 30
0.0
 11
818.6622760264
 21
101.5725618318
 31
0.0
  0
LINE
  5
9D
330
1F
100
AcDbEntity
  8
0
  6
Continuous
 62
     7
370
    15
100
AcDbLine
 10
818.2244203059
 20
66.572565408
 30
0.0
 11
818.6622760264
 21
66.572565408
 31
0.0
  0
LINE
  5
9E
330
1F
100
AcDbEntity
  8
0
  6
Continuous
 62
     7
370
    15
100
AcDbLine
 10
818.2244203059
 20
354.5725530103
 30
0.0
 11
818.6622760264
 21
354.5725530103
 31
0.0
  0
LINE
  5
9F
330
1F
100
AcDbEntity
  8
0
  6
Continuous
 62
     7
370
    15
100
AcDbLine
 10
818.2244203059
 20
319.5725565866
 30
0.0
 11
818.6622760264
 21
319.5725565866
 31
0.0
  0
LINE
  5
A0
330
1F
100
AcDbEntity
  8
0
  6
Continuous
 62
     7
370
    15
100
AcDbLine
 10
309.9549314944
 20
215.8725590534
 30
0.0
 11
309.224416968
 21
215.8725590534
 31
0.0
  0
LINE
  5
A1
330
1F
100
AcDbEntity
  8
0
  6
Continuous
 62
     7
370
    15
100
AcDbLine
 10
309.9549314944
 20
215.8725590534
 30
0.0
 11
309.9549314944
 21
205.2725593649
 31
0.0
  0
LINE
  5
A2
330
1F
100
AcDbEntity
  8
0
  6
Continuous
 62
     7
370
    15
100
AcDbLine
 10
309.224416968
 20
205.2725593649
 30
0.0
 11
309.9549314944
 21
205.2725593649
 31
0.0
  0
LINE
  5
A3
330
1F
100
AcDbEntity
  8
0
  6
Continuous
 62
     7
370
    15
100
AcDbLine
 10
309.224416968
 20
215.8725590534
 30
0.0
 11
309.224416968
 21
205.2725593649
 31
0.0
  0
LINE
  5
A4
330
1F
100
AcDbEntity
  8
0
  6
Continuous
 62
     7
370
    15
100
AcDbLine
 10
310.9069666831
 20
204.072559075
 30
0.0
 11
310.1764521567
 21
204.072559075
 31
0.0
  0
ARC
  5
A5
330
1F
100
AcDbEntity
  8
0
  6
Continuous
 62
     7
370
    15
100
AcDbCircle
 10
310.3165808026
 20
205.1613865203
 30
0.0
 40
1.09780747077356
100
AcDbArc
 50
174.187803702
 51
262.6665250475
  0
ARC
  5
A6
330
1F
100
AcDbEntity
  8
0
  6
Continuous
 62
     7
370
    15
100
AcDbCircle
 10
311.0470953289
 20
205.1613865203
 30
0.0
 40
1.09780747077356
100
AcDbArc
 50
174.187803702
 51
262.6665250475
  0
ARC
  5
A7
330
1F
100
AcDbEntity
  8
0
  6
Continuous
 62
     7
370
    15
100
AcDbCircle
 10
311.0470953289
 20
215.983731898
 30
0.0
 40
1.097807470773586
100
AcDbArc
 50
97.3334749525
 51
185.812196298
  0
LINE
  5
A8
330
1F
100
AcDbEntity
  8
0
  6
Continuous
 62
     7
370
    15
100
AcDbLine
 10
310.9069666831
 20
217.0725593433
 30
0.0
 11
314.4504032103
 21
217.0725593433
 31
0.0
  0
LINE
  5
A9
330
1F
100
AcDbEntity
  8
0
  6
Continuous
 62
     7
370
    15
100
AcDbLine
 10
314.4504032103
 20
217.0725593433
 30
0.0
 11
314.4504032103
 21
204.072559075
 31
0.0
  0
LINE
  5
AA
330
1F
100
AcDbEntity
  8
0
  6
Continuous
 62
     7
370
    15
100
AcDbLine
 10
314.4504032103
 20
204.072559075
 30
0.0
 11
310.9069666831
 21
204.072559075
 31
0.0
  0
LINE
  5
AB
330
1F
100
AcDbEntity
  8
0
  6
Continuous
 62
     7
370
    15
100
AcDbLine
 10
310.1764521567
 20
217.0725593433
 30
0.0
 11
310.9069666831
 21
217.0725593433
 31
0.0
  0
ARC
  5
AC
330
1F
100
AcDbEntity
  8
0
  6
Continuous
 62
     7
370
    15
100
AcDbCircle
 10
310.3165808026
 20
215.983731898
 30
0.0
 40
1.097807470773642
100
AcDbArc
 50
97.3334749525
 51
185.812196298
  0
LINE
  5
AD
330
1F
100
AcDbEntity
  8
0
  6
Continuous
 62
     7
370
    15
100
AcDbLine
 10
314.5319423644
 20
217.0725593433
 30
0.0
 11
314.4504032103
 21
217.0725593433
 31
0.0
  0
LINE
  5
AE
330
1F
100
AcDbEntity
  8
0
  6
Continuous
 62
     7
370
    15
100
AcDbLine
 10
314.4504032103
 20
204.072559075
 30
0.0
 11
314.5839474169
 21
204.072559075
 31
0.0
  0
LINE
  5
AF
330
1F
100
AcDbEntity
  8
0
  6
Continuous
 62
     7
370
    15
100
AcDbLine
 10
309.224416968
 20
205.872559277
 30
0.0
 11
309.1196022002
 21
205.872559277
 31
0.0
  0
LINE
  5
B0
330
1F
100
AcDbEntity
  8
0
  6
Continuous
 62
     7
370
    15
100
AcDbLine
 10
309.224416968
 20
214.4725591034
 30
0.0
 11
309.1196022002
 21
214.4725591034
 31
0.0
  0
LINE
  5
B1
330
1F
100
AcDbEntity
  8
0
  6
Continuous
 62
     7
370
    15
100
AcDbLine
 10
314.5925602881
 20
217.7725590855
 30
0.0
 11
309.7244105307
 21
217.7725590855
 31
0.0
  0
LINE
  5
B2
330
1F
100
AcDbEntity
  8
0
  6
Continuous
 62
     7
370
    15
100
AcDbLine
 10
314.5686886279
 20
218.5725595891
 30
0.0
 11
309.7250363795
 21
218.5725595891
 31
0.0
  0
LINE
  5
B3
330
1F
100
AcDbEntity
  8
0
  6
Continuous
 62
     7
370
    15
100
AcDbLine
 10
314.5902953116
 20
203.3725593328
 30
0.0
 11
309.7244105307
 21
203.3725593328
 31
0.0
  0
LINE
  5
B4
330
1F
100
AcDbEntity
  8
0
  6
Continuous
 62
     7
370
    15
100
AcDbLine
 10
314.5985803572
 20
202.5725588292
 30
0.0
 11
309.7250363795
 21
202.5725588292
 31
0.0
  0
LINE
  5
B5
330
1F
100
AcDbEntity
  8
0
  6
Continuous
 62
     7
370
    15
100
AcDbLine
 10
313.3244118659
 20
218.8725590795
 30
0.0
 11
314.4877753226
 21
218.8725590795
 31
0.0
  0
LINE
  5
B6
330
1F
100
AcDbEntity
  8
0
  6
Continuous
 62
     7
370
    15
100
AcDbLine
 10
314.6509430377
 20
218.8725590795
 30
0.0
 11
314.7132596938
 21
218.8725590795
 31
0.0
  0
LINE
  5
B7
330
1F
100
AcDbEntity
  8
0
  6
Continuous
 62
     7
370
    15
100
AcDbLine
 10
311.1244342295
 20
218.8725590795
 30
0.0
 11
313.3244118659
 21
218.8725590795
 31
0.0
  0
LINE
  5
B8
330
1F
100
AcDbEntity
  8
0
  6
Continuous
 62
     7
370
    15
100
AcDbLine
 10
313.3244118659
 20
202.1725595087
 30
0.0
 11
314.4278130499
 21
202.1725595087
 31
0.0
  0
LINE
  5
B9
330
1F
100
AcDbEntity
  8
0
  6
Continuous
 62
     7
370
    15
100
AcDbLine
 10
311.2244210211
 20
202.1725595087
 30
0.0
 11
313.3244118659
 21
202.1725595087
 31
0.0
  0
LINE
  5
BA
330
1F
100
AcDbEntity
  8
0
  6
Continuous
 62
     7
370
    15
100
AcDbLine
 10
313.3244118659
 20
201.7725592568
 30
0.0
 11
314.187934157
 21
201.7725592568
 31
0.0
  0
LINE
  5
BB
330
1F
100
AcDbEntity
  8
0
  6
Continuous
 62
     7
370
    15
100
AcDbLine
 10
311.2244210211
 20
201.7725592568
 30
0.0
 11
313.3244118659
 21
201.7725592568
 31
0.0
  0
ARC
  5
BC
330
1F
100
AcDbEntity
  8
0
  6
Continuous
 62
     7
370
    15
100
AcDbCircle
 10
310.190385103
 20
203.3704012227
 30
0.0
 40
0.8029225294726946
100
AcDbArc
 50
179.8459991532
 51
234.5249694511
  0
ARC
  5
BD
330
1F
100
AcDbEntity
  8
0
  6
Continuous
 62
     7
370
    15
100
AcDbCircle
 10
310.190385103
 20
217.7747171956
 30
0.0
 40
0.802922529472768
100
AcDbArc
 50
125.4750305489
 51
180.1540008468
  0
LINE
  5
BE
330
1F
100
AcDbEntity
  8
0
  6
Continuous
 62
     7
370
    15
100
AcDbLine
 10
310.1753196684
 20
203.8225590341
 30
0.0
 11
310.1753196684
 21
203.3725593328
 31
0.0
  0
LINE
  5
BF
330
1F
100
AcDbEntity
  8
0
  6
Continuous
 62
     7
370
    15
100
AcDbLine
 10
310.1753196684
 20
217.7725590855
 30
0.0
 11
310.1753196684
 21
217.3225593842
 31
0.0
  0
LINE
  5
C0
330
1F
100
AcDbEntity
  8
0
  6
Continuous
 62
     7
370
    15
100
AcDbLine
 10
309.3874654738
 20
203.3725593328
 30
0.0
 11
309.3874654738
 21
204.6010012828
 31
0.0
  0
LINE
  5
C1
330
1F
100
AcDbEntity
  8
0
  6
Continuous
 62
     7
370
    15
100
AcDbLine
 10
309.3874654738
 20
216.5441171355
 30
0.0
 11
309.3874654738
 21
217.7725590855
 31
0.0
  0
SPLINE
  5
C2
330
1F
100
AcDbEntity
  8
0
  6
Continuous
 62
     7
370
    15
100
AcDbSpline
210
0.0
220
0.0
230
1.0
 70
    24
 71
     3
 72
    12
 73
     8
 74
     0
 42
0.00000001
 43
0.00000001
 40
0.0
 40
0.0
 40
0.0
 40
0.0
 40
0.2185041607748386
 40
0.4370097499429002
 40
0.655519261637946
 40
0.8740302225829159
 40
1.0
 40
1.0
 40
1.0
 40
1.0
 10
316.3837692705683
 20
217.2649542890408
 30
0.0
 10
316.1870488502916
 20
217.2649542890408
 30
0.0
 10
315.7936067237482
 20
217.2649542890408
 30
0.0
 10
315.2328592825696
 20
217.2649542890408
 30
0.0
 10
314.815163763797
 20
217.2649542890408
 30
0.0
 10
314.5886008359549
 20
217.2649542890408
 30
0.0
 10
314.6061428716887
 20
217.2649542890408
 30
0.0
 10
314.6125576464228
 20
217.2649542890408
 30
0.0
  0
SPLINE
  5
C3
330
1F
100
AcDbEntity
  8
0
  6
Continuous
 62
     7
370
    15
100
AcDbSpline
210
0.0
220
0.0
230
1.0
 70
    24
 71
     3
 72
     9
 73
     5
 74
     0
 42
0.00000001
 43
0.00000001
 40
0.0
 40
0.0
 40
0.0
 40
0.0
 40
0.1970399618046988
 40
1.0
 40
1.0
 40
1.0
 40
1.0
 10
317.0244297949366
 20
217.2649542890408
 30
0.0
 10
316.9917729033682
 20
217.2649542890408
 30
0.0
 10
316.8260355003088
 20
217.2649542890408
 30
0.0
 10
316.58073542689
 20
217.2649542890408
 30
0.0
 10
316.3837692705683
 20
217.2649542890408
 30
0.0
  0
SPLINE
  5
C4
330
1F
100
AcDbEntity
  8
0
  6
Continuous
 62
     7
370
    15
100
AcDbSpline
210
0.0
220
0.0
230
1.0
 70
     8
 71
     3
 72
    13
 73
     9
 74
     0
 42
0.00000001
 43
0.00000001
 40
0.0
 40
0.0
 40
0.0
 40
0.0
 40
0.1877397329411931
 40
0.3754740950771898
 40
0.5632126785307467
 40
0.7509496371851111
 40
0.9386869054096393
 40
1.0
 40
1.0
 40
1.0
 40
1.0
 10
316.090484615951
 20
220.8797929897823
 30
0.0
 10
315.8937876305931
 20
220.8770943521234
 30
0.0
 10
315.5003992869292
 20
220.8716971540076
 30
0.0
 10
314.9673851670316
 20
220.5811548267462
 30
0.0
 10
314.5768613136767
 20
220.1262574435092
 30
0.0
 10
314.4039155888797
 20
219.5645735153163
 30
0.0
 10
314.4071999961675
 20
219.0913856528199
 30
0.0
 10
314.5345142300066
 20
218.86994715134
 30
0.0
 10
314.5658574072413
 20
218.8154317527928
 30
0.0
  0
SPLINE
  5
C5
330
1F
100
AcDbEntity
  8
0
  6
Continuous
 62
     7
370
    15
100
AcDbSpline
210
0.0
220
0.0
230
1.0
 70
     8
 71
     3
 72
    10
 73
     6
 74
     0
 42
0.00000001
 43
0.00000001
 40
0.0
 40
0.0
 40
0.0
 40
0.0
 40
0.2093347831693222
 40
0.6046789915504093
 40
1.0
 40
1.0
 40
1.0
 40
1.0
 10
317.2276518312983
 20
220.0736783534207
 30
0.0
 10
317.1859552568206
 20
220.1667428366412
 30
0.0
 10
317.0655116199605
 20
220.4355664741227
 30
0.0
 10
316.6587802338
 20
220.7521968989343
 30
0.0
 10
316.2799127829539
 20
220.8372617914993
 30
0.0
 10
316.090484615951
 20
220.8797929897823
 30
0.0
  0
SPLINE
  5
C6
330
1F
100
AcDbEntity
  8
0
  6
Continuous
 62
     7
370
    15
100
AcDbSpline
210
0.0
220
0.0
230
1.0
 70
     8
 71
     3
 72
    13
 73
     9
 74
     0
 42
0.00000001
 43
0.00000001
 40
0.0
 40
0.0
 40
0.0
 40
0.0
 40
0.1768660417769971
 40
0.3537275335964465
 40
0.5305928719988471
 40
0.7074564142833105
 40
0.8843205136307285
 40
1.0
 40
1.0
 40
1.0
 40
1.0
 10
316.0732588736109
 20
200.2366062343039
 30
0.0
 10
315.8765862333527
 20
200.2392954132812
 30
0.0
 10
315.4832460123274
 20
200.2446737020553
 30
0.0
 10
314.9498659140626
 20
200.5353587999671
 30
0.0
 10
314.5607376473699
 20
200.9897175277163
 30
0.0
 10
314.382576098832
 20
201.5534122757244
 30
0.0
 10
314.4035445507282
 20
202.086560387525
 30
0.0
 10
314.569624432097
 20
202.3598329346255
 30
0.0
 10
314.6352968184046
 20
202.467892141632
 30
0.0
  0
SPLINE
  5
C7
330
1F
100
AcDbEntity
  8
0
  6
Continuous
 62
     7
370
    15
100
AcDbSpline
210
0.0
220
0.0
230
1.0
 70
     8
 71
     3
 72
    10
 73
     6
 74
     0
 42
0.00000001
 43
0.00000001
 40
0.0
 40
0.0
 40
0.0
 40
0.0
 40
0.0588213036774467
 40
0.5294238314007006
 40
1.0
 40
1.0
 40
1.0
 40
1.0
 10
317.1033761469416
 20
200.8365158080973
 30
0.0
 10
317.0927416250697
 20
200.8150354483876
 30
0.0
 10
316.9970251250512
 20
200.621700489344
 30
0.0
 10
316.6361308071251
 20
200.3675446945897
 30
0.0
 10
316.2608793482886
 20
200.2802515728075
 30
0.0
 10
316.0732588736109
 20
200.2366062343039
 30
0.0
  0
SPLINE
  5
C8
330
1F
100
AcDbEntity
  8
0
  6
Continuous
 62
     7
370
    15
100
AcDbSpline
210
0.0
220
0.0
230
1.0
 70
    24
 71
     3
 72
    12
 73
     8
 74
     0
 42
0.00000001
 43
0.00000001
 40
0.0
 40
0.0
 40
0.0
 40
0.0
 40
0.2193522884941657
 40
0.4387060109258876
 40
0.6580636711099509
 40
0.877422786169227
 40
1.0
 40
1.0
 40
1.0
 40
1.0
 10
316.3837692705683
 20
203.7063234575011
 30
0.0
 10
316.1870535297282
 20
203.7063234575011
 30
0.0
 10
315.7936207620891
 20
203.7063234575011
 30
0.0
 10
315.2328031283578
 20
203.7063234575011
 30
0.0
 10
314.815374346857
 20
203.7063234575011
 30
0.0
 10
314.5895172370587
 20
203.7063234575011
 30
0.0
 10
314.6065215507354
 20
203.7063234575011
 30
0.0
 10
314.6126172510676
 20
203.7063234575011
 30
0.0
  0
SPLINE
  5
C9
330
1F
100
AcDbEntity
  8
0
  6
Continuous
 62
     7
370
    15
100
AcDbSpline
210
0.0
220
0.0
230
1.0
 70
    24
 71
     3
 72
     9
 73
     5
 74
     0
 42
0.00000001
 43
0.00000001
 40
0.0
 40
0.0
 40
0.0
 40
0.0
 40
0.1970399618046988
 40
1.0
 40
1.0
 40
1.0
 40
1.0
 10
317.0244297949366
 20
203.7063234575011
 30
0.0
 10
316.9917729033682
 20
203.7063234575011
 30
0.0
 10
316.8260355003088
 20
203.7063234575011
 30
0.0
 10
316.58073542689
 20
203.7063234575011
 30
0.0
 10
316.3837692705683
 20
203.7063234575011
 30
0.0
  0
SPLINE
  5
CA
330
1F
100
AcDbEntity
  8
0
  6
Continuous
 62
     7
370
    15
100
AcDbSpline
210
0.0
220
0.0
230
1.0
 70
     8
 71
     3
 72
    13
 73
     9
 74
     0
 42
0.00000001
 43
0.00000001
 40
0.0
 40
0.0
 40
0.0
 40
0.0
 40
0.1768570807883106
 40
0.3537263980077571
 40
0.5305861066882113
 40
0.7074523867975918
 40
0.8843164588983377
 40
1.0
 40
1.0
 40
1.0
 40
1.0
 10
314.5213923422388
 20
223.4962115153589
 30
0.0
 10
314.3247315819577
 20
223.4935185040262
 30
0.0
 10
313.9313964547825
 20
223.4881322950361
 30
0.0
 10
313.3979994332215
 20
223.1974802517681
 30
0.0
 10
313.0089128050497
 20
222.7430821198794
 30
0.0
 10
312.8307010579675
 20
222.1794148475648
 30
0.0
 10
312.8516704722921
 20
221.6462472549371
 30
0.0
 10
313.0177761173952
 20
221.3729835990678
 30
0.0
 10
313.0834600893549
 20
221.2649256080308
 30
0.0
  0
SPLINE
  5
CB
330
1F
100
AcDbEntity
  8
0
  6
Continuous
 62
     7
370
    15
100
AcDbSpline
210
0.0
220
0.0
230
1.0
 70
     8
 71
     3
 72
    10
 73
     6
 74
     0
 42
0.00000001
 43
0.00000001
 40
0.0
 40
0.0
 40
0.0
 40
0.0
 40
0.1474560350009615
 40
0.5737214675968891
 40
1.0
 40
1.0
 40
1.0
 40
1.0
 10
315.6099817720942
 20
222.7836854845204
 30
0.0
 10
315.5819250415722
 20
222.8439797690021
 30
0.0
 10
315.4727620045293
 20
223.0785725774978
 30
0.0
 10
315.0876932999282
 20
223.3673887088374
 30
0.0
 10
314.7101612617979
 20
223.4532701399799
 30
0.0
 10
314.5213923422389
 20
223.4962115153589
 30
0.0
  0
SPLINE
  5
CC
330
1F
100
AcDbEntity
  8
0
  6
Continuous
 62
     7
370
    15
100
AcDbSpline
210
0.0
220
0.0
230
1.0
 70
     8
 71
     3
 72
    13
 73
     9
 74
     0
 42
0.00000001
 43
0.00000001
 40
0.0
 40
0.0
 40
0.0
 40
0.0
 40
0.1768644493070867
 40
0.3537323315161106
 40
0.5305902608915819
 40
0.7074549757756731
 40
0.8843174826706699
 40
1.0
 40
1.0
 40
1.0
 40
1.0
 10
314.5041964022212
 20
197.6201877087273
 30
0.0
 10
314.3075253790533
 20
197.6228792232015
 30
0.0
 10
313.9141795153741
 20
197.6282623043916
 30
0.0
 10
313.3807742610293
 20
197.9189199345528
 30
0.0
 10
312.9916867678991
 20
198.3733171362137
 30
0.0
 10
312.8134753759043
 20
198.9369844293872
 30
0.0
 10
312.8344447207828
 20
199.4701519611071
 30
0.0
 10
313.0005503724566
 20
199.7434156227395
 30
0.0
 10
313.0662343470148
 20
199.8514736160554
 30
0.0
  0
SPLINE
  5
CD
330
1F
100
AcDbEntity
  8
0
  6
Continuous
 62
     7
370
    15
100
AcDbSpline
210
0.0
220
0.0
230
1.0
 70
     8
 71
     3
 72
    10
 73
     6
 74
     0
 42
0.00000001
 43
0.00000001
 40
0.0
 40
0.0
 40
0.0
 40
0.0
 40
0.1474590645824568
 40
0.5737332550828453
 40
1.0
 40
1.0
 40
1.0
 40
1.0
 10
315.5927560297541
 20
198.3327137395658
 30
0.0
 10
315.5646993070523
 20
198.2724194376173
 30
0.0
 10
315.455536300436
 20
198.0378265611618
 30
0.0
 10
315.070474941177
 20
197.7490176277829
 30
0.0
 10
314.6929548161947
 20
197.663130765051
 30
0.0
 10
314.5041964022212
 20
197.6201877087273
 30
0.0
  0
LINE
  5
CE
330
1F
100
AcDbEntity
  8
0
  6
Continuous
 62
     7
370
    15
100
AcDbLine
 10
819.1257915465
 20
65.5725633815
 30
0.0
 11
819.1257915465
 21
30.5725520566
 31
0.0
  0
LINE
  5
CF
330
1F
100
AcDbEntity
  8
0
  6
Continuous
 62
     7
370
    15
100
AcDbLine
 10
829.7244212596
 20
30.5725520566
 30
0.0
 11
819.1257915465
 21
30.5725520566
 31
0.0
  0
LINE
  5
D0
330
1F
100
AcDbEntity
  8
0
  6
Continuous
 62
     7
370
    15
100
AcDbLine
 10
829.7244212596
 20
65.5725633815
 30
0.0
 11
819.1257915465
 21
65.5725633815
 31
0.0
  0
LINE
  5
D1
330
1F
100
AcDbEntity
  8
0
  6
Continuous
 62
     7
370
    15
100
AcDbLine
 10
819.1257915465
 20
390.5725663617
 30
0.0
 11
819.1257915465
 21
355.5725550368
 31
0.0
  0
LINE
  5
D2
330
1F
100
AcDbEntity
  8
0
  6
Continuous
 62
     7
370
    15
100
AcDbLine
 10
829.7244212596
 20
390.5725663617
 30
0.0
 11
819.1257915465
 21
390.5725663617
 31
0.0
  0
LINE
  5
D3
330
1F
100
AcDbEntity
  8
0
  6
Continuous
 62
     7
370
    15
100
AcDbLine
 10
829.7244212596
 20
355.5725550368
 30
0.0
 11
819.1257915465
 21
355.5725550368
 31
0.0
  0
LINE
  5
D4
330
1F
100
AcDbEntity
  8
0
  6
Continuous
 62
     7
370
    15
100
AcDbLine
 10
826.724430081
 20
102.5725564077
 30
0.0
 11
821.7244348494
 21
102.5725564077
 31
0.0
  0
LINE
  5
D5
330
1F
100
AcDbEntity
  8
0
  6
Continuous
 62
     7
370
    15
100
AcDbLine
 10
821.7244348494
 20
318.5725620106
 30
0.0
 11
826.724430081
 21
318.5725620106
 31
0.0
  0
LINE
  5
D6
330
1F
100
AcDbEntity
  8
0
  6
Continuous
 62
     7
370
    15
100
AcDbLine
 10
818.6622760264
 20
30.5725520566
 30
0.0
 11
818.6622760264
 21
65.5725633815
 31
0.0
  0
LINE
  5
D7
330
1F
100
AcDbEntity
  8
0
  6
Continuous
 62
     7
370
    15
100
AcDbLine
 10
819.1257915465
 20
30.5725520566
 30
0.0
 11
818.6622760264
 21
30.5725520566
 31
0.0
  0
LINE
  5
D8
330
1F
100
AcDbEntity
  8
0
  6
Continuous
 62
     7
370
    15
100
AcDbLine
 10
818.6622760264
 20
65.5725633815
 30
0.0
 11
819.1257915465
 21
65.5725633815
 31
0.0
  0
LINE
  5
D9
330
1F
100
AcDbEntity
  8
0
  6
Continuous
 62
     7
370
    15
100
AcDbLine
 10
818.6622760264
 20
355.5725550368
 30
0.0
 11
818.6622760264
 21
390.5725663617
 31
0.0
  0
LINE
  5
DA
330
1F
100
AcDbEntity
  8
0
  6
Continuous
 62
     7
370
    15
100
AcDbLine
 10
819.1257915465
 20
355.5725550368
 30
0.0
 11
818.6622760264
 21
355.5725550368
 31
0.0
  0
LINE
  5
DB
330
1F
100
AcDbEntity
  8
0
  6
Continuous
 62
     7
370
    15
100
AcDbLine
 10
818.6622760264
 20
390.5725663617
 30
0.0
 11
819.1257915465
 21
390.5725663617
 31
0.0
  0
LINE
  5
DC
330
1F
100
AcDbEntity
  8
0
  6
Continuous
 62
     7
370
    15
100
AcDbLine
 10
818.6622760264
 20
355.5725550368
 30
0.0
 11
818.2244203059
 21
355.5725550368
 31
0.0
  0
LINE
  5
DD
330
1F
100
AcDbEntity
  8
0
  6
Continuous
 62
     7
370
    15
100
AcDbLine
 10
818.6622760264
 20
390.5725663617
 30
0.0
 11
818.2244203059
 21
390.5725663617
 31
0.0
  0
LINE
  5
DE
330
1F
100
AcDbEntity
  8
0
  6
Continuous
 62
     7
370
    15
100
AcDbLine
 10
818.6622760264
 20
30.5725520566
 30
0.0
 11
818.2244203059
 21
30.5725520566
 31
0.0
  0
LINE
  5
DF
330
1F
100
AcDbEntity
  8
0
  6
Continuous
 62
     7
370
    15
100
AcDbLine
 10
818.6622760264
 20
65.5725633815
 30
0.0
 11
818.2244203059
 21
65.5725633815
 31
0.0
  0
LINE
  5
E0
330
1F
100
AcDbEntity
  8
0
  6
Continuous
 62
     7
370
    15
100
AcDbLine
 10
313.0244216887
 20
203.8225590341
 30
0.0
 11
314.5839474169
 21
203.8225590341
 31
0.0
  0
LINE
  5
E1
330
1F
100
AcDbEntity
  8
0
  6
Continuous
 62
     7
370
    15
100
AcDbLine
 10
313.0244216887
 20
217.3225593842
 30
0.0
 11
314.5844838587
 21
217.3225593842
 31
0.0
  0
LINE
  5
E2
330
1F
100
AcDbEntity
  8
0
  6
Continuous
 62
     7
370
    15
100
AcDbLine
 10
313.0244216887
 20
203.8225590341
 30
0.0
 11
309.9244139163
 21
203.8225590341
 31
0.0
  0
LINE
  5
E3
330
1F
100
AcDbEntity
  8
0
  6
Continuous
 62
     7
370
    15
100
AcDbLine
 10
313.0244216887
 20
217.3225593842
 30
0.0
 11
309.9244139163
 21
217.3225593842
 31
0.0
  0
LINE
  5
E4
330
1F
100
AcDbEntity
  8
0
  6
Continuous
 62
     8
370
    15
100
AcDbLine
 10
313.0244216887
 20
204.072559075
 30
0.0
 11
313.0244216887
 21
203.8225590341
 31
0.0
  0
LINE
  5
E5
330
1F
100
AcDbEntity
  8
0
  6
Continuous
 62
     8
370
    15
100
AcDbLine
 10
313.0244216887
 20
217.3225593842
 30
0.0
 11
313.0244216887
 21
217.0725593433
 31
0.0
  0
LINE
  5
E6
330
1F
100
AcDbEntity
  8
0
  6
Continuous
 62
     7
370
    15
100
AcDbLine
 10
242.9819749536
 20
217.0725593433
 30
0.0
 11
242.9819749536
 21
204.072559075
 31
0.0
  0
LINE
  5
E7
330
1F
100
AcDbEntity
  8
0
  6
Continuous
 62
     7
370
    15
100
AcDbLine
 10
233.1919716539
 20
202.5725588292
 30
0.0
 11
233.1919716539
 21
203.3725593328
 31
0.0
  0
LINE
  5
E8
330
1F
100
AcDbEntity
  8
0
  6
Continuous
 62
     7
370
    15
100
AcDbLine
 10
233.1919716539
 20
217.7725590855
 30
0.0
 11
233.1919716539
 21
218.5725595891
 31
0.0
  0
ARC
  5
E9
330
1F
100
AcDbEntity
  8
0
  6
Continuous
 62
     7
370
    15
100
AcDbCircle
 10
230.4619718065
 20
215.7654163521
 30
0.0
 40
3.807142857143189
100
AcDbArc
 50
54.6997515601
 51
125.3002484399
  0
LINE
  5
EA
330
1F
100
AcDbEntity
  8
0
  6
Continuous
 62
     7
370
    15
100
AcDbLine
 10
228.2619671764
 20
218.8725590795
 30
0.0
 11
228.2619671764
 21
218.5725595891
 31
0.0
  0
LINE
  5
EB
330
1F
100
AcDbEntity
  8
0
  6
Continuous
 62
     7
370
    15
100
AcDbLine
 10
232.6619671525
 20
218.5725595891
 30
0.0
 11
232.6619671525
 21
218.8725590795
 31
0.0
  0
LINE
  5
EC
330
1F
100
AcDbEntity
  8
0
  6
Continuous
 62
     7
370
    15
100
AcDbLine
 10
228.3619688692
 20
202.1725595087
 30
0.0
 11
228.3619688692
 21
201.7725592568
 31
0.0
  0
LINE
  5
ED
330
1F
100
AcDbEntity
  8
0
  6
Continuous
 62
     7
370
    15
100
AcDbLine
 10
232.5619654598
 20
201.7725592568
 30
0.0
 11
232.5619654598
 21
202.1725595087
 31
0.0
  0
ARC
  5
EE
330
1F
100
AcDbEntity
  8
0
  6
Continuous
 62
     7
370
    15
100
AcDbCircle
 10
228.5619718065
 20
202.5725592092
 30
0.0
 40
0.4000000000007731
100
AcDbArc
 50
270.0
 51
0.0
  0
ARC
  5
EF
330
1F
100
AcDbEntity
  8
0
  6
Continuous
 62
     7
370
    15
100
AcDbCircle
 10
232.3619718065
 20
202.5725592092
 30
0.0
 40
0.4000000000007731
100
AcDbArc
 50
180.0
 51
270.0
  0
LINE
  5
F0
330
1F
100
AcDbEntity
  8
0
  6
Continuous
 62
     7
370
    15
100
AcDbLine
 10
228.9619790258
 20
217.7725590855
 30
0.0
 11
228.9619790258
 21
217.3225593842
 31
0.0
  0
LINE
  5
F1
330
1F
100
AcDbEntity
  8
0
  6
Continuous
 62
     7
370
    15
100
AcDbLine
 10
228.9619790258
 20
216.3225592203
 30
0.0
 11
228.9619790258
 21
215.8338546842
 31
0.0
  0
LINE
  5
F2
330
1F
100
AcDbEntity
  8
0
  6
Continuous
 62
     7
370
    15
100
AcDbLine
 10
228.9619790258
 20
215.037740124
 30
0.0
 11
228.9619790258
 21
214.882043013
 31
0.0
  0
LINE
  5
F3
330
1F
100
AcDbEntity
  8
0
  6
Continuous
 62
     7
370
    15
100
AcDbLine
 10
228.9619790258
 20
205.5829323918
 30
0.0
 11
228.9619790258
 21
204.822559198
 31
0.0
  0
LINE
  5
F4
330
1F
100
AcDbEntity
  8
0
  6
Continuous
 62
     7
370
    15
100
AcDbLine
 10
228.9619790258
 20
203.8225590341
 30
0.0
 11
228.9619790258
 21
203.3725593328
 31
0.0
  0
LINE
  5
F5
330
1F
100
AcDbEntity
  8
0
  6
Continuous
 62
     7
370
    15
100
AcDbLine
 10
231.9619702043
 20
203.3725593328
 30
0.0
 11
231.9619702043
 21
203.8225590341
 31
0.0
  0
LINE
  5
F6
330
1F
100
AcDbEntity
  8
0
  6
Continuous
 62
     7
370
    15
100
AcDbLine
 10
231.9619702043
 20
204.822559198
 30
0.0
 11
231.9619702043
 21
205.3097014405
 31
0.0
  0
LINE
  5
F7
330
1F
100
AcDbEntity
  8
0
  6
Continuous
 62
     7
370
    15
100
AcDbLine
 10
231.9619702043
 20
214.617618648
 30
0.0
 11
231.9619702043
 21
214.8055572152
 31
0.0
  0
LINE
  5
F8
330
1F
100
AcDbEntity
  8
0
  6
Continuous
 62
     7
370
    15
100
AcDbLine
 10
231.9619702043
 20
215.5606363058
 30
0.0
 11
231.9619702043
 21
216.3225592203
 31
0.0
  0
LINE
  5
F9
330
1F
100
AcDbEntity
  8
0
  6
Continuous
 62
     7
370
    15
100
AcDbLine
 10
231.9619702043
 20
217.3225593842
 30
0.0
 11
231.9619702043
 21
217.7725590855
 31
0.0
  0
SPLINE
  5
FA
330
1F
100
AcDbEntity
  8
0
  6
Continuous
 62
     7
370
    15
100
AcDbSpline
210
0.0
220
0.0
230
1.0
 70
     8
 71
     3
 72
    15
 73
    11
 74
     0
 42
0.00000001
 43
0.00000001
 40
0.0
 40
0.0
 40
0.0
 40
0.0
 40
0.135596479265748
 40
0.2953252328879971
 40
0.4038105289617855
 40
0.5319572847847419
 40
0.6738336159153973
 40
0.8261016731774934
 40
0.9126171617270653
 40
1.0
 40
1.0
 40
1.0
 40
1.0
 10
231.9619702042977
 20
205.1386044450023
 30
0.0
 10
232.0063524181058
 20
205.1312812702396
 30
0.0
 10
232.1030156036099
 20
205.1153316061776
 30
0.0
 10
232.3098666867855
 20
205.1630027587799
 30
0.0
 10
232.5031222700575
 20
205.250721703301
 30
0.0
 10
232.6497097778154
 20
205.3703903446938
 30
0.0
 10
232.7484191685519
 20
205.5212850165016
 30
0.0
 10
232.7780746802318
 20
205.6431344319134
 30
0.0
 10
232.756903375199
 20
205.7723709268013
 30
0.0
 10
232.7106469856004
 20
205.8390522983933
 30
0.0
 10
232.6874034346978
 20
205.8725592769601
 30
0.0
  0
SPLINE
  5
FB
330
1F
100
AcDbEntity
  8
0
  6
Continuous
 62
     7
370
    15
100
AcDbSpline
210
0.0
220
0.0
230
1.0
 70
     8
 71
     3
 72
    20
 73
    16
 74
     0
 42
0.00000001
 43
0.00000001
 40
0.0
 40
0.0
 40
0.0
 40
0.0
 40
0.0607085120702901
 40
0.2265360354280825
 40
0.3908034390100844
 40
0.470594738141
 40
0.5476205823777552
 40
0.6228576285649229
 40
0.7003374175229532
 40
0.778647426493207
 40
0.8566577528565235
 40
0.9330985790372838
 40
0.9703734567126686
 40
0.9892322709481525
 40
1.0
 40
1.0
 40
1.0
 40
1.0
 10
228.2257722558419
 20
205.8725592769601
 30
0.0
 10
228.2720470474323
 20
205.8192258725014
 30
0.0
 10
228.4447231264478
 20
205.6202103211407
 30
0.0
 10
228.8616831879908
 20
205.6022872375206
 30
0.0
 10
229.4266519591827
 20
205.5272621497445
 30
0.0
 10
229.9462619243293
 20
205.4843204467358
 30
0.0
 10
230.3401537520176
 20
205.4537694691118
 30
0.0
 10
230.7330648171622
 20
205.4260871875701
 30
0.0
 10
231.114226353083
 20
205.3947794606489
 30
0.0
 10
231.4699509781942
 20
205.3623068794487
 30
0.0
 10
231.7725728826026
 20
205.3314817842903
 30
0.0
 10
231.965091019403
 20
205.3085777125302
 30
0.0
 10
232.0532055985558
 20
205.300551713093
 30
0.0
 10
232.0986327959467
 20
205.292757270584
 30
0.0
 10
232.0980833800484
 20
205.2967153962061
 30
0.0
 10
232.0978836955468
 20
205.2981539718725
 30
0.0
  0
SPLINE
  5
FC
330
1F
100
AcDbEntity
  8
0
  6
Continuous
 62
     7
370
    15
100
AcDbSpline
210
0.0
220
0.0
230
1.0
 70
     8
 71
     3
 72
    18
 73
    14
 74
     0
 42
0.00000001
 43
0.00000001
 40
0.0
 40
0.0
 40
0.0
 40
0.0
 40
0.0057511428403943
 40
0.1156367113611111
 40
0.2383917566345693
 40
0.3593077027734364
 40
0.4757059219110816
 40
0.5872134071511957
 40
0.704733831801792
 40
0.8265048728965705
 40
0.8891452173726083
 40
0.9517987230752376
 40
1.0
 40
1.0
 40
1.0
 40
1.0
 10
232.4685947837273
 20
214.5193832084455
 30
0.0
 10
232.4639475572701
 20
214.5223366818342
 30
0.0
 10
232.3705070013013
 20
214.581721391836
 30
0.0
 10
232.1481949502382
 20
214.5878673813804
 30
0.0
 10
231.7567987230846
 20
214.6470806013543
 30
0.0
 10
231.2449206043939
 20
214.6926227278446
 30
0.0
 10
230.6938878402966
 20
214.7387746618854
 30
0.0
 10
230.131771644823
 20
214.7776719423603
 30
0.0
 10
229.5974899730362
 20
214.8224013785242
 30
0.0
 10
229.1998510423138
 20
214.863470712961
 30
0.0
 10
228.985122416633
 20
214.8845936631641
 30
0.0
 10
228.8890754835872
 20
214.8868837811729
 30
0.0
 10
228.8736268908812
 20
214.8708069885323
 30
0.0
 10
228.8669096173683
 20
214.863816564522
 30
0.0
  0
SPLINE
  5
FD
330
1F
100
AcDbEntity
  8
0
  6
Continuous
 62
     7
370
    15
100
AcDbSpline
210
0.0
220
0.0
230
1.0
 70
     8
 71
     3
 72
    12
 73
     8
 74
     0
 42
0.00000001
 43
0.00000001
 40
0.0
 40
0.0
 40
0.0
 40
0.0
 40
0.2236869151433675
 40
0.4523172251925509
 40
0.6822435400226152
 40
0.9102243540189298
 40
1.0
 40
1.0
 40
1.0
 40
1.0
 10
228.167672628347
 20
215.6744099311449
 30
0.0
 10
228.1549312199751
 20
215.6318627682353
 30
0.0
 10
228.1291668230003
 20
215.5458281664581
 30
0.0
 10
228.2503226659603
 20
215.4542044136548
 30
0.0
 10
228.4819896075254
 20
215.3579037173421
 30
0.0
 10
228.7268501741801
 20
215.2954099893048
 30
0.0
 10
228.9101822612284
 20
215.3006304224783
 30
0.0
 10
228.9619790257851
 20
215.3021053500392
 30
0.0
  0
SPLINE
  5
FE
330
1F
100
AcDbEntity
  8
0
  6
Continuous
 62
     7
370
    15
100
AcDbSpline
210
0.0
220
0.0
230
1.0
 70
     8
 71
     3
 72
    19
 73
    15
 74
     0
 42
0.00000001
 43
0.00000001
 40
0.0
 40
0.0
 40
0.0
 40
0.0
 40
0.0979057557133819
 40
0.1753760951868802
 40
0.2884837279174267
 40
0.3734532462378632
 40
0.4570018300577976
 40
0.6168876400346156
 40
0.6796676521753162
 40
0.7634260191404518
 40
0.8137554147058611
 40
0.8702989501326919
 40
0.9324007122665913
 40
1.0
 40
1.0
 40
1.0
 40
1.0
 10
228.3439086617867
 20
215.1792792692699
 30
0.0
 10
228.3944180970065
 20
215.1529027354578
 30
0.0
 10
228.4848943662962
 20
215.1056551199237
 30
0.0
 10
228.8595335660779
 20
215.0450012241143
 30
0.0
 10
229.346036899238
 20
214.9911184689403
 30
0.0
 10
229.9373759714925
 20
214.9378835722606
 30
0.0
 10
230.6914713566521
 20
214.886332990218
 30
0.0
 10
231.3325811373397
 20
214.8193902746193
 30
0.0
 10
231.9818417408545
 20
214.7838699615393
 30
0.0
 10
232.3601861959895
 20
214.8620572110321
 30
0.0
 10
232.6120298224762
 20
214.9702572340032
 30
0.0
 10
232.7456187802515
 20
215.0585951151059
 30
0.0
 10
232.8073938305351
 20
215.1324361795855
 30
0.0
 10
232.7359496351985
 20
215.2129528389829
 30
0.0
 10
232.6987134160439
 20
215.2549175634899
 30
0.0
  0
SPLINE
  5
FF
330
1F
100
AcDbEntity
  8
0
  6
Continuous
 62
     7
370
    15
100
AcDbSpline
210
0.0
220
0.0
230
1.0
 70
     8
 71
     3
 72
    25
 73
    21
 74
     0
 42
0.00000001
 43
0.00000001
 40
0.0
 40
0.0
 40
0.0
 40
0.0
 40
0.0176259290808492
 40
0.0344972729039951
 40
0.0503152440097334
 40
0.0649728274831856
 40
0.090944841512565
 40
0.113436695471488
 40
0.1538392734620355
 40
0.1912334756319529
 40
0.2995698740308627
 40
0.3999624578974064
 40
0.5012944931276727
 40
0.5949047886711225
 40
0.6784882614420625
 40
0.7336283652546701
 40
0.8075181929624605
 40
0.8952812265892609
 40
0.9453086251728124
 40
1.0
 40
1.0
 40
1.0
 40
1.0
 10
232.3413984717766
 20
214.6293356172659
 30
0.0
 10
232.381102365554
 20
214.6337302102984
 30
0.0
 10
232.4588103860905
 20
214.6423312590402
 30
0.0
 10
232.5607066148895
 20
214.6883362028196
 30
0.0
 10
232.6417088437711
 20
214.7472873921178
 30
0.0
 10
232.7179223372635
 20
214.8308750093552
 30
0.0
 10
232.7709671251559
 20
214.9345080654986
 30
0.0
 10
232.7951150788731
 20
215.0668607552308
 30
0.0
 10
232.7722409633239
 20
215.1987111317206
 30
0.0
 10
232.6009974198567
 20
215.4439293621864
 30
0.0
 10
232.2582150651729
 20
215.5310084287321
 30
0.0
 10
231.7630997798028
 20
215.5895640544598
 30
0.0
 10
231.1498886470015
 20
215.6479209178121
 30
0.0
 10
230.5004124050587
 20
215.6975444763857
 30
0.0
 10
229.9607167320278
 20
215.7370231852258
 30
0.0
 10
229.5146963566057
 20
215.7762019321675
 30
0.0
 10
229.1260101569561
 20
215.8144286607933
 30
0.0
 10
228.8658326384815
 20
215.842272509272
 30
0.0
 10
228.735406037085
 20
215.8647649881452
 30
0.0
 10
228.7267337225379
 20
215.8772284420258
 30
0.0
 10
228.7222044410149
 20
215.8837377183058
 30
0.0
  0
SPLINE
  5
100
330
1F
100
AcDbEntity
  8
0
  6
Continuous
 62
     7
370
    15
100
AcDbSpline
210
0.0
220
0.0
230
1.0
 70
     8
 71
     3
 72
    12
 73
     8
 74
     0
 42
0.00000001
 43
0.00000001
 40
0.0
 40
0.0
 40
0.0
 40
0.0
 40
0.1756461855883292
 40
0.5723035510143818
 40
0.7586188069782646
 40
0.9207450174441087
 40
1.0
 40
1.0
 40
1.0
 40
1.0
 10
228.810538524572
 20
215.0652499958791
 30
0.0
 10
228.7449747359512
 20
215.056079279572
 30
0.0
 10
228.5313498916656
 20
215.0261985651668
 30
0.0
 10
228.3154358542132
 20
214.9522448911364
 30
0.0
 10
228.1542727171408
 20
214.7373463007246
 30
0.0
 10
228.1230715696864
 20
214.5771014954672
 30
0.0
 10
228.1540455706589
 20
214.4984479616755
 30
0.0
 10
228.1642155589501
 20
214.4726228989579
 30
0.0
  0
LINE
  5
101
330
1F
100
AcDbEntity
  8
0
  6
Continuous
 62
     7
370
    15
100
AcDbLine
 10
228.3217357339
 20
205.7748188354
 30
0.0
 11
227.2032694759
 21
205.7748188354
 31
0.0
  0
LINE
  5
102
330
1F
100
AcDbEntity
  8
0
  6
Continuous
 62
     7
370
    15
100
AcDbLine
 10
227.2032694759
 20
204.9748192631
 30
0.0
 11
228.9619790258
 21
204.9748192631
 31
0.0
  0
LINE
  5
103
330
1F
100
AcDbEntity
  8
0
  6
Continuous
 62
     7
370
    15
100
AcDbLine
 10
225.792978877
 20
218.5725595891
 30
0.0
 11
225.792978877
 21
218.6260296121
 31
0.0
  0
LINE
  5
104
330
1F
100
AcDbEntity
  8
0
  6
Continuous
 62
     7
370
    15
100
AcDbLine
 10
222.7929876985
 20
218.6260296121
 30
0.0
 11
222.7929876985
 21
218.5725595891
 31
0.0
  0
SPLINE
  5
105
330
1F
100
AcDbEntity
  8
0
  6
Continuous
 62
     7
370
    15
100
AcDbSpline
210
0.0
220
0.0
230
1.0
 70
     8
 71
     3
 72
    15
 73
    11
 74
     0
 42
0.00000001
 43
0.00000001
 40
0.0
 40
0.0
 40
0.0
 40
0.0
 40
0.1077551389053793
 40
0.2352511295165986
 40
0.362790855184577
 40
0.4902565647040481
 40
0.6176631288114116
 40
0.7450970510317855
 40
0.8724966590167591
 40
1.0
 40
1.0
 40
1.0
 40
1.0
 10
222.8090362491051
 20
202.5725588291802
 30
0.0
 10
222.8255754794728
 20
202.2600378020277
 30
0.0
 10
222.8616839441349
 20
201.5777415757671
 30
0.0
 10
223.1978974416883
 20
200.5685932514299
 30
0.0
 10
223.755971314476
 20
199.605109508627
 30
0.0
 10
224.5108052844513
 20
198.7841893525284
 30
0.0
 10
225.4259637263274
 20
198.1489179180054
 30
0.0
 10
226.4532203328641
 20
197.7287556698791
 30
0.0
 10
227.5491981268241
 20
197.5149498425205
 30
0.0
 10
228.2849586009787
 20
197.5804801708117
 30
0.0
 10
228.6529885472695
 20
197.6132586687722
 30
0.0
  0
SPLINE
  5
106
330
1F
100
AcDbEntity
  8
0
  6
Continuous
 62
     7
370
    15
100
AcDbSpline
210
0.0
220
0.0
230
1.0
 70
     8
 71
     3
 72
    15
 73
    11
 74
     0
 42
0.00000001
 43
0.00000001
 40
0.0
 40
0.0
 40
0.0
 40
0.0
 40
0.1316482330009264
 40
0.2633125318294794
 40
0.3951876945132723
 40
0.5266680860428192
 40
0.6575473014526928
 40
0.7882129600510718
 40
0.9184594834117171
 40
1.0
 40
1.0
 40
1.0
 40
1.0
 10
228.155289763395
 20
200.5709435880103
 30
0.0
 10
228.0031115972668
 20
200.5591299427305
 30
0.0
 10
227.6987366937911
 20
200.5355012104805
 30
0.0
 10
227.2478719248388
 20
200.6369762909958
 30
0.0
 10
226.8288436267589
 20
200.8238329254854
 30
0.0
 10
226.4584545331604
 20
201.0964287766126
 30
0.0
 10
226.1561825259759
 20
201.4423341683718
 30
0.0
 10
225.937033479919
 20
201.8440463635468
 30
0.0
 10
225.8196732108804
 20
202.2303590613
 30
0.0
 10
225.8094907327836
 20
202.47743259495
 30
0.0
 10
225.8055703582207
 20
202.5725588291802
 30
0.0
  0
SPLINE
  5
107
330
1F
100
AcDbEntity
  8
0
  6
Continuous
 62
     7
370
    15
100
AcDbSpline
210
0.0
220
0.0
230
1.0
 70
     8
 71
     3
 72
    15
 73
    11
 74
     0
 42
0.00000001
 43
0.00000001
 40
0.0
 40
0.0
 40
0.0
 40
0.0
 40
0.1249271703977905
 40
0.2499156154893634
 40
0.3749662054276466
 40
0.4999569860757024
 40
0.6249210864808586
 40
0.7499168716966518
 40
0.8748738777143611
 40
1.0
 40
1.0
 40
1.0
 40
1.0
 10
228.8238601626794
 20
223.5030800193467
 30
0.0
 10
228.4574836202008
 20
223.5464120602827
 30
0.0
 10
227.7245508336595
 20
223.6330973957983
 30
0.0
 10
226.6205258564763
 20
223.4679064503416
 30
0.0
 10
225.5797282757225
 20
223.0789750639188
 30
0.0
 10
224.6445343941325
 20
222.4739620620512
 30
0.0
 10
223.863881726007
 20
221.6777727507127
 30
0.0
 10
223.2759271970512
 20
220.7334039366872
 30
0.0
 10
222.8801001623631
 20
219.6849612011902
 30
0.0
 10
222.8220382743817
 20
218.9458401395597
 30
0.0
 10
222.7929876984993
 20
218.5760296970524
 30
0.0
  0
SPLINE
  5
108
330
1F
100
AcDbEntity
  8
0
  6
Continuous
 62
     7
370
    15
100
AcDbSpline
210
0.0
220
0.0
230
1.0
 70
     8
 71
     3
 72
    15
 73
    11
 74
     0
 42
0.00000001
 43
0.00000001
 40
0.0
 40
0.0
 40
0.0
 40
0.0
 40
0.1242531568038562
 40
0.2486352096291989
 40
0.3735434996803165
 40
0.4985843911945536
 40
0.6236670007799835
 40
0.7490735452495407
 40
0.87443991995396
 40
1.0
 40
1.0
 40
1.0
 40
1.0
 10
225.7929788770119
 20
218.5760296970524
 30
0.0
 10
225.8065350036199
 20
218.7279864437698
 30
0.0
 10
225.8336613195031
 20
219.032057571993
 30
0.0
 10
226.0081416250894
 20
219.459366904715
 30
0.0
 10
226.261470778297
 20
219.8410094469562
 30
0.0
 10
226.591288679884
 20
220.1609458246581
 30
0.0
 10
226.9822205714695
 20
220.401514953816
 30
0.0
 10
227.4149152126183
 20
220.5531401831454
 30
0.0
 10
227.8724451402212
 20
220.6065986135379
 30
0.0
 10
228.1743581730206
 20
220.5659085662246
 30
0.0
 10
228.3254312219063
 20
220.5455478370108
 30
0.0
  0
LINE
  5
109
330
1F
100
AcDbEntity
  8
0
  6
Continuous
 62
     7
370
    15
100
AcDbLine
 10
243.696038598
 20
203.1876959927
 30
0.0
 11
228.155066246
 21
200.5712779328
 31
0.0
  0
LINE
  5
10A
330
1F
100
AcDbEntity
  8
0
  6
Continuous
 62
     7
370
    15
100
AcDbLine
 10
228.6531375589
 20
197.6129103541
 30
0.0
 11
244.1940950097
 21
200.2293288797
 31
0.0
  0
LINE
  5
10B
330
1F
100
AcDbEntity
  8
0
  6
Continuous
 62
     7
370
    15
100
AcDbLine
 10
228.3256547393
 20
220.5451222226
 30
0.0
 11
243.8666270914
 21
217.9287032314
 31
0.0
  0
LINE
  5
10C
330
1F
100
AcDbEntity
  8
0
  6
Continuous
 62
     7
370
    15
100
AcDbLine
 10
244.3646835031
 20
220.8870703444
 30
0.0
 11
228.8237111511
 21
223.50348887
 31
0.0
  0
SPLINE
  5
10D
330
1F
100
AcDbEntity
  8
0
  6
Continuous
 62
     7
370
    15
100
AcDbSpline
210
0.0
220
0.0
230
1.0
 70
     8
 71
     3
 72
    12
 73
     8
 74
     0
 42
0.00000001
 43
0.00000001
 40
0.0
 40
0.0
 40
0.0
 40
0.0
 40
0.1526137145555179
 40
0.2973904180788561
 40
0.5623703763112813
 40
0.7966025613525135
 40
1.0
 40
1.0
 40
1.0
 40
1.0
 10
244.1937522830407
 20
200.2296380788006
 30
0.0
 10
244.4449718542286
 20
200.2823761814876
 30
0.0
 10
244.9345103830741
 20
200.3851441827283
 30
0.0
 10
245.7840331002435
 20
200.8143891597188
 30
0.0
 10
246.596024111779
 20
201.5587841026459
 30
0.0
 10
247.1604700853382
 20
202.6298231600474
 30
0.0
 10
247.2421589158127
 20
203.3647506658512
 30
0.0
 10
247.280125492994
 20
203.7063234575011
 30
0.0
  0
SPLINE
  5
10E
330
1F
100
AcDbEntity
  8
0
  6
Continuous
 62
     7
370
    15
100
AcDbSpline
210
0.0
220
0.0
230
1.0
 70
     8
 71
     3
 72
    11
 73
     7
 74
     0
 42
0.00000001
 43
0.00000001
 40
0.0
 40
0.0
 40
0.0
 40
0.0
 40
0.2003592305353317
 40
0.4328059080977859
 40
0.6990216722993801
 40
1.0
 40
1.0
 40
1.0
 40
1.0
 10
244.2818032445351
 20
203.7063234575011
 30
0.0
 10
244.2685760975434
 20
203.6498971247448
 30
0.0
 10
244.2400034814978
 20
203.5280078056255
 30
0.0
 10
244.1241142318823
 20
203.3623049677467
 30
0.0
 10
243.9393760570287
 20
203.2233971234285
 30
0.0
 10
243.7817521118599
 20
203.2000086819877
 30
0.0
 10
243.6981098594109
 20
203.1875977381982
 30
0.0
  0
SPLINE
  5
10F
330
1F
100
AcDbEntity
  8
0
  6
Continuous
 62
     7
370
    15
100
AcDbSpline
210
0.0
220
0.0
230
1.0
 70
     8
 71
     3
 72
    12
 73
     8
 74
     0
 42
0.00000001
 43
0.00000001
 40
0.0
 40
0.0
 40
0.0
 40
0.0
 40
0.2034069195232072
 40
0.4376405555461684
 40
0.7026180145737257
 40
0.8473898701762308
 40
1.0
 40
1.0
 40
1.0
 40
1.0
 10
247.280125492994
 20
217.2649542890408
 30
0.0
 10
247.2586839537189
 20
217.6079626280986
 30
0.0
 10
247.2125513679539
 20
218.3459628908925
 30
0.0
 10
246.7004616370624
 20
219.4430837211939
 30
0.0
 10
245.9252373744653
 20
220.2258216504369
 30
0.0
 10
245.0973989421908
 20
220.6955632856817
 30
0.0
 10
244.613412639844
 20
220.8218217570626
 30
0.0
 10
244.3650411309639
 20
220.8866149276413
 30
0.0
  0
SPLINE
  5
110
330
1F
100
AcDbEntity
  8
0
  6
Continuous
 62
     7
370
    15
100
AcDbSpline
210
0.0
220
0.0
230
1.0
 70
     8
 71
     3
 72
    12
 73
     8
 74
     0
 42
0.00000001
 43
0.00000001
 40
0.0
 40
0.0
 40
0.0
 40
0.0
 40
0.1555601585615418
 40
0.302212114556543
 40
0.5679703285681472
 40
0.7999475207940305
 40
1.0
 40
1.0
 40
1.0
 40
1.0
 10
243.8647048415581
 20
217.9296215154149
 30
0.0
 10
243.9052522176206
 20
217.9138720784358
 30
0.0
 10
243.9840250112001
 20
217.8832751010572
 30
0.0
 10
244.1136495277707
 20
217.7882329845405
 30
0.0
 10
244.2280903256733
 20
217.6420556777981
 30
0.0
 10
244.292220771519
 20
217.4478046850579
 30
0.0
 10
244.2851003667498
 20
217.3228259992451
 30
0.0
 10
244.2818032445351
 20
217.2649542890408
 30
0.0
  0
LINE
  5
111
330
1F
100
AcDbEntity
  8
0
  6
Continuous
 62
     7
370
    15
100
AcDbLine
 10
244.2809687795
 20
217.3149542041
 30
0.0
 11
244.2809687795
 21
217.0725593433
 31
0.0
  0
LINE
  5
112
330
1F
100
AcDbEntity
  8
0
  6
Continuous
 62
     7
370
    15
100
AcDbLine
 10
244.2809687795
 20
204.072559075
 30
0.0
 11
244.2809687795
 21
203.6563235424
 31
0.0
  0
LINE
  5
113
330
1F
100
AcDbEntity
  8
0
  6
Continuous
 62
     7
370
    15
100
AcDbLine
 10
247.280959958
 20
203.6563235424
 30
0.0
 11
247.280959958
 21
204.0753036827
 31
0.0
  0
LINE
  5
114
330
1F
100
AcDbEntity
  8
0
  6
Continuous
 62
     7
370
    15
100
AcDbLine
 10
247.280959958
 20
217.0698147356
 30
0.0
 11
247.280959958
 21
217.3149542041
 31
0.0
  0
LINE
  5
115
330
1F
100
AcDbEntity
  8
0
  6
Continuous
 62
     7
370
    15
100
AcDbLine
 10
233.5802512111
 20
216.1725590095
 30
0.0
 11
231.9619702043
 21
216.1725590095
 31
0.0
  0
LINE
  5
116
330
1F
100
AcDbEntity
  8
0
  6
Continuous
 62
     7
370
    15
100
AcDbLine
 10
232.588891858
 20
215.3725594371
 30
0.0
 11
233.5802512111
 21
215.3725594371
 31
0.0
  0
LINE
  5
117
330
1F
100
AcDbEntity
  8
0
  6
Continuous
 62
     7
370
    15
100
AcDbLine
 10
233.9184777679
 20
217.4406981185
 30
0.0
 11
233.6519406976
 21
216.2324509673
 31
0.0
  0
LINE
  5
118
330
1F
100
AcDbEntity
  8
0
  6
Continuous
 62
     7
370
    15
100
AcDbLine
 10
234.4200955572
 20
216.0009008922
 30
0.0
 11
234.6996860446
 21
217.2683703802
 31
0.0
  0
SPLINE
  5
119
330
1F
100
AcDbEntity
  8
0
  6
Continuous
 62
     7
370
    15
100
AcDbSpline
210
0.0
220
0.0
230
1.0
 70
     8
 71
     3
 72
    11
 73
     7
 74
     0
 42
0.00000001
 43
0.00000001
 40
0.0
 40
0.0
 40
0.0
 40
0.0
 40
0.2541315534387046
 40
0.5022702145093869
 40
0.7495144296499624
 40
1.0
 40
1.0
 40
1.0
 40
1.0
 10
233.5802512111107
 20
215.3725594371476
 30
0.0
 10
233.6803399964431
 20
215.3828055314875
 30
0.0
 10
233.8781572883089
 20
215.4030560982996
 30
0.0
 10
234.1363020199441
 20
215.5570888352251
 30
0.0
 10
234.3397525972892
 20
215.7761613159644
 30
0.0
 10
234.4014854771284
 20
215.9632123667299
 30
0.0
 10
234.4325529279152
 20
216.0573469564237
 30
0.0
  0
LINE
  5
11A
330
1F
100
AcDbEntity
  8
0
  6
Continuous
 62
     7
370
    15
100
AcDbLine
 10
246.2795572223
 20
217.0725593433
 30
0.0
 11
247.231592411
 21
217.0725593433
 31
0.0
  0
LWPOLYLINE
  5
11B
330
1F
100
AcDbEntity
  8
0
  6
Continuous
 62
     7
370
    15
100
AcDbPolyline
 90
        9
 70
   128
 43
0.0
 10
247.231592411
 20
217.0725593433
 10
247.3741071166
 20
217.049501659
 10
247.511138195
 20
216.9812147595
 10
247.6374404373
 20
216.8703226462
 10
247.7481411638
 20
216.7210875168
 10
247.8389935436
 20
216.5392435245
 10
247.9064958038
 20
216.3317793138
 10
247.9480700435
 20
216.1066674717
 10
247.9621069374
 20
215.8725590534
  0
LINE
  5
11C
330
1F
100
AcDbEntity
  8
0
  6
Continuous
 62
     7
370
    15
100
AcDbLine
 10
247.9621069374
 20
215.8725590534
 30
0.0
 11
247.0100717487
 21
215.8725590534
 31
0.0
  0
LWPOLYLINE
  5
11D
330
1F
100
AcDbEntity
  8
0
  6
Continuous
 62
     7
370
    15
100
AcDbPolyline
 90
        9
 70
   128
 43
0.0
 10
247.0100717487
 20
215.8725590534
 10
246.9960348548
 20
216.1066674717
 10
246.9544755163
 20
216.3317793138
 10
246.8869583549
 20
216.5392435245
 10
246.7961208763
 20
216.7210875168
 10
246.6854201497
 20
216.8703226462
 10
246.5591179075
 20
216.9812147595
 10
246.422071928
 20
217.049501659
 10
246.2795572223
 20
217.0725593433
  0
LINE
  5
11E
330
1F
100
AcDbEntity
  8
0
  6
Continuous
 62
     7
370
    15
100
AcDbLine
 10
243.5605870428
 20
217.0725593433
 30
0.0
 11
243.5605870428
 21
204.072559075
 31
0.0
  0
LINE
  5
11F
330
1F
100
AcDbEntity
  8
0
  6
Continuous
 62
     7
370
    15
100
AcDbLine
 10
243.5605870428
 20
217.0725593433
 30
0.0
 11
246.2795572223
 21
217.0725593433
 31
0.0
  0
LINE
  5
120
330
1F
100
AcDbEntity
  8
0
  6
Continuous
 62
     7
370
    15
100
AcDbLine
 10
247.0100717487
 20
215.8725590534
 30
0.0
 11
247.0100717487
 21
205.2725593649
 31
0.0
  0
LWPOLYLINE
  5
121
330
1F
100
AcDbEntity
  8
0
  6
Continuous
 62
     7
370
    15
100
AcDbPolyline
 90
        9
 70
   128
 43
0.0
 10
246.2795572223
 20
204.072559075
 10
246.422071928
 20
204.0956167594
 10
246.5591179075
 20
204.1639036588
 10
246.6854201497
 20
204.2747957721
 10
246.7961208763
 20
204.4240309015
 10
246.8869583549
 20
204.6058748938
 10
246.9544755163
 20
204.8133391045
 10
246.9960348548
 20
205.0384509467
 10
247.0100717487
 20
205.2725593649
  0
LINE
  5
122
330
1F
100
AcDbEntity
  8
0
  6
Continuous
 62
     7
370
    15
100
AcDbLine
 10
246.2795572223
 20
204.072559075
 30
0.0
 11
243.5605870428
 21
204.072559075
 31
0.0
  0
LINE
  5
123
330
1F
100
AcDbEntity
  8
0
  6
Continuous
 62
     7
370
    15
100
AcDbLine
 10
247.231592411
 20
204.072559075
 30
0.0
 11
246.2795572223
 21
204.072559075
 31
0.0
  0
LINE
  5
124
330
1F
100
AcDbEntity
  8
0
  6
Continuous
 62
     7
370
    15
100
AcDbLine
 10
247.0100717487
 20
205.2725593649
 30
0.0
 11
247.9621069374
 21
205.2725593649
 31
0.0
  0
LWPOLYLINE
  5
125
330
1F
100
AcDbEntity
  8
0
  6
Continuous
 62
     7
370
    15
100
AcDbPolyline
 90
        9
 70
   128
 43
0.0
 10
247.9621069374
 20
205.2725593649
 10
247.9480700435
 20
205.0384509467
 10
247.9064958038
 20
204.8133391045
 10
247.8389935436
 20
204.6058748938
 10
247.7481411638
 20
204.4240309015
 10
247.6374404373
 20
204.2747957721
 10
247.511138195
 20
204.1639036588
 10
247.3741071166
 20
204.0956167594
 10
247.231592411
 20
204.072559075
  0
LINE
  5
126
330
1F
100
AcDbEntity
  8
0
  6
Continuous
 62
     7
370
    15
100
AcDbLine
 10
247.9621069374
 20
215.8725590534
 30
0.0
 11
247.9621069374
 21
205.2725593649
 31
0.0
  0
LINE
  5
127
330
1F
100
AcDbEntity
  8
0
  6
Continuous
 62
     7
370
    15
100
AcDbLine
 10
242.9819749536
 20
217.0725593433
 30
0.0
 11
243.5605870428
 21
217.0725593433
 31
0.0
  0
LINE
  5
128
330
1F
100
AcDbEntity
  8
0
  6
Continuous
 62
     7
370
    15
100
AcDbLine
 10
243.5605870428
 20
204.072559075
 30
0.0
 11
242.9819749536
 21
204.072559075
 31
0.0
  0
CIRCLE
  5
129
330
1F
100
AcDbEntity
  8
0
  6
Continuous
 62
     7
370
    15
100
AcDbCircle
 10
253.4819718065
 20
205.5725592092
 30
0.0
 40
3.000000000000028
  0
LINE
  5
12A
330
1F
100
AcDbEntity
  8
0
  6
Continuous
 62
     7
370
    15
100
AcDbLine
 10
253.0819671096
 20
203.6725592889
 30
0.0
 11
253.8819657506
 21
203.6725592889
 31
0.0
  0
LINE
  5
12B
330
1F
100
AcDbEntity
  8
0
  6
Continuous
 62
     7
370
    15
100
AcDbLine
 10
253.8819657506
 20
203.6725592889
 30
0.0
 11
253.8819657506
 21
205.1725590691
 31
0.0
  0
LINE
  5
12C
330
1F
100
AcDbEntity
  8
0
  6
Continuous
 62
     7
370
    15
100
AcDbLine
 10
253.8819657506
 20
205.1725590691
 30
0.0
 11
255.3819762411
 21
205.1725590691
 31
0.0
  0
LINE
  5
12D
330
1F
100
AcDbEntity
  8
0
  6
Continuous
 62
     7
370
    15
100
AcDbLine
 10
255.3819762411
 20
205.1725590691
 30
0.0
 11
255.3819762411
 21
205.9725591071
 31
0.0
  0
LINE
  5
12E
330
1F
100
AcDbEntity
  8
0
  6
Continuous
 62
     7
370
    15
100
AcDbLine
 10
255.3819762411
 20
205.9725591071
 30
0.0
 11
253.8819657506
 21
205.9725591071
 31
0.0
  0
LINE
  5
12F
330
1F
100
AcDbEntity
  8
0
  6
Continuous
 62
     7
370
    15
100
AcDbLine
 10
253.8819657506
 20
205.9725591071
 30
0.0
 11
253.8819657506
 21
207.4725591201
 31
0.0
  0
LINE
  5
130
330
1F
100
AcDbEntity
  8
0
  6
Continuous
 62
     7
370
    15
100
AcDbLine
 10
253.8819657506
 20
207.4725591201
 30
0.0
 11
253.0819671096
 21
207.4725591201
 31
0.0
  0
LINE
  5
131
330
1F
100
AcDbEntity
  8
0
  6
Continuous
 62
     7
370
    15
100
AcDbLine
 10
253.0819671096
 20
207.4725591201
 30
0.0
 11
253.0819671096
 21
205.9725591071
 31
0.0
  0
LINE
  5
132
330
1F
100
AcDbEntity
  8
0
  6
Continuous
 62
     7
370
    15
100
AcDbLine
 10
253.0819671096
 20
205.9725591071
 30
0.0
 11
251.5819715204
 21
205.9725591071
 31
0.0
  0
LINE
  5
133
330
1F
100
AcDbEntity
  8
0
  6
Continuous
 62
     7
370
    15
100
AcDbLine
 10
251.5819715204
 20
205.9725591071
 30
0.0
 11
251.5819715204
 21
205.1725590691
 31
0.0
  0
LINE
  5
134
330
1F
100
AcDbEntity
  8
0
  6
Continuous
 62
     7
370
    15
100
AcDbLine
 10
251.5819715204
 20
205.1725590691
 30
0.0
 11
253.0819671096
 21
205.1725590691
 31
0.0
  0
LINE
  5
135
330
1F
100
AcDbEntity
  8
0
  6
Continuous
 62
     7
370
    15
100
AcDbLine
 10
253.0819671096
 20
205.1725590691
 30
0.0
 11
253.0819671096
 21
203.6725592889
 31
0.0
  0
LINE
  5
136
330
1F
100
AcDbEntity
  8
0
  6
Continuous
 62
     7
370
    15
100
AcDbLine
 10
253.0819671096
 20
215.9725593492
 30
0.0
 11
251.5819715204
 21
215.9725593492
 31
0.0
  0
LINE
  5
137
330
1F
100
AcDbEntity
  8
0
  6
Continuous
 62
     7
370
    15
100
AcDbLine
 10
251.5819715204
 20
215.9725593492
 30
0.0
 11
251.5819715204
 21
215.1725593112
 31
0.0
  0
LINE
  5
138
330
1F
100
AcDbEntity
  8
0
  6
Continuous
 62
     7
370
    15
100
AcDbLine
 10
251.5819715204
 20
215.1725593112
 30
0.0
 11
253.0819671096
 21
215.1725593112
 31
0.0
  0
LINE
  5
139
330
1F
100
AcDbEntity
  8
0
  6
Continuous
 62
     7
370
    15
100
AcDbLine
 10
253.0819671096
 20
215.1725593112
 30
0.0
 11
253.0819671096
 21
213.6725592982
 31
0.0
  0
LINE
  5
13A
330
1F
100
AcDbEntity
  8
0
  6
Continuous
 62
     7
370
    15
100
AcDbLine
 10
253.0819671096
 20
213.6725592982
 30
0.0
 11
253.8819657506
 21
213.6725592982
 31
0.0
  0
LINE
  5
13B
330
1F
100
AcDbEntity
  8
0
  6
Continuous
 62
     7
370
    15
100
AcDbLine
 10
253.8819657506
 20
215.1725593112
 30
0.0
 11
255.3819762411
 21
215.1725593112
 31
0.0
  0
LINE
  5
13C
330
1F
100
AcDbEntity
  8
0
  6
Continuous
 62
     7
370
    15
100
AcDbLine
 10
255.3819762411
 20
215.1725593112
 30
0.0
 11
255.3819762411
 21
215.9725593492
 31
0.0
  0
LINE
  5
13D
330
1F
100
AcDbEntity
  8
0
  6
Continuous
 62
     7
370
    15
100
AcDbLine
 10
255.3819762411
 20
215.9725593492
 30
0.0
 11
253.8819657506
 21
215.9725593492
 31
0.0
  0
LINE
  5
13E
330
1F
100
AcDbEntity
  8
0
  6
Continuous
 62
     7
370
    15
100
AcDbLine
 10
253.8819657506
 20
215.9725593492
 30
0.0
 11
253.8819657506
 21
217.4725591294
 31
0.0
  0
LINE
  5
13F
330
1F
100
AcDbEntity
  8
0
  6
Continuous
 62
     7
370
    15
100
AcDbLine
 10
253.8819657506
 20
217.4725591294
 30
0.0
 11
253.0819671096
 21
217.4725591294
 31
0.0
  0
LINE
  5
140
330
1F
100
AcDbEntity
  8
0
  6
Continuous
 62
     7
370
    15
100
AcDbLine
 10
253.0819671096
 20
217.4725591294
 30
0.0
 11
253.0819671096
 21
215.9725593492
 31
0.0
  0
LINE
  5
141
330
1F
100
AcDbEntity
  8
0
  6
Continuous
 62
     7
370
    15
100
AcDbLine
 10
253.8819657506
 20
213.6725592982
 30
0.0
 11
253.8819657506
 21
215.1725593112
 31
0.0
  0
CIRCLE
  5
142
330
1F
100
AcDbEntity
  8
0
  6
Continuous
 62
     7
370
    15
100
AcDbCircle
 10
253.4819718065
 20
215.5725592092
 30
0.0
 40
2.999999999999972
  0
LINE
  5
143
330
1F
100
AcDbEntity
  8
0
  6
Continuous
 62
     7
370
    15
100
AcDbLine
 10
247.4819766225
 20
217.0725593433
 30
0.0
 11
252.46420967
 21
221.6744449079
 31
0.0
  0
ARC
  5
144
330
1F
100
AcDbEntity
  8
0
  6
Continuous
 62
     7
370
    15
100
AcDbCircle
 10
253.4819718065
 20
220.5725592091
 30
0.0
 40
1.500000000000015
100
AcDbArc
 50
43.6028189726
 51
132.7273953127
  0
ARC
  5
145
330
1F
100
AcDbEntity
  8
0
  6
Continuous
 62
     7
370
    15
100
AcDbCircle
 10
253.4819718064
 20
200.5725592091
 30
0.0
 40
1.500000000000009
100
AcDbArc
 50
227.2726046868
 51
316.3971810272
  0
LINE
  5
146
330
1F
100
AcDbEntity
  8
0
  6
Continuous
 62
     7
370
    15
100
AcDbLine
 10
252.46420967
 20
199.4706735104
 30
0.0
 11
247.4819766225
 21
204.072559075
 31
0.0
  0
ARC
  5
147
330
1F
100
AcDbEntity
  8
0
  6
Continuous
 62
     7
370
    15
100
AcDbCircle
 10
242.9819718065
 20
210.5725592092
 30
0.0
 40
16.0
100
AcDbArc
 50
316.3971810272
 51
43.6028189726
  0
LINE
  5
148
330
1F
100
AcDbEntity
  8
0
  6
Continuous
 62
     7
370
    15
100
AcDbLine
 10
247.280959958
 20
217.0725593433
 30
0.0
 11
247.4819766225
 21
217.0725593433
 31
0.0
  0
LINE
  5
149
330
1F
100
AcDbEntity
  8
0
  6
Continuous
 62
     7
370
    15
100
AcDbLine
 10
247.4819766225
 20
204.072559075
 30
0.0
 11
247.280959958
 21
204.072559075
 31
0.0
  0
LINE
  5
14A
330
1F
100
AcDbEntity
  8
0
  6
Continuous
 62
     7
370
    15
100
AcDbLine
 10
255.4819779338
 20
25.572556825
 30
0.0
 11
255.4819779338
 21
10.5725562289
 31
0.0
  0
LINE
  5
14B
330
1F
100
AcDbEntity
  8
0
  6
Continuous
 62
     7
370
    15
100
AcDbLine
 10
255.4819779338
 20
25.572556825
 30
0.0
 11
270.4819785299
 21
25.572556825
 31
0.0
  0
ARC
  5
14C
330
1F
100
AcDbEntity
  8
0
  6
Continuous
 62
     7
370
    15
100
AcDbCircle
 10
255.4819718065
 20
25.5725592092
 30
0.0
 40
15.00000000000003
100
AcDbArc
 50
270.0
 51
0.0
  0
LINE
  5
14D
330
1F
100
AcDbEntity
  8
0
  6
Continuous
 62
     7
370
    15
100
AcDbLine
 10
250.481967801
 20
10.5725562289
 30
0.0
 11
255.4819779338
 21
10.5725562289
 31
0.0
  0
LINE
  5
14E
330
1F
100
AcDbEntity
  8
0
  6
Continuous
 62
     7
370
    15
100
AcDbLine
 10
250.481967801
 20
25.572556825
 30
0.0
 11
250.481967801
 21
10.5725562289
 31
0.0
  0
LINE
  5
14F
330
1F
100
AcDbEntity
  8
0
  6
Continuous
 62
     7
370
    15
100
AcDbLine
 10
250.481967801
 20
25.572556825
 30
0.0
 11
255.4819779338
 21
25.572556825
 31
0.0
  0
LINE
  5
150
330
1F
100
AcDbEntity
  8
0
  6
Continuous
 62
     7
370
    15
100
AcDbLine
 10
255.4819779338
 20
200.5850670949
 30
0.0
 11
255.4819779338
 21
25.572556825
 31
0.0
  0
LINE
  5
151
330
1F
100
AcDbEntity
  8
0
  6
Continuous
 62
     7
370
    15
100
AcDbLine
 10
255.4819779338
 20
220.5600513235
 30
0.0
 11
255.4819779338
 21
395.5725615933
 31
0.0
  0
LINE
  5
152
330
1F
100
AcDbEntity
  8
0
  6
Continuous
 62
     7
370
    15
100
AcDbLine
 10
255.4819779338
 20
395.5725615933
 30
0.0
 11
270.4819785299
 21
395.5725615933
 31
0.0
  0
LINE
  5
153
330
1F
100
AcDbEntity
  8
0
  6
Continuous
 62
     7
370
    15
100
AcDbLine
 10
270.4819785299
 20
395.5725615933
 30
0.0
 11
270.4819785299
 21
25.572556825
 31
0.0
  0
LINE
  5
154
330
1F
100
AcDbEntity
  8
0
  6
Continuous
 62
     7
370
    15
100
AcDbLine
 10
250.481967801
 20
201.3015819803
 30
0.0
 11
250.481967801
 21
25.572556825
 31
0.0
  0
LINE
  5
155
330
1F
100
AcDbEntity
  8
0
  6
Continuous
 62
     7
370
    15
100
AcDbLine
 10
250.481967801
 20
395.5725615933
 30
0.0
 11
255.4819779338
 21
395.5725615933
 31
0.0
  0
LINE
  5
156
330
1F
100
AcDbEntity
  8
0
  6
Continuous
 62
     7
370
    15
100
AcDbLine
 10
250.481967801
 20
219.843536438
 30
0.0
 11
250.481967801
 21
395.5725615933
 31
0.0
  0
LINE
  5
157
330
1F
100
AcDbEntity
  8
0
  6
Continuous
 62
     7
370
    15
100
AcDbLine
 10
250.481967801
 20
410.5725621894
 30
0.0
 11
255.4819779338
 21
410.5725621894
 31
0.0
  0
LINE
  5
158
330
1F
100
AcDbEntity
  8
0
  6
Continuous
 62
     7
370
    15
100
AcDbLine
 10
255.4819779338
 20
395.5725615933
 30
0.0
 11
255.4819779338
 21
410.5725621894
 31
0.0
  0
LINE
  5
159
330
1F
100
AcDbEntity
  8
0
  6
Continuous
 62
     7
370
    15
100
AcDbLine
 10
250.481967801
 20
395.5725615933
 30
0.0
 11
250.481967801
 21
410.5725621894
 31
0.0
  0
ARC
  5
15A
330
1F
100
AcDbEntity
  8
0
  6
Continuous
 62
     7
370
    15
100
AcDbCircle
 10
255.4819718065
 20
395.5725592092
 30
0.0
 40
15.00000000000006
100
AcDbArc
 50
0.0
 51
90.0
  0
LINE
  5
15B
330
1F
100
AcDbEntity
  8
0
  6
Continuous
 62
     7
370
    15
100
AcDbLine
 10
233.6929039897
 20
205.872559277
 30
0.0
 11
233.6929039897
 21
214.4725591034
 31
0.0
  0
LINE
  5
15C
330
1F
100
AcDbEntity
  8
0
  6
Continuous
 62
     7
370
    15
100
AcDbLine
 10
233.6929039897
 20
205.872559277
 30
0.0
 11
228.1786100807
 21
205.872559277
 31
0.0
  0
LINE
  5
15D
330
1F
100
AcDbEntity
  8
0
  6
Continuous
 62
     7
370
    15
100
AcDbLine
 10
228.1786100807
 20
205.872559277
 30
0.0
 11
228.1786100807
 21
214.4725591034
 31
0.0
  0
LINE
  5
15E
330
1F
100
AcDbEntity
  8
0
  6
Continuous
 62
     7
370
    15
100
AcDbLine
 10
233.6929039897
 20
214.4725591034
 30
0.0
 11
228.1786100807
 21
214.4725591034
 31
0.0
  0
LINE
  5
15F
330
1F
100
AcDbEntity
  8
0
  6
Continuous
 62
     7
370
    15
100
AcDbLine
 10
227.0643459501
 20
217.7725590855
 30
0.0
 11
202.2522436323
 21
217.7725590855
 31
0.0
  0
LINE
  5
160
330
1F
100
AcDbEntity
  8
0
  6
Continuous
 62
     7
370
    15
100
AcDbLine
 10
227.0643459501
 20
214.4725591034
 30
0.0
 11
227.0643459501
 21
217.7725590855
 31
0.0
  0
LINE
  5
161
330
1F
100
AcDbEntity
  8
0
  6
Continuous
 62
     7
370
    15
100
AcDbLine
 10
227.0643459501
 20
203.3725593328
 30
0.0
 11
227.0643459501
 21
205.872559277
 31
0.0
  0
LINE
  5
162
330
1F
100
AcDbEntity
  8
0
  6
Continuous
 62
     7
370
    15
100
AcDbLine
 10
202.2522436323
 20
203.3725593328
 30
0.0
 11
227.0643459501
 21
203.3725593328
 31
0.0
  0
LINE
  5
163
330
1F
100
AcDbEntity
  8
0
  6
Continuous
 62
     7
370
    15
100
AcDbLine
 10
202.2522436323
 20
203.3725593328
 30
0.0
 11
202.2522436323
 21
217.7725590855
 31
0.0
  0
LINE
  5
164
330
1F
100
AcDbEntity
  8
0
  6
Continuous
 62
     7
370
    15
100
AcDbLine
 10
227.0643459501
 20
205.872559277
 30
0.0
 11
228.1786100807
 21
205.872559277
 31
0.0
  0
LINE
  5
165
330
1F
100
AcDbEntity
  8
0
  6
Continuous
 62
     7
370
    15
100
AcDbLine
 10
227.0643459501
 20
214.4725591034
 30
0.0
 11
228.1786100807
 21
214.4725591034
 31
0.0
  0
LINE
  5
166
330
1F
100
AcDbEntity
  8
0
  6
Continuous
 62
     7
370
    15
100
AcDbLine
 10
227.1919743957
 20
202.5752084419
 30
0.0
 11
229.0841983499
 21
202.5752084419
 31
0.0
  0
LINE
  5
167
330
1F
100
AcDbEntity
  8
0
  6
Continuous
 62
     7
370
    15
100
AcDbLine
 10
229.0841983499
 20
202.5752084419
 30
0.0
 11
229.7569559755
 21
202.5725588292
 31
0.0
  0
LINE
  5
168
330
1F
100
AcDbEntity
  8
0
  6
Continuous
 62
     7
370
    15
100
AcDbLine
 10
229.7569559755
 20
202.5725588292
 30
0.0
 11
202.3911522569
 21
202.5725588292
 31
0.0
  0
ARC
  5
169
330
1F
100
AcDbEntity
  8
0
  6
Continuous
 62
     7
370
    15
100
AcDbCircle
 10
203.5081237947
 20
203.1785649302
 30
0.0
 40
1.270774885943835
100
AcDbArc
 50
171.2189863599
 51
208.481774717
  0
ARC
  5
16A
330
1F
100
AcDbEntity
  8
0
  6
Continuous
 62
     7
370
    15
100
AcDbCircle
 10
228.5385442696
 20
203.1996378585
 30
0.0
 40
1.484305400411397
100
AcDbArc
 50
173.3098537565
 51
204.8780291391
  0
LINE
  5
16B
330
1F
100
AcDbEntity
  8
0
  6
Continuous
 62
     7
370
    15
100
AcDbLine
 10
229.0841983499
 20
218.5699099764
 30
0.0
 11
227.1919743957
 21
218.5699099764
 31
0.0
  0
ARC
  5
16C
330
1F
100
AcDbEntity
  8
0
  6
Continuous
 62
     7
370
    15
100
AcDbCircle
 10
228.5385442696
 20
217.9454805598
 30
0.0
 40
1.484305400411396
100
AcDbArc
 50
155.1219708609
 51
186.6901462435
  0
ARC
  5
16D
330
1F
100
AcDbEntity
  8
0
  6
Continuous
 62
     7
370
    15
100
AcDbCircle
 10
203.5081237947
 20
217.9665534881
 30
0.0
 40
1.270774885943862
100
AcDbArc
 50
151.518225283
 51
188.7810136401
  0
LINE
  5
16E
330
1F
100
AcDbEntity
  8
0
  6
Continuous
 62
     7
370
    15
100
AcDbLine
 10
202.3911522569
 20
218.5725595891
 30
0.0
 11
229.7569559755
 21
218.5725595891
 31
0.0
  0
LINE
  5
16F
330
1F
100
AcDbEntity
  8
0
  6
Continuous
 62
     7
370
    15
100
AcDbLine
 10
229.7569559755
 20
218.5725595891
 30
0.0
 11
229.0841983499
 21
218.5699099764
 31
0.0
  0
LINE
  5
170
330
1F
100
AcDbEntity
  8
0
  6
Continuous
 62
     7
370
    15
100
AcDbLine
 10
227.1919743957
 20
217.7725590855
 30
0.0
 11
227.1919743957
 21
218.5699099764
 31
0.0
  0
LINE
  5
171
330
1F
100
AcDbEntity
  8
0
  6
Continuous
 62
     7
370
    15
100
AcDbLine
 10
227.2032694759
 20
217.7725590855
 30
0.0
 11
227.2032694759
 21
214.4725591034
 31
0.0
  0
LINE
  5
172
330
1F
100
AcDbEntity
  8
0
  6
Continuous
 62
     7
370
    15
100
AcDbLine
 10
227.1919743957
 20
202.5752084419
 30
0.0
 11
227.1919743957
 21
203.3725593328
 31
0.0
  0
LINE
  5
173
330
1F
100
AcDbEntity
  8
0
  6
Continuous
 62
     7
370
    15
100
AcDbLine
 10
227.2032694759
 20
205.872559277
 30
0.0
 11
227.2032694759
 21
203.3725593328
 31
0.0
  0
LINE
  5
174
330
1F
100
AcDbEntity
  8
0
  6
Continuous
 62
     7
370
    15
100
AcDbLine
 10
233.1919716539
 20
202.5725588292
 30
0.0
 11
229.7569559755
 21
202.5725588292
 31
0.0
  0
LINE
  5
175
330
1F
100
AcDbEntity
  8
0
  6
Continuous
 62
     7
370
    15
100
AcDbLine
 10
229.0841983499
 20
202.5752084419
 30
0.0
 11
229.0841983499
 21
203.3725593328
 31
0.0
  0
LINE
  5
176
330
1F
100
AcDbEntity
  8
0
  6
Continuous
 62
     7
370
    15
100
AcDbLine
 10
233.1919716539
 20
203.3725593328
 30
0.0
 11
229.0841983499
 21
203.3725593328
 31
0.0
  0
LINE
  5
177
330
1F
100
AcDbEntity
  8
0
  6
Continuous
 62
     7
370
    15
100
AcDbLine
 10
229.0841983499
 20
217.7725590855
 30
0.0
 11
229.0841983499
 21
218.5699099764
 31
0.0
  0
LINE
  5
178
330
1F
100
AcDbEntity
  8
0
  6
Continuous
 62
     7
370
    15
100
AcDbLine
 10
233.1919716539
 20
218.5725595891
 30
0.0
 11
229.7569559755
 21
218.5725595891
 31
0.0
  0
LINE
  5
179
330
1F
100
AcDbEntity
  8
0
  6
Continuous
 62
     7
370
    15
100
AcDbLine
 10
233.1919716539
 20
217.7725590855
 30
0.0
 11
229.0841983499
 21
217.7725590855
 31
0.0
  0
LINE
  5
17A
330
1F
100
AcDbEntity
  8
0
  6
Continuous
 62
     7
370
    15
100
AcDbLine
 10
227.1919743957
 20
217.7725590855
 30
0.0
 11
229.0841983499
 21
217.7725590855
 31
0.0
  0
LINE
  5
17B
330
1F
100
AcDbEntity
  8
0
  6
Continuous
 62
     7
370
    15
100
AcDbLine
 10
227.1919743957
 20
203.3725593328
 30
0.0
 11
229.0841983499
 21
203.3725593328
 31
0.0
  0
LINE
  5
17C
330
1F
100
AcDbEntity
  8
0
  6
Continuous
 62
     7
370
    15
100
AcDbLine
 10
228.2619671764
 20
218.8725590795
 30
0.0
 11
232.6619671525
 21
218.8725590795
 31
0.0
  0
LINE
  5
17D
330
1F
100
AcDbEntity
  8
0
  6
Continuous
 62
     7
370
    15
100
AcDbLine
 10
228.3619688692
 20
202.1725595087
 30
0.0
 11
232.5619654598
 21
202.1725595087
 31
0.0
  0
LINE
  5
17E
330
1F
100
AcDbEntity
  8
0
  6
Continuous
 62
     7
370
    15
100
AcDbLine
 10
228.3619688692
 20
201.7725592568
 30
0.0
 11
232.5619654598
 21
201.7725592568
 31
0.0
  0
ARC
  5
17F
330
1F
100
AcDbEntity
  8
0
  6
Continuous
 62
     7
370
    15
100
AcDbCircle
 10
210.6578708204
 20
210.5725592092
 30
0.0
 40
16.9039972836303
100
AcDbArc
 50
154.7901555355
 51
205.2098444645
  0
SPLINE
  5
180
330
1F
100
AcDbEntity
  8
0
  6
Continuous
 62
     7
370
    15
100
AcDbSpline
210
0.0
220
0.0
230
1.0
 70
     8
 71
     3
 72
    12
 73
     8
 74
     0
 42
0.00000001
 43
0.00000001
 40
0.0
 40
0.0
 40
0.0
 40
0.0
 40
0.1818824542774583
 40
0.3633438662377088
 40
0.5550797750830154
 40
0.7712664045536519
 40
1.0
 40
1.0
 40
1.0
 40
1.0
 10
195.4962881149689
 20
202.5725588291802
 30
0.0
 10
195.5201483444401
 20
202.5798791378998
 30
0.0
 10
195.5678135689932
 20
202.5945028094509
 30
0.0
 10
195.5825622111091
 20
202.706501842347
 30
0.0
 10
195.5553278628331
 20
202.8758928625651
 30
0.0
 10
195.4836534171076
 20
203.104306220011
 30
0.0
 10
195.4045702994535
 20
203.2814762021094
 30
0.0
 10
195.3639136495034
 20
203.3725593328394
 30
0.0
  0
LINE
  5
181
330
1F
100
AcDbEntity
  8
0
  6
Continuous
 62
     7
370
    15
100
AcDbLine
 10
195.1119275631
 20
203.3270581715
 30
0.0
 11
195.4663740339
 21
202.5725588292
 31
0.0
  0
ARC
  5
182
330
1F
100
AcDbEntity
  8
0
  6
Continuous
 62
     7
370
    15
100
AcDbCircle
 10
210.3825879817
 20
210.5725592092
 30
0.0
 40
16.90237719687148
100
AcDbArc
 50
154.6169692401
 51
205.3830307599
  0
LINE
  5
183
330
1F
100
AcDbEntity
  8
0
  6
Continuous
 62
     7
370
    15
100
AcDbLine
 10
195.4663740339
 20
218.5725595891
 30
0.0
 11
195.1119275631
 21
217.8180602468
 31
0.0
  0
SPLINE
  5
184
330
1F
100
AcDbEntity
  8
0
  6
Continuous
 62
     7
370
    15
100
AcDbSpline
210
0.0
220
0.0
230
1.0
 70
     8
 71
     3
 72
    12
 73
     8
 74
     0
 42
0.00000001
 43
0.00000001
 40
0.0
 40
0.0
 40
0.0
 40
0.0
 40
0.2510177057793779
 40
0.5023993650511631
 40
0.7402774422560285
 40
0.9473074508812208
 40
1.0
 40
1.0
 40
1.0
 40
1.0
 10
195.3639136495034
 20
217.7725590854802
 30
0.0
 10
195.4082316622335
 20
217.8724422364245
 30
0.0
 10
195.496931944896
 20
218.0723533600561
 30
0.0
 10
195.5719208946491
 20
218.331077178044
 30
0.0
 10
195.5834165946358
 20
218.5083116693861
 30
0.0
 10
195.5417702983809
 20
218.5687602533407
 30
0.0
 10
195.503959229876
 20
218.5719187856578
 30
0.0
 10
195.4962881149689
 20
218.5725595891394
 30
0.0
  0
LINE
  5
185
330
1F
100
AcDbEntity
  8
0
  6
Continuous
 62
     7
370
    15
100
AcDbLine
 10
195.496288115
 20
218.5725595891
 30
0.0
 11
195.4663740339
 21
218.5725595891
 31
0.0
  0
LINE
  5
186
330
1F
100
AcDbEntity
  8
0
  6
Continuous
 62
     7
370
    15
100
AcDbLine
 10
195.496288115
 20
202.5725588292
 30
0.0
 11
195.4663740339
 21
202.5725588292
 31
0.0
  0
LINE
  5
187
330
1F
100
AcDbEntity
  8
0
  6
Continuous
 62
     7
370
    15
100
AcDbLine
 10
197.3533900322
 20
217.7725590855
 30
0.0
 11
195.3639136495
 21
217.7725590855
 31
0.0
  0
LINE
  5
188
330
1F
100
AcDbEntity
  8
0
  6
Continuous
 62
     7
370
    15
100
AcDbLine
 10
197.3533900322
 20
203.3725593328
 30
0.0
 11
197.3533900322
 21
217.7725590855
 31
0.0
  0
LINE
  5
189
330
1F
100
AcDbEntity
  8
0
  6
Continuous
 62
     7
370
    15
100
AcDbLine
 10
195.3639136495
 20
203.3725593328
 30
0.0
 11
197.3533900322
 21
203.3725593328
 31
0.0
  0
LWPOLYLINE
  5
18A
330
1F
100
AcDbEntity
  8
0
  6
Continuous
 62
     7
370
    15
100
AcDbPolyline
 90
        9
 70
   128
 43
0.0
 10
197.3533900322
 20
217.7725590855
 10
197.3481299223
 20
217.9286315195
 10
197.3325656595
 20
218.0787057705
 10
197.3072783889
 20
218.2170155547
 10
197.2732515873
 20
218.3382444173
 10
197.2317891063
 20
218.437734814
 10
197.1844853701
 20
218.5116632
 10
197.1331508698
 20
218.5571871787
 10
197.0797749104
 20
218.5725595891
  0
LINE
  5
18B
330
1F
100
AcDbEntity
  8
0
  6
Continuous
 62
     7
370
    15
100
AcDbLine
 10
195.496288115
 20
218.5725595891
 30
0.0
 11
197.0797749104
 21
218.5725595891
 31
0.0
  0
LWPOLYLINE
  5
18C
330
1F
100
AcDbEntity
  8
0
  6
Continuous
 62
     7
370
    15
100
AcDbPolyline
 90
        9
 70
   128
 43
0.0
 10
197.3533900322
 20
203.3725593328
 10
197.3481299223
 20
203.2164868988
 10
197.3325656595
 20
203.0664126478
 10
197.3072783889
 20
202.9281028636
 10
197.2732515873
 20
202.806874001
 10
197.2317891063
 20
202.7073836043
 10
197.1844853701
 20
202.6334552184
 10
197.1331508698
 20
202.5879312396
 10
197.0797749104
 20
202.5725588292
  0
LINE
  5
18D
330
1F
100
AcDbEntity
  8
0
  6
Continuous
 62
     7
370
    15
100
AcDbLine
 10
197.0797749104
 20
202.5725588292
 30
0.0
 11
195.496288115
 21
202.5725588292
 31
0.0
  0
LINE
  5
18E
330
1F
100
AcDbEntity
  8
0
  6
Continuous
 62
     7
370
    15
100
AcDbLine
 10
197.3533900322
 20
203.3725593328
 30
0.0
 11
202.2522436323
 21
203.3725593328
 31
0.0
  0
LINE
  5
18F
330
1F
100
AcDbEntity
  8
0
  6
Continuous
 62
     7
370
    15
100
AcDbLine
 10
202.3911522569
 20
202.5725588292
 30
0.0
 11
197.0797749104
 21
202.5725588292
 31
0.0
  0
LINE
  5
190
330
1F
100
AcDbEntity
  8
0
  6
Continuous
 62
     7
370
    15
100
AcDbLine
 10
202.2522436323
 20
217.7725590855
 30
0.0
 11
197.3533900322
 21
217.7725590855
 31
0.0
  0
LINE
  5
191
330
1F
100
AcDbEntity
  8
0
  6
Continuous
 62
     7
370
    15
100
AcDbLine
 10
197.0797749104
 20
218.5725595891
 30
0.0
 11
202.3911522569
 21
218.5725595891
 31
0.0
  0
LINE
  5
192
330
1F
100
AcDbEntity
  8
0
  6
Continuous
 62
     7
370
    15
100
AcDbLine
 10
222.7929876985
 20
218.5760296971
 30
0.0
 11
225.792978877
 21
218.5760296971
 31
0.0
  0
SPLINE
  5
193
330
1F
100
AcDbEntity
  8
0
  6
Continuous
 62
     7
370
    15
100
AcDbSpline
210
0.0
220
0.0
230
1.0
 70
     8
 71
     3
 72
    16
 73
    12
 74
     0
 42
0.00000001
 43
0.00000001
 40
0.0
 40
0.0
 40
0.0
 40
0.0
 40
0.1207064988727857
 40
0.2414153406334466
 40
0.3621173897814783
 40
0.4828240699053324
 40
0.6035292431201714
 40
0.7242353295631178
 40
0.8449400890215276
 40
0.9656487338981586
 40
1.0
 40
1.0
 40
1.0
 40
1.0
 10
228.63427268881
 20
197.6201877087273
 30
0.0
 10
228.6536736997593
 20
197.6228612046921
 30
0.0
 10
228.6924760982272
 20
197.6282082485137
 30
0.0
 10
228.697397449578
 20
197.9191361578906
 30
0.0
 10
228.660189143461
 20
198.3725063370387
 30
0.0
 10
228.5832600411823
 20
198.9400115318585
 30
0.0
 10
228.4794566656959
 20
199.5283458255835
 30
0.0
 10
228.3633612019869
 20
200.0550384907396
 30
0.0
 10
228.2563475204226
 20
200.4183330652253
 30
0.0
 10
228.1837765079503
 20
200.588794225375
 30
0.0
 10
228.1642254700502
 20
200.5556434767256
 30
0.0
 10
228.1598942222039
 20
200.5482994109311
 30
0.0
  0
SPLINE
  5
194
330
1F
100
AcDbEntity
  8
0
  6
Continuous
 62
     7
370
    15
100
AcDbSpline
210
0.0
220
0.0
230
1.0
 70
     8
 71
     3
 72
    16
 73
    12
 74
     0
 42
0.00000001
 43
0.00000001
 40
0.0
 40
0.0
 40
0.0
 40
0.0
 40
0.1205771187383075
 40
0.2411625799959162
 40
0.3617414903710732
 40
0.4823248809963983
 40
0.6029067662518612
 40
0.7234901541341352
 40
0.8440710670591477
 40
0.9646563650547783
 40
1.0
 40
1.0
 40
1.0
 40
1.0
 10
228.8048611821572
 20
223.4962115153589
 30
0.0
 10
228.8242622070539
 20
223.4935365019189
 30
0.0
 10
228.8630655991702
 20
223.4881862899594
 30
0.0
 10
228.8679855816393
 20
223.1972642595301
 30
0.0
 10
228.8307780976882
 20
222.7438920524746
 30
0.0
 10
228.7538471893206
 20
222.1763909850832
 30
0.0
 10
228.6500499405892
 20
221.588040330748
 30
0.0
 10
228.5339310271208
 20
221.061405016577
 30
0.0
 10
228.4269186411013
 20
220.6979106263257
 30
0.0
 10
228.3541571654928
 20
220.5273730517703
 30
0.0
 10
228.3345171806298
 20
220.560958431547
 30
0.0
 10
228.3300654830376
 20
220.5685710623779
 30
0.0
  0
SPLINE
  5
195
330
1F
100
AcDbEntity
  8
0
  6
Continuous
 62
     7
370
    15
100
AcDbSpline
210
0.0
220
0.0
230
1.0
 70
     8
 71
     3
 72
    16
 73
    12
 74
     0
 42
0.00000001
 43
0.00000001
 40
0.0
 40
0.0
 40
0.0
 40
0.0
 40
0.1205179431022635
 40
0.2410327858268665
 40
0.3615502496440239
 40
0.4820664895719758
 40
0.6025831090871046
 40
0.723100640403786
 40
0.8436168468088149
 40
0.9641310962180005
 40
1.0
 40
1.0
 40
1.0
 40
1.0
 10
244.1752450408379
 20
200.2366062343039
 30
0.0
 10
244.1946461477208
 20
200.2392774306027
 30
0.0
 10
244.2334478623847
 20
200.2446197544825
 30
0.0
 10
244.2383689570897
 20
200.5355745857373
 30
0.0
 10
244.2011630502197
 20
200.9889083142014
 30
0.0
 10
244.1242321113224
 20
201.5564333073682
 30
0.0
 10
244.0204265382977
 20
202.1447798031302
 30
0.0
 10
243.9043432126965
 20
202.6713950242157
 30
0.0
 10
243.7972854453173
 20
203.0349782382159
 30
0.0
 10
243.7244326507972
 20
203.2055682826742
 30
0.0
 10
243.704742147008
 20
203.1717546394549
 30
0.0
 10
243.7002258243004
 20
203.1639989554801
 30
0.0
  0
SPLINE
  5
196
330
1F
100
AcDbEntity
  8
0
  6
Continuous
 62
     7
370
    15
100
AcDbSpline
210
0.0
220
0.0
230
1.0
 70
     8
 71
     3
 72
    16
 73
    12
 74
     0
 42
0.00000001
 43
0.00000001
 40
0.0
 40
0.0
 40
0.0
 40
0.0
 40
0.1205179291601008
 40
0.2410324105773608
 40
0.3615496018336235
 40
0.482065750063826
 40
0.6025820970199695
 40
0.7230971707386024
 40
0.8436171914444965
 40
0.9641311683000571
 40
1.0
 40
1.0
 40
1.0
 40
1.0
 10
244.3458186330239
 20
220.8797929897823
 30
0.0
 10
244.3652260501892
 20
220.8771217841559
 30
0.0
 10
244.4040403293178
 20
220.8717794493202
 30
0.0
 10
244.4089562457006
 20
220.5808256533987
 30
0.0
 10
244.3717523378082
 20
220.1274918712234
 30
0.0
 10
244.2948184619789
 20
219.5599650295236
 30
0.0
 10
244.1910237134603
 20
218.9716273039154
 30
0.0
 10
244.074901810671
 20
218.4449882981922
 30
0.0
 10
243.9678837945052
 20
218.0814299530282
 30
0.0
 10
243.8950206032085
 20
217.9108300883672
 30
0.0
 10
243.8753305401449
 20
217.9446448030334
 30
0.0
 10
243.8708143176476
 20
217.9524007342674
 30
0.0
  0
SPLINE
  5
197
330
1F
100
AcDbEntity
  8
0
  6
Continuous
 62
     7
370
    15
100
AcDbSpline
210
0.0
220
0.0
230
1.0
 70
    24
 71
     3
 72
    16
 73
    12
 74
     0
 42
0.00000001
 43
0.00000001
 40
0.0
 40
0.0
 40
0.0
 40
0.0
 40
0.0611042412805948
 40
0.1864670502232474
 40
0.311832109630077
 40
0.4371980005123943
 40
0.5625599899456356
 40
0.68792400593719
 40
0.8132867973268191
 40
0.9386468025897463
 40
1.0
 40
1.0
 40
1.0
 40
1.0
 10
247.2521560134331
 20
203.7063234575011
 30
0.0
 10
247.257929036364
 20
203.7063234575011
 30
0.0
 10
247.2755461204526
 20
203.7063234575011
 30
0.0
 10
247.0571063325288
 20
203.7063234575011
 30
0.0
 10
246.6443787136109
 20
203.7063234575011
 30
0.0
 10
246.0879023241728
 20
203.7063234575011
 30
0.0
 10
245.4887932867496
 20
203.7063234575011
 30
0.0
 10
244.9301064838378
 20
203.7063234575011
 30
0.0
 10
244.5131504057962
 20
203.7063234575011
 30
0.0
 10
244.2901481847711
 20
203.7063234575011
 30
0.0
 10
244.3049639339463
 20
203.7063234575011
 30
0.0
 10
244.3098323287407
 20
203.7063234575011
 30
0.0
  0
SPLINE
  5
198
330
1F
100
AcDbEntity
  8
0
  6
Continuous
 62
     7
370
    15
100
AcDbSpline
210
0.0
220
0.0
230
1.0
 70
    24
 71
     3
 72
    16
 73
    12
 74
     0
 42
0.00000001
 43
0.00000001
 40
0.0
 40
0.0
 40
0.0
 40
0.0
 40
0.0610064913464802
 40
0.1861687543686247
 40
0.3113332642548242
 40
0.4364986042863799
 40
0.5616600491101023
 40
0.6868235172502032
 40
0.8119857627474041
 40
0.9371452265749375
 40
1.0
 40
1.0
 40
1.0
 40
1.0
 10
247.2521560134331
 20
217.2649542890408
 30
0.0
 10
247.2579290301398
 20
217.2649542890408
 30
0.0
 10
247.2755460952341
 20
217.2649542890408
 30
0.0
 10
247.0571065663433
 20
217.2649542890408
 30
0.0
 10
246.644377856931
 20
217.2649542890408
 30
0.0
 10
246.0879055170523
 20
217.2649542890408
 30
0.0
 10
245.4887813722405
 20
217.2649542890408
 30
0.0
 10
244.9301509497461
 20
217.2649542890408
 30
0.0
 10
244.5129844602903
 20
217.2649542890408
 30
0.0
 10
244.2894922310699
 20
217.2649542890408
 30
0.0
 10
244.3047138189336
 20
217.2649542890408
 30
0.0
 10
244.3098025264183
 20
217.2649542890408
 30
0.0
  0
SPLINE
  5
199
330
1F
100
AcDbEntity
  8
0
  6
Continuous
 62
     7
370
    15
100
AcDbSpline
210
0.0
220
0.0
230
1.0
 70
     8
 71
     3
 72
    19
 73
    15
 74
     0
 42
0.00000001
 43
0.00000001
 40
0.0
 40
0.0
 40
0.0
 40
0.0
 40
0.0039536270391049
 40
0.1157767945096484
 40
0.2280437365587862
 40
0.3355255667690837
 40
0.437712548903688
 40
0.5348869571443983
 40
0.6283115535344265
 40
0.7303059003380254
 40
0.8413432073336293
 40
0.9641172398440389
 40
0.9937688794264846
 40
1.0
 40
1.0
 40
1.0
 40
1.0
 10
233.5802512111107
 20
216.1725590094842
 30
0.0
 10
233.5806434720081
 20
216.1725533930685
 30
0.0
 10
233.5921303191153
 20
216.1723889236815
 30
0.0
 10
233.6154466833348
 20
216.1572651097328
 30
0.0
 10
233.6589213522389
 20
216.0903538484276
 30
0.0
 10
233.6969030258022
 20
215.9856712343206
 30
0.0
 10
233.7203831033559
 20
215.8605877422505
 30
0.0
 10
233.7317231421295
 20
215.7321509442285
 30
0.0
 10
233.7323319448172
 20
215.6109808288368
 30
0.0
 10
233.7165321535253
 20
215.5017534682506
 30
0.0
 10
233.6761687216939
 20
215.4123402902667
 30
0.0
 10
233.6242809156973
 20
215.3772793680837
 30
0.0
 10
233.5895914708798
 20
215.3726724919625
 30
0.0
 10
233.5816331850301
 20
215.3725761646059
 30
0.0
 10
233.5802512111107
 20
215.3725594371476
 30
0.0
  0
SPLINE
  5
19A
330
1F
100
AcDbEntity
  8
0
  6
Continuous
 62
     7
370
    15
100
AcDbSpline
210
0.0
220
0.0
230
1.0
 70
     8
 71
     3
 72
    30
 73
    26
 74
     0
 42
0.00000001
 43
0.00000001
 40
0.0
 40
0.0
 40
0.0
 40
0.0
 40
0.1247239430626617
 40
0.2494257052796339
 40
0.3741243600049823
 40
0.4367876370049001
 40
0.4681568484786985
 40
0.4838454312090021
 40
0.4916974834880816
 40
0.4956160312397341
 40
0.4975751242398571
 40
0.498554598383625
 40
0.4990444223633528
 40
0.4992892475790113
 40
0.4994117035739433
 40
0.499472888318016
 40
0.4995092984646414
 40
0.4995217720366857
 40
0.4995342456087301
 40
0.5609220775659168
 40
0.6646191330419637
 40
0.73258125151403
 40
0.8111535469705378
 40
0.9002866268544109
 40
1.0
 40
1.0
 40
1.0
 40
1.0
 10
233.6519406976144
 20
216.2324509672739
 30
0.0
 10
233.6577098958805
 20
216.2306584734042
 30
0.0
 10
233.6692472664216
 20
216.227073804441
 30
0.0
 10
233.7590913876329
 20
216.2052330629027
 30
0.0
 10
233.8665623827509
 20
216.1795490340383
 30
0.0
 10
233.952111537341
 20
216.1591406310887
 30
0.0
 10
233.9962189438293
 20
216.1486072608871
 30
0.0
 10
234.0184432777416
 20
216.1432841523207
 30
0.0
 10
234.0295796313825
 20
216.1406242743192
 30
0.0
 10
234.0351487549006
 20
216.1392876942031
 30
0.0
 10
234.0379303391814
 20
216.1386204533415
 30
0.0
 10
234.0393212907125
 20
216.1382870926304
 30
0.0
 10
234.0400166082165
 20
216.1381199614818
 30
0.0
 10
234.0403641721017
 20
216.1380358923907
 30
0.0
 10
234.0405383810244
 20
216.1379958282824
 30
0.0
 10
234.0406270112583
 20
216.137971700748
 30
0.0
 10
234.0406727715423
 20
216.1379656631021
 30
0.0
 10
234.0406970763948
 20
216.1379575199445
 30
0.0
 10
234.0651775774637
 20
216.1304167653277
 30
0.0
 10
234.1333618112786
 20
216.1185127620465
 30
0.0
 10
234.2238280118816
 20
216.0976127918321
 30
0.0
 10
234.3074746637166
 20
216.0806125030046
 30
0.0
 10
234.3709760842889
 20
216.0676920277696
 30
0.0
 10
234.4215262340213
 20
216.058053314884
 30
0.0
 10
234.4287425955575
 20
216.0575910423232
 30
0.0
 10
234.4325529279152
 20
216.0573469564237
 30
0.0
  0
ELLIPSE
  5
19B
330
1F
100
AcDbEntity
  8
0
  6
Continuous
 62
     7
370
    15
100
AcDbEllipse
 10
234.3090802002
 20
217.3545343879
 30
0.0
 11
0.3906095144045594
 21
-0.08616383961160068
 31
0.0
210
0.0
220
0.0
230
1.0
 40
0.0142285888
 41
0.0
 42
6.283185307179586
  0
LINE
  5
19C
330
1F
100
AcDbEntity
  8
0
  6
Continuous
 62
     7
370
    15
100
AcDbLine
 10
233.481978053
 20
217.3225593842
 30
0.0
 11
233.481978053
 21
216.3225592203
 31
0.0
  0
LINE
  5
19D
330
1F
100
AcDbEntity
  8
0
  6
Continuous
 62
     7
370
    15
100
AcDbLine
 10
227.2819774093
 20
217.3225593842
 30
0.0
 11
227.2819774093
 21
216.3225592203
 31
0.0
  0
LINE
  5
19E
330
1F
100
AcDbEntity
  8
0
  6
Continuous
 62
     7
370
    15
100
AcDbLine
 10
233.481978053
 20
217.3225593842
 30
0.0
 11
227.2819774093
 21
217.3225593842
 31
0.0
  0
LINE
  5
19F
330
1F
100
AcDbEntity
  8
0
  6
Continuous
 62
     7
370
    15
100
AcDbLine
 10
233.481978053
 20
216.3225592203
 30
0.0
 11
227.2819774093
 21
216.3225592203
 31
0.0
  0
LINE
  5
1A0
330
1F
100
AcDbEntity
  8
0
  6
Continuous
 62
     7
370
    15
100
AcDbLine
 10
233.481978053
 20
204.822559198
 30
0.0
 11
233.481978053
 21
203.8225590341
 31
0.0
  0
LINE
  5
1A1
330
1F
100
AcDbEntity
  8
0
  6
Continuous
 62
     7
370
    15
100
AcDbLine
 10
227.2819774093
 20
204.822559198
 30
0.0
 11
227.2819774093
 21
203.8225590341
 31
0.0
  0
LINE
  5
1A2
330
1F
100
AcDbEntity
  8
0
  6
Continuous
 62
     7
370
    15
100
AcDbLine
 10
233.481978053
 20
203.8225590341
 30
0.0
 11
227.2819774093
 21
203.8225590341
 31
0.0
  0
LINE
  5
1A3
330
1F
100
AcDbEntity
  8
0
  6
Continuous
 62
     7
370
    15
100
AcDbLine
 10
233.481978053
 20
204.822559198
 30
0.0
 11
227.2819774093
 21
204.822559198
 31
0.0
  0
LWPOLYLINE
  5
1A4
330
1F
100
AcDbEntity
  8
0
  6
Continuous
 62
     7
370
    15
100
AcDbPolyline
 90
        3
 70
   128
 43
0.0
 10
227.2032694759
 20
204.2114206679
 10
227.2058473768
 20
204.2052427396
 10
227.2819774093
 20
203.8225590341
  0
LWPOLYLINE
  5
1A5
330
1F
100
AcDbEntity
  8
0
  6
Continuous
 62
     7
370
    15
100
AcDbPolyline
 90
        3
 70
   128
 43
0.0
 10
227.2819774093
 20
217.3225593842
 10
227.2058473768
 20
216.9398756787
 10
227.2032694759
 20
216.9336977504
  0
LINE
  5
1A6
330
1F
100
AcDbEntity
  8
0
  6
Continuous
 62
     7
370
    15
100
AcDbLine
 10
233.481978053
 20
216.3225592203
 30
0.0
 11
233.481978053
 21
216.1725590095
 31
0.0
  0
LINE
  5
1A7
330
1F
100
AcDbEntity
  8
0
  6
Continuous
 62
     7
370
    15
100
AcDbLine
 10
233.481978053
 20
215.3725594371
 30
0.0
 11
233.481978053
 21
214.4725591034
 31
0.0
  0
LINE
  5
1A8
330
1F
100
AcDbEntity
  8
0
  6
Continuous
 62
     7
370
    15
100
AcDbLine
 10
233.481978053
 20
205.872559277
 30
0.0
 11
233.481978053
 21
204.822559198
 31
0.0
  0
LINE
  5
1A9
330
1F
100
AcDbEntity
  8
0
  6
Continuous
 62
     7
370
    15
100
AcDbLine
 10
246.481974596
 20
410.5725621894
 30
0.0
 11
85.4819714891
 21
410.5725621894
 31
0.0
  0
LINE
  5
1AA
330
1F
100
AcDbEntity
  8
0
  6
Continuous
 62
     7
370
    15
100
AcDbLine
 10
246.481974596
 20
410.5725621894
 30
0.0
 11
246.481974596
 21
395.5725615933
 31
0.0
  0
LINE
  5
1AB
330
1F
100
AcDbEntity
  8
0
  6
Continuous
 62
     7
370
    15
100
AcDbLine
 10
246.481974596
 20
395.5725615933
 30
0.0
 11
85.4819714891
 21
395.5725615933
 31
0.0
  0
LINE
  5
1AC
330
1F
100
AcDbEntity
  8
0
  6
Continuous
 62
     7
370
    15
100
AcDbLine
 10
85.4819714891
 20
410.5725621894
 30
0.0
 11
85.4819714891
 21
395.5725615933
 31
0.0
  0
LINE
  5
1AD
330
1F
100
AcDbEntity
  8
0
  6
Continuous
 62
     7
370
    15
100
AcDbLine
 10
226.4819787683
 20
30.5725520566
 30
0.0
 11
90.4819713773
 21
30.5725520566
 31
0.0
  0
LINE
  5
1AE
330
1F
100
AcDbEntity
  8
0
  6
Continuous
 62
     7
370
    15
100
AcDbLine
 10
226.4819787683
 20
30.5725520566
 30
0.0
 11
226.4819787683
 21
197.7600127548
 31
0.0
  0
LINE
  5
1AF
330
1F
100
AcDbEntity
  8
0
  6
Continuous
 62
     7
370
    15
100
AcDbLine
 10
226.4819787683
 20
201.0997988373
 30
0.0
 11
226.4819787683
 21
202.5725588292
 31
0.0
  0
LINE
  5
1B0
330
1F
100
AcDbEntity
  8
0
  6
Continuous
 62
     7
370
    15
100
AcDbLine
 10
226.4819787683
 20
218.5725595891
 30
0.0
 11
226.4819787683
 21
220.0319616213
 31
0.0
  0
LINE
  5
1B1
330
1F
100
AcDbEntity
  8
0
  6
Continuous
 62
     7
370
    15
100
AcDbLine
 10
226.4819787683
 20
223.3746776447
 30
0.0
 11
226.4819787683
 21
390.5725663617
 31
0.0
  0
LINE
  5
1B2
330
1F
100
AcDbEntity
  8
0
  6
Continuous
 62
     7
370
    15
100
AcDbLine
 10
226.4819787683
 20
390.5725663617
 30
0.0
 11
90.4819713773
 21
390.5725663617
 31
0.0
  0
LINE
  5
1B3
330
1F
100
AcDbEntity
  8
0
  6
Continuous
 62
     7
370
    15
100
AcDbLine
 10
90.4819713773
 20
390.5725663617
 30
0.0
 11
90.4819713773
 21
30.5725520566
 31
0.0
  0
LINE
  5
1B4
330
1F
100
AcDbEntity
  8
0
  6
Continuous
 62
     7
370
    15
100
AcDbLine
 10
246.481974596
 20
395.5725615933
 30
0.0
 11
246.481974596
 21
219.5484887898
 31
0.0
  0
LINE
  5
1B5
330
1F
100
AcDbEntity
  8
0
  6
Continuous
 62
     7
370
    15
100
AcDbLine
 10
246.481974596
 20
201.5646517366
 30
0.0
 11
246.481974596
 21
25.572556825
 31
0.0
  0
LINE
  5
1B6
330
1F
100
AcDbEntity
  8
0
  6
Continuous
 62
     7
370
    15
100
AcDbLine
 10
246.481974596
 20
25.572556825
 30
0.0
 11
85.4819714891
 21
25.572556825
 31
0.0
  0
LINE
  5
1B7
330
1F
100
AcDbEntity
  8
0
  6
Continuous
 62
     7
370
    15
100
AcDbLine
 10
85.4819714891
 20
395.5725615933
 30
0.0
 11
85.4819714891
 21
25.572556825
 31
0.0
  0
LINE
  5
1B8
330
1F
100
AcDbEntity
  8
0
  6
Continuous
 62
     7
370
    15
100
AcDbLine
 10
85.4819714891
 20
25.572556825
 30
0.0
 11
70.4819718244
 21
25.572556825
 31
0.0
  0
LINE
  5
1B9
330
1F
100
AcDbEntity
  8
0
  6
Continuous
 62
     7
370
    15
100
AcDbLine
 10
85.4819714891
 20
25.572556825
 30
0.0
 11
85.4819714891
 21
10.5725562289
 31
0.0
  0
ARC
  5
1BA
330
1F
100
AcDbEntity
  8
0
  6
Continuous
 62
     7
370
    15
100
AcDbCircle
 10
85.4819718065
 20
25.5725592092
 30
0.0
 40
15.00000000000001
100
AcDbArc
 50
180.0
 51
270.0
  0
LINE
  5
1BB
330
1F
100
AcDbEntity
  8
0
  6
Continuous
 62
     7
370
    15
100
AcDbLine
 10
70.4819718244
 20
395.5725615933
 30
0.0
 11
70.4819718244
 21
25.572556825
 31
0.0
  0
LINE
  5
1BC
330
1F
100
AcDbEntity
  8
0
  6
Continuous
 62
     7
370
    15
100
AcDbLine
 10
70.4819718244
 20
395.5725615933
 30
0.0
 11
85.4819714891
 21
395.5725615933
 31
0.0
  0
LINE
  5
1BD
330
1F
100
AcDbEntity
  8
0
  6
Continuous
 62
     7
370
    15
100
AcDbLine
 10
246.481974596
 20
25.572556825
 30
0.0
 11
246.481974596
 21
10.5725562289
 31
0.0
  0
LINE
  5
1BE
330
1F
100
AcDbEntity
  8
0
  6
Continuous
 62
     7
370
    15
100
AcDbLine
 10
246.481974596
 20
10.5725562289
 30
0.0
 11
85.4819714891
 21
10.5725562289
 31
0.0
  0
ARC
  5
1BF
330
1F
100
AcDbEntity
  8
0
  6
Continuous
 62
     7
370
    15
100
AcDbCircle
 10
85.4819718065
 20
395.5725592092
 30
0.0
 40
15.0
100
AcDbArc
 50
90.0
 51
180.0
  0
LINE
  5
1C0
330
1F
100
AcDbEntity
  8
0
  6
Continuous
 62
     7
370
    15
100
AcDbLine
 10
250.481967801
 20
390.5725663617
 30
0.0
 11
246.481974596
 21
390.5725663617
 31
0.0
  0
LINE
  5
1C1
330
1F
100
AcDbEntity
  8
0
  6
Continuous
 62
     7
370
    15
100
AcDbLine
 10
250.481967801
 20
30.5725520566
 30
0.0
 11
246.481974596
 21
30.5725520566
 31
0.0
  0
LINE
  5
1C2
330
1F
100
AcDbEntity
  8
0
  6
Continuous
 62
     7
370
    15
100
AcDbLine
 10
250.481967801
 20
15.5725663617
 30
0.0
 11
246.481974596
 21
15.5725663617
 31
0.0
  0
LINE
  5
1C3
330
1F
100
AcDbEntity
  8
0
  6
Continuous
 62
     7
370
    15
100
AcDbLine
 10
250.481967801
 20
405.5725520566
 30
0.0
 11
246.481974596
 21
405.5725520566
 31
0.0
  0
LINE
  5
1C4
330
1F
100
AcDbEntity
  8
0
  6
Continuous
 62
     7
370
    15
100
AcDbLine
 10
317.0244297949
 20
458.4373703125
 30
0.0
 11
318.2244203059
 21
458.4373703125
 31
0.0
  0
LINE
  5
1C5
330
1F
100
AcDbEntity
  8
0
  6
Continuous
 62
     7
370
    15
100
AcDbLine
 10
316.924413201
 20
460.9373828295
 30
0.0
 11
317.0244297949
 21
460.9373828295
 31
0.0
  0
LINE
  5
1C6
330
1F
100
AcDbEntity
  8
0
  6
Continuous
 62
     7
370
    15
100
AcDbLine
 10
317.0244297949
 20
466.9373800877
 30
0.0
 11
316.924413201
 21
466.9373800877
 31
0.0
  0
LINE
  5
1C7
330
1F
100
AcDbEntity
  8
0
  6
Continuous
 62
     7
370
    15
100
AcDbLine
 10
312.7761683432
 20
523.9373763922
 30
0.0
 11
312.0244345633
 21
523.6637612704
 31
0.0
  0
SPLINE
  5
1C8
330
1F
100
AcDbEntity
  8
0
  6
Continuous
 62
     7
370
    15
100
AcDbSpline
210
0.0
220
0.0
230
1.0
 70
     8
 71
     3
 72
    15
 73
    11
 74
     0
 42
0.00000001
 43
0.00000001
 40
0.0
 40
0.0
 40
0.0
 40
0.0
 40
0.1250747348448296
 40
0.2501516639445631
 40
0.3752905555426532
 40
0.5003035363655121
 40
0.625287151282555
 40
0.7502617870385373
 40
0.8750781845442345
 40
0.9999999999999999
 40
0.9999999999999999
 40
0.9999999999999999
 40
0.9999999999999999
 10
315.8388636080317
 20
488.9952113750807
 30
0.0
 10
315.8127304925748
 20
489.2539725294845
 30
0.0
 10
315.7604638031934
 20
489.7714993778816
 30
0.0
 10
315.681629504445
 20
490.5526147270569
 30
0.0
 10
315.6071837948441
 20
491.2897891157762
 30
0.0
 10
315.5402078701514
 20
491.953370189746
 30
0.0
 10
315.4840583381891
 20
492.5091215549947
 30
0.0
 10
315.4415809963372
 20
492.9302339127123
 30
0.0
 10
315.4127189484892
 20
493.2158243031256
 30
0.0
 10
315.4083692559229
 20
493.2588673141855
 30
0.0
 10
315.4061934916072
 20
493.2803979042402
 30
0.0
  0
SPLINE
  5
1C9
330
1F
100
AcDbEntity
  8
0
  6
Continuous
 62
     7
370
    15
100
AcDbSpline
210
0.0
220
0.0
230
1.0
 70
     8
 71
     3
 72
    15
 73
    11
 74
     0
 42
0.00000001
 43
0.00000001
 40
0.0
 40
0.0
 40
0.0
 40
0.0
 40
0.1249397774106945
 40
0.2497690172734843
 40
0.3747514136531435
 40
0.4997367742361576
 40
0.6247481890545774
 40
0.7498807406556697
 40
0.8749439791710037
 40
0.9999999999999999
 40
0.9999999999999999
 40
0.9999999999999999
 40
0.9999999999999999
 10
312.4219677416377
 20
492.9790219190946
 30
0.0
 10
312.4241445691088
 20
492.9574406103453
 30
0.0
 10
312.4284962981541
 20
492.9142970864051
 30
0.0
 10
312.4573407742522
 20
492.6285896084518
 30
0.0
 10
312.4998829817524
 20
492.2074047828981
 30
0.0
 10
312.5559672424375
 20
491.651634765473
 30
0.0
 10
312.6229615986165
 20
490.9881009672271
 30
0.0
 10
312.697396086391
 20
490.2510520912592
 30
0.0
 10
312.776252642816
 20
489.4701436831056
 30
0.0
 10
312.8284702188308
 20
488.9527885925986
 30
0.0
 10
312.8545782534175
 20
488.6941185119978
 30
0.0
  0
LINE
  5
1CA
330
1F
100
AcDbEntity
  8
0
  6
Continuous
 62
     7
370
    15
100
AcDbLine
 10
312.8543100325
 20
488.6939844015
 30
0.0
 11
314.4233725039
 21
473.1530120495
 31
0.0
  0
LINE
  5
1CB
330
1F
100
AcDbEntity
  8
0
  6
Continuous
 62
     7
370
    15
100
AcDbLine
 10
317.4082241026
 20
473.4543731335
 30
0.0
 11
315.8391318289
 21
488.9953454855
 31
0.0
  0
SPLINE
  5
1CC
330
1F
100
AcDbEntity
  8
0
  6
Continuous
 62
     7
370
    15
100
AcDbSpline
210
0.0
220
0.0
230
1.0
 70
     8
 71
     3
 72
     9
 73
     5
 74
     0
 42
0.00000001
 43
0.00000001
 40
0.0
 40
0.0
 40
0.0
 40
0.0
 40
0.4837396944284098
 40
1.0
 40
1.0
 40
1.0
 40
1.0
 10
314.5934543577723
 20
471.4716395262113
 30
0.0
 10
314.6029210816145
 20
471.4074074950809
 30
0.0
 10
314.6224909534926
 20
471.2746252738363
 30
0.0
 10
314.6563310964075
 20
471.2384834118892
 30
0.0
 10
314.6738014189295
 20
471.2198248031965
 30
0.0
  0
SPLINE
  5
1CD
330
1F
100
AcDbEntity
  8
0
  6
Continuous
 62
     7
370
    15
100
AcDbSpline
210
0.0
220
0.0
230
1.0
 70
     8
 71
     3
 72
    11
 73
     7
 74
     0
 42
0.00000001
 43
0.00000001
 40
0.0
 40
0.0
 40
0.0
 40
0.0
 40
0.2484459403349063
 40
0.4978885345951029
 40
0.7483891003831062
 40
1.0
 40
1.0
 40
1.0
 40
1.0
 10
314.4236705271296
 20
473.1531759622922
 30
0.0
 10
314.4416847418045
 20
472.974698785834
 30
0.0
 10
314.4777854361218
 20
472.6170284623595
 30
0.0
 10
314.5247864716582
 20
472.1521951302498
 30
0.0
 10
314.5635893278043
 20
471.7693129331007
 30
0.0
 10
314.5786205554613
 20
471.622023941582
 30
0.0
 10
314.5861527887873
 20
471.5482165935865
 30
0.0
  0
SPLINE
  5
1CE
330
1F
100
AcDbEntity
  8
0
  6
Continuous
 62
     7
370
    15
100
AcDbSpline
210
0.0
220
0.0
230
1.0
 70
     8
 71
     3
 72
    19
 73
    15
 74
     0
 42
0.00000001
 43
0.00000001
 40
0.0
 40
0.0
 40
0.0
 40
0.0
 40
0.080280222040227
 40
0.1534412850082278
 40
0.2193419118067342
 40
0.2779525977565788
 40
0.3728469100814392
 40
0.4421528589350319
 40
0.5315395174449103
 40
0.6554834679065943
 40
0.7303559755924375
 40
0.8130799138580646
 40
0.9031428795100213
 40
1.0
 40
1.0
 40
1.0
 40
1.0
 10
314.6091005770259
 20
471.3889976862303
 30
0.0
 10
314.6444608425867
 20
471.2661235190809
 30
0.0
 10
314.7120456654485
 20
471.0312715266155
 30
0.0
 10
314.9092756949526
 20
470.7368617244645
 30
0.0
 10
315.1341204881615
 20
470.5127164988658
 30
0.0
 10
315.4298070873023
 20
470.3196966420056
 30
0.0
 10
315.7717482952097
 20
470.2017871798884
 30
0.0
 10
316.1815010908819
 20
470.1719853161117
 30
0.0
 10
316.6205868055507
 20
470.2742882237088
 30
0.0
 10
317.007118257002
 20
470.5255254389217
 30
0.0
 10
317.2999636050546
 20
470.8662374284205
 30
0.0
 10
317.4807215827311
 20
471.2217104155694
 30
0.0
 10
317.5866495082854
 20
471.6486474975459
 30
0.0
 10
317.5543778971719
 20
471.9437135725036
 30
0.0
 10
317.5376555887751
 20
472.0966091278425
 30
0.0
  0
SPLINE
  5
1CF
330
1F
100
AcDbEntity
  8
0
  6
Continuous
 62
     7
370
    15
100
AcDbSpline
210
0.0
220
0.0
230
1.0
 70
     8
 71
     3
 72
    11
 73
     7
 74
     0
 42
0.00000001
 43
0.00000001
 40
0.0
 40
0.0
 40
0.0
 40
0.0
 40
0.247743179398645
 40
0.4969479496719227
 40
0.747680318514186
 40
1.0
 40
1.0
 40
1.0
 40
1.0
 10
317.5614378420405
 20
471.9289263609281
 30
0.0
 10
317.5549936447388
 20
471.9935518986288
 30
0.0
 10
317.5420672318134
 20
472.1231842402125
 30
0.0
 10
317.5061458870406
 20
472.4810612466927
 30
0.0
 10
317.4611302305528
 20
472.9273893635623
 30
0.0
 10
317.4256980636006
 20
473.2782534351961
 30
0.0
 10
317.4079260794215
 20
473.4542390230528
 30
0.0
  0
LINE
  5
1D0
330
1F
100
AcDbEntity
  8
0
  6
Continuous
 62
     7
370
    15
100
AcDbLine
 10
317.6917335955
 20
483.1090440873
 30
0.0
 11
317.6917335955
 21
483.4088703516
 31
0.0
  0
LINE
  5
1D1
330
1F
100
AcDbEntity
  8
0
  6
Continuous
 62
     7
370
    15
100
AcDbLine
 10
316.8917200533
 20
483.4088703516
 30
0.0
 11
316.8917200533
 21
483.1114878777
 31
0.0
  0
SPLINE
  5
1D2
330
1F
100
AcDbEntity
  8
0
  6
Continuous
 62
     7
370
    15
100
AcDbSpline
210
0.0
220
0.0
230
1.0
 70
    24
 71
     3
 72
    11
 73
     7
 74
     0
 42
0.00000001
 43
0.00000001
 40
0.0
 40
0.0
 40
0.0
 40
0.0
 40
0.0207833414794417
 40
0.3465559490330116
 40
0.6711464500042603
 40
0.9999999999999999
 40
0.9999999999999999
 40
0.9999999999999999
 40
0.9999999999999999
 10
316.8917200533442
 20
483.6951812628141
 30
0.0
 10
316.8917200533442
 20
483.6918595503183
 30
0.0
 10
316.8917200533444
 20
483.6364709965811
 30
0.0
 10
316.8917200533442
 20
483.5432386088055
 30
0.0
 10
316.8917200533442
 20
483.4305236237691
 30
0.0
 10
316.8917200533442
 20
483.3960068670606
 30
0.0
 10
316.8917200533442
 20
483.3786358955732
 30
0.0
  0
SPLINE
  5
1D3
330
1F
100
AcDbEntity
  8
0
  6
Continuous
 62
     7
370
    15
100
AcDbSpline
210
0.0
220
0.0
230
1.0
 70
    24
 71
     3
 72
    11
 73
     7
 74
     0
 42
0.00000001
 43
0.00000001
 40
0.0
 40
0.0
 40
0.0
 40
0.0
 40
0.2504889765616955
 40
0.4977290265096876
 40
0.745885531908482
 40
1.0
 40
1.0
 40
1.0
 40
1.0
 10
317.6917335955195
 20
483.3761772039762
 30
0.0
 10
317.6917335955196
 20
483.3923945038074
 30
0.0
 10
317.6917335955196
 20
483.4246187596144
 30
0.0
 10
317.6917335955195
 20
483.5333944588648
 30
0.0
 10
317.6917335955196
 20
483.6722332398988
 30
0.0
 10
317.6917335955196
 20
483.7792575269009
 30
0.0
 10
317.6917335955195
 20
483.8334044340482
 30
0.0
  0
LINE
  5
1D4
330
1F
100
AcDbEntity
  8
0
  6
Continuous
 62
     7
370
    15
100
AcDbLine
 10
316.6849813429
 20
483.9373698357
 30
0.0
 11
316.8938956229
 21
483.6901446703
 31
0.0
  0
LINE
  5
1D5
330
1F
100
AcDbEntity
  8
0
  6
Continuous
 62
     7
370
    15
100
AcDbLine
 10
317.6917335955
 20
483.833404434
 30
0.0
 11
317.6917335955
 21
483.9373698357
 31
0.0
  0
LINE
  5
1D6
330
1F
100
AcDbEntity
  8
0
  6
Continuous
 62
     7
370
    15
100
AcDbLine
 10
312.4153516261
 20
493.0754026297
 30
0.0
 11
312.3997352091
 21
493.5346266154
 31
0.0
  0
SPLINE
  5
1D7
330
1F
100
AcDbEntity
  8
0
  6
Continuous
 62
     7
370
    15
100
AcDbSpline
210
0.0
220
0.0
230
1.0
 70
     8
 71
     3
 72
    11
 73
     7
 74
     0
 42
0.00000001
 43
0.00000001
 40
0.0
 40
0.0
 40
0.0
 40
0.0
 40
0.1207539141565193
 40
0.4133919937289765
 40
0.7063576933459764
 40
0.9999999999999999
 40
0.9999999999999999
 40
0.9999999999999999
 40
0.9999999999999999
 10
314.4480190245204
 20
472.9119559648863
 30
0.0
 10
314.4579427890852
 20
472.8136607949832
 30
0.0
 10
314.4919160548579
 20
472.4771546324793
 30
0.0
 10
314.539247766422
 20
472.0082329379343
 30
0.0
 10
314.5821466627197
 20
471.5834958811395
 30
0.0
 10
314.5896822288569
 20
471.5089536374281
 30
0.0
 10
314.5934543577723
 20
471.4716395262113
 30
0.0
  0
LINE
  5
1D8
330
1F
100
AcDbEntity
  8
0
  6
Continuous
 62
     7
370
    15
100
AcDbLine
 10
318.2244203059
 20
522.9373743657
 30
0.0
 11
317.9244301287
 21
522.9373743657
 31
0.0
  0
LINE
  5
1D9
330
1F
100
AcDbEntity
  8
0
  6
Continuous
 62
     7
370
    15
100
AcDbLine
 10
317.9244301287
 20
521.9373797897
 30
0.0
 11
317.8244135348
 21
521.9373797897
 31
0.0
  0
LINE
  5
1DA
330
1F
100
AcDbEntity
  8
0
  6
Continuous
 62
     7
370
    15
100
AcDbLine
 10
317.8244135348
 20
515.9373750809
 30
0.0
 11
317.9244301287
 21
515.9373750809
 31
0.0
  0
LINE
  5
1DB
330
1F
100
AcDbEntity
  8
0
  6
Continuous
 62
     7
370
    15
100
AcDbLine
 10
317.9244301287
 20
498.9373704317
 30
0.0
 11
317.8244135348
 21
498.9373704317
 31
0.0
  0
LINE
  5
1DC
330
1F
100
AcDbEntity
  8
0
  6
Continuous
 62
     7
370
    15
100
AcDbLine
 10
317.8244135348
 20
492.9373731736
 30
0.0
 11
317.9244301287
 21
492.9373731736
 31
0.0
  0
LINE
  5
1DD
330
1F
100
AcDbEntity
  8
0
  6
Continuous
 62
     7
370
    15
100
AcDbLine
 10
333.2244209019
 20
466.9373800877
 30
0.0
 11
333.2244209019
 21
461.9373699549
 31
0.0
  0
LINE
  5
1DE
330
1F
100
AcDbEntity
  8
0
  6
Continuous
 62
     7
370
    15
100
AcDbLine
 10
803.2244197098
 20
466.9373800877
 30
0.0
 11
333.2244209019
 21
466.9373800877
 31
0.0
  0
LINE
  5
1DF
330
1F
100
AcDbEntity
  8
0
  6
Continuous
 62
     7
370
    15
100
AcDbLine
 10
803.2244197098
 20
466.9373800877
 30
0.0
 11
803.2244197098
 21
461.9373699549
 31
0.0
  0
LINE
  5
1E0
330
1F
100
AcDbEntity
  8
0
  6
Continuous
 62
     7
370
    15
100
AcDbLine
 10
803.2244197098
 20
461.9373699549
 30
0.0
 11
333.2244209019
 21
461.9373699549
 31
0.0
  0
LINE
  5
1E1
330
1F
100
AcDbEntity
  8
0
  6
Continuous
 62
     7
370
    15
100
AcDbLine
 10
318.2244203059
 20
466.9373800877
 30
0.0
 11
318.2244203059
 21
461.9373699549
 31
0.0
  0
LINE
  5
1E2
330
1F
100
AcDbEntity
  8
0
  6
Continuous
 62
     7
370
    15
100
AcDbLine
 10
318.2244203059
 20
461.9373699549
 30
0.0
 11
333.2244209019
 21
461.9373699549
 31
0.0
  0
LINE
  5
1E3
330
1F
100
AcDbEntity
  8
0
  6
Continuous
 62
     7
370
    15
100
AcDbLine
 10
318.2244203059
 20
466.9373800877
 30
0.0
 11
333.2244209019
 21
466.9373800877
 31
0.0
  0
LINE
  5
1E4
330
1F
100
AcDbEntity
  8
0
  6
Continuous
 62
     7
370
    15
100
AcDbLine
 10
803.2244197098
 20
461.9373699549
 30
0.0
 11
803.2244197098
 21
446.9373693589
 31
0.0
  0
LINE
  5
1E5
330
1F
100
AcDbEntity
  8
0
  6
Continuous
 62
     7
370
    15
100
AcDbLine
 10
803.2244197098
 20
446.9373693589
 30
0.0
 11
333.2244209019
 21
446.9373693589
 31
0.0
  0
LINE
  5
1E6
330
1F
100
AcDbEntity
  8
0
  6
Continuous
 62
     7
370
    15
100
AcDbLine
 10
333.2244209019
 20
446.9373693589
 30
0.0
 11
333.2244209019
 21
461.9373699549
 31
0.0
  0
ARC
  5
1E7
330
1F
100
AcDbEntity
  8
0
  6
Continuous
 62
     7
370
    15
100
AcDbCircle
 10
333.2244203059
 20
461.9373760823
 30
0.0
 40
15.0
100
AcDbArc
 50
180.0
 51
270.0
  0
LINE
  5
1E8
330
1F
100
AcDbEntity
  8
0
  6
Continuous
 62
     7
370
    15
100
AcDbLine
 10
818.2244203059
 20
466.9373800877
 30
0.0
 11
818.2244203059
 21
461.9373699549
 31
0.0
  0
LINE
  5
1E9
330
1F
100
AcDbEntity
  8
0
  6
Continuous
 62
     7
370
    15
100
AcDbLine
 10
818.2244203059
 20
461.9373699549
 30
0.0
 11
803.2244197098
 21
461.9373699549
 31
0.0
  0
LINE
  5
1EA
330
1F
100
AcDbEntity
  8
0
  6
Continuous
 62
     7
370
    15
100
AcDbLine
 10
818.2244203059
 20
466.9373800877
 30
0.0
 11
803.2244197098
 21
466.9373800877
 31
0.0
  0
ARC
  5
1EB
330
1F
100
AcDbEntity
  8
0
  6
Continuous
 62
     7
370
    15
100
AcDbCircle
 10
803.2244203059
 20
461.9373760823
 30
0.0
 40
15.0
100
AcDbArc
 50
270.0
 51
0.0
  0
LINE
  5
1EC
330
1F
100
AcDbEntity
  8
0
  6
Continuous
 62
     7
370
    15
100
AcDbLine
 10
317.0244297949
 20
464.9551382187
 30
0.0
 11
318.2244203059
 21
464.9551382187
 31
0.0
  0
LINE
  5
1ED
330
1F
100
AcDbEntity
  8
0
  6
Continuous
 62
     7
370
    15
100
AcDbLine
 10
317.0244297949
 20
462.851168764
 30
0.0
 11
318.2244203059
 21
462.851168764
 31
0.0
  0
LINE
  5
1EE
330
1F
100
AcDbEntity
  8
0
  6
Continuous
 62
     7
370
    15
100
AcDbLine
 10
317.0244297949
 20
462.851168764
 30
0.0
 11
317.0244297949
 21
464.9551382187
 31
0.0
  0
LINE
  5
1EF
330
1F
100
AcDbEntity
  8
0
  6
Continuous
 62
     7
370
    15
100
AcDbLine
 10
317.0244297949
 20
469.9373712662
 30
0.0
 11
318.2244203059
 21
469.9373712662
 31
0.0
  0
LINE
  5
1F0
330
1F
100
AcDbEntity
  8
0
  6
Continuous
 62
     7
370
    15
100
AcDbLine
 10
318.2244203059
 20
466.9373800877
 30
0.0
 11
318.2244203059
 21
469.9373712662
 31
0.0
  0
LINE
  5
1F1
330
1F
100
AcDbEntity
  8
0
  6
Continuous
 62
     7
370
    15
100
AcDbLine
 10
317.0244297949
 20
469.9373712662
 30
0.0
 11
317.0244297949
 21
464.9551382187
 31
0.0
  0
LINE
  5
1F2
330
1F
100
AcDbEntity
  8
0
  6
Continuous
 62
     7
370
    15
100
AcDbLine
 10
318.2244203059
 20
461.9373699549
 30
0.0
 11
318.2244203059
 21
458.4373703125
 31
0.0
  0
LINE
  5
1F3
330
1F
100
AcDbEntity
  8
0
  6
Continuous
 62
     7
370
    15
100
AcDbLine
 10
317.0244297949
 20
458.4373703125
 30
0.0
 11
317.0244297949
 21
462.851168764
 31
0.0
  0
LINE
  5
1F4
330
1F
100
AcDbEntity
  8
0
  6
Continuous
 62
     7
370
    15
100
AcDbLine
 10
316.924413201
 20
460.9373828295
 30
0.0
 11
316.924413201
 21
466.9373800877
 31
0.0
  0
ARC
  5
1F5
330
1F
100
AcDbEntity
  8
0
  6
Continuous
 62
     7
370
    15
100
AcDbCircle
 10
315.4244203059
 20
471.6373760823
 30
0.0
 40
2.800000000000011
100
AcDbArc
 50
0.0
 51
45.4024529621
  0
LINE
  5
1F6
330
1F
100
AcDbEntity
  8
0
  6
Continuous
 62
     7
370
    15
100
AcDbLine
 10
314.3167695967
 20
474.2089679364
 30
0.0
 11
313.7198886839
 21
473.858760846
 31
0.0
  0
LINE
  5
1F7
330
1F
100
AcDbEntity
  8
0
  6
Continuous
 62
     7
370
    15
100
AcDbLine
 10
310.9069666831
 20
470.1877554777
 30
0.0
 11
314.4504032103
 21
472.9067405585
 31
0.0
  0
LINE
  5
1F8
330
1F
100
AcDbEntity
  8
0
  6
Continuous
 62
     7
370
    15
100
AcDbLine
 10
310.1764521567
 20
471.1397906664
 30
0.0
 11
310.9069666831
 21
470.1877554777
 31
0.0
  0
LINE
  5
1F9
330
1F
100
AcDbEntity
  8
0
  6
Continuous
 62
     7
370
    15
100
AcDbLine
 10
313.7198886839
 20
473.858760846
 30
0.0
 11
310.1764521567
 21
471.1397906664
 31
0.0
  0
LINE
  5
1FA
330
1F
100
AcDbEntity
  8
0
  6
Continuous
 62
     7
370
    15
100
AcDbLine
 10
318.2244203059
 20
469.9373712662
 30
0.0
 11
318.2244203059
 21
470.9373732928
 31
0.0
  0
LINE
  5
1FB
330
1F
100
AcDbEntity
  8
0
  6
Continuous
 62
     7
370
    15
100
AcDbLine
 10
317.0244297949
 20
470.5783149126
 30
0.0
 11
317.0244297949
 21
469.9373712662
 31
0.0
  0
LINE
  5
1FC
330
1F
100
AcDbEntity
  8
0
  6
Continuous
 62
     7
370
    15
100
AcDbLine
 10
309.9549314944
 20
469.4572409514
 30
0.0
 11
309.224416968
 21
470.4092761401
 31
0.0
  0
LWPOLYLINE
  5
1FD
330
1F
100
AcDbEntity
  8
0
  6
Continuous
 62
     7
370
    15
100
AcDbPolyline
 90
        9
 70
   128
 43
0.0
 10
309.224416968
 20
470.4092761401
 10
309.242715594
 20
470.4233130339
 10
309.2968962161
 20
470.4648723725
 10
309.3848726718
 20
470.5323895338
 10
309.5032474963
 20
470.6232270125
 10
309.647520539
 20
470.733927739
 10
309.8121187655
 20
470.8602299813
 10
309.9907240836
 20
470.9972759608
 10
310.1764521567
 20
471.1397906664
  0
LWPOLYLINE
  5
1FE
330
1F
100
AcDbEntity
  8
0
  6
Continuous
 62
     7
370
    15
100
AcDbPolyline
 90
        9
 70
   128
 43
0.0
 10
310.9069666831
 20
470.1877554777
 10
310.7212386099
 20
470.0452407721
 10
310.5426332919
 20
469.9082096938
 10
310.3780350653
 20
469.7819074515
 10
310.2337620226
 20
469.671206725
 10
310.1153871981
 20
469.5803543452
 10
310.0274107424
 20
469.512852085
 10
309.9732301203
 20
469.4712778452
 10
309.9549314944
 20
469.4572409514
  0
ARC
  5
1FF
330
1F
100
AcDbEntity
  8
0
  6
Continuous
 62
     7
370
    15
100
AcDbCircle
 10
313.3244203059
 20
486.9573760823
 30
0.0
 40
2.200000000000049
100
AcDbArc
 50
103.5934783353
 51
268.1042765976
  0
LINE
  5
200
330
1F
100
AcDbEntity
  8
0
  6
Continuous
 62
     7
370
    15
100
AcDbLine
 10
309.7776076762
 20
488.3351495388
 30
0.0
 11
310.1112446753
 21
490.227373493
 31
0.0
  0
LWPOLYLINE
  5
201
330
1F
100
AcDbEntity
  8
0
  6
Continuous
 62
     7
370
    15
100
AcDbPolyline
 90
        9
 70
   128
 43
0.0
 10
310.1112446753
 20
490.227373493
 10
309.967001435
 20
490.2528097752
 10
309.8299703566
 20
490.2769794587
 10
309.7048602072
 20
490.2990331772
 10
309.5960221259
 20
490.3182258728
 10
309.5071814028
 20
490.3338869933
 10
309.4414374796
 20
490.3454800967
 10
309.4010851351
 20
490.3526028517
 10
309.3874654738
 20
490.3550019387
  0
LINE
  5
202
330
1F
100
AcDbEntity
  8
0
  6
Continuous
 62
     7
370
    15
100
AcDbLine
 10
309.3874654738
 20
490.3550019387
 30
0.0
 11
313.762506005
 21
515.1671042565
 31
0.0
  0
LWPOLYLINE
  5
203
330
1F
100
AcDbEntity
  8
0
  6
Continuous
 62
     7
370
    15
100
AcDbPolyline
 90
        9
 70
   128
 43
0.0
 10
313.762506005
 20
515.1671042565
 10
313.7776455847
 20
515.1644369486
 10
313.8224682776
 20
515.1565393332
 10
313.8952753512
 20
515.1436945322
 10
313.9932653872
 20
515.1264240864
 10
314.1126534907
 20
515.1053687456
 10
314.248850104
 20
515.0813480738
 10
314.3966398207
 20
515.0552859429
 10
314.5503601996
 20
515.0281956318
  0
LINE
  5
204
330
1F
100
AcDbEntity
  8
0
  6
Continuous
 62
     7
370
    15
100
AcDbLine
 10
314.5503601996
 20
515.0281956318
 30
0.0
 11
309.7250363795
 21
487.6623919133
 31
0.0
  0
LINE
  5
205
330
1F
100
AcDbEntity
  8
0
  6
Continuous
 62
     7
370
    15
100
AcDbLine
 10
309.7250363795
 20
487.6623919133
 30
0.0
 11
309.7776076762
 21
488.3351495388
 31
0.0
  0
LWPOLYLINE
  5
206
330
1F
100
AcDbEntity
  8
0
  6
Continuous
 62
     7
370
    15
100
AcDbPolyline
 90
        5
 70
   128
 43
0.0
 10
312.6098117796
 20
522.0554342392
 10
312.3563430277
 20
522.7518400076
 10
312.1727905242
 20
523.2561549071
 10
312.0616278616
 20
523.5615095023
 10
312.0244345633
 20
523.6637612704
  0
LWPOLYLINE
  5
207
330
1F
100
AcDbEntity
  8
0
  6
Continuous
 62
     7
370
    15
100
AcDbPolyline
 90
        5
 70
   128
 43
0.0
 10
313.369443175
 20
522.3074203256
 10
313.1125769583
 20
523.0130946163
 10
312.926550862
 20
523.5242118958
 10
312.8138980834
 20
523.8337239149
 10
312.7761683432
 20
523.9373763922
  0
LINE
  5
208
330
1F
100
AcDbEntity
  8
0
  6
Continuous
 62
     7
370
    15
100
AcDbLine
 10
313.5915300814
 20
521.9529738549
 30
0.0
 11
313.369443175
 21
522.3074203256
 31
0.0
  0
LINE
  5
209
330
1F
100
AcDbEntity
  8
0
  6
Continuous
 62
     7
370
    15
100
AcDbLine
 10
313.5093352763
 20
521.9230597738
 30
0.0
 11
313.5915300814
 21
521.9529738549
 31
0.0
  0
SPLINE
  5
20A
330
1F
100
AcDbEntity
  8
0
  6
Continuous
 62
     7
370
    15
100
AcDbSpline
210
0.0
220
0.0
230
1.0
 70
     8
 71
     3
 72
    12
 73
     8
 74
     0
 42
0.00000001
 43
0.00000001
 40
0.0
 40
0.0
 40
0.0
 40
0.0
 40
0.2510177057793779
 40
0.5023993650511631
 40
0.7402774422560285
 40
0.9473074508812208
 40
1.0
 40
1.0
 40
1.0
 40
1.0
 10
312.6098117796473
 20
522.0554342392317
 30
0.0
 10
312.6375136025026
 20
522.0111162265015
 30
0.0
 10
312.6929574134084
 20
521.922415943839
 30
0.0
 10
312.8999772707717
 20
521.8474269940859
 30
0.0
 10
313.161362498987
 20
521.8359312940992
 30
0.0
 10
313.3779465182305
 20
521.8775775903541
 30
0.0
 10
313.4871749887767
 20
521.915388658859
 30
0.0
 10
313.5093352762751
 20
521.9230597737661
 30
0.0
  0
LINE
  5
20B
330
1F
100
AcDbEntity
  8
0
  6
Continuous
 62
     7
370
    15
100
AcDbLine
 10
313.5093352763
 20
521.9230597738
 30
0.0
 11
314.0856525866
 21
520.3395729783
 31
0.0
  0
LWPOLYLINE
  5
20C
330
1F
100
AcDbEntity
  8
0
  6
Continuous
 62
     7
370
    15
100
AcDbPolyline
 90
        9
 70
   128
 43
0.0
 10
313.3339188067
 20
520.0659578565
 10
313.3483431307
 20
520.0712179664
 10
313.3911392657
 20
520.0867822293
 10
313.4606084792
 20
520.1120694998
 10
313.5540983645
 20
520.1460963014
 10
313.6680028407
 20
520.1875587824
 10
313.7979707686
 20
520.2348625186
 10
313.9389953581
 20
520.2861970189
 10
314.0856525866
 20
520.3395729783
  0
LINE
  5
20D
330
1F
100
AcDbEntity
  8
0
  6
Continuous
 62
     7
370
    15
100
AcDbLine
 10
313.3339188067
 20
520.0659578565
 30
0.0
 11
312.6098117796
 21
522.0554342392
 31
0.0
  0
ARC
  5
20E
330
1F
100
AcDbEntity
  8
0
  6
Continuous
 62
     7
370
    15
100
AcDbCircle
 10
313.914425812
 20
493.1263670007
 30
0.0
 40
1.60000000000005
100
AcDbArc
 50
347.034367059
 51
204.5705045338
  0
ARC
  5
20F
330
1F
100
AcDbEntity
  8
0
  6
Continuous
 62
     7
370
    15
100
AcDbCircle
 10
314.4271347773
 20
521.1494409366
 30
0.0
 40
0.4999999999998863
100
AcDbArc
 50
36.8410865502
 51
90.0
  0
ARC
  5
210
330
1F
100
AcDbEntity
  8
0
  6
Continuous
 62
     7
370
    15
100
AcDbCircle
 10
307.2244203059
 20
515.7530621282
 30
0.0
 40
9.5
100
AcDbArc
 50
0.0
 51
36.8410865502
  0
LINE
  5
211
330
1F
100
AcDbEntity
  8
0
  6
Continuous
 62
     7
370
    15
100
AcDbLine
 10
316.7244098155
 20
515.7530626181
 30
0.0
 11
316.7244098155
 21
487.7273758772
 31
0.0
  0
ARC
  5
212
330
1F
100
AcDbEntity
  8
0
  6
Continuous
 62
     7
370
    15
100
AcDbCircle
 10
304.4068332654
 20
516.8167665506
 30
0.0
 40
10.3000000000002
100
AcDbArc
 50
350.0
 51
20.0
  0
ARC
  5
213
330
1F
100
AcDbEntity
  8
0
  6
Continuous
 62
     7
370
    15
100
AcDbCircle
 10
314.3091222317
 20
522.6494409366
 30
0.0
 40
1.000000000000114
100
AcDbArc
 50
224.1440002858
 51
270.0
  0
LINE
  5
214
330
1F
100
AcDbEntity
  8
0
  6
Continuous
 62
     7
370
    15
100
AcDbLine
 10
314.3091103999
 20
521.6494446519
 30
0.0
 11
314.4271275965
 21
521.6494446519
 31
0.0
  0
LWPOLYLINE
  5
215
330
1F
100
AcDbEntity
  8
0
  6
Continuous
 62
     7
370
    15
100
AcDbPolyline
 90
        3
 70
   128
 43
0.0
 10
316.7244098155
 20
487.7273758772
 10
316.5157935587
 20
486.5371009234
 10
316.1596260039
 20
485.8209362152
  0
ARC
  5
216
330
1F
100
AcDbEntity
  8
0
  6
Continuous
 62
     7
370
    15
100
AcDbCircle
 10
313.2244203059
 20
487.7273760823
 30
0.0
 40
3.50000000000001
100
AcDbArc
 50
181.0639402281
 51
271.3221928089
  0
ARC
  5
217
330
1F
100
AcDbEntity
  8
0
  6
Continuous
 62
     7
370
    15
100
AcDbCircle
 10
304.4068332654
 20
516.8167665506
 30
0.0
 40
9.50000000000002
100
AcDbArc
 50
350.0
 51
20.0
  0
ARC
  5
218
330
1F
100
AcDbEntity
  8
0
  6
Continuous
 62
     7
370
    15
100
AcDbCircle
 10
313.8180380992
 20
488.4248716091
 30
0.0
 40
4.698428302688381
100
AcDbArc
 50
170.0
 51
264.3261771657
  0
LINE
  5
219
330
1F
100
AcDbEntity
  8
0
  6
Continuous
 62
     7
370
    15
100
AcDbLine
 10
309.3874654738
 20
490.3550019387
 30
0.0
 11
309.1909787623
 21
489.2407378081
 31
0.0
  0
SPLINE
  5
21A
330
1F
100
AcDbEntity
  8
0
  6
Continuous
 62
     7
370
    15
100
AcDbSpline
210
0.0
220
0.0
230
1.0
 70
     8
 71
     3
 72
    12
 73
     8
 74
     0
 42
0.00000001
 43
0.00000001
 40
0.0
 40
0.0
 40
0.0
 40
0.0
 40
0.2340466320167952
 40
0.4681094573094408
 40
0.7021595669891193
 40
0.9362183730738324
 40
1.0
 40
1.0
 40
1.0
 40
1.0
 10
314.5213923422389
 20
488.6144867065778
 30
0.0
 10
314.3250059152923
 20
488.5951080980931
 30
0.0
 10
313.9322194737669
 20
488.5563495403518
 30
0.0
 10
313.3947071660717
 20
488.5510932883236
 30
0.0
 10
313.0212582231138
 20
488.5895785637431
 30
0.0
 10
312.8419967722937
 20
488.6442367372877
 30
0.0
 10
312.8707440503345
 20
488.6881924095841
 30
0.0
 10
312.8769001928858
 20
488.6976053837171
 30
0.0
  0
SPLINE
  5
21B
330
1F
100
AcDbEntity
  8
0
  6
Continuous
 62
     7
370
    15
100
AcDbSpline
210
0.0
220
0.0
230
1.0
 70
     8
 71
     3
 72
    11
 73
     7
 74
     0
 42
0.00000001
 43
0.00000001
 40
0.0
 40
0.0
 40
0.0
 40
0.0
 40
0.1986860985321953
 40
0.4657897759992707
 40
0.7328907837825996
 40
1.0
 40
1.0
 40
1.0
 40
1.0
 10
315.8173165289454
 20
488.9933785322538
 30
0.0
 10
315.8161338100798
 20
488.9688849465648
 30
0.0
 10
315.8133611029829
 20
488.9114634063777
 30
0.0
 10
315.5438213731339
 20
488.8043896635249
 30
0.0
 10
315.0967693489181
 20
488.6935649195219
 30
0.0
 10
314.7131866424517
 20
488.640846380909
 30
0.0
 10
314.5213923422389
 20
488.6144867065778
 30
0.0
  0
SPLINE
  5
21C
330
1F
100
AcDbEntity
  8
0
  6
Continuous
 62
     7
370
    15
100
AcDbSpline
210
0.0
220
0.0
230
1.0
 70
     8
 71
     3
 72
    12
 73
     8
 74
     0
 42
0.00000001
 43
0.00000001
 40
0.0
 40
0.0
 40
0.0
 40
0.0
 40
0.2339746063686035
 40
0.4679314347940849
 40
0.7019014784153117
 40
0.9358644000539801
 40
1.0
 40
1.0
 40
1.0
 40
1.0
 10
313.9144382444911
 20
494.6263601902357
 30
0.0
 10
313.7183464577427
 20
494.6038600073742
 30
0.0
 10
313.326177783763
 20
494.5588613512684
 30
0.0
 10
312.8232533473879
 20
494.2113496114529
 30
0.0
 10
312.5034121362852
 20
493.7178741216225
 30
0.0
 10
312.3755299739678
 20
493.2642843836763
 30
0.0
 10
312.4332926173925
 20
493.0212886325492
 30
0.0
 10
312.4457201925807
 20
492.9690083387724
 30
0.0
  0
SPLINE
  5
21D
330
1F
100
AcDbEntity
  8
0
  6
Continuous
 62
     7
370
    15
100
AcDbSpline
210
0.0
220
0.0
230
1.0
 70
     8
 71
     3
 72
    11
 73
     7
 74
     0
 42
0.00000001
 43
0.00000001
 40
0.0
 40
0.0
 40
0.0
 40
0.0
 40
0.1976869012946596
 40
0.465132349840553
 40
0.7325626924186095
 40
1.0
 40
1.0
 40
1.0
 40
1.0
 10
315.3846464125209
 20
493.276076567494
 30
0.0
 10
315.366366276563
 20
493.4208253701602
 30
0.0
 10
315.3233554218338
 20
493.7614010495794
 30
0.0
 10
314.9978842843691
 20
494.2111621537593
 30
0.0
 10
314.5046046237479
 20
494.5589021708051
 30
0.0
 10
314.1111620787023
 20
494.6038739885524
 30
0.0
 10
313.9144382444911
 20
494.6263601902357
 30
0.0
  0
SPLINE
  5
21E
330
1F
100
AcDbEntity
  8
0
  6
Continuous
 62
     7
370
    15
100
AcDbSpline
210
0.0
220
0.0
230
1.0
 70
     8
 71
     3
 72
    12
 73
     8
 74
     0
 42
0.00000001
 43
0.00000001
 40
0.0
 40
0.0
 40
0.0
 40
0.0
 40
0.2350187178917189
 40
0.4700307124344081
 40
0.7050479913600315
 40
0.9400632363090582
 40
1.0
 40
1.0
 40
1.0
 40
1.0
 10
316.090484615951
 20
473.0735292557112
 30
0.0
 10
315.8940935040616
 20
473.0541450017639
 30
0.0
 10
315.501316898584
 20
473.0153770484085
 30
0.0
 10
314.9637148085283
 20
473.0101136937421
 30
0.0
 10
314.5906254664898
 20
473.0486378841293
 30
0.0
 10
314.411654243269
 20
473.1027588627132
 30
0.0
 10
314.4394995896948
 20
473.1460605261859
 30
0.0
 10
314.4451580015711
 20
473.1548597935072
 30
0.0
  0
SPLINE
  5
21F
330
1F
100
AcDbEntity
  8
0
  6
Continuous
 62
     7
370
    15
100
AcDbSpline
210
0.0
220
0.0
230
1.0
 70
     8
 71
     3
 72
    11
 73
     7
 74
     0
 42
0.00000001
 43
0.00000001
 40
0.0
 40
0.0
 40
0.0
 40
0.0
 40
0.198925981755524
 40
0.4659468739183512
 40
0.732981272131178
 40
1.0
 40
1.0
 40
1.0
 40
1.0
 10
317.38643860498
 20
473.4525253895155
 30
0.0
 10
317.385257075277
 20
473.4279932775015
 30
0.0
 10
317.3824895631267
 20
473.3705313974463
 30
0.0
 10
317.112930987788
 20
473.2634147982328
 30
0.0
 10
316.6658369920286
 20
473.1525938634151
 30
0.0
 10
316.2822649896827
 20
473.0998836093992
 30
0.0
 10
316.090484615951
 20
473.0735292557112
 30
0.0
  0
LINE
  5
220
330
1F
100
AcDbEntity
  8
0
  6
Continuous
 62
     7
370
    15
100
AcDbLine
 10
314.6135709254
 20
471.4711030844
 30
0.0
 11
314.6125576464
 21
471.674623144
 31
0.0
  0
ARC
  5
221
330
1F
100
AcDbEntity
  8
0
  6
Continuous
 62
     7
370
    15
100
AcDbCircle
 10
317.2917198864
 20
483.3751490384
 30
0.0
 40
0.4000150304833854
100
AcDbArc
 50
0.1472684924
 51
179.5005569488
  0
ELLIPSE
  5
222
330
1F
100
AcDbEntity
  8
0
  6
Continuous
 62
     7
370
    15
100
AcDbEllipse
 10
317.2917197062
 20
483.1102676885
 30
0.0
 11
0.3991830274373455
 21
-0.02624604221153959
 31
0.0
210
0.0
220
0.0
230
1.0
 40
0.9763157485
 41
0.0
 42
6.283185307179586
  0
SPLINE
  5
223
330
1F
100
AcDbEntity
  8
0
  6
Continuous
 62
     7
370
    15
100
AcDbSpline
210
0.0
220
0.0
230
1.0
 70
     8
 71
     3
 72
    13
 73
     9
 74
     0
 42
0.00000001
 43
0.00000001
 40
0.0
 40
0.0
 40
0.0
 40
0.0
 40
0.008167368037919
 40
0.2391706859696371
 40
0.4710907495309765
 40
0.6931257710527254
 40
0.9042227418905527
 40
1.0
 40
1.0
 40
1.0
 40
1.0
 10
317.2917268244319
 20
483.8390966776243
 30
0.0
 10
317.2900679134006
 20
483.8387044098114
 30
0.0
 10
317.2414888745393
 20
483.8272173601948
 30
0.0
 10
317.1453732207881
 20
483.8039356391058
 30
0.0
 10
317.0225407892174
 20
483.7603071342749
 30
0.0
 10
316.9368787325649
 20
483.7228587566941
 30
0.0
 10
316.8928492976175
 20
483.7017268694786
 30
0.0
 10
316.896099779207
 20
483.6967382426816
 30
0.0
 10
316.8971142736964
 20
483.6951812628141
 30
0.0
  0
SPLINE
  5
224
330
1F
100
AcDbEntity
  8
0
  6
Continuous
 62
     7
370
    15
100
AcDbSpline
210
0.0
220
0.0
230
1.0
 70
     8
 71
     3
 72
    13
 73
     9
 74
     0
 42
0.00000001
 43
0.00000001
 40
0.0
 40
0.0
 40
0.0
 40
0.0
 40
0.1252331227844872
 40
0.2499760561417319
 40
0.4999927820761884
 40
0.7499959496355044
 40
0.874777008862157
 40
1.0
 40
1.0
 40
1.0
 40
1.0
 10
317.6917335955195
 20
483.8334044340482
 30
0.0
 10
317.6900115912047
 20
483.8334342764583
 30
0.0
 10
317.6865743228712
 20
483.8334938444688
 30
0.0
 10
317.6522299551481
 20
483.8339682901455
 30
0.0
 10
317.5769326787417
 20
483.8350404225784
 30
0.0
 10
317.468285990366
 20
483.8365750441353
 30
0.0
 10
317.369571815859
 20
483.8380079260446
 30
0.0
 10
317.3177057161252
 20
483.8387333329974
 30
0.0
 10
317.2917268244319
 20
483.8390966776243
 30
0.0
  0
SPLINE
  5
225
330
1F
100
AcDbEntity
  8
0
  6
Continuous
 62
     7
370
    15
100
AcDbSpline
210
0.0
220
0.0
230
1.0
 70
     8
 71
     3
 72
    10
 73
     6
 74
     0
 42
0.00000001
 43
0.00000001
 40
0.0
 40
0.0
 40
0.0
 40
0.0
 40
0.0189736881922672
 40
0.5252969358884917
 40
1.0
 40
1.0
 40
1.0
 40
1.0
 10
317.2917268244319
 20
483.8390966776243
 30
0.0
 10
317.2932461689495
 20
483.8398369412387
 30
0.0
 10
317.3353100529743
 20
483.8603315443128
 30
0.0
 10
317.4178987788928
 20
483.8985912298551
 30
0.0
 10
317.4880395575095
 20
483.9247244063205
 30
0.0
 10
317.5219795671991
 20
483.9373698356977
 30
0.0
  0
LINE
  5
226
330
1F
100
AcDbEntity
  8
0
  6
Continuous
 62
     7
370
    15
100
AcDbLine
 10
312.4152026145
 20
493.0783381585
 30
0.0
 11
312.4276599852
 21
492.9275682095
 31
0.0
  0
LINE
  5
227
330
1F
100
AcDbEntity
  8
0
  6
Continuous
 62
     7
370
    15
100
AcDbLine
 10
315.4074153868
 20
493.2710697773
 30
0.0
 11
315.3718314139
 21
493.4812357548
 31
0.0
  0
LINE
  5
228
330
1F
100
AcDbEntity
  8
0
  6
Continuous
 62
     7
370
    15
100
AcDbLine
 10
803.2244197098
 20
646.9373760644
 30
0.0
 11
333.2244209019
 21
646.9373760644
 31
0.0
  0
LINE
  5
229
330
1F
100
AcDbEntity
  8
0
  6
Continuous
 62
     7
370
    15
100
AcDbLine
 10
803.2244197098
 20
631.9373763997
 30
0.0
 11
803.2244197098
 21
646.9373760644
 31
0.0
  0
LINE
  5
22A
330
1F
100
AcDbEntity
  8
0
  6
Continuous
 62
     7
370
    15
100
AcDbLine
 10
803.2244197098
 20
631.9373763997
 30
0.0
 11
333.2244209019
 21
631.9373763997
 31
0.0
  0
LINE
  5
22B
330
1F
100
AcDbEntity
  8
0
  6
Continuous
 62
     7
370
    15
100
AcDbLine
 10
333.2244209019
 20
631.9373763997
 30
0.0
 11
333.2244209019
 21
646.9373760644
 31
0.0
  0
LINE
  5
22C
330
1F
100
AcDbEntity
  8
0
  6
Continuous
 62
     7
370
    15
100
AcDbLine
 10
333.2244209019
 20
631.9373763997
 30
0.0
 11
318.2244203059
 21
631.9373763997
 31
0.0
  0
ARC
  5
22D
330
1F
100
AcDbEntity
  8
0
  6
Continuous
 62
     7
370
    15
100
AcDbCircle
 10
333.2244203059
 20
631.9373760823
 30
0.0
 40
15.0
100
AcDbArc
 50
90.0
 51
180.0
  0
LINE
  5
22E
330
1F
100
AcDbEntity
  8
0
  6
Continuous
 62
     7
370
    15
100
AcDbLine
 10
803.2244197098
 20
631.9373763997
 30
0.0
 11
818.2244203059
 21
631.9373763997
 31
0.0
  0
ARC
  5
22F
330
1F
100
AcDbEntity
  8
0
  6
Continuous
 62
     7
370
    15
100
AcDbCircle
 10
803.2244203059
 20
631.9373760823
 30
0.0
 40
15.0
100
AcDbArc
 50
0.0
 51
90.0
  0
LINE
  5
230
330
1F
100
AcDbEntity
  8
0
  6
Continuous
 62
     7
370
    15
100
AcDbLine
 10
818.2244203059
 20
470.9373732928
 30
0.0
 11
818.2244203059
 21
631.9373763997
 31
0.0
  0
LINE
  5
231
330
1F
100
AcDbEntity
  8
0
  6
Continuous
 62
     7
370
    15
100
AcDbLine
 10
818.2244203059
 20
470.9373732928
 30
0.0
 11
803.2244197098
 21
470.9373732928
 31
0.0
  0
LINE
  5
232
330
1F
100
AcDbEntity
  8
0
  6
Continuous
 62
     7
370
    15
100
AcDbLine
 10
803.2244197098
 20
470.9373732928
 30
0.0
 11
803.2244197098
 21
631.9373763997
 31
0.0
  0
LINE
  5
233
330
1F
100
AcDbEntity
  8
0
  6
Continuous
 62
     7
370
    15
100
AcDbLine
 10
338.2244161336
 20
490.9373691204
 30
0.0
 11
338.2244161336
 21
626.9373765114
 31
0.0
  0
LINE
  5
234
330
1F
100
AcDbEntity
  8
0
  6
Continuous
 62
     7
370
    15
100
AcDbLine
 10
338.2244161336
 20
490.9373691204
 30
0.0
 11
798.2244244782
 21
490.9373691204
 31
0.0
  0
LINE
  5
235
330
1F
100
AcDbEntity
  8
0
  6
Continuous
 62
     7
370
    15
100
AcDbLine
 10
798.2244244782
 20
626.9373765114
 30
0.0
 11
798.2244244782
 21
490.9373691204
 31
0.0
  0
LINE
  5
236
330
1F
100
AcDbEntity
  8
0
  6
Continuous
 62
     7
370
    15
100
AcDbLine
 10
798.2244244782
 20
626.9373765114
 30
0.0
 11
338.2244161336
 21
626.9373765114
 31
0.0
  0
LINE
  5
237
330
1F
100
AcDbEntity
  8
0
  6
Continuous
 62
     7
370
    15
100
AcDbLine
 10
333.2244209019
 20
470.9373732928
 30
0.0
 11
803.2244197098
 21
470.9373732928
 31
0.0
  0
LINE
  5
238
330
1F
100
AcDbEntity
  8
0
  6
Continuous
 62
     7
370
    15
100
AcDbLine
 10
333.2244209019
 20
470.9373732928
 30
0.0
 11
333.2244209019
 21
631.9373763997
 31
0.0
  0
LINE
  5
239
330
1F
100
AcDbEntity
  8
0
  6
Continuous
 62
     7
370
    15
100
AcDbLine
 10
333.2244209019
 20
470.9373732928
 30
0.0
 11
318.2244203059
 21
470.9373732928
 31
0.0
  0
LINE
  5
23A
330
1F
100
AcDbEntity
  8
0
  6
Continuous
 62
     7
370
    15
100
AcDbLine
 10
318.2244203059
 20
470.9373732928
 30
0.0
 11
318.2244203059
 21
631.9373763997
 31
0.0
  0
LINE
  5
23B
330
1F
100
AcDbEntity
  8
0
  6
Continuous
 62
     7
370
    15
100
AcDbLine
 10
338.2244161336
 20
466.9373800877
 30
0.0
 11
338.2244161336
 21
470.9373732928
 31
0.0
  0
LINE
  5
23C
330
1F
100
AcDbEntity
  8
0
  6
Continuous
 62
     7
370
    15
100
AcDbLine
 10
323.2244155375
 20
466.9373800877
 30
0.0
 11
323.2244155375
 21
470.9373732928
 31
0.0
  0
LINE
  5
23D
330
1F
100
AcDbEntity
  8
0
  6
Continuous
 62
     7
370
    15
100
AcDbLine
 10
813.2244250742
 20
466.9373800877
 30
0.0
 11
813.2244250742
 21
470.9373732928
 31
0.0
  0
LINE
  5
23E
330
1F
100
AcDbEntity
  8
0
  6
Continuous
 62
     7
370
    15
100
AcDbLine
 10
798.2244244782
 20
466.9373800877
 30
0.0
 11
798.2244244782
 21
470.9373732928
 31
0.0
  0
LINE
  5
23F
330
1F
100
AcDbEntity
  8
0
  6
Continuous
 62
     7
370
    15
100
AcDbLine
 10
818.2244203059
 20
470.9373732928
 30
0.0
 11
818.8917241065
 21
470.9373732928
 31
0.0
  0
ARC
  5
240
330
1F
100
AcDbEntity
  8
0
  6
Continuous
 62
     7
370
    15
100
AcDbCircle
 10
818.891738054
 20
471.4373760823
 30
0.0
 40
0.5
100
AcDbArc
 50
270.0
 51
332.720387264
  0
ARC
  5
241
330
1F
100
AcDbEntity
  8
0
  6
Continuous
 62
     7
370
    15
100
AcDbCircle
 10
818.6622714406
 20
466.4373760823
 30
0.0
 40
0.5
100
AcDbArc
 50
22.024312837
 51
90.0
  0
ARC
  5
242
330
1F
100
AcDbEntity
  8
0
  6
Continuous
 62
     7
370
    15
100
AcDbCircle
 10
824.2244203059
 20
468.6873760823
 30
0.0
 40
5.500000000000141
100
AcDbArc
 50
202.024312837
 51
152.720387264
  0
LINE
  5
243
330
1F
100
AcDbEntity
  8
0
  6
Continuous
 62
     7
370
    15
100
AcDbLine
 10
818.6622760264
 20
466.9373800877
 30
0.0
 11
818.2244203059
 21
466.9373800877
 31
0.0
  0
LINE
  5
244
330
1F
100
AcDbEntity
  8
0
  6
Continuous
 62
     7
370
    15
100
AcDbLine
 10
317.9244301287
 20
490.1373704794
 30
0.0
 11
318.2244203059
 21
490.138443363
 31
0.0
  0
LINE
  5
245
330
1F
100
AcDbEntity
  8
0
  6
Continuous
 62
     7
370
    15
100
AcDbLine
 10
318.2244203059
 20
492.1373745325
 30
0.0
 11
317.9244301287
 21
492.1373745325
 31
0.0
  0
LINE
  5
246
330
1F
100
AcDbEntity
  8
0
  6
Continuous
 62
     7
370
    15
100
AcDbLine
 10
317.9244301287
 20
490.1373704794
 30
0.0
 11
317.9244301287
 21
492.1373745325
 31
0.0
  0
ARC
  5
247
330
1F
100
AcDbEntity
  8
0
  6
Continuous
 62
     7
370
    15
100
AcDbCircle
 10
313.0244203059
 20
487.0373760823
 30
0.0
 40
3.099999999999968
100
AcDbArc
 50
192.3149032933
 51
270.0
  0
LINE
  5
248
330
1F
100
AcDbEntity
  8
0
  6
Continuous
 62
     7
370
    15
100
AcDbLine
 10
317.9244301287
 20
490.1373704794
 30
0.0
 11
316.7244098155
 21
490.1373704794
 31
0.0
  0
LINE
  5
249
330
1F
100
AcDbEntity
  8
0
  6
Continuous
 62
     7
370
    15
100
AcDbLine
 10
317.9244301287
 20
483.9373698357
 30
0.0
 11
317.9244301287
 21
490.1373704794
 31
0.0
  0
LINE
  5
24A
330
1F
100
AcDbEntity
  8
0
  6
Continuous
 62
     7
370
    15
100
AcDbLine
 10
313.0244216887
 20
483.9373698357
 30
0.0
 11
313.3345446555
 21
483.9373698357
 31
0.0
  0
LINE
  5
24B
330
1F
100
AcDbEntity
  8
0
  6
Continuous
 62
     7
370
    15
100
AcDbLine
 10
316.349794623
 20
483.9373698357
 30
0.0
 11
317.9244301287
 21
483.9373698357
 31
0.0
  0
LINE
  5
24C
330
1F
100
AcDbEntity
  8
0
  6
Continuous
 62
     7
370
    15
100
AcDbLine
 10
318.2244203059
 20
483.9373698357
 30
0.0
 11
317.9244301287
 21
483.9373698357
 31
0.0
  0
LINE
  5
24D
330
1F
100
AcDbEntity
  8
0
  6
Continuous
 62
     7
370
    15
100
AcDbLine
 10
317.9244301287
 20
492.1373745325
 30
0.0
 11
317.9244301287
 21
516.1873718623
 31
0.0
  0
LINE
  5
24E
330
1F
100
AcDbEntity
  8
0
  6
Continuous
 62
     7
370
    15
100
AcDbLine
 10
317.9244301287
 20
522.9373743657
 30
0.0
 11
317.9244301287
 21
516.1873718623
 31
0.0
  0
LINE
  5
24F
330
1F
100
AcDbEntity
  8
0
  6
Continuous
 62
     7
370
    15
100
AcDbLine
 10
317.8244135348
 20
515.9373750809
 30
0.0
 11
317.8244135348
 21
521.9373797897
 31
0.0
  0
LINE
  5
250
330
1F
100
AcDbEntity
  8
0
  6
Continuous
 62
     7
370
    15
100
AcDbLine
 10
317.8244135348
 20
492.9373731736
 30
0.0
 11
317.8244135348
 21
498.9373704317
 31
0.0
  0
LINE
  5
251
330
1F
100
AcDbEntity
  8
0
  6
Continuous
 62
     7
370
    15
100
AcDbLine
 10
317.9244301287
 20
506.937371743
 30
0.0
 11
316.7244098155
 21
507.2589089993
 31
0.0
  0
LINE
  5
252
330
1F
100
AcDbEntity
  8
0
  6
Continuous
 62
     7
370
    15
100
AcDbLine
 10
316.7244098155
 20
508.2941969756
 30
0.0
 11
317.9244301287
 21
507.9726448182
 31
0.0
  0
LINE
  5
253
330
1F
100
AcDbEntity
  8
0
  6
Continuous
 62
     8
370
    15
100
AcDbLine
 10
318.2244203059
 20
516.1873718623
 30
0.0
 11
317.9244301287
 21
516.1873718623
 31
0.0
  0
ENDSEC
  0
SECTION
  2
OBJECTS
  0
DICTIONARY
  5
C
330
0
100
AcDbDictionary
281
     1
  3
ACAD_GROUP
350
D
  3
ACAD_LAYOUT
350
1A
  3
ACAD_MLINESTYLE
350
17
  3
ACAD_PLOTSETTINGS
350
19
  3
ACAD_PLOTSTYLENAME
350
E
  0
DICTIONARY
  5
D
102
{ACAD_REACTORS
330
C
102
}
330
C
100
AcDbDictionary
281
     1
  0
DICTIONARY
  5
1A
102
{ACAD_REACTORS
330
C
102
}
330
C
100
AcDbDictionary
281
     1
  3
Layout1
350
1E
  3
Layout2
350
26
  3
Model
350
22
  0
DICTIONARY
  5
17
102
{ACAD_REACTORS
330
C
102
}
330
C
100
AcDbDictionary
281
     1
  3
Standard
350
18
  0
DICTIONARY
  5
19
102
{ACAD_REACTORS
330
C
102
}
330
C
100
AcDbDictionary
281
     1
  0
ACDBDICTIONARYWDFLT
  5
E
102
{ACAD_REACTORS
330
C
102
}
330
C
100
AcDbDictionary
281
     1
  3
Normal
350
F
100
AcDbDictionaryWithDefault
340
F
  0
LAYOUT
  5
1E
102
{ACAD_REACTORS
330
1A
102
}
330
1A
100
AcDbPlotSettings
  1

  2
none_device
  4

  6

 40
0.0
 41
0.0
 42
0.0
 43
0.0
 44
0.0
 45
0.0
 46
0.0
 47
0.0
 48
0.0
 49
0.0
140
0.0
141
0.0
142
1.0
143
1.0
 70
   688
 72
     0
 73
     0
 74
     5
  7

 75
    16
147
1.0
148
0.0
149
0.0
100
AcDbLayout
  1
Layout1
 70
     1
 71
     1
 10
0.0
 20
0.0
 11
420.0
 21
297.0
 12
0.0
 22
0.0
 32
0.0
 14
1.0000000000E+20
 24
1.0000000000E+20
 34
1.0000000000E+20
 15
-1.0000000000E+20
 25
-1.0000000000E+20
 35
-1.0000000000E+20
146
0.0
 13
0.0
 23
0.0
 33
0.0
 16
1.0
 26
0.0
 36
0.0
 17
0.0
 27
1.0
 37
0.0
 76
     0
330
1B
  0
LAYOUT
  5
26
102
{ACAD_REACTORS
330
1A
102
}
330
1A
100
AcDbPlotSettings
  1

  2
none_device
  4

  6

 40
0.0
 41
0.0
 42
0.0
 43
0.0
 44
0.0
 45
0.0
 46
0.0
 47
0.0
 48
0.0
 49
0.0
140
0.0
141
0.0
142
1.0
143
1.0
 70
   688
 72
     0
 73
     0
 74
     5
  7

 75
    16
147
1.0
148
0.0
149
0.0
100
AcDbLayout
  1
Layout2
 70
     1
 71
     2
 10
0.0
 20
0.0
 11
0.0
 21
0.0
 12
0.0
 22
0.0
 32
0.0
 14
0.0
 24
0.0
 34
0.0
 15
0.0
 25
0.0
 35
0.0
146
0.0
 13
0.0
 23
0.0
 33
0.0
 16
1.0
 26
0.0
 36
0.0
 17
0.0
 27
1.0
 37
0.0
 76
     0
330
23
  0
LAYOUT
  5
22
102
{ACAD_REACTORS
330
1A
102
}
330
1A
100
AcDbPlotSettings
  1

  2
none_device
  4

  6

 40
0.0
 41
0.0
 42
0.0
 43
0.0
 44
0.0
 45
0.0
 46
0.0
 47
0.0
 48
0.0
 49
0.0
140
0.0
141
0.0
142
1.0
143
1.0
 70
  1712
 72
     0
 73
     0
 74
     0
  7

 75
     0
147
1.0
148
0.0
149
0.0
100
AcDbLayout
  1
Model
 70
     1
 71
     0
 10
0.0
 20
0.0
 11
840.0
 21
594.0
 12
0.0
 22
0.0
 32
0.0
 14
0.0
 24
0.0
 34
0.0
 15
840.0
 25
594.0
 35
0.0
146
0.0
 13
0.0
 23
0.0
 33
0.0
 16
1.0
 26
0.0
 36
0.0
 17
0.0
 27
1.0
 37
0.0
 76
     0
330
1F
331
29
  0
MLINESTYLE
  5
18
102
{ACAD_REACTORS
330
17
102
}
330
17
100
AcDbMlineStyle
  2
Standard
 70
     0
  3

 62
   256
 51
90.0
 52
90.0
 71
     2
 49
0.5
 62
   256
  6
BYLAYER
 49
-0.5
 62
   256
  6
BYLAYER
  0
ACDBPLACEHOLDER
  5
F
102
{ACAD_REACTORS
330
E
102
}
330
E
  0
ENDSEC
  0
EOF
