  0
SECTION
  2
HEADER
  9
$ACADVER
  1
AC1015
  9
$ACADMAINTVER
 70
     6
  9
$DWGCODEPAGE
  3
DOS932
  9
$INSBASE
 10
0.0
 20
0.0
 30
0.0
  9
$EXTMIN
 10
0.0
 20
0.0
 30
0.0
  9
$EXTMAX
 10
840.0
 20
594.0
 30
0.0
  9
$LIMMIN
 10
0.0
 20
0.0
  9
$LIMMAX
 10
840.0
 20
594.0
  9
$ORTHOMODE
 70
     0
  9
$REGENMODE
 70
     1
  9
$FILLMODE
 70
     1
  9
$QTEXTMODE
 70
     0
  9
$MIRRTEXT
 70
     1
  9
$LTSCALE
 40
2.0
  9
$ATTMODE
 70
     1
  9
$TEXTSIZE
 40
7.0
  9
$TRACEWID
 40
1.0
  9
$TEXTSTYLE
  7
Standard
  9
$CLAYER
  8
0
  9
$CELTYPE
  6
ByLayer
  9
$CECOLOR
 62
   256
  9
$CELTSCALE
 40
1.0
  9
$DISPSILH
 70
     0
  9
$DIMSCALE
 40
1.0
  9
$DIMASZ
 40
6.0
  9
$DIMEXO
 40
2.0
  9
$DIMDLI
 40
3.75
  9
$DIMRND
 40
0.0
  9
$DIMDLE
 40
0.0
  9
$DIMEXE
 40
2.0
  9
$DIMTP
 40
0.0
  9
$DIMTM
 40
0.0
  9
$DIMTXT
 40
7.0
  9
$DIMCEN
 40
2.5
  9
$DIMTSZ
 40
0.0
  9
$DIMTOL
 70
     0
  9
$DIMLIM
 70
     0
  9
$DIMTIH
 70
     1
  9
$DIMTOH
 70
     1
  9
$DIMSE1
 70
     0
  9
$DIMSE2
 70
     0
  9
$DIMTAD
 70
     1
  9
$DIMZIN
 70
     0
  9
$DIMBLK
  1

  9
$DIMASO
 70
     1
  9
$DIMSHO
 70
     1
  9
$DIMPOST
  1

  9
$DIMAPOST
  1

  9
$DIMALT
 70
     0
  9
$DIMALTD
 70
     3
  9
$DIMALTF
 40
0.0393700787
  9
$DIMLFAC
 40
1.0
  9
$DIMTOFL
 70
     1
  9
$DIMTVP
 40
0.0
  9
$DIMTIX
 70
     0
  9
$DIMSOXD
 70
     0
  9
$DIMSAH
 70
     0
  9
$DIMBLK1
  1

  9
$DIMBLK2
  1

  9
$DIMSTYLE
  2
ISO-25
  9
$DIMCLRD
 70
     0
  9
$DIMCLRE
 70
     0
  9
$DIMCLRT
 70
     0
  9
$DIMTFAC
 40
1.0
  9
$DIMGAP
 40
3.048
  9
$DIMJUST
 70
     0
  9
$DIMSD1
 70
     0
  9
$DIMSD2
 70
     0
  9
$DIMTOLJ
 70
     0
  9
$DIMTZIN
 70
     0
  9
$DIMALTZ
 70
     0
  9
$DIMALTTZ
 70
     0
  9
$DIMUPT
 70
     0
  9
$DIMDEC
 70
     1
  9
$DIMTDEC
 70
     1
  9
$DIMALTU
 70
     2
  9
$DIMALTTD
 70
     3
  9
$DIMTXSTY
  7
Standard
  9
$DIMAUNIT
 70
     0
  9
$DIMADEC
 70
     2
  9
$DIMALTRND
 40
0.0
  9
$DIMAZIN
 70
     0
  9
$DIMDSEP
 70
    44
  9
$DIMATFIT
 70
     3
  9
$DIMFRAC
 70
     0
  9
$DIMLDRBLK
  1

  9
$DIMLUNIT
 70
     2
  9
$DIMLWD
 70
    -2
  9
$DIMLWE
 70
    -2
  9
$DIMTMOVE
 70
     0
  9
$LUNITS
 70
     2
  9
$LUPREC
 70
     1
  9
$SKETCHINC
 40
1.0
  9
$FILLETRAD
 40
10.0
  9
$AUNITS
 70
     0
  9
$AUPREC
 70
     2
  9
$MENU
  1
.
  9
$ELEVATION
 40
0.0
  9
$PELEVATION
 40
0.0
  9
$THICKNESS
 40
0.0
  9
$LIMCHECK
 70
     0
  9
$CHAMFERA
 40
10.0
  9
$CHAMFERB
 40
10.0
  9
$CHAMFERC
 40
20.0
  9
$CHAMFERD
 40
0.0
  9
$SKPOLY
 70
     0
  9
$TDCREATE
 40
2460440.693906412
  9
$TDUCREATE
 40
2460440.318906412
  9
$TDUPDATE
 40
2460440.693906424
  9
$TDUUPDATE
 40
2460440.318906424
  9
$TDINDWG
 40
0.0000000116
  9
$TDUSRTIMER
 40
0.0000000116
  9
$USRTIMER
 70
     1
  9
$ANGBASE
 50
0.0
  9
$ANGDIR
 70
     0
  9
$PDMODE
 70
     0
  9
$PDSIZE
 40
-1.0
  9
$PLINEWID
 40
0.0
  9
$SPLFRAME
 70
     0
  9
$SPLINETYPE
 70
     6
  9
$SPLINESEGS
 70
     8
  9
$HANDSEED
  5
252
  9
$SURFTAB1
 70
     6
  9
$SURFTAB2
 70
     6
  9
$SURFTYPE
 70
     6
  9
$SURFU
 70
     6
  9
$SURFV
 70
     6
  9
$UCSBASE
  2

  9
$UCSNAME
  2

  9
$UCSORG
 10
0.0
 20
0.0
 30
0.0
  9
$UCSXDIR
 10
1.0
 20
0.0
 30
0.0
  9
$UCSYDIR
 10
0.0
 20
1.0
 30
0.0
  9
$UCSORTHOREF
  2

  9
$UCSORTHOVIEW
 70
     0
  9
$UCSORGTOP
 10
0.0
 20
0.0
 30
0.0
  9
$UCSORGBOTTOM
 10
0.0
 20
0.0
 30
0.0
  9
$UCSORGLEFT
 10
0.0
 20
0.0
 30
0.0
  9
$UCSORGRIGHT
 10
0.0
 20
0.0
 30
0.0
  9
$UCSORGFRONT
 10
0.0
 20
0.0
 30
0.0
  9
$UCSORGBACK
 10
0.0
 20
0.0
 30
0.0
  9
$PUCSBASE
  2

  9
$PUCSNAME
  2

  9
$PUCSORG
 10
0.0
 20
0.0
 30
0.0
  9
$PUCSXDIR
 10
1.0
 20
0.0
 30
0.0
  9
$PUCSYDIR
 10
0.0
 20
1.0
 30
0.0
  9
$PUCSORTHOREF
  2

  9
$PUCSORTHOVIEW
 70
     0
  9
$PUCSORGTOP
 10
0.0
 20
0.0
 30
0.0
  9
$PUCSORGBOTTOM
 10
0.0
 20
0.0
 30
0.0
  9
$PUCSORGLEFT
 10
0.0
 20
0.0
 30
0.0
  9
$PUCSORGRIGHT
 10
0.0
 20
0.0
 30
0.0
  9
$PUCSORGFRONT
 10
0.0
 20
0.0
 30
0.0
  9
$PUCSORGBACK
 10
0.0
 20
0.0
 30
0.0
  9
$USERI1
 70
     0
  9
$USERI2
 70
     0
  9
$USERI3
 70
     0
  9
$USERI4
 70
     0
  9
$USERI5
 70
     0
  9
$USERR1
 40
0.0
  9
$USERR2
 40
0.0
  9
$USERR3
 40
0.0
  9
$USERR4
 40
0.0
  9
$USERR5
 40
0.0
  9
$WORLDVIEW
 70
     1
  9
$SHADEDGE
 70
     3
  9
$SHADEDIF
 70
    70
  9
$TILEMODE
 70
     1
  9
$MAXACTVP
 70
    64
  9
$PINSBASE
 10
0.0
 20
0.0
 30
0.0
  9
$PLIMCHECK
 70
     0
  9
$PEXTMIN
 10
1.0000000000E+20
 20
1.0000000000E+20
 30
1.0000000000E+20
  9
$PEXTMAX
 10
-1.0000000000E+20
 20
-1.0000000000E+20
 30
-1.0000000000E+20
  9
$PLIMMIN
 10
0.0
 20
0.0
  9
$PLIMMAX
 10
420.0
 20
297.0
  9
$UNITMODE
 70
     0
  9
$VISRETAIN
 70
     1
  9
$PLINEGEN
 70
     0
  9
$PSLTSCALE
 70
     1
  9
$TREEDEPTH
 70
  3020
  9
$CMLSTYLE
  2
Standard
  9
$CMLJUST
 70
     0
  9
$CMLSCALE
 40
20.0
  9
$PROXYGRAPHICS
 70
     1
  9
$MEASUREMENT
 70
     1
  9
$CELWEIGHT
370
    -1
  9
$ENDCAPS
280
     0
  9
$JOINSTYLE
280
     0
  9
$LWDISPLAY
290
     1
  9
$INSUNITS
 70
     4
  9
$HYPERLINKBASE
  1

  9
$STYLESHEET
  1

  9
$XEDIT
290
     1
  9
$CEPSNTYPE
380
     0
  9
$PSTYLEMODE
290
     1
  9
$FINGERPRINTGUID
  2
{BDDE5FD5-C4E1-4EB0-8468-E89DF887E222}
  9
$VERSIONGUID
  2
{FAEB1C32-E019-11D5-929B-00C0DF256EC4}
  9
$EXTNAMES
290
     1
  9
$PSVPSCALE
 40
0.0
  9
$OLESTARTUP
290
     0
  0
ENDSEC
  0
SECTION
  2
CLASSES
  0
CLASS
  1
ACDBDICTIONARYWDFLT
  2
AcDbDictionaryWithDefault
  3
ObjectDBX Classes
 90
        0
280
     0
281
     0
  0
CLASS
  1
VISUALSTYLE
  2
AcDbVisualStyle
  3
ObjectDBX Classes
 90
     4095
280
     0
281
     0
  0
CLASS
  1
MATERIAL
  2
AcDbMaterial
  3
ObjectDBX Classes
 90
     1153
280
     0
281
     0
  0
CLASS
  1
ACDBPLACEHOLDER
  2
AcDbPlaceHolder
  3
ObjectDBX Classes
 90
        0
280
     0
281
     0
  0
CLASS
  1
LAYOUT
  2
AcDbLayout
  3
ObjectDBX Classes
 90
        0
280
     0
281
     0
  0
ENDSEC
  0
SECTION
  2
TABLES
  0
TABLE
  2
VPORT
  5
8
330
0
100
AcDbSymbolTable
 70
     1
  0
VPORT
  5
29
330
8
100
AcDbSymbolTableRecord
100
AcDbViewportTableRecord
  2
*Active
 70
     0
 10
0.0
 20
0.0
 11
1.0
 21
1.0
 12
420.0
 22
297.0
 13
0.0
 23
0.0
 14
10.0
 24
10.0
 15
10.0
 25
10.0
 16
0.0
 26
0.0
 36
1.0
 17
0.0
 27
0.0
 37
0.0
 40
594.0
 41
1.4141414141
 42
50.0
 43
0.0
 44
0.0
 50
0.0
 51
0.0
 71
     0
 72
  2000
 73
     1
 74
     3
 75
     0
 76
     0
 77
     0
 78
     0
281
     0
 65
     1
110
0.0
120
0.0
130
0.0
111
1.0
121
0.0
131
0.0
112
0.0
122
1.0
132
0.0
 79
     0
146
0.0
  0
ENDTAB
  0
TABLE
  2
LTYPE
  5
5
330
0
100
AcDbSymbolTable
 70
     6
  0
LTYPE
  5
14
330
5
100
AcDbSymbolTableRecord
100
AcDbLinetypeTableRecord
  2
ByBlock
 70
     0
  3

 72
    65
 73
     0
 40
0.0
  0
LTYPE
  5
15
330
5
100
AcDbSymbolTableRecord
100
AcDbLinetypeTableRecord
  2
ByLayer
 70
     0
  3

 72
    65
 73
     0
 40
0.0
  0
LTYPE
  5
16
330
5
100
AcDbSymbolTableRecord
100
AcDbLinetypeTableRecord
  2
Continuous
 70
     0
  3
Solid line
 72
    65
 73
     0
 40
0.0
  0
LTYPE
  5
3F
330
5
100
AcDbSymbolTableRecord
100
AcDbLinetypeTableRecord
  2
HIDDEN
 70
     0
  3
Hidden __ __ __ __ __ __ __ __ __ __ __ __ __ __
 72
    65
 73
     2
 40
1.905
 49
1.27
 74
     0
 49
-0.635
 74
     0
  0
LTYPE
  5
40
330
5
100
AcDbSymbolTableRecord
100
AcDbLinetypeTableRecord
  2
PHANTOM
 70
     0
  3
Phantom ______  __  __  ______  __  __  ______
 72
    65
 73
     6
 40
12.7
 49
6.35
 74
     0
 49
-1.27
 74
     0
 49
1.27
 74
     0
 49
-1.27
 74
     0
 49
1.27
 74
     0
 49
-1.27
 74
     0
  0
LTYPE
  5
41
330
5
100
AcDbSymbolTableRecord
100
AcDbLinetypeTableRecord
  2
CENTER
 70
     0
  3
Center ____ _ ____ _ ____ _ ____ _ ____ _ ____
 72
    65
 73
     4
 40
10.16
 49
6.35
 74
     0
 49
-1.27
 74
     0
 49
1.27
 74
     0
 49
-1.27
 74
     0
  0
LTYPE
  5
42
330
5
100
AcDbSymbolTableRecord
100
AcDbLinetypeTableRecord
  2
CENTERX2
 70
     0
  3
Center (2x) ________  __  ________  __  _____
 72
    65
 73
     4
 40
20.32
 49
12.7
 74
     0
 49
-2.54
 74
     0
 49
2.54
 74
     0
 49
-2.54
 74
     0
  0
LTYPE
  5
43
330
5
100
AcDbSymbolTableRecord
100
AcDbLinetypeTableRecord
  2
DOT2
 70
     0
  3
Dot (.5x) ........................................
 72
    65
 73
     2
 40
0.635
 49
0.0
 74
     0
 49
-0.635
 74
     0
  0
ENDTAB
  0
TABLE
  2
LAYER
  5
2
330
0
100
AcDbSymbolTable
 70
     1
  0
LAYER
  5
10
330
2
100
AcDbSymbolTableRecord
100
AcDbLayerTableRecord
  2
0
 70
     0
 62
     7
  6
Continuous
370
    -3
390
F
  0
ENDTAB
  0
TABLE
  2
STYLE
  5
3
330
0
100
AcDbSymbolTable
 70
     2
  0
STYLE
  5
11
330
3
100
AcDbSymbolTableRecord
100
AcDbTextStyleTableRecord
  2
Standard
 70
     0
 40
0.0
 41
1.0
 50
0.0
 71
     0
 42
2.5
  3
txt
  4
bigfont
  0
STYLE
  5
44
330
3
100
AcDbSymbolTableRecord
100
AcDbTextStyleTableRecord
  2
SLDTEXTSTYLE0
 70
     0
 40
0.0
 41
0.7
 50
0.0
 71
     0
 42
0.2
  3
TXT
  4
bigfont
  0
ENDTAB
  0
TABLE
  2
VIEW
  5
6
330
0
100
AcDbSymbolTable
 70
     0
  0
ENDTAB
  0
TABLE
  2
UCS
  5
7
330
0
100
AcDbSymbolTable
 70
     0
  0
ENDTAB
  0
TABLE
  2
APPID
  5
9
330
0
100
AcDbSymbolTable
 70
     1
  0
APPID
  5
12
330
9
100
AcDbSymbolTableRecord
100
AcDbRegAppTableRecord
  2
ACAD
 70
     0
  0
ENDTAB
  0
TABLE
  2
DIMSTYLE
  5
A
330
0
100
AcDbSymbolTable
 70
     1
100
AcDbDimStyleTable
  0
DIMSTYLE
105
27
330
A
100
AcDbSymbolTableRecord
100
AcDbDimStyleTableRecord
  2
ISO-25
 70
     0
 41
2.5
 42
0.625
 43
3.75
 44
1.25
 73
     0
 74
     0
 77
     1
 78
     8
140
2.5
141
2.5
143
0.0393700787
147
0.625
171
     3
172
     1
178
     0
271
     2
272
     2
274
     3
278
    44
283
     0
284
     8
340
11
  0
ENDTAB
  0
TABLE
  2
BLOCK_RECORD
  5
1
330
0
100
AcDbSymbolTable
 70
     1
  0
BLOCK_RECORD
  5
1F
330
1
100
AcDbSymbolTableRecord
100
AcDbBlockTableRecord
  2
*Model_Space
340
22
  0
BLOCK_RECORD
  5
1B
330
1
100
AcDbSymbolTableRecord
100
AcDbBlockTableRecord
  2
*Paper_Space
340
1E
  0
BLOCK_RECORD
  5
23
330
1
100
AcDbSymbolTableRecord
100
AcDbBlockTableRecord
  2
*Paper_Space0
340
26
  0
ENDTAB
  0
ENDSEC
  0
SECTION
  2
BLOCKS
  0
BLOCK
  5
20
330
1F
100
AcDbEntity
  8
0
100
AcDbBlockBegin
  2
*Model_Space
 70
     0
 10
0.0
 20
0.0
 30
0.0
  3
*Model_Space
  1

  0
ENDBLK
  5
21
330
1F
100
AcDbEntity
  8
0
100
AcDbBlockEnd
  0
BLOCK
  5
1C
330
1B
100
AcDbEntity
 67
     1
  8
0
100
AcDbBlockBegin
  2
*Paper_Space
 70
     0
 10
0.0
 20
0.0
 30
0.0
  3
*Paper_Space
  1

  0
ENDBLK
  5
1D
330
1B
100
AcDbEntity
 67
     1
  8
0
100
AcDbBlockEnd
  0
BLOCK
  5
24
330
23
100
AcDbEntity
  8
0
100
AcDbBlockBegin
  2
*Paper_Space0
 70
     0
 10
0.0
 20
0.0
 30
0.0
  3
*Paper_Space0
  1

  0
ENDBLK
  5
25
330
23
100
AcDbEntity
  8
0
100
AcDbBlockEnd
  0
ENDSEC
  0
SECTION
  2
ENTITIES
  0
MTEXT
  5
45
330
1F
100
AcDbEntity
  8
0
  6
Continuous
 62
     7
370
     0
100
AcDbMText
 10
161.3903750885
 20
445.1589305758
 30
0.0
 40
7.0
 41
0.0
 71
     1
 72
     1
  1
CHB-519P
  7
SLDTEXTSTYLE0
 73
     1
 44
1.0
  0
LINE
  5
46
330
1F
100
AcDbEntity
  8
0
  6
Continuous
 62
     7
370
    15
100
AcDbLine
 10
336.1120349822
 20
213.1947630108
 30
0.0
 11
336.212036675
 21
213.1947630108
 31
0.0
  0
LINE
  5
47
330
1F
100
AcDbEntity
  8
0
  6
Continuous
 62
     7
370
    15
100
AcDbLine
 10
336.212036675
 20
219.1947632958
 30
0.0
 11
336.1120349822
 21
219.1947632958
 31
0.0
  0
LINE
  5
48
330
1F
100
AcDbEntity
  8
0
  6
Continuous
 62
     7
370
    15
100
AcDbLine
 10
336.1120349822
 20
203.1947625358
 30
0.0
 11
336.212036675
 21
203.1947625358
 31
0.0
  0
LINE
  5
49
330
1F
100
AcDbEntity
  8
0
  6
Continuous
 62
     7
370
    15
100
AcDbLine
 10
336.212036675
 20
209.1947628208
 30
0.0
 11
336.1120349822
 21
209.1947628208
 31
0.0
  0
LINE
  5
4A
330
1F
100
AcDbEntity
  8
0
  6
Continuous
 62
     7
370
    15
100
AcDbLine
 10
337.412027186
 20
222.6947629381
 30
0.0
 11
336.212036675
 21
222.6947629381
 31
0.0
  0
LINE
  5
4B
330
1F
100
AcDbEntity
  8
0
  6
Continuous
 62
     7
370
    15
100
AcDbLine
 10
336.212036675
 20
199.6947628934
 30
0.0
 11
337.412027186
 21
199.6947628934
 31
0.0
  0
LINE
  5
4C
330
1F
100
AcDbEntity
  8
0
  6
Continuous
 62
     7
370
    15
100
AcDbLine
 10
748.9120341001
 20
270.1947632734
 30
0.0
 11
748.9120341001
 21
305.1947596971
 31
0.0
  0
LINE
  5
4D
330
1F
100
AcDbEntity
  8
0
  6
Continuous
 62
     7
370
    15
100
AcDbLine
 10
748.9120341001
 20
117.1947661344
 30
0.0
 11
748.9120341001
 21
152.1947625582
 31
0.0
  0
LINE
  5
4E
330
1F
100
AcDbEntity
  8
0
  6
Continuous
 62
     7
370
    15
100
AcDbLine
 10
328.3072239814
 20
215.09476281
 30
0.0
 11
328.3072239814
 21
206.4947629836
 31
0.0
  0
LINE
  5
4F
330
1F
100
AcDbEntity
  8
0
  6
Continuous
 62
     7
370
    15
100
AcDbLine
 10
328.912032312
 20
203.9947630395
 30
0.0
 11
328.912032312
 21
203.1950167869
 31
0.0
  0
LINE
  5
50
330
1F
100
AcDbEntity
  8
0
  6
Continuous
 62
     7
370
    15
100
AcDbLine
 10
328.912032312
 20
219.1945090447
 30
0.0
 11
328.912032312
 21
218.3947627921
 31
0.0
  0
LINE
  5
51
330
1F
100
AcDbEntity
  8
0
  6
Continuous
 62
     7
370
    15
100
AcDbLine
 10
330.3120262084
 20
219.4947627861
 30
0.0
 11
330.3120262084
 21
219.1947632958
 31
0.0
  0
ARC
  5
52
330
1F
100
AcDbEntity
  8
0
  6
Continuous
 62
     7
370
    15
100
AcDbCircle
 10
332.5120301662
 20
216.3876200587
 30
0.0
 40
3.807142857143176
100
AcDbArc
 50
77.9663271603
 51
90.0
  0
ARC
  5
53
330
1F
100
AcDbEntity
  8
0
  6
Continuous
 62
     7
370
    15
100
AcDbCircle
 10
332.5120301662
 20
216.3876200587
 30
0.0
 40
3.807142857143221
100
AcDbArc
 50
90.0
 51
125.3002484399
  0
LINE
  5
54
330
1F
100
AcDbEntity
  8
0
  6
Continuous
 62
     7
370
    15
100
AcDbLine
 10
330.4120279012
 20
202.7947632153
 30
0.0
 11
330.4120279012
 21
202.3947629635
 31
0.0
  0
ARC
  5
55
330
1F
100
AcDbEntity
  8
0
  6
Continuous
 62
     7
370
    15
100
AcDbCircle
 10
330.6120301662
 20
203.1947629158
 30
0.0
 40
0.4000000000007731
100
AcDbArc
 50
270.0
 51
0.0
  0
LINE
  5
56
330
1F
100
AcDbEntity
  8
0
  6
Continuous
 62
     7
370
    15
100
AcDbLine
 10
331.0120231567
 20
218.3947627921
 30
0.0
 11
331.0120231567
 21
217.9447630909
 31
0.0
  0
LINE
  5
57
330
1F
100
AcDbEntity
  8
0
  6
Continuous
 62
     7
370
    15
100
AcDbLine
 10
331.0120231567
 20
204.4447627407
 30
0.0
 11
331.0120231567
 21
203.9947630395
 31
0.0
  0
SPLINE
  5
58
330
1F
100
AcDbEntity
  8
0
  6
Continuous
 62
     7
370
    15
100
AcDbSpline
210
0.0
220
0.0
230
1.0
 70
     8
 71
     3
 72
    11
 73
     7
 74
     0
 42
0.00000001
 43
0.00000001
 40
0.0
 40
0.0
 40
0.0
 40
0.0
 40
0.2262211333386928
 40
0.4679442160813388
 40
0.7254890556036399
 40
1.0
 40
1.0
 40
1.0
 40
1.0
 10
333.7325430570094
 20
219.4251976464306
 30
0.0
 10
333.7353623900277
 20
219.4022986669348
 30
0.0
 10
333.741194252682
 20
219.3549315405702
 30
0.0
 10
333.7579850405551
 20
219.0301413257554
 30
0.0
 10
333.771577322661
 20
218.5296560881408
 30
0.0
 10
333.7721125927146
 20
218.1058290019754
 30
0.0
 10
333.7723887620417
 20
217.8871579956626
 30
0.0
  0
SPLINE
  5
59
330
1F
100
AcDbEntity
  8
0
  6
Continuous
 62
     7
370
    15
100
AcDbSpline
210
0.0
220
0.0
230
1.0
 70
     8
 71
     3
 72
    12
 73
     8
 74
     0
 42
0.00000001
 43
0.00000001
 40
0.0
 40
0.0
 40
0.0
 40
0.0
 40
0.2489445739028115
 40
0.4822862098310756
 40
0.6998114639483098
 40
0.9035368778110593
 40
1.0
 40
1.0
 40
1.0
 40
1.0
 10
333.7723887620417
 20
204.328527164123
 30
0.0
 10
333.7709629155243
 20
204.1911936452295
 30
0.0
 10
333.7682005893489
 20
203.9251341715423
 30
0.0
 10
333.7572993655032
 20
203.5893186188952
 30
0.0
 10
333.7547892111432
 20
203.356152560729
 30
0.0
 10
333.7595783534366
 20
203.2360434584682
 30
0.0
 10
333.7860088591706
 20
203.23469719388
 30
0.0
 10
333.7945020852534
 20
203.2342645828043
 30
0.0
  0
LINE
  5
5A
330
1F
100
AcDbEntity
  8
0
  6
Continuous
 62
     7
370
    15
100
AcDbLine
 10
333.7715393959
 20
217.9371579107
 30
0.0
 11
333.7715393959
 21
204.2785272491
 31
0.0
  0
LINE
  5
5B
330
1F
100
AcDbEntity
  8
0
  6
Continuous
 62
     7
370
    15
100
AcDbLine
 10
332.2479254661
 20
221.8750463356
 30
0.0
 11
333.7352848707
 21
219.3948989291
 31
0.0
  0
LINE
  5
5C
330
1F
100
AcDbEntity
  8
0
  6
Continuous
 62
     7
370
    15
100
AcDbLine
 10
336.212036675
 20
221.0980085213
 30
0.0
 11
334.8207450567
 21
223.4179721702
 31
0.0
  0
LINE
  5
5D
330
1F
100
AcDbEntity
  8
0
  6
Continuous
 62
     7
370
    15
100
AcDbLine
 10
333.7997770963
 20
203.1021788273
 30
0.0
 11
332.2306997238
 21
200.4857603018
 31
0.0
  0
LINE
  5
5E
330
1F
100
AcDbEntity
  8
0
  6
Continuous
 62
     7
370
    15
100
AcDbLine
 10
334.8035193143
 20
198.9428344671
 30
0.0
 11
336.212036675
 21
201.2915173103
 31
0.0
  0
LINE
  5
5F
330
1F
100
AcDbEntity
  8
0
  6
Continuous
 62
     7
370
    15
100
AcDbLine
 10
334.8406381069
 20
223.3824636344
 30
0.0
 11
334.7506797967
 21
223.4962507639
 31
0.0
  0
SPLINE
  5
60
330
1F
100
AcDbEntity
  8
0
  6
Continuous
 62
     7
370
    15
100
AcDbSpline
210
0.0
220
0.0
230
1.0
 70
     8
 71
     3
 72
    20
 73
    16
 74
     0
 42
0.00000001
 43
0.00000001
 40
0.0
 40
0.0
 40
0.0
 40
0.0
 40
0.0337804504955803
 40
0.110106129442281
 40
0.1739284394576207
 40
0.2252740656393193
 40
0.2665365052847715
 40
0.3037745271294951
 40
0.3388585253804877
 40
0.372639864700143
 40
0.4139176374303661
 40
0.6259827958877605
 40
0.8390272751872768
 40
0.9659462427231557
 40
1.0
 40
1.0
 40
1.0
 40
1.0
 10
334.6383697448222
 20
223.6383202974116
 30
0.0
 10
334.5977091336855
 20
223.6945056584586
 30
0.0
 10
334.4651773750102
 20
223.8776397654775
 30
0.0
 10
334.1553096115804
 20
224.0548187950699
 30
0.0
 10
333.7680530529192
 20
224.1777772040707
 30
0.0
 10
333.3982034566652
 20
224.1925656920705
 30
0.0
 10
333.0638857008146
 20
224.1419725860746
 30
0.0
 10
332.7894014238414
 20
224.0409298385764
 30
0.0
 10
332.5618971705304
 20
223.9062074697301
 30
0.0
 10
332.3558641464077
 20
223.7300351752044
 30
0.0
 10
332.0113415496956
 20
223.2875327113451
 30
0.0
 10
331.830252700381
 20
222.6008720211367
 30
0.0
 10
331.6804521497823
 20
221.4200332792824
 30
0.0
 10
331.6253324166922
 20
220.515390871481
 30
0.0
 10
331.6187709149562
 20
220.1008029093388
 30
0.0
 10
331.6173828301875
 20
220.0130968843018
 30
0.0
  0
SPLINE
  5
61
330
1F
100
AcDbEntity
  8
0
  6
Continuous
 62
     7
370
    15
100
AcDbSpline
210
0.0
220
0.0
230
1.0
 70
     8
 71
     3
 72
    19
 73
    15
 74
     0
 42
0.00000001
 43
0.00000001
 40
0.0
 40
0.0
 40
0.0
 40
0.0
 40
0.010273716450927
 40
0.1295969544120951
 40
0.326812560494732
 40
0.5525093950604796
 40
0.5858541833950538
 40
0.61860173985923
 40
0.6529061552892397
 40
0.6960072169155693
 40
0.7523131166079877
 40
0.8223154421021113
 40
0.9054607797521667
 40
1.0
 40
1.0
 40
1.0
 40
1.0
 10
331.6145367083994
 20
202.3947629634654
 30
0.0
 10
331.6148599127458
 20
202.3675639942237
 30
0.0
 10
331.6189369474918
 20
202.0244648252225
 30
0.0
 10
331.6586989725612
 20
201.2044746706986
 30
0.0
 10
331.7937039051577
 20
199.9820397779851
 30
0.0
 10
331.8841022776131
 20
199.3386888958645
 30
0.0
 10
332.2349997527243
 20
198.7985825326223
 30
0.0
 10
332.4042200266442
 20
198.6107420247435
 30
0.0
 10
332.6409272709645
 20
198.4342554895475
 30
0.0
 10
332.9545566034997
 20
198.2807874350887
 30
0.0
 10
333.3580426229574
 20
198.178996634666
 30
0.0
 10
333.8439043023162
 20
198.2021593171391
 30
0.0
 10
334.3736586252837
 20
198.4124877804861
 30
0.0
 10
334.6388774788023
 20
198.7343040819632
 30
0.0
 10
334.7799903808085
 20
198.9055303413784
 30
0.0
  0
LINE
  5
62
330
1F
100
AcDbEntity
  8
0
  6
Continuous
 62
     7
370
    15
100
AcDbLine
 10
748.9120341001
 20
81.1947676842
 30
0.0
 11
748.9120341001
 21
116.1947641079
 31
0.0
  0
LINE
  5
63
330
1F
100
AcDbEntity
  8
0
  6
Continuous
 62
     7
370
    15
100
AcDbLine
 10
748.9120341001
 20
306.1947617237
 30
0.0
 11
748.9120341001
 21
341.1947581474
 31
0.0
  0
LINE
  5
64
330
1F
100
AcDbEntity
  8
0
  6
Continuous
 62
     7
370
    15
100
AcDbLine
 10
745.9120280204
 20
116.1947641079
 30
0.0
 11
745.9120280204
 21
117.1947661344
 31
0.0
  0
LINE
  5
65
330
1F
100
AcDbEntity
  8
0
  6
Continuous
 62
     7
370
    15
100
AcDbLine
 10
745.9120280204
 20
152.1947625582
 30
0.0
 11
745.9120280204
 21
153.1947645847
 31
0.0
  0
LINE
  5
66
330
1F
100
AcDbEntity
  8
0
  6
Continuous
 62
     7
370
    15
100
AcDbLine
 10
740.9120327888
 20
153.1947645847
 30
0.0
 11
740.9120327888
 21
152.1947625582
 31
0.0
  0
LINE
  5
67
330
1F
100
AcDbEntity
  8
0
  6
Continuous
 62
     7
370
    15
100
AcDbLine
 10
740.9120327888
 20
117.1947661344
 30
0.0
 11
740.9120327888
 21
116.1947641079
 31
0.0
  0
LINE
  5
68
330
1F
100
AcDbEntity
  8
0
  6
Continuous
 62
     7
370
    15
100
AcDbLine
 10
740.9120327888
 20
306.1947617237
 30
0.0
 11
740.9120327888
 21
305.1947596971
 31
0.0
  0
LINE
  5
69
330
1F
100
AcDbEntity
  8
0
  6
Continuous
 62
     7
370
    15
100
AcDbLine
 10
740.9120327888
 20
270.1947632734
 30
0.0
 11
740.9120327888
 21
269.1947612469
 31
0.0
  0
LINE
  5
6A
330
1F
100
AcDbEntity
  8
0
  6
Continuous
 62
     7
370
    15
100
AcDbLine
 10
745.9120280204
 20
269.1947612469
 30
0.0
 11
745.9120280204
 21
270.1947632734
 31
0.0
  0
LINE
  5
6B
330
1F
100
AcDbEntity
  8
0
  6
Continuous
 62
     7
370
    15
100
AcDbLine
 10
745.9120280204
 20
305.1947596971
 30
0.0
 11
745.9120280204
 21
306.1947617237
 31
0.0
  0
LINE
  5
6C
330
1F
100
AcDbEntity
  8
0
  6
Continuous
 62
     7
370
    15
100
AcDbLine
 10
329.1120356975
 20
217.9447630909
 30
0.0
 11
329.1120356975
 21
217.6519520138
 31
0.0
  0
LINE
  5
6D
330
1F
100
AcDbEntity
  8
0
  6
Continuous
 62
     7
370
    15
100
AcDbLine
 10
329.1120356975
 20
204.7375738178
 30
0.0
 11
329.1120356975
 21
204.4447627407
 31
0.0
  0
LINE
  5
6E
330
1F
100
AcDbEntity
  8
0
  6
Continuous
 62
     7
370
    15
100
AcDbLine
 10
352.412027782
 20
346.1947682802
 30
0.0
 11
352.412027782
 21
361.1947688762
 31
0.0
  0
LINE
  5
6F
330
1F
100
AcDbEntity
  8
0
  6
Continuous
 62
     7
370
    15
100
AcDbLine
 10
352.412027782
 20
361.1947688762
 30
0.0
 11
722.4120325504
 21
361.1947688762
 31
0.0
  0
LINE
  5
70
330
1F
100
AcDbEntity
  8
0
  6
Continuous
 62
     7
370
    15
100
AcDbLine
 10
722.4120325504
 20
361.1947688762
 30
0.0
 11
722.4120325504
 21
346.1947682802
 31
0.0
  0
LINE
  5
71
330
1F
100
AcDbEntity
  8
0
  6
Continuous
 62
     7
370
    15
100
AcDbLine
 10
352.412027782
 20
346.1947682802
 30
0.0
 11
722.4120325504
 21
346.1947682802
 31
0.0
  0
LINE
  5
72
330
1F
100
AcDbEntity
  8
0
  6
Continuous
 62
     7
370
    15
100
AcDbLine
 10
337.412027186
 20
346.1947682802
 30
0.0
 11
352.412027782
 21
346.1947682802
 31
0.0
  0
ARC
  5
73
330
1F
100
AcDbEntity
  8
0
  6
Continuous
 62
     7
370
    15
100
AcDbCircle
 10
352.4120301662
 20
346.1947629158
 30
0.0
 40
15.0
100
AcDbArc
 50
90.0
 51
180.0
  0
LINE
  5
74
330
1F
100
AcDbEntity
  8
0
  6
Continuous
 62
     7
370
    15
100
AcDbLine
 10
722.4120325504
 20
76.1947575514
 30
0.0
 11
722.4120325504
 21
346.1947682802
 31
0.0
  0
LINE
  5
75
330
1F
100
AcDbEntity
  8
0
  6
Continuous
 62
     7
370
    15
100
AcDbLine
 10
352.412027782
 20
76.1947575514
 30
0.0
 11
722.4120325504
 21
76.1947575514
 31
0.0
  0
LINE
  5
76
330
1F
100
AcDbEntity
  8
0
  6
Continuous
 62
     7
370
    15
100
AcDbLine
 10
352.412027782
 20
76.1947575514
 30
0.0
 11
352.412027782
 21
346.1947682802
 31
0.0
  0
LINE
  5
77
330
1F
100
AcDbEntity
  8
0
  6
Continuous
 62
     7
370
    15
100
AcDbLine
 10
717.4120373188
 20
81.1947676842
 30
0.0
 11
717.4120373188
 21
341.1947581474
 31
0.0
  0
LINE
  5
78
330
1F
100
AcDbEntity
  8
0
  6
Continuous
 62
     7
370
    15
100
AcDbLine
 10
717.4120373188
 20
81.1947676842
 30
0.0
 11
357.4120230136
 21
81.1947676842
 31
0.0
  0
LINE
  5
79
330
1F
100
AcDbEntity
  8
0
  6
Continuous
 62
     7
370
    15
100
AcDbLine
 10
357.4120230136
 20
81.1947676842
 30
0.0
 11
357.4120230136
 21
341.1947581474
 31
0.0
  0
LINE
  5
7A
330
1F
100
AcDbEntity
  8
0
  6
Continuous
 62
     7
370
    15
100
AcDbLine
 10
357.4120230136
 20
341.1947581474
 30
0.0
 11
717.4120373188
 21
341.1947581474
 31
0.0
  0
LINE
  5
7B
330
1F
100
AcDbEntity
  8
0
  6
Continuous
 62
     7
370
    15
100
AcDbLine
 10
337.412027186
 20
76.1947575514
 30
0.0
 11
352.412027782
 21
76.1947575514
 31
0.0
  0
LINE
  5
7C
330
1F
100
AcDbEntity
  8
0
  6
Continuous
 62
     7
370
    15
100
AcDbLine
 10
337.412027186
 20
201.2072708015
 30
0.0
 11
337.412027186
 21
76.1947575514
 31
0.0
  0
LINE
  5
7D
330
1F
100
AcDbEntity
  8
0
  6
Continuous
 62
     7
370
    15
100
AcDbLine
 10
337.412027186
 20
221.1822550301
 30
0.0
 11
337.412027186
 21
346.1947682802
 31
0.0
  0
ARC
  5
7E
330
1F
100
AcDbEntity
  8
0
  6
Continuous
 62
     7
370
    15
100
AcDbCircle
 10
722.4120301662
 20
346.1947629158
 30
0.0
 40
15.0
100
AcDbArc
 50
0.0
 51
90.0
  0
LINE
  5
7F
330
1F
100
AcDbEntity
  8
0
  6
Continuous
 62
     7
370
    15
100
AcDbLine
 10
737.4120331464
 20
346.1947682802
 30
0.0
 11
722.4120325504
 21
346.1947682802
 31
0.0
  0
LINE
  5
80
330
1F
100
AcDbEntity
  8
0
  6
Continuous
 62
     7
370
    15
100
AcDbLine
 10
737.4120331464
 20
76.1947575514
 30
0.0
 11
737.4120331464
 21
346.1947682802
 31
0.0
  0
LINE
  5
81
330
1F
100
AcDbEntity
  8
0
  6
Continuous
 62
     7
370
    15
100
AcDbLine
 10
722.4120325504
 20
76.1947575514
 30
0.0
 11
737.4120331464
 21
76.1947575514
 31
0.0
  0
LINE
  5
82
330
1F
100
AcDbEntity
  8
0
  6
Continuous
 62
     7
370
    15
100
AcDbLine
 10
722.4120325504
 20
76.1947575514
 30
0.0
 11
722.4120325504
 21
61.1947569553
 31
0.0
  0
LINE
  5
83
330
1F
100
AcDbEntity
  8
0
  6
Continuous
 62
     7
370
    15
100
AcDbLine
 10
352.412027782
 20
61.1947569553
 30
0.0
 11
722.4120325504
 21
61.1947569553
 31
0.0
  0
LINE
  5
84
330
1F
100
AcDbEntity
  8
0
  6
Continuous
 62
     7
370
    15
100
AcDbLine
 10
352.412027782
 20
61.1947569553
 30
0.0
 11
352.412027782
 21
76.1947575514
 31
0.0
  0
ARC
  5
85
330
1F
100
AcDbEntity
  8
0
  6
Continuous
 62
     7
370
    15
100
AcDbCircle
 10
352.4120301662
 20
76.1947629158
 30
0.0
 40
15.00000000000006
100
AcDbArc
 50
180.0
 51
270.0
  0
ARC
  5
86
330
1F
100
AcDbEntity
  8
0
  6
Continuous
 62
     7
370
    15
100
AcDbCircle
 10
722.4120301662
 20
76.1947629158
 30
0.0
 40
15.0
100
AcDbArc
 50
270.0
 51
0.0
  0
LINE
  5
87
330
1F
100
AcDbEntity
  8
0
  6
Continuous
 62
     7
370
    15
100
AcDbLine
 10
336.212036675
 20
222.2292460058
 30
0.0
 11
337.412027186
 21
222.2292460058
 31
0.0
  0
LINE
  5
88
330
1F
100
AcDbEntity
  8
0
  6
Continuous
 62
     7
370
    15
100
AcDbLine
 10
336.212036675
 20
200.1602798257
 30
0.0
 11
337.412027186
 21
200.1602798257
 31
0.0
  0
LINE
  5
89
330
1F
100
AcDbEntity
  8
0
  6
Continuous
 62
     7
370
    15
100
AcDbLine
 10
337.412027186
 20
221.1822550301
 30
0.0
 11
337.412027186
 21
201.2072708015
 31
0.0
  0
LINE
  5
8A
330
1F
100
AcDbEntity
  8
0
  6
Continuous
 62
     7
370
    15
100
AcDbLine
 10
336.212036675
 20
200.1602798257
 30
0.0
 11
336.212036675
 21
222.2292460058
 31
0.0
  0
LINE
  5
8B
330
1F
100
AcDbEntity
  8
0
  6
Continuous
 62
     7
370
    15
100
AcDbLine
 10
336.1120349822
 20
216.194762804
 30
0.0
 11
336.1120349822
 21
219.1947632958
 31
0.0
  0
LINE
  5
8C
330
1F
100
AcDbEntity
  8
0
  6
Continuous
 62
     7
370
    15
100
AcDbLine
 10
336.1120349822
 20
213.1947630108
 30
0.0
 11
336.1120349822
 21
216.194762804
 31
0.0
  0
LINE
  5
8D
330
1F
100
AcDbEntity
  8
0
  6
Continuous
 62
     7
370
    15
100
AcDbLine
 10
336.1120349822
 20
203.1947625358
 30
0.0
 11
336.1120349822
 21
209.1947628208
 31
0.0
  0
LINE
  5
8E
330
1F
100
AcDbEntity
  8
0
  6
Continuous
 62
     7
370
    15
100
AcDbLine
 10
336.212036675
 20
222.2292460058
 30
0.0
 11
336.212036675
 21
222.6947629381
 31
0.0
  0
LINE
  5
8F
330
1F
100
AcDbEntity
  8
0
  6
Continuous
 62
     7
370
    15
100
AcDbLine
 10
336.212036675
 20
199.6947628934
 30
0.0
 11
336.212036675
 21
200.1602798257
 31
0.0
  0
LINE
  5
90
330
1F
100
AcDbEntity
  8
0
  6
Continuous
 62
     7
370
    15
100
AcDbLine
 10
738.3133894859
 20
270.1947632734
 30
0.0
 11
748.9120341001
 21
270.1947632734
 31
0.0
  0
LINE
  5
91
330
1F
100
AcDbEntity
  8
0
  6
Continuous
 62
     7
370
    15
100
AcDbLine
 10
738.3133894859
 20
305.1947596971
 30
0.0
 11
738.3133894859
 21
270.1947632734
 31
0.0
  0
LINE
  5
92
330
1F
100
AcDbEntity
  8
0
  6
Continuous
 62
     7
370
    15
100
AcDbLine
 10
738.3133894859
 20
305.1947596971
 30
0.0
 11
748.9120341001
 21
305.1947596971
 31
0.0
  0
LINE
  5
93
330
1F
100
AcDbEntity
  8
0
  6
Continuous
 62
     7
370
    15
100
AcDbLine
 10
738.3133894859
 20
117.1947661344
 30
0.0
 11
748.9120341001
 21
117.1947661344
 31
0.0
  0
LINE
  5
94
330
1F
100
AcDbEntity
  8
0
  6
Continuous
 62
     7
370
    15
100
AcDbLine
 10
738.3133894859
 20
152.1947625582
 30
0.0
 11
738.3133894859
 21
117.1947661344
 31
0.0
  0
LINE
  5
95
330
1F
100
AcDbEntity
  8
0
  6
Continuous
 62
     7
370
    15
100
AcDbLine
 10
738.3133894859
 20
152.1947625582
 30
0.0
 11
748.9120341001
 21
152.1947625582
 31
0.0
  0
LINE
  5
96
330
1F
100
AcDbEntity
  8
0
  6
Continuous
 62
     7
370
    15
100
AcDbLine
 10
737.8498739658
 20
305.1947596971
 30
0.0
 11
737.8498739658
 21
270.1947632734
 31
0.0
  0
LINE
  5
97
330
1F
100
AcDbEntity
  8
0
  6
Continuous
 62
     7
370
    15
100
AcDbLine
 10
737.8498739658
 20
270.1947632734
 30
0.0
 11
738.3133894859
 21
270.1947632734
 31
0.0
  0
LINE
  5
98
330
1F
100
AcDbEntity
  8
0
  6
Continuous
 62
     7
370
    15
100
AcDbLine
 10
737.8498739658
 20
305.1947596971
 30
0.0
 11
738.3133894859
 21
305.1947596971
 31
0.0
  0
LINE
  5
99
330
1F
100
AcDbEntity
  8
0
  6
Continuous
 62
     7
370
    15
100
AcDbLine
 10
737.8498739658
 20
152.1947625582
 30
0.0
 11
737.8498739658
 21
117.1947661344
 31
0.0
  0
LINE
  5
9A
330
1F
100
AcDbEntity
  8
0
  6
Continuous
 62
     7
370
    15
100
AcDbLine
 10
737.8498739658
 20
117.1947661344
 30
0.0
 11
738.3133894859
 21
117.1947661344
 31
0.0
  0
LINE
  5
9B
330
1F
100
AcDbEntity
  8
0
  6
Continuous
 62
     7
370
    15
100
AcDbLine
 10
737.8498739658
 20
152.1947625582
 30
0.0
 11
738.3133894859
 21
152.1947625582
 31
0.0
  0
LINE
  5
9C
330
1F
100
AcDbEntity
  8
0
  6
Continuous
 62
     7
370
    15
100
AcDbLine
 10
737.4120331464
 20
270.1947632734
 30
0.0
 11
737.8498739658
 21
270.1947632734
 31
0.0
  0
LINE
  5
9D
330
1F
100
AcDbEntity
  8
0
  6
Continuous
 62
     7
370
    15
100
AcDbLine
 10
737.4120331464
 20
305.1947596971
 30
0.0
 11
737.8498739658
 21
305.1947596971
 31
0.0
  0
LINE
  5
9E
330
1F
100
AcDbEntity
  8
0
  6
Continuous
 62
     7
370
    15
100
AcDbLine
 10
737.4120331464
 20
117.1947661344
 30
0.0
 11
737.8498739658
 21
117.1947661344
 31
0.0
  0
LINE
  5
9F
330
1F
100
AcDbEntity
  8
0
  6
Continuous
 62
     7
370
    15
100
AcDbLine
 10
737.4120331464
 20
152.1947625582
 30
0.0
 11
737.8498739658
 21
152.1947625582
 31
0.0
  0
LINE
  5
A0
330
1F
100
AcDbEntity
  8
0
  6
Continuous
 62
     7
370
    15
100
AcDbLine
 10
329.1425383745
 20
216.4947627601
 30
0.0
 11
328.4120238481
 21
216.4947627601
 31
0.0
  0
LINE
  5
A1
330
1F
100
AcDbEntity
  8
0
  6
Continuous
 62
     7
370
    15
100
AcDbLine
 10
329.1425383745
 20
216.4947627601
 30
0.0
 11
329.1425383745
 21
205.8947630715
 31
0.0
  0
LINE
  5
A2
330
1F
100
AcDbEntity
  8
0
  6
Continuous
 62
     7
370
    15
100
AcDbLine
 10
328.4120238481
 20
205.8947630715
 30
0.0
 11
329.1425383745
 21
205.8947630715
 31
0.0
  0
LINE
  5
A3
330
1F
100
AcDbEntity
  8
0
  6
Continuous
 62
     7
370
    15
100
AcDbLine
 10
328.4120238481
 20
216.4947627601
 30
0.0
 11
328.4120238481
 21
205.8947630715
 31
0.0
  0
ARC
  5
A4
330
1F
100
AcDbEntity
  8
0
  6
Continuous
 62
     7
370
    15
100
AcDbCircle
 10
330.2347124531
 20
216.6059274774
 30
0.0
 40
1.097816839157933
100
AcDbArc
 50
97.3339510799
 51
185.8117201705
  0
LINE
  5
A5
330
1F
100
AcDbEntity
  8
0
  6
Continuous
 62
     7
370
    15
100
AcDbLine
 10
330.0945735631
 20
217.6947630499
 30
0.0
 11
333.6380100904
 21
217.6947630499
 31
0.0
  0
LINE
  5
A6
330
1F
100
AcDbEntity
  8
0
  6
Continuous
 62
     7
370
    15
100
AcDbLine
 10
333.6380100904
 20
217.6947630499
 30
0.0
 11
333.6380100904
 21
204.6947627817
 31
0.0
  0
LINE
  5
A7
330
1F
100
AcDbEntity
  8
0
  6
Continuous
 62
     7
370
    15
100
AcDbLine
 10
333.6380100904
 20
204.6947627817
 30
0.0
 11
330.0945735631
 21
204.6947627817
 31
0.0
  0
ARC
  5
A8
330
1F
100
AcDbEntity
  8
0
  6
Continuous
 62
     7
370
    15
100
AcDbCircle
 10
330.2347124531
 20
205.7835983541
 30
0.0
 40
1.097816839157935
100
AcDbArc
 50
174.1882798295
 51
262.6660489201
  0
LINE
  5
A9
330
1F
100
AcDbEntity
  8
0
  6
Continuous
 62
     7
370
    15
100
AcDbLine
 10
329.3640590368
 20
217.6947630499
 30
0.0
 11
330.0945735631
 21
217.6947630499
 31
0.0
  0
ARC
  5
AA
330
1F
100
AcDbEntity
  8
0
  6
Continuous
 62
     7
370
    15
100
AcDbCircle
 10
329.5041979267
 20
216.6059274774
 30
0.0
 40
1.097816839157933
100
AcDbArc
 50
97.3339510799
 51
185.8117201705
  0
LINE
  5
AB
330
1F
100
AcDbEntity
  8
0
  6
Continuous
 62
     7
370
    15
100
AcDbLine
 10
330.0945735631
 20
204.6947627817
 30
0.0
 11
329.3640590368
 21
204.6947627817
 31
0.0
  0
ARC
  5
AC
330
1F
100
AcDbEntity
  8
0
  6
Continuous
 62
     7
370
    15
100
AcDbCircle
 10
329.5041979267
 20
205.7835983541
 30
0.0
 40
1.097816839157935
100
AcDbArc
 50
174.1882798295
 51
262.6660489201
  0
LINE
  5
AD
330
1F
100
AcDbEntity
  8
0
  6
Continuous
 62
     7
370
    15
100
AcDbLine
 10
333.7195492444
 20
217.6947630499
 30
0.0
 11
333.6380100904
 21
217.6947630499
 31
0.0
  0
LINE
  5
AE
330
1F
100
AcDbEntity
  8
0
  6
Continuous
 62
     7
370
    15
100
AcDbLine
 10
333.6380100904
 20
204.6947627817
 30
0.0
 11
333.7715393959
 21
204.6947627817
 31
0.0
  0
LINE
  5
AF
330
1F
100
AcDbEntity
  8
0
  6
Continuous
 62
     7
370
    15
100
AcDbLine
 10
328.4120238481
 20
215.09476281
 30
0.0
 11
328.3072239814
 21
215.09476281
 31
0.0
  0
LINE
  5
B0
330
1F
100
AcDbEntity
  8
0
  6
Continuous
 62
     7
370
    15
100
AcDbLine
 10
328.4120238481
 20
206.4947629836
 30
0.0
 11
328.3072239814
 21
206.4947629836
 31
0.0
  0
LINE
  5
B1
330
1F
100
AcDbEntity
  8
0
  6
Continuous
 62
     7
370
    15
100
AcDbLine
 10
333.7779170928
 20
203.9947630395
 30
0.0
 11
328.912032312
 21
203.9947630395
 31
0.0
  0
LINE
  5
B2
330
1F
100
AcDbEntity
  8
0
  6
Continuous
 62
     7
370
    15
100
AcDbLine
 10
333.7861872373
 20
203.1947625358
 30
0.0
 11
328.9126283584
 21
203.1947625358
 31
0.0
  0
LINE
  5
B3
330
1F
100
AcDbEntity
  8
0
  6
Continuous
 62
     7
370
    15
100
AcDbLine
 10
333.7801820693
 20
218.3947627921
 30
0.0
 11
328.912032312
 21
218.3947627921
 31
0.0
  0
LINE
  5
B4
330
1F
100
AcDbEntity
  8
0
  6
Continuous
 62
     7
370
    15
100
AcDbLine
 10
333.7405002771
 20
219.1947632958
 30
0.0
 11
328.9126283584
 21
219.1947632958
 31
0.0
  0
LINE
  5
B5
330
1F
100
AcDbEntity
  8
0
  6
Continuous
 62
     7
370
    15
100
AcDbLine
 10
332.5120336471
 20
219.4947627861
 30
0.0
 11
333.6753822027
 21
219.4947627861
 31
0.0
  0
LINE
  5
B6
330
1F
100
AcDbEntity
  8
0
  6
Continuous
 62
     7
370
    15
100
AcDbLine
 10
333.8385350166
 20
219.4947627861
 30
0.0
 11
333.900881475
 21
219.4947627861
 31
0.0
  0
LINE
  5
B7
330
1F
100
AcDbEntity
  8
0
  6
Continuous
 62
     7
370
    15
100
AcDbLine
 10
330.3120262084
 20
219.4947627861
 30
0.0
 11
332.5120336471
 21
219.4947627861
 31
0.0
  0
LINE
  5
B8
330
1F
100
AcDbEntity
  8
0
  6
Continuous
 62
     7
370
    15
100
AcDbLine
 10
332.5120336471
 20
202.7947632153
 30
0.0
 11
333.61541993
 21
202.7947632153
 31
0.0
  0
LINE
  5
B9
330
1F
100
AcDbEntity
  8
0
  6
Continuous
 62
     7
370
    15
100
AcDbLine
 10
330.4120279012
 20
202.7947632153
 30
0.0
 11
332.5120336471
 21
202.7947632153
 31
0.0
  0
LINE
  5
BA
330
1F
100
AcDbEntity
  8
0
  6
Continuous
 62
     7
370
    15
100
AcDbLine
 10
332.5120336471
 20
202.3947629635
 30
0.0
 11
333.3755410371
 21
202.3947629635
 31
0.0
  0
LINE
  5
BB
330
1F
100
AcDbEntity
  8
0
  6
Continuous
 62
     7
370
    15
100
AcDbLine
 10
330.4120279012
 20
202.3947629635
 30
0.0
 11
332.5120336471
 21
202.3947629635
 31
0.0
  0
ARC
  5
BC
330
1F
100
AcDbEntity
  8
0
  6
Continuous
 62
     7
370
    15
100
AcDbCircle
 10
329.3777841638
 20
218.397017061
 30
0.0
 40
0.8027149752665332
100
AcDbArc
 50
125.4660676112
 51
180.1609042628
  0
ARC
  5
BD
330
1F
100
AcDbEntity
  8
0
  6
Continuous
 62
     7
370
    15
100
AcDbCircle
 10
329.3777841638
 20
203.9925087706
 30
0.0
 40
0.8027149752665016
100
AcDbArc
 50
179.8390957372
 51
234.5339323887
  0
LINE
  5
BE
330
1F
100
AcDbEntity
  8
0
  6
Continuous
 62
     7
370
    15
100
AcDbLine
 10
329.3629116474
 20
204.4447627407
 30
0.0
 11
329.3629116474
 21
203.9947630395
 31
0.0
  0
LINE
  5
BF
330
1F
100
AcDbEntity
  8
0
  6
Continuous
 62
     7
370
    15
100
AcDbLine
 10
329.3629116474
 20
218.3947627921
 30
0.0
 11
329.3629116474
 21
217.9447630909
 31
0.0
  0
LINE
  5
C0
330
1F
100
AcDbEntity
  8
0
  6
Continuous
 62
     7
370
    15
100
AcDbLine
 10
328.5750723539
 20
203.9947630395
 30
0.0
 11
328.5750723539
 21
205.2232049894
 31
0.0
  0
LINE
  5
C1
330
1F
100
AcDbEntity
  8
0
  6
Continuous
 62
     7
370
    15
100
AcDbLine
 10
328.5750723539
 20
217.1663208422
 30
0.0
 11
328.5750723539
 21
218.3947627921
 31
0.0
  0
SPLINE
  5
C2
330
1F
100
AcDbEntity
  8
0
  6
Continuous
 62
     7
370
    15
100
AcDbSpline
210
0.0
220
0.0
230
1.0
 70
    24
 71
     3
 72
    12
 73
     8
 74
     0
 42
0.00000001
 43
0.00000001
 40
0.0
 40
0.0
 40
0.0
 40
0.0
 40
0.2185042665755995
 40
0.4370130079610726
 40
0.6555186338092558
 40
0.8740245712698237
 40
1.0
 40
1.0
 40
1.0
 40
1.0
 10
335.5713761506526
 20
217.8871579956626
 30
0.0
 10
335.374657262334
 20
217.8871579956626
 30
0.0
 10
334.9812154570359
 20
217.8871579956626
 30
0.0
 10
334.4204460496601
 20
217.8871579956626
 30
0.0
 10
334.0027947221174
 20
217.8871579956626
 30
0.0
 10
333.7762263598368
 20
217.8871579956626
 30
0.0
 10
333.7937545419094
 20
217.8871579956626
 30
0.0
 10
333.800164526507
 20
217.8871579956626
 30
0.0
  0
SPLINE
  5
C3
330
1F
100
AcDbEntity
  8
0
  6
Continuous
 62
     7
370
    15
100
AcDbSpline
210
0.0
220
0.0
230
1.0
 70
    24
 71
     3
 72
     9
 73
     5
 74
     0
 42
0.00000001
 43
0.00000001
 40
0.0
 40
0.0
 40
0.0
 40
0.0
 40
0.1970130322720919
 40
1.0
 40
1.0
 40
1.0
 40
1.0
 10
336.2120366750208
 20
217.8871579956626
 30
0.0
 10
336.1793844790964
 20
217.8871579956626
 30
0.0
 10
336.0136482557208
 20
217.8871579956626
 30
0.0
 10
335.7683485874566
 20
217.8871579956626
 30
0.0
 10
335.5713761506526
 20
217.8871579956626
 30
0.0
  0
SPLINE
  5
C4
330
1F
100
AcDbEntity
  8
0
  6
Continuous
 62
     7
370
    15
100
AcDbSpline
210
0.0
220
0.0
230
1.0
 70
     8
 71
     3
 72
    13
 73
     9
 74
     0
 42
0.00000001
 43
0.00000001
 40
0.0
 40
0.0
 40
0.0
 40
0.0
 40
0.1877386539089659
 40
0.3754723399019311
 40
0.563210247197253
 40
0.7509479971675025
 40
0.9386849648529548
 40
1.0
 40
1.0
 40
1.0
 40
1.0
 10
335.2780914960352
 20
221.5019966964041
 30
0.0
 10
335.0813945366313
 20
221.4992979529994
 30
0.0
 10
334.6880058227929
 20
221.4939005376038
 30
0.0
 10
334.1549906123017
 20
221.2033590777918
 30
0.0
 10
333.7644728785971
 20
220.7484579023183
 30
0.0
 10
333.5915003613051
 20
220.186781486995
 30
0.0
 10
333.5947980789268
 20
219.7135821620455
 30
0.0
 10
333.7221306990556
 20
219.4921505325379
 30
0.0
 10
333.7534791884867
 20
219.4376354594146
 30
0.0
  0
SPLINE
  5
C5
330
1F
100
AcDbEntity
  8
0
  6
Continuous
 62
     7
370
    15
100
AcDbSpline
210
0.0
220
0.0
230
1.0
 70
     8
 71
     3
 72
    10
 73
     6
 74
     0
 42
0.00000001
 43
0.00000001
 40
0.0
 40
0.0
 40
0.0
 40
0.0
 40
0.2093392736738888
 40
0.6046681284542607
 40
1.0
 40
1.0
 40
1.0
 40
1.0
 10
336.4152587113825
 20
220.6958820600425
 30
0.0
 10
336.3735562128759
 20
220.7889457755348
 30
0.0
 10
336.2531002120437
 20
221.0577565996393
 30
0.0
 10
335.8463970452393
 20
221.3744133871762
 30
0.0
 10
335.4675271609625
 20
221.4594688184852
 30
0.0
 10
335.2780914960352
 20
221.5019966964041
 30
0.0
  0
SPLINE
  5
C6
330
1F
100
AcDbEntity
  8
0
  6
Continuous
 62
     7
370
    15
100
AcDbSpline
210
0.0
220
0.0
230
1.0
 70
     8
 71
     3
 72
    13
 73
     9
 74
     0
 42
0.00000001
 43
0.00000001
 40
0.0
 40
0.0
 40
0.0
 40
0.0
 40
0.1768614158016835
 40
0.3537267399476782
 40
0.5305919192438419
 40
0.7074547270595563
 40
0.8843194473083311
 40
1.0
 40
1.0
 40
1.0
 40
1.0
 10
335.2608657536952
 20
200.8588099409257
 30
0.0
 10
335.0641986271541
 20
200.8615006885974
 30
0.0
 10
334.6708600280541
 20
200.8668822434019
 30
0.0
 10
334.1374749919473
 20
201.157557649579
 30
0.0
 10
333.7483448086496
 20
201.6119203524203
 30
0.0
 10
333.5701842815297
 20
202.175618525069
 30
0.0
 10
333.591145694254
 20
202.7087654263499
 30
0.0
 10
333.7572402027636
 20
202.9820367515622
 30
0.0
 10
333.8229185996501
 20
203.0900958482539
 30
0.0
  0
SPLINE
  5
C7
330
1F
100
AcDbEntity
  8
0
  6
Continuous
 62
     7
370
    15
100
AcDbSpline
210
0.0
220
0.0
230
1.0
 70
     8
 71
     3
 72
    10
 73
     6
 74
     0
 42
0.00000001
 43
0.00000001
 40
0.0
 40
0.0
 40
0.0
 40
0.0
 40
0.0588269319728957
 40
0.5294108146436431
 40
1.0
 40
1.0
 40
1.0
 40
1.0
 10
336.2909830270258
 20
201.4587195147191
 30
0.0
 10
336.2803433387644
 20
201.4372392773383
 30
0.0
 10
336.1845918548579
 20
201.2439286696094
 30
0.0
 10
335.8237573833371
 20
200.9897297779787
 30
0.0
 10
335.4484970016637
 20
200.902450050525
 30
0.0
 10
335.2608657536952
 20
200.8588099409257
 30
0.0
  0
SPLINE
  5
C8
330
1F
100
AcDbEntity
  8
0
  6
Continuous
 62
     7
370
    15
100
AcDbSpline
210
0.0
220
0.0
230
1.0
 70
    24
 71
     3
 72
    12
 73
     8
 74
     0
 42
0.00000001
 43
0.00000001
 40
0.0
 40
0.0
 40
0.0
 40
0.0
 40
0.2193536141895231
 40
0.4387117205829468
 40
0.6580666993286801
 40
0.8774219908980663
 40
1.0
 40
1.0
 40
1.0
 40
1.0
 10
335.5713761506526
 20
204.328527164123
 30
0.0
 10
335.3746618904693
 20
204.328527164123
 30
0.0
 10
334.9812293415363
 20
204.328527164123
 30
0.0
 10
334.4203905106617
 20
204.328527164123
 30
0.0
 10
334.003002990029
 20
204.328527164123
 30
0.0
 10
333.7771520661148
 20
204.328527164123
 30
0.0
 10
333.7941247683554
 20
204.328527164123
 30
0.0
 10
333.8002092299906
 20
204.328527164123
 30
0.0
  0
SPLINE
  5
C9
330
1F
100
AcDbEntity
  8
0
  6
Continuous
 62
     7
370
    15
100
AcDbSpline
210
0.0
220
0.0
230
1.0
 70
    24
 71
     3
 72
     9
 73
     5
 74
     0
 42
0.00000001
 43
0.00000001
 40
0.0
 40
0.0
 40
0.0
 40
0.0
 40
0.1970130322720919
 40
1.0
 40
1.0
 40
1.0
 40
1.0
 10
336.2120366750208
 20
204.328527164123
 30
0.0
 10
336.1793844790964
 20
204.328527164123
 30
0.0
 10
336.0136482557208
 20
204.328527164123
 30
0.0
 10
335.7683485874566
 20
204.328527164123
 30
0.0
 10
335.5713761506526
 20
204.328527164123
 30
0.0
  0
SPLINE
  5
CA
330
1F
100
AcDbEntity
  8
0
  6
Continuous
 62
     7
370
    15
100
AcDbSpline
210
0.0
220
0.0
230
1.0
 70
     8
 71
     3
 72
    13
 73
     9
 74
     0
 42
0.00000001
 43
0.00000001
 40
0.0
 40
0.0
 40
0.0
 40
0.0
 40
0.1768614774712451
 40
0.3537265172110513
 40
0.530591640972232
 40
0.7074548960608414
 40
0.8843190982005572
 40
0.9999999999999999
 40
0.9999999999999999
 40
0.9999999999999999
 40
0.9999999999999999
 10
333.7090141234843
 20
224.1184152219807
 30
0.0
 10
333.5123470995494
 20
224.115724391986
 30
0.0
 10
333.1190090904962
 20
224.110342677799
 30
0.0
 10
332.585622925578
 20
223.8196690367914
 30
0.0
 10
332.1964928168086
 20
223.3653031805115
 30
0.0
 10
332.0183328087526
 20
222.8016090872705
 30
0.0
 10
332.0392946015705
 20
222.2684579834821
 30
0.0
 10
332.2053885556431
 20
221.9951881929995
 30
0.0
 10
332.2710669694392
 20
221.8871293146526
 30
0.0
  0
SPLINE
  5
CB
330
1F
100
AcDbEntity
  8
0
  6
Continuous
 62
     7
370
    15
100
AcDbSpline
210
0.0
220
0.0
230
1.0
 70
     8
 71
     3
 72
    10
 73
     6
 74
     0
 42
0.00000001
 43
0.00000001
 40
0.0
 40
0.0
 40
0.0
 40
0.0
 40
0.1474627692345064
 40
0.5737294769795925
 40
1.0
 40
1.0
 40
1.0
 40
1.0
 10
334.7976035533396
 20
223.4058891911422
 30
0.0
 10
334.7695415262787
 20
223.4661832392807
 30
0.0
 10
334.6603613434283
 20
223.7007676898716
 30
0.0
 10
334.2753065618667
 20
223.9895915434135
 30
0.0
 10
333.8977788327826
 20
224.0754738676781
 30
0.0
 10
333.7090141234843
 20
224.1184152219807
 30
0.0
  0
SPLINE
  5
CC
330
1F
100
AcDbEntity
  8
0
  6
Continuous
 62
     7
370
    15
100
AcDbSpline
210
0.0
220
0.0
230
1.0
 70
     8
 71
     3
 72
    13
 73
     9
 74
     0
 42
0.00000001
 43
0.00000001
 40
0.0
 40
0.0
 40
0.0
 40
0.0
 40
0.1768612807734419
 40
0.353726469888211
 40
0.5305915141532597
 40
0.707454474607417
 40
0.8843186698085845
 40
1.0
 40
1.0
 40
1.0
 40
1.0
 10
333.6917883811442
 20
198.2423914153491
 30
0.0
 10
333.4951212548753
 20
198.2450821754638
 30
0.0
 10
333.1017826563199
 20
198.2504637551544
 30
0.0
 10
332.5683976161297
 20
198.5411389746824
 30
0.0
 10
332.1792672373768
 20
198.9955026331285
 30
0.0
 10
332.0011068582101
 20
199.5591981355683
 30
0.0
 10
332.022069250302
 20
200.0923495881366
 30
0.0
 10
332.1881628176309
 20
200.365618533876
 30
0.0
 10
332.2538412270991
 20
200.4736773226773
 30
0.0
  0
SPLINE
  5
CD
330
1F
100
AcDbEntity
  8
0
  6
Continuous
 62
     7
370
    15
100
AcDbSpline
210
0.0
220
0.0
230
1.0
 70
     8
 71
     3
 72
    10
 73
     6
 74
     0
 42
0.00000001
 43
0.00000001
 40
0.0
 40
0.0
 40
0.0
 40
0.0
 40
0.1474573734895173
 40
0.573730886909061
 40
1.0
 40
1.0
 40
1.0
 40
1.0
 10
334.7803778109995
 20
198.9549174461876
 30
0.0
 10
334.7523212641364
 20
198.8946230902907
 30
0.0
 10
334.6431581403501
 20
198.6600282818677
 30
0.0
 10
334.2580782085323
 20
198.371220822405
 30
0.0
 10
333.880551007415
 20
198.2853344032692
 30
0.0
 10
333.6917883811442
 20
198.2423914153491
 30
0.0
  0
LINE
  5
CE
330
1F
100
AcDbEntity
  8
0
  6
Continuous
 62
     7
370
    15
100
AcDbLine
 10
738.3133894859
 20
116.1947641079
 30
0.0
 11
738.3133894859
 21
81.1947676842
 31
0.0
  0
LINE
  5
CF
330
1F
100
AcDbEntity
  8
0
  6
Continuous
 62
     7
370
    15
100
AcDbLine
 10
748.9120341001
 20
81.1947676842
 30
0.0
 11
738.3133894859
 21
81.1947676842
 31
0.0
  0
LINE
  5
D0
330
1F
100
AcDbEntity
  8
0
  6
Continuous
 62
     7
370
    15
100
AcDbLine
 10
748.9120341001
 20
116.1947641079
 30
0.0
 11
738.3133894859
 21
116.1947641079
 31
0.0
  0
LINE
  5
D1
330
1F
100
AcDbEntity
  8
0
  6
Continuous
 62
     7
370
    15
100
AcDbLine
 10
738.3133894859
 20
341.1947581474
 30
0.0
 11
738.3133894859
 21
306.1947617237
 31
0.0
  0
LINE
  5
D2
330
1F
100
AcDbEntity
  8
0
  6
Continuous
 62
     7
370
    15
100
AcDbLine
 10
748.9120341001
 20
341.1947581474
 30
0.0
 11
738.3133894859
 21
341.1947581474
 31
0.0
  0
LINE
  5
D3
330
1F
100
AcDbEntity
  8
0
  6
Continuous
 62
     7
370
    15
100
AcDbLine
 10
748.9120341001
 20
306.1947617237
 30
0.0
 11
738.3133894859
 21
306.1947617237
 31
0.0
  0
LINE
  5
D4
330
1F
100
AcDbEntity
  8
0
  6
Continuous
 62
     7
370
    15
100
AcDbLine
 10
745.9120280204
 20
153.1947645847
 30
0.0
 11
740.9120327888
 21
153.1947645847
 31
0.0
  0
LINE
  5
D5
330
1F
100
AcDbEntity
  8
0
  6
Continuous
 62
     7
370
    15
100
AcDbLine
 10
740.9120327888
 20
269.1947612469
 30
0.0
 11
745.9120280204
 21
269.1947612469
 31
0.0
  0
LINE
  5
D6
330
1F
100
AcDbEntity
  8
0
  6
Continuous
 62
     7
370
    15
100
AcDbLine
 10
737.8498739658
 20
81.1947676842
 30
0.0
 11
737.8498739658
 21
116.1947641079
 31
0.0
  0
LINE
  5
D7
330
1F
100
AcDbEntity
  8
0
  6
Continuous
 62
     7
370
    15
100
AcDbLine
 10
738.3133894859
 20
81.1947676842
 30
0.0
 11
737.8498739658
 21
81.1947676842
 31
0.0
  0
LINE
  5
D8
330
1F
100
AcDbEntity
  8
0
  6
Continuous
 62
     7
370
    15
100
AcDbLine
 10
737.8498739658
 20
116.1947641079
 30
0.0
 11
738.3133894859
 21
116.1947641079
 31
0.0
  0
LINE
  5
D9
330
1F
100
AcDbEntity
  8
0
  6
Continuous
 62
     7
370
    15
100
AcDbLine
 10
737.8498739658
 20
306.1947617237
 30
0.0
 11
737.8498739658
 21
341.1947581474
 31
0.0
  0
LINE
  5
DA
330
1F
100
AcDbEntity
  8
0
  6
Continuous
 62
     7
370
    15
100
AcDbLine
 10
738.3133894859
 20
306.1947617237
 30
0.0
 11
737.8498739658
 21
306.1947617237
 31
0.0
  0
LINE
  5
DB
330
1F
100
AcDbEntity
  8
0
  6
Continuous
 62
     7
370
    15
100
AcDbLine
 10
737.8498739658
 20
341.1947581474
 30
0.0
 11
738.3133894859
 21
341.1947581474
 31
0.0
  0
LINE
  5
DC
330
1F
100
AcDbEntity
  8
0
  6
Continuous
 62
     7
370
    15
100
AcDbLine
 10
737.8498739658
 20
306.1947617237
 30
0.0
 11
737.4120331464
 21
306.1947617237
 31
0.0
  0
LINE
  5
DD
330
1F
100
AcDbEntity
  8
0
  6
Continuous
 62
     7
370
    15
100
AcDbLine
 10
737.8498739658
 20
341.1947581474
 30
0.0
 11
737.4120331464
 21
341.1947581474
 31
0.0
  0
LINE
  5
DE
330
1F
100
AcDbEntity
  8
0
  6
Continuous
 62
     7
370
    15
100
AcDbLine
 10
737.8498739658
 20
81.1947676842
 30
0.0
 11
737.4120331464
 21
81.1947676842
 31
0.0
  0
LINE
  5
DF
330
1F
100
AcDbEntity
  8
0
  6
Continuous
 62
     7
370
    15
100
AcDbLine
 10
737.8498739658
 20
116.1947641079
 30
0.0
 11
737.4120331464
 21
116.1947641079
 31
0.0
  0
LINE
  5
E0
330
1F
100
AcDbEntity
  8
0
  6
Continuous
 62
     7
370
    15
100
AcDbLine
 10
332.2120285688
 20
204.4447627407
 30
0.0
 11
333.7715393959
 21
204.4447627407
 31
0.0
  0
LINE
  5
E1
330
1F
100
AcDbEntity
  8
0
  6
Continuous
 62
     7
370
    15
100
AcDbLine
 10
332.2120285688
 20
217.9447630909
 30
0.0
 11
333.77210564
 21
217.9447630909
 31
0.0
  0
LINE
  5
E2
330
1F
100
AcDbEntity
  8
0
  6
Continuous
 62
     7
370
    15
100
AcDbLine
 10
332.2120285688
 20
217.9447630909
 30
0.0
 11
329.1120356975
 21
217.9447630909
 31
0.0
  0
LINE
  5
E3
330
1F
100
AcDbEntity
  8
0
  6
Continuous
 62
     7
370
    15
100
AcDbLine
 10
332.2120285688
 20
204.4447627407
 30
0.0
 11
329.1120356975
 21
204.4447627407
 31
0.0
  0
LINE
  5
E4
330
1F
100
AcDbEntity
  8
0
  6
Continuous
 62
     8
370
    15
100
AcDbLine
 10
332.2120285688
 20
204.6947627817
 30
0.0
 11
332.2120285688
 21
204.4447627407
 31
0.0
  0
LINE
  5
E5
330
1F
100
AcDbEntity
  8
0
  6
Continuous
 62
     8
370
    15
100
AcDbLine
 10
332.2120285688
 20
217.9447630909
 30
0.0
 11
332.2120285688
 21
217.6947630499
 31
0.0
  0
LINE
  5
E6
330
1F
100
AcDbEntity
  8
0
  6
Continuous
 62
     7
370
    15
100
AcDbLine
 10
251.9360900089
 20
217.6947630499
 30
0.0
 11
251.9360900089
 21
204.6947627817
 31
0.0
  0
LINE
  5
E7
330
1F
100
AcDbEntity
  8
0
  6
Continuous
 62
     7
370
    15
100
AcDbLine
 10
242.1460941597
 20
218.3947627921
 30
0.0
 11
242.1460941597
 21
219.1947632958
 31
0.0
  0
LINE
  5
E8
330
1F
100
AcDbEntity
  8
0
  6
Continuous
 62
     7
370
    15
100
AcDbLine
 10
242.1460941597
 20
203.1947625358
 30
0.0
 11
242.1460941597
 21
203.9947630395
 31
0.0
  0
ARC
  5
E9
330
1F
100
AcDbEntity
  8
0
  6
Continuous
 62
     7
370
    15
100
AcDbCircle
 10
239.4160934183
 20
216.3876200587
 30
0.0
 40
3.807142857143189
100
AcDbArc
 50
54.6997515601
 51
125.3002484399
  0
LINE
  5
EA
330
1F
100
AcDbEntity
  8
0
  6
Continuous
 62
     7
370
    15
100
AcDbLine
 10
237.2160971328
 20
219.4947627861
 30
0.0
 11
237.2160971328
 21
219.1947632958
 31
0.0
  0
LINE
  5
EB
330
1F
100
AcDbEntity
  8
0
  6
Continuous
 62
     7
370
    15
100
AcDbLine
 10
241.616097109
 20
219.1947632958
 30
0.0
 11
241.616097109
 21
219.4947627861
 31
0.0
  0
LINE
  5
EC
330
1F
100
AcDbEntity
  8
0
  6
Continuous
 62
     7
370
    15
100
AcDbLine
 10
237.316091375
 20
202.7947632153
 30
0.0
 11
237.316091375
 21
202.3947629635
 31
0.0
  0
LINE
  5
ED
330
1F
100
AcDbEntity
  8
0
  6
Continuous
 62
     7
370
    15
100
AcDbLine
 10
241.5160954162
 20
202.3947629635
 30
0.0
 11
241.5160954162
 21
202.7947632153
 31
0.0
  0
ARC
  5
EE
330
1F
100
AcDbEntity
  8
0
  6
Continuous
 62
     7
370
    15
100
AcDbCircle
 10
237.5160934183
 20
203.1947629158
 30
0.0
 40
0.4000000000008015
100
AcDbArc
 50
270.0
 51
0.0
  0
ARC
  5
EF
330
1F
100
AcDbEntity
  8
0
  6
Continuous
 62
     7
370
    15
100
AcDbCircle
 10
241.3160934183
 20
203.1947629158
 30
0.0
 40
0.4000000000008015
100
AcDbArc
 50
180.0
 51
270.0
  0
LINE
  5
F0
330
1F
100
AcDbEntity
  8
0
  6
Continuous
 62
     7
370
    15
100
AcDbLine
 10
237.9160940811
 20
218.3947627921
 30
0.0
 11
237.9160940811
 21
217.9447630909
 31
0.0
  0
LINE
  5
F1
330
1F
100
AcDbEntity
  8
0
  6
Continuous
 62
     7
370
    15
100
AcDbLine
 10
237.9160940811
 20
216.944762927
 30
0.0
 11
237.9160940811
 21
216.4560583908
 31
0.0
  0
LINE
  5
F2
330
1F
100
AcDbEntity
  8
0
  6
Continuous
 62
     7
370
    15
100
AcDbLine
 10
237.9160940811
 20
215.6599438306
 30
0.0
 11
237.9160940811
 21
215.5042467196
 31
0.0
  0
LINE
  5
F3
330
1F
100
AcDbEntity
  8
0
  6
Continuous
 62
     7
370
    15
100
AcDbLine
 10
237.9160940811
 20
206.2051360984
 30
0.0
 11
237.9160940811
 21
205.4447629046
 31
0.0
  0
LINE
  5
F4
330
1F
100
AcDbEntity
  8
0
  6
Continuous
 62
     7
370
    15
100
AcDbLine
 10
237.9160940811
 20
204.4447627407
 30
0.0
 11
237.9160940811
 21
203.9947630395
 31
0.0
  0
LINE
  5
F5
330
1F
100
AcDbEntity
  8
0
  6
Continuous
 62
     7
370
    15
100
AcDbLine
 10
240.9160927102
 20
203.9947630395
 30
0.0
 11
240.9160927102
 21
204.4447627407
 31
0.0
  0
LINE
  5
F6
330
1F
100
AcDbEntity
  8
0
  6
Continuous
 62
     7
370
    15
100
AcDbLine
 10
240.9160927102
 20
205.4447629046
 30
0.0
 11
240.9160927102
 21
205.9319051471
 31
0.0
  0
LINE
  5
F7
330
1F
100
AcDbEntity
  8
0
  6
Continuous
 62
     7
370
    15
100
AcDbLine
 10
240.9160927102
 20
215.2398223546
 30
0.0
 11
240.9160927102
 21
215.4277609218
 31
0.0
  0
LINE
  5
F8
330
1F
100
AcDbEntity
  8
0
  6
Continuous
 62
     7
370
    15
100
AcDbLine
 10
240.9160927102
 20
216.1828400124
 30
0.0
 11
240.9160927102
 21
216.944762927
 31
0.0
  0
LINE
  5
F9
330
1F
100
AcDbEntity
  8
0
  6
Continuous
 62
     7
370
    15
100
AcDbLine
 10
240.9160927102
 20
217.9447630909
 30
0.0
 11
240.9160927102
 21
218.3947627921
 31
0.0
  0
SPLINE
  5
FA
330
1F
100
AcDbEntity
  8
0
  6
Continuous
 62
     7
370
    15
100
AcDbSpline
210
0.0
220
0.0
230
1.0
 70
     8
 71
     3
 72
    15
 73
    11
 74
     0
 42
0.00000001
 43
0.00000001
 40
0.0
 40
0.0
 40
0.0
 40
0.0
 40
0.1356020697477454
 40
0.2953298537971245
 40
0.4038071763059135
 40
0.5319604563897418
 40
0.673841799752955
 40
0.8261089327295112
 40
0.9126121771622892
 40
1.0
 40
1.0
 40
1.0
 40
1.0
 10
240.9160927101557
 20
205.7608081516241
 30
0.0
 10
240.9604741829503
 20
205.7534850441926
 30
0.0
 10
241.0571332818572
 20
205.7375359347793
 30
0.0
 10
241.2639844206183
 20
205.7852018394524
 30
0.0
 10
241.4572447689418
 20
205.8729330139961
 30
0.0
 10
241.6038333776875
 20
205.992591396962
 30
0.0
 10
241.7025370369477
 20
206.143488375717
 30
0.0
 10
241.7322048306037
 20
206.2653245763292
 30
0.0
 10
241.7110109929951
 20
206.3945872113842
 30
0.0
 10
241.6647610815981
 20
206.4612580087643
 30
0.0
 10
241.6415184899752
 20
206.4947629835819
 30
0.0
  0
SPLINE
  5
FB
330
1F
100
AcDbEntity
  8
0
  6
Continuous
 62
     7
370
    15
100
AcDbSpline
210
0.0
220
0.0
230
1.0
 70
     8
 71
     3
 72
    20
 73
    16
 74
     0
 42
0.00000001
 43
0.00000001
 40
0.0
 40
0.0
 40
0.0
 40
0.0
 40
0.0607085806041512
 40
0.2265340369978799
 40
0.3908033180562259
 40
0.4705947072635677
 40
0.5476202542388329
 40
0.6228557433873007
 40
0.7003370172864999
 40
0.7786471146609508
 40
0.8566575290901528
 40
0.9330984415649892
 40
0.9703707141490432
 40
0.9892323149454911
 40
1.0
 40
1.0
 40
1.0
 40
1.0
 10
237.1798947616999
 20
206.4947629835819
 30
0.0
 10
237.2261693226469
 20
206.4414295860915
 30
0.0
 10
237.3988428227897
 20
206.2424160410523
 30
0.0
 10
237.815816235888
 20
206.2244892879636
 30
0.0
 10
238.3807706899827
 20
206.1494663254334
 30
0.0
 10
238.9003834057254
 20
206.1065241421533
 30
0.0
 10
239.2942744778734
 20
206.0759735821836
 30
0.0
 10
239.6871849002508
 20
206.0482900902643
 30
0.0
 10
240.0683469692208
 20
206.0169836070587
 30
0.0
 10
240.4240729785819
 20
205.9845105853085
 30
0.0
 10
240.7266971490177
 20
205.9536852511876
 30
0.0
 10
240.9192058531993
 20
205.9307824731467
 30
0.0
 10
241.0073333808527
 20
205.9227545419968
 30
0.0
 10
241.0527578830416
 20
205.9149607907474
 30
0.0
 10
241.0522010951201
 20
205.9189191551043
 30
0.0
 10
241.0519987508242
 20
205.9203576784944
 30
0.0
  0
SPLINE
  5
FC
330
1F
100
AcDbEntity
  8
0
  6
Continuous
 62
     7
370
    15
100
AcDbSpline
210
0.0
220
0.0
230
1.0
 70
     8
 71
     3
 72
    18
 73
    14
 74
     0
 42
0.00000001
 43
0.00000001
 40
0.0
 40
0.0
 40
0.0
 40
0.0
 40
0.0057535982135415
 40
0.1156377242154852
 40
0.2383932268128284
 40
0.359308556936928
 40
0.4757046853877381
 40
0.5872131392277756
 40
0.7047315200334028
 40
0.8264988174978832
 40
0.8891456968437458
 40
0.9517930526448382
 40
1.0
 40
1.0
 40
1.0
 40
1.0
 10
241.4227098390048
 20
215.1415869150673
 30
0.0
 10
241.4180626759692
 20
215.1445403919096
 30
0.0
 10
241.3246624527445
 20
215.2039003485638
 30
0.0
 10
241.102300489182
 20
215.2100838523948
 30
0.0
 10
240.7109183413158
 20
215.269280654549
 30
0.0
 10
240.199036849328
 20
215.3148268836412
 30
0.0
 10
239.6480061330356
 20
215.3609789243677
 30
0.0
 10
239.0858903449308
 20
215.3998750653845
 30
0.0
 10
238.5516179778099
 20
215.4446044676123
 30
0.0
 10
238.1539653145421
 20
215.4856765641093
 30
0.0
 10
237.9392519247272
 20
215.5067965532015
 30
0.0
 10
237.8431800479219
 20
215.5090859675528
 30
0.0
 10
237.8277445301539
 20
215.493010828611
 30
0.0
 10
237.8210321232264
 20
215.4860202711438
 30
0.0
  0
SPLINE
  5
FD
330
1F
100
AcDbEntity
  8
0
  6
Continuous
 62
     7
370
    15
100
AcDbSpline
210
0.0
220
0.0
230
1.0
 70
     8
 71
     3
 72
    12
 73
     8
 74
     0
 42
0.00000001
 43
0.00000001
 40
0.0
 40
0.0
 40
0.0
 40
0.0
 40
0.2236729820054967
 40
0.4523097742282867
 40
0.6822372678484837
 40
0.9102273613192214
 40
1.0
 40
1.0
 40
1.0
 40
1.0
 10
237.1217951342051
 20
216.2966136377667
 30
0.0
 10
237.1090597151828
 20
216.2540657101177
 30
0.0
 10
237.0833062493369
 20
216.1680256199097
 30
0.0
 10
237.2044292543223
 20
216.0764105680259
 30
0.0
 10
237.4361105569855
 20
215.9801052050263
 30
0.0
 10
237.6809669970024
 20
215.9176141466853
 30
0.0
 10
237.8642998558931
 20
215.9228342896168
 30
0.0
 10
237.9160940810626
 20
215.924309056661
 30
0.0
  0
SPLINE
  5
FE
330
1F
100
AcDbEntity
  8
0
  6
Continuous
 62
     7
370
    15
100
AcDbSpline
210
0.0
220
0.0
230
1.0
 70
     8
 71
     3
 72
    19
 73
    15
 74
     0
 42
0.00000001
 43
0.00000001
 40
0.0
 40
0.0
 40
0.0
 40
0.0
 40
0.0979033461140013
 40
0.1753767258512808
 40
0.2884821220827502
 40
0.3734524649498238
 40
0.4570021434395499
 40
0.6168865294898215
 40
0.679665710597983
 40
0.7634253193335143
 40
0.8137536452962887
 40
0.8702971820376518
 40
0.9323988135077979
 40
1.0
 40
1.0
 40
1.0
 40
1.0
 10
237.2980311676448
 20
215.8014829758917
 30
0.0
 10
237.3485382721094
 20
215.7751059814834
 30
0.0
 10
237.4390129184297
 20
215.7278562081023
 30
0.0
 10
237.8136563362668
 20
215.6672075748485
 30
0.0
 10
238.300168740278
 20
215.6133207995693
 30
0.0
 10
238.891496631468
 20
215.5600872770917
 30
0.0
 10
239.6455992783425
 20
215.508537636928
 30
0.0
 10
240.2866892219395
 20
215.4415933596743
 30
0.0
 10
240.9359669705481
 20
215.4060744388465
 30
0.0
 10
241.314288760606
 20
215.4842584419222
 30
0.0
 10
241.5661577084487
 20
215.5924622738906
 30
0.0
 10
241.6997426074132
 20
215.6807982616618
 30
0.0
 10
241.7615043522235
 20
215.7546417644912
 30
0.0
 10
241.690068388847
 20
215.8351567903546
 30
0.0
 10
241.652835921902
 20
215.8771212701117
 30
0.0
  0
SPLINE
  5
FF
330
1F
100
AcDbEntity
  8
0
  6
Continuous
 62
     7
370
    15
100
AcDbSpline
210
0.0
220
0.0
230
1.0
 70
     8
 71
     3
 72
    25
 73
    21
 74
     0
 42
0.00000001
 43
0.00000001
 40
0.0
 40
0.0
 40
0.0
 40
0.0
 40
0.0176268869902508
 40
0.0344980441856529
 40
0.0503151177816487
 40
0.0649738214219473
 40
0.0909458622065212
 40
0.1134394932922148
 40
0.1538404992325488
 40
0.1912347399242825
 40
0.2995718540016348
 40
0.3999645412880792
 40
0.5012966809060265
 40
0.5949070728825703
 40
0.6784881571327293
 40
0.7336302056751591
 40
0.8075209229184616
 40
0.8952853068742985
 40
0.9453086546988192
 40
1.0
 40
1.0
 40
1.0
 40
1.0
 10
241.2955135270541
 20
215.2515393238877
 30
0.0
 10
241.3352241897132
 20
215.2559337749352
 30
0.0
 10
241.4129429721511
 20
215.2645342706718
 30
0.0
 10
241.5148228975144
 20
215.3105375030547
 30
0.0
 10
241.5958380896959
 20
215.3694967945833
 30
0.0
 10
241.6720400616095
 20
215.4530727475281
 30
0.0
 10
241.7250891391194
 20
215.5567190075581
 30
0.0
 10
241.7492498467179
 20
215.6890525903534
 30
0.0
 10
241.7263583080647
 20
215.8209209913083
 30
0.0
 10
241.5551229461605
 20
216.0661305225909
 30
0.0
 10
241.2123280330806
 20
216.1532127567546
 30
0.0
 10
240.7172157794153
 20
216.211767509408
 30
0.0
 10
240.1040029426037
 20
216.2701249024865
 30
0.0
 10
239.4545351166478
 20
216.3197469762214
 30
0.0
 10
238.914833677046
 20
216.3592285160161
 30
0.0
 10
238.4688247672852
 20
216.3984049122779
 30
0.0
 10
238.0801166002573
 20
216.4366329030796
 30
0.0
 10
237.8199689596931
 20
216.4644744845074
 30
0.0
 10
237.6895223188458
 20
216.4869697026536
 30
0.0
 10
237.6808591015977
 20
216.49943233014
 30
0.0
 10
237.6763343974536
 20
216.5059414249276
 30
0.0
  0
SPLINE
  5
100
330
1F
100
AcDbEntity
  8
0
  6
Continuous
 62
     7
370
    15
100
AcDbSpline
210
0.0
220
0.0
230
1.0
 70
     8
 71
     3
 72
    12
 73
     8
 74
     0
 42
0.00000001
 43
0.00000001
 40
0.0
 40
0.0
 40
0.0
 40
0.0
 40
0.1756476026937465
 40
0.5723156357634481
 40
0.7586165168330588
 40
0.9207514297076087
 40
1.0
 40
1.0
 40
1.0
 40
1.0
 10
237.7646610304301
 20
215.687453702501
 30
0.0
 10
237.6990970850495
 20
215.678282385091
 30
0.0
 10
237.4854689426315
 20
215.6483993222209
 30
0.0
 10
237.2695641175049
 20
215.5744688010073
 30
0.0
 10
237.1084024752985
 20
215.3595332598788
 30
0.0
 10
237.0771912118148
 20
215.1993157812422
 30
0.0
 10
237.1081680607908
 20
215.1206525256428
 30
0.0
 10
237.1183380648081
 20
215.0948266055798
 30
0.0
  0
LINE
  5
101
330
1F
100
AcDbEntity
  8
0
  6
Continuous
 62
     7
370
    15
100
AcDbLine
 10
237.2758507892
 20
206.397022542
 30
0.0
 11
236.1573919817
 21
206.397022542
 31
0.0
  0
LINE
  5
102
330
1F
100
AcDbEntity
  8
0
  6
Continuous
 62
     7
370
    15
100
AcDbLine
 10
236.1573919817
 20
205.5970229697
 30
0.0
 11
237.9160940811
 21
205.5970229697
 31
0.0
  0
LINE
  5
103
330
1F
100
AcDbEntity
  8
0
  6
Continuous
 62
     7
370
    15
100
AcDbLine
 10
234.7471013829
 20
219.1947632958
 30
0.0
 11
234.7471013829
 21
219.2482333187
 31
0.0
  0
LINE
  5
104
330
1F
100
AcDbEntity
  8
0
  6
Continuous
 62
     7
370
    15
100
AcDbLine
 10
231.7471027538
 20
219.2482333187
 30
0.0
 11
231.7471027538
 21
219.1947632958
 31
0.0
  0
SPLINE
  5
105
330
1F
100
AcDbEntity
  8
0
  6
Continuous
 62
     7
370
    15
100
AcDbSpline
210
0.0
220
0.0
230
1.0
 70
     8
 71
     3
 72
    15
 73
    11
 74
     0
 42
0.00000001
 43
0.00000001
 40
0.0
 40
0.0
 40
0.0
 40
0.0
 40
0.1077551036863209
 40
0.235250774724543
 40
0.3627908901706017
 40
0.4902566411288575
 40
0.6176624605260265
 40
0.7450971317547226
 40
0.8724965622541917
 40
1.0
 40
1.0
 40
1.0
 40
1.0
 10
231.7631587549632
 20
203.194762535802
 30
0.0
 10
231.7796986878697
 20
202.8822417725927
 30
0.0
 10
231.8158086436586
 20
202.1999469285685
 30
0.0
 10
232.1520088255976
 20
201.1907931945952
 30
0.0
 10
232.7100958329296
 20
200.2273148412905
 30
0.0
 10
233.4649261547945
 20
199.4063959037356
 30
0.0
 10
234.3800816354716
 20
198.7711173674064
 30
0.0
 10
235.4073403506276
 20
198.3509614515769
 30
0.0
 10
236.5033219713517
 20
198.1371530869735
 30
0.0
 10
237.2390812893192
 20
198.2026836998346
 30
0.0
 10
237.6071110531275
 20
198.235462375394
 30
0.0
  0
SPLINE
  5
106
330
1F
100
AcDbEntity
  8
0
  6
Continuous
 62
     7
370
    15
100
AcDbSpline
210
0.0
220
0.0
230
1.0
 70
     8
 71
     3
 72
    15
 73
    11
 74
     0
 42
0.00000001
 43
0.00000001
 40
0.0
 40
0.0
 40
0.0
 40
0.0
 40
0.13165152765372
 40
0.2633126517915331
 40
0.3951894494802554
 40
0.5266690080863677
 40
0.6575465462284578
 40
0.7882125285852056
 40
0.9184593483091296
 40
1.0
 40
1.0
 40
1.0
 40
1.0
 10
237.1094197198336
 20
201.1931472946321
 30
0.0
 10
236.957235740699
 20
201.1813329621285
 30
0.0
 10
236.6528566892723
 20
201.1577034359383
 30
0.0
 10
236.2019988424568
 20
201.2591833780552
 30
0.0
 10
235.782968647803
 20
201.4460340501069
 30
0.0
 10
235.4125755718447
 20
201.7186310665627
 30
0.0
 10
235.1103141909882
 20
202.0645414806873
 30
0.0
 10
234.8911568773555
 20
202.4662496234973
 30
0.0
 10
234.7737838787894
 20
202.8525626949837
 30
0.0
 10
234.7636099467994
 20
203.099636307422
 30
0.0
 10
234.7596928640788
 20
203.194762535802
 30
0.0
  0
SPLINE
  5
107
330
1F
100
AcDbEntity
  8
0
  6
Continuous
 62
     7
370
    15
100
AcDbSpline
210
0.0
220
0.0
230
1.0
 70
     8
 71
     3
 72
    15
 73
    11
 74
     0
 42
0.00000001
 43
0.00000001
 40
0.0
 40
0.0
 40
0.0
 40
0.0
 40
0.1249271214721239
 40
0.2499164818036735
 40
0.3749670227679549
 40
0.4999570499749355
 40
0.6249205129505147
 40
0.7499166961711446
 40
0.8748739392863579
 40
1.0
 40
1.0
 40
1.0
 40
1.0
 10
237.7779826685374
 20
224.1252837259685
 30
0.0
 10
237.4116060091326
 20
224.1686155825423
 30
0.0
 10
236.6786701609801
 20
224.2553008836788
 30
0.0
 10
235.5746440833918
 20
224.0901111419806
 30
0.0
 10
234.533844791274
 20
223.7011803426327
 30
0.0
 10
233.5986558144338
 20
223.0961658454632
 30
0.0
 10
232.8180123057865
 20
222.2999720012577
 30
0.0
 10
232.2300499784044
 20
221.3556087256187
 30
0.0
 10
231.8342136625946
 20
220.3071662528243
 30
0.0
 10
231.7761527879593
 20
219.5680440004308
 30
0.0
 10
231.7471027537768
 20
219.1982334036743
 30
0.0
  0
SPLINE
  5
108
330
1F
100
AcDbEntity
  8
0
  6
Continuous
 62
     7
370
    15
100
AcDbSpline
210
0.0
220
0.0
230
1.0
 70
     8
 71
     3
 72
    15
 73
    11
 74
     0
 42
0.00000001
 43
0.00000001
 40
0.0
 40
0.0
 40
0.0
 40
0.0
 40
0.1242532604422722
 40
0.2486330675825304
 40
0.3735413482506271
 40
0.4985832518969759
 40
0.6236637152450767
 40
0.7490698239710455
 40
0.8744383580209767
 40
0.9999999999999999
 40
0.9999999999999999
 40
0.9999999999999999
 40
0.9999999999999999
 10
234.74710138287
 20
219.1982334036743
 30
0.0
 10
234.7606618809657
 20
219.3501893009374
 30
0.0
 10
234.7877966879519
 20
219.6542558561273
 30
0.0
 10
234.9622536495415
 20
220.0815754266124
 30
0.0
 10
235.2155860912073
 20
220.463214660735
 30
0.0
 10
235.5454100553338
 20
220.7831449561219
 30
0.0
 10
235.9363362419761
 20
221.0237209149148
 30
0.0
 10
236.3690343087293
 20
221.1753447434928
 30
0.0
 10
236.826566160423
 20
221.2288022091201
 30
0.0
 10
237.1284853898735
 20
221.1881122033757
 30
0.0
 10
237.279561178345
 20
221.1677515436326
 30
0.0
  0
LINE
  5
109
330
1F
100
AcDbEntity
  8
0
  6
Continuous
 62
     7
370
    15
100
AcDbLine
 10
252.6501685544
 20
203.8098996994
 30
0.0
 11
237.1091962024
 21
201.1934816394
 31
0.0
  0
LINE
  5
10A
330
1F
100
AcDbEntity
  8
0
  6
Continuous
 62
     7
370
    15
100
AcDbLine
 10
237.6072526142
 20
198.2351140608
 30
0.0
 11
253.1482249662
 21
200.8515325863
 31
0.0
  0
LINE
  5
10B
330
1F
100
AcDbEntity
  8
0
  6
Continuous
 62
     7
370
    15
100
AcDbLine
 10
237.2797772452
 20
221.1673259292
 30
0.0
 11
252.8207421466
 21
218.550906938
 31
0.0
  0
LINE
  5
10C
330
1F
100
AcDbEntity
  8
0
  6
Continuous
 62
     7
370
    15
100
AcDbLine
 10
253.3188134595
 20
221.509274051
 30
0.0
 11
237.7778411075
 21
224.1256925766
 31
0.0
  0
SPLINE
  5
10D
330
1F
100
AcDbEntity
  8
0
  6
Continuous
 62
     7
370
    15
100
AcDbSpline
210
0.0
220
0.0
230
1.0
 70
     8
 71
     3
 72
    12
 73
     8
 74
     0
 42
0.00000001
 43
0.00000001
 40
0.0
 40
0.0
 40
0.0
 40
0.0
 40
0.1526139307072609
 40
0.2973908392825297
 40
0.5623711728146452
 40
0.7966022742850417
 40
0.9999999999999999
 40
0.9999999999999999
 40
0.9999999999999999
 40
0.9999999999999999
 10
253.1478822394793
 20
200.8518417854225
 30
0.0
 10
253.3991018606477
 20
200.9045798606639
 30
0.0
 10
253.8886404868879
 20
201.0073478084228
 30
0.0
 10
254.7381623115564
 20
201.4365932755073
 30
0.0
 10
255.5501574955817
 20
202.1809833112959
 30
0.0
 10
256.1145822854854
 20
203.2520309838322
 30
0.0
 10
256.1962729813998
 20
203.9869549253111
 30
0.0
 10
256.2342405482714
 20
204.328527164123
 30
0.0
  0
SPLINE
  5
10E
330
1F
100
AcDbEntity
  8
0
  6
Continuous
 62
     7
370
    15
100
AcDbSpline
210
0.0
220
0.0
230
1.0
 70
     8
 71
     3
 72
    11
 73
     7
 74
     0
 42
0.00000001
 43
0.00000001
 40
0.0
 40
0.0
 40
0.0
 40
0.0
 40
0.200353644134469
 40
0.4328004438907008
 40
0.6990211869197542
 40
1.0
 40
1.0
 40
1.0
 40
1.0
 10
253.2359332009738
 20
204.328527164123
 30
0.0
 10
253.2227055900876
 20
204.2721005409445
 30
0.0
 10
253.1941315360052
 20
204.1502087347615
 30
0.0
 10
253.0782469417139
 20
203.9845074203719
 30
0.0
 10
252.8934875996202
 20
203.8456019420358
 30
0.0
 10
252.7358655110546
 20
203.8222127090741
 30
0.0
 10
252.6522249146884
 20
203.8098014448201
 30
0.0
  0
SPLINE
  5
10F
330
1F
100
AcDbEntity
  8
0
  6
Continuous
 62
     7
370
    15
100
AcDbSpline
210
0.0
220
0.0
230
1.0
 70
     8
 71
     3
 72
    12
 73
     8
 74
     0
 42
0.00000001
 43
0.00000001
 40
0.0
 40
0.0
 40
0.0
 40
0.0
 40
0.2034063295255029
 40
0.4376409556918522
 40
0.7026161450413805
 40
0.8473900579471296
 40
1.0
 40
1.0
 40
1.0
 40
1.0
 10
256.2342405482714
 20
217.8871579956626
 30
0.0
 10
256.212806420012
 20
218.2301671836924
 30
0.0
 10
256.166689603501
 20
218.9681720885085
 30
0.0
 10
255.6545691875344
 20
220.0652768510581
 30
0.0
 10
254.8793676646278
 20
220.8480349070953
 30
0.0
 10
254.0515152969777
 20
221.3177635750329
 30
0.0
 10
253.5675269020015
 20
221.4440246266309
 30
0.0
 10
253.3191561862414
 20
221.5088186342632
 30
0.0
  0
SPLINE
  5
110
330
1F
100
AcDbEntity
  8
0
  6
Continuous
 62
     7
370
    15
100
AcDbSpline
210
0.0
220
0.0
230
1.0
 70
     8
 71
     3
 72
    12
 73
     8
 74
     0
 42
0.00000001
 43
0.00000001
 40
0.0
 40
0.0
 40
0.0
 40
0.0
 40
0.1555469387593176
 40
0.3021967960522135
 40
0.5679618796206853
 40
0.7999449029016247
 40
1.0
 40
1.0
 40
1.0
 40
1.0
 10
252.8188347979968
 20
218.5518252220367
 30
0.0
 10
252.8593764122219
 20
218.5360753436989
 30
0.0
 10
252.9381407133606
 20
218.5054764594659
 30
0.0
 10
253.0677695621202
 20
218.4104341730947
 30
0.0
 10
253.1821980239753
 20
218.2642595907605
 30
0.0
 10
253.2463549825833
 20
218.0700096510656
 30
0.0
 10
253.2392316551799
 20
217.9450298485235
 30
0.0
 10
253.2359332009738
 20
217.8871579956626
 30
0.0
  0
LINE
  5
111
330
1F
100
AcDbEntity
  8
0
  6
Continuous
 62
     7
370
    15
100
AcDbLine
 10
253.2350838348
 20
217.9371579107
 30
0.0
 11
253.2350838348
 21
217.6947630499
 31
0.0
  0
LINE
  5
112
330
1F
100
AcDbEntity
  8
0
  6
Continuous
 62
     7
370
    15
100
AcDbLine
 10
253.2350838348
 20
204.6947627817
 30
0.0
 11
253.2350838348
 21
204.2785272491
 31
0.0
  0
LINE
  5
113
330
1F
100
AcDbEntity
  8
0
  6
Continuous
 62
     7
370
    15
100
AcDbLine
 10
256.2350899145
 20
204.2785272491
 30
0.0
 11
256.2350899145
 21
204.6975073893
 31
0.0
  0
LINE
  5
114
330
1F
100
AcDbEntity
  8
0
  6
Continuous
 62
     7
370
    15
100
AcDbLine
 10
256.2350899145
 20
217.6920184423
 30
0.0
 11
256.2350899145
 21
217.9371579107
 31
0.0
  0
LINE
  5
115
330
1F
100
AcDbEntity
  8
0
  6
Continuous
 62
     7
370
    15
100
AcDbLine
 10
242.5343662664
 20
216.7947627161
 30
0.0
 11
240.9160927102
 21
216.7947627161
 31
0.0
  0
LINE
  5
116
330
1F
100
AcDbEntity
  8
0
  6
Continuous
 62
     7
370
    15
100
AcDbLine
 10
241.5430143639
 20
215.9947631438
 30
0.0
 11
242.5343662664
 21
215.9947631438
 31
0.0
  0
LINE
  5
117
330
1F
100
AcDbEntity
  8
0
  6
Continuous
 62
     7
370
    15
100
AcDbLine
 10
242.8725928232
 20
218.0629018251
 30
0.0
 11
242.6060706541
 21
216.8546546739
 31
0.0
  0
LINE
  5
118
330
1F
100
AcDbEntity
  8
0
  6
Continuous
 62
     7
370
    15
100
AcDbLine
 10
243.3742255136
 20
216.6231045988
 30
0.0
 11
243.6538085505
 21
217.8905740869
 31
0.0
  0
SPLINE
  5
119
330
1F
100
AcDbEntity
  8
0
  6
Continuous
 62
     7
370
    15
100
AcDbSpline
210
0.0
220
0.0
230
1.0
 70
     8
 71
     3
 72
    11
 73
     7
 74
     0
 42
0.00000001
 43
0.00000001
 40
0.0
 40
0.0
 40
0.0
 40
0.0
 40
0.2541309399275824
 40
0.5022690019548702
 40
0.7495126202113759
 40
1.0
 40
1.0
 40
1.0
 40
1.0
 10
242.5343662663882
 20
215.9947631437694
 30
0.0
 10
242.6344550108232
 20
216.0050092552476
 30
0.0
 10
242.8322722218587
 20
216.0252598559323
 30
0.0
 10
243.0904175480569
 20
216.1792923437021
 30
0.0
 10
243.2938665338925
 20
216.3983664763992
 30
0.0
 10
243.3556050152418
 20
216.5854162602593
 30
0.0
 10
243.3866754337733
 20
216.6795506630455
 30
0.0
  0
LINE
  5
11A
330
1F
100
AcDbEntity
  8
0
  6
Continuous
 62
     7
370
    15
100
AcDbLine
 10
252.514702098
 20
217.6947630499
 30
0.0
 11
252.514702098
 21
204.6947627817
 31
0.0
  0
LINE
  5
11B
330
1F
100
AcDbEntity
  8
0
  6
Continuous
 62
     7
370
    15
100
AcDbLine
 10
252.514702098
 20
217.6947630499
 30
0.0
 11
255.2336871787
 21
217.6947630499
 31
0.0
  0
LWPOLYLINE
  5
11C
330
1F
100
AcDbEntity
  8
0
  6
Continuous
 62
     7
370
    15
100
AcDbPolyline
 90
        9
 70
   128
 43
0.0
 10
255.9642017051
 20
216.4947627601
 10
255.9501648113
 20
216.7288711783
 10
255.9085905715
 20
216.9539830204
 10
255.8410883113
 20
217.1614472311
 10
255.7502359315
 20
217.3432912235
 10
255.639535205
 20
217.4925263528
 10
255.5132329627
 20
217.6034184661
 10
255.3762018844
 20
217.6717053656
 10
255.2336871787
 20
217.6947630499
  0
LINE
  5
11D
330
1F
100
AcDbEntity
  8
0
  6
Continuous
 62
     7
370
    15
100
AcDbLine
 10
255.9642017051
 20
216.4947627601
 30
0.0
 11
255.9642017051
 21
205.8947630715
 31
0.0
  0
LWPOLYLINE
  5
11E
330
1F
100
AcDbEntity
  8
0
  6
Continuous
 62
     7
370
    15
100
AcDbPolyline
 90
        9
 70
   128
 43
0.0
 10
255.2336871787
 20
204.6947627817
 10
255.3762018844
 20
204.717820466
 10
255.5132329627
 20
204.7861073655
 10
255.639535205
 20
204.8969994787
 10
255.7502359315
 20
205.0462346081
 10
255.8410883113
 20
205.2280786004
 10
255.9085905715
 20
205.4355428111
 10
255.9501648113
 20
205.6606546533
 10
255.9642017051
 20
205.8947630715
  0
LINE
  5
11F
330
1F
100
AcDbEntity
  8
0
  6
Continuous
 62
     7
370
    15
100
AcDbLine
 10
255.2336871787
 20
204.6947627817
 30
0.0
 11
252.514702098
 21
204.6947627817
 31
0.0
  0
LINE
  5
120
330
1F
100
AcDbEntity
  8
0
  6
Continuous
 62
     7
370
    15
100
AcDbLine
 10
256.1857074663
 20
204.6947627817
 30
0.0
 11
255.2336871787
 21
204.6947627817
 31
0.0
  0
LINE
  5
121
330
1F
100
AcDbEntity
  8
0
  6
Continuous
 62
     7
370
    15
100
AcDbLine
 10
255.9642017051
 20
205.8947630715
 30
0.0
 11
256.9162219926
 21
205.8947630715
 31
0.0
  0
LWPOLYLINE
  5
122
330
1F
100
AcDbEntity
  8
0
  6
Continuous
 62
     7
370
    15
100
AcDbPolyline
 90
        9
 70
   128
 43
0.0
 10
256.9162219926
 20
205.8947630715
 10
256.9021850988
 20
205.6606546533
 10
256.8606108591
 20
205.4355428111
 10
256.7931085988
 20
205.2280786004
 10
256.702256219
 20
205.0462346081
 10
256.5915554925
 20
204.8969994787
 10
256.4652681514
 20
204.7861073655
 10
256.3282221719
 20
204.717820466
 10
256.1857074663
 20
204.6947627817
  0
LINE
  5
123
330
1F
100
AcDbEntity
  8
0
  6
Continuous
 62
     7
370
    15
100
AcDbLine
 10
255.2336871787
 20
217.6947630499
 30
0.0
 11
256.1857074663
 21
217.6947630499
 31
0.0
  0
LWPOLYLINE
  5
124
330
1F
100
AcDbEntity
  8
0
  6
Continuous
 62
     7
370
    15
100
AcDbPolyline
 90
        9
 70
   128
 43
0.0
 10
256.1857074663
 20
217.6947630499
 10
256.3282221719
 20
217.6717053656
 10
256.4652681514
 20
217.6034184661
 10
256.5915554925
 20
217.4925263528
 10
256.702256219
 20
217.3432912235
 10
256.7931085988
 20
217.1614472311
 10
256.8606108591
 20
216.9539830204
 10
256.9021850988
 20
216.7288711783
 10
256.9162219926
 20
216.4947627601
  0
LINE
  5
125
330
1F
100
AcDbEntity
  8
0
  6
Continuous
 62
     7
370
    15
100
AcDbLine
 10
256.9162219926
 20
216.4947627601
 30
0.0
 11
255.9642017051
 21
216.4947627601
 31
0.0
  0
LINE
  5
126
330
1F
100
AcDbEntity
  8
0
  6
Continuous
 62
     7
370
    15
100
AcDbLine
 10
256.9162219926
 20
216.4947627601
 30
0.0
 11
256.9162219926
 21
205.8947630715
 31
0.0
  0
LINE
  5
127
330
1F
100
AcDbEntity
  8
0
  6
Continuous
 62
     7
370
    15
100
AcDbLine
 10
251.9360900089
 20
217.6947630499
 30
0.0
 11
252.514702098
 21
217.6947630499
 31
0.0
  0
LINE
  5
128
330
1F
100
AcDbEntity
  8
0
  6
Continuous
 62
     7
370
    15
100
AcDbLine
 10
252.514702098
 20
204.6947627817
 30
0.0
 11
251.9360900089
 21
204.6947627817
 31
0.0
  0
CIRCLE
  5
129
330
1F
100
AcDbEntity
  8
0
  6
Continuous
 62
     7
370
    15
100
AcDbCircle
 10
262.4360934183
 20
206.1947629158
 30
0.0
 40
3.0
  0
LINE
  5
12A
330
1F
100
AcDbEntity
  8
0
  6
Continuous
 62
     7
370
    15
100
AcDbLine
 10
262.0360970661
 20
204.2947629955
 30
0.0
 11
262.8360957071
 21
204.2947629955
 31
0.0
  0
LINE
  5
12B
330
1F
100
AcDbEntity
  8
0
  6
Continuous
 62
     7
370
    15
100
AcDbLine
 10
262.8360957071
 20
204.2947629955
 30
0.0
 11
262.8360957071
 21
205.7947627757
 31
0.0
  0
LINE
  5
12C
330
1F
100
AcDbEntity
  8
0
  6
Continuous
 62
     7
370
    15
100
AcDbLine
 10
262.8360957071
 20
205.7947627757
 30
0.0
 11
264.3360912963
 21
205.7947627757
 31
0.0
  0
LINE
  5
12D
330
1F
100
AcDbEntity
  8
0
  6
Continuous
 62
     7
370
    15
100
AcDbLine
 10
264.3360912963
 20
205.7947627757
 30
0.0
 11
264.3360912963
 21
206.5947628137
 31
0.0
  0
LINE
  5
12E
330
1F
100
AcDbEntity
  8
0
  6
Continuous
 62
     7
370
    15
100
AcDbLine
 10
264.3360912963
 20
206.5947628137
 30
0.0
 11
262.8360957071
 21
206.5947628137
 31
0.0
  0
LINE
  5
12F
330
1F
100
AcDbEntity
  8
0
  6
Continuous
 62
     7
370
    15
100
AcDbLine
 10
262.8360957071
 20
206.5947628137
 30
0.0
 11
262.8360957071
 21
208.0947628267
 31
0.0
  0
LINE
  5
130
330
1F
100
AcDbEntity
  8
0
  6
Continuous
 62
     7
370
    15
100
AcDbLine
 10
262.8360957071
 20
208.0947628267
 30
0.0
 11
262.0360970661
 21
208.0947628267
 31
0.0
  0
LINE
  5
131
330
1F
100
AcDbEntity
  8
0
  6
Continuous
 62
     7
370
    15
100
AcDbLine
 10
262.0360970661
 20
208.0947628267
 30
0.0
 11
262.0360970661
 21
206.5947628137
 31
0.0
  0
LINE
  5
132
330
1F
100
AcDbEntity
  8
0
  6
Continuous
 62
     7
370
    15
100
AcDbLine
 10
262.0360970661
 20
206.5947628137
 30
0.0
 11
260.5360865756
 21
206.5947628137
 31
0.0
  0
LINE
  5
133
330
1F
100
AcDbEntity
  8
0
  6
Continuous
 62
     7
370
    15
100
AcDbLine
 10
260.5360865756
 20
206.5947628137
 30
0.0
 11
260.5360865756
 21
205.7947627757
 31
0.0
  0
LINE
  5
134
330
1F
100
AcDbEntity
  8
0
  6
Continuous
 62
     7
370
    15
100
AcDbLine
 10
260.5360865756
 20
205.7947627757
 30
0.0
 11
262.0360970661
 21
205.7947627757
 31
0.0
  0
LINE
  5
135
330
1F
100
AcDbEntity
  8
0
  6
Continuous
 62
     7
370
    15
100
AcDbLine
 10
262.0360970661
 20
205.7947627757
 30
0.0
 11
262.0360970661
 21
204.2947629955
 31
0.0
  0
CIRCLE
  5
136
330
1F
100
AcDbEntity
  8
0
  6
Continuous
 62
     7
370
    15
100
AcDbCircle
 10
262.4360934183
 20
216.1947629158
 30
0.0
 40
3.0
  0
LINE
  5
137
330
1F
100
AcDbEntity
  8
0
  6
Continuous
 62
     7
370
    15
100
AcDbLine
 10
260.5360865756
 20
216.5947630559
 30
0.0
 11
260.5360865756
 21
215.7947630179
 31
0.0
  0
LINE
  5
138
330
1F
100
AcDbEntity
  8
0
  6
Continuous
 62
     7
370
    15
100
AcDbLine
 10
260.5360865756
 20
215.7947630179
 30
0.0
 11
262.0360970661
 21
215.7947630179
 31
0.0
  0
LINE
  5
139
330
1F
100
AcDbEntity
  8
0
  6
Continuous
 62
     7
370
    15
100
AcDbLine
 10
262.0360970661
 20
215.7947630179
 30
0.0
 11
262.0360970661
 21
214.2947630048
 31
0.0
  0
LINE
  5
13A
330
1F
100
AcDbEntity
  8
0
  6
Continuous
 62
     7
370
    15
100
AcDbLine
 10
262.0360970661
 20
214.2947630048
 30
0.0
 11
262.8360957071
 21
214.2947630048
 31
0.0
  0
LINE
  5
13B
330
1F
100
AcDbEntity
  8
0
  6
Continuous
 62
     7
370
    15
100
AcDbLine
 10
262.8360957071
 20
214.2947630048
 30
0.0
 11
262.8360957071
 21
215.7947630179
 31
0.0
  0
LINE
  5
13C
330
1F
100
AcDbEntity
  8
0
  6
Continuous
 62
     7
370
    15
100
AcDbLine
 10
262.8360957071
 20
215.7947630179
 30
0.0
 11
264.3360912963
 21
215.7947630179
 31
0.0
  0
LINE
  5
13D
330
1F
100
AcDbEntity
  8
0
  6
Continuous
 62
     7
370
    15
100
AcDbLine
 10
264.3360912963
 20
215.7947630179
 30
0.0
 11
264.3360912963
 21
216.5947630559
 31
0.0
  0
LINE
  5
13E
330
1F
100
AcDbEntity
  8
0
  6
Continuous
 62
     7
370
    15
100
AcDbLine
 10
264.3360912963
 20
216.5947630559
 30
0.0
 11
262.8360957071
 21
216.5947630559
 31
0.0
  0
LINE
  5
13F
330
1F
100
AcDbEntity
  8
0
  6
Continuous
 62
     7
370
    15
100
AcDbLine
 10
262.8360957071
 20
216.5947630559
 30
0.0
 11
262.8360957071
 21
218.0947628361
 31
0.0
  0
LINE
  5
140
330
1F
100
AcDbEntity
  8
0
  6
Continuous
 62
     7
370
    15
100
AcDbLine
 10
262.8360957071
 20
218.0947628361
 30
0.0
 11
262.0360970661
 21
218.0947628361
 31
0.0
  0
LINE
  5
141
330
1F
100
AcDbEntity
  8
0
  6
Continuous
 62
     7
370
    15
100
AcDbLine
 10
262.0360970661
 20
218.0947628361
 30
0.0
 11
262.0360970661
 21
216.5947630559
 31
0.0
  0
LINE
  5
142
330
1F
100
AcDbEntity
  8
0
  6
Continuous
 62
     7
370
    15
100
AcDbLine
 10
262.0360970661
 20
216.5947630559
 30
0.0
 11
260.5360865756
 21
216.5947630559
 31
0.0
  0
LINE
  5
143
330
1F
100
AcDbEntity
  8
0
  6
Continuous
 62
     7
370
    15
100
AcDbLine
 10
256.4360916778
 20
217.6947630499
 30
0.0
 11
261.4183247253
 21
222.2966486145
 31
0.0
  0
ARC
  5
144
330
1F
100
AcDbEntity
  8
0
  6
Continuous
 62
     7
370
    15
100
AcDbCircle
 10
262.4360934183
 20
221.1947629158
 30
0.0
 40
1.499999999999994
100
AcDbArc
 50
43.6028189726
 51
132.7273953127
  0
ARC
  5
145
330
1F
100
AcDbEntity
  8
0
  6
Continuous
 62
     7
370
    15
100
AcDbCircle
 10
251.9360934183
 20
211.1947629158
 30
0.0
 40
15.99999999999999
100
AcDbArc
 50
316.3971810272
 51
43.6028189726
  0
ARC
  5
146
330
1F
100
AcDbEntity
  8
0
  6
Continuous
 62
     7
370
    15
100
AcDbCircle
 10
262.4360934182
 20
201.1947629158
 30
0.0
 40
1.500000000000011
100
AcDbArc
 50
227.2726046868
 51
316.3971810272
  0
LINE
  5
147
330
1F
100
AcDbEntity
  8
0
  6
Continuous
 62
     7
370
    15
100
AcDbLine
 10
261.4183247253
 20
200.092877217
 30
0.0
 11
256.4360916778
 21
204.6947627817
 31
0.0
  0
LINE
  5
148
330
1F
100
AcDbEntity
  8
0
  6
Continuous
 62
     7
370
    15
100
AcDbLine
 10
256.2350899145
 20
217.6947630499
 30
0.0
 11
256.4360916778
 21
217.6947630499
 31
0.0
  0
LINE
  5
149
330
1F
100
AcDbEntity
  8
0
  6
Continuous
 62
     7
370
    15
100
AcDbLine
 10
256.4360916778
 20
204.6947627817
 30
0.0
 11
256.2350899145
 21
204.6947627817
 31
0.0
  0
LINE
  5
14A
330
1F
100
AcDbEntity
  8
0
  6
Continuous
 62
     7
370
    15
100
AcDbLine
 10
259.4360977575
 20
61.1947569553
 30
0.0
 11
264.4360929891
 21
61.1947569553
 31
0.0
  0
LINE
  5
14B
330
1F
100
AcDbEntity
  8
0
  6
Continuous
 62
     7
370
    15
100
AcDbLine
 10
259.4360977575
 20
76.1947575514
 30
0.0
 11
259.4360977575
 21
61.1947569553
 31
0.0
  0
LINE
  5
14C
330
1F
100
AcDbEntity
  8
0
  6
Continuous
 62
     7
370
    15
100
AcDbLine
 10
259.4360977575
 20
76.1947575514
 30
0.0
 11
264.4360929891
 21
76.1947575514
 31
0.0
  0
LINE
  5
14D
330
1F
100
AcDbEntity
  8
0
  6
Continuous
 62
     7
370
    15
100
AcDbLine
 10
264.4360929891
 20
76.1947575514
 30
0.0
 11
264.4360929891
 21
61.1947569553
 31
0.0
  0
LINE
  5
14E
330
1F
100
AcDbEntity
  8
0
  6
Continuous
 62
     7
370
    15
100
AcDbLine
 10
264.4360929891
 20
76.1947575514
 30
0.0
 11
279.4360935852
 21
76.1947575514
 31
0.0
  0
ARC
  5
14F
330
1F
100
AcDbEntity
  8
0
  6
Continuous
 62
     7
370
    15
100
AcDbCircle
 10
264.4360934183
 20
76.1947629158
 30
0.0
 40
15.0
100
AcDbArc
 50
270.0
 51
0.0
  0
LINE
  5
150
330
1F
100
AcDbEntity
  8
0
  6
Continuous
 62
     7
370
    15
100
AcDbLine
 10
264.4360929891
 20
201.2072708015
 30
0.0
 11
264.4360929891
 21
76.1947575514
 31
0.0
  0
LINE
  5
151
330
1F
100
AcDbEntity
  8
0
  6
Continuous
 62
     7
370
    15
100
AcDbLine
 10
259.4360977575
 20
201.9237856869
 30
0.0
 11
259.4360977575
 21
76.1947575514
 31
0.0
  0
LINE
  5
152
330
1F
100
AcDbEntity
  8
0
  6
Continuous
 62
     7
370
    15
100
AcDbLine
 10
279.4360935852
 20
76.1947575514
 30
0.0
 11
279.4360935852
 21
346.1947682802
 31
0.0
  0
LINE
  5
153
330
1F
100
AcDbEntity
  8
0
  6
Continuous
 62
     7
370
    15
100
AcDbLine
 10
264.4360929891
 20
221.1822550301
 30
0.0
 11
264.4360929891
 21
346.1947682802
 31
0.0
  0
LINE
  5
154
330
1F
100
AcDbEntity
  8
0
  6
Continuous
 62
     7
370
    15
100
AcDbLine
 10
264.4360929891
 20
346.1947682802
 30
0.0
 11
279.4360935852
 21
346.1947682802
 31
0.0
  0
LINE
  5
155
330
1F
100
AcDbEntity
  8
0
  6
Continuous
 62
     7
370
    15
100
AcDbLine
 10
259.4360977575
 20
346.1947682802
 30
0.0
 11
264.4360929891
 21
346.1947682802
 31
0.0
  0
LINE
  5
156
330
1F
100
AcDbEntity
  8
0
  6
Continuous
 62
     7
370
    15
100
AcDbLine
 10
259.4360977575
 20
220.4657401447
 30
0.0
 11
259.4360977575
 21
346.1947682802
 31
0.0
  0
LINE
  5
157
330
1F
100
AcDbEntity
  8
0
  6
Continuous
 62
     7
370
    15
100
AcDbLine
 10
259.4360977575
 20
361.1947688762
 30
0.0
 11
264.4360929891
 21
361.1947688762
 31
0.0
  0
LINE
  5
158
330
1F
100
AcDbEntity
  8
0
  6
Continuous
 62
     7
370
    15
100
AcDbLine
 10
264.4360929891
 20
346.1947682802
 30
0.0
 11
264.4360929891
 21
361.1947688762
 31
0.0
  0
LINE
  5
159
330
1F
100
AcDbEntity
  8
0
  6
Continuous
 62
     7
370
    15
100
AcDbLine
 10
259.4360977575
 20
346.1947682802
 30
0.0
 11
259.4360977575
 21
361.1947688762
 31
0.0
  0
ARC
  5
15A
330
1F
100
AcDbEntity
  8
0
  6
Continuous
 62
     7
370
    15
100
AcDbCircle
 10
264.4360934183
 20
346.1947629158
 30
0.0
 40
15.0
100
AcDbArc
 50
0.0
 51
90.0
  0
LINE
  5
15B
330
1F
100
AcDbEntity
  8
0
  6
Continuous
 62
     7
370
    15
100
AcDbLine
 10
242.647019045
 20
206.4947629836
 30
0.0
 11
242.647019045
 21
215.09476281
 31
0.0
  0
LINE
  5
15C
330
1F
100
AcDbEntity
  8
0
  6
Continuous
 62
     7
370
    15
100
AcDbLine
 10
242.647019045
 20
206.4947629836
 30
0.0
 11
237.1327251359
 21
206.4947629836
 31
0.0
  0
LINE
  5
15D
330
1F
100
AcDbEntity
  8
0
  6
Continuous
 62
     7
370
    15
100
AcDbLine
 10
237.1327251359
 20
206.4947629836
 30
0.0
 11
237.1327251359
 21
215.09476281
 31
0.0
  0
LINE
  5
15E
330
1F
100
AcDbEntity
  8
0
  6
Continuous
 62
     7
370
    15
100
AcDbLine
 10
242.647019045
 20
215.09476281
 30
0.0
 11
237.1327251359
 21
215.09476281
 31
0.0
  0
LINE
  5
15F
330
1F
100
AcDbEntity
  8
0
  6
Continuous
 62
     7
370
    15
100
AcDbLine
 10
236.0184684559
 20
218.3947627921
 30
0.0
 11
211.2063586875
 21
218.3947627921
 31
0.0
  0
LINE
  5
160
330
1F
100
AcDbEntity
  8
0
  6
Continuous
 62
     7
370
    15
100
AcDbLine
 10
236.0184684559
 20
215.09476281
 30
0.0
 11
236.0184684559
 21
218.3947627921
 31
0.0
  0
LINE
  5
161
330
1F
100
AcDbEntity
  8
0
  6
Continuous
 62
     7
370
    15
100
AcDbLine
 10
236.0184684559
 20
203.9947630395
 30
0.0
 11
236.0184684559
 21
206.4947629836
 31
0.0
  0
LINE
  5
162
330
1F
100
AcDbEntity
  8
0
  6
Continuous
 62
     7
370
    15
100
AcDbLine
 10
211.2063586875
 20
203.9947630395
 30
0.0
 11
236.0184684559
 21
203.9947630395
 31
0.0
  0
LINE
  5
163
330
1F
100
AcDbEntity
  8
0
  6
Continuous
 62
     7
370
    15
100
AcDbLine
 10
211.2063586875
 20
203.9947630395
 30
0.0
 11
211.2063586875
 21
218.3947627921
 31
0.0
  0
LINE
  5
164
330
1F
100
AcDbEntity
  8
0
  6
Continuous
 62
     7
370
    15
100
AcDbLine
 10
236.0184684559
 20
206.4947629836
 30
0.0
 11
237.1327251359
 21
206.4947629836
 31
0.0
  0
LINE
  5
165
330
1F
100
AcDbEntity
  8
0
  6
Continuous
 62
     7
370
    15
100
AcDbLine
 10
236.0184684559
 20
215.09476281
 30
0.0
 11
237.1327251359
 21
215.09476281
 31
0.0
  0
LINE
  5
166
330
1F
100
AcDbEntity
  8
0
  6
Continuous
 62
     7
370
    15
100
AcDbLine
 10
236.1460969016
 20
203.1974121485
 30
0.0
 11
238.0383283063
 21
203.1974121485
 31
0.0
  0
LINE
  5
167
330
1F
100
AcDbEntity
  8
0
  6
Continuous
 62
     7
370
    15
100
AcDbLine
 10
238.0383283063
 20
203.1974121485
 30
0.0
 11
238.7110784813
 21
203.1947625358
 31
0.0
  0
LINE
  5
168
330
1F
100
AcDbEntity
  8
0
  6
Continuous
 62
     7
370
    15
100
AcDbLine
 10
238.7110784813
 20
203.1947625358
 30
0.0
 11
211.3452822133
 21
203.1947625358
 31
0.0
  0
ARC
  5
169
330
1F
100
AcDbEntity
  8
0
  6
Continuous
 62
     7
370
    15
100
AcDbCircle
 10
212.4623068054
 20
203.8008012426
 30
0.0
 40
1.270837067952021
100
AcDbArc
 50
171.2209068749
 51
208.4819261599
  0
ARC
  5
16A
330
1F
100
AcDbEntity
  8
0
  6
Continuous
 62
     7
370
    15
100
AcDbCircle
 10
237.4927202034
 20
203.8218501171
 30
0.0
 40
1.484357468314301
100
AcDbArc
 50
173.3104218707
 51
204.8774610248
  0
LINE
  5
16B
330
1F
100
AcDbEntity
  8
0
  6
Continuous
 62
     7
370
    15
100
AcDbLine
 10
238.0383283063
 20
219.192113683
 30
0.0
 11
236.1460969016
 21
219.192113683
 31
0.0
  0
ARC
  5
16C
330
1F
100
AcDbEntity
  8
0
  6
Continuous
 62
     7
370
    15
100
AcDbCircle
 10
237.4927202034
 20
218.5676757145
 30
0.0
 40
1.484357468314223
100
AcDbArc
 50
155.1225389752
 51
186.6895781293
  0
ARC
  5
16D
330
1F
100
AcDbEntity
  8
0
  6
Continuous
 62
     7
370
    15
100
AcDbCircle
 10
212.4623068054
 20
218.588724589
 30
0.0
 40
1.270837067952032
100
AcDbArc
 50
151.5180738401
 51
188.7790931251
  0
LINE
  5
16E
330
1F
100
AcDbEntity
  8
0
  6
Continuous
 62
     7
370
    15
100
AcDbLine
 10
211.3452822133
 20
219.1947632958
 30
0.0
 11
238.7110784813
 21
219.1947632958
 31
0.0
  0
LINE
  5
16F
330
1F
100
AcDbEntity
  8
0
  6
Continuous
 62
     7
370
    15
100
AcDbLine
 10
238.7110784813
 20
219.1947632958
 30
0.0
 11
238.0383283063
 21
219.192113683
 31
0.0
  0
LINE
  5
170
330
1F
100
AcDbEntity
  8
0
  6
Continuous
 62
     7
370
    15
100
AcDbLine
 10
236.1460969016
 20
218.3947627921
 30
0.0
 11
236.1460969016
 21
219.192113683
 31
0.0
  0
LINE
  5
171
330
1F
100
AcDbEntity
  8
0
  6
Continuous
 62
     7
370
    15
100
AcDbLine
 10
236.1573919817
 20
218.3947627921
 30
0.0
 11
236.1573919817
 21
215.09476281
 31
0.0
  0
LINE
  5
172
330
1F
100
AcDbEntity
  8
0
  6
Continuous
 62
     7
370
    15
100
AcDbLine
 10
236.1460969016
 20
203.1974121485
 30
0.0
 11
236.1460969016
 21
203.9947630395
 31
0.0
  0
LINE
  5
173
330
1F
100
AcDbEntity
  8
0
  6
Continuous
 62
     7
370
    15
100
AcDbLine
 10
236.1573919817
 20
206.4947629836
 30
0.0
 11
236.1573919817
 21
203.9947630395
 31
0.0
  0
LINE
  5
174
330
1F
100
AcDbEntity
  8
0
  6
Continuous
 62
     7
370
    15
100
AcDbLine
 10
238.0383283063
 20
218.3947627921
 30
0.0
 11
238.0383283063
 21
219.192113683
 31
0.0
  0
LINE
  5
175
330
1F
100
AcDbEntity
  8
0
  6
Continuous
 62
     7
370
    15
100
AcDbLine
 10
242.1460941597
 20
219.1947632958
 30
0.0
 11
238.7110784813
 21
219.1947632958
 31
0.0
  0
LINE
  5
176
330
1F
100
AcDbEntity
  8
0
  6
Continuous
 62
     7
370
    15
100
AcDbLine
 10
242.1460941597
 20
218.3947627921
 30
0.0
 11
238.0383283063
 21
218.3947627921
 31
0.0
  0
LINE
  5
177
330
1F
100
AcDbEntity
  8
0
  6
Continuous
 62
     7
370
    15
100
AcDbLine
 10
242.1460941597
 20
203.1947625358
 30
0.0
 11
238.7110784813
 21
203.1947625358
 31
0.0
  0
LINE
  5
178
330
1F
100
AcDbEntity
  8
0
  6
Continuous
 62
     7
370
    15
100
AcDbLine
 10
238.0383283063
 20
203.1974121485
 30
0.0
 11
238.0383283063
 21
203.9947630395
 31
0.0
  0
LINE
  5
179
330
1F
100
AcDbEntity
  8
0
  6
Continuous
 62
     7
370
    15
100
AcDbLine
 10
242.1460941597
 20
203.9947630395
 30
0.0
 11
238.0383283063
 21
203.9947630395
 31
0.0
  0
LINE
  5
17A
330
1F
100
AcDbEntity
  8
0
  6
Continuous
 62
     7
370
    15
100
AcDbLine
 10
236.1460969016
 20
218.3947627921
 30
0.0
 11
238.0383283063
 21
218.3947627921
 31
0.0
  0
LINE
  5
17B
330
1F
100
AcDbEntity
  8
0
  6
Continuous
 62
     7
370
    15
100
AcDbLine
 10
236.1460969016
 20
203.9947630395
 30
0.0
 11
238.0383283063
 21
203.9947630395
 31
0.0
  0
LINE
  5
17C
330
1F
100
AcDbEntity
  8
0
  6
Continuous
 62
     7
370
    15
100
AcDbLine
 10
237.2160971328
 20
219.4947627861
 30
0.0
 11
241.616097109
 21
219.4947627861
 31
0.0
  0
LINE
  5
17D
330
1F
100
AcDbEntity
  8
0
  6
Continuous
 62
     7
370
    15
100
AcDbLine
 10
237.316091375
 20
202.7947632153
 30
0.0
 11
241.5160954162
 21
202.7947632153
 31
0.0
  0
LINE
  5
17E
330
1F
100
AcDbEntity
  8
0
  6
Continuous
 62
     7
370
    15
100
AcDbLine
 10
237.316091375
 20
202.3947629635
 30
0.0
 11
241.5160954162
 21
202.3947629635
 31
0.0
  0
LINE
  5
17F
330
1F
100
AcDbEntity
  8
0
  6
Continuous
 62
     7
370
    15
100
AcDbLine
 10
206.3075125381
 20
218.3947627921
 30
0.0
 11
204.3180361554
 21
218.3947627921
 31
0.0
  0
LINE
  5
180
330
1F
100
AcDbEntity
  8
0
  6
Continuous
 62
     7
370
    15
100
AcDbLine
 10
206.3075125381
 20
203.9947630395
 30
0.0
 11
206.3075125381
 21
218.3947627921
 31
0.0
  0
LINE
  5
181
330
1F
100
AcDbEntity
  8
0
  6
Continuous
 62
     7
370
    15
100
AcDbLine
 10
204.3180361554
 20
203.9947630395
 30
0.0
 11
206.3075125381
 21
203.9947630395
 31
0.0
  0
ARC
  5
182
330
1F
100
AcDbEntity
  8
0
  6
Continuous
 62
     7
370
    15
100
AcDbCircle
 10
219.6119933263
 20
211.1947629158
 30
0.0
 40
16.90399728363029
100
AcDbArc
 50
154.7901555355
 51
205.2098444645
  0
SPLINE
  5
183
330
1F
100
AcDbEntity
  8
0
  6
Continuous
 62
     7
370
    15
100
AcDbSpline
210
0.0
220
0.0
230
1.0
 70
     8
 71
     3
 72
    12
 73
     8
 74
     0
 42
0.00000001
 43
0.00000001
 40
0.0
 40
0.0
 40
0.0
 40
0.0
 40
0.1818720879954493
 40
0.3633434410005944
 40
0.5550790921410036
 40
0.7712660534529983
 40
0.9999999999999999
 40
0.9999999999999999
 40
0.9999999999999999
 40
0.9999999999999999
 10
204.450410620827
 20
203.194762535802
 30
0.0
 10
204.4742719553851
 20
203.2020842252428
 30
0.0
 10
204.5219420486952
 20
203.2167114715932
 30
0.0
 10
204.5366714297657
 20
203.3287007138724
 30
0.0
 10
204.5094545713469
 20
203.498097501282
 30
0.0
 10
204.437774728299
 20
203.7265097210093
 30
0.0
 10
204.3586923996722
 20
203.9036798389135
 30
0.0
 10
204.3180361553614
 20
203.9947630394613
 30
0.0
  0
LINE
  5
184
330
1F
100
AcDbEntity
  8
0
  6
Continuous
 62
     7
370
    15
100
AcDbLine
 10
204.066050069
 20
203.9492618781
 30
0.0
 11
204.4204890891
 21
203.1947625358
 31
0.0
  0
ARC
  5
185
330
1F
100
AcDbEntity
  8
0
  6
Continuous
 62
     7
370
    15
100
AcDbCircle
 10
219.3367104875
 20
211.1947629158
 30
0.0
 40
16.9023771968715
100
AcDbArc
 50
154.6169692401
 51
205.3830307599
  0
LINE
  5
186
330
1F
100
AcDbEntity
  8
0
  6
Continuous
 62
     7
370
    15
100
AcDbLine
 10
204.4204890891
 20
219.1947632958
 30
0.0
 11
204.066050069
 21
218.4402639535
 31
0.0
  0
SPLINE
  5
187
330
1F
100
AcDbEntity
  8
0
  6
Continuous
 62
     7
370
    15
100
AcDbSpline
210
0.0
220
0.0
230
1.0
 70
     8
 71
     3
 72
    12
 73
     8
 74
     0
 42
0.00000001
 43
0.00000001
 40
0.0
 40
0.0
 40
0.0
 40
0.0
 40
0.2510219938737357
 40
0.5023977523608443
 40
0.7402766005126201
 40
0.9473072801081994
 40
1.0
 40
1.0
 40
1.0
 40
1.0
 10
204.3180361553614
 20
218.394762792102
 30
0.0
 10
204.3623539011931
 20
218.4946448742624
 30
0.0
 10
204.451051849735
 20
218.69454980213
 30
0.0
 10
204.5260445024961
 20
218.953285406403
 30
0.0
 10
204.5375388695743
 20
219.1305147207555
 30
0.0
 10
204.4958928152564
 20
219.1909639912255
 30
0.0
 10
204.4580817375923
 20
219.1941224975525
 30
0.0
 10
204.450410620827
 20
219.1947632957612
 30
0.0
  0
LINE
  5
188
330
1F
100
AcDbEntity
  8
0
  6
Continuous
 62
     7
370
    15
100
AcDbLine
 10
204.4504106208
 20
203.1947625358
 30
0.0
 11
204.4204890891
 21
203.1947625358
 31
0.0
  0
LINE
  5
189
330
1F
100
AcDbEntity
  8
0
  6
Continuous
 62
     7
370
    15
100
AcDbLine
 10
204.4504106208
 20
219.1947632958
 30
0.0
 11
204.4204890891
 21
219.1947632958
 31
0.0
  0
LWPOLYLINE
  5
18A
330
1F
100
AcDbEntity
  8
0
  6
Continuous
 62
     7
370
    15
100
AcDbPolyline
 90
        9
 70
   128
 43
0.0
 10
206.3075125381
 20
218.3947627921
 10
206.3022524282
 20
218.5508352261
 10
206.2866807147
 20
218.7009094771
 10
206.2614008948
 20
218.8392192614
 10
206.2273740932
 20
218.9604481239
 10
206.1859116122
 20
219.0599385206
 10
206.1386004254
 20
219.1338669066
 10
206.0872733756
 20
219.1793908853
 10
206.0338974163
 20
219.1947632958
  0
LINE
  5
18B
330
1F
100
AcDbEntity
  8
0
  6
Continuous
 62
     7
370
    15
100
AcDbLine
 10
204.4504106208
 20
219.1947632958
 30
0.0
 11
206.0338974163
 21
219.1947632958
 31
0.0
  0
LWPOLYLINE
  5
18C
330
1F
100
AcDbEntity
  8
0
  6
Continuous
 62
     7
370
    15
100
AcDbPolyline
 90
        9
 70
   128
 43
0.0
 10
206.3075125381
 20
203.9947630395
 10
206.3022524282
 20
203.8386906054
 10
206.2866807147
 20
203.6886163544
 10
206.2614008948
 20
203.5503065702
 10
206.2273740932
 20
203.4290777076
 10
206.1859116122
 20
203.329587311
 10
206.1386004254
 20
203.255658925
 10
206.0872733756
 20
203.2101349462
 10
206.0338974163
 20
203.1947625358
  0
LINE
  5
18D
330
1F
100
AcDbEntity
  8
0
  6
Continuous
 62
     7
370
    15
100
AcDbLine
 10
206.0338974163
 20
203.1947625358
 30
0.0
 11
204.4504106208
 21
203.1947625358
 31
0.0
  0
LINE
  5
18E
330
1F
100
AcDbEntity
  8
0
  6
Continuous
 62
     7
370
    15
100
AcDbLine
 10
211.2063586875
 20
218.3947627921
 30
0.0
 11
206.3075125381
 21
218.3947627921
 31
0.0
  0
LINE
  5
18F
330
1F
100
AcDbEntity
  8
0
  6
Continuous
 62
     7
370
    15
100
AcDbLine
 10
206.0338974163
 20
219.1947632958
 30
0.0
 11
211.3452822133
 21
219.1947632958
 31
0.0
  0
LINE
  5
190
330
1F
100
AcDbEntity
  8
0
  6
Continuous
 62
     7
370
    15
100
AcDbLine
 10
206.3075125381
 20
203.9947630395
 30
0.0
 11
211.2063586875
 21
203.9947630395
 31
0.0
  0
LINE
  5
191
330
1F
100
AcDbEntity
  8
0
  6
Continuous
 62
     7
370
    15
100
AcDbLine
 10
211.3452822133
 20
203.1947625358
 30
0.0
 11
206.0338974163
 21
203.1947625358
 31
0.0
  0
SPLINE
  5
192
330
1F
100
AcDbEntity
  8
0
  6
Continuous
 62
     7
370
    15
100
AcDbSpline
210
0.0
220
0.0
230
1.0
 70
     8
 71
     3
 72
    16
 73
    12
 74
     0
 42
0.00000001
 43
0.00000001
 40
0.0
 40
0.0
 40
0.0
 40
0.0
 40
0.1207044914554374
 40
0.2414116502801842
 40
0.3621187102477262
 40
0.4828243480536009
 40
0.6035308285510433
 40
0.7242368618406472
 40
0.8449447090351456
 40
0.9656514861558141
 40
1.0
 40
1.0
 40
1.0
 40
1.0
 10
237.5883951946681
 20
198.2423914153491
 30
0.0
 10
237.6077962185467
 20
198.2450641587727
 30
0.0
 10
237.6465986950345
 20
198.2504097046831
 30
0.0
 10
237.6515198806051
 20
198.5413551820678
 30
0.0
 10
237.6143103951567
 20
198.9946918608052
 30
0.0
 10
237.5373931291628
 20
199.5622249880528
 30
0.0
 10
237.4335803722264
 20
200.1505432689055
 30
0.0
 10
237.317469534016
 20
200.6772512251706
 30
0.0
 10
237.2104759450054
 20
201.0405269915766
 30
0.0
 10
237.1379001356687
 20
201.2109988583486
 30
0.0
 10
237.1183480009086
 20
201.1778470487625
 30
0.0
 10
237.1140167280619
 20
201.1705031175529
 30
0.0
  0
SPLINE
  5
193
330
1F
100
AcDbEntity
  8
0
  6
Continuous
 62
     7
370
    15
100
AcDbSpline
210
0.0
220
0.0
230
1.0
 70
     8
 71
     3
 72
    16
 73
    12
 74
     0
 42
0.00000001
 43
0.00000001
 40
0.0
 40
0.0
 40
0.0
 40
0.0
 40
0.1205802123267266
 40
0.2411628533287396
 40
0.3617455516146525
 40
0.4823269758812673
 40
0.6029090458262124
 40
0.7234903738647235
 40
0.8440738090980884
 40
0.9646532140801932
 40
1.0
 40
1.0
 40
1.0
 40
1.0
 10
237.7589762374346
 20
224.1184152219807
 30
0.0
 10
237.7783815337894
 20
224.1157423907251
 30
0.0
 10
237.8171925173523
 20
224.1103966743788
 30
0.0
 10
237.8220943665098
 20
223.8194530453542
 30
0.0
 10
237.7849048185763
 20
223.3661131446738
 30
0.0
 10
237.7079717732796
 20
222.7985852499891
 30
0.0
 10
237.6041580253914
 20
222.2102530408242
 30
0.0
 10
237.4880671234165
 20
221.6835961953393
 30
0.0
 10
237.3810392278217
 20
221.3201277017264
 30
0.0
 10
237.3082844416339
 20
221.1495773656541
 30
0.0
 10
237.2886348816552
 20
221.1831615879811
 30
0.0
 10
237.2841805383151
 20
221.1907747689997
 30
0.0
  0
SPLINE
  5
194
330
1F
100
AcDbEntity
  8
0
  6
Continuous
 62
     7
370
    15
100
AcDbSpline
210
0.0
220
0.0
230
1.0
 70
     8
 71
     3
 72
    16
 73
    12
 74
     0
 42
0.00000001
 43
0.00000001
 40
0.0
 40
0.0
 40
0.0
 40
0.0
 40
0.120514831002165
 40
0.2410323251824575
 40
0.3615497206608775
 40
0.4820655001929122
 40
0.6025825828726462
 40
0.7230986582865249
 40
0.8436171191058824
 40
0.9641308578801009
 40
1.0
 40
1.0
 40
1.0
 40
1.0
 10
253.1293600961154
 20
200.8588099409257
 30
0.0
 10
253.1487610339738
 20
200.8614827000003
 30
0.0
 10
253.1875633384192
 20
200.8668282772129
 30
0.0
 10
253.1924858143292
 20
201.1577735198265
 30
0.0
 10
253.155271445768
 20
201.6111108449119
 30
0.0
 10
253.0783725198583
 20
202.1786406550465
 30
0.0
 10
252.9745352657089
 20
202.766976717247
 30
0.0
 10
252.8584608549145
 20
203.2936084536505
 30
0.0
 10
252.7513899008974
 20
203.6571762445113
 30
0.0
 10
252.6785787444996
 20
203.8277721485833
 30
0.0
 10
252.6588630240418
 20
203.7939584286997
 30
0.0
 10
252.6543408795779
 20
203.7862026621019
 30
0.0
  0
SPLINE
  5
195
330
1F
100
AcDbEntity
  8
0
  6
Continuous
 62
     7
370
    15
100
AcDbSpline
210
0.0
220
0.0
230
1.0
 70
     8
 71
     3
 72
    16
 73
    12
 74
     0
 42
0.00000001
 43
0.00000001
 40
0.0
 40
0.0
 40
0.0
 40
0.0
 40
0.1205176055237603
 40
0.241032021926216
 40
0.3615491481662126
 40
0.4820661734124042
 40
0.6025826964759677
 40
0.7230985026543721
 40
0.8436143714857623
 40
0.9641311876504708
 40
1.0
 40
1.0
 40
1.0
 40
1.0
 10
253.2999485894625
 20
221.5019966964041
 30
0.0
 10
253.3193496916834
 20
221.4993253927601
 30
0.0
 10
253.3581513827356
 20
221.4939828561597
 30
0.0
 10
253.3630725657817
 20
221.203029810649
 30
0.0
 10
253.3258662423419
 20
220.7496926857596
 30
0.0
 10
253.2489359636795
 20
220.1821716443983
 30
0.0
 10
253.1451309999416
 20
219.5938277283167
 30
0.0
 10
253.0290460800745
 20
219.0672044754904
 30
0.0
 10
252.9219874715131
 20
218.7036213098622
 30
0.0
 10
252.8491367643927
 20
218.5330340983926
 30
0.0
 10
252.8294457335257
 20
218.5668486834273
 30
0.0
 10
252.8249293729251
 20
218.5746044408893
 30
0.0
  0
SPLINE
  5
196
330
1F
100
AcDbEntity
  8
0
  6
Continuous
 62
     7
370
    15
100
AcDbSpline
210
0.0
220
0.0
230
1.0
 70
    24
 71
     3
 72
    16
 73
    12
 74
     0
 42
0.00000001
 43
0.00000001
 40
0.0
 40
0.0
 40
0.0
 40
0.0
 40
0.0611071491295778
 40
0.1864711554396543
 40
0.3118333742869777
 40
0.4371957719142286
 40
0.5625572265557508
 40
0.6879224398113394
 40
0.8132846586586627
 40
0.9386470562859137
 40
1.0
 40
1.0
 40
1.0
 40
1.0
 10
256.2062859698718
 20
204.328527164123
 30
0.0
 10
256.2120526276242
 20
204.328527164123
 30
0.0
 10
256.2296498375978
 20
204.328527164123
 30
0.0
 10
256.0112587311887
 20
204.328527164123
 30
0.0
 10
255.5984826781525
 20
204.328527164123
 30
0.0
 10
255.0420303400538
 20
204.328527164123
 30
0.0
 10
254.4429233880735
 20
204.328527164123
 30
0.0
 10
253.8842170544808
 20
204.328527164123
 30
0.0
 10
253.4672785624556
 20
204.328527164123
 30
0.0
 10
253.2442872017584
 20
204.328527164123
 30
0.0
 10
253.2590849726248
 20
204.328527164123
 30
0.0
 10
253.2639473840182
 20
204.328527164123
 30
0.0
  0
SPLINE
  5
197
330
1F
100
AcDbEntity
  8
0
  6
Continuous
 62
     7
370
    15
100
AcDbSpline
210
0.0
220
0.0
230
1.0
 70
    24
 71
     3
 72
    16
 73
    12
 74
     0
 42
0.00000001
 43
0.00000001
 40
0.0
 40
0.0
 40
0.0
 40
0.0
 40
0.0610095893915384
 40
0.1861734476045528
 40
0.3113355212085618
 40
0.43649777330707
 40
0.5616590839253597
 40
0.6868241471569546
 40
0.8119862207609637
 40
0.9371484728594719
 40
1.0
 40
1.0
 40
1.0
 40
1.0
 10
256.2062859698718
 20
217.8871579956626
 30
0.0
 10
256.2120526214154
 20
217.8871579956626
 30
0.0
 10
256.2296498124423
 20
217.8871579956626
 30
0.0
 10
256.011258964407
 20
217.8871579956626
 30
0.0
 10
255.5984818236883
 20
217.8871579956626
 30
0.0
 10
255.0420335246923
 20
217.8871579956626
 30
0.0
 10
254.4429115039319
 20
217.8871579956626
 30
0.0
 10
253.884261407439
 20
217.8871579956626
 30
0.0
 10
253.467113039508
 20
217.8871579956626
 30
0.0
 10
253.2436323531466
 20
217.8871579956626
 30
0.0
 10
253.2588353421023
 20
217.8871579956626
 30
0.0
 10
253.2639175816958
 20
217.8871579956626
 30
0.0
  0
SPLINE
  5
198
330
1F
100
AcDbEntity
  8
0
  6
Continuous
 62
     7
370
    15
100
AcDbSpline
210
0.0
220
0.0
230
1.0
 70
     8
 71
     3
 72
    19
 73
    15
 74
     0
 42
0.00000001
 43
0.00000001
 40
0.0
 40
0.0
 40
0.0
 40
0.0
 40
0.0039549647145973
 40
0.1157673416546059
 40
0.2280441602243888
 40
0.3355190748443604
 40
0.4377072895834259
 40
0.5348813783049912
 40
0.628302511166183
 40
0.7302898573119802
 40
0.8413273888114153
 40
0.9641211978473089
 40
0.9937659048421617
 40
1.0
 40
1.0
 40
1.0
 40
1.0
 10
242.5343662663882
 20
216.7947627161061
 30
0.0
 10
242.5347610555133
 20
216.794757103408
 30
0.0
 10
242.5463170846643
 20
216.7945928118952
 30
0.0
 10
242.5695447565012
 20
216.7794616869372
 30
0.0
 10
242.6130478792166
 20
216.7125670658914
 30
0.0
 10
242.6510220398408
 20
216.6078685807636
 30
0.0
 10
242.6745182678562
 20
216.4827931310893
 30
0.0
 10
242.685842980566
 20
216.3543565911272
 30
0.0
 10
242.6864528724135
 20
216.2331867376764
 30
0.0
 10
242.6706654364844
 20
216.1239530838651
 30
0.0
 10
242.6302879333422
 20
216.0345371476036
 30
0.0
 10
242.5784258510104
 20
215.999486232385
 30
0.0
 10
242.5437191696018
 20
215.9948760191161
 30
0.0
 10
242.5357508039612
 20
215.9947798530366
 30
0.0
 10
242.5343662663882
 20
215.9947631437694
 30
0.0
  0
SPLINE
  5
199
330
1F
100
AcDbEntity
  8
0
  6
Continuous
 62
     7
370
    15
100
AcDbSpline
210
0.0
220
0.0
230
1.0
 70
     8
 71
     3
 72
    30
 73
    26
 74
     0
 42
0.00000001
 43
0.00000001
 40
0.0
 40
0.0
 40
0.0
 40
0.0
 40
0.1247092734887808
 40
0.2494201828389453
 40
0.3741277144462729
 40
0.4367850730959945
 40
0.4681558419898508
 40
0.4838425773092939
 40
0.4916892392768147
 40
0.4956135513877403
 40
0.4975725240520635
 40
0.4985520646506174
 40
0.4990418856792856
 40
0.4992867094199373
 40
0.4994091646771043
 40
0.4994761549231492
 40
0.4995067471108747
 40
0.499519220607769
 40
0.4995374626013807
 40
0.5609179998168962
 40
0.6646198887245258
 40
0.7325838327632908
 40
0.8111466747801674
 40
0.9002980622844619
 40
0.9999999999999999
 40
0.9999999999999999
 40
0.9999999999999999
 40
0.9999999999999999
 10
242.606070654053
 20
216.8546546738957
 30
0.0
 10
242.611835534889
 20
216.8528618337058
 30
0.0
 10
242.6233653721814
 20
216.8492761298085
 30
0.0
 10
242.7132031492138
 20
216.8274362458429
 30
0.0
 10
242.8206860877212
 20
216.8017553548433
 30
0.0
 10
242.9062401372645
 20
216.7813438864888
 30
0.0
 10
242.9503372812221
 20
216.7708100904689
 30
0.0
 10
242.9725656785646
 20
216.7654905708137
 30
0.0
 10
242.9836987395206
 20
216.7628249962639
 30
0.0
 10
242.98926886654
 20
216.761492650011
 30
0.0
 10
242.9920528980929
 20
216.7608236101821
 30
0.0
 10
242.9934439025681
 20
216.7604914952757
 30
0.0
 10
242.9941389025767
 20
216.7603227037927
 30
0.0
 10
242.9944869781966
 20
216.7602409589473
 30
0.0
 10
242.9946628136585
 20
216.7601970277557
 30
0.0
 10
242.9947525072574
 20
216.7601777455926
 30
0.0
 10
242.9947976076635
 20
216.7601686676639
 30
0.0
 10
242.9948217835826
 20
216.7601601462279
 30
0.0
 10
243.0201176714766
 20
216.755752054817
 30
0.0
 10
243.086828801485
 20
216.7381809233566
 30
0.0
 10
243.178097543086
 20
216.720330097991
 30
0.0
 10
243.2615520553257
 20
216.7026854815078
 30
0.0
 10
243.3251264283069
 20
216.689936031443
 30
0.0
 10
243.3756242372954
 20
216.6802457551779
 30
0.0
 10
243.3828570119857
 20
216.6797908320578
 30
0.0
 10
243.3866754337733
 20
216.6795506630455
 30
0.0
  0
ELLIPSE
  5
19A
330
1F
100
AcDbEntity
  8
0
  6
Continuous
 62
     7
370
    15
100
AcDbEllipse
 10
243.263201812
 20
217.9767380945
 30
0.0
 11
0.3906095144045878
 21
-0.08616383961160068
 31
0.0
210
0.0
220
0.0
230
1.0
 40
0.0142285888
 41
0.0
 42
6.283185307179586
  0
LINE
  5
19B
330
1F
100
AcDbEntity
  8
0
  6
Continuous
 62
     7
370
    15
100
AcDbLine
 10
242.4360931083
 20
205.4447629046
 30
0.0
 11
242.4360931083
 21
204.4447627407
 31
0.0
  0
LINE
  5
19C
330
1F
100
AcDbEntity
  8
0
  6
Continuous
 62
     7
370
    15
100
AcDbLine
 10
242.4360931083
 20
204.4447627407
 30
0.0
 11
236.2360924646
 21
204.4447627407
 31
0.0
  0
LINE
  5
19D
330
1F
100
AcDbEntity
  8
0
  6
Continuous
 62
     7
370
    15
100
AcDbLine
 10
236.2360924646
 20
205.4447629046
 30
0.0
 11
236.2360924646
 21
204.4447627407
 31
0.0
  0
LINE
  5
19E
330
1F
100
AcDbEntity
  8
0
  6
Continuous
 62
     7
370
    15
100
AcDbLine
 10
242.4360931083
 20
205.4447629046
 30
0.0
 11
236.2360924646
 21
205.4447629046
 31
0.0
  0
LINE
  5
19F
330
1F
100
AcDbEntity
  8
0
  6
Continuous
 62
     7
370
    15
100
AcDbLine
 10
242.4360931083
 20
217.9447630909
 30
0.0
 11
242.4360931083
 21
216.944762927
 31
0.0
  0
LINE
  5
1A0
330
1F
100
AcDbEntity
  8
0
  6
Continuous
 62
     7
370
    15
100
AcDbLine
 10
242.4360931083
 20
216.944762927
 30
0.0
 11
236.2360924646
 21
216.944762927
 31
0.0
  0
LINE
  5
1A1
330
1F
100
AcDbEntity
  8
0
  6
Continuous
 62
     7
370
    15
100
AcDbLine
 10
236.2360924646
 20
217.9447630909
 30
0.0
 11
236.2360924646
 21
216.944762927
 31
0.0
  0
LINE
  5
1A2
330
1F
100
AcDbEntity
  8
0
  6
Continuous
 62
     7
370
    15
100
AcDbLine
 10
242.4360931083
 20
217.9447630909
 30
0.0
 11
236.2360924646
 21
217.9447630909
 31
0.0
  0
LWPOLYLINE
  5
1A3
330
1F
100
AcDbEntity
  8
0
  6
Continuous
 62
     7
370
    15
100
AcDbPolyline
 90
        3
 70
   128
 43
0.0
 10
236.1573919817
 20
204.8336243745
 10
236.1599698826
 20
204.8274464462
 10
236.2360924646
 20
204.4447627407
  0
LWPOLYLINE
  5
1A4
330
1F
100
AcDbEntity
  8
0
  6
Continuous
 62
     7
370
    15
100
AcDbPolyline
 90
        3
 70
   128
 43
0.0
 10
236.2360924646
 20
217.9447630909
 10
236.1599698826
 20
217.5620793853
 10
236.1573919817
 20
217.555901457
  0
LINE
  5
1A5
330
1F
100
AcDbEntity
  8
0
  6
Continuous
 62
     7
370
    15
100
AcDbLine
 10
242.4360931083
 20
216.944762927
 30
0.0
 11
242.4360931083
 21
216.7947627161
 31
0.0
  0
LINE
  5
1A6
330
1F
100
AcDbEntity
  8
0
  6
Continuous
 62
     7
370
    15
100
AcDbLine
 10
242.4360931083
 20
215.9947631438
 30
0.0
 11
242.4360931083
 21
215.09476281
 31
0.0
  0
LINE
  5
1A7
330
1F
100
AcDbEntity
  8
0
  6
Continuous
 62
     7
370
    15
100
AcDbLine
 10
242.4360931083
 20
206.4947629836
 30
0.0
 11
242.4360931083
 21
205.4447629046
 31
0.0
  0
LINE
  5
1A8
330
1F
100
AcDbEntity
  8
0
  6
Continuous
 62
     7
370
    15
100
AcDbLine
 10
119.4360934361
 20
346.1947682802
 30
0.0
 11
119.4360934361
 21
76.1947575514
 31
0.0
  0
LINE
  5
1A9
330
1F
100
AcDbEntity
  8
0
  6
Continuous
 62
     7
370
    15
100
AcDbLine
 10
119.4360934361
 20
346.1947682802
 30
0.0
 11
134.4360931009
 21
346.1947682802
 31
0.0
  0
LINE
  5
1AA
330
1F
100
AcDbEntity
  8
0
  6
Continuous
 62
     7
370
    15
100
AcDbLine
 10
134.4360931009
 20
346.1947682802
 30
0.0
 11
134.4360931009
 21
76.1947575514
 31
0.0
  0
LINE
  5
1AB
330
1F
100
AcDbEntity
  8
0
  6
Continuous
 62
     7
370
    15
100
AcDbLine
 10
134.4360931009
 20
76.1947575514
 30
0.0
 11
119.4360934361
 21
76.1947575514
 31
0.0
  0
ARC
  5
1AC
330
1F
100
AcDbEntity
  8
0
  6
Continuous
 62
     7
370
    15
100
AcDbCircle
 10
134.4360934183
 20
346.1947629158
 30
0.0
 40
14.99999999999997
100
AcDbArc
 50
90.0
 51
180.0
  0
LINE
  5
1AD
330
1F
100
AcDbEntity
  8
0
  6
Continuous
 62
     7
370
    15
100
AcDbLine
 10
134.4360931009
 20
361.1947688762
 30
0.0
 11
134.4360931009
 21
346.1947682802
 31
0.0
  0
LINE
  5
1AE
330
1F
100
AcDbEntity
  8
0
  6
Continuous
 62
     7
370
    15
100
AcDbLine
 10
134.4360931009
 20
76.1947575514
 30
0.0
 11
134.4360931009
 21
61.1947569553
 31
0.0
  0
ARC
  5
1AF
330
1F
100
AcDbEntity
  8
0
  6
Continuous
 62
     7
370
    15
100
AcDbCircle
 10
134.4360934183
 20
76.1947629158
 30
0.0
 40
14.99999999999998
100
AcDbArc
 50
180.0
 51
270.0
  0
LINE
  5
1B0
330
1F
100
AcDbEntity
  8
0
  6
Continuous
 62
     7
370
    15
100
AcDbLine
 10
255.4360896512
 20
346.1947682802
 30
0.0
 11
134.4360931009
 21
346.1947682802
 31
0.0
  0
LINE
  5
1B1
330
1F
100
AcDbEntity
  8
0
  6
Continuous
 62
     7
370
    15
100
AcDbLine
 10
255.4360896512
 20
361.1947688762
 30
0.0
 11
134.4360931009
 21
361.1947688762
 31
0.0
  0
LINE
  5
1B2
330
1F
100
AcDbEntity
  8
0
  6
Continuous
 62
     7
370
    15
100
AcDbLine
 10
255.4360896512
 20
361.1947688762
 30
0.0
 11
255.4360896512
 21
346.1947682802
 31
0.0
  0
LINE
  5
1B3
330
1F
100
AcDbEntity
  8
0
  6
Continuous
 62
     7
370
    15
100
AcDbLine
 10
255.4360896512
 20
76.1947575514
 30
0.0
 11
255.4360896512
 21
202.1868554432
 31
0.0
  0
LINE
  5
1B4
330
1F
100
AcDbEntity
  8
0
  6
Continuous
 62
     7
370
    15
100
AcDbLine
 10
255.4360896512
 20
220.1706924964
 30
0.0
 11
255.4360896512
 21
346.1947682802
 31
0.0
  0
LINE
  5
1B5
330
1F
100
AcDbEntity
  8
0
  6
Continuous
 62
     7
370
    15
100
AcDbLine
 10
255.4360896512
 20
76.1947575514
 30
0.0
 11
134.4360931009
 21
76.1947575514
 31
0.0
  0
LINE
  5
1B6
330
1F
100
AcDbEntity
  8
0
  6
Continuous
 62
     7
370
    15
100
AcDbLine
 10
235.4360938236
 20
81.1947676842
 30
0.0
 11
139.4360929891
 21
81.1947676842
 31
0.0
  0
LINE
  5
1B7
330
1F
100
AcDbEntity
  8
0
  6
Continuous
 62
     7
370
    15
100
AcDbLine
 10
235.4360938236
 20
81.1947676842
 30
0.0
 11
235.4360938236
 21
198.3822164614
 31
0.0
  0
LINE
  5
1B8
330
1F
100
AcDbEntity
  8
0
  6
Continuous
 62
     7
370
    15
100
AcDbLine
 10
235.4360938236
 20
201.7220025439
 30
0.0
 11
235.4360938236
 21
203.1947625358
 31
0.0
  0
LINE
  5
1B9
330
1F
100
AcDbEntity
  8
0
  6
Continuous
 62
     7
370
    15
100
AcDbLine
 10
235.4360938236
 20
219.1947632958
 30
0.0
 11
235.4360938236
 21
220.654165328
 31
0.0
  0
LINE
  5
1BA
330
1F
100
AcDbEntity
  8
0
  6
Continuous
 62
     7
370
    15
100
AcDbLine
 10
235.4360938236
 20
223.9968813513
 30
0.0
 11
235.4360938236
 21
341.1947581474
 31
0.0
  0
LINE
  5
1BB
330
1F
100
AcDbEntity
  8
0
  6
Continuous
 62
     7
370
    15
100
AcDbLine
 10
235.4360938236
 20
341.1947581474
 30
0.0
 11
139.4360929891
 21
341.1947581474
 31
0.0
  0
LINE
  5
1BC
330
1F
100
AcDbEntity
  8
0
  6
Continuous
 62
     7
370
    15
100
AcDbLine
 10
139.4360929891
 20
341.1947581474
 30
0.0
 11
139.4360929891
 21
81.1947676842
 31
0.0
  0
LINE
  5
1BD
330
1F
100
AcDbEntity
  8
0
  6
Continuous
 62
     7
370
    15
100
AcDbLine
 10
255.4360896512
 20
61.1947569553
 30
0.0
 11
134.4360931009
 21
61.1947569553
 31
0.0
  0
LINE
  5
1BE
330
1F
100
AcDbEntity
  8
0
  6
Continuous
 62
     7
370
    15
100
AcDbLine
 10
255.4360896512
 20
76.1947575514
 30
0.0
 11
255.4360896512
 21
61.1947569553
 31
0.0
  0
LINE
  5
1BF
330
1F
100
AcDbEntity
  8
0
  6
Continuous
 62
     7
370
    15
100
AcDbLine
 10
259.4360977575
 20
341.1947581474
 30
0.0
 11
255.4360896512
 21
341.1947581474
 31
0.0
  0
LINE
  5
1C0
330
1F
100
AcDbEntity
  8
0
  6
Continuous
 62
     7
370
    15
100
AcDbLine
 10
259.4360977575
 20
81.1947676842
 30
0.0
 11
255.4360896512
 21
81.1947676842
 31
0.0
  0
LINE
  5
1C1
330
1F
100
AcDbEntity
  8
0
  6
Continuous
 62
     7
370
    15
100
AcDbLine
 10
259.4360977575
 20
66.1947670881
 30
0.0
 11
255.4360896512
 21
66.1947670881
 31
0.0
  0
LINE
  5
1C2
330
1F
100
AcDbEntity
  8
0
  6
Continuous
 62
     7
370
    15
100
AcDbLine
 10
259.4360977575
 20
356.1947587435
 30
0.0
 11
255.4360896512
 21
356.1947587435
 31
0.0
  0
LINE
  5
1C3
330
1F
100
AcDbEntity
  8
0
  6
Continuous
 62
     7
370
    15
100
AcDbLine
 10
336.212036675
 20
409.0147920111
 30
0.0
 11
337.412027186
 21
409.0147920111
 31
0.0
  0
LINE
  5
1C4
330
1F
100
AcDbEntity
  8
0
  6
Continuous
 62
     7
370
    15
100
AcDbLine
 10
336.1120349822
 20
411.5147896269
 30
0.0
 11
336.212036675
 21
411.5147896269
 31
0.0
  0
LINE
  5
1C5
330
1F
100
AcDbEntity
  8
0
  6
Continuous
 62
     7
370
    15
100
AcDbLine
 10
336.212036675
 20
417.5147868851
 30
0.0
 11
336.1120349822
 21
417.5147868851
 31
0.0
  0
LINE
  5
1C6
330
1F
100
AcDbEntity
  8
0
  6
Continuous
 62
     7
370
    15
100
AcDbLine
 10
331.9637901245
 20
474.5147906402
 30
0.0
 11
331.2120265422
 21
474.2411755184
 31
0.0
  0
SPLINE
  5
1C7
330
1F
100
AcDbEntity
  8
0
  6
Continuous
 62
     7
370
    15
100
AcDbSpline
210
0.0
220
0.0
230
1.0
 70
     8
 71
     3
 72
    15
 73
    11
 74
     0
 42
0.00000001
 43
0.00000001
 40
0.0
 40
0.0
 40
0.0
 40
0.0
 40
0.1250754737106914
 40
0.2501512637214284
 40
0.3752910642424033
 40
0.5003040442798201
 40
0.6252881250789707
 40
0.750262047766226
 40
0.8750785722580477
 40
1.0
 40
1.0
 40
1.0
 40
1.0
 10
335.0264704881159
 20
439.5726181725114
 30
0.0
 10
335.0003456607554
 20
439.8313821960862
 30
0.0
 10
334.948095939968
 20
440.348910897617
 30
0.0
 10
334.8692270826566
 20
441.1300243222
 30
0.0
 10
334.7948002570876
 20
441.8672033054605
 30
0.0
 10
334.7277864623249
 20
442.5307822863942
 30
0.0
 10
334.6716791938872
 20
443.0865464190741
 30
0.0
 10
334.6291611960332
 20
443.5076434402764
 30
0.0
 10
334.6003288068059
 20
443.7932506457416
 30
0.0
 10
334.5959870587589
 20
443.83628562442
 30
0.0
 10
334.5938152728526
 20
443.8578121522515
 30
0.0
  0
SPLINE
  5
1C8
330
1F
100
AcDbEntity
  8
0
  6
Continuous
 62
     7
370
    15
100
AcDbSpline
210
0.0
220
0.0
230
1.0
 70
     8
 71
     3
 72
    15
 73
    11
 74
     0
 42
0.00000001
 43
0.00000001
 40
0.0
 40
0.0
 40
0.0
 40
0.0
 40
0.1249396532407659
 40
0.2497688921967589
 40
0.3747511584182677
 40
0.499737694248962
 40
0.6247481088386436
 40
0.7498793230434497
 40
0.8749423236597464
 40
1.0
 40
1.0
 40
1.0
 40
1.0
 10
331.6095597205607
 20
443.5564287165254
 30
0.0
 10
331.6117421673574
 20
443.5348505357185
 30
0.0
 10
331.6161051322334
 20
443.4917132436261
 30
0.0
 10
331.6449547497017
 20
443.2060033572313
 30
0.0
 10
331.6874595497005
 20
442.7848184094133
 30
0.0
 10
331.7435997196156
 20
442.2290434621225
 30
0.0
 10
331.8105834532628
 20
441.5655167549843
 30
0.0
 10
331.8850062398762
 20
440.8284718301753
 30
0.0
 10
331.9638333805106
 20
440.0475602878145
 30
0.0
 10
332.0160781873209
 20
439.5302049316593
 30
0.0
 10
332.0422000346629
 20
439.2715327600091
 30
0.0
  0
LINE
  5
1C9
330
1F
100
AcDbEntity
  8
0
  6
Continuous
 62
     7
370
    15
100
AcDbLine
 10
332.0419169126
 20
439.2713986496
 30
0.0
 11
333.6109942852
 21
423.7304188469
 31
0.0
  0
LINE
  5
1CA
330
1F
100
AcDbEntity
  8
0
  6
Continuous
 62
     7
370
    15
100
AcDbLine
 10
336.5958160816
 20
424.0317799309
 30
0.0
 11
335.026738709
 21
439.572752283
 31
0.0
  0
SPLINE
  5
1CB
330
1F
100
AcDbEntity
  8
0
  6
Continuous
 62
     7
370
    15
100
AcDbSpline
210
0.0
220
0.0
230
1.0
 70
     8
 71
     3
 72
     9
 73
     5
 74
     0
 42
0.00000001
 43
0.00000001
 40
0.0
 40
0.0
 40
0.0
 40
0.0
 40
0.4837344539668944
 40
1.0
 40
1.0
 40
1.0
 40
1.0
 10
333.7810761390177
 20
422.0490463236421
 30
0.0
 10
333.7905367835498
 20
421.9848215386985
 30
0.0
 10
333.8100942999818
 20
421.8520528586573
 30
0.0
 10
333.843936656399
 20
421.815897412025
 30
0.0
 10
333.8614082990138
 20
421.7972316006272
 30
0.0
  0
SPLINE
  5
1CC
330
1F
100
AcDbEntity
  8
0
  6
Continuous
 62
     7
370
    15
100
AcDbSpline
210
0.0
220
0.0
230
1.0
 70
     8
 71
     3
 72
    11
 73
     7
 74
     0
 42
0.00000001
 43
0.00000001
 40
0.0
 40
0.0
 40
0.0
 40
0.0
 40
0.2484396053587954
 40
0.4978882905326143
 40
0.7483888276677946
 40
1.0
 40
1.0
 40
1.0
 40
1.0
 10
333.6112625060526
 20
423.730582759723
 30
0.0
 10
333.6292751872232
 20
423.5521113003788
 30
0.0
 10
333.66537371114
 20
423.1944434894299
 30
0.0
 10
333.7123988999937
 20
422.7296039321018
 30
0.0
 10
333.751191045743
 20
422.3467197992637
 30
0.0
 10
333.7662356360835
 20
422.1994307913506
 30
0.0
 10
333.7737745700327
 20
422.1256233910173
 30
0.0
  0
SPLINE
  5
1CD
330
1F
100
AcDbEntity
  8
0
  6
Continuous
 62
     7
370
    15
100
AcDbSpline
210
0.0
220
0.0
230
1.0
 70
     8
 71
     3
 72
    19
 73
    15
 74
     0
 42
0.00000001
 43
0.00000001
 40
0.0
 40
0.0
 40
0.0
 40
0.0
 40
0.0802804369297216
 40
0.1534416957310603
 40
0.2193403204326486
 40
0.2779459655494368
 40
0.3728444810618545
 40
0.442153508026651
 40
0.5315374242239219
 40
0.6554817064516648
 40
0.7303544145519429
 40
0.8130772361858046
 40
0.9031427657753383
 40
0.9999999999999999
 40
0.9999999999999999
 40
0.9999999999999999
 40
0.9999999999999999
 10
333.7967223582713
 20
421.966404483661
 30
0.0
 10
333.8320830355982
 20
421.8435307669317
 30
0.0
 10
333.8996686454769
 20
421.6086796353634
 30
0.0
 10
334.0968913903139
 20
421.3142669315298
 30
0.0
 10
334.3217443552919
 20
421.0901483486178
 30
0.0
 10
334.6174064689023
 20
420.8971056175964
 30
0.0
 10
334.9593533872756
 20
420.7791861338235
 30
0.0
 10
335.3691142699145
 20
420.7494127743496
 30
0.0
 10
335.8081964497928
 20
420.8517106088665
 30
0.0
 10
336.1947283887046
 20
421.1029461111657
 30
0.0
 10
336.4875620963905
 20
421.4436605369945
 30
0.0
 10
336.6683591555605
 20
421.7991177283783
 30
0.0
 10
336.7742441390393
 20
422.2260677144895
 30
0.0
 10
336.7419902668028
 20
422.5211360898163
 30
0.0
 10
336.7252773700205
 20
422.6740308264344
 30
0.0
  0
SPLINE
  5
1CE
330
1F
100
AcDbEntity
  8
0
  6
Continuous
 62
     7
370
    15
100
AcDbSpline
210
0.0
220
0.0
230
1.0
 70
     8
 71
     3
 72
    11
 73
     7
 74
     0
 42
0.00000001
 43
0.00000001
 40
0.0
 40
0.0
 40
0.0
 40
0.0
 40
0.2477443977010795
 40
0.4969515347440527
 40
0.7476787962907897
 40
1.0
 40
1.0
 40
1.0
 40
1.0
 10
336.7490447221247
 20
422.5063480595201
 30
0.0
 10
336.7426109723156
 20
422.5709737116101
 30
0.0
 10
336.7297054863733
 20
422.7006065803569
 30
0.0
 10
336.693716352582
 20
423.0584797400927
 30
0.0
 10
336.6487643241302
 20
423.5047995929
 30
0.0
 10
336.6133241133679
 20
423.8556598366994
 30
0.0
 10
336.5955478606669
 20
424.0316458204835
 30
0.0
  0
LINE
  5
1CF
330
1F
100
AcDbEntity
  8
0
  6
Continuous
 62
     7
370
    15
100
AcDbLine
 10
336.8793404756
 20
433.6864583353
 30
0.0
 11
336.8793255744
 21
433.9862771491
 31
0.0
  0
LINE
  5
1D0
330
1F
100
AcDbEntity
  8
0
  6
Continuous
 62
     7
370
    15
100
AcDbLine
 10
336.0793269334
 20
433.9862771491
 30
0.0
 11
336.0793269334
 21
433.6889095763
 31
0.0
  0
SPLINE
  5
1D1
330
1F
100
AcDbEntity
  8
0
  6
Continuous
 62
     7
370
    15
100
AcDbSpline
210
0.0
220
0.0
230
1.0
 70
    24
 71
     3
 72
    11
 73
     7
 74
     0
 42
0.00000001
 43
0.00000001
 40
0.0
 40
0.0
 40
0.0
 40
0.0
 40
0.0207832163337777
 40
0.3465538622668197
 40
0.6711424087355256
 40
1.0
 40
1.0
 40
1.0
 40
1.0
 10
336.0793269334284
 20
434.2725955108255
 30
0.0
 10
336.0793269334284
 20
434.26927379865
 30
0.0
 10
336.0793269334284
 20
434.2138852502521
 30
0.0
 10
336.0793269334284
 20
434.1206523555286
 30
0.0
 10
336.0793269334284
 20
434.0079389512064
 30
0.0
 10
336.0793269334284
 20
433.9734166252861
 30
0.0
 10
336.0793269334284
 20
433.956042693004
 30
0.0
  0
SPLINE
  5
1D2
330
1F
100
AcDbEntity
  8
0
  6
Continuous
 62
     7
370
    15
100
AcDbSpline
210
0.0
220
0.0
230
1.0
 70
    24
 71
     3
 72
    11
 73
     7
 74
     0
 42
0.00000001
 43
0.00000001
 40
0.0
 40
0.0
 40
0.0
 40
0.0
 40
0.2504863591729243
 40
0.4977314983156908
 40
0.7458651761595598
 40
1.0
 40
1.0
 40
1.0
 40
1.0
 10
336.8793404756037
 20
433.9535914519876
 30
0.0
 10
336.8793404756037
 20
433.969808224679
 30
0.0
 10
336.8793404756037
 20
434.002031929779
 30
0.0
 10
336.8793404756037
 20
434.1108145167458
 30
0.0
 10
336.8793404756038
 20
434.2496467226601
 30
0.0
 10
336.8793404756037
 20
434.3566734080557
 30
0.0
 10
336.8793404756037
 20
434.4108261326402
 30
0.0
  0
LINE
  5
1D3
330
1F
100
AcDbEntity
  8
0
  6
Continuous
 62
     7
370
    15
100
AcDbLine
 10
335.872588223
 20
434.5147915343
 30
0.0
 11
336.081502503
 21
434.2675663689
 31
0.0
  0
LINE
  5
1D4
330
1F
100
AcDbEntity
  8
0
  6
Continuous
 62
     7
370
    15
100
AcDbLine
 10
336.8793404756
 20
434.4108261326
 30
0.0
 11
336.8793404756
 21
434.5147915343
 31
0.0
  0
LINE
  5
1D5
330
1F
100
AcDbEntity
  8
0
  6
Continuous
 62
     7
370
    15
100
AcDbLine
 10
331.602943605
 20
443.6528094271
 30
0.0
 11
331.5873271881
 21
444.1120408634
 31
0.0
  0
SPLINE
  5
1D6
330
1F
100
AcDbEntity
  8
0
  6
Continuous
 62
     7
370
    15
100
AcDbSpline
210
0.0
220
0.0
230
1.0
 70
     8
 71
     3
 72
    11
 73
     7
 74
     0
 42
0.00000001
 43
0.00000001
 40
0.0
 40
0.0
 40
0.0
 40
0.0
 40
0.1207592001546205
 40
0.4133922129870417
 40
0.7063570810263333
 40
1.0
 40
1.0
 40
1.0
 40
1.0
 10
333.6356110034434
 20
423.4893776634782
 30
0.0
 10
333.6455342461904
 20
423.3910771335686
 30
0.0
 10
333.6795042565411
 20
423.0545671737052
 30
0.0
 10
333.7268626127051
 20
422.5856540784721
 30
0.0
 10
333.7697479591089
 20
422.1609201504657
 30
0.0
 10
333.7772971703757
 20
422.0863663244576
 30
0.0
 10
333.7810761390177
 20
422.0490463236421
 30
0.0
  0
LINE
  5
1D7
330
1F
100
AcDbEntity
  8
0
  6
Continuous
 62
     7
370
    15
100
AcDbLine
 10
337.412027186
 20
473.5147886137
 30
0.0
 11
337.1120370088
 21
473.5147886137
 31
0.0
  0
LINE
  5
1D8
330
1F
100
AcDbEntity
  8
0
  6
Continuous
 62
     7
370
    15
100
AcDbLine
 10
337.1120370088
 20
472.5147940377
 30
0.0
 11
337.012035316
 21
472.5147940377
 31
0.0
  0
LINE
  5
1D9
330
1F
100
AcDbEntity
  8
0
  6
Continuous
 62
     7
370
    15
100
AcDbLine
 10
337.012035316
 20
466.5147893289
 30
0.0
 11
337.1120370088
 21
466.5147893289
 31
0.0
  0
LINE
  5
1DA
330
1F
100
AcDbEntity
  8
0
  6
Continuous
 62
     7
370
    15
100
AcDbLine
 10
337.1120370088
 20
449.5147921303
 30
0.0
 11
337.012035316
 21
449.5147921303
 31
0.0
  0
LINE
  5
1DB
330
1F
100
AcDbEntity
  8
0
  6
Continuous
 62
     7
370
    15
100
AcDbLine
 10
337.012035316
 20
443.5147948721
 30
0.0
 11
337.1120370088
 21
443.5147948721
 31
0.0
  0
LINE
  5
1DC
330
1F
100
AcDbEntity
  8
0
  6
Continuous
 62
     7
370
    15
100
AcDbLine
 10
337.412027186
 20
417.5147868851
 30
0.0
 11
337.412027186
 21
412.5147916535
 31
0.0
  0
LINE
  5
1DD
330
1F
100
AcDbEntity
  8
0
  6
Continuous
 62
     7
370
    15
100
AcDbLine
 10
337.412027186
 20
417.5147868851
 30
0.0
 11
352.412027782
 21
417.5147868851
 31
0.0
  0
LINE
  5
1DE
330
1F
100
AcDbEntity
  8
0
  6
Continuous
 62
     7
370
    15
100
AcDbLine
 10
352.412027782
 20
417.5147868851
 30
0.0
 11
352.412027782
 21
412.5147916535
 31
0.0
  0
LINE
  5
1DF
330
1F
100
AcDbEntity
  8
0
  6
Continuous
 62
     7
370
    15
100
AcDbLine
 10
337.412027186
 20
412.5147916535
 30
0.0
 11
352.412027782
 21
412.5147916535
 31
0.0
  0
ARC
  5
1E0
330
1F
100
AcDbEntity
  8
0
  6
Continuous
 62
     7
370
    15
100
AcDbCircle
 10
352.4120301662
 20
412.5147912243
 30
0.0
 40
15.0
100
AcDbArc
 50
180.0
 51
270.0
  0
LINE
  5
1E1
330
1F
100
AcDbEntity
  8
0
  6
Continuous
 62
     7
370
    15
100
AcDbLine
 10
352.412027782
 20
397.5147910575
 30
0.0
 11
352.412027782
 21
412.5147916535
 31
0.0
  0
LINE
  5
1E2
330
1F
100
AcDbEntity
  8
0
  6
Continuous
 62
     7
370
    15
100
AcDbLine
 10
722.4120325504
 20
417.5147868851
 30
0.0
 11
722.4120325504
 21
412.5147916535
 31
0.0
  0
LINE
  5
1E3
330
1F
100
AcDbEntity
  8
0
  6
Continuous
 62
     7
370
    15
100
AcDbLine
 10
352.412027782
 20
412.5147916535
 30
0.0
 11
722.4120325504
 21
412.5147916535
 31
0.0
  0
LINE
  5
1E4
330
1F
100
AcDbEntity
  8
0
  6
Continuous
 62
     7
370
    15
100
AcDbLine
 10
352.412027782
 20
417.5147868851
 30
0.0
 11
722.4120325504
 21
417.5147868851
 31
0.0
  0
LINE
  5
1E5
330
1F
100
AcDbEntity
  8
0
  6
Continuous
 62
     7
370
    15
100
AcDbLine
 10
722.4120325504
 20
412.5147916535
 30
0.0
 11
722.4120325504
 21
397.5147910575
 31
0.0
  0
LINE
  5
1E6
330
1F
100
AcDbEntity
  8
0
  6
Continuous
 62
     7
370
    15
100
AcDbLine
 10
352.412027782
 20
397.5147910575
 30
0.0
 11
722.4120325504
 21
397.5147910575
 31
0.0
  0
LINE
  5
1E7
330
1F
100
AcDbEntity
  8
0
  6
Continuous
 62
     7
370
    15
100
AcDbLine
 10
737.4120331464
 20
417.5147868851
 30
0.0
 11
737.4120331464
 21
412.5147916535
 31
0.0
  0
LINE
  5
1E8
330
1F
100
AcDbEntity
  8
0
  6
Continuous
 62
     7
370
    15
100
AcDbLine
 10
737.4120331464
 20
412.5147916535
 30
0.0
 11
722.4120325504
 21
412.5147916535
 31
0.0
  0
LINE
  5
1E9
330
1F
100
AcDbEntity
  8
0
  6
Continuous
 62
     7
370
    15
100
AcDbLine
 10
737.4120331464
 20
417.5147868851
 30
0.0
 11
722.4120325504
 21
417.5147868851
 31
0.0
  0
ARC
  5
1EA
330
1F
100
AcDbEntity
  8
0
  6
Continuous
 62
     7
370
    15
100
AcDbCircle
 10
722.4120301662
 20
412.5147912243
 30
0.0
 40
15.0
100
AcDbArc
 50
270.0
 51
0.0
  0
LINE
  5
1EB
330
1F
100
AcDbEntity
  8
0
  6
Continuous
 62
     7
370
    15
100
AcDbLine
 10
336.212036675
 20
415.5325599173
 30
0.0
 11
337.412027186
 21
415.5325599173
 31
0.0
  0
LINE
  5
1EC
330
1F
100
AcDbEntity
  8
0
  6
Continuous
 62
     7
370
    15
100
AcDbLine
 10
336.212036675
 20
413.4285904626
 30
0.0
 11
337.412027186
 21
413.4285904626
 31
0.0
  0
LINE
  5
1ED
330
1F
100
AcDbEntity
  8
0
  6
Continuous
 62
     7
370
    15
100
AcDbLine
 10
336.212036675
 20
413.4285904626
 30
0.0
 11
336.212036675
 21
415.5325599173
 31
0.0
  0
LINE
  5
1EE
330
1F
100
AcDbEntity
  8
0
  6
Continuous
 62
     7
370
    15
100
AcDbLine
 10
336.212036675
 20
420.5147929648
 30
0.0
 11
337.412027186
 21
420.5147929648
 31
0.0
  0
LINE
  5
1EF
330
1F
100
AcDbEntity
  8
0
  6
Continuous
 62
     7
370
    15
100
AcDbLine
 10
337.412027186
 20
417.5147868851
 30
0.0
 11
337.412027186
 21
420.5147929648
 31
0.0
  0
LINE
  5
1F0
330
1F
100
AcDbEntity
  8
0
  6
Continuous
 62
     7
370
    15
100
AcDbLine
 10
336.212036675
 20
420.5147929648
 30
0.0
 11
336.212036675
 21
415.5325599173
 31
0.0
  0
LINE
  5
1F1
330
1F
100
AcDbEntity
  8
0
  6
Continuous
 62
     7
370
    15
100
AcDbLine
 10
337.412027186
 20
412.5147916535
 30
0.0
 11
337.412027186
 21
409.0147920111
 31
0.0
  0
LINE
  5
1F2
330
1F
100
AcDbEntity
  8
0
  6
Continuous
 62
     7
370
    15
100
AcDbLine
 10
336.212036675
 20
409.0147920111
 30
0.0
 11
336.212036675
 21
413.4285904626
 31
0.0
  0
LINE
  5
1F3
330
1F
100
AcDbEntity
  8
0
  6
Continuous
 62
     7
370
    15
100
AcDbLine
 10
336.1120349822
 20
411.5147896269
 30
0.0
 11
336.1120349822
 21
417.5147868851
 31
0.0
  0
ARC
  5
1F4
330
1F
100
AcDbEntity
  8
0
  6
Continuous
 62
     7
370
    15
100
AcDbCircle
 10
334.6120301662
 20
422.2147912243
 30
0.0
 40
2.799999999999971
100
AcDbArc
 50
0.0
 51
45.4024529621
  0
LINE
  5
1F5
330
1F
100
AcDbEntity
  8
0
  6
Continuous
 62
     7
370
    15
100
AcDbLine
 10
333.5043764768
 20
424.786389635
 30
0.0
 11
332.907495564
 21
424.4361825446
 31
0.0
  0
LINE
  5
1F6
330
1F
100
AcDbEntity
  8
0
  6
Continuous
 62
     7
370
    15
100
AcDbLine
 10
330.0945735631
 20
420.7651771763
 30
0.0
 11
333.6380100904
 21
423.4841622571
 31
0.0
  0
LINE
  5
1F7
330
1F
100
AcDbEntity
  8
0
  6
Continuous
 62
     7
370
    15
100
AcDbLine
 10
329.3640590368
 20
421.7171974639
 30
0.0
 11
330.0945735631
 21
420.7651771763
 31
0.0
  0
LINE
  5
1F8
330
1F
100
AcDbEntity
  8
0
  6
Continuous
 62
     7
370
    15
100
AcDbLine
 10
332.907495564
 20
424.4361825446
 30
0.0
 11
329.3640590368
 21
421.7171974639
 31
0.0
  0
LINE
  5
1F9
330
1F
100
AcDbEntity
  8
0
  6
Continuous
 62
     7
370
    15
100
AcDbLine
 10
337.412027186
 20
420.5147929648
 30
0.0
 11
337.412027186
 21
421.5147949914
 31
0.0
  0
LINE
  5
1FA
330
1F
100
AcDbEntity
  8
0
  6
Continuous
 62
     7
370
    15
100
AcDbLine
 10
336.212036675
 20
421.1557366112
 30
0.0
 11
336.212036675
 21
420.5147929648
 31
0.0
  0
LINE
  5
1FB
330
1F
100
AcDbEntity
  8
0
  6
Continuous
 62
     7
370
    15
100
AcDbLine
 10
329.1425383745
 20
420.03466265
 30
0.0
 11
328.4120238481
 21
420.9866829375
 31
0.0
  0
LWPOLYLINE
  5
1FC
330
1F
100
AcDbEntity
  8
0
  6
Continuous
 62
     7
370
    15
100
AcDbPolyline
 90
        9
 70
   128
 43
0.0
 10
328.4120238481
 20
420.9866829375
 10
328.430322474
 20
421.0007198313
 10
328.4845030961
 20
421.0422940711
 10
328.5724795518
 20
421.1097963313
 10
328.6908692775
 20
421.2006487111
 10
328.8351423202
 20
421.3113494376
 10
328.9997256456
 20
421.4376516799
 10
329.1783160625
 20
421.5746827582
 10
329.3640590368
 20
421.7171974639
  0
LWPOLYLINE
  5
1FD
330
1F
100
AcDbEntity
  8
0
  6
Continuous
 62
     7
370
    15
100
AcDbPolyline
 90
        9
 70
   128
 43
0.0
 10
330.0945735631
 20
420.7651771763
 10
329.9088305889
 20
420.6226624707
 10
329.730240172
 20
420.4856164912
 10
329.5656568466
 20
420.3593291501
 10
329.4213838039
 20
420.2486284236
 10
329.3029940782
 20
420.1577760438
 10
329.2150176225
 20
420.0902737835
 10
329.1608370004
 20
420.0486995438
 10
329.1425383745
 20
420.03466265
  0
ARC
  5
1FE
330
1F
100
AcDbEntity
  8
0
  6
Continuous
 62
     7
370
    15
100
AcDbCircle
 10
332.5120301662
 20
437.5347912243
 30
0.0
 40
2.200000000000049
100
AcDbArc
 50
103.5934783353
 51
268.1042765976
  0
LINE
  5
1FF
330
1F
100
AcDbEntity
  8
0
  6
Continuous
 62
     7
370
    15
100
AcDbLine
 10
328.9651996551
 20
438.9125563363
 30
0.0
 11
329.2988515554
 21
440.8047877411
 31
0.0
  0
LWPOLYLINE
  5
200
330
1F
100
AcDbEntity
  8
0
  6
Continuous
 62
     7
370
    15
100
AcDbPolyline
 90
        9
 70
   128
 43
0.0
 10
329.2988515554
 20
440.8047877411
 10
329.154608315
 20
440.8302240232
 10
329.0175772367
 20
440.8543862561
 10
328.8924670873
 20
440.8764474252
 10
328.7836141048
 20
440.8956401208
 10
328.6947882829
 20
440.9113012413
 10
328.6290592609
 20
440.9228943447
 10
328.5886920152
 20
440.9300096491
 10
328.5750723539
 20
440.9324161867
  0
LINE
  5
201
330
1F
100
AcDbEntity
  8
0
  6
Continuous
 62
     7
370
    15
100
AcDbLine
 10
328.5750723539
 20
440.9324161867
 30
0.0
 11
332.950112885
 21
465.7445259551
 31
0.0
  0
LWPOLYLINE
  5
202
330
1F
100
AcDbEntity
  8
0
  6
Continuous
 62
     7
370
    15
100
AcDbPolyline
 90
        9
 70
   128
 43
0.0
 10
332.950112885
 20
465.7445259551
 10
332.9652524648
 20
465.7418511966
 10
333.0100900588
 20
465.7339461306
 10
333.0828971324
 20
465.7211087802
 10
333.1808722673
 20
465.7038383344
 10
333.3002603708
 20
465.6827829937
 10
333.4364718852
 20
465.6587697724
 10
333.584261602
 20
465.6327076415
 10
333.7379670797
 20
465.6056024293
  0
LINE
  5
203
330
1F
100
AcDbEntity
  8
0
  6
Continuous
 62
     7
370
    15
100
AcDbLine
 10
333.7379670797
 20
465.6056024293
 30
0.0
 11
328.9126283584
 21
438.2398061613
 31
0.0
  0
LINE
  5
204
330
1F
100
AcDbEntity
  8
0
  6
Continuous
 62
     7
370
    15
100
AcDbLine
 10
328.9126283584
 20
438.2398061613
 30
0.0
 11
328.9651996551
 21
438.9125563363
 31
0.0
  0
LWPOLYLINE
  5
205
330
1F
100
AcDbEntity
  8
0
  6
Continuous
 62
     7
370
    15
100
AcDbPolyline
 90
        5
 70
   128
 43
0.0
 10
331.7974186597
 20
472.6328484872
 10
331.5439350067
 20
473.3292542556
 10
331.3603825031
 20
473.8335691551
 10
331.2492496429
 20
474.1389237503
 10
331.2120265422
 20
474.2411755184
  0
LWPOLYLINE
  5
206
330
1F
100
AcDbEntity
  8
0
  6
Continuous
 62
     7
370
    15
100
AcDbPolyline
 90
        5
 70
   128
 43
0.0
 10
332.5570351539
 20
472.8848345736
 10
332.3001987396
 20
473.5905088643
 10
332.1141577421
 20
474.1016261438
 10
332.0015049634
 20
474.4111456135
 10
331.9637901245
 20
474.5147906402
  0
LINE
  5
207
330
1F
100
AcDbEntity
  8
0
  6
Continuous
 62
     7
370
    15
100
AcDbLine
 10
332.7791369615
 20
472.5303955535
 30
0.0
 11
332.5570351539
 21
472.8848345736
 31
0.0
  0
LINE
  5
208
330
1F
100
AcDbEntity
  8
0
  6
Continuous
 62
     7
370
    15
100
AcDbLine
 10
332.6969421564
 20
472.5004740218
 30
0.0
 11
332.7791369615
 21
472.5303955535
 31
0.0
  0
SPLINE
  5
209
330
1F
100
AcDbEntity
  8
0
  6
Continuous
 62
     7
370
    15
100
AcDbSpline
210
0.0
220
0.0
230
1.0
 70
     8
 71
     3
 72
    12
 73
     8
 74
     0
 42
0.00000001
 43
0.00000001
 40
0.0
 40
0.0
 40
0.0
 40
0.0
 40
0.2510219938737357
 40
0.5023977523608443
 40
0.7402766005126201
 40
0.9473072801081994
 40
1.0
 40
1.0
 40
1.0
 40
1.0
 10
331.7974186597315
 20
472.632848487243
 30
0.0
 10
331.8251274937747
 20
472.5885307414114
 30
0.0
 10
331.8805842118456
 20
472.4998327928694
 30
0.0
 10
332.0875822356288
 20
472.4248401401084
 30
0.0
 10
332.3489704126575
 20
472.4133457730302
 30
0.0
 10
332.5655533490009
 20
472.454991827348
 30
0.0
 10
332.6747818605436
 20
472.4928029050122
 30
0.0
 10
332.6969421563593
 20
472.5004740217774
 30
0.0
  0
LINE
  5
20A
330
1F
100
AcDbEntity
  8
0
  6
Continuous
 62
     7
370
    15
100
AcDbLine
 10
332.6969421564
 20
472.5004740218
 30
0.0
 11
333.2732743679
 21
470.9169872264
 31
0.0
  0
LWPOLYLINE
  5
20B
330
1F
100
AcDbEntity
  8
0
  6
Continuous
 62
     7
370
    15
100
AcDbPolyline
 90
        9
 70
   128
 43
0.0
 10
332.5215256868
 20
470.6433721045
 10
332.535964912
 20
470.6486322144
 10
332.5787461458
 20
470.6642039279
 10
332.6482153593
 20
470.6894837478
 10
332.7417052446
 20
470.7235105494
 10
332.8556246219
 20
470.7649730304
 10
332.9855925498
 20
470.8122842172
 10
333.1266171394
 20
470.863611267
 10
333.2732743679
 20
470.9169872264
  0
LINE
  5
20C
330
1F
100
AcDbEntity
  8
0
  6
Continuous
 62
     7
370
    15
100
AcDbLine
 10
332.5215256868
 20
470.6433721045
 30
0.0
 11
331.7974186597
 21
472.6328484872
 31
0.0
  0
ARC
  5
20D
330
1F
100
AcDbEntity
  8
0
  6
Continuous
 62
     7
370
    15
100
AcDbCircle
 10
333.1020356724
 20
443.7037821428
 30
0.0
 40
1.599999999999981
100
AcDbArc
 50
347.034367059
 51
204.5705045339
  0
ARC
  5
20E
330
1F
100
AcDbEntity
  8
0
  6
Continuous
 62
     7
370
    15
100
AcDbCircle
 10
333.6147446376
 20
471.7268560787
 30
0.0
 40
0.4999999999999432
100
AcDbArc
 50
36.8410865503
 51
90.0
  0
ARC
  5
20F
330
1F
100
AcDbEntity
  8
0
  6
Continuous
 62
     7
370
    15
100
AcDbCircle
 10
326.4120301662
 20
466.3304772703
 30
0.0
 40
9.499999999999943
100
AcDbArc
 50
0.0
 51
36.8410865502
  0
LINE
  5
210
330
1F
100
AcDbEntity
  8
0
  6
Continuous
 62
     7
370
    15
100
AcDbLine
 10
335.9120315967
 20
466.3304768661
 30
0.0
 11
335.9120315967
 21
438.3047901252
 31
0.0
  0
ARC
  5
211
330
1F
100
AcDbEntity
  8
0
  6
Continuous
 62
     7
370
    15
100
AcDbCircle
 10
323.5944431257
 20
467.3941816926
 30
0.0
 40
10.30000000000018
100
AcDbArc
 50
350.0
 51
20.0
  0
ARC
  5
212
330
1F
100
AcDbEntity
  8
0
  6
Continuous
 62
     7
370
    15
100
AcDbCircle
 10
333.496732092
 20
473.2268560787
 30
0.0
 40
1.0
100
AcDbArc
 50
224.1440002858
 51
270.0
  0
LINE
  5
213
330
1F
100
AcDbEntity
  8
0
  6
Continuous
 62
     7
370
    15
100
AcDbLine
 10
333.4967321811
 20
472.2268588999
 30
0.0
 11
333.6147493778
 21
472.2268588999
 31
0.0
  0
LWPOLYLINE
  5
214
330
1F
100
AcDbEntity
  8
0
  6
Continuous
 62
     7
370
    15
100
AcDbPolyline
 90
        3
 70
   128
 43
0.0
 10
335.9120315967
 20
438.3047901252
 10
335.70341534
 20
437.1145077208
 10
335.3472477851
 20
436.3983504633
  0
ARC
  5
215
330
1F
100
AcDbEntity
  8
0
  6
Continuous
 62
     7
370
    15
100
AcDbCircle
 10
332.4120301662
 20
438.3047912243
 30
0.0
 40
3.500000000000062
100
AcDbArc
 50
181.0639402281
 51
271.3221928089
  0
ARC
  5
216
330
1F
100
AcDbEntity
  8
0
  6
Continuous
 62
     7
370
    15
100
AcDbCircle
 10
323.5944431257
 20
467.3941816926
 30
0.0
 40
9.500000000000028
100
AcDbArc
 50
350.0
 51
20.0
  0
ARC
  5
217
330
1F
100
AcDbEntity
  8
0
  6
Continuous
 62
     7
370
    15
100
AcDbCircle
 10
333.0056479596
 20
439.0022867511
 30
0.0
 40
4.698428302688351
100
AcDbArc
 50
170.0
 51
264.3261771657
  0
LINE
  5
218
330
1F
100
AcDbEntity
  8
0
  6
Continuous
 62
     7
370
    15
100
AcDbLine
 10
328.5750723539
 20
440.9324161867
 30
0.0
 11
328.3786005435
 21
439.8181595067
 31
0.0
  0
SPLINE
  5
219
330
1F
100
AcDbEntity
  8
0
  6
Continuous
 62
     7
370
    15
100
AcDbSpline
210
0.0
220
0.0
230
1.0
 70
     8
 71
     3
 72
    12
 73
     8
 74
     0
 42
0.00000001
 43
0.00000001
 40
0.0
 40
0.0
 40
0.0
 40
0.0
 40
0.2340518048260158
 40
0.4681083238238113
 40
0.7021649540123228
 40
0.9362191112700744
 40
0.9999999999999999
 40
0.9999999999999999
 40
0.9999999999999999
 40
0.9999999999999999
 10
333.7090141234843
 20
439.1919084051698
 30
0.0
 10
333.5126212613853
 20
439.1725254996027
 30
0.0
 10
333.1198315815259
 20
439.1337592980663
 30
0.0
 10
332.5823328834983
 20
439.1285215784711
 30
0.0
 10
332.2088304178311
 20
439.1669874354798
 30
0.0
 10
332.0296378138259
 20
439.2216515339748
 30
0.0
 10
332.0583569227028
 20
439.2656067038739
 30
0.0
 10
332.0645070729701
 20
439.2750196317285
 30
0.0
  0
SPLINE
  5
21A
330
1F
100
AcDbEntity
  8
0
  6
Continuous
 62
     7
370
    15
100
AcDbSpline
210
0.0
220
0.0
230
1.0
 70
     8
 71
     3
 72
    11
 73
     7
 74
     0
 42
0.00000001
 43
0.00000001
 40
0.0
 40
0.0
 40
0.0
 40
0.0
 40
0.1986868986185168
 40
0.4657930972863268
 40
0.7328953533015765
 40
1.0
 40
1.0
 40
1.0
 40
1.0
 10
335.0049234090296
 20
439.5707927802652
 30
0.0
 10
335.0037405500989
 20
439.5463028955605
 30
0.0
 10
335.0009675060342
 20
439.488889853593
 30
0.0
 10
334.7314294750747
 20
439.3817978898895
 30
0.0
 10
334.2843788709982
 20
439.2709912365963
 30
0.0
 10
333.9008029448487
 20
439.2182694276256
 30
0.0
 10
333.7090141234843
 20
439.1919084051698
 30
0.0
  0
SPLINE
  5
21B
330
1F
100
AcDbEntity
  8
0
  6
Continuous
 62
     7
370
    15
100
AcDbSpline
210
0.0
220
0.0
230
1.0
 70
     8
 71
     3
 72
    12
 73
     8
 74
     0
 42
0.00000001
 43
0.00000001
 40
0.0
 40
0.0
 40
0.0
 40
0.0
 40
0.2339657516696391
 40
0.4679297819275171
 40
0.7018962886551927
 40
0.935865542599682
 40
1.0
 40
1.0
 40
1.0
 40
1.0
 10
333.1020302234141
 20
445.2037818888276
 30
0.0
 10
332.9059500508884
 20
445.1812758710378
 30
0.0
 10
332.5137911485042
 20
445.1362640010469
 30
0.0
 10
332.0108589259299
 20
444.7887748903767
 30
0.0
 10
331.6910457942862
 20
444.2952859896642
 30
0.0
 10
331.5631176489484
 20
443.8417002785676
 30
0.0
 10
331.6209087203455
 20
443.5987077881371
 30
0.0
 10
331.6333419738261
 20
443.5464300373643
 30
0.0
  0
SPLINE
  5
21C
330
1F
100
AcDbEntity
  8
0
  6
Continuous
 62
     7
370
    15
100
AcDbSpline
210
0.0
220
0.0
230
1.0
 70
     8
 71
     3
 72
    11
 73
     7
 74
     0
 42
0.00000001
 43
0.00000001
 40
0.0
 40
0.0
 40
0.0
 40
0.0
 40
0.197688317045171
 40
0.4651245499065082
 40
0.732557952030392
 40
1.0
 40
1.0
 40
1.0
 40
1.0
 10
334.5722532926051
 20
443.8534908155053
 30
0.0
 10
334.5539730977516
 20
443.9982418051933
 30
0.0
 10
334.5109631337309
 20
444.3388144800658
 30
0.0
 10
334.1855039230567
 20
444.788587385643
 30
0.0
 10
333.6922081664378
 20
445.1363139013814
 30
0.0
 10
333.2987583243589
 20
445.1812923173318
 30
0.0
 10
333.1020302234141
 20
445.2037818888276
 30
0.0
  0
SPLINE
  5
21D
330
1F
100
AcDbEntity
  8
0
  6
Continuous
 62
     7
370
    15
100
AcDbSpline
210
0.0
220
0.0
230
1.0
 70
     8
 71
     3
 72
    12
 73
     8
 74
     0
 42
0.00000001
 43
0.00000001
 40
0.0
 40
0.0
 40
0.0
 40
0.0
 40
0.2350176793872489
 40
0.4700291397670341
 40
0.7050458845177425
 40
0.9400624323235348
 40
1.0
 40
1.0
 40
1.0
 40
1.0
 10
335.2780914960352
 20
423.6509360531419
 30
0.0
 10
335.0817007169316
 20
423.631558098806
 30
0.0
 10
334.6889243555915
 20
423.5928027029109
 30
0.0
 10
334.1513165601136
 20
423.5875343106277
 30
0.0
 10
333.7782509275245
 20
423.6260600501982
 30
0.0
 10
333.599209530124
 20
423.68018084414
 30
0.0
 10
333.627110111229
 20
423.723482226686
 30
0.0
 10
333.6327797828166
 20
423.7322814920991
 30
0.0
  0
SPLINE
  5
21E
330
1F
100
AcDbEntity
  8
0
  6
Continuous
 62
     7
370
    15
100
AcDbSpline
210
0.0
220
0.0
230
1.0
 70
     8
 71
     3
 72
    11
 73
     7
 74
     0
 42
0.00000001
 43
0.00000001
 40
0.0
 40
0.0
 40
0.0
 40
0.0
 40
0.1989239597362801
 40
0.465950584310487
 40
0.7329742733226847
 40
1.0
 40
1.0
 40
1.0
 40
1.0
 10
336.5740454850642
 20
424.0299321869462
 30
0.0
 10
336.5728716976282
 20
424.0054059088381
 30
0.0
 10
336.5701222704482
 20
423.9479566521947
 30
0.0
 10
336.300515391765
 20
423.8408387349224
 30
0.0
 10
335.8534543606123
 20
423.7300156235774
 30
0.0
 10
335.469879605404
 20
423.6772959770043
 30
0.0
 10
335.2780914960352
 20
423.6509360531419
 30
0.0
  0
ARC
  5
21F
330
1F
100
AcDbEntity
  8
0
  6
Continuous
 62
     7
370
    15
100
AcDbCircle
 10
336.4793193592
 20
433.9525668657
 30
0.0
 40
0.400007527466602
100
AcDbArc
 50
0.1467585748
 51
179.5021275156
  0
ELLIPSE
  5
220
330
1F
100
AcDbEntity
  8
0
  6
Continuous
 62
     7
370
    15
100
AcDbEllipse
 10
336.4793295665
 20
433.6876828306
 30
0.0
 11
0.3991830274374024
 21
-0.02624604221148274
 31
0.0
210
0.0
220
0.0
230
1.0
 40
0.9763157485
 41
0.0
 42
6.283185307179586
  0
SPLINE
  5
221
330
1F
100
AcDbEntity
  8
0
  6
Continuous
 62
     7
370
    15
100
AcDbSpline
210
0.0
220
0.0
230
1.0
 70
     8
 71
     3
 72
    13
 73
     9
 74
     0
 42
0.00000001
 43
0.00000001
 40
0.0
 40
0.0
 40
0.0
 40
0.0
 40
0.0081702280425704
 40
0.2391539873185931
 40
0.4710971973866074
 40
0.6931205590767906
 40
0.9042225733627326
 40
1.0
 40
1.0
 40
1.0
 40
1.0
 10
336.4793337045161
 20
434.4165183762162
 30
0.0
 10
336.4776748035417
 20
434.4161235801508
 30
0.0
 10
336.4291164547993
 20
434.4045673478486
 30
0.0
 10
336.332982970114
 20
434.3813744170516
 30
0.0
 10
336.2101504942273
 20
434.3377170076467
 30
0.0
 10
336.1244983007817
 20
434.3002776624967
 30
0.0
 10
336.0804804734084
 20
434.279127955732
 30
0.0
 10
336.0837124501276
 20
434.2741493419239
 30
0.0
 10
336.0847211537806
 20
434.2725955108255
 30
0.0
  0
SPLINE
  5
222
330
1F
100
AcDbEntity
  8
0
  6
Continuous
 62
     7
370
    15
100
AcDbSpline
210
0.0
220
0.0
230
1.0
 70
     8
 71
     3
 72
    13
 73
     9
 74
     0
 42
0.00000001
 43
0.00000001
 40
0.0
 40
0.0
 40
0.0
 40
0.0
 40
0.1252296646732068
 40
0.2499794552566222
 40
0.4999947492888411
 40
0.7499963880864888
 40
0.8747535995357313
 40
1.0
 40
1.0
 40
1.0
 40
1.0
 10
336.8793404756037
 20
434.4108261326402
 30
0.0
 10
336.8776260443355
 20
434.4108489758903
 30
0.0
 10
336.8742037514177
 20
434.4108945748562
 30
0.0
 10
336.8398250955224
 20
434.4113896924676
 30
0.0
 10
336.7645442234038
 20
434.412457769994
 30
0.0
 10
336.6558956304554
 20
434.4140100123299
 30
0.0
 10
336.5571845495592
 20
434.4154064546456
 30
0.0
 10
336.5053178158902
 20
434.4161472525128
 30
0.0
 10
336.4793337045161
 20
434.4165183762162
 30
0.0
  0
SPLINE
  5
223
330
1F
100
AcDbEntity
  8
0
  6
Continuous
 62
     7
370
    15
100
AcDbSpline
210
0.0
220
0.0
230
1.0
 70
     8
 71
     3
 72
    10
 73
     6
 74
     0
 42
0.00000001
 43
0.00000001
 40
0.0
 40
0.0
 40
0.0
 40
0.0
 40
0.0190107309040389
 40
0.5253203859619627
 40
1.0
 40
1.0
 40
1.0
 40
1.0
 10
336.4793337045161
 20
434.4165183762162
 30
0.0
 10
336.4808580544969
 20
434.4172560730167
 30
0.0
 10
336.5229801656512
 20
434.4376407268148
 30
0.0
 10
336.6054989996757
 20
434.4760554621055
 30
0.0
 10
336.6756545743488
 20
434.5021600739303
 30
0.0
 10
336.7096013484446
 20
434.5147915342897
 30
0.0
  0
LINE
  5
224
330
1F
100
AcDbEntity
  8
0
  6
Continuous
 62
     7
370
    15
100
AcDbLine
 10
331.6028094945
 20
443.6557524065
 30
0.0
 11
331.6152668653
 21
443.5049824575
 31
0.0
  0
LINE
  5
225
330
1F
100
AcDbEntity
  8
0
  6
Continuous
 62
     7
370
    15
100
AcDbLine
 10
334.5950371681
 20
443.8484914759
 30
0.0
 11
334.5594531951
 21
444.0586500028
 31
0.0
  0
LINE
  5
226
330
1F
100
AcDbEntity
  8
0
  6
Continuous
 62
     7
370
    15
100
AcDbLine
 10
722.4120325504
 20
542.5147915417
 30
0.0
 11
737.4120331464
 21
542.5147915417
 31
0.0
  0
LINE
  5
227
330
1F
100
AcDbEntity
  8
0
  6
Continuous
 62
     7
370
    15
100
AcDbLine
 10
722.4120325504
 20
542.5147915417
 30
0.0
 11
722.4120325504
 21
557.5147912065
 31
0.0
  0
ARC
  5
228
330
1F
100
AcDbEntity
  8
0
  6
Continuous
 62
     7
370
    15
100
AcDbCircle
 10
722.4120301662
 20
542.5147912243
 30
0.0
 40
15.00000000000011
100
AcDbArc
 50
0.0
 51
90.0
  0
LINE
  5
229
330
1F
100
AcDbEntity
  8
0
  6
Continuous
 62
     7
370
    15
100
AcDbLine
 10
352.412027782
 20
542.5147915417
 30
0.0
 11
722.4120325504
 21
542.5147915417
 31
0.0
  0
LINE
  5
22A
330
1F
100
AcDbEntity
  8
0
  6
Continuous
 62
     7
370
    15
100
AcDbLine
 10
352.412027782
 20
542.5147915417
 30
0.0
 11
352.412027782
 21
557.5147912065
 31
0.0
  0
LINE
  5
22B
330
1F
100
AcDbEntity
  8
0
  6
Continuous
 62
     7
370
    15
100
AcDbLine
 10
352.412027782
 20
557.5147912065
 30
0.0
 11
722.4120325504
 21
557.5147912065
 31
0.0
  0
LINE
  5
22C
330
1F
100
AcDbEntity
  8
0
  6
Continuous
 62
     7
370
    15
100
AcDbLine
 10
352.412027782
 20
542.5147915417
 30
0.0
 11
337.412027186
 21
542.5147915417
 31
0.0
  0
ARC
  5
22D
330
1F
100
AcDbEntity
  8
0
  6
Continuous
 62
     7
370
    15
100
AcDbCircle
 10
352.4120301662
 20
542.5147912243
 30
0.0
 40
15.0
100
AcDbArc
 50
90.0
 51
180.0
  0
LINE
  5
22E
330
1F
100
AcDbEntity
  8
0
  6
Continuous
 62
     7
370
    15
100
AcDbLine
 10
337.412027186
 20
421.5147949914
 30
0.0
 11
337.412027186
 21
542.5147915417
 31
0.0
  0
LINE
  5
22F
330
1F
100
AcDbEntity
  8
0
  6
Continuous
 62
     7
370
    15
100
AcDbLine
 10
352.412027782
 20
421.5147949914
 30
0.0
 11
352.412027782
 21
542.5147915417
 31
0.0
  0
LINE
  5
230
330
1F
100
AcDbEntity
  8
0
  6
Continuous
 62
     7
370
    15
100
AcDbLine
 10
352.412027782
 20
421.5147949914
 30
0.0
 11
337.412027186
 21
421.5147949914
 31
0.0
  0
LINE
  5
231
330
1F
100
AcDbEntity
  8
0
  6
Continuous
 62
     7
370
    15
100
AcDbLine
 10
722.4120325504
 20
421.5147949914
 30
0.0
 11
722.4120325504
 21
542.5147915417
 31
0.0
  0
LINE
  5
232
330
1F
100
AcDbEntity
  8
0
  6
Continuous
 62
     7
370
    15
100
AcDbLine
 10
737.4120331464
 20
421.5147949914
 30
0.0
 11
737.4120331464
 21
542.5147915417
 31
0.0
  0
LINE
  5
233
330
1F
100
AcDbEntity
  8
0
  6
Continuous
 62
     7
370
    15
100
AcDbLine
 10
737.4120331464
 20
421.5147949914
 30
0.0
 11
722.4120325504
 21
421.5147949914
 31
0.0
  0
LINE
  5
234
330
1F
100
AcDbEntity
  8
0
  6
Continuous
 62
     7
370
    15
100
AcDbLine
 10
352.412027782
 20
421.5147949914
 30
0.0
 11
722.4120325504
 21
421.5147949914
 31
0.0
  0
LINE
  5
235
330
1F
100
AcDbEntity
  8
0
  6
Continuous
 62
     7
370
    15
100
AcDbLine
 10
357.4120230136
 20
441.514790819
 30
0.0
 11
357.4120230136
 21
537.5147916535
 31
0.0
  0
LINE
  5
236
330
1F
100
AcDbEntity
  8
0
  6
Continuous
 62
     7
370
    15
100
AcDbLine
 10
357.4120230136
 20
441.514790819
 30
0.0
 11
717.4120373188
 21
441.514790819
 31
0.0
  0
LINE
  5
237
330
1F
100
AcDbEntity
  8
0
  6
Continuous
 62
     7
370
    15
100
AcDbLine
 10
717.4120373188
 20
537.5147916535
 30
0.0
 11
717.4120373188
 21
441.514790819
 31
0.0
  0
LINE
  5
238
330
1F
100
AcDbEntity
  8
0
  6
Continuous
 62
     7
370
    15
100
AcDbLine
 10
717.4120373188
 20
537.5147916535
 30
0.0
 11
357.4120230136
 21
537.5147916535
 31
0.0
  0
LINE
  5
239
330
1F
100
AcDbEntity
  8
0
  6
Continuous
 62
     7
370
    15
100
AcDbLine
 10
357.4120230136
 20
417.5147868851
 30
0.0
 11
357.4120230136
 21
421.5147949914
 31
0.0
  0
LINE
  5
23A
330
1F
100
AcDbEntity
  8
0
  6
Continuous
 62
     7
370
    15
100
AcDbLine
 10
342.4120373188
 20
417.5147868851
 30
0.0
 11
342.4120373188
 21
421.5147949914
 31
0.0
  0
LINE
  5
23B
330
1F
100
AcDbEntity
  8
0
  6
Continuous
 62
     7
370
    15
100
AcDbLine
 10
717.4120373188
 20
417.5147868851
 30
0.0
 11
717.4120373188
 21
421.5147949914
 31
0.0
  0
LINE
  5
23C
330
1F
100
AcDbEntity
  8
0
  6
Continuous
 62
     7
370
    15
100
AcDbLine
 10
732.4120230136
 20
417.5147868851
 30
0.0
 11
732.4120230136
 21
421.5147949914
 31
0.0
  0
LINE
  5
23D
330
1F
100
AcDbEntity
  8
0
  6
Continuous
 62
     7
370
    15
100
AcDbLine
 10
737.4120331464
 20
421.5147949914
 30
0.0
 11
738.0793518482
 21
421.5147949914
 31
0.0
  0
ARC
  5
23E
330
1F
100
AcDbEntity
  8
0
  6
Continuous
 62
     7
370
    15
100
AcDbCircle
 10
738.0793479143
 20
422.0147912243
 30
0.0
 40
0.50000000000008
100
AcDbArc
 50
270.0
 51
332.720387264
  0
ARC
  5
23F
330
1F
100
AcDbEntity
  8
0
  6
Continuous
 62
     7
370
    15
100
AcDbCircle
 10
743.4120301662
 20
419.2647912243
 30
0.0
 40
5.500000000000063
100
AcDbArc
 50
202.024312837
 51
152.720387264
  0
ARC
  5
240
330
1F
100
AcDbEntity
  8
0
  6
Continuous
 62
     7
370
    15
100
AcDbCircle
 10
737.8498813009
 20
417.0147912243
 30
0.0
 40
0.5
100
AcDbArc
 50
22.024312837
 51
90.0
  0
LINE
  5
241
330
1F
100
AcDbEntity
  8
0
  6
Continuous
 62
     7
370
    15
100
AcDbLine
 10
737.8498739658
 20
417.5147868851
 30
0.0
 11
737.4120331464
 21
417.5147868851
 31
0.0
  0
LINE
  5
242
330
1F
100
AcDbEntity
  8
0
  6
Continuous
 62
     7
370
    15
100
AcDbLine
 10
337.412027186
 20
442.7147887806
 30
0.0
 11
337.1120370088
 21
442.7147887806
 31
0.0
  0
LINE
  5
243
330
1F
100
AcDbEntity
  8
0
  6
Continuous
 62
     7
370
    15
100
AcDbLine
 10
337.1120370088
 20
440.714792178
 30
0.0
 11
337.412027186
 21
440.7158501605
 31
0.0
  0
LINE
  5
244
330
1F
100
AcDbEntity
  8
0
  6
Continuous
 62
     7
370
    15
100
AcDbLine
 10
337.1120370088
 20
440.714792178
 30
0.0
 11
337.1120370088
 21
442.7147887806
 31
0.0
  0
LINE
  5
245
330
1F
100
AcDbEntity
  8
0
  6
Continuous
 62
     7
370
    15
100
AcDbLine
 10
337.1120370088
 20
434.5147915343
 30
0.0
 11
337.1120370088
 21
440.714792178
 31
0.0
  0
LINE
  5
246
330
1F
100
AcDbEntity
  8
0
  6
Continuous
 62
     7
370
    15
100
AcDbLine
 10
337.412027186
 20
434.5147915343
 30
0.0
 11
337.1120370088
 21
434.5147915343
 31
0.0
  0
ARC
  5
247
330
1F
100
AcDbEntity
  8
0
  6
Continuous
 62
     7
370
    15
100
AcDbCircle
 10
332.2120301662
 20
437.6147912243
 30
0.0
 40
3.100000000000009
100
AcDbArc
 50
192.3149192898
 51
270.0
  0
LINE
  5
248
330
1F
100
AcDbEntity
  8
0
  6
Continuous
 62
     7
370
    15
100
AcDbLine
 10
337.1120370088
 20
440.714792178
 30
0.0
 11
335.9120315967
 21
440.714792178
 31
0.0
  0
LINE
  5
249
330
1F
100
AcDbEntity
  8
0
  6
Continuous
 62
     7
370
    15
100
AcDbLine
 10
332.2120285688
 20
434.5147915343
 30
0.0
 11
332.5221664367
 21
434.5147915343
 31
0.0
  0
LINE
  5
24A
330
1F
100
AcDbEntity
  8
0
  6
Continuous
 62
     7
370
    15
100
AcDbLine
 10
335.5374164043
 20
434.5147915343
 30
0.0
 11
337.1120370088
 21
434.5147915343
 31
0.0
  0
LINE
  5
24B
330
1F
100
AcDbEntity
  8
0
  6
Continuous
 62
     7
370
    15
100
AcDbLine
 10
337.1120370088
 20
442.7147887806
 30
0.0
 11
337.1120370088
 21
466.7647935608
 31
0.0
  0
LINE
  5
24C
330
1F
100
AcDbEntity
  8
0
  6
Continuous
 62
     7
370
    15
100
AcDbLine
 10
337.1120370088
 20
473.5147886137
 30
0.0
 11
337.1120370088
 21
466.7647935608
 31
0.0
  0
LINE
  5
24D
330
1F
100
AcDbEntity
  8
0
  6
Continuous
 62
     7
370
    15
100
AcDbLine
 10
337.012035316
 20
466.5147893289
 30
0.0
 11
337.012035316
 21
472.5147940377
 31
0.0
  0
LINE
  5
24E
330
1F
100
AcDbEntity
  8
0
  6
Continuous
 62
     7
370
    15
100
AcDbLine
 10
337.012035316
 20
443.5147948721
 30
0.0
 11
337.012035316
 21
449.5147921303
 31
0.0
  0
LINE
  5
24F
330
1F
100
AcDbEntity
  8
0
  6
Continuous
 62
     7
370
    15
100
AcDbLine
 10
337.1120370088
 20
457.5147934416
 30
0.0
 11
335.9120315967
 21
457.8363306979
 31
0.0
  0
LINE
  5
250
330
1F
100
AcDbEntity
  8
0
  6
Continuous
 62
     7
370
    15
100
AcDbLine
 10
335.9120315967
 20
458.871603773
 30
0.0
 11
337.1120370088
 21
458.5500665167
 31
0.0
  0
LINE
  5
251
330
1F
100
AcDbEntity
  8
0
  6
Continuous
 62
     8
370
    15
100
AcDbLine
 10
337.412027186
 20
466.7647935608
 30
0.0
 11
337.1120370088
 21
466.7647935608
 31
0.0
  0
ENDSEC
  0
SECTION
  2
OBJECTS
  0
DICTIONARY
  5
C
330
0
100
AcDbDictionary
281
     1
  3
ACAD_GROUP
350
D
  3
ACAD_LAYOUT
350
1A
  3
ACAD_MLINESTYLE
350
17
  3
ACAD_PLOTSETTINGS
350
19
  3
ACAD_PLOTSTYLENAME
350
E
  0
DICTIONARY
  5
D
102
{ACAD_REACTORS
330
C
102
}
330
C
100
AcDbDictionary
281
     1
  0
DICTIONARY
  5
1A
102
{ACAD_REACTORS
330
C
102
}
330
C
100
AcDbDictionary
281
     1
  3
Layout1
350
1E
  3
Layout2
350
26
  3
Model
350
22
  0
DICTIONARY
  5
17
102
{ACAD_REACTORS
330
C
102
}
330
C
100
AcDbDictionary
281
     1
  3
Standard
350
18
  0
DICTIONARY
  5
19
102
{ACAD_REACTORS
330
C
102
}
330
C
100
AcDbDictionary
281
     1
  0
ACDBDICTIONARYWDFLT
  5
E
102
{ACAD_REACTORS
330
C
102
}
330
C
100
AcDbDictionary
281
     1
  3
Normal
350
F
100
AcDbDictionaryWithDefault
340
F
  0
LAYOUT
  5
1E
102
{ACAD_REACTORS
330
1A
102
}
330
1A
100
AcDbPlotSettings
  1

  2
none_device
  4

  6

 40
0.0
 41
0.0
 42
0.0
 43
0.0
 44
0.0
 45
0.0
 46
0.0
 47
0.0
 48
0.0
 49
0.0
140
0.0
141
0.0
142
1.0
143
1.0
 70
   688
 72
     0
 73
     0
 74
     5
  7

 75
    16
147
1.0
148
0.0
149
0.0
100
AcDbLayout
  1
Layout1
 70
     1
 71
     1
 10
0.0
 20
0.0
 11
420.0
 21
297.0
 12
0.0
 22
0.0
 32
0.0
 14
1.0000000000E+20
 24
1.0000000000E+20
 34
1.0000000000E+20
 15
-1.0000000000E+20
 25
-1.0000000000E+20
 35
-1.0000000000E+20
146
0.0
 13
0.0
 23
0.0
 33
0.0
 16
1.0
 26
0.0
 36
0.0
 17
0.0
 27
1.0
 37
0.0
 76
     0
330
1B
  0
LAYOUT
  5
26
102
{ACAD_REACTORS
330
1A
102
}
330
1A
100
AcDbPlotSettings
  1

  2
none_device
  4

  6

 40
0.0
 41
0.0
 42
0.0
 43
0.0
 44
0.0
 45
0.0
 46
0.0
 47
0.0
 48
0.0
 49
0.0
140
0.0
141
0.0
142
1.0
143
1.0
 70
   688
 72
     0
 73
     0
 74
     5
  7

 75
    16
147
1.0
148
0.0
149
0.0
100
AcDbLayout
  1
Layout2
 70
     1
 71
     2
 10
0.0
 20
0.0
 11
0.0
 21
0.0
 12
0.0
 22
0.0
 32
0.0
 14
0.0
 24
0.0
 34
0.0
 15
0.0
 25
0.0
 35
0.0
146
0.0
 13
0.0
 23
0.0
 33
0.0
 16
1.0
 26
0.0
 36
0.0
 17
0.0
 27
1.0
 37
0.0
 76
     0
330
23
  0
LAYOUT
  5
22
102
{ACAD_REACTORS
330
1A
102
}
330
1A
100
AcDbPlotSettings
  1

  2
none_device
  4

  6

 40
0.0
 41
0.0
 42
0.0
 43
0.0
 44
0.0
 45
0.0
 46
0.0
 47
0.0
 48
0.0
 49
0.0
140
0.0
141
0.0
142
1.0
143
1.0
 70
  1712
 72
     0
 73
     0
 74
     0
  7

 75
     0
147
1.0
148
0.0
149
0.0
100
AcDbLayout
  1
Model
 70
     1
 71
     0
 10
0.0
 20
0.0
 11
840.0
 21
594.0
 12
0.0
 22
0.0
 32
0.0
 14
0.0
 24
0.0
 34
0.0
 15
840.0
 25
594.0
 35
0.0
146
0.0
 13
0.0
 23
0.0
 33
0.0
 16
1.0
 26
0.0
 36
0.0
 17
0.0
 27
1.0
 37
0.0
 76
     0
330
1F
331
29
  0
MLINESTYLE
  5
18
102
{ACAD_REACTORS
330
17
102
}
330
17
100
AcDbMlineStyle
  2
Standard
 70
     0
  3

 62
   256
 51
90.0
 52
90.0
 71
     2
 49
0.5
 62
   256
  6
BYLAYER
 49
-0.5
 62
   256
  6
BYLAYER
  0
ACDBPLACEHOLDER
  5
F
102
{ACAD_REACTORS
330
E
102
}
330
E
  0
ENDSEC
  0
EOF
