  0
SECTION
  2
HEADER
  9
$ACADVER
  1
AC1015
  9
$ACADMAINTVER
 70
     6
  9
$DWGCODEPAGE
  3
DOS932
  9
$INSBASE
 10
0.0
 20
0.0
 30
0.0
  9
$EXTMIN
 10
0.0
 20
0.0
 30
0.0
  9
$EXTMAX
 10
840.0
 20
594.0
 30
0.0
  9
$LIMMIN
 10
0.0
 20
0.0
  9
$LIMMAX
 10
840.0
 20
594.0
  9
$ORTHOMODE
 70
     0
  9
$REGENMODE
 70
     1
  9
$FILLMODE
 70
     1
  9
$QTEXTMODE
 70
     0
  9
$MIRRTEXT
 70
     1
  9
$LTSCALE
 40
2.0
  9
$ATTMODE
 70
     1
  9
$TEXTSIZE
 40
7.0
  9
$TRACEWID
 40
1.0
  9
$TEXTSTYLE
  7
Standard
  9
$CLAYER
  8
0
  9
$CELTYPE
  6
ByLayer
  9
$CECOLOR
 62
   256
  9
$CELTSCALE
 40
1.0
  9
$DISPSILH
 70
     0
  9
$DIMSCALE
 40
1.0
  9
$DIMASZ
 40
6.0
  9
$DIMEXO
 40
2.0
  9
$DIMDLI
 40
3.75
  9
$DIMRND
 40
0.0
  9
$DIMDLE
 40
0.0
  9
$DIMEXE
 40
2.0
  9
$DIMTP
 40
0.0
  9
$DIMTM
 40
0.0
  9
$DIMTXT
 40
7.0
  9
$DIMCEN
 40
2.5
  9
$DIMTSZ
 40
0.0
  9
$DIMTOL
 70
     0
  9
$DIMLIM
 70
     0
  9
$DIMTIH
 70
     1
  9
$DIMTOH
 70
     1
  9
$DIMSE1
 70
     0
  9
$DIMSE2
 70
     0
  9
$DIMTAD
 70
     1
  9
$DIMZIN
 70
     0
  9
$DIMBLK
  1

  9
$DIMASO
 70
     1
  9
$DIMSHO
 70
     1
  9
$DIMPOST
  1

  9
$DIMAPOST
  1

  9
$DIMALT
 70
     0
  9
$DIMALTD
 70
     3
  9
$DIMALTF
 40
0.0393700787
  9
$DIMLFAC
 40
1.0
  9
$DIMTOFL
 70
     1
  9
$DIMTVP
 40
0.0
  9
$DIMTIX
 70
     0
  9
$DIMSOXD
 70
     0
  9
$DIMSAH
 70
     0
  9
$DIMBLK1
  1

  9
$DIMBLK2
  1

  9
$DIMSTYLE
  2
ISO-25
  9
$DIMCLRD
 70
     0
  9
$DIMCLRE
 70
     0
  9
$DIMCLRT
 70
     0
  9
$DIMTFAC
 40
1.0
  9
$DIMGAP
 40
3.048
  9
$DIMJUST
 70
     0
  9
$DIMSD1
 70
     0
  9
$DIMSD2
 70
     0
  9
$DIMTOLJ
 70
     0
  9
$DIMTZIN
 70
     0
  9
$DIMALTZ
 70
     0
  9
$DIMALTTZ
 70
     0
  9
$DIMUPT
 70
     0
  9
$DIMDEC
 70
     1
  9
$DIMTDEC
 70
     1
  9
$DIMALTU
 70
     2
  9
$DIMALTTD
 70
     3
  9
$DIMTXSTY
  7
Standard
  9
$DIMAUNIT
 70
     0
  9
$DIMADEC
 70
     2
  9
$DIMALTRND
 40
0.0
  9
$DIMAZIN
 70
     0
  9
$DIMDSEP
 70
    44
  9
$DIMATFIT
 70
     3
  9
$DIMFRAC
 70
     0
  9
$DIMLDRBLK
  1

  9
$DIMLUNIT
 70
     2
  9
$DIMLWD
 70
    -2
  9
$DIMLWE
 70
    -2
  9
$DIMTMOVE
 70
     0
  9
$LUNITS
 70
     2
  9
$LUPREC
 70
     1
  9
$SKETCHINC
 40
1.0
  9
$FILLETRAD
 40
10.0
  9
$AUNITS
 70
     0
  9
$AUPREC
 70
     2
  9
$MENU
  1
.
  9
$ELEVATION
 40
0.0
  9
$PELEVATION
 40
0.0
  9
$THICKNESS
 40
0.0
  9
$LIMCHECK
 70
     0
  9
$CHAMFERA
 40
10.0
  9
$CHAMFERB
 40
10.0
  9
$CHAMFERC
 40
20.0
  9
$CHAMFERD
 40
0.0
  9
$SKPOLY
 70
     0
  9
$TDCREATE
 40
2460440.686459514
  9
$TDUCREATE
 40
2460440.311459514
  9
$TDUPDATE
 40
2460440.686459525
  9
$TDUUPDATE
 40
2460440.311459525
  9
$TDINDWG
 40
0.0000000116
  9
$TDUSRTIMER
 40
0.0000000116
  9
$USRTIMER
 70
     1
  9
$ANGBASE
 50
0.0
  9
$ANGDIR
 70
     0
  9
$PDMODE
 70
     0
  9
$PDSIZE
 40
-1.0
  9
$PLINEWID
 40
0.0
  9
$SPLFRAME
 70
     0
  9
$SPLINETYPE
 70
     6
  9
$SPLINESEGS
 70
     8
  9
$HANDSEED
  5
253
  9
$SURFTAB1
 70
     6
  9
$SURFTAB2
 70
     6
  9
$SURFTYPE
 70
     6
  9
$SURFU
 70
     6
  9
$SURFV
 70
     6
  9
$UCSBASE
  2

  9
$UCSNAME
  2

  9
$UCSORG
 10
0.0
 20
0.0
 30
0.0
  9
$UCSXDIR
 10
1.0
 20
0.0
 30
0.0
  9
$UCSYDIR
 10
0.0
 20
1.0
 30
0.0
  9
$UCSORTHOREF
  2

  9
$UCSORTHOVIEW
 70
     0
  9
$UCSORGTOP
 10
0.0
 20
0.0
 30
0.0
  9
$UCSORGBOTTOM
 10
0.0
 20
0.0
 30
0.0
  9
$UCSORGLEFT
 10
0.0
 20
0.0
 30
0.0
  9
$UCSORGRIGHT
 10
0.0
 20
0.0
 30
0.0
  9
$UCSORGFRONT
 10
0.0
 20
0.0
 30
0.0
  9
$UCSORGBACK
 10
0.0
 20
0.0
 30
0.0
  9
$PUCSBASE
  2

  9
$PUCSNAME
  2

  9
$PUCSORG
 10
0.0
 20
0.0
 30
0.0
  9
$PUCSXDIR
 10
1.0
 20
0.0
 30
0.0
  9
$PUCSYDIR
 10
0.0
 20
1.0
 30
0.0
  9
$PUCSORTHOREF
  2

  9
$PUCSORTHOVIEW
 70
     0
  9
$PUCSORGTOP
 10
0.0
 20
0.0
 30
0.0
  9
$PUCSORGBOTTOM
 10
0.0
 20
0.0
 30
0.0
  9
$PUCSORGLEFT
 10
0.0
 20
0.0
 30
0.0
  9
$PUCSORGRIGHT
 10
0.0
 20
0.0
 30
0.0
  9
$PUCSORGFRONT
 10
0.0
 20
0.0
 30
0.0
  9
$PUCSORGBACK
 10
0.0
 20
0.0
 30
0.0
  9
$USERI1
 70
     0
  9
$USERI2
 70
     0
  9
$USERI3
 70
     0
  9
$USERI4
 70
     0
  9
$USERI5
 70
     0
  9
$USERR1
 40
0.0
  9
$USERR2
 40
0.0
  9
$USERR3
 40
0.0
  9
$USERR4
 40
0.0
  9
$USERR5
 40
0.0
  9
$WORLDVIEW
 70
     1
  9
$SHADEDGE
 70
     3
  9
$SHADEDIF
 70
    70
  9
$TILEMODE
 70
     1
  9
$MAXACTVP
 70
    64
  9
$PINSBASE
 10
0.0
 20
0.0
 30
0.0
  9
$PLIMCHECK
 70
     0
  9
$PEXTMIN
 10
1.0000000000E+20
 20
1.0000000000E+20
 30
1.0000000000E+20
  9
$PEXTMAX
 10
-1.0000000000E+20
 20
-1.0000000000E+20
 30
-1.0000000000E+20
  9
$PLIMMIN
 10
0.0
 20
0.0
  9
$PLIMMAX
 10
420.0
 20
297.0
  9
$UNITMODE
 70
     0
  9
$VISRETAIN
 70
     1
  9
$PLINEGEN
 70
     0
  9
$PSLTSCALE
 70
     1
  9
$TREEDEPTH
 70
  3020
  9
$CMLSTYLE
  2
Standard
  9
$CMLJUST
 70
     0
  9
$CMLSCALE
 40
20.0
  9
$PROXYGRAPHICS
 70
     1
  9
$MEASUREMENT
 70
     1
  9
$CELWEIGHT
370
    -1
  9
$ENDCAPS
280
     0
  9
$JOINSTYLE
280
     0
  9
$LWDISPLAY
290
     1
  9
$INSUNITS
 70
     4
  9
$HYPERLINKBASE
  1

  9
$STYLESHEET
  1

  9
$XEDIT
290
     1
  9
$CEPSNTYPE
380
     0
  9
$PSTYLEMODE
290
     1
  9
$FINGERPRINTGUID
  2
{1AD25319-6AFF-416B-8CF8-CF4ED7AF9B03}
  9
$VERSIONGUID
  2
{FAEB1C32-E019-11D5-929B-00C0DF256EC4}
  9
$EXTNAMES
290
     1
  9
$PSVPSCALE
 40
0.0
  9
$OLESTARTUP
290
     0
  0
ENDSEC
  0
SECTION
  2
CLASSES
  0
CLASS
  1
ACDBDICTIONARYWDFLT
  2
AcDbDictionaryWithDefault
  3
ObjectDBX Classes
 90
        0
280
     0
281
     0
  0
CLASS
  1
VISUALSTYLE
  2
AcDbVisualStyle
  3
ObjectDBX Classes
 90
     4095
280
     0
281
     0
  0
CLASS
  1
MATERIAL
  2
AcDbMaterial
  3
ObjectDBX Classes
 90
     1153
280
     0
281
     0
  0
CLASS
  1
ACDBPLACEHOLDER
  2
AcDbPlaceHolder
  3
ObjectDBX Classes
 90
        0
280
     0
281
     0
  0
CLASS
  1
LAYOUT
  2
AcDbLayout
  3
ObjectDBX Classes
 90
        0
280
     0
281
     0
  0
ENDSEC
  0
SECTION
  2
TABLES
  0
TABLE
  2
VPORT
  5
8
330
0
100
AcDbSymbolTable
 70
     1
  0
VPORT
  5
29
330
8
100
AcDbSymbolTableRecord
100
AcDbViewportTableRecord
  2
*Active
 70
     0
 10
0.0
 20
0.0
 11
1.0
 21
1.0
 12
420.0
 22
297.0
 13
0.0
 23
0.0
 14
10.0
 24
10.0
 15
10.0
 25
10.0
 16
0.0
 26
0.0
 36
1.0
 17
0.0
 27
0.0
 37
0.0
 40
594.0
 41
1.4141414141
 42
50.0
 43
0.0
 44
0.0
 50
0.0
 51
0.0
 71
     0
 72
  2000
 73
     1
 74
     3
 75
     0
 76
     0
 77
     0
 78
     0
281
     0
 65
     1
110
0.0
120
0.0
130
0.0
111
1.0
121
0.0
131
0.0
112
0.0
122
1.0
132
0.0
 79
     0
146
0.0
  0
ENDTAB
  0
TABLE
  2
LTYPE
  5
5
330
0
100
AcDbSymbolTable
 70
     6
  0
LTYPE
  5
14
330
5
100
AcDbSymbolTableRecord
100
AcDbLinetypeTableRecord
  2
ByBlock
 70
     0
  3

 72
    65
 73
     0
 40
0.0
  0
LTYPE
  5
15
330
5
100
AcDbSymbolTableRecord
100
AcDbLinetypeTableRecord
  2
ByLayer
 70
     0
  3

 72
    65
 73
     0
 40
0.0
  0
LTYPE
  5
16
330
5
100
AcDbSymbolTableRecord
100
AcDbLinetypeTableRecord
  2
Continuous
 70
     0
  3
Solid line
 72
    65
 73
     0
 40
0.0
  0
LTYPE
  5
3F
330
5
100
AcDbSymbolTableRecord
100
AcDbLinetypeTableRecord
  2
HIDDEN
 70
     0
  3
Hidden __ __ __ __ __ __ __ __ __ __ __ __ __ __
 72
    65
 73
     2
 40
1.905
 49
1.27
 74
     0
 49
-0.635
 74
     0
  0
LTYPE
  5
40
330
5
100
AcDbSymbolTableRecord
100
AcDbLinetypeTableRecord
  2
PHANTOM
 70
     0
  3
Phantom ______  __  __  ______  __  __  ______
 72
    65
 73
     6
 40
12.7
 49
6.35
 74
     0
 49
-1.27
 74
     0
 49
1.27
 74
     0
 49
-1.27
 74
     0
 49
1.27
 74
     0
 49
-1.27
 74
     0
  0
LTYPE
  5
41
330
5
100
AcDbSymbolTableRecord
100
AcDbLinetypeTableRecord
  2
CENTER
 70
     0
  3
Center ____ _ ____ _ ____ _ ____ _ ____ _ ____
 72
    65
 73
     4
 40
10.16
 49
6.35
 74
     0
 49
-1.27
 74
     0
 49
1.27
 74
     0
 49
-1.27
 74
     0
  0
LTYPE
  5
42
330
5
100
AcDbSymbolTableRecord
100
AcDbLinetypeTableRecord
  2
CENTERX2
 70
     0
  3
Center (2x) ________  __  ________  __  _____
 72
    65
 73
     4
 40
20.32
 49
12.7
 74
     0
 49
-2.54
 74
     0
 49
2.54
 74
     0
 49
-2.54
 74
     0
  0
LTYPE
  5
43
330
5
100
AcDbSymbolTableRecord
100
AcDbLinetypeTableRecord
  2
DOT2
 70
     0
  3
Dot (.5x) ........................................
 72
    65
 73
     2
 40
0.635
 49
0.0
 74
     0
 49
-0.635
 74
     0
  0
ENDTAB
  0
TABLE
  2
LAYER
  5
2
330
0
100
AcDbSymbolTable
 70
     1
  0
LAYER
  5
10
330
2
100
AcDbSymbolTableRecord
100
AcDbLayerTableRecord
  2
0
 70
     0
 62
     7
  6
Continuous
370
    -3
390
F
  0
ENDTAB
  0
TABLE
  2
STYLE
  5
3
330
0
100
AcDbSymbolTable
 70
     2
  0
STYLE
  5
11
330
3
100
AcDbSymbolTableRecord
100
AcDbTextStyleTableRecord
  2
Standard
 70
     0
 40
0.0
 41
1.0
 50
0.0
 71
     0
 42
2.5
  3
txt
  4
bigfont
  0
STYLE
  5
44
330
3
100
AcDbSymbolTableRecord
100
AcDbTextStyleTableRecord
  2
SLDTEXTSTYLE0
 70
     0
 40
0.0
 41
0.7
 50
0.0
 71
     0
 42
0.2
  3
TXT
  4
bigfont
  0
ENDTAB
  0
TABLE
  2
VIEW
  5
6
330
0
100
AcDbSymbolTable
 70
     0
  0
ENDTAB
  0
TABLE
  2
UCS
  5
7
330
0
100
AcDbSymbolTable
 70
     0
  0
ENDTAB
  0
TABLE
  2
APPID
  5
9
330
0
100
AcDbSymbolTable
 70
     1
  0
APPID
  5
12
330
9
100
AcDbSymbolTableRecord
100
AcDbRegAppTableRecord
  2
ACAD
 70
     0
  0
ENDTAB
  0
TABLE
  2
DIMSTYLE
  5
A
330
0
100
AcDbSymbolTable
 70
     1
100
AcDbDimStyleTable
  0
DIMSTYLE
105
27
330
A
100
AcDbSymbolTableRecord
100
AcDbDimStyleTableRecord
  2
ISO-25
 70
     0
 41
2.5
 42
0.625
 43
3.75
 44
1.25
 73
     0
 74
     0
 77
     1
 78
     8
140
2.5
141
2.5
143
0.0393700787
147
0.625
171
     3
172
     1
178
     0
271
     2
272
     2
274
     3
278
    44
283
     0
284
     8
340
11
  0
ENDTAB
  0
TABLE
  2
BLOCK_RECORD
  5
1
330
0
100
AcDbSymbolTable
 70
     1
  0
BLOCK_RECORD
  5
1F
330
1
100
AcDbSymbolTableRecord
100
AcDbBlockTableRecord
  2
*Model_Space
340
22
  0
BLOCK_RECORD
  5
1B
330
1
100
AcDbSymbolTableRecord
100
AcDbBlockTableRecord
  2
*Paper_Space
340
1E
  0
BLOCK_RECORD
  5
23
330
1
100
AcDbSymbolTableRecord
100
AcDbBlockTableRecord
  2
*Paper_Space0
340
26
  0
ENDTAB
  0
ENDSEC
  0
SECTION
  2
BLOCKS
  0
BLOCK
  5
20
330
1F
100
AcDbEntity
  8
0
100
AcDbBlockBegin
  2
*Model_Space
 70
     0
 10
0.0
 20
0.0
 30
0.0
  3
*Model_Space
  1

  0
ENDBLK
  5
21
330
1F
100
AcDbEntity
  8
0
100
AcDbBlockEnd
  0
BLOCK
  5
1C
330
1B
100
AcDbEntity
 67
     1
  8
0
100
AcDbBlockBegin
  2
*Paper_Space
 70
     0
 10
0.0
 20
0.0
 30
0.0
  3
*Paper_Space
  1

  0
ENDBLK
  5
1D
330
1B
100
AcDbEntity
 67
     1
  8
0
100
AcDbBlockEnd
  0
BLOCK
  5
24
330
23
100
AcDbEntity
  8
0
100
AcDbBlockBegin
  2
*Paper_Space0
 70
     0
 10
0.0
 20
0.0
 30
0.0
  3
*Paper_Space0
  1

  0
ENDBLK
  5
25
330
23
100
AcDbEntity
  8
0
100
AcDbBlockEnd
  0
ENDSEC
  0
SECTION
  2
ENTITIES
  0
MTEXT
  5
45
330
1F
100
AcDbEntity
  8
0
  6
Continuous
 62
     7
370
     0
100
AcDbMText
 10
182.4369426752
 20
460.5391145814
 30
0.0
 40
7.0
 41
0.0
 71
     1
 72
     1
  1
CHB-519N
  7
SLDTEXTSTYLE0
 73
     1
 44
1.0
  0
LINE
  5
46
330
1F
100
AcDbEntity
  8
0
  6
Continuous
 62
     7
370
    15
100
AcDbLine
 10
366.8724029936
 20
207.2421793794
 30
0.0
 11
366.9724046863
 21
207.2421793794
 31
0.0
  0
LINE
  5
47
330
1F
100
AcDbEntity
  8
0
  6
Continuous
 62
     7
370
    15
100
AcDbLine
 10
366.9724046863
 20
213.2421796644
 30
0.0
 11
366.8724029936
 21
213.2421796644
 31
0.0
  0
LINE
  5
48
330
1F
100
AcDbEntity
  8
0
  6
Continuous
 62
     7
370
    15
100
AcDbLine
 10
366.8724029936
 20
217.2421798544
 30
0.0
 11
366.9724046863
 21
217.2421798544
 31
0.0
  0
LINE
  5
49
330
1F
100
AcDbEntity
  8
0
  6
Continuous
 62
     7
370
    15
100
AcDbLine
 10
366.9724046863
 20
223.2421801394
 30
0.0
 11
366.8724029936
 21
223.2421801394
 31
0.0
  0
LINE
  5
4A
330
1F
100
AcDbEntity
  8
0
  6
Continuous
 62
     7
370
    15
100
AcDbLine
 10
368.1723951973
 20
226.7421797817
 30
0.0
 11
366.9724046863
 21
226.7421797817
 31
0.0
  0
LINE
  5
4B
330
1F
100
AcDbEntity
  8
0
  6
Continuous
 62
     7
370
    15
100
AcDbLine
 10
366.9724046863
 20
203.742179737
 30
0.0
 11
368.1723951973
 21
203.742179737
 31
0.0
  0
LINE
  5
4C
330
1F
100
AcDbEntity
  8
0
  6
Continuous
 62
     7
370
    15
100
AcDbLine
 10
779.6724021114
 20
121.242182978
 30
0.0
 11
779.6724021114
 21
156.2421794017
 31
0.0
  0
LINE
  5
4D
330
1F
100
AcDbEntity
  8
0
  6
Continuous
 62
     7
370
    15
100
AcDbLine
 10
779.6724021114
 20
274.242180117
 30
0.0
 11
779.6724021114
 21
309.2421765407
 31
0.0
  0
LINE
  5
4E
330
1F
100
AcDbEntity
  8
0
  6
Continuous
 62
     7
370
    15
100
AcDbLine
 10
359.0675919927
 20
219.1421796536
 30
0.0
 11
359.0675919927
 21
210.5421798272
 31
0.0
  0
LINE
  5
4F
330
1F
100
AcDbEntity
  8
0
  6
Continuous
 62
     7
370
    15
100
AcDbLine
 10
359.6724003233
 20
208.0421798831
 30
0.0
 11
359.6724003233
 21
207.2424336305
 31
0.0
  0
LINE
  5
50
330
1F
100
AcDbEntity
  8
0
  6
Continuous
 62
     7
370
    15
100
AcDbLine
 10
359.6724003233
 20
223.2419258883
 30
0.0
 11
359.6724003233
 21
222.4421796357
 31
0.0
  0
ARC
  5
51
330
1F
100
AcDbEntity
  8
0
  6
Continuous
 62
     7
370
    15
100
AcDbCircle
 10
363.2723981775
 20
220.4350369023
 30
0.0
 40
3.807142857143176
100
AcDbArc
 50
77.9663271603
 51
90.0
  0
ARC
  5
52
330
1F
100
AcDbEntity
  8
0
  6
Continuous
 62
     7
370
    15
100
AcDbCircle
 10
363.2723981775
 20
220.4350369023
 30
0.0
 40
3.807142857143189
100
AcDbArc
 50
90.0
 51
125.3002484399
  0
LINE
  5
53
330
1F
100
AcDbEntity
  8
0
  6
Continuous
 62
     7
370
    15
100
AcDbLine
 10
361.0723942198
 20
223.5421796297
 30
0.0
 11
361.0723942198
 21
223.2421801394
 31
0.0
  0
LINE
  5
54
330
1F
100
AcDbEntity
  8
0
  6
Continuous
 62
     7
370
    15
100
AcDbLine
 10
361.1723959125
 20
206.8421800589
 30
0.0
 11
361.1723959125
 21
206.4421798071
 31
0.0
  0
ARC
  5
55
330
1F
100
AcDbEntity
  8
0
  6
Continuous
 62
     7
370
    15
100
AcDbCircle
 10
361.3723981775
 20
207.2421797594
 30
0.0
 40
0.4000000000008299
100
AcDbArc
 50
270.0
 51
0.0
  0
LINE
  5
56
330
1F
100
AcDbEntity
  8
0
  6
Continuous
 62
     7
370
    15
100
AcDbLine
 10
361.772391168
 20
222.4421796357
 30
0.0
 11
361.772391168
 21
221.9921799345
 31
0.0
  0
LINE
  5
57
330
1F
100
AcDbEntity
  8
0
  6
Continuous
 62
     7
370
    15
100
AcDbLine
 10
361.772391168
 20
208.4921795843
 30
0.0
 11
361.772391168
 21
208.0421798831
 31
0.0
  0
SPLINE
  5
58
330
1F
100
AcDbEntity
  8
0
  6
Continuous
 62
     7
370
    15
100
AcDbSpline
210
0.0
220
0.0
230
1.0
 70
     8
 71
     3
 72
    11
 73
     7
 74
     0
 42
0.00000001
 43
0.00000001
 40
0.0
 40
0.0
 40
0.0
 40
0.0
 40
0.2262211333386928
 40
0.4679442160813388
 40
0.7254890556036399
 40
1.0
 40
1.0
 40
1.0
 40
1.0
 10
364.4929110683328
 20
223.4726144900261
 30
0.0
 10
364.4957304013511
 20
223.4497155105303
 30
0.0
 10
364.5015622640054
 20
223.4023483841657
 30
0.0
 10
364.5183530518785
 20
223.0775581693509
 30
0.0
 10
364.5319453339844
 20
222.5770729317363
 30
0.0
 10
364.5324806040379
 20
222.1532458455709
 30
0.0
 10
364.5327567733652
 20
221.9345748392581
 30
0.0
  0
SPLINE
  5
59
330
1F
100
AcDbEntity
  8
0
  6
Continuous
 62
     7
370
    15
100
AcDbSpline
210
0.0
220
0.0
230
1.0
 70
     8
 71
     3
 72
    12
 73
     8
 74
     0
 42
0.00000001
 43
0.00000001
 40
0.0
 40
0.0
 40
0.0
 40
0.0
 40
0.2489445739028115
 40
0.4822862098310756
 40
0.6998114639483098
 40
0.9035368778110593
 40
1.0
 40
1.0
 40
1.0
 40
1.0
 10
364.5327567733651
 20
208.3759440077184
 30
0.0
 10
364.5313309268477
 20
208.238610488825
 30
0.0
 10
364.5285686006723
 20
207.9725510151378
 30
0.0
 10
364.5176673768267
 20
207.6367354624907
 30
0.0
 10
364.5151572224667
 20
207.4035694043245
 30
0.0
 10
364.51994636476
 20
207.2834603020637
 30
0.0
 10
364.546376870494
 20
207.2821140374755
 30
0.0
 10
364.5548700965768
 20
207.2816814263998
 30
0.0
  0
LINE
  5
5A
330
1F
100
AcDbEntity
  8
0
  6
Continuous
 62
     7
370
    15
100
AcDbLine
 10
364.5319074072
 20
221.9845747543
 30
0.0
 11
364.5319074072
 21
208.3259440927
 31
0.0
  0
LINE
  5
5B
330
1F
100
AcDbEntity
  8
0
  6
Continuous
 62
     7
370
    15
100
AcDbLine
 10
363.0082934774
 20
225.9224631792
 30
0.0
 11
364.495652882
 21
223.4423157727
 31
0.0
  0
LINE
  5
5C
330
1F
100
AcDbEntity
  8
0
  6
Continuous
 62
     7
370
    15
100
AcDbLine
 10
366.9724046863
 20
225.1454253649
 30
0.0
 11
365.581113068
 21
227.4653890138
 31
0.0
  0
LINE
  5
5D
330
1F
100
AcDbEntity
  8
0
  6
Continuous
 62
     7
370
    15
100
AcDbLine
 10
364.5601451076
 20
207.1495956709
 30
0.0
 11
362.9910677351
 21
204.5331771454
 31
0.0
  0
LINE
  5
5E
330
1F
100
AcDbEntity
  8
0
  6
Continuous
 62
     7
370
    15
100
AcDbLine
 10
365.5638873257
 20
202.9902513107
 30
0.0
 11
366.9724046863
 21
205.3389341538
 31
0.0
  0
LINE
  5
5F
330
1F
100
AcDbEntity
  8
0
  6
Continuous
 62
     7
370
    15
100
AcDbLine
 10
365.6010061182
 20
227.429880478
 30
0.0
 11
365.5110478081
 21
227.5436676075
 31
0.0
  0
SPLINE
  5
60
330
1F
100
AcDbEntity
  8
0
  6
Continuous
 62
     7
370
    15
100
AcDbSpline
210
0.0
220
0.0
230
1.0
 70
     8
 71
     3
 72
    20
 73
    16
 74
     0
 42
0.00000001
 43
0.00000001
 40
0.0
 40
0.0
 40
0.0
 40
0.0
 40
0.0337804504955803
 40
0.110106129442281
 40
0.1739284394576207
 40
0.2252740656393193
 40
0.2665365052847715
 40
0.3037745271294951
 40
0.3388585253804877
 40
0.372639864700143
 40
0.4139176374303661
 40
0.6259827958877605
 40
0.8390272751872768
 40
0.9659462427231557
 40
1.0
 40
1.0
 40
1.0
 40
1.0
 10
365.3987377561456
 20
227.6857371410071
 30
0.0
 10
365.3580771450089
 20
227.7419225020541
 30
0.0
 10
365.2255453863337
 20
227.925056609073
 30
0.0
 10
364.9156776229038
 20
228.1022356386654
 30
0.0
 10
364.5284210642427
 20
228.2251940476662
 30
0.0
 10
364.1585714679886
 20
228.239982535666
 30
0.0
 10
363.824253712138
 20
228.1893894296701
 30
0.0
 10
363.5497694351647
 20
228.0883466821719
 30
0.0
 10
363.3222651818537
 20
227.9536243133256
 30
0.0
 10
363.116232157731
 20
227.7774520187999
 30
0.0
 10
362.771709561019
 20
227.3349495549406
 30
0.0
 10
362.5906207117043
 20
226.6482888647322
 30
0.0
 10
362.4408201611057
 20
225.4674501228779
 30
0.0
 10
362.3857004280155
 20
224.5628077150765
 30
0.0
 10
362.3791389262796
 20
224.1482197529342
 30
0.0
 10
362.3777508415109
 20
224.0605137278973
 30
0.0
  0
SPLINE
  5
61
330
1F
100
AcDbEntity
  8
0
  6
Continuous
 62
     7
370
    15
100
AcDbSpline
210
0.0
220
0.0
230
1.0
 70
     8
 71
     3
 72
    19
 73
    15
 74
     0
 42
0.00000001
 43
0.00000001
 40
0.0
 40
0.0
 40
0.0
 40
0.0
 40
0.010273716450927
 40
0.1295969544120951
 40
0.326812560494732
 40
0.5525093950604796
 40
0.5858541833950538
 40
0.61860173985923
 40
0.6529061552892397
 40
0.6960072169155693
 40
0.7523131166079877
 40
0.8223154421021113
 40
0.9054607797521667
 40
1.0
 40
1.0
 40
1.0
 40
1.0
 10
362.3749047197229
 20
206.4421798070608
 30
0.0
 10
362.3752279240692
 20
206.4149808378192
 30
0.0
 10
362.3793049588152
 20
206.071881668818
 30
0.0
 10
362.4190669838845
 20
205.2518915142941
 30
0.0
 10
362.554071916481
 20
204.0294566215806
 30
0.0
 10
362.6444702889364
 20
203.38610573946
 30
0.0
 10
362.9953677640476
 20
202.8459993762178
 30
0.0
 10
363.1645880379676
 20
202.658158868339
 30
0.0
 10
363.4012952822879
 20
202.481672333143
 30
0.0
 10
363.714924614823
 20
202.3282042786842
 30
0.0
 10
364.1184106342808
 20
202.2264134782615
 30
0.0
 10
364.6042723136396
 20
202.2495761607346
 30
0.0
 10
365.1340266366071
 20
202.4599046240816
 30
0.0
 10
365.3992454901256
 20
202.7817209255587
 30
0.0
 10
365.5403583921319
 20
202.9529471849738
 30
0.0
  0
LINE
  5
62
330
1F
100
AcDbEntity
  8
0
  6
Continuous
 62
     7
370
    15
100
AcDbLine
 10
779.6724021114
 20
85.2421845277
 30
0.0
 11
779.6724021114
 21
120.2421809515
 31
0.0
  0
LINE
  5
63
330
1F
100
AcDbEntity
  8
0
  6
Continuous
 62
     7
370
    15
100
AcDbLine
 10
779.6724021114
 20
310.2421785673
 30
0.0
 11
779.6724021114
 21
345.242174991
 31
0.0
  0
LINE
  5
64
330
1F
100
AcDbEntity
  8
0
  6
Continuous
 62
     7
370
    15
100
AcDbLine
 10
776.6723960317
 20
120.2421809515
 30
0.0
 11
776.6723960317
 21
121.242182978
 31
0.0
  0
LINE
  5
65
330
1F
100
AcDbEntity
  8
0
  6
Continuous
 62
     7
370
    15
100
AcDbLine
 10
776.6723960317
 20
156.2421794017
 30
0.0
 11
776.6723960317
 21
157.2421814283
 31
0.0
  0
LINE
  5
66
330
1F
100
AcDbEntity
  8
0
  6
Continuous
 62
     7
370
    15
100
AcDbLine
 10
771.6724008001
 20
157.2421814283
 30
0.0
 11
771.6724008001
 21
156.2421794017
 31
0.0
  0
LINE
  5
67
330
1F
100
AcDbEntity
  8
0
  6
Continuous
 62
     7
370
    15
100
AcDbLine
 10
771.6724008001
 20
121.242182978
 30
0.0
 11
771.6724008001
 21
120.2421809515
 31
0.0
  0
LINE
  5
68
330
1F
100
AcDbEntity
  8
0
  6
Continuous
 62
     7
370
    15
100
AcDbLine
 10
771.6724008001
 20
310.2421785673
 30
0.0
 11
771.6724008001
 21
309.2421765407
 31
0.0
  0
LINE
  5
69
330
1F
100
AcDbEntity
  8
0
  6
Continuous
 62
     7
370
    15
100
AcDbLine
 10
771.6724008001
 20
274.242180117
 30
0.0
 11
771.6724008001
 21
273.2421780904
 31
0.0
  0
LINE
  5
6A
330
1F
100
AcDbEntity
  8
0
  6
Continuous
 62
     7
370
    15
100
AcDbLine
 10
776.6723960317
 20
273.2421780904
 30
0.0
 11
776.6723960317
 21
274.242180117
 31
0.0
  0
LINE
  5
6B
330
1F
100
AcDbEntity
  8
0
  6
Continuous
 62
     7
370
    15
100
AcDbLine
 10
776.6723960317
 20
309.2421765407
 30
0.0
 11
776.6723960317
 21
310.2421785673
 31
0.0
  0
LINE
  5
6C
330
1F
100
AcDbEntity
  8
0
  6
Continuous
 62
     7
370
    15
100
AcDbLine
 10
359.8724037088
 20
221.9921799345
 30
0.0
 11
359.8724037088
 21
221.6993688574
 31
0.0
  0
LINE
  5
6D
330
1F
100
AcDbEntity
  8
0
  6
Continuous
 62
     7
370
    15
100
AcDbLine
 10
359.8724037088
 20
208.7849906614
 30
0.0
 11
359.8724037088
 21
208.4921795843
 31
0.0
  0
ARC
  5
6E
330
1F
100
AcDbEntity
  8
0
  6
Continuous
 62
     7
370
    15
100
AcDbCircle
 10
383.1723981775
 20
80.2421797594
 30
0.0
 40
15.0
100
AcDbArc
 50
180.0
 51
270.0
  0
LINE
  5
6F
330
1F
100
AcDbEntity
  8
0
  6
Continuous
 62
     7
370
    15
100
AcDbLine
 10
368.1723951973
 20
80.242174395
 30
0.0
 11
383.1723957933
 21
80.242174395
 31
0.0
  0
LINE
  5
70
330
1F
100
AcDbEntity
  8
0
  6
Continuous
 62
     7
370
    15
100
AcDbLine
 10
383.1723957933
 20
65.2421737989
 30
0.0
 11
383.1723957933
 21
80.242174395
 31
0.0
  0
LINE
  5
71
330
1F
100
AcDbEntity
  8
0
  6
Continuous
 62
     7
370
    15
100
AcDbLine
 10
383.1723957933
 20
80.242174395
 30
0.0
 11
753.1724005617
 21
80.242174395
 31
0.0
  0
LINE
  5
72
330
1F
100
AcDbEntity
  8
0
  6
Continuous
 62
     7
370
    15
100
AcDbLine
 10
753.1724005617
 20
80.242174395
 30
0.0
 11
753.1724005617
 21
65.2421737989
 31
0.0
  0
LINE
  5
73
330
1F
100
AcDbEntity
  8
0
  6
Continuous
 62
     7
370
    15
100
AcDbLine
 10
383.1723957933
 20
65.2421737989
 30
0.0
 11
753.1724005617
 21
65.2421737989
 31
0.0
  0
LINE
  5
74
330
1F
100
AcDbEntity
  8
0
  6
Continuous
 62
     7
370
    15
100
AcDbLine
 10
383.1723957933
 20
80.242174395
 30
0.0
 11
383.1723957933
 21
350.2421851238
 31
0.0
  0
LINE
  5
75
330
1F
100
AcDbEntity
  8
0
  6
Continuous
 62
     7
370
    15
100
AcDbLine
 10
368.1723951973
 20
205.2546876451
 30
0.0
 11
368.1723951973
 21
80.242174395
 31
0.0
  0
LINE
  5
76
330
1F
100
AcDbEntity
  8
0
  6
Continuous
 62
     7
370
    15
100
AcDbLine
 10
368.1723951973
 20
225.2296718737
 30
0.0
 11
368.1723951973
 21
350.2421851238
 31
0.0
  0
LINE
  5
77
330
1F
100
AcDbEntity
  8
0
  6
Continuous
 62
     7
370
    15
100
AcDbLine
 10
368.1723951973
 20
350.2421851238
 30
0.0
 11
383.1723957933
 21
350.2421851238
 31
0.0
  0
LINE
  5
78
330
1F
100
AcDbEntity
  8
0
  6
Continuous
 62
     7
370
    15
100
AcDbLine
 10
753.1724005617
 20
80.242174395
 30
0.0
 11
753.1724005617
 21
350.2421851238
 31
0.0
  0
LINE
  5
79
330
1F
100
AcDbEntity
  8
0
  6
Continuous
 62
     7
370
    15
100
AcDbLine
 10
383.1723957933
 20
350.2421851238
 30
0.0
 11
753.1724005617
 21
350.2421851238
 31
0.0
  0
LINE
  5
7A
330
1F
100
AcDbEntity
  8
0
  6
Continuous
 62
     7
370
    15
100
AcDbLine
 10
748.1724053301
 20
85.2421845277
 30
0.0
 11
748.1724053301
 21
345.242174991
 31
0.0
  0
LINE
  5
7B
330
1F
100
AcDbEntity
  8
0
  6
Continuous
 62
     7
370
    15
100
AcDbLine
 10
388.172391025
 20
345.242174991
 30
0.0
 11
748.1724053301
 21
345.242174991
 31
0.0
  0
LINE
  5
7C
330
1F
100
AcDbEntity
  8
0
  6
Continuous
 62
     7
370
    15
100
AcDbLine
 10
748.1724053301
 20
85.2421845277
 30
0.0
 11
388.172391025
 21
85.2421845277
 31
0.0
  0
LINE
  5
7D
330
1F
100
AcDbEntity
  8
0
  6
Continuous
 62
     7
370
    15
100
AcDbLine
 10
388.172391025
 20
85.2421845277
 30
0.0
 11
388.172391025
 21
345.242174991
 31
0.0
  0
LINE
  5
7E
330
1F
100
AcDbEntity
  8
0
  6
Continuous
 62
     7
370
    15
100
AcDbLine
 10
753.1724005617
 20
80.242174395
 30
0.0
 11
768.1724011577
 21
80.242174395
 31
0.0
  0
ARC
  5
7F
330
1F
100
AcDbEntity
  8
0
  6
Continuous
 62
     7
370
    15
100
AcDbCircle
 10
753.1723981775
 20
80.2421797594
 30
0.0
 40
15.0
100
AcDbArc
 50
270.0
 51
0.0
  0
LINE
  5
80
330
1F
100
AcDbEntity
  8
0
  6
Continuous
 62
     7
370
    15
100
AcDbLine
 10
768.1724011577
 20
350.2421851238
 30
0.0
 11
753.1724005617
 21
350.2421851238
 31
0.0
  0
LINE
  5
81
330
1F
100
AcDbEntity
  8
0
  6
Continuous
 62
     7
370
    15
100
AcDbLine
 10
768.1724011577
 20
80.242174395
 30
0.0
 11
768.1724011577
 21
350.2421851238
 31
0.0
  0
LINE
  5
82
330
1F
100
AcDbEntity
  8
0
  6
Continuous
 62
     7
370
    15
100
AcDbLine
 10
383.1723957933
 20
350.2421851238
 30
0.0
 11
383.1723957933
 21
365.2421857198
 31
0.0
  0
LINE
  5
83
330
1F
100
AcDbEntity
  8
0
  6
Continuous
 62
     7
370
    15
100
AcDbLine
 10
383.1723957933
 20
365.2421857198
 30
0.0
 11
753.1724005617
 21
365.2421857198
 31
0.0
  0
LINE
  5
84
330
1F
100
AcDbEntity
  8
0
  6
Continuous
 62
     7
370
    15
100
AcDbLine
 10
753.1724005617
 20
365.2421857198
 30
0.0
 11
753.1724005617
 21
350.2421851238
 31
0.0
  0
ARC
  5
85
330
1F
100
AcDbEntity
  8
0
  6
Continuous
 62
     7
370
    15
100
AcDbCircle
 10
383.1723981775
 20
350.2421797594
 30
0.0
 40
15.0
100
AcDbArc
 50
90.0
 51
180.0
  0
ARC
  5
86
330
1F
100
AcDbEntity
  8
0
  6
Continuous
 62
     7
370
    15
100
AcDbCircle
 10
753.1723981775
 20
350.2421797594
 30
0.0
 40
15.00000000000011
100
AcDbArc
 50
0.0
 51
90.0
  0
LINE
  5
87
330
1F
100
AcDbEntity
  8
0
  6
Continuous
 62
     7
370
    15
100
AcDbLine
 10
366.9724046863
 20
226.2766628494
 30
0.0
 11
368.1723951973
 21
226.2766628494
 31
0.0
  0
LINE
  5
88
330
1F
100
AcDbEntity
  8
0
  6
Continuous
 62
     7
370
    15
100
AcDbLine
 10
366.9724046863
 20
204.2076966693
 30
0.0
 11
368.1723951973
 21
204.2076966693
 31
0.0
  0
LINE
  5
89
330
1F
100
AcDbEntity
  8
0
  6
Continuous
 62
     7
370
    15
100
AcDbLine
 10
368.1723951973
 20
225.2296718737
 30
0.0
 11
368.1723951973
 21
205.2546876451
 31
0.0
  0
LINE
  5
8A
330
1F
100
AcDbEntity
  8
0
  6
Continuous
 62
     7
370
    15
100
AcDbLine
 10
366.9724046863
 20
204.2076966693
 30
0.0
 11
366.9724046863
 21
226.2766628494
 31
0.0
  0
LINE
  5
8B
330
1F
100
AcDbEntity
  8
0
  6
Continuous
 62
     7
370
    15
100
AcDbLine
 10
366.8724029936
 20
207.2421793794
 30
0.0
 11
366.8724029936
 21
213.2421796644
 31
0.0
  0
LINE
  5
8C
330
1F
100
AcDbEntity
  8
0
  6
Continuous
 62
     7
370
    15
100
AcDbLine
 10
366.8724029936
 20
220.2421796476
 30
0.0
 11
366.8724029936
 21
223.2421801394
 31
0.0
  0
LINE
  5
8D
330
1F
100
AcDbEntity
  8
0
  6
Continuous
 62
     7
370
    15
100
AcDbLine
 10
366.8724029936
 20
217.2421798544
 30
0.0
 11
366.8724029936
 21
220.2421796476
 31
0.0
  0
LINE
  5
8E
330
1F
100
AcDbEntity
  8
0
  6
Continuous
 62
     7
370
    15
100
AcDbLine
 10
366.9724046863
 20
226.2766628494
 30
0.0
 11
366.9724046863
 21
226.7421797817
 31
0.0
  0
LINE
  5
8F
330
1F
100
AcDbEntity
  8
0
  6
Continuous
 62
     7
370
    15
100
AcDbLine
 10
366.9724046863
 20
203.742179737
 30
0.0
 11
366.9724046863
 21
204.2076966693
 31
0.0
  0
LINE
  5
90
330
1F
100
AcDbEntity
  8
0
  6
Continuous
 62
     7
370
    15
100
AcDbLine
 10
769.0737574972
 20
156.2421794017
 30
0.0
 11
769.0737574972
 21
121.242182978
 31
0.0
  0
LINE
  5
91
330
1F
100
AcDbEntity
  8
0
  6
Continuous
 62
     7
370
    15
100
AcDbLine
 10
769.0737574972
 20
156.2421794017
 30
0.0
 11
779.6724021114
 21
156.2421794017
 31
0.0
  0
LINE
  5
92
330
1F
100
AcDbEntity
  8
0
  6
Continuous
 62
     7
370
    15
100
AcDbLine
 10
769.0737574972
 20
121.242182978
 30
0.0
 11
779.6724021114
 21
121.242182978
 31
0.0
  0
LINE
  5
93
330
1F
100
AcDbEntity
  8
0
  6
Continuous
 62
     7
370
    15
100
AcDbLine
 10
769.0737574972
 20
274.242180117
 30
0.0
 11
779.6724021114
 21
274.242180117
 31
0.0
  0
LINE
  5
94
330
1F
100
AcDbEntity
  8
0
  6
Continuous
 62
     7
370
    15
100
AcDbLine
 10
769.0737574972
 20
309.2421765407
 30
0.0
 11
769.0737574972
 21
274.242180117
 31
0.0
  0
LINE
  5
95
330
1F
100
AcDbEntity
  8
0
  6
Continuous
 62
     7
370
    15
100
AcDbLine
 10
769.0737574972
 20
309.2421765407
 30
0.0
 11
779.6724021114
 21
309.2421765407
 31
0.0
  0
LINE
  5
96
330
1F
100
AcDbEntity
  8
0
  6
Continuous
 62
     7
370
    15
100
AcDbLine
 10
768.6102419771
 20
156.2421794017
 30
0.0
 11
768.6102419771
 21
121.242182978
 31
0.0
  0
LINE
  5
97
330
1F
100
AcDbEntity
  8
0
  6
Continuous
 62
     7
370
    15
100
AcDbLine
 10
768.6102419771
 20
156.2421794017
 30
0.0
 11
769.0737574972
 21
156.2421794017
 31
0.0
  0
LINE
  5
98
330
1F
100
AcDbEntity
  8
0
  6
Continuous
 62
     7
370
    15
100
AcDbLine
 10
768.6102419771
 20
121.242182978
 30
0.0
 11
769.0737574972
 21
121.242182978
 31
0.0
  0
LINE
  5
99
330
1F
100
AcDbEntity
  8
0
  6
Continuous
 62
     7
370
    15
100
AcDbLine
 10
768.6102419771
 20
309.2421765407
 30
0.0
 11
768.6102419771
 21
274.242180117
 31
0.0
  0
LINE
  5
9A
330
1F
100
AcDbEntity
  8
0
  6
Continuous
 62
     7
370
    15
100
AcDbLine
 10
768.6102419771
 20
309.2421765407
 30
0.0
 11
769.0737574972
 21
309.2421765407
 31
0.0
  0
LINE
  5
9B
330
1F
100
AcDbEntity
  8
0
  6
Continuous
 62
     7
370
    15
100
AcDbLine
 10
768.6102419771
 20
274.242180117
 30
0.0
 11
769.0737574972
 21
274.242180117
 31
0.0
  0
LINE
  5
9C
330
1F
100
AcDbEntity
  8
0
  6
Continuous
 62
     7
370
    15
100
AcDbLine
 10
768.1724011577
 20
156.2421794017
 30
0.0
 11
768.6102419771
 21
156.2421794017
 31
0.0
  0
LINE
  5
9D
330
1F
100
AcDbEntity
  8
0
  6
Continuous
 62
     7
370
    15
100
AcDbLine
 10
768.1724011577
 20
121.242182978
 30
0.0
 11
768.6102419771
 21
121.242182978
 31
0.0
  0
LINE
  5
9E
330
1F
100
AcDbEntity
  8
0
  6
Continuous
 62
     7
370
    15
100
AcDbLine
 10
768.1724011577
 20
309.2421765407
 30
0.0
 11
768.6102419771
 21
309.2421765407
 31
0.0
  0
LINE
  5
9F
330
1F
100
AcDbEntity
  8
0
  6
Continuous
 62
     7
370
    15
100
AcDbLine
 10
768.1724011577
 20
274.242180117
 30
0.0
 11
768.6102419771
 21
274.242180117
 31
0.0
  0
LINE
  5
A0
330
1F
100
AcDbEntity
  8
0
  6
Continuous
 62
     7
370
    15
100
AcDbLine
 10
360.8549415745
 20
208.7421796253
 30
0.0
 11
360.1244270481
 21
208.7421796253
 31
0.0
  0
ARC
  5
A1
330
1F
100
AcDbEntity
  8
0
  6
Continuous
 62
     7
370
    15
100
AcDbCircle
 10
360.264565938
 20
209.8310151977
 30
0.0
 40
1.097816839157908
100
AcDbArc
 50
174.1882798295
 51
262.6660489201
  0
LINE
  5
A2
330
1F
100
AcDbEntity
  8
0
  6
Continuous
 62
     7
370
    15
100
AcDbLine
 10
359.1723918594
 20
209.9421799151
 30
0.0
 11
359.9029063858
 21
209.9421799151
 31
0.0
  0
ARC
  5
A3
330
1F
100
AcDbEntity
  8
0
  6
Continuous
 62
     7
370
    15
100
AcDbCircle
 10
360.9950804644
 20
209.8310151977
 30
0.0
 40
1.097816839157933
100
AcDbArc
 50
174.1882798295
 51
262.6660489201
  0
ARC
  5
A4
330
1F
100
AcDbEntity
  8
0
  6
Continuous
 62
     7
370
    15
100
AcDbCircle
 10
360.9950804644
 20
220.653344321
 30
0.0
 40
1.097816839157879
100
AcDbArc
 50
97.3339510799
 51
185.8117201705
  0
LINE
  5
A5
330
1F
100
AcDbEntity
  8
0
  6
Continuous
 62
     7
370
    15
100
AcDbLine
 10
360.8549415745
 20
221.7421798935
 30
0.0
 11
364.3983781017
 21
221.7421798935
 31
0.0
  0
LINE
  5
A6
330
1F
100
AcDbEntity
  8
0
  6
Continuous
 62
     7
370
    15
100
AcDbLine
 10
364.3983781017
 20
221.7421798935
 30
0.0
 11
364.3983781017
 21
208.7421796253
 31
0.0
  0
LINE
  5
A7
330
1F
100
AcDbEntity
  8
0
  6
Continuous
 62
     7
370
    15
100
AcDbLine
 10
364.3983781017
 20
208.7421796253
 30
0.0
 11
360.8549415745
 21
208.7421796253
 31
0.0
  0
LINE
  5
A8
330
1F
100
AcDbEntity
  8
0
  6
Continuous
 62
     7
370
    15
100
AcDbLine
 10
359.9029063858
 20
220.5421796037
 30
0.0
 11
359.9029063858
 21
209.9421799151
 31
0.0
  0
LINE
  5
A9
330
1F
100
AcDbEntity
  8
0
  6
Continuous
 62
     7
370
    15
100
AcDbLine
 10
359.9029063858
 20
220.5421796037
 30
0.0
 11
359.1723918594
 21
220.5421796037
 31
0.0
  0
LINE
  5
AA
330
1F
100
AcDbEntity
  8
0
  6
Continuous
 62
     7
370
    15
100
AcDbLine
 10
359.1723918594
 20
220.5421796037
 30
0.0
 11
359.1723918594
 21
209.9421799151
 31
0.0
  0
LINE
  5
AB
330
1F
100
AcDbEntity
  8
0
  6
Continuous
 62
     7
370
    15
100
AcDbLine
 10
360.1244270481
 20
221.7421798935
 30
0.0
 11
360.8549415745
 21
221.7421798935
 31
0.0
  0
ARC
  5
AC
330
1F
100
AcDbEntity
  8
0
  6
Continuous
 62
     7
370
    15
100
AcDbCircle
 10
360.264565938
 20
220.653344321
 30
0.0
 40
1.097816839157935
100
AcDbArc
 50
97.3339510799
 51
185.8117201705
  0
LINE
  5
AD
330
1F
100
AcDbEntity
  8
0
  6
Continuous
 62
     7
370
    15
100
AcDbLine
 10
364.4799172558
 20
221.7421798935
 30
0.0
 11
364.3983781017
 21
221.7421798935
 31
0.0
  0
LINE
  5
AE
330
1F
100
AcDbEntity
  8
0
  6
Continuous
 62
     7
370
    15
100
AcDbLine
 10
364.3983781017
 20
208.7421796253
 30
0.0
 11
364.5319074072
 21
208.7421796253
 31
0.0
  0
LINE
  5
AF
330
1F
100
AcDbEntity
  8
0
  6
Continuous
 62
     7
370
    15
100
AcDbLine
 10
359.1723918594
 20
210.5421798272
 30
0.0
 11
359.0675919927
 21
210.5421798272
 31
0.0
  0
LINE
  5
B0
330
1F
100
AcDbEntity
  8
0
  6
Continuous
 62
     7
370
    15
100
AcDbLine
 10
359.1723918594
 20
219.1421796536
 30
0.0
 11
359.0675919927
 21
219.1421796536
 31
0.0
  0
LINE
  5
B1
330
1F
100
AcDbEntity
  8
0
  6
Continuous
 62
     7
370
    15
100
AcDbLine
 10
364.5382851042
 20
208.0421798831
 30
0.0
 11
359.6724003233
 21
208.0421798831
 31
0.0
  0
LINE
  5
B2
330
1F
100
AcDbEntity
  8
0
  6
Continuous
 62
     7
370
    15
100
AcDbLine
 10
364.5465552486
 20
207.2421793794
 30
0.0
 11
359.6729963697
 21
207.2421793794
 31
0.0
  0
LINE
  5
B3
330
1F
100
AcDbEntity
  8
0
  6
Continuous
 62
     7
370
    15
100
AcDbLine
 10
364.5008682884
 20
223.2421801394
 30
0.0
 11
359.6729963697
 21
223.2421801394
 31
0.0
  0
LINE
  5
B4
330
1F
100
AcDbEntity
  8
0
  6
Continuous
 62
     7
370
    15
100
AcDbLine
 10
364.498335091
 20
222.4421796357
 30
0.0
 11
359.6724003233
 21
222.4421796357
 31
0.0
  0
LINE
  5
B5
330
1F
100
AcDbEntity
  8
0
  6
Continuous
 62
     7
370
    15
100
AcDbLine
 10
363.2724016584
 20
223.5421796297
 30
0.0
 11
364.435750214
 21
223.5421796297
 31
0.0
  0
LINE
  5
B6
330
1F
100
AcDbEntity
  8
0
  6
Continuous
 62
     7
370
    15
100
AcDbLine
 10
364.5989030279
 20
223.5421796297
 30
0.0
 11
364.6612494863
 21
223.5421796297
 31
0.0
  0
LINE
  5
B7
330
1F
100
AcDbEntity
  8
0
  6
Continuous
 62
     7
370
    15
100
AcDbLine
 10
361.0723942198
 20
223.5421796297
 30
0.0
 11
363.2724016584
 21
223.5421796297
 31
0.0
  0
LINE
  5
B8
330
1F
100
AcDbEntity
  8
0
  6
Continuous
 62
     7
370
    15
100
AcDbLine
 10
363.2724016584
 20
206.8421800589
 30
0.0
 11
364.3757879413
 21
206.8421800589
 31
0.0
  0
LINE
  5
B9
330
1F
100
AcDbEntity
  8
0
  6
Continuous
 62
     7
370
    15
100
AcDbLine
 10
361.1723959125
 20
206.8421800589
 30
0.0
 11
363.2724016584
 21
206.8421800589
 31
0.0
  0
LINE
  5
BA
330
1F
100
AcDbEntity
  8
0
  6
Continuous
 62
     7
370
    15
100
AcDbLine
 10
363.2724016584
 20
206.4421798071
 30
0.0
 11
364.1359090485
 21
206.4421798071
 31
0.0
  0
LINE
  5
BB
330
1F
100
AcDbEntity
  8
0
  6
Continuous
 62
     7
370
    15
100
AcDbLine
 10
361.1723959125
 20
206.4421798071
 30
0.0
 11
363.2724016584
 21
206.4421798071
 31
0.0
  0
ARC
  5
BC
330
1F
100
AcDbEntity
  8
0
  6
Continuous
 62
     7
370
    15
100
AcDbCircle
 10
360.1381521751
 20
208.0399256142
 30
0.0
 40
0.802714975266454
100
AcDbArc
 50
179.8390957372
 51
234.5339323888
  0
ARC
  5
BD
330
1F
100
AcDbEntity
  8
0
  6
Continuous
 62
     7
370
    15
100
AcDbCircle
 10
360.1381521751
 20
222.4444339046
 30
0.0
 40
0.8027149752665015
100
AcDbArc
 50
125.4660676113
 51
180.1609042628
  0
LINE
  5
BE
330
1F
100
AcDbEntity
  8
0
  6
Continuous
 62
     7
370
    15
100
AcDbLine
 10
360.1232796587
 20
208.4921795843
 30
0.0
 11
360.1232796587
 21
208.0421798831
 31
0.0
  0
LINE
  5
BF
330
1F
100
AcDbEntity
  8
0
  6
Continuous
 62
     7
370
    15
100
AcDbLine
 10
360.1232796587
 20
222.4421796357
 30
0.0
 11
360.1232796587
 21
221.9921799345
 31
0.0
  0
LINE
  5
C0
330
1F
100
AcDbEntity
  8
0
  6
Continuous
 62
     7
370
    15
100
AcDbLine
 10
359.3354403652
 20
208.0421798831
 30
0.0
 11
359.3354403652
 21
209.270621833
 31
0.0
  0
LINE
  5
C1
330
1F
100
AcDbEntity
  8
0
  6
Continuous
 62
     7
370
    15
100
AcDbLine
 10
359.3354403652
 20
221.2137376858
 30
0.0
 11
359.3354403652
 21
222.4421796357
 31
0.0
  0
SPLINE
  5
C2
330
1F
100
AcDbEntity
  8
0
  6
Continuous
 62
     7
370
    15
100
AcDbSpline
210
0.0
220
0.0
230
1.0
 70
    24
 71
     3
 72
    12
 73
     8
 74
     0
 42
0.00000001
 43
0.00000001
 40
0.0
 40
0.0
 40
0.0
 40
0.0
 40
0.2185042665755995
 40
0.4370130079610726
 40
0.6555186338092558
 40
0.8740245712698237
 40
1.0
 40
1.0
 40
1.0
 40
1.0
 10
366.331744161976
 20
221.9345748392581
 30
0.0
 10
366.1350252736574
 20
221.9345748392581
 30
0.0
 10
365.7415834683594
 20
221.9345748392581
 30
0.0
 10
365.1808140609836
 20
221.9345748392581
 30
0.0
 10
364.7631627334407
 20
221.9345748392581
 30
0.0
 10
364.5365943711602
 20
221.9345748392581
 30
0.0
 10
364.5541225532328
 20
221.9345748392581
 30
0.0
 10
364.5605325378305
 20
221.9345748392581
 30
0.0
  0
SPLINE
  5
C3
330
1F
100
AcDbEntity
  8
0
  6
Continuous
 62
     7
370
    15
100
AcDbSpline
210
0.0
220
0.0
230
1.0
 70
    24
 71
     3
 72
     9
 73
     5
 74
     0
 42
0.00000001
 43
0.00000001
 40
0.0
 40
0.0
 40
0.0
 40
0.0
 40
0.0025141086251864
 40
1.0
 40
1.0
 40
1.0
 40
1.0
 10
366.8724029935724
 20
221.9345748392581
 30
0.0
 10
366.872055432636
 20
221.9345748392581
 30
0.0
 10
366.733811232331
 20
221.9345748392582
 30
0.0
 10
366.532524669011
 20
221.9345748392581
 30
0.0
 10
366.331744161976
 20
221.9345748392581
 30
0.0
  0
SPLINE
  5
C4
330
1F
100
AcDbEntity
  8
0
  6
Continuous
 62
     7
370
    15
100
AcDbSpline
210
0.0
220
0.0
230
1.0
 70
     8
 71
     3
 72
    13
 73
     9
 74
     0
 42
0.00000001
 43
0.00000001
 40
0.0
 40
0.0
 40
0.0
 40
0.0
 40
0.1877386539089659
 40
0.3754723399019311
 40
0.563210247197253
 40
0.7509479971675025
 40
0.9386849648529548
 40
1.0
 40
1.0
 40
1.0
 40
1.0
 10
366.0384595073587
 20
225.5494135399996
 30
0.0
 10
365.8417625479547
 20
225.5467147965949
 30
0.0
 10
365.4483738341163
 20
225.5413173811993
 30
0.0
 10
364.9153586236251
 20
225.2507759213873
 30
0.0
 10
364.5248408899205
 20
224.7958747459137
 30
0.0
 10
364.3518683726285
 20
224.2341983305905
 30
0.0
 10
364.3551660902501
 20
223.760999005641
 30
0.0
 10
364.4824987103791
 20
223.5395673761334
 30
0.0
 10
364.5138471998102
 20
223.4850523030101
 30
0.0
  0
SPLINE
  5
C5
330
1F
100
AcDbEntity
  8
0
  6
Continuous
 62
     7
370
    15
100
AcDbSpline
210
0.0
220
0.0
230
1.0
 70
     8
 71
     3
 72
    10
 73
     6
 74
     0
 42
0.00000001
 43
0.00000001
 40
0.0
 40
0.0
 40
0.0
 40
0.0
 40
0.2093392736738888
 40
0.6046681284542607
 40
1.0
 40
1.0
 40
1.0
 40
1.0
 10
367.175626722706
 20
224.743298903638
 30
0.0
 10
367.1339242241993
 20
224.8363626191303
 30
0.0
 10
367.0134682233671
 20
225.1051734432348
 30
0.0
 10
366.6067650565627
 20
225.4218302307717
 30
0.0
 10
366.2278951722859
 20
225.5068856620807
 30
0.0
 10
366.0384595073587
 20
225.5494135399996
 30
0.0
  0
SPLINE
  5
C6
330
1F
100
AcDbEntity
  8
0
  6
Continuous
 62
     7
370
    15
100
AcDbSpline
210
0.0
220
0.0
230
1.0
 70
     8
 71
     3
 72
    13
 73
     9
 74
     0
 42
0.00000001
 43
0.00000001
 40
0.0
 40
0.0
 40
0.0
 40
0.0
 40
0.1768614158016835
 40
0.3537267399476782
 40
0.5305919192438419
 40
0.7074547270595563
 40
0.8843194473083311
 40
1.0
 40
1.0
 40
1.0
 40
1.0
 10
366.0212337650186
 20
204.9062267845212
 30
0.0
 10
365.8245666384775
 20
204.9089175321929
 30
0.0
 10
365.4312280393776
 20
204.9142990869974
 30
0.0
 10
364.8978430032708
 20
205.2049744931745
 30
0.0
 10
364.508712819973
 20
205.6593371960158
 30
0.0
 10
364.330552292853
 20
206.2230353686645
 30
0.0
 10
364.3515137055774
 20
206.7561822699454
 30
0.0
 10
364.517608214087
 20
207.0294535951577
 30
0.0
 10
364.5832866109735
 20
207.1375126918493
 30
0.0
  0
SPLINE
  5
C7
330
1F
100
AcDbEntity
  8
0
  6
Continuous
 62
     7
370
    15
100
AcDbSpline
210
0.0
220
0.0
230
1.0
 70
     8
 71
     3
 72
    10
 73
     6
 74
     0
 42
0.00000001
 43
0.00000001
 40
0.0
 40
0.0
 40
0.0
 40
0.0
 40
0.0588269319728957
 40
0.5294108146436431
 40
1.0
 40
1.0
 40
1.0
 40
1.0
 10
367.0513510383493
 20
205.5061363583146
 30
0.0
 10
367.0407113500877
 20
205.4846561209338
 30
0.0
 10
366.9449598661813
 20
205.2913455132049
 30
0.0
 10
366.5841253946605
 20
205.0371466215742
 30
0.0
 10
366.2088650129871
 20
204.9498668941205
 30
0.0
 10
366.0212337650186
 20
204.9062267845212
 30
0.0
  0
SPLINE
  5
C8
330
1F
100
AcDbEntity
  8
0
  6
Continuous
 62
     7
370
    15
100
AcDbSpline
210
0.0
220
0.0
230
1.0
 70
    24
 71
     3
 72
    12
 73
     8
 74
     0
 42
0.00000001
 43
0.00000001
 40
0.0
 40
0.0
 40
0.0
 40
0.0
 40
0.2193536141895231
 40
0.4387117205829468
 40
0.6580666993286801
 40
0.8774219908980663
 40
1.0
 40
1.0
 40
1.0
 40
1.0
 10
366.331744161976
 20
208.3759440077184
 30
0.0
 10
366.1350299017926
 20
208.3759440077184
 30
0.0
 10
365.7415973528597
 20
208.3759440077184
 30
0.0
 10
365.180758521985
 20
208.3759440077184
 30
0.0
 10
364.7633710013523
 20
208.3759440077184
 30
0.0
 10
364.5375200774382
 20
208.3759440077184
 30
0.0
 10
364.5544927796788
 20
208.3759440077184
 30
0.0
 10
364.5605772413141
 20
208.3759440077184
 30
0.0
  0
SPLINE
  5
C9
330
1F
100
AcDbEntity
  8
0
  6
Continuous
 62
     7
370
    15
100
AcDbSpline
210
0.0
220
0.0
230
1.0
 70
    24
 71
     3
 72
     9
 73
     5
 74
     0
 42
0.00000001
 43
0.00000001
 40
0.0
 40
0.0
 40
0.0
 40
0.0
 40
0.1970130322720919
 40
1.0
 40
1.0
 40
1.0
 40
1.0
 10
366.9724046863443
 20
208.3759440077184
 30
0.0
 10
366.9397524904197
 20
208.3759440077184
 30
0.0
 10
366.7740162670441
 20
208.3759440077184
 30
0.0
 10
366.52871659878
 20
208.3759440077184
 30
0.0
 10
366.331744161976
 20
208.3759440077184
 30
0.0
  0
SPLINE
  5
CA
330
1F
100
AcDbEntity
  8
0
  6
Continuous
 62
     7
370
    15
100
AcDbSpline
210
0.0
220
0.0
230
1.0
 70
     8
 71
     3
 72
    13
 73
     9
 74
     0
 42
0.00000001
 43
0.00000001
 40
0.0
 40
0.0
 40
0.0
 40
0.0
 40
0.1768614774712451
 40
0.3537265172110513
 40
0.530591640972232
 40
0.7074548960608414
 40
0.8843190982005572
 40
0.9999999999999999
 40
0.9999999999999999
 40
0.9999999999999999
 40
0.9999999999999999
 10
364.4693821348077
 20
228.1658320655762
 30
0.0
 10
364.2727151108728
 20
228.1631412355815
 30
0.0
 10
363.8793771018196
 20
228.1577595213945
 30
0.0
 10
363.3459909369014
 20
227.8670858803869
 30
0.0
 10
362.9568608281321
 20
227.412720024107
 30
0.0
 10
362.778700820076
 20
226.849025930866
 30
0.0
 10
362.799662612894
 20
226.3158748270776
 30
0.0
 10
362.9657565669665
 20
226.042605036595
 30
0.0
 10
363.0314349807626
 20
225.9345461582481
 30
0.0
  0
SPLINE
  5
CB
330
1F
100
AcDbEntity
  8
0
  6
Continuous
 62
     7
370
    15
100
AcDbSpline
210
0.0
220
0.0
230
1.0
 70
     8
 71
     3
 72
    10
 73
     6
 74
     0
 42
0.00000001
 43
0.00000001
 40
0.0
 40
0.0
 40
0.0
 40
0.0
 40
0.1474627692345064
 40
0.5737294769795925
 40
1.0
 40
1.0
 40
1.0
 40
1.0
 10
365.5579715646631
 20
227.4533060347377
 30
0.0
 10
365.5299095376021
 20
227.5136000828762
 30
0.0
 10
365.4207293547517
 20
227.7481845334671
 30
0.0
 10
365.03567457319
 20
228.037008387009
 30
0.0
 10
364.6581468441059
 20
228.1228907112736
 30
0.0
 10
364.4693821348077
 20
228.1658320655762
 30
0.0
  0
SPLINE
  5
CC
330
1F
100
AcDbEntity
  8
0
  6
Continuous
 62
     7
370
    15
100
AcDbSpline
210
0.0
220
0.0
230
1.0
 70
     8
 71
     3
 72
    13
 73
     9
 74
     0
 42
0.00000001
 43
0.00000001
 40
0.0
 40
0.0
 40
0.0
 40
0.0
 40
0.1768612807734419
 40
0.353726469888211
 40
0.5305915141532597
 40
0.707454474607417
 40
0.8843186698085845
 40
1.0
 40
1.0
 40
1.0
 40
1.0
 10
364.4521563924677
 20
202.2898082589446
 30
0.0
 10
364.2554892661987
 20
202.2924990190592
 30
0.0
 10
363.8621506676432
 20
202.2978805987498
 30
0.0
 10
363.3287656274531
 20
202.5885558182779
 30
0.0
 10
362.9396352487001
 20
203.042919476724
 30
0.0
 10
362.7614748695334
 20
203.6066149791638
 30
0.0
 10
362.7824372616253
 20
204.1397664317321
 30
0.0
 10
362.9485308289542
 20
204.4130353774715
 30
0.0
 10
363.0142092384226
 20
204.5210941662727
 30
0.0
  0
SPLINE
  5
CD
330
1F
100
AcDbEntity
  8
0
  6
Continuous
 62
     7
370
    15
100
AcDbSpline
210
0.0
220
0.0
230
1.0
 70
     8
 71
     3
 72
    10
 73
     6
 74
     0
 42
0.00000001
 43
0.00000001
 40
0.0
 40
0.0
 40
0.0
 40
0.0
 40
0.1474573734895173
 40
0.573730886909061
 40
1.0
 40
1.0
 40
1.0
 40
1.0
 10
365.5407458223229
 20
203.0023342897831
 30
0.0
 10
365.5126892754597
 20
202.9420399338862
 30
0.0
 10
365.4035261516735
 20
202.7074451254632
 30
0.0
 10
365.0184462198557
 20
202.4186376660005
 30
0.0
 10
364.6409190187384
 20
202.3327512468647
 30
0.0
 10
364.4521563924677
 20
202.2898082589446
 30
0.0
  0
LINE
  5
CE
330
1F
100
AcDbEntity
  8
0
  6
Continuous
 62
     7
370
    15
100
AcDbLine
 10
769.0737574972
 20
120.2421809515
 30
0.0
 11
769.0737574972
 21
85.2421845277
 31
0.0
  0
LINE
  5
CF
330
1F
100
AcDbEntity
  8
0
  6
Continuous
 62
     7
370
    15
100
AcDbLine
 10
779.6724021114
 20
120.2421809515
 30
0.0
 11
769.0737574972
 21
120.2421809515
 31
0.0
  0
LINE
  5
D0
330
1F
100
AcDbEntity
  8
0
  6
Continuous
 62
     7
370
    15
100
AcDbLine
 10
779.6724021114
 20
85.2421845277
 30
0.0
 11
769.0737574972
 21
85.2421845277
 31
0.0
  0
LINE
  5
D1
330
1F
100
AcDbEntity
  8
0
  6
Continuous
 62
     7
370
    15
100
AcDbLine
 10
769.0737574972
 20
345.242174991
 30
0.0
 11
769.0737574972
 21
310.2421785673
 31
0.0
  0
LINE
  5
D2
330
1F
100
AcDbEntity
  8
0
  6
Continuous
 62
     7
370
    15
100
AcDbLine
 10
779.6724021114
 20
345.242174991
 30
0.0
 11
769.0737574972
 21
345.242174991
 31
0.0
  0
LINE
  5
D3
330
1F
100
AcDbEntity
  8
0
  6
Continuous
 62
     7
370
    15
100
AcDbLine
 10
779.6724021114
 20
310.2421785673
 30
0.0
 11
769.0737574972
 21
310.2421785673
 31
0.0
  0
LINE
  5
D4
330
1F
100
AcDbEntity
  8
0
  6
Continuous
 62
     7
370
    15
100
AcDbLine
 10
776.6723960317
 20
157.2421814283
 30
0.0
 11
771.6724008001
 21
157.2421814283
 31
0.0
  0
LINE
  5
D5
330
1F
100
AcDbEntity
  8
0
  6
Continuous
 62
     7
370
    15
100
AcDbLine
 10
771.6724008001
 20
273.2421780904
 30
0.0
 11
776.6723960317
 21
273.2421780904
 31
0.0
  0
LINE
  5
D6
330
1F
100
AcDbEntity
  8
0
  6
Continuous
 62
     7
370
    15
100
AcDbLine
 10
768.6102419771
 20
85.2421845277
 30
0.0
 11
768.6102419771
 21
120.2421809515
 31
0.0
  0
LINE
  5
D7
330
1F
100
AcDbEntity
  8
0
  6
Continuous
 62
     7
370
    15
100
AcDbLine
 10
768.6102419771
 20
120.2421809515
 30
0.0
 11
769.0737574972
 21
120.2421809515
 31
0.0
  0
LINE
  5
D8
330
1F
100
AcDbEntity
  8
0
  6
Continuous
 62
     7
370
    15
100
AcDbLine
 10
769.0737574972
 20
85.2421845277
 30
0.0
 11
768.6102419771
 21
85.2421845277
 31
0.0
  0
LINE
  5
D9
330
1F
100
AcDbEntity
  8
0
  6
Continuous
 62
     7
370
    15
100
AcDbLine
 10
768.6102419771
 20
310.2421785673
 30
0.0
 11
768.6102419771
 21
345.242174991
 31
0.0
  0
LINE
  5
DA
330
1F
100
AcDbEntity
  8
0
  6
Continuous
 62
     7
370
    15
100
AcDbLine
 10
769.0737574972
 20
310.2421785673
 30
0.0
 11
768.6102419771
 21
310.2421785673
 31
0.0
  0
LINE
  5
DB
330
1F
100
AcDbEntity
  8
0
  6
Continuous
 62
     7
370
    15
100
AcDbLine
 10
768.6102419771
 20
345.242174991
 30
0.0
 11
769.0737574972
 21
345.242174991
 31
0.0
  0
LINE
  5
DC
330
1F
100
AcDbEntity
  8
0
  6
Continuous
 62
     7
370
    15
100
AcDbLine
 10
768.6102419771
 20
310.2421785673
 30
0.0
 11
768.1724011577
 21
310.2421785673
 31
0.0
  0
LINE
  5
DD
330
1F
100
AcDbEntity
  8
0
  6
Continuous
 62
     7
370
    15
100
AcDbLine
 10
768.6102419771
 20
345.242174991
 30
0.0
 11
768.1724011577
 21
345.242174991
 31
0.0
  0
LINE
  5
DE
330
1F
100
AcDbEntity
  8
0
  6
Continuous
 62
     7
370
    15
100
AcDbLine
 10
768.6102419771
 20
120.2421809515
 30
0.0
 11
768.1724011577
 21
120.2421809515
 31
0.0
  0
LINE
  5
DF
330
1F
100
AcDbEntity
  8
0
  6
Continuous
 62
     7
370
    15
100
AcDbLine
 10
768.6102419771
 20
85.2421845277
 30
0.0
 11
768.1724011577
 21
85.2421845277
 31
0.0
  0
LINE
  5
E0
330
1F
100
AcDbEntity
  8
0
  6
Continuous
 62
     7
370
    15
100
AcDbLine
 10
362.9723965801
 20
221.9921799345
 30
0.0
 11
359.8724037088
 21
221.9921799345
 31
0.0
  0
LINE
  5
E1
330
1F
100
AcDbEntity
  8
0
  6
Continuous
 62
     7
370
    15
100
AcDbLine
 10
362.9723965801
 20
208.4921795843
 30
0.0
 11
359.8724037088
 21
208.4921795843
 31
0.0
  0
LINE
  5
E2
330
1F
100
AcDbEntity
  8
0
  6
Continuous
 62
     7
370
    15
100
AcDbLine
 10
362.9723965801
 20
221.9921799345
 30
0.0
 11
364.5324736513
 21
221.9921799345
 31
0.0
  0
LINE
  5
E3
330
1F
100
AcDbEntity
  8
0
  6
Continuous
 62
     7
370
    15
100
AcDbLine
 10
362.9723965801
 20
208.4921795843
 30
0.0
 11
364.5319074072
 21
208.4921795843
 31
0.0
  0
LINE
  5
E4
330
1F
100
AcDbEntity
  8
0
  6
Continuous
 62
     8
370
    15
100
AcDbLine
 10
362.9723965801
 20
221.9921799345
 30
0.0
 11
362.9723965801
 21
221.7421798935
 31
0.0
  0
LINE
  5
E5
330
1F
100
AcDbEntity
  8
0
  6
Continuous
 62
     8
370
    15
100
AcDbLine
 10
362.9723965801
 20
208.7421796253
 30
0.0
 11
362.9723965801
 21
208.4921795843
 31
0.0
  0
LINE
  5
E6
330
1F
100
AcDbEntity
  8
0
  6
Continuous
 62
     7
370
    15
100
AcDbLine
 10
243.031772953
 20
221.7421798935
 30
0.0
 11
243.031772953
 21
208.7421796253
 31
0.0
  0
LINE
  5
E7
330
1F
100
AcDbEntity
  8
0
  6
Continuous
 62
     7
370
    15
100
AcDbLine
 10
233.2417771038
 20
222.4421796357
 30
0.0
 11
233.2417771038
 21
223.2421801394
 31
0.0
  0
LINE
  5
E8
330
1F
100
AcDbEntity
  8
0
  6
Continuous
 62
     7
370
    15
100
AcDbLine
 10
233.2417771038
 20
207.2421793794
 30
0.0
 11
233.2417771038
 21
208.0421798831
 31
0.0
  0
ARC
  5
E9
330
1F
100
AcDbEntity
  8
0
  6
Continuous
 62
     7
370
    15
100
AcDbCircle
 10
230.5117763623
 20
220.4350369023
 30
0.0
 40
3.807142857143189
100
AcDbArc
 50
54.6997515601
 51
125.3002484399
  0
LINE
  5
EA
330
1F
100
AcDbEntity
  8
0
  6
Continuous
 62
     7
370
    15
100
AcDbLine
 10
228.3117800769
 20
223.5421796297
 30
0.0
 11
228.3117800769
 21
223.2421801394
 31
0.0
  0
LINE
  5
EB
330
1F
100
AcDbEntity
  8
0
  6
Continuous
 62
     7
370
    15
100
AcDbLine
 10
232.7117800531
 20
223.2421801394
 30
0.0
 11
232.7117800531
 21
223.5421796297
 31
0.0
  0
LINE
  5
EC
330
1F
100
AcDbEntity
  8
0
  6
Continuous
 62
     7
370
    15
100
AcDbLine
 10
228.4117743191
 20
206.8421800589
 30
0.0
 11
228.4117743191
 21
206.4421798071
 31
0.0
  0
LINE
  5
ED
330
1F
100
AcDbEntity
  8
0
  6
Continuous
 62
     7
370
    15
100
AcDbLine
 10
232.6117783603
 20
206.4421798071
 30
0.0
 11
232.6117783603
 21
206.8421800589
 31
0.0
  0
ARC
  5
EE
330
1F
100
AcDbEntity
  8
0
  6
Continuous
 62
     7
370
    15
100
AcDbCircle
 10
228.6117763623
 20
207.2421797594
 30
0.0
 40
0.4000000000008015
100
AcDbArc
 50
270.0
 51
0.0
  0
ARC
  5
EF
330
1F
100
AcDbEntity
  8
0
  6
Continuous
 62
     7
370
    15
100
AcDbCircle
 10
232.4117763624
 20
207.2421797594
 30
0.0
 40
0.4000000000007731
100
AcDbArc
 50
180.0
 51
270.0
  0
LINE
  5
F0
330
1F
100
AcDbEntity
  8
0
  6
Continuous
 62
     7
370
    15
100
AcDbLine
 10
229.0117770252
 20
222.4421796357
 30
0.0
 11
229.0117770252
 21
221.9921799345
 31
0.0
  0
LINE
  5
F1
330
1F
100
AcDbEntity
  8
0
  6
Continuous
 62
     7
370
    15
100
AcDbLine
 10
229.0117770252
 20
220.9921797706
 30
0.0
 11
229.0117770252
 21
220.5034752344
 31
0.0
  0
LINE
  5
F2
330
1F
100
AcDbEntity
  8
0
  6
Continuous
 62
     7
370
    15
100
AcDbLine
 10
229.0117770252
 20
219.7073606742
 30
0.0
 11
229.0117770252
 21
219.5516635632
 31
0.0
  0
LINE
  5
F3
330
1F
100
AcDbEntity
  8
0
  6
Continuous
 62
     7
370
    15
100
AcDbLine
 10
229.0117770252
 20
210.252552942
 30
0.0
 11
229.0117770252
 21
209.4921797482
 31
0.0
  0
LINE
  5
F4
330
1F
100
AcDbEntity
  8
0
  6
Continuous
 62
     7
370
    15
100
AcDbLine
 10
229.0117770252
 20
208.4921795843
 30
0.0
 11
229.0117770252
 21
208.0421798831
 31
0.0
  0
LINE
  5
F5
330
1F
100
AcDbEntity
  8
0
  6
Continuous
 62
     7
370
    15
100
AcDbLine
 10
232.0117756542
 20
208.0421798831
 30
0.0
 11
232.0117756542
 21
208.4921795843
 31
0.0
  0
LINE
  5
F6
330
1F
100
AcDbEntity
  8
0
  6
Continuous
 62
     7
370
    15
100
AcDbLine
 10
232.0117756542
 20
209.4921797482
 30
0.0
 11
232.0117756542
 21
209.9793219907
 31
0.0
  0
LINE
  5
F7
330
1F
100
AcDbEntity
  8
0
  6
Continuous
 62
     7
370
    15
100
AcDbLine
 10
232.0117756542
 20
219.2872391982
 30
0.0
 11
232.0117756542
 21
219.4751777654
 31
0.0
  0
LINE
  5
F8
330
1F
100
AcDbEntity
  8
0
  6
Continuous
 62
     7
370
    15
100
AcDbLine
 10
232.0117756542
 20
220.230256856
 30
0.0
 11
232.0117756542
 21
220.9921797706
 31
0.0
  0
LINE
  5
F9
330
1F
100
AcDbEntity
  8
0
  6
Continuous
 62
     7
370
    15
100
AcDbLine
 10
232.0117756542
 20
221.9921799345
 30
0.0
 11
232.0117756542
 21
222.4421796357
 31
0.0
  0
SPLINE
  5
FA
330
1F
100
AcDbEntity
  8
0
  6
Continuous
 62
     7
370
    15
100
AcDbSpline
210
0.0
220
0.0
230
1.0
 70
     8
 71
     3
 72
    15
 73
    11
 74
     0
 42
0.00000001
 43
0.00000001
 40
0.0
 40
0.0
 40
0.0
 40
0.0
 40
0.1356020697477454
 40
0.2953298537971245
 40
0.4038071763059135
 40
0.5319604563897418
 40
0.673841799752955
 40
0.8261089327295112
 40
0.9126121771622892
 40
1.0
 40
1.0
 40
1.0
 40
1.0
 10
232.0117756542462
 20
209.8082249952196
 30
0.0
 10
232.0561571270409
 20
209.8009018877881
 30
0.0
 10
232.1528162259478
 20
209.7849527783748
 30
0.0
 10
232.3596673647089
 20
209.8326186830479
 30
0.0
 10
232.5529277130323
 20
209.9203498575916
 30
0.0
 10
232.699516321778
 20
210.0400082405575
 30
0.0
 10
232.7982199810382
 20
210.1909052193125
 30
0.0
 10
232.8278877746943
 20
210.3127414199247
 30
0.0
 10
232.8066939370856
 20
210.4420040549797
 30
0.0
 10
232.7604440256886
 20
210.5086748523598
 30
0.0
 10
232.7372014340658
 20
210.5421798271774
 30
0.0
  0
SPLINE
  5
FB
330
1F
100
AcDbEntity
  8
0
  6
Continuous
 62
     7
370
    15
100
AcDbSpline
210
0.0
220
0.0
230
1.0
 70
     8
 71
     3
 72
    20
 73
    16
 74
     0
 42
0.00000001
 43
0.00000001
 40
0.0
 40
0.0
 40
0.0
 40
0.0
 40
0.0607085806041512
 40
0.2265340369978799
 40
0.3908033180562259
 40
0.4705947072635677
 40
0.5476202542388329
 40
0.6228557433873007
 40
0.7003370172864999
 40
0.7786471146609508
 40
0.8566575290901528
 40
0.9330984415649892
 40
0.9703707141490432
 40
0.9892323149454911
 40
1.0
 40
1.0
 40
1.0
 40
1.0
 10
228.2755777057905
 20
210.5421798271774
 30
0.0
 10
228.3218522667374
 20
210.488846429687
 30
0.0
 10
228.4945257668802
 20
210.2898328846478
 30
0.0
 10
228.9114991799786
 20
210.2719061315591
 30
0.0
 10
229.4764536340732
 20
210.1968831690289
 30
0.0
 10
229.9960663498159
 20
210.1539409857488
 30
0.0
 10
230.3899574219639
 20
210.1233904257791
 30
0.0
 10
230.7828678443414
 20
210.0957069338598
 30
0.0
 10
231.1640299133113
 20
210.0644004506542
 30
0.0
 10
231.5197559226724
 20
210.031927428904
 30
0.0
 10
231.8223800931082
 20
210.0011020947831
 30
0.0
 10
232.0148887972898
 20
209.9781993167422
 30
0.0
 10
232.1030163249432
 20
209.9701713855923
 30
0.0
 10
232.1484408271322
 20
209.9623776343429
 30
0.0
 10
232.1478840392106
 20
209.9663359986998
 30
0.0
 10
232.1476816949147
 20
209.9677745220898
 30
0.0
  0
SPLINE
  5
FC
330
1F
100
AcDbEntity
  8
0
  6
Continuous
 62
     7
370
    15
100
AcDbSpline
210
0.0
220
0.0
230
1.0
 70
     8
 71
     3
 72
    18
 73
    14
 74
     0
 42
0.00000001
 43
0.00000001
 40
0.0
 40
0.0
 40
0.0
 40
0.0
 40
0.0057535982135415
 40
0.1156377242154852
 40
0.2383932268128284
 40
0.359308556936928
 40
0.4757046853877381
 40
0.5872131392277756
 40
0.7047315200334028
 40
0.8264988174978832
 40
0.8891456968437458
 40
0.9517930526448382
 40
1.0
 40
1.0
 40
1.0
 40
1.0
 10
232.5183927830953
 20
219.1890037586628
 30
0.0
 10
232.5137456200597
 20
219.1919572355051
 30
0.0
 10
232.420345396835
 20
219.2513171921593
 30
0.0
 10
232.1979834332725
 20
219.2575006959903
 30
0.0
 10
231.8066012854063
 20
219.3166974981445
 30
0.0
 10
231.2947197934185
 20
219.3622437272367
 30
0.0
 10
230.7436890771261
 20
219.4083957679632
 30
0.0
 10
230.1815732890214
 20
219.44729190898
 30
0.0
 10
229.6473009219004
 20
219.4920213112078
 30
0.0
 10
229.2496482586326
 20
219.5330934077048
 30
0.0
 10
229.0349348688177
 20
219.554213396797
 30
0.0
 10
228.9388629920125
 20
219.5565028111483
 30
0.0
 10
228.9234274742444
 20
219.5404276722065
 30
0.0
 10
228.9167150673169
 20
219.5334371147393
 30
0.0
  0
SPLINE
  5
FD
330
1F
100
AcDbEntity
  8
0
  6
Continuous
 62
     7
370
    15
100
AcDbSpline
210
0.0
220
0.0
230
1.0
 70
     8
 71
     3
 72
    12
 73
     8
 74
     0
 42
0.00000001
 43
0.00000001
 40
0.0
 40
0.0
 40
0.0
 40
0.0
 40
0.2236729820054967
 40
0.4523097742282867
 40
0.6822372678484837
 40
0.9102273613192214
 40
1.0
 40
1.0
 40
1.0
 40
1.0
 10
228.2174780782956
 20
220.3440304813622
 30
0.0
 10
228.2047426592733
 20
220.3014825537132
 30
0.0
 10
228.1789891934274
 20
220.2154424635052
 30
0.0
 10
228.3001121984128
 20
220.1238274116214
 30
0.0
 10
228.5317935010761
 20
220.0275220486218
 30
0.0
 10
228.7766499410929
 20
219.9650309902808
 30
0.0
 10
228.9599827999836
 20
219.9702511332123
 30
0.0
 10
229.0117770251531
 20
219.9717259002565
 30
0.0
  0
SPLINE
  5
FE
330
1F
100
AcDbEntity
  8
0
  6
Continuous
 62
     7
370
    15
100
AcDbSpline
210
0.0
220
0.0
230
1.0
 70
     8
 71
     3
 72
    19
 73
    15
 74
     0
 42
0.00000001
 43
0.00000001
 40
0.0
 40
0.0
 40
0.0
 40
0.0
 40
0.0979033461140013
 40
0.1753767258512808
 40
0.2884821220827502
 40
0.3734524649498238
 40
0.4570021434395499
 40
0.6168865294898215
 40
0.679665710597983
 40
0.7634253193335143
 40
0.8137536452962887
 40
0.8702971820376518
 40
0.9323988135077979
 40
1.0
 40
1.0
 40
1.0
 40
1.0
 10
228.3937141117352
 20
219.8488998194872
 30
0.0
 10
228.4442212161999
 20
219.8225228250789
 30
0.0
 10
228.5346958625202
 20
219.7752730516978
 30
0.0
 10
228.9093392803574
 20
219.714624418444
 30
0.0
 10
229.3958516843686
 20
219.6607376431648
 30
0.0
 10
229.9871795755586
 20
219.6075041206872
 30
0.0
 10
230.741282222433
 20
219.5559544805235
 30
0.0
 10
231.38237216603
 20
219.4890102032698
 30
0.0
 10
232.0316499146386
 20
219.453491282442
 30
0.0
 10
232.4099717046966
 20
219.5316752855177
 30
0.0
 10
232.6618406525392
 20
219.6398791174861
 30
0.0
 10
232.7954255515038
 20
219.7282151052573
 30
0.0
 10
232.857187296314
 20
219.8020586080867
 30
0.0
 10
232.7857513329376
 20
219.8825736339501
 30
0.0
 10
232.7485188659925
 20
219.9245381137072
 30
0.0
  0
SPLINE
  5
FF
330
1F
100
AcDbEntity
  8
0
  6
Continuous
 62
     7
370
    15
100
AcDbSpline
210
0.0
220
0.0
230
1.0
 70
     8
 71
     3
 72
    25
 73
    21
 74
     0
 42
0.00000001
 43
0.00000001
 40
0.0
 40
0.0
 40
0.0
 40
0.0
 40
0.0176268869902508
 40
0.0344980441856529
 40
0.0503151177816487
 40
0.0649738214219473
 40
0.0909458622065212
 40
0.1134394932922148
 40
0.1538404992325488
 40
0.1912347399242825
 40
0.2995718540016348
 40
0.3999645412880792
 40
0.5012966809060265
 40
0.5949070728825703
 40
0.6784881571327293
 40
0.7336302056751591
 40
0.8075209229184616
 40
0.8952853068742985
 40
0.9453086546988192
 40
1.0
 40
1.0
 40
1.0
 40
1.0
 10
232.3911964711446
 20
219.2989561674832
 30
0.0
 10
232.4309071338037
 20
219.3033506185307
 30
0.0
 10
232.5086259162417
 20
219.3119511142673
 30
0.0
 10
232.610505841605
 20
219.3579543466502
 30
0.0
 10
232.6915210337865
 20
219.4169136381788
 30
0.0
 10
232.7677230057
 20
219.5004895911236
 30
0.0
 10
232.82077208321
 20
219.6041358511536
 30
0.0
 10
232.8449327908084
 20
219.7364694339488
 30
0.0
 10
232.8220412521553
 20
219.8683378349037
 30
0.0
 10
232.6508058902511
 20
220.1135473661864
 30
0.0
 10
232.3080109771711
 20
220.2006296003501
 30
0.0
 10
231.8128987235058
 20
220.2591843530035
 30
0.0
 10
231.1996858866942
 20
220.317541746082
 30
0.0
 10
230.5502180607384
 20
220.3671638198169
 30
0.0
 10
230.0105166211365
 20
220.4066453596116
 30
0.0
 10
229.5645077113757
 20
220.4458217558734
 30
0.0
 10
229.1757995443478
 20
220.4840497466751
 30
0.0
 10
228.9156519037837
 20
220.5118913281029
 30
0.0
 10
228.7852052629363
 20
220.5343865462491
 30
0.0
 10
228.7765420456882
 20
220.5468491737355
 30
0.0
 10
228.7720173415441
 20
220.5533582685231
 30
0.0
  0
SPLINE
  5
100
330
1F
100
AcDbEntity
  8
0
  6
Continuous
 62
     7
370
    15
100
AcDbSpline
210
0.0
220
0.0
230
1.0
 70
     8
 71
     3
 72
    12
 73
     8
 74
     0
 42
0.00000001
 43
0.00000001
 40
0.0
 40
0.0
 40
0.0
 40
0.0
 40
0.1756476026937465
 40
0.5723156357634481
 40
0.7586165168330588
 40
0.9207514297076087
 40
1.0
 40
1.0
 40
1.0
 40
1.0
 10
228.8603439745206
 20
219.7348705460964
 30
0.0
 10
228.79478002914
 20
219.7256992286865
 30
0.0
 10
228.581151886722
 20
219.6958161658164
 30
0.0
 10
228.3652470615955
 20
219.6218856446028
 30
0.0
 10
228.204085419389
 20
219.4069501034743
 30
0.0
 10
228.1728741559054
 20
219.2467326248377
 30
0.0
 10
228.2038510048814
 20
219.1680693692383
 30
0.0
 10
228.2140210088986
 20
219.1422434491752
 30
0.0
  0
LINE
  5
101
330
1F
100
AcDbEntity
  8
0
  6
Continuous
 62
     7
370
    15
100
AcDbLine
 10
228.3715337333
 20
210.4444393856
 30
0.0
 11
227.2530749258
 21
210.4444393856
 31
0.0
  0
LINE
  5
102
330
1F
100
AcDbEntity
  8
0
  6
Continuous
 62
     7
370
    15
100
AcDbLine
 10
227.2530749258
 20
209.6444398133
 30
0.0
 11
229.0117770252
 21
209.6444398133
 31
0.0
  0
LINE
  5
103
330
1F
100
AcDbEntity
  8
0
  6
Continuous
 62
     7
370
    15
100
AcDbLine
 10
225.842784327
 20
223.2421801394
 30
0.0
 11
225.842784327
 21
223.2956501623
 31
0.0
  0
LINE
  5
104
330
1F
100
AcDbEntity
  8
0
  6
Continuous
 62
     7
370
    15
100
AcDbLine
 10
222.8427856979
 20
223.2956501623
 30
0.0
 11
222.8427856979
 21
223.2421801394
 31
0.0
  0
SPLINE
  5
105
330
1F
100
AcDbEntity
  8
0
  6
Continuous
 62
     7
370
    15
100
AcDbSpline
210
0.0
220
0.0
230
1.0
 70
     8
 71
     3
 72
    15
 73
    11
 74
     0
 42
0.00000001
 43
0.00000001
 40
0.0
 40
0.0
 40
0.0
 40
0.0
 40
0.1077551036863209
 40
0.235250774724543
 40
0.3627908901706017
 40
0.4902566411288575
 40
0.6176624605260265
 40
0.7450971317547226
 40
0.8724965622541917
 40
1.0
 40
1.0
 40
1.0
 40
1.0
 10
222.8588416990537
 20
207.2421793793975
 30
0.0
 10
222.8753816319602
 20
206.9296586161882
 30
0.0
 10
222.9114915877492
 20
206.247363772164
 30
0.0
 10
223.2476917696882
 20
205.2382100381907
 30
0.0
 10
223.8057787770202
 20
204.274731684886
 30
0.0
 10
224.560609098885
 20
203.4538127473311
 30
0.0
 10
225.4757645795622
 20
202.8185342110019
 30
0.0
 10
226.5030232947182
 20
202.3983782951724
 30
0.0
 10
227.5990049154422
 20
202.184569930569
 30
0.0
 10
228.3347642334097
 20
202.2501005434301
 30
0.0
 10
228.702793997218
 20
202.2828792189895
 30
0.0
  0
SPLINE
  5
106
330
1F
100
AcDbEntity
  8
0
  6
Continuous
 62
     7
370
    15
100
AcDbSpline
210
0.0
220
0.0
230
1.0
 70
     8
 71
     3
 72
    15
 73
    11
 74
     0
 42
0.00000001
 43
0.00000001
 40
0.0
 40
0.0
 40
0.0
 40
0.0
 40
0.13165152765372
 40
0.2633126517915331
 40
0.3951894494802554
 40
0.5266690080863677
 40
0.6575465462284578
 40
0.7882125285852056
 40
0.9184593483091296
 40
1.0
 40
1.0
 40
1.0
 40
1.0
 10
228.2051026639241
 20
205.2405641382276
 30
0.0
 10
228.0529186847895
 20
205.228749805724
 30
0.0
 10
227.7485396333628
 20
205.2051202795338
 30
0.0
 10
227.2976817865474
 20
205.3066002216507
 30
0.0
 10
226.8786515918936
 20
205.4934508937024
 30
0.0
 10
226.5082585159353
 20
205.7660479101582
 30
0.0
 10
226.2059971350788
 20
206.1119583242828
 30
0.0
 10
225.986839821446
 20
206.5136664670928
 30
0.0
 10
225.86946682288
 20
206.8999795385792
 30
0.0
 10
225.8592928908899
 20
207.1470531510175
 30
0.0
 10
225.8553758081693
 20
207.2421793793975
 30
0.0
  0
SPLINE
  5
107
330
1F
100
AcDbEntity
  8
0
  6
Continuous
 62
     7
370
    15
100
AcDbSpline
210
0.0
220
0.0
230
1.0
 70
     8
 71
     3
 72
    15
 73
    11
 74
     0
 42
0.00000001
 43
0.00000001
 40
0.0
 40
0.0
 40
0.0
 40
0.0
 40
0.1249271214721239
 40
0.2499164818036735
 40
0.3749670227679549
 40
0.4999570499749355
 40
0.6249205129505147
 40
0.7499166961711446
 40
0.8748739392863579
 40
1.0
 40
1.0
 40
1.0
 40
1.0
 10
228.8736656126279
 20
228.172700569564
 30
0.0
 10
228.5072889532232
 20
228.2160324261378
 30
0.0
 10
227.7743531050706
 20
228.3027177272743
 30
0.0
 10
226.6703270274823
 20
228.1375279855761
 30
0.0
 10
225.6295277353645
 20
227.7485971862282
 30
0.0
 10
224.6943387585243
 20
227.1435826890587
 30
0.0
 10
223.913695249877
 20
226.3473888448531
 30
0.0
 10
223.325732922495
 20
225.4030255692142
 30
0.0
 10
222.9298966066851
 20
224.3545830964198
 30
0.0
 10
222.8718357320498
 20
223.6154608440263
 30
0.0
 10
222.8427856978673
 20
223.2456502472697
 30
0.0
  0
SPLINE
  5
108
330
1F
100
AcDbEntity
  8
0
  6
Continuous
 62
     7
370
    15
100
AcDbSpline
210
0.0
220
0.0
230
1.0
 70
     8
 71
     3
 72
    15
 73
    11
 74
     0
 42
0.00000001
 43
0.00000001
 40
0.0
 40
0.0
 40
0.0
 40
0.0
 40
0.1242532604422722
 40
0.2486330675825304
 40
0.3735413482506271
 40
0.4985832518969759
 40
0.6236637152450767
 40
0.7490698239710455
 40
0.8744383580209767
 40
0.9999999999999999
 40
0.9999999999999999
 40
0.9999999999999999
 40
0.9999999999999999
 10
225.8427843269605
 20
223.2456502472697
 30
0.0
 10
225.8563448250562
 20
223.3976061445329
 30
0.0
 10
225.8834796320424
 20
223.7016726997228
 30
0.0
 10
226.0579365936321
 20
224.1289922702079
 30
0.0
 10
226.3112690352978
 20
224.5106315043305
 30
0.0
 10
226.6410929994244
 20
224.8305617997174
 30
0.0
 10
227.0320191860666
 20
225.0711377585103
 30
0.0
 10
227.4647172528198
 20
225.2227615870883
 30
0.0
 10
227.9222491045135
 20
225.2762190527156
 30
0.0
 10
228.224168333964
 20
225.2355290469712
 30
0.0
 10
228.3752441224355
 20
225.2151683872281
 30
0.0
  0
LINE
  5
109
330
1F
100
AcDbEntity
  8
0
  6
Continuous
 62
     7
370
    15
100
AcDbLine
 10
243.7458514985
 20
207.8573165429
 30
0.0
 11
228.2048791465
 21
205.240898483
 31
0.0
  0
LINE
  5
10A
330
1F
100
AcDbEntity
  8
0
  6
Continuous
 62
     7
370
    15
100
AcDbLine
 10
228.7029355582
 20
202.2825309043
 30
0.0
 11
244.2439079103
 21
204.8989494299
 31
0.0
  0
LINE
  5
10B
330
1F
100
AcDbEntity
  8
0
  6
Continuous
 62
     7
370
    15
100
AcDbLine
 10
228.3754601893
 20
225.2147427728
 30
0.0
 11
243.9164250907
 21
222.5983237816
 31
0.0
  0
LINE
  5
10C
330
1F
100
AcDbEntity
  8
0
  6
Continuous
 62
     7
370
    15
100
AcDbLine
 10
244.4144964036
 20
225.5566908946
 30
0.0
 11
228.8735240516
 21
228.1731094202
 31
0.0
  0
SPLINE
  5
10D
330
1F
100
AcDbEntity
  8
0
  6
Continuous
 62
     7
370
    15
100
AcDbSpline
210
0.0
220
0.0
230
1.0
 70
     8
 71
     3
 72
    12
 73
     8
 74
     0
 42
0.00000001
 43
0.00000001
 40
0.0
 40
0.0
 40
0.0
 40
0.0
 40
0.1526139307072609
 40
0.2973908392825297
 40
0.5623711728146452
 40
0.7966022742850417
 40
0.9999999999999999
 40
0.9999999999999999
 40
0.9999999999999999
 40
0.9999999999999999
 10
244.2435651835698
 20
204.8992586290179
 30
0.0
 10
244.4947848047383
 20
204.9519967042594
 30
0.0
 10
244.9843234309784
 20
205.0547646520183
 30
0.0
 10
245.8338452556469
 20
205.4840101191028
 30
0.0
 10
246.6458404396723
 20
206.2284001548914
 30
0.0
 10
247.210265229576
 20
207.2994478274277
 30
0.0
 10
247.2919559254904
 20
208.0343717689066
 30
0.0
 10
247.3299234923619
 20
208.3759440077184
 30
0.0
  0
SPLINE
  5
10E
330
1F
100
AcDbEntity
  8
0
  6
Continuous
 62
     7
370
    15
100
AcDbSpline
210
0.0
220
0.0
230
1.0
 70
     8
 71
     3
 72
    11
 73
     7
 74
     0
 42
0.00000001
 43
0.00000001
 40
0.0
 40
0.0
 40
0.0
 40
0.0
 40
0.200353644134469
 40
0.4328004438907008
 40
0.6990211869197542
 40
1.0
 40
1.0
 40
1.0
 40
1.0
 10
244.3316161450643
 20
208.3759440077184
 30
0.0
 10
244.3183885341782
 20
208.31951738454
 30
0.0
 10
244.2898144800957
 20
208.197625578357
 30
0.0
 10
244.1739298858045
 20
208.0319242639674
 30
0.0
 10
243.9891705437107
 20
207.8930187856313
 30
0.0
 10
243.8315484551452
 20
207.8696295526696
 30
0.0
 10
243.7479078587789
 20
207.8572182884155
 30
0.0
  0
SPLINE
  5
10F
330
1F
100
AcDbEntity
  8
0
  6
Continuous
 62
     7
370
    15
100
AcDbSpline
210
0.0
220
0.0
230
1.0
 70
     8
 71
     3
 72
    12
 73
     8
 74
     0
 42
0.00000001
 43
0.00000001
 40
0.0
 40
0.0
 40
0.0
 40
0.0
 40
0.2034063295255029
 40
0.4376409556918522
 40
0.7026161450413805
 40
0.8473900579471296
 40
1.0
 40
1.0
 40
1.0
 40
1.0
 10
247.329923492362
 20
221.9345748392581
 30
0.0
 10
247.3084893641025
 20
222.2775840272879
 30
0.0
 10
247.2623725475916
 20
223.015588932104
 30
0.0
 10
246.7502521316249
 20
224.1126936946536
 30
0.0
 10
245.9750506087183
 20
224.8954517506908
 30
0.0
 10
245.1471982410682
 20
225.3651804186284
 30
0.0
 10
244.6632098460921
 20
225.4914414702264
 30
0.0
 10
244.4148391303319
 20
225.5562354778586
 30
0.0
  0
SPLINE
  5
110
330
1F
100
AcDbEntity
  8
0
  6
Continuous
 62
     7
370
    15
100
AcDbSpline
210
0.0
220
0.0
230
1.0
 70
     8
 71
     3
 72
    12
 73
     8
 74
     0
 42
0.00000001
 43
0.00000001
 40
0.0
 40
0.0
 40
0.0
 40
0.0
 40
0.1555469387593176
 40
0.3021967960522135
 40
0.5679618796206853
 40
0.7999449029016247
 40
1.0
 40
1.0
 40
1.0
 40
1.0
 10
243.9145177420873
 20
222.5992420656322
 30
0.0
 10
243.9550593563125
 20
222.5834921872944
 30
0.0
 10
244.0338236574512
 20
222.5528933030614
 30
0.0
 10
244.1634525062108
 20
222.4578510166902
 30
0.0
 10
244.2778809680659
 20
222.311676434356
 30
0.0
 10
244.3420379266739
 20
222.1174264946611
 30
0.0
 10
244.3349145992704
 20
221.992446692119
 30
0.0
 10
244.3316161450643
 20
221.9345748392581
 30
0.0
  0
LINE
  5
111
330
1F
100
AcDbEntity
  8
0
  6
Continuous
 62
     7
370
    15
100
AcDbLine
 10
244.3307667789
 20
221.9845747543
 30
0.0
 11
244.3307667789
 21
221.7421798935
 31
0.0
  0
LINE
  5
112
330
1F
100
AcDbEntity
  8
0
  6
Continuous
 62
     7
370
    15
100
AcDbLine
 10
244.3307667789
 20
208.7421796253
 30
0.0
 11
244.3307667789
 21
208.3259440927
 31
0.0
  0
LINE
  5
113
330
1F
100
AcDbEntity
  8
0
  6
Continuous
 62
     7
370
    15
100
AcDbLine
 10
247.3307728585
 20
208.3259440927
 30
0.0
 11
247.3307728585
 21
208.7449242329
 31
0.0
  0
LINE
  5
114
330
1F
100
AcDbEntity
  8
0
  6
Continuous
 62
     7
370
    15
100
AcDbLine
 10
247.3307728585
 20
221.7394352859
 30
0.0
 11
247.3307728585
 21
221.9845747543
 31
0.0
  0
LINE
  5
115
330
1F
100
AcDbEntity
  8
0
  6
Continuous
 62
     7
370
    15
100
AcDbLine
 10
233.6300492105
 20
220.8421795597
 30
0.0
 11
232.0117756542
 21
220.8421795597
 31
0.0
  0
LINE
  5
116
330
1F
100
AcDbEntity
  8
0
  6
Continuous
 62
     7
370
    15
100
AcDbLine
 10
232.638697308
 20
220.0421799874
 30
0.0
 11
233.6300492105
 21
220.0421799874
 31
0.0
  0
LINE
  5
117
330
1F
100
AcDbEntity
  8
0
  6
Continuous
 62
     7
370
    15
100
AcDbLine
 10
233.9682757673
 20
222.1103186687
 30
0.0
 11
233.7017535981
 21
220.9020715175
 31
0.0
  0
LINE
  5
118
330
1F
100
AcDbEntity
  8
0
  6
Continuous
 62
     7
370
    15
100
AcDbLine
 10
234.4699084577
 20
220.6705214424
 30
0.0
 11
234.7494914946
 21
221.9379909305
 31
0.0
  0
SPLINE
  5
119
330
1F
100
AcDbEntity
  8
0
  6
Continuous
 62
     7
370
    15
100
AcDbSpline
210
0.0
220
0.0
230
1.0
 70
     8
 71
     3
 72
    11
 73
     7
 74
     0
 42
0.00000001
 43
0.00000001
 40
0.0
 40
0.0
 40
0.0
 40
0.0
 40
0.2541309399275824
 40
0.5022690019548702
 40
0.7495126202113759
 40
1.0
 40
1.0
 40
1.0
 40
1.0
 10
233.6300492104787
 20
220.0421799873649
 30
0.0
 10
233.7301379549138
 20
220.0524260988431
 30
0.0
 10
233.9279551659493
 20
220.0726766995278
 30
0.0
 10
234.1861004921474
 20
220.2267091872976
 30
0.0
 10
234.389549477983
 20
220.4457833199947
 30
0.0
 10
234.4512879593323
 20
220.6328331038548
 30
0.0
 10
234.4823583778638
 20
220.726967506641
 30
0.0
  0
LINE
  5
11A
330
1F
100
AcDbEntity
  8
0
  6
Continuous
 62
     7
370
    15
100
AcDbLine
 10
243.6103850421
 20
221.7421798935
 30
0.0
 11
243.6103850421
 21
208.7421796253
 31
0.0
  0
LINE
  5
11B
330
1F
100
AcDbEntity
  8
0
  6
Continuous
 62
     7
370
    15
100
AcDbLine
 10
243.6103850421
 20
221.7421798935
 30
0.0
 11
246.3293701228
 21
221.7421798935
 31
0.0
  0
LWPOLYLINE
  5
11C
330
1F
100
AcDbEntity
  8
0
  6
Continuous
 62
     7
370
    15
100
AcDbPolyline
 90
        9
 70
   128
 43
0.0
 10
247.0598846492
 20
220.5421796037
 10
247.0458477554
 20
220.7762880219
 10
247.0042735156
 20
221.001399864
 10
246.9367712554
 20
221.2088640747
 10
246.8459188756
 20
221.3907080671
 10
246.7352181491
 20
221.5399431964
 10
246.6089159068
 20
221.6508353097
 10
246.4718848285
 20
221.7191222092
 10
246.3293701228
 20
221.7421798935
  0
LINE
  5
11D
330
1F
100
AcDbEntity
  8
0
  6
Continuous
 62
     7
370
    15
100
AcDbLine
 10
247.0598846492
 20
220.5421796037
 30
0.0
 11
247.0598846492
 21
209.9421799151
 31
0.0
  0
LWPOLYLINE
  5
11E
330
1F
100
AcDbEntity
  8
0
  6
Continuous
 62
     7
370
    15
100
AcDbPolyline
 90
        9
 70
   128
 43
0.0
 10
246.3293701228
 20
208.7421796253
 10
246.4718848285
 20
208.7652373096
 10
246.6089159068
 20
208.833524209
 10
246.7352181491
 20
208.9444163223
 10
246.8459188756
 20
209.0936514517
 10
246.9367712554
 20
209.275495444
 10
247.0042735156
 20
209.4829596547
 10
247.0458477554
 20
209.7080714969
 10
247.0598846492
 20
209.9421799151
  0
LINE
  5
11F
330
1F
100
AcDbEntity
  8
0
  6
Continuous
 62
     7
370
    15
100
AcDbLine
 10
246.3293701228
 20
208.7421796253
 30
0.0
 11
243.6103850421
 21
208.7421796253
 31
0.0
  0
LINE
  5
120
330
1F
100
AcDbEntity
  8
0
  6
Continuous
 62
     7
370
    15
100
AcDbLine
 10
247.2813904104
 20
208.7421796253
 30
0.0
 11
246.3293701228
 21
208.7421796253
 31
0.0
  0
LINE
  5
121
330
1F
100
AcDbEntity
  8
0
  6
Continuous
 62
     7
370
    15
100
AcDbLine
 10
247.0598846492
 20
209.9421799151
 30
0.0
 11
248.0119049367
 21
209.9421799151
 31
0.0
  0
LWPOLYLINE
  5
122
330
1F
100
AcDbEntity
  8
0
  6
Continuous
 62
     7
370
    15
100
AcDbPolyline
 90
        9
 70
   128
 43
0.0
 10
248.0119049367
 20
209.9421799151
 10
247.9978680429
 20
209.7080714969
 10
247.9562938031
 20
209.4829596547
 10
247.8887915429
 20
209.275495444
 10
247.7979391631
 20
209.0936514517
 10
247.6872384366
 20
208.9444163223
 10
247.5609510955
 20
208.833524209
 10
247.423905116
 20
208.7652373096
 10
247.2813904104
 20
208.7421796253
  0
LINE
  5
123
330
1F
100
AcDbEntity
  8
0
  6
Continuous
 62
     7
370
    15
100
AcDbLine
 10
246.3293701228
 20
221.7421798935
 30
0.0
 11
247.2813904104
 21
221.7421798935
 31
0.0
  0
LWPOLYLINE
  5
124
330
1F
100
AcDbEntity
  8
0
  6
Continuous
 62
     7
370
    15
100
AcDbPolyline
 90
        9
 70
   128
 43
0.0
 10
247.2813904104
 20
221.7421798935
 10
247.423905116
 20
221.7191222092
 10
247.5609510955
 20
221.6508353097
 10
247.6872384366
 20
221.5399431964
 10
247.7979391631
 20
221.3907080671
 10
247.8887915429
 20
221.2088640747
 10
247.9562938031
 20
221.001399864
 10
247.9978680429
 20
220.7762880219
 10
248.0119049367
 20
220.5421796037
  0
LINE
  5
125
330
1F
100
AcDbEntity
  8
0
  6
Continuous
 62
     7
370
    15
100
AcDbLine
 10
248.0119049367
 20
220.5421796037
 30
0.0
 11
247.0598846492
 21
220.5421796037
 31
0.0
  0
LINE
  5
126
330
1F
100
AcDbEntity
  8
0
  6
Continuous
 62
     7
370
    15
100
AcDbLine
 10
248.0119049367
 20
220.5421796037
 30
0.0
 11
248.0119049367
 21
209.9421799151
 31
0.0
  0
LINE
  5
127
330
1F
100
AcDbEntity
  8
0
  6
Continuous
 62
     7
370
    15
100
AcDbLine
 10
243.031772953
 20
221.7421798935
 30
0.0
 11
243.6103850421
 21
221.7421798935
 31
0.0
  0
LINE
  5
128
330
1F
100
AcDbEntity
  8
0
  6
Continuous
 62
     7
370
    15
100
AcDbLine
 10
243.6103850421
 20
208.7421796253
 30
0.0
 11
243.031772953
 21
208.7421796253
 31
0.0
  0
CIRCLE
  5
129
330
1F
100
AcDbEntity
  8
0
  6
Continuous
 62
     7
370
    15
100
AcDbCircle
 10
253.5317763623
 20
210.2421797594
 30
0.0
 40
3.0
  0
LINE
  5
12A
330
1F
100
AcDbEntity
  8
0
  6
Continuous
 62
     7
370
    15
100
AcDbLine
 10
253.1317800102
 20
208.3421798391
 30
0.0
 11
253.9317786512
 21
208.3421798391
 31
0.0
  0
LINE
  5
12B
330
1F
100
AcDbEntity
  8
0
  6
Continuous
 62
     7
370
    15
100
AcDbLine
 10
253.9317786512
 20
208.3421798391
 30
0.0
 11
253.9317786512
 21
209.8421796193
 31
0.0
  0
LINE
  5
12C
330
1F
100
AcDbEntity
  8
0
  6
Continuous
 62
     7
370
    15
100
AcDbLine
 10
253.9317786512
 20
209.8421796193
 30
0.0
 11
255.4317742404
 21
209.8421796193
 31
0.0
  0
LINE
  5
12D
330
1F
100
AcDbEntity
  8
0
  6
Continuous
 62
     7
370
    15
100
AcDbLine
 10
255.4317742404
 20
209.8421796193
 30
0.0
 11
255.4317742404
 21
210.6421796573
 31
0.0
  0
LINE
  5
12E
330
1F
100
AcDbEntity
  8
0
  6
Continuous
 62
     7
370
    15
100
AcDbLine
 10
255.4317742404
 20
210.6421796573
 30
0.0
 11
253.9317786512
 21
210.6421796573
 31
0.0
  0
LINE
  5
12F
330
1F
100
AcDbEntity
  8
0
  6
Continuous
 62
     7
370
    15
100
AcDbLine
 10
253.9317786512
 20
210.6421796573
 30
0.0
 11
253.9317786512
 21
212.1421796703
 31
0.0
  0
LINE
  5
130
330
1F
100
AcDbEntity
  8
0
  6
Continuous
 62
     7
370
    15
100
AcDbLine
 10
253.9317786512
 20
212.1421796703
 30
0.0
 11
253.1317800102
 21
212.1421796703
 31
0.0
  0
LINE
  5
131
330
1F
100
AcDbEntity
  8
0
  6
Continuous
 62
     7
370
    15
100
AcDbLine
 10
253.1317800102
 20
212.1421796703
 30
0.0
 11
253.1317800102
 21
210.6421796573
 31
0.0
  0
LINE
  5
132
330
1F
100
AcDbEntity
  8
0
  6
Continuous
 62
     7
370
    15
100
AcDbLine
 10
253.1317800102
 20
210.6421796573
 30
0.0
 11
251.6317695197
 21
210.6421796573
 31
0.0
  0
LINE
  5
133
330
1F
100
AcDbEntity
  8
0
  6
Continuous
 62
     7
370
    15
100
AcDbLine
 10
251.6317695197
 20
210.6421796573
 30
0.0
 11
251.6317695197
 21
209.8421796193
 31
0.0
  0
LINE
  5
134
330
1F
100
AcDbEntity
  8
0
  6
Continuous
 62
     7
370
    15
100
AcDbLine
 10
251.6317695197
 20
209.8421796193
 30
0.0
 11
253.1317800102
 21
209.8421796193
 31
0.0
  0
LINE
  5
135
330
1F
100
AcDbEntity
  8
0
  6
Continuous
 62
     7
370
    15
100
AcDbLine
 10
253.1317800102
 20
209.8421796193
 30
0.0
 11
253.1317800102
 21
208.3421798391
 31
0.0
  0
CIRCLE
  5
136
330
1F
100
AcDbEntity
  8
0
  6
Continuous
 62
     7
370
    15
100
AcDbCircle
 10
253.5317763623
 20
220.2421797594
 30
0.0
 40
3.0
  0
LINE
  5
137
330
1F
100
AcDbEntity
  8
0
  6
Continuous
 62
     7
370
    15
100
AcDbLine
 10
251.6317695197
 20
220.6421798994
 30
0.0
 11
251.6317695197
 21
219.8421798615
 31
0.0
  0
LINE
  5
138
330
1F
100
AcDbEntity
  8
0
  6
Continuous
 62
     7
370
    15
100
AcDbLine
 10
251.6317695197
 20
219.8421798615
 30
0.0
 11
253.1317800102
 21
219.8421798615
 31
0.0
  0
LINE
  5
139
330
1F
100
AcDbEntity
  8
0
  6
Continuous
 62
     7
370
    15
100
AcDbLine
 10
253.1317800102
 20
219.8421798615
 30
0.0
 11
253.1317800102
 21
218.3421798484
 31
0.0
  0
LINE
  5
13A
330
1F
100
AcDbEntity
  8
0
  6
Continuous
 62
     7
370
    15
100
AcDbLine
 10
253.1317800102
 20
218.3421798484
 30
0.0
 11
253.9317786512
 21
218.3421798484
 31
0.0
  0
LINE
  5
13B
330
1F
100
AcDbEntity
  8
0
  6
Continuous
 62
     7
370
    15
100
AcDbLine
 10
253.9317786512
 20
218.3421798484
 30
0.0
 11
253.9317786512
 21
219.8421798615
 31
0.0
  0
LINE
  5
13C
330
1F
100
AcDbEntity
  8
0
  6
Continuous
 62
     7
370
    15
100
AcDbLine
 10
253.9317786512
 20
219.8421798615
 30
0.0
 11
255.4317742404
 21
219.8421798615
 31
0.0
  0
LINE
  5
13D
330
1F
100
AcDbEntity
  8
0
  6
Continuous
 62
     7
370
    15
100
AcDbLine
 10
255.4317742404
 20
219.8421798615
 30
0.0
 11
255.4317742404
 21
220.6421798994
 31
0.0
  0
LINE
  5
13E
330
1F
100
AcDbEntity
  8
0
  6
Continuous
 62
     7
370
    15
100
AcDbLine
 10
255.4317742404
 20
220.6421798994
 30
0.0
 11
253.9317786512
 21
220.6421798994
 31
0.0
  0
LINE
  5
13F
330
1F
100
AcDbEntity
  8
0
  6
Continuous
 62
     7
370
    15
100
AcDbLine
 10
253.9317786512
 20
220.6421798994
 30
0.0
 11
253.9317786512
 21
222.1421796797
 31
0.0
  0
LINE
  5
140
330
1F
100
AcDbEntity
  8
0
  6
Continuous
 62
     7
370
    15
100
AcDbLine
 10
253.9317786512
 20
222.1421796797
 30
0.0
 11
253.1317800102
 21
222.1421796797
 31
0.0
  0
LINE
  5
141
330
1F
100
AcDbEntity
  8
0
  6
Continuous
 62
     7
370
    15
100
AcDbLine
 10
253.1317800102
 20
222.1421796797
 30
0.0
 11
253.1317800102
 21
220.6421798994
 31
0.0
  0
LINE
  5
142
330
1F
100
AcDbEntity
  8
0
  6
Continuous
 62
     7
370
    15
100
AcDbLine
 10
253.1317800102
 20
220.6421798994
 30
0.0
 11
251.6317695197
 21
220.6421798994
 31
0.0
  0
ARC
  5
143
330
1F
100
AcDbEntity
  8
0
  6
Continuous
 62
     7
370
    15
100
AcDbCircle
 10
243.0317763624
 20
215.2421797594
 30
0.0
 40
16.00000000000001
100
AcDbArc
 50
316.3971810272
 51
43.6028189726
  0
ARC
  5
144
330
1F
100
AcDbEntity
  8
0
  6
Continuous
 62
     7
370
    15
100
AcDbCircle
 10
253.5317763623
 20
205.2421797594
 30
0.0
 40
1.500000000000032
100
AcDbArc
 50
227.2726046868
 51
316.3971810272
  0
LINE
  5
145
330
1F
100
AcDbEntity
  8
0
  6
Continuous
 62
     7
370
    15
100
AcDbLine
 10
247.5317746219
 20
221.7421798935
 30
0.0
 11
252.5140076694
 21
226.3440654581
 31
0.0
  0
ARC
  5
146
330
1F
100
AcDbEntity
  8
0
  6
Continuous
 62
     7
370
    15
100
AcDbCircle
 10
253.5317763624
 20
225.2421797594
 30
0.0
 40
1.500000000000009
100
AcDbArc
 50
43.6028189726
 51
132.7273953127
  0
LINE
  5
147
330
1F
100
AcDbEntity
  8
0
  6
Continuous
 62
     7
370
    15
100
AcDbLine
 10
252.5140076694
 20
204.1402940606
 30
0.0
 11
247.5317746219
 21
208.7421796253
 31
0.0
  0
LINE
  5
148
330
1F
100
AcDbEntity
  8
0
  6
Continuous
 62
     7
370
    15
100
AcDbLine
 10
247.3307728585
 20
221.7421798935
 30
0.0
 11
247.5317746219
 21
221.7421798935
 31
0.0
  0
LINE
  5
149
330
1F
100
AcDbEntity
  8
0
  6
Continuous
 62
     7
370
    15
100
AcDbLine
 10
247.5317746219
 20
208.7421796253
 30
0.0
 11
247.3307728585
 21
208.7421796253
 31
0.0
  0
LINE
  5
14A
330
1F
100
AcDbEntity
  8
0
  6
Continuous
 62
     7
370
    15
100
AcDbLine
 10
250.5317807016
 20
350.2421851238
 30
0.0
 11
255.5317759332
 21
350.2421851238
 31
0.0
  0
LINE
  5
14B
330
1F
100
AcDbEntity
  8
0
  6
Continuous
 62
     7
370
    15
100
AcDbLine
 10
250.5317807016
 20
365.2421857198
 30
0.0
 11
255.5317759332
 21
365.2421857198
 31
0.0
  0
LINE
  5
14C
330
1F
100
AcDbEntity
  8
0
  6
Continuous
 62
     7
370
    15
100
AcDbLine
 10
255.5317759332
 20
350.2421851238
 30
0.0
 11
255.5317759332
 21
365.2421857198
 31
0.0
  0
LINE
  5
14D
330
1F
100
AcDbEntity
  8
0
  6
Continuous
 62
     7
370
    15
100
AcDbLine
 10
250.5317807016
 20
350.2421851238
 30
0.0
 11
250.5317807016
 21
365.2421857198
 31
0.0
  0
LINE
  5
14E
330
1F
100
AcDbEntity
  8
0
  6
Continuous
 62
     7
370
    15
100
AcDbLine
 10
255.5317759332
 20
350.2421851238
 30
0.0
 11
270.5317765292
 21
350.2421851238
 31
0.0
  0
ARC
  5
14F
330
1F
100
AcDbEntity
  8
0
  6
Continuous
 62
     7
370
    15
100
AcDbCircle
 10
255.5317763623
 20
350.2421797594
 30
0.0
 40
15.0
100
AcDbArc
 50
0.0
 51
90.0
  0
LINE
  5
150
330
1F
100
AcDbEntity
  8
0
  6
Continuous
 62
     7
370
    15
100
AcDbLine
 10
255.5317759332
 20
225.2296718737
 30
0.0
 11
255.5317759332
 21
350.2421851238
 31
0.0
  0
LINE
  5
151
330
1F
100
AcDbEntity
  8
0
  6
Continuous
 62
     7
370
    15
100
AcDbLine
 10
250.5317807016
 20
224.5131569883
 30
0.0
 11
250.5317807016
 21
350.2421851238
 31
0.0
  0
LINE
  5
152
330
1F
100
AcDbEntity
  8
0
  6
Continuous
 62
     7
370
    15
100
AcDbLine
 10
270.5317765292
 20
80.242174395
 30
0.0
 11
270.5317765292
 21
350.2421851238
 31
0.0
  0
LINE
  5
153
330
1F
100
AcDbEntity
  8
0
  6
Continuous
 62
     7
370
    15
100
AcDbLine
 10
255.5317759332
 20
80.242174395
 30
0.0
 11
270.5317765292
 21
80.242174395
 31
0.0
  0
LINE
  5
154
330
1F
100
AcDbEntity
  8
0
  6
Continuous
 62
     7
370
    15
100
AcDbLine
 10
255.5317759332
 20
205.2546876451
 30
0.0
 11
255.5317759332
 21
80.242174395
 31
0.0
  0
LINE
  5
155
330
1F
100
AcDbEntity
  8
0
  6
Continuous
 62
     7
370
    15
100
AcDbLine
 10
250.5317807016
 20
80.242174395
 30
0.0
 11
255.5317759332
 21
80.242174395
 31
0.0
  0
LINE
  5
156
330
1F
100
AcDbEntity
  8
0
  6
Continuous
 62
     7
370
    15
100
AcDbLine
 10
250.5317807016
 20
205.9712025305
 30
0.0
 11
250.5317807016
 21
80.242174395
 31
0.0
  0
LINE
  5
157
330
1F
100
AcDbEntity
  8
0
  6
Continuous
 62
     7
370
    15
100
AcDbLine
 10
250.5317807016
 20
65.2421737989
 30
0.0
 11
255.5317759332
 21
65.2421737989
 31
0.0
  0
LINE
  5
158
330
1F
100
AcDbEntity
  8
0
  6
Continuous
 62
     7
370
    15
100
AcDbLine
 10
255.5317759332
 20
80.242174395
 30
0.0
 11
255.5317759332
 21
65.2421737989
 31
0.0
  0
LINE
  5
159
330
1F
100
AcDbEntity
  8
0
  6
Continuous
 62
     7
370
    15
100
AcDbLine
 10
250.5317807016
 20
80.242174395
 30
0.0
 11
250.5317807016
 21
65.2421737989
 31
0.0
  0
ARC
  5
15A
330
1F
100
AcDbEntity
  8
0
  6
Continuous
 62
     7
370
    15
100
AcDbCircle
 10
255.5317763623
 20
80.2421797594
 30
0.0
 40
15.00000000000003
100
AcDbArc
 50
270.0
 51
0.0
  0
LINE
  5
15B
330
1F
100
AcDbEntity
  8
0
  6
Continuous
 62
     7
370
    15
100
AcDbLine
 10
233.7427019891
 20
210.5421798272
 30
0.0
 11
233.7427019891
 21
219.1421796536
 31
0.0
  0
LINE
  5
15C
330
1F
100
AcDbEntity
  8
0
  6
Continuous
 62
     7
370
    15
100
AcDbLine
 10
233.7427019891
 20
210.5421798272
 30
0.0
 11
228.22840808
 21
210.5421798272
 31
0.0
  0
LINE
  5
15D
330
1F
100
AcDbEntity
  8
0
  6
Continuous
 62
     7
370
    15
100
AcDbLine
 10
228.22840808
 20
210.5421798272
 30
0.0
 11
228.22840808
 21
219.1421796536
 31
0.0
  0
LINE
  5
15E
330
1F
100
AcDbEntity
  8
0
  6
Continuous
 62
     7
370
    15
100
AcDbLine
 10
233.7427019891
 20
219.1421796536
 30
0.0
 11
228.22840808
 21
219.1421796536
 31
0.0
  0
LINE
  5
15F
330
1F
100
AcDbEntity
  8
0
  6
Continuous
 62
     7
370
    15
100
AcDbLine
 10
227.1141514
 20
222.4421796357
 30
0.0
 11
202.3020416316
 21
222.4421796357
 31
0.0
  0
LINE
  5
160
330
1F
100
AcDbEntity
  8
0
  6
Continuous
 62
     7
370
    15
100
AcDbLine
 10
227.1141514
 20
219.1421796536
 30
0.0
 11
227.1141514
 21
222.4421796357
 31
0.0
  0
LINE
  5
161
330
1F
100
AcDbEntity
  8
0
  6
Continuous
 62
     7
370
    15
100
AcDbLine
 10
227.1141514
 20
208.0421798831
 30
0.0
 11
227.1141514
 21
210.5421798272
 31
0.0
  0
LINE
  5
162
330
1F
100
AcDbEntity
  8
0
  6
Continuous
 62
     7
370
    15
100
AcDbLine
 10
202.3020416316
 20
208.0421798831
 30
0.0
 11
227.1141514
 21
208.0421798831
 31
0.0
  0
LINE
  5
163
330
1F
100
AcDbEntity
  8
0
  6
Continuous
 62
     7
370
    15
100
AcDbLine
 10
202.3020416316
 20
208.0421798831
 30
0.0
 11
202.3020416316
 21
222.4421796357
 31
0.0
  0
LINE
  5
164
330
1F
100
AcDbEntity
  8
0
  6
Continuous
 62
     7
370
    15
100
AcDbLine
 10
227.1141514
 20
210.5421798272
 30
0.0
 11
228.22840808
 21
210.5421798272
 31
0.0
  0
LINE
  5
165
330
1F
100
AcDbEntity
  8
0
  6
Continuous
 62
     7
370
    15
100
AcDbLine
 10
227.1141514
 20
219.1421796536
 30
0.0
 11
228.22840808
 21
219.1421796536
 31
0.0
  0
LINE
  5
166
330
1F
100
AcDbEntity
  8
0
  6
Continuous
 62
     7
370
    15
100
AcDbLine
 10
227.2417798456
 20
207.2448289921
 30
0.0
 11
229.1340112504
 21
207.2448289921
 31
0.0
  0
LINE
  5
167
330
1F
100
AcDbEntity
  8
0
  6
Continuous
 62
     7
370
    15
100
AcDbLine
 10
229.1340112504
 20
207.2448289921
 30
0.0
 11
229.8067614254
 21
207.2421793794
 31
0.0
  0
LINE
  5
168
330
1F
100
AcDbEntity
  8
0
  6
Continuous
 62
     7
370
    15
100
AcDbLine
 10
229.8067614254
 20
207.2421793794
 30
0.0
 11
202.4409651574
 21
207.2421793794
 31
0.0
  0
ARC
  5
169
330
1F
100
AcDbEntity
  8
0
  6
Continuous
 62
     7
370
    15
100
AcDbCircle
 10
203.5579897494
 20
207.8482180862
 30
0.0
 40
1.270837067952021
100
AcDbArc
 50
171.2209068749
 51
208.4819261599
  0
ARC
  5
16A
330
1F
100
AcDbEntity
  8
0
  6
Continuous
 62
     7
370
    15
100
AcDbCircle
 10
228.5884031475
 20
207.8692669607
 30
0.0
 40
1.484357468314223
100
AcDbArc
 50
173.3104218707
 51
204.8774610248
  0
LINE
  5
16B
330
1F
100
AcDbEntity
  8
0
  6
Continuous
 62
     7
370
    15
100
AcDbLine
 10
229.1340112504
 20
223.2395305266
 30
0.0
 11
227.2417798456
 21
223.2395305266
 31
0.0
  0
ARC
  5
16C
330
1F
100
AcDbEntity
  8
0
  6
Continuous
 62
     7
370
    15
100
AcDbCircle
 10
228.5884031475
 20
222.6150925581
 30
0.0
 40
1.484357468314249
100
AcDbArc
 50
155.1225389752
 51
186.6895781293
  0
ARC
  5
16D
330
1F
100
AcDbEntity
  8
0
  6
Continuous
 62
     7
370
    15
100
AcDbCircle
 10
203.5579897494
 20
222.6361414326
 30
0.0
 40
1.270837067952026
100
AcDbArc
 50
151.5180738401
 51
188.7790931251
  0
LINE
  5
16E
330
1F
100
AcDbEntity
  8
0
  6
Continuous
 62
     7
370
    15
100
AcDbLine
 10
202.4409651574
 20
223.2421801394
 30
0.0
 11
229.8067614254
 21
223.2421801394
 31
0.0
  0
LINE
  5
16F
330
1F
100
AcDbEntity
  8
0
  6
Continuous
 62
     7
370
    15
100
AcDbLine
 10
229.8067614254
 20
223.2421801394
 30
0.0
 11
229.1340112504
 21
223.2395305266
 31
0.0
  0
LINE
  5
170
330
1F
100
AcDbEntity
  8
0
  6
Continuous
 62
     7
370
    15
100
AcDbLine
 10
227.2417798456
 20
222.4421796357
 30
0.0
 11
227.2417798456
 21
223.2395305266
 31
0.0
  0
LINE
  5
171
330
1F
100
AcDbEntity
  8
0
  6
Continuous
 62
     7
370
    15
100
AcDbLine
 10
227.2530749258
 20
222.4421796357
 30
0.0
 11
227.2530749258
 21
219.1421796536
 31
0.0
  0
LINE
  5
172
330
1F
100
AcDbEntity
  8
0
  6
Continuous
 62
     7
370
    15
100
AcDbLine
 10
227.2417798456
 20
207.2448289921
 30
0.0
 11
227.2417798456
 21
208.0421798831
 31
0.0
  0
LINE
  5
173
330
1F
100
AcDbEntity
  8
0
  6
Continuous
 62
     7
370
    15
100
AcDbLine
 10
227.2530749258
 20
210.5421798272
 30
0.0
 11
227.2530749258
 21
208.0421798831
 31
0.0
  0
LINE
  5
174
330
1F
100
AcDbEntity
  8
0
  6
Continuous
 62
     7
370
    15
100
AcDbLine
 10
229.1340112504
 20
222.4421796357
 30
0.0
 11
229.1340112504
 21
223.2395305266
 31
0.0
  0
LINE
  5
175
330
1F
100
AcDbEntity
  8
0
  6
Continuous
 62
     7
370
    15
100
AcDbLine
 10
233.2417771038
 20
223.2421801394
 30
0.0
 11
229.8067614254
 21
223.2421801394
 31
0.0
  0
LINE
  5
176
330
1F
100
AcDbEntity
  8
0
  6
Continuous
 62
     7
370
    15
100
AcDbLine
 10
233.2417771038
 20
222.4421796357
 30
0.0
 11
229.1340112504
 21
222.4421796357
 31
0.0
  0
LINE
  5
177
330
1F
100
AcDbEntity
  8
0
  6
Continuous
 62
     7
370
    15
100
AcDbLine
 10
233.2417771038
 20
207.2421793794
 30
0.0
 11
229.8067614254
 21
207.2421793794
 31
0.0
  0
LINE
  5
178
330
1F
100
AcDbEntity
  8
0
  6
Continuous
 62
     7
370
    15
100
AcDbLine
 10
229.1340112504
 20
207.2448289921
 30
0.0
 11
229.1340112504
 21
208.0421798831
 31
0.0
  0
LINE
  5
179
330
1F
100
AcDbEntity
  8
0
  6
Continuous
 62
     7
370
    15
100
AcDbLine
 10
233.2417771038
 20
208.0421798831
 30
0.0
 11
229.1340112504
 21
208.0421798831
 31
0.0
  0
LINE
  5
17A
330
1F
100
AcDbEntity
  8
0
  6
Continuous
 62
     7
370
    15
100
AcDbLine
 10
227.2417798456
 20
222.4421796357
 30
0.0
 11
229.1340112504
 21
222.4421796357
 31
0.0
  0
LINE
  5
17B
330
1F
100
AcDbEntity
  8
0
  6
Continuous
 62
     7
370
    15
100
AcDbLine
 10
227.2417798456
 20
208.0421798831
 30
0.0
 11
229.1340112504
 21
208.0421798831
 31
0.0
  0
LINE
  5
17C
330
1F
100
AcDbEntity
  8
0
  6
Continuous
 62
     7
370
    15
100
AcDbLine
 10
228.3117800769
 20
223.5421796297
 30
0.0
 11
232.7117800531
 21
223.5421796297
 31
0.0
  0
LINE
  5
17D
330
1F
100
AcDbEntity
  8
0
  6
Continuous
 62
     7
370
    15
100
AcDbLine
 10
228.4117743191
 20
206.8421800589
 30
0.0
 11
232.6117783603
 21
206.8421800589
 31
0.0
  0
LINE
  5
17E
330
1F
100
AcDbEntity
  8
0
  6
Continuous
 62
     7
370
    15
100
AcDbLine
 10
228.4117743191
 20
206.4421798071
 30
0.0
 11
232.6117783603
 21
206.4421798071
 31
0.0
  0
LINE
  5
17F
330
1F
100
AcDbEntity
  8
0
  6
Continuous
 62
     7
370
    15
100
AcDbLine
 10
197.4031954822
 20
222.4421796357
 30
0.0
 11
195.4137190995
 21
222.4421796357
 31
0.0
  0
LINE
  5
180
330
1F
100
AcDbEntity
  8
0
  6
Continuous
 62
     7
370
    15
100
AcDbLine
 10
197.4031954822
 20
208.0421798831
 30
0.0
 11
197.4031954822
 21
222.4421796357
 31
0.0
  0
LINE
  5
181
330
1F
100
AcDbEntity
  8
0
  6
Continuous
 62
     7
370
    15
100
AcDbLine
 10
195.4137190995
 20
208.0421798831
 30
0.0
 11
197.4031954822
 21
208.0421798831
 31
0.0
  0
ARC
  5
182
330
1F
100
AcDbEntity
  8
0
  6
Continuous
 62
     7
370
    15
100
AcDbCircle
 10
210.7076762704
 20
215.2421797594
 30
0.0
 40
16.90399728363029
100
AcDbArc
 50
154.7901555355
 51
205.2098444645
  0
SPLINE
  5
183
330
1F
100
AcDbEntity
  8
0
  6
Continuous
 62
     7
370
    15
100
AcDbSpline
210
0.0
220
0.0
230
1.0
 70
     8
 71
     3
 72
    12
 73
     8
 74
     0
 42
0.00000001
 43
0.00000001
 40
0.0
 40
0.0
 40
0.0
 40
0.0
 40
0.1818720879954493
 40
0.3633434410005944
 40
0.5550790921410036
 40
0.7712660534529983
 40
0.9999999999999999
 40
0.9999999999999999
 40
0.9999999999999999
 40
0.9999999999999999
 10
195.5460935649175
 20
207.2421793793975
 30
0.0
 10
195.5699548994757
 20
207.2495010688383
 30
0.0
 10
195.6176249927857
 20
207.2641283151887
 30
0.0
 10
195.6323543738563
 20
207.3761175574679
 30
0.0
 10
195.6051375154375
 20
207.5455143448775
 30
0.0
 10
195.5334576723896
 20
207.7739265646047
 30
0.0
 10
195.4543753437628
 20
207.951096682509
 30
0.0
 10
195.4137190994519
 20
208.0421798830567
 30
0.0
  0
LINE
  5
184
330
1F
100
AcDbEntity
  8
0
  6
Continuous
 62
     7
370
    15
100
AcDbLine
 10
195.1617330131
 20
207.9966787217
 30
0.0
 11
195.5161720332
 21
207.2421793794
 31
0.0
  0
ARC
  5
185
330
1F
100
AcDbEntity
  8
0
  6
Continuous
 62
     7
370
    15
100
AcDbCircle
 10
210.4323934316
 20
215.2421797594
 30
0.0
 40
16.9023771968715
100
AcDbArc
 50
154.6169692401
 51
205.3830307599
  0
LINE
  5
186
330
1F
100
AcDbEntity
  8
0
  6
Continuous
 62
     7
370
    15
100
AcDbLine
 10
195.5161720332
 20
223.2421801394
 30
0.0
 11
195.1617330131
 21
222.4876807971
 31
0.0
  0
SPLINE
  5
187
330
1F
100
AcDbEntity
  8
0
  6
Continuous
 62
     7
370
    15
100
AcDbSpline
210
0.0
220
0.0
230
1.0
 70
     8
 71
     3
 72
    12
 73
     8
 74
     0
 42
0.00000001
 43
0.00000001
 40
0.0
 40
0.0
 40
0.0
 40
0.0
 40
0.2510219938737357
 40
0.5023977523608443
 40
0.7402766005126201
 40
0.9473072801081994
 40
1.0
 40
1.0
 40
1.0
 40
1.0
 10
195.4137190994519
 20
222.4421796356975
 30
0.0
 10
195.4580368452836
 20
222.5420617178579
 30
0.0
 10
195.5467347938256
 20
222.7419666457255
 30
0.0
 10
195.6217274465866
 20
223.0007022499985
 30
0.0
 10
195.6332218136648
 20
223.177931564351
 30
0.0
 10
195.591575759347
 20
223.238380834821
 30
0.0
 10
195.5537646816828
 20
223.241539341148
 30
0.0
 10
195.5460935649175
 20
223.2421801393567
 30
0.0
  0
LINE
  5
188
330
1F
100
AcDbEntity
  8
0
  6
Continuous
 62
     7
370
    15
100
AcDbLine
 10
195.5460935649
 20
207.2421793794
 30
0.0
 11
195.5161720332
 21
207.2421793794
 31
0.0
  0
LINE
  5
189
330
1F
100
AcDbEntity
  8
0
  6
Continuous
 62
     7
370
    15
100
AcDbLine
 10
195.5460935649
 20
223.2421801394
 30
0.0
 11
195.5161720332
 21
223.2421801394
 31
0.0
  0
LWPOLYLINE
  5
18A
330
1F
100
AcDbEntity
  8
0
  6
Continuous
 62
     7
370
    15
100
AcDbPolyline
 90
        9
 70
   128
 43
0.0
 10
197.4031954822
 20
222.4421796357
 10
197.3979353723
 20
222.5982520697
 10
197.3823636588
 20
222.7483263207
 10
197.3570838389
 20
222.886636105
 10
197.3230570373
 20
223.0078649675
 10
197.2815945563
 20
223.1073553642
 10
197.2342833695
 20
223.1812837502
 10
197.1829563197
 20
223.2268077289
 10
197.1295803603
 20
223.2421801394
  0
LINE
  5
18B
330
1F
100
AcDbEntity
  8
0
  6
Continuous
 62
     7
370
    15
100
AcDbLine
 10
195.5460935649
 20
223.2421801394
 30
0.0
 11
197.1295803603
 21
223.2421801394
 31
0.0
  0
LWPOLYLINE
  5
18C
330
1F
100
AcDbEntity
  8
0
  6
Continuous
 62
     7
370
    15
100
AcDbPolyline
 90
        9
 70
   128
 43
0.0
 10
197.4031954822
 20
208.0421798831
 10
197.3979353723
 20
207.886107449
 10
197.3823636588
 20
207.736033198
 10
197.3570838389
 20
207.5977234138
 10
197.3230570373
 20
207.4764945512
 10
197.2815945563
 20
207.3770041546
 10
197.2342833695
 20
207.3030757686
 10
197.1829563197
 20
207.2575517898
 10
197.1295803603
 20
207.2421793794
  0
LINE
  5
18D
330
1F
100
AcDbEntity
  8
0
  6
Continuous
 62
     7
370
    15
100
AcDbLine
 10
197.1295803603
 20
207.2421793794
 30
0.0
 11
195.5460935649
 21
207.2421793794
 31
0.0
  0
LINE
  5
18E
330
1F
100
AcDbEntity
  8
0
  6
Continuous
 62
     7
370
    15
100
AcDbLine
 10
202.3020416316
 20
222.4421796357
 30
0.0
 11
197.4031954822
 21
222.4421796357
 31
0.0
  0
LINE
  5
18F
330
1F
100
AcDbEntity
  8
0
  6
Continuous
 62
     7
370
    15
100
AcDbLine
 10
197.1295803603
 20
223.2421801394
 30
0.0
 11
202.4409651574
 21
223.2421801394
 31
0.0
  0
LINE
  5
190
330
1F
100
AcDbEntity
  8
0
  6
Continuous
 62
     7
370
    15
100
AcDbLine
 10
197.4031954822
 20
208.0421798831
 30
0.0
 11
202.3020416316
 21
208.0421798831
 31
0.0
  0
LINE
  5
191
330
1F
100
AcDbEntity
  8
0
  6
Continuous
 62
     7
370
    15
100
AcDbLine
 10
202.4409651574
 20
207.2421793794
 30
0.0
 11
197.1295803603
 21
207.2421793794
 31
0.0
  0
SPLINE
  5
192
330
1F
100
AcDbEntity
  8
0
  6
Continuous
 62
     7
370
    15
100
AcDbSpline
210
0.0
220
0.0
230
1.0
 70
     8
 71
     3
 72
    16
 73
    12
 74
     0
 42
0.00000001
 43
0.00000001
 40
0.0
 40
0.0
 40
0.0
 40
0.0
 40
0.1207044914554374
 40
0.2414116502801842
 40
0.3621187102477262
 40
0.4828243480536009
 40
0.6035308285510433
 40
0.7242368618406472
 40
0.8449447090351456
 40
0.9656514861558141
 40
1.0
 40
1.0
 40
1.0
 40
1.0
 10
228.6840781387586
 20
202.2898082589446
 30
0.0
 10
228.7034791626372
 20
202.2924810023682
 30
0.0
 10
228.742281639125
 20
202.2978265482786
 30
0.0
 10
228.7472028246957
 20
202.5887720256633
 30
0.0
 10
228.7099933392473
 20
203.0421087044007
 30
0.0
 10
228.6330760732534
 20
203.6096418316483
 30
0.0
 10
228.5292633163169
 20
204.197960112501
 30
0.0
 10
228.4131524781066
 20
204.7246680687661
 30
0.0
 10
228.3061588890959
 20
205.0879438351721
 30
0.0
 10
228.2335830797592
 20
205.2584157019441
 30
0.0
 10
228.2140309449991
 20
205.225263892358
 30
0.0
 10
228.2096996721524
 20
205.2179199611484
 30
0.0
  0
SPLINE
  5
193
330
1F
100
AcDbEntity
  8
0
  6
Continuous
 62
     7
370
    15
100
AcDbSpline
210
0.0
220
0.0
230
1.0
 70
     8
 71
     3
 72
    16
 73
    12
 74
     0
 42
0.00000001
 43
0.00000001
 40
0.0
 40
0.0
 40
0.0
 40
0.0
 40
0.1205802123267266
 40
0.2411628533287396
 40
0.3617455516146525
 40
0.4823269758812673
 40
0.6029090458262124
 40
0.7234903738647235
 40
0.8440738090980884
 40
0.9646532140801932
 40
1.0
 40
1.0
 40
1.0
 40
1.0
 10
228.8546591815251
 20
228.1658320655762
 30
0.0
 10
228.87406447788
 20
228.1631592343206
 30
0.0
 10
228.9128754614428
 20
228.1578135179743
 30
0.0
 10
228.9177773106003
 20
227.8668698889496
 30
0.0
 10
228.8805877626668
 20
227.4135299882693
 30
0.0
 10
228.8036547173701
 20
226.8460020935846
 30
0.0
 10
228.6998409694819
 20
226.2576698844197
 30
0.0
 10
228.583750067507
 20
225.7310130389348
 30
0.0
 10
228.4767221719122
 20
225.3675445453219
 30
0.0
 10
228.4039673857245
 20
225.1969942092496
 30
0.0
 10
228.3843178257457
 20
225.2305784315766
 30
0.0
 10
228.3798634824056
 20
225.2381916125952
 30
0.0
  0
SPLINE
  5
194
330
1F
100
AcDbEntity
  8
0
  6
Continuous
 62
     7
370
    15
100
AcDbSpline
210
0.0
220
0.0
230
1.0
 70
     8
 71
     3
 72
    16
 73
    12
 74
     0
 42
0.00000001
 43
0.00000001
 40
0.0
 40
0.0
 40
0.0
 40
0.0
 40
0.120514831002165
 40
0.2410323251824575
 40
0.3615497206608775
 40
0.4820655001929122
 40
0.6025825828726462
 40
0.7230986582865249
 40
0.8436171191058824
 40
0.9641308578801009
 40
1.0
 40
1.0
 40
1.0
 40
1.0
 10
244.2250430402059
 20
204.9062267845212
 30
0.0
 10
244.2444439780643
 20
204.9088995435958
 30
0.0
 10
244.2832462825097
 20
204.9142451208084
 30
0.0
 10
244.2881687584197
 20
205.205190363422
 30
0.0
 10
244.2509543898585
 20
205.6585276885074
 30
0.0
 10
244.1740554639488
 20
206.226057498642
 30
0.0
 10
244.0702182097994
 20
206.8143935608425
 30
0.0
 10
243.954143799005
 20
207.3410252972459
 30
0.0
 10
243.847072844988
 20
207.7045930881068
 30
0.0
 10
243.7742616885901
 20
207.8751889921788
 30
0.0
 10
243.7545459681323
 20
207.8413752722952
 30
0.0
 10
243.7500238236684
 20
207.8336195056974
 30
0.0
  0
SPLINE
  5
195
330
1F
100
AcDbEntity
  8
0
  6
Continuous
 62
     7
370
    15
100
AcDbSpline
210
0.0
220
0.0
230
1.0
 70
     8
 71
     3
 72
    16
 73
    12
 74
     0
 42
0.00000001
 43
0.00000001
 40
0.0
 40
0.0
 40
0.0
 40
0.0
 40
0.1205176055237603
 40
0.241032021926216
 40
0.3615491481662126
 40
0.4820661734124042
 40
0.6025826964759677
 40
0.7230985026543721
 40
0.8436143714857623
 40
0.9641311876504708
 40
1.0
 40
1.0
 40
1.0
 40
1.0
 10
244.3956315335531
 20
225.5494135399996
 30
0.0
 10
244.4150326357739
 20
225.5467422363556
 30
0.0
 10
244.4538343268262
 20
225.5413996997552
 30
0.0
 10
244.4587555098722
 20
225.2504466542445
 30
0.0
 10
244.4215491864325
 20
224.7971095293551
 30
0.0
 10
244.34461890777
 20
224.2295884879938
 30
0.0
 10
244.2408139440322
 20
223.6412445719122
 30
0.0
 10
244.124729024165
 20
223.1146213190858
 30
0.0
 10
244.0176704156036
 20
222.7510381534577
 30
0.0
 10
243.9448197084832
 20
222.5804509419881
 30
0.0
 10
243.9251286776163
 20
222.6142655270228
 30
0.0
 10
243.9206123170156
 20
222.6220212844847
 30
0.0
  0
SPLINE
  5
196
330
1F
100
AcDbEntity
  8
0
  6
Continuous
 62
     7
370
    15
100
AcDbSpline
210
0.0
220
0.0
230
1.0
 70
    24
 71
     3
 72
    16
 73
    12
 74
     0
 42
0.00000001
 43
0.00000001
 40
0.0
 40
0.0
 40
0.0
 40
0.0
 40
0.0611071491295778
 40
0.1864711554396543
 40
0.3118333742869777
 40
0.4371957719142286
 40
0.5625572265557508
 40
0.6879224398113394
 40
0.8132846586586627
 40
0.9386470562859137
 40
1.0
 40
1.0
 40
1.0
 40
1.0
 10
247.3019689139623
 20
208.3759440077184
 30
0.0
 10
247.3077355717148
 20
208.3759440077184
 30
0.0
 10
247.3253327816884
 20
208.3759440077184
 30
0.0
 10
247.1069416752792
 20
208.3759440077184
 30
0.0
 10
246.694165622243
 20
208.3759440077184
 30
0.0
 10
246.1377132841444
 20
208.3759440077184
 30
0.0
 10
245.538606332164
 20
208.3759440077184
 30
0.0
 10
244.9798999985713
 20
208.3759440077184
 30
0.0
 10
244.5629615065462
 20
208.3759440077184
 30
0.0
 10
244.339970145849
 20
208.3759440077184
 30
0.0
 10
244.3547679167153
 20
208.3759440077184
 30
0.0
 10
244.3596303281088
 20
208.3759440077184
 30
0.0
  0
SPLINE
  5
197
330
1F
100
AcDbEntity
  8
0
  6
Continuous
 62
     7
370
    15
100
AcDbSpline
210
0.0
220
0.0
230
1.0
 70
    24
 71
     3
 72
    16
 73
    12
 74
     0
 42
0.00000001
 43
0.00000001
 40
0.0
 40
0.0
 40
0.0
 40
0.0
 40
0.0610095893915384
 40
0.1861734476045528
 40
0.3113355212085618
 40
0.43649777330707
 40
0.5616590839253597
 40
0.6868241471569546
 40
0.8119862207609637
 40
0.9371484728594719
 40
1.0
 40
1.0
 40
1.0
 40
1.0
 10
247.3019689139623
 20
221.9345748392581
 30
0.0
 10
247.3077355655059
 20
221.9345748392581
 30
0.0
 10
247.3253327565328
 20
221.9345748392581
 30
0.0
 10
247.1069419084975
 20
221.9345748392581
 30
0.0
 10
246.6941647677788
 20
221.9345748392581
 30
0.0
 10
246.1377164687829
 20
221.9345748392581
 30
0.0
 10
245.5385944480225
 20
221.9345748392581
 30
0.0
 10
244.9799443515295
 20
221.9345748392581
 30
0.0
 10
244.5627959835986
 20
221.9345748392581
 30
0.0
 10
244.3393152972371
 20
221.9345748392581
 30
0.0
 10
244.3545182861929
 20
221.9345748392581
 30
0.0
 10
244.3596005257863
 20
221.9345748392581
 30
0.0
  0
SPLINE
  5
198
330
1F
100
AcDbEntity
  8
0
  6
Continuous
 62
     7
370
    15
100
AcDbSpline
210
0.0
220
0.0
230
1.0
 70
     8
 71
     3
 72
    19
 73
    15
 74
     0
 42
0.00000001
 43
0.00000001
 40
0.0
 40
0.0
 40
0.0
 40
0.0
 40
0.0039549647145973
 40
0.1157673416546059
 40
0.2280441602243888
 40
0.3355190748443604
 40
0.4377072895834259
 40
0.5348813783049912
 40
0.628302511166183
 40
0.7302898573119802
 40
0.8413273888114153
 40
0.9641211978473089
 40
0.9937659048421617
 40
1.0
 40
1.0
 40
1.0
 40
1.0
 10
233.6300492104787
 20
220.8421795597015
 30
0.0
 10
233.6304439996039
 20
220.8421739470035
 30
0.0
 10
233.6420000287548
 20
220.8420096554907
 30
0.0
 10
233.6652277005917
 20
220.8268785305327
 30
0.0
 10
233.7087308233071
 20
220.7599839094869
 30
0.0
 10
233.7467049839314
 20
220.6552854243591
 30
0.0
 10
233.7702012119468
 20
220.5302099746848
 30
0.0
 10
233.7815259246565
 20
220.4017734347227
 30
0.0
 10
233.782135816504
 20
220.2806035812719
 30
0.0
 10
233.7663483805749
 20
220.1713699274606
 30
0.0
 10
233.7259708774327
 20
220.0819539911991
 30
0.0
 10
233.674108795101
 20
220.0469030759805
 30
0.0
 10
233.6394021136924
 20
220.0422928627116
 30
0.0
 10
233.6314337480518
 20
220.0421966966321
 30
0.0
 10
233.6300492104787
 20
220.0421799873649
 30
0.0
  0
SPLINE
  5
199
330
1F
100
AcDbEntity
  8
0
  6
Continuous
 62
     7
370
    15
100
AcDbSpline
210
0.0
220
0.0
230
1.0
 70
     8
 71
     3
 72
    30
 73
    26
 74
     0
 42
0.00000001
 43
0.00000001
 40
0.0
 40
0.0
 40
0.0
 40
0.0
 40
0.1247092734887808
 40
0.2494201828389453
 40
0.3741277144462729
 40
0.4367850730959945
 40
0.4681558419898508
 40
0.4838425773092939
 40
0.4916892392768147
 40
0.4956135513877403
 40
0.4975725240520635
 40
0.4985520646506174
 40
0.4990418856792856
 40
0.4992867094199373
 40
0.4994091646771043
 40
0.4994761549231492
 40
0.4995067471108747
 40
0.499519220607769
 40
0.4995374626013807
 40
0.5609179998168962
 40
0.6646198887245258
 40
0.7325838327632908
 40
0.8111466747801674
 40
0.9002980622844619
 40
0.9999999999999999
 40
0.9999999999999999
 40
0.9999999999999999
 40
0.9999999999999999
 10
233.7017535981435
 20
220.9020715174912
 30
0.0
 10
233.7075184789796
 20
220.9002786773013
 30
0.0
 10
233.7190483162719
 20
220.896692973404
 30
0.0
 10
233.8088860933044
 20
220.8748530894384
 30
0.0
 10
233.9163690318118
 20
220.8491721984388
 30
0.0
 10
234.001923081355
 20
220.8287607300843
 30
0.0
 10
234.0460202253126
 20
220.8182269340644
 30
0.0
 10
234.0682486226551
 20
220.8129074144092
 30
0.0
 10
234.0793816836111
 20
220.8102418398594
 30
0.0
 10
234.0849518106305
 20
220.8089094936065
 30
0.0
 10
234.0877358421835
 20
220.8082404537776
 30
0.0
 10
234.0891268466586
 20
220.8079083388712
 30
0.0
 10
234.0898218466672
 20
220.8077395473882
 30
0.0
 10
234.0901699222872
 20
220.8076578025428
 30
0.0
 10
234.090345757749
 20
220.8076138713512
 30
0.0
 10
234.0904354513479
 20
220.8075945891881
 30
0.0
 10
234.090480551754
 20
220.8075855112594
 30
0.0
 10
234.0905047276732
 20
220.8075769898234
 30
0.0
 10
234.1158006155671
 20
220.8031688984125
 30
0.0
 10
234.1825117455755
 20
220.7855977669521
 30
0.0
 10
234.2737804871765
 20
220.7677469415865
 30
0.0
 10
234.3572349994162
 20
220.7501023251033
 30
0.0
 10
234.4208093723975
 20
220.7373528750385
 30
0.0
 10
234.4713071813859
 20
220.7276625987733
 30
0.0
 10
234.4785399560762
 20
220.7272076756533
 30
0.0
 10
234.4823583778638
 20
220.726967506641
 30
0.0
  0
ELLIPSE
  5
19A
330
1F
100
AcDbEntity
  8
0
  6
Continuous
 62
     7
370
    15
100
AcDbEllipse
 10
234.3588847561
 20
222.0241549381
 30
0.0
 11
0.3906095144045878
 21
-0.08616383961160068
 31
0.0
210
0.0
220
0.0
230
1.0
 40
0.0142285888
 41
0.0
 42
6.283185307179586
  0
LINE
  5
19B
330
1F
100
AcDbEntity
  8
0
  6
Continuous
 62
     7
370
    15
100
AcDbLine
 10
233.5317760524
 20
209.4921797482
 30
0.0
 11
233.5317760524
 21
208.4921795843
 31
0.0
  0
LINE
  5
19C
330
1F
100
AcDbEntity
  8
0
  6
Continuous
 62
     7
370
    15
100
AcDbLine
 10
233.5317760524
 20
208.4921795843
 30
0.0
 11
227.3317754087
 21
208.4921795843
 31
0.0
  0
LINE
  5
19D
330
1F
100
AcDbEntity
  8
0
  6
Continuous
 62
     7
370
    15
100
AcDbLine
 10
227.3317754087
 20
209.4921797482
 30
0.0
 11
227.3317754087
 21
208.4921795843
 31
0.0
  0
LINE
  5
19E
330
1F
100
AcDbEntity
  8
0
  6
Continuous
 62
     7
370
    15
100
AcDbLine
 10
233.5317760524
 20
209.4921797482
 30
0.0
 11
227.3317754087
 21
209.4921797482
 31
0.0
  0
LINE
  5
19F
330
1F
100
AcDbEntity
  8
0
  6
Continuous
 62
     7
370
    15
100
AcDbLine
 10
233.5317760524
 20
221.9921799345
 30
0.0
 11
233.5317760524
 21
220.9921797706
 31
0.0
  0
LINE
  5
1A0
330
1F
100
AcDbEntity
  8
0
  6
Continuous
 62
     7
370
    15
100
AcDbLine
 10
233.5317760524
 20
220.9921797706
 30
0.0
 11
227.3317754087
 21
220.9921797706
 31
0.0
  0
LINE
  5
1A1
330
1F
100
AcDbEntity
  8
0
  6
Continuous
 62
     7
370
    15
100
AcDbLine
 10
227.3317754087
 20
221.9921799345
 30
0.0
 11
227.3317754087
 21
220.9921797706
 31
0.0
  0
LINE
  5
1A2
330
1F
100
AcDbEntity
  8
0
  6
Continuous
 62
     7
370
    15
100
AcDbLine
 10
233.5317760524
 20
221.9921799345
 30
0.0
 11
227.3317754087
 21
221.9921799345
 31
0.0
  0
LWPOLYLINE
  5
1A3
330
1F
100
AcDbEntity
  8
0
  6
Continuous
 62
     7
370
    15
100
AcDbPolyline
 90
        3
 70
   128
 43
0.0
 10
227.2530749258
 20
208.8810412181
 10
227.2556528267
 20
208.8748632898
 10
227.3317754087
 20
208.4921795843
  0
LWPOLYLINE
  5
1A4
330
1F
100
AcDbEntity
  8
0
  6
Continuous
 62
     7
370
    15
100
AcDbPolyline
 90
        3
 70
   128
 43
0.0
 10
227.3317754087
 20
221.9921799345
 10
227.2556528267
 20
221.6094962289
 10
227.2530749258
 20
221.6033183006
  0
LINE
  5
1A5
330
1F
100
AcDbEntity
  8
0
  6
Continuous
 62
     7
370
    15
100
AcDbLine
 10
233.5317760524
 20
220.9921797706
 30
0.0
 11
233.5317760524
 21
220.8421795597
 31
0.0
  0
LINE
  5
1A6
330
1F
100
AcDbEntity
  8
0
  6
Continuous
 62
     7
370
    15
100
AcDbLine
 10
233.5317760524
 20
220.0421799874
 30
0.0
 11
233.5317760524
 21
219.1421796536
 31
0.0
  0
LINE
  5
1A7
330
1F
100
AcDbEntity
  8
0
  6
Continuous
 62
     7
370
    15
100
AcDbLine
 10
233.5317760524
 20
210.5421798272
 30
0.0
 11
233.5317760524
 21
209.4921797482
 31
0.0
  0
LINE
  5
1A8
330
1F
100
AcDbEntity
  8
0
  6
Continuous
 62
     7
370
    15
100
AcDbLine
 10
110.5317763802
 20
350.2421851238
 30
0.0
 11
110.5317763802
 21
80.242174395
 31
0.0
  0
LINE
  5
1A9
330
1F
100
AcDbEntity
  8
0
  6
Continuous
 62
     7
370
    15
100
AcDbLine
 10
110.5317763802
 20
350.2421851238
 30
0.0
 11
125.531776045
 21
350.2421851238
 31
0.0
  0
LINE
  5
1AA
330
1F
100
AcDbEntity
  8
0
  6
Continuous
 62
     7
370
    15
100
AcDbLine
 10
125.531776045
 20
350.2421851238
 30
0.0
 11
125.531776045
 21
80.242174395
 31
0.0
  0
LINE
  5
1AB
330
1F
100
AcDbEntity
  8
0
  6
Continuous
 62
     7
370
    15
100
AcDbLine
 10
125.531776045
 20
80.242174395
 30
0.0
 11
110.5317763802
 21
80.242174395
 31
0.0
  0
ARC
  5
1AC
330
1F
100
AcDbEntity
  8
0
  6
Continuous
 62
     7
370
    15
100
AcDbCircle
 10
125.5317763623
 20
350.2421797594
 30
0.0
 40
15.0
100
AcDbArc
 50
90.0
 51
180.0
  0
LINE
  5
1AD
330
1F
100
AcDbEntity
  8
0
  6
Continuous
 62
     7
370
    15
100
AcDbLine
 10
125.531776045
 20
365.2421857198
 30
0.0
 11
125.531776045
 21
350.2421851238
 31
0.0
  0
LINE
  5
1AE
330
1F
100
AcDbEntity
  8
0
  6
Continuous
 62
     7
370
    15
100
AcDbLine
 10
125.531776045
 20
80.242174395
 30
0.0
 11
125.531776045
 21
65.2421737989
 31
0.0
  0
ARC
  5
1AF
330
1F
100
AcDbEntity
  8
0
  6
Continuous
 62
     7
370
    15
100
AcDbCircle
 10
125.5317763623
 20
80.2421797594
 30
0.0
 40
14.99999999999999
100
AcDbArc
 50
180.0
 51
270.0
  0
LINE
  5
1B0
330
1F
100
AcDbEntity
  8
0
  6
Continuous
 62
     7
370
    15
100
AcDbLine
 10
246.5317725953
 20
350.2421851238
 30
0.0
 11
125.531776045
 21
350.2421851238
 31
0.0
  0
LINE
  5
1B1
330
1F
100
AcDbEntity
  8
0
  6
Continuous
 62
     7
370
    15
100
AcDbLine
 10
246.5317725953
 20
365.2421857198
 30
0.0
 11
125.531776045
 21
365.2421857198
 31
0.0
  0
LINE
  5
1B2
330
1F
100
AcDbEntity
  8
0
  6
Continuous
 62
     7
370
    15
100
AcDbLine
 10
246.5317725953
 20
365.2421857198
 30
0.0
 11
246.5317725953
 21
350.2421851238
 31
0.0
  0
LINE
  5
1B3
330
1F
100
AcDbEntity
  8
0
  6
Continuous
 62
     7
370
    15
100
AcDbLine
 10
246.5317725953
 20
80.242174395
 30
0.0
 11
246.5317725953
 21
206.2342722868
 31
0.0
  0
LINE
  5
1B4
330
1F
100
AcDbEntity
  8
0
  6
Continuous
 62
     7
370
    15
100
AcDbLine
 10
246.5317725953
 20
224.21810934
 30
0.0
 11
246.5317725953
 21
350.2421851238
 31
0.0
  0
LINE
  5
1B5
330
1F
100
AcDbEntity
  8
0
  6
Continuous
 62
     7
370
    15
100
AcDbLine
 10
246.5317725953
 20
80.242174395
 30
0.0
 11
125.531776045
 21
80.242174395
 31
0.0
  0
LINE
  5
1B6
330
1F
100
AcDbEntity
  8
0
  6
Continuous
 62
     7
370
    15
100
AcDbLine
 10
226.5317767677
 20
85.2421845277
 30
0.0
 11
130.5317759332
 21
85.2421845277
 31
0.0
  0
LINE
  5
1B7
330
1F
100
AcDbEntity
  8
0
  6
Continuous
 62
     7
370
    15
100
AcDbLine
 10
226.5317767677
 20
85.2421845277
 30
0.0
 11
226.5317767677
 21
202.429633305
 31
0.0
  0
LINE
  5
1B8
330
1F
100
AcDbEntity
  8
0
  6
Continuous
 62
     7
370
    15
100
AcDbLine
 10
226.5317767677
 20
205.7694193875
 30
0.0
 11
226.5317767677
 21
207.2421793794
 31
0.0
  0
LINE
  5
1B9
330
1F
100
AcDbEntity
  8
0
  6
Continuous
 62
     7
370
    15
100
AcDbLine
 10
226.5317767677
 20
223.2421801394
 30
0.0
 11
226.5317767677
 21
224.7015821716
 31
0.0
  0
LINE
  5
1BA
330
1F
100
AcDbEntity
  8
0
  6
Continuous
 62
     7
370
    15
100
AcDbLine
 10
226.5317767677
 20
228.0442981949
 30
0.0
 11
226.5317767677
 21
345.242174991
 31
0.0
  0
LINE
  5
1BB
330
1F
100
AcDbEntity
  8
0
  6
Continuous
 62
     7
370
    15
100
AcDbLine
 10
226.5317767677
 20
345.242174991
 30
0.0
 11
130.5317759332
 21
345.242174991
 31
0.0
  0
LINE
  5
1BC
330
1F
100
AcDbEntity
  8
0
  6
Continuous
 62
     7
370
    15
100
AcDbLine
 10
130.5317759332
 20
345.242174991
 30
0.0
 11
130.5317759332
 21
85.2421845277
 31
0.0
  0
LINE
  5
1BD
330
1F
100
AcDbEntity
  8
0
  6
Continuous
 62
     7
370
    15
100
AcDbLine
 10
246.5317725953
 20
65.2421737989
 30
0.0
 11
125.531776045
 21
65.2421737989
 31
0.0
  0
LINE
  5
1BE
330
1F
100
AcDbEntity
  8
0
  6
Continuous
 62
     7
370
    15
100
AcDbLine
 10
246.5317725953
 20
80.242174395
 30
0.0
 11
246.5317725953
 21
65.2421737989
 31
0.0
  0
LINE
  5
1BF
330
1F
100
AcDbEntity
  8
0
  6
Continuous
 62
     7
370
    15
100
AcDbLine
 10
250.5317807016
 20
345.242174991
 30
0.0
 11
246.5317725953
 21
345.242174991
 31
0.0
  0
LINE
  5
1C0
330
1F
100
AcDbEntity
  8
0
  6
Continuous
 62
     7
370
    15
100
AcDbLine
 10
250.5317807016
 20
85.2421845277
 30
0.0
 11
246.5317725953
 21
85.2421845277
 31
0.0
  0
LINE
  5
1C1
330
1F
100
AcDbEntity
  8
0
  6
Continuous
 62
     7
370
    15
100
AcDbLine
 10
250.5317807016
 20
70.2421839317
 30
0.0
 11
246.5317725953
 21
70.2421839317
 31
0.0
  0
LINE
  5
1C2
330
1F
100
AcDbEntity
  8
0
  6
Continuous
 62
     7
370
    15
100
AcDbLine
 10
250.5317807016
 20
360.2421755871
 30
0.0
 11
246.5317725953
 21
360.2421755871
 31
0.0
  0
LINE
  5
1C3
330
1F
100
AcDbEntity
  8
0
  6
Continuous
 62
     7
370
    15
100
AcDbLine
 10
366.9724046863
 20
430.8708429665
 30
0.0
 11
368.1723951973
 21
430.8708429665
 31
0.0
  0
LINE
  5
1C4
330
1F
100
AcDbEntity
  8
0
  6
Continuous
 62
     7
370
    15
100
AcDbLine
 10
366.8724029936
 20
433.3708405824
 30
0.0
 11
366.9724046863
 21
433.3708405824
 31
0.0
  0
LINE
  5
1C5
330
1F
100
AcDbEntity
  8
0
  6
Continuous
 62
     7
370
    15
100
AcDbLine
 10
366.9724046863
 20
439.3708378405
 30
0.0
 11
366.8724029936
 21
439.3708378405
 31
0.0
  0
LINE
  5
1C6
330
1F
100
AcDbEntity
  8
0
  6
Continuous
 62
     7
370
    15
100
AcDbLine
 10
362.7241581358
 20
496.3708415956
 30
0.0
 11
361.9723945536
 21
496.0972264738
 31
0.0
  0
SPLINE
  5
1C7
330
1F
100
AcDbEntity
  8
0
  6
Continuous
 62
     7
370
    15
100
AcDbSpline
210
0.0
220
0.0
230
1.0
 70
     8
 71
     3
 72
    15
 73
    11
 74
     0
 42
0.00000001
 43
0.00000001
 40
0.0
 40
0.0
 40
0.0
 40
0.0
 40
0.1250754737106914
 40
0.2501512637214284
 40
0.3752910642424033
 40
0.5003040442798201
 40
0.6252881250789707
 40
0.750262047766226
 40
0.8750785722580477
 40
1.0
 40
1.0
 40
1.0
 40
1.0
 10
365.7868384994394
 20
461.4286691279256
 30
0.0
 10
365.7607136720789
 20
461.6874331515003
 30
0.0
 10
365.7084639512914
 20
462.2049618530312
 30
0.0
 10
365.62959509398
 20
462.9860752776141
 30
0.0
 10
365.5551682684111
 20
463.7232542608746
 30
0.0
 10
365.4881544736483
 20
464.3868332418084
 30
0.0
 10
365.4320472052106
 20
464.9425973744883
 30
0.0
 10
365.3895292073566
 20
465.3636943956905
 30
0.0
 10
365.3606968181293
 20
465.6493016011557
 30
0.0
 10
365.3563550700824
 20
465.6923365798341
 30
0.0
 10
365.354183284176
 20
465.7138631076657
 30
0.0
  0
SPLINE
  5
1C8
330
1F
100
AcDbEntity
  8
0
  6
Continuous
 62
     7
370
    15
100
AcDbSpline
210
0.0
220
0.0
230
1.0
 70
     8
 71
     3
 72
    15
 73
    11
 74
     0
 42
0.00000001
 43
0.00000001
 40
0.0
 40
0.0
 40
0.0
 40
0.0
 40
0.1249396532407659
 40
0.2497688921967589
 40
0.3747511584182677
 40
0.499737694248962
 40
0.6247481088386436
 40
0.7498793230434497
 40
0.8749423236597464
 40
1.0
 40
1.0
 40
1.0
 40
1.0
 10
362.3699277318842
 20
465.4124796719395
 30
0.0
 10
362.3721101786809
 20
465.3909014911326
 30
0.0
 10
362.3764731435568
 20
465.3477641990402
 30
0.0
 10
362.405322761025
 20
465.0620543126453
 30
0.0
 10
362.4478275610239
 20
464.6408693648274
 30
0.0
 10
362.503967730939
 20
464.0850944175367
 30
0.0
 10
362.5709514645862
 20
463.4215677103984
 30
0.0
 10
362.6453742511997
 20
462.6845227855895
 30
0.0
 10
362.724201391834
 20
461.9036112432286
 30
0.0
 10
362.7764461986443
 20
461.3862558870734
 30
0.0
 10
362.8025680459863
 20
461.1275837154233
 30
0.0
  0
LINE
  5
1C9
330
1F
100
AcDbEntity
  8
0
  6
Continuous
 62
     7
370
    15
100
AcDbLine
 10
362.8022849239
 20
461.127449605
 30
0.0
 11
364.3713622965
 21
445.5864698024
 31
0.0
  0
LINE
  5
1CA
330
1F
100
AcDbEntity
  8
0
  6
Continuous
 62
     7
370
    15
100
AcDbLine
 10
367.3561840929
 20
445.8878308863
 30
0.0
 11
365.7871067203
 21
461.4288032384
 31
0.0
  0
SPLINE
  5
1CB
330
1F
100
AcDbEntity
  8
0
  6
Continuous
 62
     7
370
    15
100
AcDbSpline
210
0.0
220
0.0
230
1.0
 70
     8
 71
     3
 72
     9
 73
     5
 74
     0
 42
0.00000001
 43
0.00000001
 40
0.0
 40
0.0
 40
0.0
 40
0.0
 40
0.4837344539668944
 40
1.0
 40
1.0
 40
1.0
 40
1.0
 10
364.5414441503412
 20
443.9050972790562
 30
0.0
 10
364.5509047948733
 20
443.8408724941126
 30
0.0
 10
364.5704623113052
 20
443.7081038140714
 30
0.0
 10
364.6043046677224
 20
443.6719483674391
 30
0.0
 10
364.6217763103372
 20
443.6532825560414
 30
0.0
  0
SPLINE
  5
1CC
330
1F
100
AcDbEntity
  8
0
  6
Continuous
 62
     7
370
    15
100
AcDbSpline
210
0.0
220
0.0
230
1.0
 70
     8
 71
     3
 72
    11
 73
     7
 74
     0
 42
0.00000001
 43
0.00000001
 40
0.0
 40
0.0
 40
0.0
 40
0.0
 40
0.2484396053587954
 40
0.4978882905326143
 40
0.7483888276677946
 40
1.0
 40
1.0
 40
1.0
 40
1.0
 10
364.371630517376
 20
445.5866337151371
 30
0.0
 10
364.3896431985466
 20
445.408162255793
 30
0.0
 10
364.4257417224634
 20
445.0504944448439
 30
0.0
 10
364.472766911317
 20
444.5856548875159
 30
0.0
 10
364.5115590570664
 20
444.2027707546778
 30
0.0
 10
364.5266036474069
 20
444.0554817467647
 30
0.0
 10
364.5341425813562
 20
443.9816743464314
 30
0.0
  0
SPLINE
  5
1CD
330
1F
100
AcDbEntity
  8
0
  6
Continuous
 62
     7
370
    15
100
AcDbSpline
210
0.0
220
0.0
230
1.0
 70
     8
 71
     3
 72
    19
 73
    15
 74
     0
 42
0.00000001
 43
0.00000001
 40
0.0
 40
0.0
 40
0.0
 40
0.0
 40
0.0802804369297216
 40
0.1534416957310603
 40
0.2193403204326486
 40
0.2779459655494368
 40
0.3728444810618545
 40
0.442153508026651
 40
0.5315374242239219
 40
0.6554817064516648
 40
0.7303544145519429
 40
0.8130772361858046
 40
0.9031427657753383
 40
0.9999999999999999
 40
0.9999999999999999
 40
0.9999999999999999
 40
0.9999999999999999
 10
364.5570903695947
 20
443.8224554390752
 30
0.0
 10
364.5924510469216
 20
443.6995817223458
 30
0.0
 10
364.6600366568003
 20
443.4647305907775
 30
0.0
 10
364.8572594016373
 20
443.1703178869439
 30
0.0
 10
365.0821123666153
 20
442.9461993040319
 30
0.0
 10
365.3777744802258
 20
442.7531565730105
 30
0.0
 10
365.719721398599
 20
442.6352370892376
 30
0.0
 10
366.1294822812379
 20
442.6054637297637
 30
0.0
 10
366.5685644611161
 20
442.7077615642806
 30
0.0
 10
366.955096400028
 20
442.9589970665798
 30
0.0
 10
367.247930107714
 20
443.2997114924086
 30
0.0
 10
367.4287271668838
 20
443.6551686837924
 30
0.0
 10
367.5346121503626
 20
444.0821186699037
 30
0.0
 10
367.5023582781262
 20
444.3771870452304
 30
0.0
 10
367.485645381344
 20
444.5300817818486
 30
0.0
  0
SPLINE
  5
1CE
330
1F
100
AcDbEntity
  8
0
  6
Continuous
 62
     7
370
    15
100
AcDbSpline
210
0.0
220
0.0
230
1.0
 70
     8
 71
     3
 72
    11
 73
     7
 74
     0
 42
0.00000001
 43
0.00000001
 40
0.0
 40
0.0
 40
0.0
 40
0.0
 40
0.2477443977010795
 40
0.4969515347440527
 40
0.7476787962907897
 40
1.0
 40
1.0
 40
1.0
 40
1.0
 10
367.5094127334482
 20
444.3623990149342
 30
0.0
 10
367.502978983639
 20
444.4270246670242
 30
0.0
 10
367.4900734976967
 20
444.556657535771
 30
0.0
 10
367.4540843639055
 20
444.9145306955069
 30
0.0
 10
367.4091323354535
 20
445.3608505483141
 30
0.0
 10
367.3736921246913
 20
445.7117107921135
 30
0.0
 10
367.3559158719904
 20
445.8876967758977
 30
0.0
  0
LINE
  5
1CF
330
1F
100
AcDbEntity
  8
0
  6
Continuous
 62
     7
370
    15
100
AcDbLine
 10
367.6397084869
 20
455.5425092907
 30
0.0
 11
367.6396935858
 21
455.8423281045
 31
0.0
  0
LINE
  5
1D0
330
1F
100
AcDbEntity
  8
0
  6
Continuous
 62
     7
370
    15
100
AcDbLine
 10
366.8396949448
 20
455.8423281045
 30
0.0
 11
366.8396949448
 21
455.5449605317
 31
0.0
  0
SPLINE
  5
1D1
330
1F
100
AcDbEntity
  8
0
  6
Continuous
 62
     7
370
    15
100
AcDbSpline
210
0.0
220
0.0
230
1.0
 70
    24
 71
     3
 72
    11
 73
     7
 74
     0
 42
0.00000001
 43
0.00000001
 40
0.0
 40
0.0
 40
0.0
 40
0.0
 40
0.0207832163337777
 40
0.3465538622668197
 40
0.6711424087355256
 40
1.0
 40
1.0
 40
1.0
 40
1.0
 10
366.8396949447519
 20
456.1286464662396
 30
0.0
 10
366.8396949447519
 20
456.1253247540641
 30
0.0
 10
366.8396949447518
 20
456.0699362056662
 30
0.0
 10
366.8396949447519
 20
455.9767033109428
 30
0.0
 10
366.8396949447519
 20
455.8639899066205
 30
0.0
 10
366.8396949447519
 20
455.8294675807002
 30
0.0
 10
366.8396949447519
 20
455.8120936484181
 30
0.0
  0
SPLINE
  5
1D2
330
1F
100
AcDbEntity
  8
0
  6
Continuous
 62
     7
370
    15
100
AcDbSpline
210
0.0
220
0.0
230
1.0
 70
    24
 71
     3
 72
    11
 73
     7
 74
     0
 42
0.00000001
 43
0.00000001
 40
0.0
 40
0.0
 40
0.0
 40
0.0
 40
0.2504863591729243
 40
0.4977314983156908
 40
0.7458651761595598
 40
1.0
 40
1.0
 40
1.0
 40
1.0
 10
367.6397084869272
 20
455.8096424074017
 30
0.0
 10
367.6397084869272
 20
455.8258591800932
 30
0.0
 10
367.6397084869272
 20
455.8580828851931
 30
0.0
 10
367.6397084869272
 20
455.9668654721599
 30
0.0
 10
367.6397084869272
 20
456.1056976780743
 30
0.0
 10
367.6397084869272
 20
456.2127243634698
 30
0.0
 10
367.6397084869272
 20
456.2668770880543
 30
0.0
  0
LINE
  5
1D3
330
1F
100
AcDbEntity
  8
0
  6
Continuous
 62
     7
370
    15
100
AcDbLine
 10
366.6329562343
 20
456.3708424897
 30
0.0
 11
366.8418705143
 21
456.1236173243
 31
0.0
  0
LINE
  5
1D4
330
1F
100
AcDbEntity
  8
0
  6
Continuous
 62
     7
370
    15
100
AcDbLine
 10
367.6397084869
 20
456.2668770881
 30
0.0
 11
367.6397084869
 21
456.3708424897
 31
0.0
  0
LINE
  5
1D5
330
1F
100
AcDbEntity
  8
0
  6
Continuous
 62
     7
370
    15
100
AcDbLine
 10
362.3633116163
 20
465.5088603825
 30
0.0
 11
362.3476951994
 21
465.9680918188
 31
0.0
  0
SPLINE
  5
1D6
330
1F
100
AcDbEntity
  8
0
  6
Continuous
 62
     7
370
    15
100
AcDbSpline
210
0.0
220
0.0
230
1.0
 70
     8
 71
     3
 72
    11
 73
     7
 74
     0
 42
0.00000001
 43
0.00000001
 40
0.0
 40
0.0
 40
0.0
 40
0.0
 40
0.1207592001546205
 40
0.4133922129870417
 40
0.7063570810263333
 40
1.0
 40
1.0
 40
1.0
 40
1.0
 10
364.3959790147669
 20
445.3454286188924
 30
0.0
 10
364.4059022575138
 20
445.2471280889827
 30
0.0
 10
364.4398722678645
 20
444.9106181291194
 30
0.0
 10
364.4872306240285
 20
444.4417050338863
 30
0.0
 10
364.5301159704323
 20
444.0169711058799
 30
0.0
 10
364.5376651816991
 20
443.9424172798717
 30
0.0
 10
364.5414441503412
 20
443.9050972790562
 30
0.0
  0
LINE
  5
1D7
330
1F
100
AcDbEntity
  8
0
  6
Continuous
 62
     7
370
    15
100
AcDbLine
 10
368.1723951973
 20
495.3708395691
 30
0.0
 11
367.8724050201
 21
495.3708395691
 31
0.0
  0
LINE
  5
1D8
330
1F
100
AcDbEntity
  8
0
  6
Continuous
 62
     7
370
    15
100
AcDbLine
 10
367.8724050201
 20
494.3708449931
 30
0.0
 11
367.7724033274
 21
494.3708449931
 31
0.0
  0
LINE
  5
1D9
330
1F
100
AcDbEntity
  8
0
  6
Continuous
 62
     7
370
    15
100
AcDbLine
 10
367.7724033274
 20
488.3708402843
 30
0.0
 11
367.8724050201
 21
488.3708402843
 31
0.0
  0
LINE
  5
1DA
330
1F
100
AcDbEntity
  8
0
  6
Continuous
 62
     7
370
    15
100
AcDbLine
 10
367.8724050201
 20
471.3708430858
 30
0.0
 11
367.7724033274
 21
471.3708430858
 31
0.0
  0
LINE
  5
1DB
330
1F
100
AcDbEntity
  8
0
  6
Continuous
 62
     7
370
    15
100
AcDbLine
 10
367.7724033274
 20
465.3708458276
 30
0.0
 11
367.8724050201
 21
465.3708458276
 31
0.0
  0
LINE
  5
1DC
330
1F
100
AcDbEntity
  8
0
  6
Continuous
 62
     7
370
    15
100
AcDbLine
 10
753.1724005617
 20
439.3708378405
 30
0.0
 11
753.1724005617
 21
434.3708426089
 31
0.0
  0
LINE
  5
1DD
330
1F
100
AcDbEntity
  8
0
  6
Continuous
 62
     7
370
    15
100
AcDbLine
 10
768.1724011577
 20
439.3708378405
 30
0.0
 11
753.1724005617
 21
439.3708378405
 31
0.0
  0
LINE
  5
1DE
330
1F
100
AcDbEntity
  8
0
  6
Continuous
 62
     7
370
    15
100
AcDbLine
 10
768.1724011577
 20
439.3708378405
 30
0.0
 11
768.1724011577
 21
434.3708426089
 31
0.0
  0
LINE
  5
1DF
330
1F
100
AcDbEntity
  8
0
  6
Continuous
 62
     7
370
    15
100
AcDbLine
 10
768.1724011577
 20
434.3708426089
 30
0.0
 11
753.1724005617
 21
434.3708426089
 31
0.0
  0
LINE
  5
1E0
330
1F
100
AcDbEntity
  8
0
  6
Continuous
 62
     7
370
    15
100
AcDbLine
 10
383.1723957933
 20
439.3708378405
 30
0.0
 11
383.1723957933
 21
434.3708426089
 31
0.0
  0
LINE
  5
1E1
330
1F
100
AcDbEntity
  8
0
  6
Continuous
 62
     7
370
    15
100
AcDbLine
 10
383.1723957933
 20
434.3708426089
 30
0.0
 11
753.1724005617
 21
434.3708426089
 31
0.0
  0
LINE
  5
1E2
330
1F
100
AcDbEntity
  8
0
  6
Continuous
 62
     7
370
    15
100
AcDbLine
 10
383.1723957933
 20
439.3708378405
 30
0.0
 11
753.1724005617
 21
439.3708378405
 31
0.0
  0
LINE
  5
1E3
330
1F
100
AcDbEntity
  8
0
  6
Continuous
 62
     7
370
    15
100
AcDbLine
 10
383.1723957933
 20
419.3708420129
 30
0.0
 11
383.1723957933
 21
434.3708426089
 31
0.0
  0
LINE
  5
1E4
330
1F
100
AcDbEntity
  8
0
  6
Continuous
 62
     7
370
    15
100
AcDbLine
 10
753.1724005617
 20
434.3708426089
 30
0.0
 11
753.1724005617
 21
419.3708420129
 31
0.0
  0
LINE
  5
1E5
330
1F
100
AcDbEntity
  8
0
  6
Continuous
 62
     7
370
    15
100
AcDbLine
 10
383.1723957933
 20
419.3708420129
 30
0.0
 11
753.1724005617
 21
419.3708420129
 31
0.0
  0
ARC
  5
1E6
330
1F
100
AcDbEntity
  8
0
  6
Continuous
 62
     7
370
    15
100
AcDbCircle
 10
753.1723981775
 20
434.3708421798
 30
0.0
 40
15.00000000000011
100
AcDbArc
 50
270.0
 51
0.0
  0
LINE
  5
1E7
330
1F
100
AcDbEntity
  8
0
  6
Continuous
 62
     7
370
    15
100
AcDbLine
 10
368.1723951973
 20
439.3708378405
 30
0.0
 11
368.1723951973
 21
434.3708426089
 31
0.0
  0
LINE
  5
1E8
330
1F
100
AcDbEntity
  8
0
  6
Continuous
 62
     7
370
    15
100
AcDbLine
 10
368.1723951973
 20
434.3708426089
 30
0.0
 11
383.1723957933
 21
434.3708426089
 31
0.0
  0
LINE
  5
1E9
330
1F
100
AcDbEntity
  8
0
  6
Continuous
 62
     7
370
    15
100
AcDbLine
 10
368.1723951973
 20
439.3708378405
 30
0.0
 11
383.1723957933
 21
439.3708378405
 31
0.0
  0
ARC
  5
1EA
330
1F
100
AcDbEntity
  8
0
  6
Continuous
 62
     7
370
    15
100
AcDbCircle
 10
383.1723981775
 20
434.3708421798
 30
0.0
 40
15.0
100
AcDbArc
 50
180.0
 51
270.0
  0
LINE
  5
1EB
330
1F
100
AcDbEntity
  8
0
  6
Continuous
 62
     7
370
    15
100
AcDbLine
 10
366.9724046863
 20
437.3886108727
 30
0.0
 11
368.1723951973
 21
437.3886108727
 31
0.0
  0
LINE
  5
1EC
330
1F
100
AcDbEntity
  8
0
  6
Continuous
 62
     7
370
    15
100
AcDbLine
 10
366.9724046863
 20
435.284641418
 30
0.0
 11
368.1723951973
 21
435.284641418
 31
0.0
  0
LINE
  5
1ED
330
1F
100
AcDbEntity
  8
0
  6
Continuous
 62
     7
370
    15
100
AcDbLine
 10
366.9724046863
 20
435.284641418
 30
0.0
 11
366.9724046863
 21
437.3886108727
 31
0.0
  0
LINE
  5
1EE
330
1F
100
AcDbEntity
  8
0
  6
Continuous
 62
     7
370
    15
100
AcDbLine
 10
366.9724046863
 20
442.3708439202
 30
0.0
 11
368.1723951973
 21
442.3708439202
 31
0.0
  0
LINE
  5
1EF
330
1F
100
AcDbEntity
  8
0
  6
Continuous
 62
     7
370
    15
100
AcDbLine
 10
368.1723951973
 20
439.3708378405
 30
0.0
 11
368.1723951973
 21
442.3708439202
 31
0.0
  0
LINE
  5
1F0
330
1F
100
AcDbEntity
  8
0
  6
Continuous
 62
     7
370
    15
100
AcDbLine
 10
366.9724046863
 20
442.3708439202
 30
0.0
 11
366.9724046863
 21
437.3886108727
 31
0.0
  0
LINE
  5
1F1
330
1F
100
AcDbEntity
  8
0
  6
Continuous
 62
     7
370
    15
100
AcDbLine
 10
368.1723951973
 20
434.3708426089
 30
0.0
 11
368.1723951973
 21
430.8708429665
 31
0.0
  0
LINE
  5
1F2
330
1F
100
AcDbEntity
  8
0
  6
Continuous
 62
     7
370
    15
100
AcDbLine
 10
366.9724046863
 20
430.8708429665
 30
0.0
 11
366.9724046863
 21
435.284641418
 31
0.0
  0
LINE
  5
1F3
330
1F
100
AcDbEntity
  8
0
  6
Continuous
 62
     7
370
    15
100
AcDbLine
 10
366.8724029936
 20
433.3708405824
 30
0.0
 11
366.8724029936
 21
439.3708378405
 31
0.0
  0
ARC
  5
1F4
330
1F
100
AcDbEntity
  8
0
  6
Continuous
 62
     7
370
    15
100
AcDbCircle
 10
365.3723981775
 20
444.0708421798
 30
0.0
 40
2.800000000000068
100
AcDbArc
 50
0.0
 51
45.4024529621
  0
LINE
  5
1F5
330
1F
100
AcDbEntity
  8
0
  6
Continuous
 62
     7
370
    15
100
AcDbLine
 10
364.2647444881
 20
446.6424405904
 30
0.0
 11
363.6678635754
 21
446.2922335
 31
0.0
  0
LINE
  5
1F6
330
1F
100
AcDbEntity
  8
0
  6
Continuous
 62
     7
370
    15
100
AcDbLine
 10
360.8549415745
 20
442.6212281318
 30
0.0
 11
364.3983781017
 21
445.3402132125
 31
0.0
  0
LINE
  5
1F7
330
1F
100
AcDbEntity
  8
0
  6
Continuous
 62
     7
370
    15
100
AcDbLine
 10
360.1244270481
 20
443.5732484193
 30
0.0
 11
360.8549415745
 21
442.6212281318
 31
0.0
  0
LINE
  5
1F8
330
1F
100
AcDbEntity
  8
0
  6
Continuous
 62
     7
370
    15
100
AcDbLine
 10
363.6678635754
 20
446.2922335
 30
0.0
 11
360.1244270481
 21
443.5732484193
 31
0.0
  0
LINE
  5
1F9
330
1F
100
AcDbEntity
  8
0
  6
Continuous
 62
     7
370
    15
100
AcDbLine
 10
368.1723951973
 20
442.3708439202
 30
0.0
 11
368.1723951973
 21
443.3708459468
 31
0.0
  0
LINE
  5
1FA
330
1F
100
AcDbEntity
  8
0
  6
Continuous
 62
     7
370
    15
100
AcDbLine
 10
366.9724046863
 20
443.0117875666
 30
0.0
 11
366.9724046863
 21
442.3708439202
 31
0.0
  0
LINE
  5
1FB
330
1F
100
AcDbEntity
  8
0
  6
Continuous
 62
     7
370
    15
100
AcDbLine
 10
359.9029063858
 20
441.8907136054
 30
0.0
 11
359.1723918594
 21
442.8427338929
 31
0.0
  0
LWPOLYLINE
  5
1FC
330
1F
100
AcDbEntity
  8
0
  6
Continuous
 62
     7
370
    15
100
AcDbPolyline
 90
        9
 70
   128
 43
0.0
 10
359.1723918594
 20
442.8427338929
 10
359.1906904854
 20
442.8567707867
 10
359.2448711075
 20
442.8983450265
 10
359.3328475632
 20
442.9658472867
 10
359.4512372888
 20
443.0566996665
 10
359.5955103315
 20
443.167400393
 10
359.7600936569
 20
443.2937026353
 10
359.9386840738
 20
443.4307337136
 10
360.1244270481
 20
443.5732484193
  0
LWPOLYLINE
  5
1FD
330
1F
100
AcDbEntity
  8
0
  6
Continuous
 62
     7
370
    15
100
AcDbPolyline
 90
        9
 70
   128
 43
0.0
 10
360.8549415745
 20
442.6212281318
 10
360.6691986002
 20
442.4787134261
 10
360.4906081833
 20
442.3416674466
 10
360.3260248579
 20
442.2153801055
 10
360.1817518152
 20
442.104679379
 10
360.0633620895
 20
442.0138269992
 10
359.9753856338
 20
441.946324739
 10
359.9212050117
 20
441.9047504992
 10
359.9029063858
 20
441.8907136054
  0
ARC
  5
1FE
330
1F
100
AcDbEntity
  8
0
  6
Continuous
 62
     7
370
    15
100
AcDbCircle
 10
363.2723981775
 20
459.3908421798
 30
0.0
 40
2.200000000000049
100
AcDbArc
 50
103.5934783353
 51
268.1042765976
  0
LINE
  5
1FF
330
1F
100
AcDbEntity
  8
0
  6
Continuous
 62
     7
370
    15
100
AcDbLine
 10
359.7255676664
 20
460.7686072917
 30
0.0
 11
360.0592195667
 21
462.6608386965
 31
0.0
  0
LWPOLYLINE
  5
200
330
1F
100
AcDbEntity
  8
0
  6
Continuous
 62
     7
370
    15
100
AcDbPolyline
 90
        9
 70
   128
 43
0.0
 10
360.0592195667
 20
462.6608386965
 10
359.9149763264
 20
462.6862749786
 10
359.777945248
 20
462.7104372115
 10
359.6528350986
 20
462.7324983806
 10
359.5439821161
 20
462.7516910763
 10
359.4551562942
 20
462.7673521967
 10
359.3894272722
 20
462.7789453001
 10
359.3490600265
 20
462.7860606046
 10
359.3354403652
 20
462.7884671421
  0
LINE
  5
201
330
1F
100
AcDbEntity
  8
0
  6
Continuous
 62
     7
370
    15
100
AcDbLine
 10
359.3354403652
 20
462.7884671421
 30
0.0
 11
363.7104808964
 21
487.6005769105
 31
0.0
  0
LWPOLYLINE
  5
202
330
1F
100
AcDbEntity
  8
0
  6
Continuous
 62
     7
370
    15
100
AcDbPolyline
 90
        9
 70
   128
 43
0.0
 10
363.7104808964
 20
487.6005769105
 10
363.7256204761
 20
487.597902152
 10
363.7704580702
 20
487.589997086
 10
363.8432651438
 20
487.5771597357
 10
363.9412402786
 20
487.5598892898
 10
364.0606283821
 20
487.5388339491
 10
364.1968398966
 20
487.5148207278
 10
364.3446296133
 20
487.4887585969
 10
364.498335091
 20
487.4616533847
  0
LINE
  5
203
330
1F
100
AcDbEntity
  8
0
  6
Continuous
 62
     7
370
    15
100
AcDbLine
 10
364.498335091
 20
487.4616533847
 30
0.0
 11
359.6729963697
 21
460.0958571167
 31
0.0
  0
LINE
  5
204
330
1F
100
AcDbEntity
  8
0
  6
Continuous
 62
     7
370
    15
100
AcDbLine
 10
359.6729963697
 20
460.0958571167
 30
0.0
 11
359.7255676664
 21
460.7686072917
 31
0.0
  0
LWPOLYLINE
  5
205
330
1F
100
AcDbEntity
  8
0
  6
Continuous
 62
     7
370
    15
100
AcDbPolyline
 90
        5
 70
   128
 43
0.0
 10
362.5577866711
 20
494.4888994427
 10
362.304303018
 20
495.1853052111
 10
362.1207505144
 20
495.6896201105
 10
362.0096176542
 20
495.9949747057
 10
361.9723945536
 20
496.0972264738
  0
LWPOLYLINE
  5
206
330
1F
100
AcDbEntity
  8
0
  6
Continuous
 62
     7
370
    15
100
AcDbPolyline
 90
        5
 70
   128
 43
0.0
 10
363.3174031652
 20
494.740885529
 10
363.0605667509
 20
495.4465598197
 10
362.8745257534
 20
495.9576770992
 10
362.7618729748
 20
496.267196569
 10
362.7241581358
 20
496.3708415956
  0
LINE
  5
207
330
1F
100
AcDbEntity
  8
0
  6
Continuous
 62
     7
370
    15
100
AcDbLine
 10
363.5395049728
 20
494.3864465089
 30
0.0
 11
363.3174031652
 21
494.740885529
 31
0.0
  0
LINE
  5
208
330
1F
100
AcDbEntity
  8
0
  6
Continuous
 62
     7
370
    15
100
AcDbLine
 10
363.4573101677
 20
494.3565249772
 30
0.0
 11
363.5395049728
 21
494.3864465089
 31
0.0
  0
SPLINE
  5
209
330
1F
100
AcDbEntity
  8
0
  6
Continuous
 62
     7
370
    15
100
AcDbSpline
210
0.0
220
0.0
230
1.0
 70
     8
 71
     3
 72
    12
 73
     8
 74
     0
 42
0.00000001
 43
0.00000001
 40
0.0
 40
0.0
 40
0.0
 40
0.0
 40
0.2510219938737357
 40
0.5023977523608443
 40
0.7402766005126201
 40
0.9473072801081994
 40
1.0
 40
1.0
 40
1.0
 40
1.0
 10
362.557786671055
 20
494.4888994426572
 30
0.0
 10
362.5854955050981
 20
494.4445816968255
 30
0.0
 10
362.6409522231691
 20
494.3558837482835
 30
0.0
 10
362.8479502469522
 20
494.2808910955225
 30
0.0
 10
363.1093384239809
 20
494.2693967284443
 30
0.0
 10
363.3259213603243
 20
494.3110427827621
 30
0.0
 10
363.4351498718671
 20
494.3488538604263
 30
0.0
 10
363.4573101676828
 20
494.3565249771916
 30
0.0
  0
LINE
  5
20A
330
1F
100
AcDbEntity
  8
0
  6
Continuous
 62
     7
370
    15
100
AcDbLine
 10
363.4573101677
 20
494.3565249772
 30
0.0
 11
364.0336423792
 21
492.7730381818
 31
0.0
  0
LWPOLYLINE
  5
20B
330
1F
100
AcDbEntity
  8
0
  6
Continuous
 62
     7
370
    15
100
AcDbPolyline
 90
        9
 70
   128
 43
0.0
 10
363.2818936981
 20
492.4994230599
 10
363.2963329233
 20
492.5046831698
 10
363.3391141571
 20
492.5202548833
 10
363.4085833706
 20
492.5455347032
 10
363.5020732559
 20
492.5795615048
 10
363.6159926332
 20
492.6210239858
 10
363.7459605612
 20
492.6683351726
 10
363.8869851507
 20
492.7196622224
 10
364.0336423792
 20
492.7730381818
  0
LINE
  5
20C
330
1F
100
AcDbEntity
  8
0
  6
Continuous
 62
     7
370
    15
100
AcDbLine
 10
363.2818936981
 20
492.4994230599
 30
0.0
 11
362.5577866711
 21
494.4888994427
 31
0.0
  0
ARC
  5
20D
330
1F
100
AcDbEntity
  8
0
  6
Continuous
 62
     7
370
    15
100
AcDbCircle
 10
363.8624036837
 20
465.5598330982
 30
0.0
 40
1.600000000000037
100
AcDbArc
 50
347.034367059
 51
204.5705045339
  0
ARC
  5
20E
330
1F
100
AcDbEntity
  8
0
  6
Continuous
 62
     7
370
    15
100
AcDbCircle
 10
364.3751126489
 20
493.5829070341
 30
0.0
 40
0.5
100
AcDbArc
 50
36.8410865503
 51
90.0
  0
ARC
  5
20F
330
1F
100
AcDbEntity
  8
0
  6
Continuous
 62
     7
370
    15
100
AcDbCircle
 10
357.1723981775
 20
488.1865282257
 30
0.0
 40
9.5
100
AcDbArc
 50
0.0
 51
36.8410865502
  0
LINE
  5
210
330
1F
100
AcDbEntity
  8
0
  6
Continuous
 62
     7
370
    15
100
AcDbLine
 10
366.672399608
 20
488.1865278215
 30
0.0
 11
366.672399608
 21
460.1608410807
 31
0.0
  0
ARC
  5
211
330
1F
100
AcDbEntity
  8
0
  6
Continuous
 62
     7
370
    15
100
AcDbCircle
 10
354.354811137
 20
489.2502326481
 30
0.0
 40
10.30000000000007
100
AcDbArc
 50
350.0
 51
20.0
  0
ARC
  5
212
330
1F
100
AcDbEntity
  8
0
  6
Continuous
 62
     7
370
    15
100
AcDbCircle
 10
364.2571001033
 20
495.0829070341
 30
0.0
 40
1.0
100
AcDbArc
 50
224.1440002858
 51
270.0
  0
LINE
  5
213
330
1F
100
AcDbEntity
  8
0
  6
Continuous
 62
     7
370
    15
100
AcDbLine
 10
364.2571001924
 20
494.0829098554
 30
0.0
 11
364.3751173891
 21
494.0829098554
 31
0.0
  0
LWPOLYLINE
  5
214
330
1F
100
AcDbEntity
  8
0
  6
Continuous
 62
     7
370
    15
100
AcDbPolyline
 90
        3
 70
   128
 43
0.0
 10
366.672399608
 20
460.1608410807
 10
366.4637833513
 20
458.9705586762
 10
366.1076157965
 20
458.2544014187
  0
ARC
  5
215
330
1F
100
AcDbEntity
  8
0
  6
Continuous
 62
     7
370
    15
100
AcDbCircle
 10
363.1723981775
 20
460.1608421798
 30
0.0
 40
3.500000000000005
100
AcDbArc
 50
181.0639402281
 51
271.3221928089
  0
ARC
  5
216
330
1F
100
AcDbEntity
  8
0
  6
Continuous
 62
     7
370
    15
100
AcDbCircle
 10
354.354811137
 20
489.2502326481
 30
0.0
 40
9.500000000000028
100
AcDbArc
 50
350.0
 51
20.0
  0
ARC
  5
217
330
1F
100
AcDbEntity
  8
0
  6
Continuous
 62
     7
370
    15
100
AcDbCircle
 10
363.7660159709
 20
460.8583377066
 30
0.0
 40
4.69842830268836
100
AcDbArc
 50
170.0
 51
264.3261771657
  0
LINE
  5
218
330
1F
100
AcDbEntity
  8
0
  6
Continuous
 62
     7
370
    15
100
AcDbLine
 10
359.3354403652
 20
462.7884671421
 30
0.0
 11
359.1389685549
 21
461.6742104621
 31
0.0
  0
SPLINE
  5
219
330
1F
100
AcDbEntity
  8
0
  6
Continuous
 62
     7
370
    15
100
AcDbSpline
210
0.0
220
0.0
230
1.0
 70
     8
 71
     3
 72
    12
 73
     8
 74
     0
 42
0.00000001
 43
0.00000001
 40
0.0
 40
0.0
 40
0.0
 40
0.0
 40
0.2340518048260158
 40
0.4681083238238113
 40
0.7021649540123228
 40
0.9362191112700744
 40
0.9999999999999999
 40
0.9999999999999999
 40
0.9999999999999999
 40
0.9999999999999999
 10
364.4693821348077
 20
461.0479593605839
 30
0.0
 10
364.2729892727087
 20
461.0285764550169
 30
0.0
 10
363.8801995928494
 20
460.9898102534805
 30
0.0
 10
363.3427008948217
 20
460.9845725338851
 30
0.0
 10
362.9691984291545
 20
461.0230383908939
 30
0.0
 10
362.7900058251493
 20
461.0777024893889
 30
0.0
 10
362.8187249340262
 20
461.121657659288
 30
0.0
 10
362.8248750842935
 20
461.1310705871426
 30
0.0
  0
SPLINE
  5
21A
330
1F
100
AcDbEntity
  8
0
  6
Continuous
 62
     7
370
    15
100
AcDbSpline
210
0.0
220
0.0
230
1.0
 70
     8
 71
     3
 72
    11
 73
     7
 74
     0
 42
0.00000001
 43
0.00000001
 40
0.0
 40
0.0
 40
0.0
 40
0.0
 40
0.1986868986185168
 40
0.4657930972863268
 40
0.7328953533015765
 40
1.0
 40
1.0
 40
1.0
 40
1.0
 10
365.7652914203531
 20
461.4268437356793
 30
0.0
 10
365.7641085614224
 20
461.4023538509746
 30
0.0
 10
365.7613355173576
 20
461.3449408090072
 30
0.0
 10
365.4917974863981
 20
461.2378488453036
 30
0.0
 10
365.0447468823217
 20
461.1270421920104
 30
0.0
 10
364.6611709561721
 20
461.0743203830397
 30
0.0
 10
364.4693821348077
 20
461.0479593605839
 30
0.0
  0
SPLINE
  5
21B
330
1F
100
AcDbEntity
  8
0
  6
Continuous
 62
     7
370
    15
100
AcDbSpline
210
0.0
220
0.0
230
1.0
 70
     8
 71
     3
 72
    12
 73
     8
 74
     0
 42
0.00000001
 43
0.00000001
 40
0.0
 40
0.0
 40
0.0
 40
0.0
 40
0.2339657516696391
 40
0.4679297819275171
 40
0.7018962886551927
 40
0.935865542599682
 40
1.0
 40
1.0
 40
1.0
 40
1.0
 10
363.8623982347376
 20
467.0598328442418
 30
0.0
 10
363.6663180622118
 20
467.0373268264519
 30
0.0
 10
363.2741591598277
 20
466.992314956461
 30
0.0
 10
362.7712269372534
 20
466.6448258457908
 30
0.0
 10
362.4514138056096
 20
466.1513369450782
 30
0.0
 10
362.3234856602717
 20
465.6977512339817
 30
0.0
 10
362.3812767316689
 20
465.4547587435512
 30
0.0
 10
362.3937099851495
 20
465.4024809927785
 30
0.0
  0
SPLINE
  5
21C
330
1F
100
AcDbEntity
  8
0
  6
Continuous
 62
     7
370
    15
100
AcDbSpline
210
0.0
220
0.0
230
1.0
 70
     8
 71
     3
 72
    11
 73
     7
 74
     0
 42
0.00000001
 43
0.00000001
 40
0.0
 40
0.0
 40
0.0
 40
0.0
 40
0.197688317045171
 40
0.4651245499065082
 40
0.732557952030392
 40
1.0
 40
1.0
 40
1.0
 40
1.0
 10
365.3326213039285
 20
465.7095417709195
 30
0.0
 10
365.314341109075
 20
465.8542927606074
 30
0.0
 10
365.2713311450543
 20
466.1948654354799
 30
0.0
 10
364.9458719343801
 20
466.6446383410571
 30
0.0
 10
364.4525761777612
 20
466.9923648567955
 30
0.0
 10
364.0591263356823
 20
467.037343272746
 30
0.0
 10
363.8623982347376
 20
467.0598328442418
 30
0.0
  0
SPLINE
  5
21D
330
1F
100
AcDbEntity
  8
0
  6
Continuous
 62
     7
370
    15
100
AcDbSpline
210
0.0
220
0.0
230
1.0
 70
     8
 71
     3
 72
    12
 73
     8
 74
     0
 42
0.00000001
 43
0.00000001
 40
0.0
 40
0.0
 40
0.0
 40
0.0
 40
0.2350176793872489
 40
0.4700291397670341
 40
0.7050458845177425
 40
0.9400624323235348
 40
1.0
 40
1.0
 40
1.0
 40
1.0
 10
366.0384595073587
 20
445.5069870085561
 30
0.0
 10
365.8420687282549
 20
445.4876090542201
 30
0.0
 10
365.4492923669148
 20
445.448853658325
 30
0.0
 10
364.9116845714371
 20
445.4435852660419
 30
0.0
 10
364.538618938848
 20
445.4821110056123
 30
0.0
 10
364.3595775414473
 20
445.5362317995541
 30
0.0
 10
364.3874781225524
 20
445.5795331821001
 30
0.0
 10
364.39314779414
 20
445.5883324475132
 30
0.0
  0
SPLINE
  5
21E
330
1F
100
AcDbEntity
  8
0
  6
Continuous
 62
     7
370
    15
100
AcDbSpline
210
0.0
220
0.0
230
1.0
 70
     8
 71
     3
 72
    11
 73
     7
 74
     0
 42
0.00000001
 43
0.00000001
 40
0.0
 40
0.0
 40
0.0
 40
0.0
 40
0.1989239597362801
 40
0.465950584310487
 40
0.7329742733226847
 40
1.0
 40
1.0
 40
1.0
 40
1.0
 10
367.3344134963876
 20
445.8859831423604
 30
0.0
 10
367.3332397089516
 20
445.8614568642523
 30
0.0
 10
367.3304902817717
 20
445.8040076076088
 30
0.0
 10
367.0608834030883
 20
445.6968896903365
 30
0.0
 10
366.6138223719357
 20
445.5860665789915
 30
0.0
 10
366.2302476167274
 20
445.5333469324185
 30
0.0
 10
366.0384595073587
 20
445.5069870085561
 30
0.0
  0
LINE
  5
21F
330
1F
100
AcDbEntity
  8
0
  6
Continuous
 62
     7
370
    15
100
AcDbLine
 10
364.5615309156
 20
443.9045608373
 30
0.0
 11
364.5605325378
 21
444.108095798
 31
0.0
  0
ARC
  5
220
330
1F
100
AcDbEntity
  8
0
  6
Continuous
 62
     7
370
    15
100
AcDbCircle
 10
367.2396873705
 20
455.8086178211
 30
0.0
 40
0.4000075274666111
100
AcDbArc
 50
0.1467585748
 51
179.5021275156
  0
ELLIPSE
  5
221
330
1F
100
AcDbEntity
  8
0
  6
Continuous
 62
     7
370
    15
100
AcDbEllipse
 10
367.2396975778
 20
455.543733786
 30
0.0
 11
0.3991830274372887
 21
-0.02624604221148274
 31
0.0
210
0.0
220
0.0
230
0.9999999999999998
 40
0.9763157485
 41
0.0
 42
6.283185307179586
  0
SPLINE
  5
222
330
1F
100
AcDbEntity
  8
0
  6
Continuous
 62
     7
370
    15
100
AcDbSpline
210
0.0
220
0.0
230
1.0
 70
     8
 71
     3
 72
    13
 73
     9
 74
     0
 42
0.00000001
 43
0.00000001
 40
0.0
 40
0.0
 40
0.0
 40
0.0
 40
0.0081702280425704
 40
0.2391539873185931
 40
0.4710971973866074
 40
0.6931205590767906
 40
0.9042225733627326
 40
1.0
 40
1.0
 40
1.0
 40
1.0
 10
367.2397017158395
 20
456.2725693316304
 30
0.0
 10
367.2380428148651
 20
456.272174535565
 30
0.0
 10
367.1894844661227
 20
456.2606183032627
 30
0.0
 10
367.0933509814374
 20
456.2374253724657
 30
0.0
 10
366.9705185055507
 20
456.1937679630608
 30
0.0
 10
366.8848663121051
 20
456.1563286179109
 30
0.0
 10
366.8408484847319
 20
456.1351789111461
 30
0.0
 10
366.844080461451
 20
456.130200297338
 30
0.0
 10
366.8450891651041
 20
456.1286464662396
 30
0.0
  0
SPLINE
  5
223
330
1F
100
AcDbEntity
  8
0
  6
Continuous
 62
     7
370
    15
100
AcDbSpline
210
0.0
220
0.0
230
1.0
 70
     8
 71
     3
 72
    13
 73
     9
 74
     0
 42
0.00000001
 43
0.00000001
 40
0.0
 40
0.0
 40
0.0
 40
0.0
 40
0.1252296646732068
 40
0.2499794552566222
 40
0.4999947492888411
 40
0.7499963880864888
 40
0.8747535995357313
 40
1.0
 40
1.0
 40
1.0
 40
1.0
 10
367.6397084869272
 20
456.2668770880543
 30
0.0
 10
367.6379940556589
 20
456.2668999313044
 30
0.0
 10
367.6345717627411
 20
456.2669455302703
 30
0.0
 10
367.6001931068458
 20
456.2674406478818
 30
0.0
 10
367.5249122347272
 20
456.2685087254082
 30
0.0
 10
367.4162636417788
 20
456.2700609677441
 30
0.0
 10
367.3175525608826
 20
456.2714574100597
 30
0.0
 10
367.2656858272136
 20
456.2721982079269
 30
0.0
 10
367.2397017158395
 20
456.2725693316304
 30
0.0
  0
SPLINE
  5
224
330
1F
100
AcDbEntity
  8
0
  6
Continuous
 62
     7
370
    15
100
AcDbSpline
210
0.0
220
0.0
230
1.0
 70
     8
 71
     3
 72
    10
 73
     6
 74
     0
 42
0.00000001
 43
0.00000001
 40
0.0
 40
0.0
 40
0.0
 40
0.0
 40
0.0190107309040389
 40
0.5253203859619627
 40
1.0
 40
1.0
 40
1.0
 40
1.0
 10
367.2397017158395
 20
456.2725693316304
 30
0.0
 10
367.2412260658203
 20
456.2733070284308
 30
0.0
 10
367.2833481769746
 20
456.2936916822289
 30
0.0
 10
367.3658670109992
 20
456.3321064175196
 30
0.0
 10
367.4360225856722
 20
456.3582110293444
 30
0.0
 10
367.4699693597681
 20
456.3708424897038
 30
0.0
  0
LINE
  5
225
330
1F
100
AcDbEntity
  8
0
  6
Continuous
 62
     7
370
    15
100
AcDbLine
 10
362.3631775059
 20
465.5118033619
 30
0.0
 11
362.3756348766
 21
465.3610334129
 31
0.0
  0
LINE
  5
226
330
1F
100
AcDbEntity
  8
0
  6
Continuous
 62
     7
370
    15
100
AcDbLine
 10
365.3554051794
 20
465.7045424313
 30
0.0
 11
365.3198212065
 21
465.9147009582
 31
0.0
  0
LINE
  5
227
330
1F
100
AcDbEntity
  8
0
  6
Continuous
 62
     7
370
    15
100
AcDbLine
 10
753.1724005617
 20
564.3708424972
 30
0.0
 11
753.1724005617
 21
579.3708421619
 31
0.0
  0
LINE
  5
228
330
1F
100
AcDbEntity
  8
0
  6
Continuous
 62
     7
370
    15
100
AcDbLine
 10
383.1723957933
 20
564.3708424972
 30
0.0
 11
753.1724005617
 21
564.3708424972
 31
0.0
  0
LINE
  5
229
330
1F
100
AcDbEntity
  8
0
  6
Continuous
 62
     7
370
    15
100
AcDbLine
 10
383.1723957933
 20
564.3708424972
 30
0.0
 11
383.1723957933
 21
579.3708421619
 31
0.0
  0
LINE
  5
22A
330
1F
100
AcDbEntity
  8
0
  6
Continuous
 62
     7
370
    15
100
AcDbLine
 10
383.1723957933
 20
579.3708421619
 30
0.0
 11
753.1724005617
 21
579.3708421619
 31
0.0
  0
LINE
  5
22B
330
1F
100
AcDbEntity
  8
0
  6
Continuous
 62
     7
370
    15
100
AcDbLine
 10
383.1723957933
 20
564.3708424972
 30
0.0
 11
368.1723951973
 21
564.3708424972
 31
0.0
  0
ARC
  5
22C
330
1F
100
AcDbEntity
  8
0
  6
Continuous
 62
     7
370
    15
100
AcDbCircle
 10
383.1723981775
 20
564.3708421798
 30
0.0
 40
15.0
100
AcDbArc
 50
90.0
 51
180.0
  0
LINE
  5
22D
330
1F
100
AcDbEntity
  8
0
  6
Continuous
 62
     7
370
    15
100
AcDbLine
 10
753.1724005617
 20
564.3708424972
 30
0.0
 11
768.1724011577
 21
564.3708424972
 31
0.0
  0
ARC
  5
22E
330
1F
100
AcDbEntity
  8
0
  6
Continuous
 62
     7
370
    15
100
AcDbCircle
 10
753.1723981775
 20
564.3708421798
 30
0.0
 40
15.0
100
AcDbArc
 50
0.0
 51
90.0
  0
LINE
  5
22F
330
1F
100
AcDbEntity
  8
0
  6
Continuous
 62
     7
370
    15
100
AcDbLine
 10
368.1723951973
 20
443.3708459468
 30
0.0
 11
368.1723951973
 21
564.3708424972
 31
0.0
  0
LINE
  5
230
330
1F
100
AcDbEntity
  8
0
  6
Continuous
 62
     7
370
    15
100
AcDbLine
 10
383.1723957933
 20
443.3708459468
 30
0.0
 11
383.1723957933
 21
564.3708424972
 31
0.0
  0
LINE
  5
231
330
1F
100
AcDbEntity
  8
0
  6
Continuous
 62
     7
370
    15
100
AcDbLine
 10
383.1723957933
 20
443.3708459468
 30
0.0
 11
368.1723951973
 21
443.3708459468
 31
0.0
  0
LINE
  5
232
330
1F
100
AcDbEntity
  8
0
  6
Continuous
 62
     7
370
    15
100
AcDbLine
 10
753.1724005617
 20
443.3708459468
 30
0.0
 11
753.1724005617
 21
564.3708424972
 31
0.0
  0
LINE
  5
233
330
1F
100
AcDbEntity
  8
0
  6
Continuous
 62
     7
370
    15
100
AcDbLine
 10
768.1724011577
 20
443.3708459468
 30
0.0
 11
768.1724011577
 21
564.3708424972
 31
0.0
  0
LINE
  5
234
330
1F
100
AcDbEntity
  8
0
  6
Continuous
 62
     7
370
    15
100
AcDbLine
 10
768.1724011577
 20
443.3708459468
 30
0.0
 11
753.1724005617
 21
443.3708459468
 31
0.0
  0
LINE
  5
235
330
1F
100
AcDbEntity
  8
0
  6
Continuous
 62
     7
370
    15
100
AcDbLine
 10
383.1723957933
 20
443.3708459468
 30
0.0
 11
753.1724005617
 21
443.3708459468
 31
0.0
  0
LINE
  5
236
330
1F
100
AcDbEntity
  8
0
  6
Continuous
 62
     7
370
    15
100
AcDbLine
 10
388.172391025
 20
463.3708417744
 30
0.0
 11
388.172391025
 21
559.3708426089
 31
0.0
  0
LINE
  5
237
330
1F
100
AcDbEntity
  8
0
  6
Continuous
 62
     7
370
    15
100
AcDbLine
 10
388.172391025
 20
463.3708417744
 30
0.0
 11
748.1724053301
 21
463.3708417744
 31
0.0
  0
LINE
  5
238
330
1F
100
AcDbEntity
  8
0
  6
Continuous
 62
     7
370
    15
100
AcDbLine
 10
748.1724053301
 20
559.3708426089
 30
0.0
 11
748.1724053301
 21
463.3708417744
 31
0.0
  0
LINE
  5
239
330
1F
100
AcDbEntity
  8
0
  6
Continuous
 62
     7
370
    15
100
AcDbLine
 10
748.1724053301
 20
559.3708426089
 30
0.0
 11
388.172391025
 21
559.3708426089
 31
0.0
  0
LINE
  5
23A
330
1F
100
AcDbEntity
  8
0
  6
Continuous
 62
     7
370
    15
100
AcDbLine
 10
388.172391025
 20
439.3708378405
 30
0.0
 11
388.172391025
 21
443.3708459468
 31
0.0
  0
LINE
  5
23B
330
1F
100
AcDbEntity
  8
0
  6
Continuous
 62
     7
370
    15
100
AcDbLine
 10
373.1724053301
 20
439.3708378405
 30
0.0
 11
373.1724053301
 21
443.3708459468
 31
0.0
  0
LINE
  5
23C
330
1F
100
AcDbEntity
  8
0
  6
Continuous
 62
     7
370
    15
100
AcDbLine
 10
748.1724053301
 20
439.3708378405
 30
0.0
 11
748.1724053301
 21
443.3708459468
 31
0.0
  0
LINE
  5
23D
330
1F
100
AcDbEntity
  8
0
  6
Continuous
 62
     7
370
    15
100
AcDbLine
 10
763.172391025
 20
439.3708378405
 30
0.0
 11
763.172391025
 21
443.3708459468
 31
0.0
  0
LINE
  5
23E
330
1F
100
AcDbEntity
  8
0
  6
Continuous
 62
     7
370
    15
100
AcDbLine
 10
768.1724011577
 20
443.3708459468
 30
0.0
 11
768.8397198595
 21
443.3708459468
 31
0.0
  0
ARC
  5
23F
330
1F
100
AcDbEntity
  8
0
  6
Continuous
 62
     7
370
    15
100
AcDbCircle
 10
768.8397159256
 20
443.8708421798
 30
0.0
 40
0.5
100
AcDbArc
 50
270.0
 51
332.720387264
  0
ARC
  5
240
330
1F
100
AcDbEntity
  8
0
  6
Continuous
 62
     7
370
    15
100
AcDbCircle
 10
774.1723981775
 20
441.1208421798
 30
0.0
 40
5.500000000000089
100
AcDbArc
 50
202.024312837
 51
152.720387264
  0
ARC
  5
241
330
1F
100
AcDbEntity
  8
0
  6
Continuous
 62
     7
370
    15
100
AcDbCircle
 10
768.6102493122
 20
438.8708421798
 30
0.0
 40
0.5
100
AcDbArc
 50
22.024312837
 51
90.0
  0
LINE
  5
242
330
1F
100
AcDbEntity
  8
0
  6
Continuous
 62
     7
370
    15
100
AcDbLine
 10
768.6102419771
 20
439.3708378405
 30
0.0
 11
768.1724011577
 21
439.3708378405
 31
0.0
  0
LINE
  5
243
330
1F
100
AcDbEntity
  8
0
  6
Continuous
 62
     7
370
    15
100
AcDbLine
 10
368.1723951973
 20
464.570839736
 30
0.0
 11
367.8724050201
 21
464.570839736
 31
0.0
  0
LINE
  5
244
330
1F
100
AcDbEntity
  8
0
  6
Continuous
 62
     7
370
    15
100
AcDbLine
 10
367.8724050201
 20
462.5708431334
 30
0.0
 11
368.1723951973
 21
462.5719011159
 31
0.0
  0
LINE
  5
245
330
1F
100
AcDbEntity
  8
0
  6
Continuous
 62
     7
370
    15
100
AcDbLine
 10
367.8724050201
 20
462.5708431334
 30
0.0
 11
367.8724050201
 21
464.570839736
 31
0.0
  0
LINE
  5
246
330
1F
100
AcDbEntity
  8
0
  6
Continuous
 62
     7
370
    15
100
AcDbLine
 10
367.8724050201
 20
456.3708424897
 30
0.0
 11
367.8724050201
 21
462.5708431334
 31
0.0
  0
LINE
  5
247
330
1F
100
AcDbEntity
  8
0
  6
Continuous
 62
     7
370
    15
100
AcDbLine
 10
368.1723951973
 20
456.3708424897
 30
0.0
 11
367.8724050201
 21
456.3708424897
 31
0.0
  0
ARC
  5
248
330
1F
100
AcDbEntity
  8
0
  6
Continuous
 62
     7
370
    15
100
AcDbCircle
 10
362.9723981775
 20
459.4708421798
 30
0.0
 40
3.100000000000009
100
AcDbArc
 50
192.3149192898
 51
270.0
  0
LINE
  5
249
330
1F
100
AcDbEntity
  8
0
  6
Continuous
 62
     7
370
    15
100
AcDbLine
 10
367.8724050201
 20
462.5708431334
 30
0.0
 11
366.672399608
 21
462.5708431334
 31
0.0
  0
LINE
  5
24A
330
1F
100
AcDbEntity
  8
0
  6
Continuous
 62
     7
370
    15
100
AcDbLine
 10
362.9723965801
 20
456.3708424897
 30
0.0
 11
363.282534448
 21
456.3708424897
 31
0.0
  0
LINE
  5
24B
330
1F
100
AcDbEntity
  8
0
  6
Continuous
 62
     7
370
    15
100
AcDbLine
 10
366.2977844156
 20
456.3708424897
 30
0.0
 11
367.8724050201
 21
456.3708424897
 31
0.0
  0
LINE
  5
24C
330
1F
100
AcDbEntity
  8
0
  6
Continuous
 62
     7
370
    15
100
AcDbLine
 10
367.8724050201
 20
464.570839736
 30
0.0
 11
367.8724050201
 21
488.6208445163
 31
0.0
  0
LINE
  5
24D
330
1F
100
AcDbEntity
  8
0
  6
Continuous
 62
     7
370
    15
100
AcDbLine
 10
367.8724050201
 20
495.3708395691
 30
0.0
 11
367.8724050201
 21
488.6208445163
 31
0.0
  0
LINE
  5
24E
330
1F
100
AcDbEntity
  8
0
  6
Continuous
 62
     7
370
    15
100
AcDbLine
 10
367.7724033274
 20
488.3708402843
 30
0.0
 11
367.7724033274
 21
494.3708449931
 31
0.0
  0
LINE
  5
24F
330
1F
100
AcDbEntity
  8
0
  6
Continuous
 62
     7
370
    15
100
AcDbLine
 10
367.7724033274
 20
465.3708458276
 30
0.0
 11
367.7724033274
 21
471.3708430858
 31
0.0
  0
LINE
  5
250
330
1F
100
AcDbEntity
  8
0
  6
Continuous
 62
     7
370
    15
100
AcDbLine
 10
367.8724050201
 20
479.3708443971
 30
0.0
 11
366.672399608
 21
479.6923816533
 31
0.0
  0
LINE
  5
251
330
1F
100
AcDbEntity
  8
0
  6
Continuous
 62
     7
370
    15
100
AcDbLine
 10
366.672399608
 20
480.7276547284
 30
0.0
 11
367.8724050201
 21
480.4061174722
 31
0.0
  0
LINE
  5
252
330
1F
100
AcDbEntity
  8
0
  6
Continuous
 62
     8
370
    15
100
AcDbLine
 10
368.1723951973
 20
488.6208445163
 30
0.0
 11
367.8724050201
 21
488.6208445163
 31
0.0
  0
ENDSEC
  0
SECTION
  2
OBJECTS
  0
DICTIONARY
  5
C
330
0
100
AcDbDictionary
281
     1
  3
ACAD_GROUP
350
D
  3
ACAD_LAYOUT
350
1A
  3
ACAD_MLINESTYLE
350
17
  3
ACAD_PLOTSETTINGS
350
19
  3
ACAD_PLOTSTYLENAME
350
E
  0
DICTIONARY
  5
D
102
{ACAD_REACTORS
330
C
102
}
330
C
100
AcDbDictionary
281
     1
  0
DICTIONARY
  5
1A
102
{ACAD_REACTORS
330
C
102
}
330
C
100
AcDbDictionary
281
     1
  3
Layout1
350
1E
  3
Layout2
350
26
  3
Model
350
22
  0
DICTIONARY
  5
17
102
{ACAD_REACTORS
330
C
102
}
330
C
100
AcDbDictionary
281
     1
  3
Standard
350
18
  0
DICTIONARY
  5
19
102
{ACAD_REACTORS
330
C
102
}
330
C
100
AcDbDictionary
281
     1
  0
ACDBDICTIONARYWDFLT
  5
E
102
{ACAD_REACTORS
330
C
102
}
330
C
100
AcDbDictionary
281
     1
  3
Normal
350
F
100
AcDbDictionaryWithDefault
340
F
  0
LAYOUT
  5
1E
102
{ACAD_REACTORS
330
1A
102
}
330
1A
100
AcDbPlotSettings
  1

  2
none_device
  4

  6

 40
0.0
 41
0.0
 42
0.0
 43
0.0
 44
0.0
 45
0.0
 46
0.0
 47
0.0
 48
0.0
 49
0.0
140
0.0
141
0.0
142
1.0
143
1.0
 70
   688
 72
     0
 73
     0
 74
     5
  7

 75
    16
147
1.0
148
0.0
149
0.0
100
AcDbLayout
  1
Layout1
 70
     1
 71
     1
 10
0.0
 20
0.0
 11
420.0
 21
297.0
 12
0.0
 22
0.0
 32
0.0
 14
1.0000000000E+20
 24
1.0000000000E+20
 34
1.0000000000E+20
 15
-1.0000000000E+20
 25
-1.0000000000E+20
 35
-1.0000000000E+20
146
0.0
 13
0.0
 23
0.0
 33
0.0
 16
1.0
 26
0.0
 36
0.0
 17
0.0
 27
1.0
 37
0.0
 76
     0
330
1B
  0
LAYOUT
  5
26
102
{ACAD_REACTORS
330
1A
102
}
330
1A
100
AcDbPlotSettings
  1

  2
none_device
  4

  6

 40
0.0
 41
0.0
 42
0.0
 43
0.0
 44
0.0
 45
0.0
 46
0.0
 47
0.0
 48
0.0
 49
0.0
140
0.0
141
0.0
142
1.0
143
1.0
 70
   688
 72
     0
 73
     0
 74
     5
  7

 75
    16
147
1.0
148
0.0
149
0.0
100
AcDbLayout
  1
Layout2
 70
     1
 71
     2
 10
0.0
 20
0.0
 11
0.0
 21
0.0
 12
0.0
 22
0.0
 32
0.0
 14
0.0
 24
0.0
 34
0.0
 15
0.0
 25
0.0
 35
0.0
146
0.0
 13
0.0
 23
0.0
 33
0.0
 16
1.0
 26
0.0
 36
0.0
 17
0.0
 27
1.0
 37
0.0
 76
     0
330
23
  0
LAYOUT
  5
22
102
{ACAD_REACTORS
330
1A
102
}
330
1A
100
AcDbPlotSettings
  1

  2
none_device
  4

  6

 40
0.0
 41
0.0
 42
0.0
 43
0.0
 44
0.0
 45
0.0
 46
0.0
 47
0.0
 48
0.0
 49
0.0
140
0.0
141
0.0
142
1.0
143
1.0
 70
  1712
 72
     0
 73
     0
 74
     0
  7

 75
     0
147
1.0
148
0.0
149
0.0
100
AcDbLayout
  1
Model
 70
     1
 71
     0
 10
0.0
 20
0.0
 11
840.0
 21
594.0
 12
0.0
 22
0.0
 32
0.0
 14
0.0
 24
0.0
 34
0.0
 15
840.0
 25
594.0
 35
0.0
146
0.0
 13
0.0
 23
0.0
 33
0.0
 16
1.0
 26
0.0
 36
0.0
 17
0.0
 27
1.0
 37
0.0
 76
     0
330
1F
331
29
  0
MLINESTYLE
  5
18
102
{ACAD_REACTORS
330
17
102
}
330
17
100
AcDbMlineStyle
  2
Standard
 70
     0
  3

 62
   256
 51
90.0
 52
90.0
 71
     2
 49
0.5
 62
   256
  6
BYLAYER
 49
-0.5
 62
   256
  6
BYLAYER
  0
ACDBPLACEHOLDER
  5
F
102
{ACAD_REACTORS
330
E
102
}
330
E
  0
ENDSEC
  0
EOF
