  0
SECTION
  2
HEADER
  9
$ACADVER
  1
AC1015
  9
$ACADMAINTVER
 70
     6
  9
$DWGCODEPAGE
  3
DOS932
  9
$INSBASE
 10
0.0
 20
0.0
 30
0.0
  9
$EXTMIN
 10
0.0
 20
0.0
 30
0.0
  9
$EXTMAX
 10
840.0
 20
594.0
 30
0.0
  9
$LIMMIN
 10
0.0
 20
0.0
  9
$LIMMAX
 10
840.0
 20
594.0
  9
$ORTHOMODE
 70
     0
  9
$REGENMODE
 70
     1
  9
$FILLMODE
 70
     1
  9
$QTEXTMODE
 70
     0
  9
$MIRRTEXT
 70
     1
  9
$LTSCALE
 40
2.0
  9
$ATTMODE
 70
     1
  9
$TEXTSIZE
 40
7.0
  9
$TRACEWID
 40
1.0
  9
$TEXTSTYLE
  7
Standard
  9
$CLAYER
  8
0
  9
$CELTYPE
  6
ByLayer
  9
$CECOLOR
 62
   256
  9
$CELTSCALE
 40
1.0
  9
$DISPSILH
 70
     0
  9
$DIMSCALE
 40
1.0
  9
$DIMASZ
 40
6.0
  9
$DIMEXO
 40
2.0
  9
$DIMDLI
 40
3.75
  9
$DIMRND
 40
0.0
  9
$DIMDLE
 40
0.0
  9
$DIMEXE
 40
2.0
  9
$DIMTP
 40
0.0
  9
$DIMTM
 40
0.0
  9
$DIMTXT
 40
7.0
  9
$DIMCEN
 40
2.5
  9
$DIMTSZ
 40
0.0
  9
$DIMTOL
 70
     0
  9
$DIMLIM
 70
     0
  9
$DIMTIH
 70
     1
  9
$DIMTOH
 70
     1
  9
$DIMSE1
 70
     0
  9
$DIMSE2
 70
     0
  9
$DIMTAD
 70
     1
  9
$DIMZIN
 70
     0
  9
$DIMBLK
  1

  9
$DIMASO
 70
     1
  9
$DIMSHO
 70
     1
  9
$DIMPOST
  1

  9
$DIMAPOST
  1

  9
$DIMALT
 70
     0
  9
$DIMALTD
 70
     3
  9
$DIMALTF
 40
0.0393700787
  9
$DIMLFAC
 40
1.0
  9
$DIMTOFL
 70
     1
  9
$DIMTVP
 40
0.0
  9
$DIMTIX
 70
     0
  9
$DIMSOXD
 70
     0
  9
$DIMSAH
 70
     0
  9
$DIMBLK1
  1

  9
$DIMBLK2
  1

  9
$DIMSTYLE
  2
ISO-25
  9
$DIMCLRD
 70
     0
  9
$DIMCLRE
 70
     0
  9
$DIMCLRT
 70
     0
  9
$DIMTFAC
 40
1.0
  9
$DIMGAP
 40
3.048
  9
$DIMJUST
 70
     0
  9
$DIMSD1
 70
     0
  9
$DIMSD2
 70
     0
  9
$DIMTOLJ
 70
     0
  9
$DIMTZIN
 70
     0
  9
$DIMALTZ
 70
     0
  9
$DIMALTTZ
 70
     0
  9
$DIMUPT
 70
     0
  9
$DIMDEC
 70
     1
  9
$DIMTDEC
 70
     1
  9
$DIMALTU
 70
     2
  9
$DIMALTTD
 70
     3
  9
$DIMTXSTY
  7
Standard
  9
$DIMAUNIT
 70
     0
  9
$DIMADEC
 70
     2
  9
$DIMALTRND
 40
0.0
  9
$DIMAZIN
 70
     0
  9
$DIMDSEP
 70
    44
  9
$DIMATFIT
 70
     3
  9
$DIMFRAC
 70
     0
  9
$DIMLDRBLK
  1

  9
$DIMLUNIT
 70
     2
  9
$DIMLWD
 70
    -2
  9
$DIMLWE
 70
    -2
  9
$DIMTMOVE
 70
     0
  9
$LUNITS
 70
     2
  9
$LUPREC
 70
     1
  9
$SKETCHINC
 40
1.0
  9
$FILLETRAD
 40
10.0
  9
$AUNITS
 70
     0
  9
$AUPREC
 70
     2
  9
$MENU
  1
.
  9
$ELEVATION
 40
0.0
  9
$PELEVATION
 40
0.0
  9
$THICKNESS
 40
0.0
  9
$LIMCHECK
 70
     0
  9
$CHAMFERA
 40
10.0
  9
$CHAMFERB
 40
10.0
  9
$CHAMFERC
 40
20.0
  9
$CHAMFERD
 40
0.0
  9
$SKPOLY
 70
     0
  9
$TDCREATE
 40
2460452.693834051
  9
$TDUCREATE
 40
2460452.318834051
  9
$TDUPDATE
 40
2460452.693834063
  9
$TDUUPDATE
 40
2460452.318834063
  9
$TDINDWG
 40
0.0000000116
  9
$TDUSRTIMER
 40
0.0000000116
  9
$USRTIMER
 70
     1
  9
$ANGBASE
 50
0.0
  9
$ANGDIR
 70
     0
  9
$PDMODE
 70
     0
  9
$PDSIZE
 40
-1.0
  9
$PLINEWID
 40
0.0
  9
$SPLFRAME
 70
     0
  9
$SPLINETYPE
 70
     6
  9
$SPLINESEGS
 70
     8
  9
$HANDSEED
  5
364
  9
$SURFTAB1
 70
     6
  9
$SURFTAB2
 70
     6
  9
$SURFTYPE
 70
     6
  9
$SURFU
 70
     6
  9
$SURFV
 70
     6
  9
$UCSBASE
  2

  9
$UCSNAME
  2

  9
$UCSORG
 10
0.0
 20
0.0
 30
0.0
  9
$UCSXDIR
 10
1.0
 20
0.0
 30
0.0
  9
$UCSYDIR
 10
0.0
 20
1.0
 30
0.0
  9
$UCSORTHOREF
  2

  9
$UCSORTHOVIEW
 70
     0
  9
$UCSORGTOP
 10
0.0
 20
0.0
 30
0.0
  9
$UCSORGBOTTOM
 10
0.0
 20
0.0
 30
0.0
  9
$UCSORGLEFT
 10
0.0
 20
0.0
 30
0.0
  9
$UCSORGRIGHT
 10
0.0
 20
0.0
 30
0.0
  9
$UCSORGFRONT
 10
0.0
 20
0.0
 30
0.0
  9
$UCSORGBACK
 10
0.0
 20
0.0
 30
0.0
  9
$PUCSBASE
  2

  9
$PUCSNAME
  2

  9
$PUCSORG
 10
0.0
 20
0.0
 30
0.0
  9
$PUCSXDIR
 10
1.0
 20
0.0
 30
0.0
  9
$PUCSYDIR
 10
0.0
 20
1.0
 30
0.0
  9
$PUCSORTHOREF
  2

  9
$PUCSORTHOVIEW
 70
     0
  9
$PUCSORGTOP
 10
0.0
 20
0.0
 30
0.0
  9
$PUCSORGBOTTOM
 10
0.0
 20
0.0
 30
0.0
  9
$PUCSORGLEFT
 10
0.0
 20
0.0
 30
0.0
  9
$PUCSORGRIGHT
 10
0.0
 20
0.0
 30
0.0
  9
$PUCSORGFRONT
 10
0.0
 20
0.0
 30
0.0
  9
$PUCSORGBACK
 10
0.0
 20
0.0
 30
0.0
  9
$USERI1
 70
     0
  9
$USERI2
 70
     0
  9
$USERI3
 70
     0
  9
$USERI4
 70
     0
  9
$USERI5
 70
     0
  9
$USERR1
 40
0.0
  9
$USERR2
 40
0.0
  9
$USERR3
 40
0.0
  9
$USERR4
 40
0.0
  9
$USERR5
 40
0.0
  9
$WORLDVIEW
 70
     1
  9
$SHADEDGE
 70
     3
  9
$SHADEDIF
 70
    70
  9
$TILEMODE
 70
     1
  9
$MAXACTVP
 70
    64
  9
$PINSBASE
 10
0.0
 20
0.0
 30
0.0
  9
$PLIMCHECK
 70
     0
  9
$PEXTMIN
 10
1.0000000000E+20
 20
1.0000000000E+20
 30
1.0000000000E+20
  9
$PEXTMAX
 10
-1.0000000000E+20
 20
-1.0000000000E+20
 30
-1.0000000000E+20
  9
$PLIMMIN
 10
0.0
 20
0.0
  9
$PLIMMAX
 10
420.0
 20
297.0
  9
$UNITMODE
 70
     0
  9
$VISRETAIN
 70
     1
  9
$PLINEGEN
 70
     0
  9
$PSLTSCALE
 70
     1
  9
$TREEDEPTH
 70
  3020
  9
$CMLSTYLE
  2
Standard
  9
$CMLJUST
 70
     0
  9
$CMLSCALE
 40
20.0
  9
$PROXYGRAPHICS
 70
     1
  9
$MEASUREMENT
 70
     1
  9
$CELWEIGHT
370
    -1
  9
$ENDCAPS
280
     0
  9
$JOINSTYLE
280
     0
  9
$LWDISPLAY
290
     1
  9
$INSUNITS
 70
     4
  9
$HYPERLINKBASE
  1

  9
$STYLESHEET
  1

  9
$XEDIT
290
     1
  9
$CEPSNTYPE
380
     0
  9
$PSTYLEMODE
290
     1
  9
$FINGERPRINTGUID
  2
{4DCBA269-17C9-4094-A796-831AEF58A1B6}
  9
$VERSIONGUID
  2
{FAEB1C32-E019-11D5-929B-00C0DF256EC4}
  9
$EXTNAMES
290
     1
  9
$PSVPSCALE
 40
0.0
  9
$OLESTARTUP
290
     0
  0
ENDSEC
  0
SECTION
  2
CLASSES
  0
CLASS
  1
ACDBDICTIONARYWDFLT
  2
AcDbDictionaryWithDefault
  3
ObjectDBX Classes
 90
        0
280
     0
281
     0
  0
CLASS
  1
VISUALSTYLE
  2
AcDbVisualStyle
  3
ObjectDBX Classes
 90
     4095
280
     0
281
     0
  0
CLASS
  1
MATERIAL
  2
AcDbMaterial
  3
ObjectDBX Classes
 90
     1153
280
     0
281
     0
  0
CLASS
  1
ACDBPLACEHOLDER
  2
AcDbPlaceHolder
  3
ObjectDBX Classes
 90
        0
280
     0
281
     0
  0
CLASS
  1
LAYOUT
  2
AcDbLayout
  3
ObjectDBX Classes
 90
        0
280
     0
281
     0
  0
ENDSEC
  0
SECTION
  2
TABLES
  0
TABLE
  2
VPORT
  5
8
330
0
100
AcDbSymbolTable
 70
     1
  0
VPORT
  5
29
330
8
100
AcDbSymbolTableRecord
100
AcDbViewportTableRecord
  2
*Active
 70
     0
 10
0.0
 20
0.0
 11
1.0
 21
1.0
 12
420.0
 22
297.0
 13
0.0
 23
0.0
 14
10.0
 24
10.0
 15
10.0
 25
10.0
 16
0.0
 26
0.0
 36
1.0
 17
0.0
 27
0.0
 37
0.0
 40
594.0
 41
1.4141414141
 42
50.0
 43
0.0
 44
0.0
 50
0.0
 51
0.0
 71
     0
 72
  2000
 73
     1
 74
     3
 75
     0
 76
     0
 77
     0
 78
     0
281
     0
 65
     1
110
0.0
120
0.0
130
0.0
111
1.0
121
0.0
131
0.0
112
0.0
122
1.0
132
0.0
 79
     0
146
0.0
  0
ENDTAB
  0
TABLE
  2
LTYPE
  5
5
330
0
100
AcDbSymbolTable
 70
     6
  0
LTYPE
  5
14
330
5
100
AcDbSymbolTableRecord
100
AcDbLinetypeTableRecord
  2
ByBlock
 70
     0
  3

 72
    65
 73
     0
 40
0.0
  0
LTYPE
  5
15
330
5
100
AcDbSymbolTableRecord
100
AcDbLinetypeTableRecord
  2
ByLayer
 70
     0
  3

 72
    65
 73
     0
 40
0.0
  0
LTYPE
  5
16
330
5
100
AcDbSymbolTableRecord
100
AcDbLinetypeTableRecord
  2
Continuous
 70
     0
  3
Solid line
 72
    65
 73
     0
 40
0.0
  0
LTYPE
  5
3F
330
5
100
AcDbSymbolTableRecord
100
AcDbLinetypeTableRecord
  2
HIDDEN
 70
     0
  3
Hidden __ __ __ __ __ __ __ __ __ __ __ __ __ __
 72
    65
 73
     2
 40
1.905
 49
1.27
 74
     0
 49
-0.635
 74
     0
  0
LTYPE
  5
40
330
5
100
AcDbSymbolTableRecord
100
AcDbLinetypeTableRecord
  2
PHANTOM
 70
     0
  3
Phantom ______  __  __  ______  __  __  ______
 72
    65
 73
     6
 40
12.7
 49
6.35
 74
     0
 49
-1.27
 74
     0
 49
1.27
 74
     0
 49
-1.27
 74
     0
 49
1.27
 74
     0
 49
-1.27
 74
     0
  0
LTYPE
  5
41
330
5
100
AcDbSymbolTableRecord
100
AcDbLinetypeTableRecord
  2
CENTER
 70
     0
  3
Center ____ _ ____ _ ____ _ ____ _ ____ _ ____
 72
    65
 73
     4
 40
10.16
 49
6.35
 74
     0
 49
-1.27
 74
     0
 49
1.27
 74
     0
 49
-1.27
 74
     0
  0
LTYPE
  5
42
330
5
100
AcDbSymbolTableRecord
100
AcDbLinetypeTableRecord
  2
CENTERX2
 70
     0
  3
Center (2x) ________  __  ________  __  _____
 72
    65
 73
     4
 40
20.32
 49
12.7
 74
     0
 49
-2.54
 74
     0
 49
2.54
 74
     0
 49
-2.54
 74
     0
  0
LTYPE
  5
43
330
5
100
AcDbSymbolTableRecord
100
AcDbLinetypeTableRecord
  2
DOT2
 70
     0
  3
Dot (.5x) ........................................
 72
    65
 73
     2
 40
0.635
 49
0.0
 74
     0
 49
-0.635
 74
     0
  0
ENDTAB
  0
TABLE
  2
LAYER
  5
2
330
0
100
AcDbSymbolTable
 70
     1
  0
LAYER
  5
10
330
2
100
AcDbSymbolTableRecord
100
AcDbLayerTableRecord
  2
0
 70
     0
 62
     7
  6
Continuous
370
    -3
390
F
  0
ENDTAB
  0
TABLE
  2
STYLE
  5
3
330
0
100
AcDbSymbolTable
 70
     2
  0
STYLE
  5
11
330
3
100
AcDbSymbolTableRecord
100
AcDbTextStyleTableRecord
  2
Standard
 70
     0
 40
0.0
 41
1.0
 50
0.0
 71
     0
 42
2.5
  3
txt
  4
bigfont
  0
STYLE
  5
44
330
3
100
AcDbSymbolTableRecord
100
AcDbTextStyleTableRecord
  2
SLDTEXTSTYLE0
 70
     0
 40
0.0
 41
0.7
 50
0.0
 71
     0
 42
0.2
  3
TXT
  4
bigfont
  0
ENDTAB
  0
TABLE
  2
VIEW
  5
6
330
0
100
AcDbSymbolTable
 70
     0
  0
ENDTAB
  0
TABLE
  2
UCS
  5
7
330
0
100
AcDbSymbolTable
 70
     0
  0
ENDTAB
  0
TABLE
  2
APPID
  5
9
330
0
100
AcDbSymbolTable
 70
     1
  0
APPID
  5
12
330
9
100
AcDbSymbolTableRecord
100
AcDbRegAppTableRecord
  2
ACAD
 70
     0
  0
ENDTAB
  0
TABLE
  2
DIMSTYLE
  5
A
330
0
100
AcDbSymbolTable
 70
     1
100
AcDbDimStyleTable
  0
DIMSTYLE
105
27
330
A
100
AcDbSymbolTableRecord
100
AcDbDimStyleTableRecord
  2
ISO-25
 70
     0
 41
2.5
 42
0.625
 43
3.75
 44
1.25
 73
     0
 74
     0
 77
     1
 78
     8
140
2.5
141
2.5
143
0.0393700787
147
0.625
171
     3
172
     1
178
     0
271
     2
272
     2
274
     3
278
    44
283
     0
284
     8
340
11
  0
ENDTAB
  0
TABLE
  2
BLOCK_RECORD
  5
1
330
0
100
AcDbSymbolTable
 70
     1
  0
BLOCK_RECORD
  5
1F
330
1
100
AcDbSymbolTableRecord
100
AcDbBlockTableRecord
  2
*Model_Space
340
22
  0
BLOCK_RECORD
  5
1B
330
1
100
AcDbSymbolTableRecord
100
AcDbBlockTableRecord
  2
*Paper_Space
340
1E
  0
BLOCK_RECORD
  5
23
330
1
100
AcDbSymbolTableRecord
100
AcDbBlockTableRecord
  2
*Paper_Space0
340
26
  0
ENDTAB
  0
ENDSEC
  0
SECTION
  2
BLOCKS
  0
BLOCK
  5
20
330
1F
100
AcDbEntity
  8
0
100
AcDbBlockBegin
  2
*Model_Space
 70
     0
 10
0.0
 20
0.0
 30
0.0
  3
*Model_Space
  1

  0
ENDBLK
  5
21
330
1F
100
AcDbEntity
  8
0
100
AcDbBlockEnd
  0
BLOCK
  5
1C
330
1B
100
AcDbEntity
 67
     1
  8
0
100
AcDbBlockBegin
  2
*Paper_Space
 70
     0
 10
0.0
 20
0.0
 30
0.0
  3
*Paper_Space
  1

  0
ENDBLK
  5
1D
330
1B
100
AcDbEntity
 67
     1
  8
0
100
AcDbBlockEnd
  0
BLOCK
  5
24
330
23
100
AcDbEntity
  8
0
100
AcDbBlockBegin
  2
*Paper_Space0
 70
     0
 10
0.0
 20
0.0
 30
0.0
  3
*Paper_Space0
  1

  0
ENDBLK
  5
25
330
23
100
AcDbEntity
  8
0
100
AcDbBlockEnd
  0
ENDSEC
  0
SECTION
  2
ENTITIES
  0
MTEXT
  5
45
330
1F
100
AcDbEntity
  8
0
  6
Continuous
 62
     7
370
     0
100
AcDbMText
 10
107.4054366785
 20
591.6338740602
 30
0.0
 40
7.0
 41
0.0
 71
     1
 72
     1
  1
CHB-518P
  7
SLDTEXTSTYLE0
 73
     1
 44
1.0
  0
LINE
  5
46
330
1F
100
AcDbEntity
  8
0
  6
Continuous
 62
     7
370
    15
100
AcDbLine
 10
270.9910603341
 20
32.9987627667
 30
0.0
 11
271.0910471257
 21
32.9987627667
 31
0.0
  0
LINE
  5
47
330
1F
100
AcDbEntity
  8
0
  6
Continuous
 62
     7
370
    15
100
AcDbLine
 10
271.0910471257
 20
38.9987600249
 30
0.0
 11
270.9910603341
 21
38.9987600249
 31
0.0
  0
LINE
  5
48
330
1F
100
AcDbEntity
  8
0
  6
Continuous
 62
     7
370
    15
100
AcDbLine
 10
270.9910603341
 20
42.9987681311
 30
0.0
 11
271.0910471257
 21
42.9987681311
 31
0.0
  0
LINE
  5
49
330
1F
100
AcDbEntity
  8
0
  6
Continuous
 62
     7
370
    15
100
AcDbLine
 10
271.0910471257
 20
48.9987653893
 30
0.0
 11
270.9910603341
 21
48.9987653893
 31
0.0
  0
LINE
  5
4A
330
1F
100
AcDbEntity
  8
0
  6
Continuous
 62
     7
370
    15
100
AcDbLine
 10
270.9910603341
 20
502.9987615746
 30
0.0
 11
271.0910471257
 21
502.9987615746
 31
0.0
  0
LINE
  5
4B
330
1F
100
AcDbEntity
  8
0
  6
Continuous
 62
     7
370
    15
100
AcDbLine
 10
271.0910471257
 20
508.9987588328
 30
0.0
 11
270.9910603341
 21
508.9987588328
 31
0.0
  0
LINE
  5
4C
330
1F
100
AcDbEntity
  8
0
  6
Continuous
 62
     7
370
    15
100
AcDbLine
 10
270.9910603341
 20
512.998766939
 30
0.0
 11
271.0910471257
 21
512.998766939
 31
0.0
  0
LINE
  5
4D
330
1F
100
AcDbEntity
  8
0
  6
Continuous
 62
     7
370
    15
100
AcDbLine
 10
271.0910471257
 20
518.9987641972
 30
0.0
 11
270.9910603341
 21
518.9987641972
 31
0.0
  0
LINE
  5
4E
330
1F
100
AcDbEntity
  8
0
  6
Continuous
 62
     7
370
    15
100
AcDbLine
 10
272.2910376366
 20
52.4987650317
 30
0.0
 11
271.0910471257
 21
52.4987650317
 31
0.0
  0
LINE
  5
4F
330
1F
100
AcDbEntity
  8
0
  6
Continuous
 62
     7
370
    15
100
AcDbLine
 10
272.2910376366
 20
522.4987638396
 30
0.0
 11
271.0910471257
 21
522.4987638396
 31
0.0
  0
LINE
  5
50
330
1F
100
AcDbEntity
  8
0
  6
Continuous
 62
     7
370
    15
100
AcDbLine
 10
271.0910471257
 20
29.4987631243
 30
0.0
 11
272.2910376366
 21
29.4987631243
 31
0.0
  0
LINE
  5
51
330
1F
100
AcDbEntity
  8
0
  6
Continuous
 62
     7
370
    15
100
AcDbLine
 10
271.0910471257
 20
499.4987619322
 30
0.0
 11
272.2910376366
 21
499.4987619322
 31
0.0
  0
LINE
  5
52
330
1F
100
AcDbEntity
  8
0
  6
Continuous
 62
     7
370
    15
100
AcDbLine
 10
883.7910624322
 20
31.9987607401
 30
0.0
 11
883.7910624322
 21
66.9987571639
 31
0.0
  0
LINE
  5
53
330
1F
100
AcDbEntity
  8
0
  6
Continuous
 62
     7
370
    15
100
AcDbLine
 10
883.7910624322
 20
484.9987698
 30
0.0
 11
883.7910624322
 21
519.9987662238
 31
0.0
  0
LINE
  5
54
330
1F
100
AcDbEntity
  8
0
  6
Continuous
 62
     7
370
    15
100
AcDbLine
 10
263.1862493333
 20
44.8987704915
 30
0.0
 11
263.1862493333
 21
36.2987590235
 31
0.0
  0
LINE
  5
55
330
1F
100
AcDbEntity
  8
0
  6
Continuous
 62
     7
370
    15
100
AcDbLine
 10
263.7910576638
 20
33.7987614077
 30
0.0
 11
263.7910576638
 21
32.9990160864
 31
0.0
  0
LINE
  5
56
330
1F
100
AcDbEntity
  8
0
  6
Continuous
 62
     7
370
    15
100
AcDbLine
 10
263.7910576638
 20
48.9985120696
 30
0.0
 11
263.7910576638
 21
48.1987667483
 31
0.0
  0
ARC
  5
57
330
1F
100
AcDbEntity
  8
0
  6
Continuous
 62
     7
370
    15
100
AcDbCircle
 10
267.3910495576
 20
46.1916206248
 30
0.0
 40
3.807142857143186
100
AcDbArc
 50
77.9663271603
 51
90.0
  0
ARC
  5
58
330
1F
100
AcDbEntity
  8
0
  6
Continuous
 62
     7
370
    15
100
AcDbCircle
 10
267.3910495576
 20
46.1916206248
 30
0.0
 40
3.807142857143287
100
AcDbArc
 50
90.0
 51
125.3002484399
  0
LINE
  5
59
330
1F
100
AcDbEntity
  8
0
  6
Continuous
 62
     7
370
    15
100
AcDbLine
 10
265.1910515603
 20
49.2987704676
 30
0.0
 11
265.1910515603
 21
48.9987653893
 31
0.0
  0
LINE
  5
5A
330
1F
100
AcDbEntity
  8
0
  6
Continuous
 62
     7
370
    15
100
AcDbLine
 10
265.2910383519
 20
32.5987708968
 30
0.0
 11
265.2910383519
 21
32.1987641257
 31
0.0
  0
ARC
  5
5B
330
1F
100
AcDbEntity
  8
0
  6
Continuous
 62
     7
370
    15
100
AcDbCircle
 10
265.4910495576
 20
32.998763482
 30
0.0
 40
0.4000000000008299
100
AcDbArc
 50
270.0
 51
0.0
  0
LINE
  5
5C
330
1F
100
AcDbEntity
  8
0
  6
Continuous
 62
     7
370
    15
100
AcDbLine
 10
265.8910485085
 20
48.1987667483
 30
0.0
 11
265.8910485085
 21
47.7487665814
 31
0.0
  0
LINE
  5
5D
330
1F
100
AcDbEntity
  8
0
  6
Continuous
 62
     7
370
    15
100
AcDbLine
 10
265.8910485085
 20
34.2487615746
 30
0.0
 11
265.8910485085
 21
33.7987614077
 31
0.0
  0
SPLINE
  5
5E
330
1F
100
AcDbEntity
  8
0
  6
Continuous
 62
     7
370
    15
100
AcDbSpline
210
0.0
220
0.0
230
1.0
 70
     8
 71
     3
 72
    11
 73
     7
 74
     0
 42
0.00000001
 43
0.00000001
 40
0.0
 40
0.0
 40
0.0
 40
0.0
 40
0.2262215555257281
 40
0.467943969805146
 40
0.7254849661367999
 40
1.0
 40
1.0
 40
1.0
 40
1.0
 10
268.6115535076784
 20
49.22919694600342
 30
0.0
 10
268.6143713885868
 20
49.20629697963233
 30
0.0
 10
268.6202002335689
 20
49.15892792522381
 30
0.0
 10
268.6370151185334
 20
48.83415104557479
 30
0.0
 10
268.6506049643741
 20
48.33365183954838
 30
0.0
 10
268.6511288916954
 20
47.90983009757388
 30
0.0
 10
268.6513992127108
 20
47.69115869221924
 30
0.0
  0
SPLINE
  5
5F
330
1F
100
AcDbEntity
  8
0
  6
Continuous
 62
     7
370
    15
100
AcDbSpline
210
0.0
220
0.0
230
1.0
 70
     8
 71
     3
 72
    12
 73
     8
 74
     0
 42
0.00000001
 43
0.00000001
 40
0.0
 40
0.0
 40
0.0
 40
0.0
 40
0.248946245326258
 40
0.4822936287519815
 40
0.699811415192867
 40
0.9035372363555159
 40
1.0
 40
1.0
 40
1.0
 40
1.0
 10
268.6513992127108
 20
34.13253251729248
 30
0.0
 10
268.6499733456531
 20
33.99519683947067
 30
0.0
 10
268.6472109557386
 20
33.72913087680876
 30
0.0
 10
268.6363100239382
 20
33.39332695359276
 30
0.0
 10
268.6337996930453
 20
33.16014937599013
 30
0.0
 10
268.6385887091957
 20
33.04003553747961
 30
0.0
 10
268.6650193116935
 20
33.03869614585702
 30
0.0
 10
268.6735125359224
 20
33.03826574502228
 30
0.0
  0
LINE
  5
60
330
1F
100
AcDbEntity
  8
0
  6
Continuous
 62
     7
370
    15
100
AcDbLine
 10
268.6505647477
 20
47.741152088
 30
0.0
 11
268.6505647477
 21
34.0825242203
 31
0.0
  0
LINE
  5
61
330
1F
100
AcDbEntity
  8
0
  6
Continuous
 62
     7
370
    15
100
AcDbLine
 10
267.1269508179
 20
51.6790521544
 30
0.0
 11
268.6142953213
 21
49.1989028853
 31
0.0
  0
LINE
  5
62
330
1F
100
AcDbEntity
  8
0
  6
Continuous
 62
     7
370
    15
100
AcDbLine
 10
271.0910471257
 20
50.9020162028
 30
0.0
 11
269.6997555073
 21
53.2219779891
 31
0.0
  0
LINE
  5
63
330
1F
100
AcDbEntity
  8
0
  6
Continuous
 62
     7
370
    15
100
AcDbLine
 10
268.678787547
 20
32.9061818522
 30
0.0
 11
267.1097250756
 21
30.289761464
 31
0.0
  0
LINE
  5
64
330
1F
100
AcDbEntity
  8
0
  6
Continuous
 62
     7
370
    15
100
AcDbLine
 10
269.682529765
 20
28.7468356293
 30
0.0
 11
271.0910471257
 21
31.0955119532
 31
0.0
  0
LINE
  5
65
330
1F
100
AcDbEntity
  8
0
  6
Continuous
 62
     7
370
    15
100
AcDbLine
 10
269.7196634587
 20
53.1864685219
 30
0.0
 11
269.6296902474
 21
53.3002537888
 31
0.0
  0
SPLINE
  5
66
330
1F
100
AcDbEntity
  8
0
  6
Continuous
 62
     7
370
    15
100
AcDbSpline
210
0.0
220
0.0
230
1.0
 70
     8
 71
     3
 72
    20
 73
    16
 74
     0
 42
0.00000001
 43
0.00000001
 40
0.0
 40
0.0
 40
0.0
 40
0.0
 40
0.0337800478578503
 40
0.1101059187966603
 40
0.173929028912456
 40
0.2252728862077671
 40
0.2665372765709878
 40
0.3037717494799613
 40
0.3388592941554547
 40
0.3726402342717979
 40
0.4139167244222641
 40
0.6259819266062212
 40
0.8390274639719425
 40
0.9659457555635218
 40
1.0
 40
1.0
 40
1.0
 40
1.0
 10
269.5173950966524
 20
53.44232145962952
 30
0.0
 10
269.4767342004212
 20
53.4985048503438
 30
0.0
 10
269.3442001863348
 20
53.68163436755876
 30
0.0
 10
269.0343395595672
 20
53.85882589470983
 30
0.0
 10
268.6470646153115
 20
53.98176831723139
 30
0.0
 10
268.2772219988819
 20
53.99656813216144
 30
0.0
 10
267.9429069102072
 20
53.94599067315831
 30
0.0
 10
267.6684293970209
 20
53.84491478361614
 30
0.0
 10
267.4409140935443
 20
53.71021916246138
 30
0.0
 10
267.2348736531342
 20
53.53403506100923
 30
0.0
 10
266.8903870025429
 20
53.09153399866032
 30
0.0
 10
266.7092724665528
 20
52.40487059645552
 30
0.0
 10
266.5594682641647
 20
51.22403228985978
 30
0.0
 10
266.5043743404649
 20
50.31938717998089
 30
0.0
 10
266.4977868789774
 20
49.9047997323282
 30
0.0
 10
266.4963932808565
 20
49.81709245858429
 30
0.0
  0
SPLINE
  5
67
330
1F
100
AcDbEntity
  8
0
  6
Continuous
 62
     7
370
    15
100
AcDbSpline
210
0.0
220
0.0
230
1.0
 70
     8
 71
     3
 72
    19
 73
    15
 74
     0
 42
0.00000001
 43
0.00000001
 40
0.0
 40
0.0
 40
0.0
 40
0.0
 40
0.0102731821704146
 40
0.1295971195302142
 40
0.3268124095654802
 40
0.5525088281484031
 40
0.5858534670519812
 40
0.6186008904450959
 40
0.6529060193029207
 40
0.6960065533277052
 40
0.7523109547519893
 40
0.8223143869603826
 40
0.9054609801583439
 40
1.0
 40
1.0
 40
1.0
 40
1.0
 10
266.4935620602297
 20
32.19876412568329
 30
0.0
 10
266.4938852711487
 20
32.17156672326685
 30
0.0
 10
266.4979626060392
 20
31.82846903908226
 30
0.0
 10
266.5377205475214
 20
31.0084712689147
 30
0.0
 10
266.672750361803
 20
29.78605081682178
 30
0.0
 10
266.763071128039
 20
29.14265583605907
 30
0.0
 10
267.1140289294544
 20
28.60259048813651
 30
0.0
 10
267.283247746642
 20
28.41474941475308
 30
0.0
 10
267.5199468487658
 20
28.2382482666135
 30
0.0
 10
267.8335835805137
 20
28.0848017776496
 30
0.0
 10
268.237054718407
 20
27.98297966835436
 30
0.0
 10
268.7229315429448
 20
28.00618061306953
 30
0.0
 10
269.252701189622
 20
28.21646636293426
 30
0.0
 10
269.5179095504478
 20
28.53830255842491
 30
0.0
 10
269.6590157326387
 20
28.70953802285428
 30
0.0
  0
LINE
  5
68
330
1F
100
AcDbEntity
  8
0
  6
Continuous
 62
     7
370
    15
100
AcDbLine
 10
263.1862493333
 20
514.8987692994
 30
0.0
 11
263.1862493333
 21
506.2987578314
 31
0.0
  0
LINE
  5
69
330
1F
100
AcDbEntity
  8
0
  6
Continuous
 62
     7
370
    15
100
AcDbLine
 10
263.7910576638
 20
503.7987602156
 30
0.0
 11
263.7910576638
 21
502.9990148943
 31
0.0
  0
LINE
  5
6A
330
1F
100
AcDbEntity
  8
0
  6
Continuous
 62
     7
370
    15
100
AcDbLine
 10
263.7910576638
 20
518.9985108775
 30
0.0
 11
263.7910576638
 21
518.1987655562
 31
0.0
  0
ARC
  5
6B
330
1F
100
AcDbEntity
  8
0
  6
Continuous
 62
     7
370
    15
100
AcDbCircle
 10
267.3910495576
 20
516.1916206248
 30
0.0
 40
3.80714285714318
100
AcDbArc
 50
77.9663271603
 51
90.0
  0
ARC
  5
6C
330
1F
100
AcDbEntity
  8
0
  6
Continuous
 62
     7
370
    15
100
AcDbCircle
 10
267.3910495576
 20
516.1916206248
 30
0.0
 40
3.807142857143275
100
AcDbArc
 50
90.0
 51
125.3002484399
  0
LINE
  5
6D
330
1F
100
AcDbEntity
  8
0
  6
Continuous
 62
     7
370
    15
100
AcDbLine
 10
265.1910515603
 20
519.2987692755
 30
0.0
 11
265.1910515603
 21
518.9987641972
 31
0.0
  0
LINE
  5
6E
330
1F
100
AcDbEntity
  8
0
  6
Continuous
 62
     7
370
    15
100
AcDbLine
 10
265.2910383519
 20
502.5987697047
 30
0.0
 11
265.2910383519
 21
502.1987629336
 31
0.0
  0
ARC
  5
6F
330
1F
100
AcDbEntity
  8
0
  6
Continuous
 62
     7
370
    15
100
AcDbCircle
 10
265.4910495576
 20
502.998763482
 30
0.0
 40
0.4000000000008299
100
AcDbArc
 50
270.0
 51
0.0
  0
LINE
  5
70
330
1F
100
AcDbEntity
  8
0
  6
Continuous
 62
     7
370
    15
100
AcDbLine
 10
265.8910485085
 20
518.1987655562
 30
0.0
 11
265.8910485085
 21
517.7487653893
 31
0.0
  0
LINE
  5
71
330
1F
100
AcDbEntity
  8
0
  6
Continuous
 62
     7
370
    15
100
AcDbLine
 10
265.8910485085
 20
504.2487603825
 30
0.0
 11
265.8910485085
 21
503.7987602156
 31
0.0
  0
SPLINE
  5
72
330
1F
100
AcDbEntity
  8
0
  6
Continuous
 62
     7
370
    15
100
AcDbSpline
210
0.0
220
0.0
230
1.0
 70
     8
 71
     3
 72
    11
 73
     7
 74
     0
 42
0.00000001
 43
0.00000001
 40
0.0
 40
0.0
 40
0.0
 40
0.0
 40
0.2262215555257281
 40
0.467943969805146
 40
0.7254849661367999
 40
1.0
 40
1.0
 40
1.0
 40
1.0
 10
268.6115535076784
 20
519.2291957539106
 30
0.0
 10
268.6143713885868
 20
519.2062957875394
 30
0.0
 10
268.6202002335689
 20
519.1589267331308
 30
0.0
 10
268.6370151185334
 20
518.8341498534818
 30
0.0
 10
268.6506049643741
 20
518.3336506474558
 30
0.0
 10
268.6511288916954
 20
517.9098289054809
 30
0.0
 10
268.6513992127108
 20
517.6911575001265
 30
0.0
  0
SPLINE
  5
73
330
1F
100
AcDbEntity
  8
0
  6
Continuous
 62
     7
370
    15
100
AcDbSpline
210
0.0
220
0.0
230
1.0
 70
     8
 71
     3
 72
    12
 73
     8
 74
     0
 42
0.00000001
 43
0.00000001
 40
0.0
 40
0.0
 40
0.0
 40
0.0
 40
0.248946245326258
 40
0.4822936287519815
 40
0.699811415192867
 40
0.9035372363555159
 40
1.0
 40
1.0
 40
1.0
 40
1.0
 10
268.6513992127108
 20
504.1325313251996
 30
0.0
 10
268.6499733456531
 20
503.9951956473777
 30
0.0
 10
268.6472109557386
 20
503.7291296847157
 30
0.0
 10
268.6363100239382
 20
503.3933257615001
 30
0.0
 10
268.6337996930453
 20
503.1601481838972
 30
0.0
 10
268.6385887091957
 20
503.0400343453865
 30
0.0
 10
268.6650193116935
 20
503.0386949537642
 30
0.0
 10
268.6735125359224
 20
503.0382645529294
 30
0.0
  0
LINE
  5
74
330
1F
100
AcDbEntity
  8
0
  6
Continuous
 62
     7
370
    15
100
AcDbLine
 10
268.6505647477
 20
517.7411657971
 30
0.0
 11
268.6505647477
 21
504.0825230282
 31
0.0
  0
LINE
  5
75
330
1F
100
AcDbEntity
  8
0
  6
Continuous
 62
     7
370
    15
100
AcDbLine
 10
267.1269508179
 20
521.6790509623
 30
0.0
 11
268.6142953213
 21
519.1989016932
 31
0.0
  0
LINE
  5
76
330
1F
100
AcDbEntity
  8
0
  6
Continuous
 62
     7
370
    15
100
AcDbLine
 10
271.0910471257
 20
520.9020150107
 30
0.0
 11
269.6997555073
 21
523.221976797
 31
0.0
  0
LINE
  5
77
330
1F
100
AcDbEntity
  8
0
  6
Continuous
 62
     7
370
    15
100
AcDbLine
 10
268.678787547
 20
502.9061806601
 30
0.0
 11
267.1097250756
 21
500.2897602719
 31
0.0
  0
LINE
  5
78
330
1F
100
AcDbEntity
  8
0
  6
Continuous
 62
     7
370
    15
100
AcDbLine
 10
269.682529765
 20
498.7468344372
 30
0.0
 11
271.0910471257
 21
501.0955107611
 31
0.0
  0
LINE
  5
79
330
1F
100
AcDbEntity
  8
0
  6
Continuous
 62
     7
370
    15
100
AcDbLine
 10
269.7196634587
 20
523.1864673298
 30
0.0
 11
269.6296902474
 21
523.3002525967
 31
0.0
  0
SPLINE
  5
7A
330
1F
100
AcDbEntity
  8
0
  6
Continuous
 62
     7
370
    15
100
AcDbSpline
210
0.0
220
0.0
230
1.0
 70
     8
 71
     3
 72
    20
 73
    16
 74
     0
 42
0.00000001
 43
0.00000001
 40
0.0
 40
0.0
 40
0.0
 40
0.0
 40
0.0337800478578503
 40
0.1101059187966603
 40
0.173929028912456
 40
0.2252728862077671
 40
0.2665372765709878
 40
0.3037717494799613
 40
0.3388592941554547
 40
0.3726402342717979
 40
0.4139167244222641
 40
0.6259819266062212
 40
0.8390274639719425
 40
0.9659457555635218
 40
1.0
 40
1.0
 40
1.0
 40
1.0
 10
269.5173950966524
 20
523.4423202675367
 30
0.0
 10
269.4767342004212
 20
523.4985036582509
 30
0.0
 10
269.3442001863348
 20
523.6816331754658
 30
0.0
 10
269.0343395595672
 20
523.8588247026167
 30
0.0
 10
268.6470646153115
 20
523.9817671251384
 30
0.0
 10
268.2772219988819
 20
523.9965669400685
 30
0.0
 10
267.9429069102072
 20
523.9459894810655
 30
0.0
 10
267.6684293970209
 20
523.8449135915232
 30
0.0
 10
267.4409140935443
 20
523.7102179703686
 30
0.0
 10
267.2348736531342
 20
523.5340338689163
 30
0.0
 10
266.8903870025429
 20
523.0915328065676
 30
0.0
 10
266.7092724665528
 20
522.4048694043622
 30
0.0
 10
266.5594682641647
 20
521.2240310977674
 30
0.0
 10
266.5043743404649
 20
520.3193859878878
 30
0.0
 10
266.4977868789774
 20
519.9047985402353
 30
0.0
 10
266.4963932808565
 20
519.8170912664915
 30
0.0
  0
SPLINE
  5
7B
330
1F
100
AcDbEntity
  8
0
  6
Continuous
 62
     7
370
    15
100
AcDbSpline
210
0.0
220
0.0
230
1.0
 70
     8
 71
     3
 72
    19
 73
    15
 74
     0
 42
0.00000001
 43
0.00000001
 40
0.0
 40
0.0
 40
0.0
 40
0.0
 40
0.0102731877996411
 40
0.1295971905434143
 40
0.3268125886434962
 40
0.5525091308975699
 40
0.5858537880724609
 40
0.6186012294096421
 40
0.6529063770650836
 40
0.6960069347069583
 40
0.7523113669834383
 40
0.8223148375504599
 40
0.9054620882061949
 40
1.0
 40
1.0
 40
1.0
 40
1.0
 10
266.4935620602297
 20
502.1987629335904
 30
0.0
 10
266.4938852711486
 20
502.1715655311742
 30
0.0
 10
266.497962606039
 20
501.8284678469918
 30
0.0
 10
266.5377205475831
 20
501.0084700766236
 30
0.0
 10
266.672750361402
 20
499.7860496260113
 30
0.0
 10
266.7630711291176
 20
499.1426546405185
 30
0.0
 10
267.1140289289532
 20
498.6025892976458
 30
0.0
 10
267.2832477486077
 20
498.4147482163766
 30
0.0
 10
267.519946840163
 20
498.2382471020203
 30
0.0
 10
267.8335836273185
 20
498.0848004359374
 30
0.0
 10
268.2370544607174
 20
497.9829793000102
 30
0.0
 10
268.7229342732033
 20
498.0061752984791
 30
0.0
 10
269.2526950387908
 20
498.216485384945
 30
0.0
 10
269.5179082603137
 20
498.5383094128655
 30
0.0
 10
269.6590157326387
 20
498.7095368307615
 30
0.0
  0
LINE
  5
7C
330
1F
100
AcDbEntity
  8
0
  6
Continuous
 62
     7
370
    15
100
AcDbLine
 10
883.7910624322
 20
-4.0012377101
 30
0.0
 11
883.7910624322
 21
30.9987587136
 31
0.0
  0
LINE
  5
7D
330
1F
100
AcDbEntity
  8
0
  6
Continuous
 62
     7
370
    15
100
AcDbLine
 10
883.7910624322
 20
520.9987682503
 30
0.0
 11
883.7910624322
 21
555.998764674
 31
0.0
  0
LINE
  5
7E
330
1F
100
AcDbEntity
  8
0
  6
Continuous
 62
     7
370
    15
100
AcDbLine
 10
880.7910414513
 20
30.9987587136
 30
0.0
 11
880.7910414513
 21
31.9987607401
 31
0.0
  0
LINE
  5
7F
330
1F
100
AcDbEntity
  8
0
  6
Continuous
 62
     7
370
    15
100
AcDbLine
 10
880.7910414513
 20
66.9987571639
 30
0.0
 11
880.7910414513
 21
67.9987591904
 31
0.0
  0
LINE
  5
80
330
1F
100
AcDbEntity
  8
0
  6
Continuous
 62
     7
370
    15
100
AcDbLine
 10
875.7910462197
 20
67.9987591904
 30
0.0
 11
875.7910462197
 21
66.9987571639
 31
0.0
  0
LINE
  5
81
330
1F
100
AcDbEntity
  8
0
  6
Continuous
 62
     7
370
    15
100
AcDbLine
 10
875.7910462197
 20
31.9987607401
 30
0.0
 11
875.7910462197
 21
30.9987587136
 31
0.0
  0
LINE
  5
82
330
1F
100
AcDbEntity
  8
0
  6
Continuous
 62
     7
370
    15
100
AcDbLine
 10
875.7910462197
 20
520.9987682503
 30
0.0
 11
875.7910462197
 21
519.9987662238
 31
0.0
  0
LINE
  5
83
330
1F
100
AcDbEntity
  8
0
  6
Continuous
 62
     7
370
    15
100
AcDbLine
 10
875.7910462197
 20
484.9987698
 30
0.0
 11
875.7910462197
 21
483.9987677735
 31
0.0
  0
LINE
  5
84
330
1F
100
AcDbEntity
  8
0
  6
Continuous
 62
     7
370
    15
100
AcDbLine
 10
880.7910414513
 20
483.9987677735
 30
0.0
 11
880.7910414513
 21
484.9987698
 31
0.0
  0
LINE
  5
85
330
1F
100
AcDbEntity
  8
0
  6
Continuous
 62
     7
370
    15
100
AcDbLine
 10
880.7910414513
 20
519.9987662238
 30
0.0
 11
880.7910414513
 21
520.9987682503
 31
0.0
  0
LINE
  5
86
330
1F
100
AcDbEntity
  8
0
  6
Continuous
 62
     7
370
    15
100
AcDbLine
 10
263.9910610493
 20
47.7487665814
 30
0.0
 11
263.9910610493
 21
47.4559587639
 31
0.0
  0
LINE
  5
87
330
1F
100
AcDbEntity
  8
0
  6
Continuous
 62
     7
370
    15
100
AcDbLine
 10
263.9910610493
 20
34.5415693921
 30
0.0
 11
263.9910610493
 21
34.2487615746
 31
0.0
  0
LINE
  5
88
330
1F
100
AcDbEntity
  8
0
  6
Continuous
 62
     7
370
    15
100
AcDbLine
 10
263.9910610493
 20
517.7487653893
 30
0.0
 11
263.9910610493
 21
517.4559575718
 31
0.0
  0
LINE
  5
89
330
1F
100
AcDbEntity
  8
0
  6
Continuous
 62
     7
370
    15
100
AcDbLine
 10
263.9910610493
 20
504.5415682
 30
0.0
 11
263.9910610493
 21
504.2487603825
 31
0.0
  0
LINE
  5
8A
330
1F
100
AcDbEntity
  8
0
  6
Continuous
 62
     7
370
    15
100
AcDbLine
 10
857.2910459813
 20
-9.0012329418
 30
0.0
 11
287.2910531338
 21
-9.0012329418
 31
0.0
  0
LINE
  5
8B
330
1F
100
AcDbEntity
  8
0
  6
Continuous
 62
     7
370
    15
100
AcDbLine
 10
857.2910459813
 20
-9.0012329418
 30
0.0
 11
857.2910459813
 21
-24.001248439
 31
0.0
  0
LINE
  5
8C
330
1F
100
AcDbEntity
  8
0
  6
Continuous
 62
     7
370
    15
100
AcDbLine
 10
857.2910459813
 20
-24.001248439
 30
0.0
 11
287.2910531338
 21
-24.001248439
 31
0.0
  0
LINE
  5
8D
330
1F
100
AcDbEntity
  8
0
  6
Continuous
 62
     7
370
    15
100
AcDbLine
 10
287.2910531338
 20
-24.001248439
 30
0.0
 11
287.2910531338
 21
-9.0012329418
 31
0.0
  0
ARC
  5
8E
330
1F
100
AcDbEntity
  8
0
  6
Continuous
 62
     7
370
    15
100
AcDbCircle
 10
287.2910495576
 20
-9.001236518
 30
0.0
 40
15.00000000000001
100
AcDbArc
 50
180.0
 51
270.0
  0
LINE
  5
8F
330
1F
100
AcDbEntity
  8
0
  6
Continuous
 62
     7
370
    15
100
AcDbLine
 10
272.2910376366
 20
-9.0012329418
 30
0.0
 11
287.2910531338
 21
-9.0012329418
 31
0.0
  0
LINE
  5
90
330
1F
100
AcDbEntity
  8
0
  6
Continuous
 62
     7
370
    15
100
AcDbLine
 10
852.2910507497
 20
-4.0012377101
 30
0.0
 11
292.2910483655
 21
-4.0012377101
 31
0.0
  0
LINE
  5
91
330
1F
100
AcDbEntity
  8
0
  6
Continuous
 62
     7
370
    15
100
AcDbLine
 10
852.2910507497
 20
-4.0012377101
 30
0.0
 11
852.2910507497
 21
555.998764674
 31
0.0
  0
LINE
  5
92
330
1F
100
AcDbEntity
  8
0
  6
Continuous
 62
     7
370
    15
100
AcDbLine
 10
292.2910483655
 20
555.998764674
 30
0.0
 11
852.2910507497
 21
555.998764674
 31
0.0
  0
LINE
  5
93
330
1F
100
AcDbEntity
  8
0
  6
Continuous
 62
     7
370
    15
100
AcDbLine
 10
292.2910483655
 20
-4.0012377101
 30
0.0
 11
292.2910483655
 21
555.998764674
 31
0.0
  0
LINE
  5
94
330
1F
100
AcDbEntity
  8
0
  6
Continuous
 62
     7
370
    15
100
AcDbLine
 10
857.2910459813
 20
-9.0012329418
 30
0.0
 11
857.2910459813
 21
560.9987599057
 31
0.0
  0
LINE
  5
95
330
1F
100
AcDbEntity
  8
0
  6
Continuous
 62
     7
370
    15
100
AcDbLine
 10
287.2910531338
 20
560.9987599057
 30
0.0
 11
287.2910531338
 21
-9.0012329418
 31
0.0
  0
LINE
  5
96
330
1F
100
AcDbEntity
  8
0
  6
Continuous
 62
     7
370
    15
100
AcDbLine
 10
287.2910531338
 20
560.9987599057
 30
0.0
 11
857.2910459813
 21
560.9987599057
 31
0.0
  0
LINE
  5
97
330
1F
100
AcDbEntity
  8
0
  6
Continuous
 62
     7
370
    15
100
AcDbLine
 10
272.2910376366
 20
31.011275689
 30
0.0
 11
272.2910376366
 21
-9.0012329418
 31
0.0
  0
LINE
  5
98
330
1F
100
AcDbEntity
  8
0
  6
Continuous
 62
     7
370
    15
100
AcDbLine
 10
272.2910376366
 20
50.986252467
 30
0.0
 11
272.2910376366
 21
501.0112744969
 31
0.0
  0
LINE
  5
99
330
1F
100
AcDbEntity
  8
0
  6
Continuous
 62
     7
370
    15
100
AcDbLine
 10
272.2910376366
 20
520.9862512749
 30
0.0
 11
272.2910376366
 21
560.9987599057
 31
0.0
  0
LINE
  5
9A
330
1F
100
AcDbEntity
  8
0
  6
Continuous
 62
     7
370
    15
100
AcDbLine
 10
272.2910376366
 20
560.9987599057
 30
0.0
 11
287.2910531338
 21
560.9987599057
 31
0.0
  0
LINE
  5
9B
330
1F
100
AcDbEntity
  8
0
  6
Continuous
 62
     7
370
    15
100
AcDbLine
 10
857.2910459813
 20
-9.0012329418
 30
0.0
 11
872.2910614785
 21
-9.0012329418
 31
0.0
  0
ARC
  5
9C
330
1F
100
AcDbEntity
  8
0
  6
Continuous
 62
     7
370
    15
100
AcDbCircle
 10
857.2910495576
 20
-9.001236518
 30
0.0
 40
15.00000000000001
100
AcDbArc
 50
270.0
 51
0.0
  0
LINE
  5
9D
330
1F
100
AcDbEntity
  8
0
  6
Continuous
 62
     7
370
    15
100
AcDbLine
 10
872.2910614785
 20
560.9987599057
 30
0.0
 11
857.2910459813
 21
560.9987599057
 31
0.0
  0
LINE
  5
9E
330
1F
100
AcDbEntity
  8
0
  6
Continuous
 62
     7
370
    15
100
AcDbLine
 10
872.2910614785
 20
-9.0012329418
 30
0.0
 11
872.2910614785
 21
560.9987599057
 31
0.0
  0
ARC
  5
9F
330
1F
100
AcDbEntity
  8
0
  6
Continuous
 62
     7
370
    15
100
AcDbCircle
 10
287.2910495576
 20
560.998763482
 30
0.0
 40
15.00000000000011
100
AcDbArc
 50
90.0
 51
180.0
  0
LINE
  5
A0
330
1F
100
AcDbEntity
  8
0
  6
Continuous
 62
     7
370
    15
100
AcDbLine
 10
287.2910531338
 20
560.9987599057
 30
0.0
 11
287.2910531338
 21
575.9987754029
 31
0.0
  0
LINE
  5
A1
330
1F
100
AcDbEntity
  8
0
  6
Continuous
 62
     7
370
    15
100
AcDbLine
 10
287.2910531338
 20
575.9987754029
 30
0.0
 11
857.2910459813
 21
575.9987754029
 31
0.0
  0
LINE
  5
A2
330
1F
100
AcDbEntity
  8
0
  6
Continuous
 62
     7
370
    15
100
AcDbLine
 10
857.2910459813
 20
575.9987754029
 30
0.0
 11
857.2910459813
 21
560.9987599057
 31
0.0
  0
ARC
  5
A3
330
1F
100
AcDbEntity
  8
0
  6
Continuous
 62
     7
370
    15
100
AcDbCircle
 10
857.2910495576
 20
560.998763482
 30
0.0
 40
15.00000000000011
100
AcDbArc
 50
0.0
 51
90.0
  0
LINE
  5
A4
330
1F
100
AcDbEntity
  8
0
  6
Continuous
 62
     7
370
    15
100
AcDbLine
 10
271.0910471257
 20
52.033252756
 30
0.0
 11
272.2910376366
 21
52.033252756
 31
0.0
  0
LINE
  5
A5
330
1F
100
AcDbEntity
  8
0
  6
Continuous
 62
     7
370
    15
100
AcDbLine
 10
272.2910376366
 20
50.986252467
 30
0.0
 11
272.2910376366
 21
31.011275689
 31
0.0
  0
LINE
  5
A6
330
1F
100
AcDbEntity
  8
0
  6
Continuous
 62
     7
370
    15
100
AcDbLine
 10
271.0910471257
 20
29.9642754
 30
0.0
 11
272.2910376366
 21
29.9642754
 31
0.0
  0
LINE
  5
A7
330
1F
100
AcDbEntity
  8
0
  6
Continuous
 62
     7
370
    15
100
AcDbLine
 10
271.0910471257
 20
29.9642754
 30
0.0
 11
271.0910471257
 21
52.033252756
 31
0.0
  0
LINE
  5
A8
330
1F
100
AcDbEntity
  8
0
  6
Continuous
 62
     7
370
    15
100
AcDbLine
 10
271.0910471257
 20
522.0332515639
 30
0.0
 11
272.2910376366
 21
522.0332515639
 31
0.0
  0
LINE
  5
A9
330
1F
100
AcDbEntity
  8
0
  6
Continuous
 62
     7
370
    15
100
AcDbLine
 10
271.0910471257
 20
499.9642742079
 30
0.0
 11
272.2910376366
 21
499.9642742079
 31
0.0
  0
LINE
  5
AA
330
1F
100
AcDbEntity
  8
0
  6
Continuous
 62
     7
370
    15
100
AcDbLine
 10
272.2910376366
 20
520.9862512749
 30
0.0
 11
272.2910376366
 21
501.0112744969
 31
0.0
  0
LINE
  5
AB
330
1F
100
AcDbEntity
  8
0
  6
Continuous
 62
     7
370
    15
100
AcDbLine
 10
271.0910471257
 20
499.9642742079
 30
0.0
 11
271.0910471257
 21
522.0332515639
 31
0.0
  0
LINE
  5
AC
330
1F
100
AcDbEntity
  8
0
  6
Continuous
 62
     7
370
    15
100
AcDbLine
 10
270.9910603341
 20
32.9987627667
 30
0.0
 11
270.9910603341
 21
38.9987600249
 31
0.0
  0
LINE
  5
AD
330
1F
100
AcDbEntity
  8
0
  6
Continuous
 62
     7
370
    15
100
AcDbLine
 10
270.9910603341
 20
45.9987593096
 30
0.0
 11
270.9910603341
 21
48.9987653893
 31
0.0
  0
LINE
  5
AE
330
1F
100
AcDbEntity
  8
0
  6
Continuous
 62
     7
370
    15
100
AcDbLine
 10
270.9910603341
 20
42.9987681311
 30
0.0
 11
270.9910603341
 21
45.9987593096
 31
0.0
  0
LINE
  5
AF
330
1F
100
AcDbEntity
  8
0
  6
Continuous
 62
     7
370
    15
100
AcDbLine
 10
270.9910603341
 20
502.9987615746
 30
0.0
 11
270.9910603341
 21
508.9987588328
 31
0.0
  0
LINE
  5
B0
330
1F
100
AcDbEntity
  8
0
  6
Continuous
 62
     7
370
    15
100
AcDbLine
 10
270.9910603341
 20
515.9987581175
 30
0.0
 11
270.9910603341
 21
518.9987641972
 31
0.0
  0
LINE
  5
B1
330
1F
100
AcDbEntity
  8
0
  6
Continuous
 62
     7
370
    15
100
AcDbLine
 10
270.9910603341
 20
512.998766939
 30
0.0
 11
270.9910603341
 21
515.9987581175
 31
0.0
  0
LINE
  5
B2
330
1F
100
AcDbEntity
  8
0
  6
Continuous
 62
     7
370
    15
100
AcDbLine
 10
271.0910471257
 20
52.033252756
 30
0.0
 11
271.0910471257
 21
52.4987650317
 31
0.0
  0
LINE
  5
B3
330
1F
100
AcDbEntity
  8
0
  6
Continuous
 62
     7
370
    15
100
AcDbLine
 10
271.0910471257
 20
522.0332515639
 30
0.0
 11
271.0910471257
 21
522.4987638396
 31
0.0
  0
LINE
  5
B4
330
1F
100
AcDbEntity
  8
0
  6
Continuous
 62
     7
370
    15
100
AcDbLine
 10
271.0910471257
 20
29.4987631243
 30
0.0
 11
271.0910471257
 21
29.9642754
 31
0.0
  0
LINE
  5
B5
330
1F
100
AcDbEntity
  8
0
  6
Continuous
 62
     7
370
    15
100
AcDbLine
 10
271.0910471257
 20
499.4987619322
 30
0.0
 11
271.0910471257
 21
499.9642742079
 31
0.0
  0
LINE
  5
B6
330
1F
100
AcDbEntity
  8
0
  6
Continuous
 62
     7
370
    15
100
AcDbLine
 10
873.1924029168
 20
66.9987571639
 30
0.0
 11
873.1924029168
 21
31.9987607401
 31
0.0
  0
LINE
  5
B7
330
1F
100
AcDbEntity
  8
0
  6
Continuous
 62
     7
370
    15
100
AcDbLine
 10
873.1924029168
 20
66.9987571639
 30
0.0
 11
883.7910624322
 21
66.9987571639
 31
0.0
  0
LINE
  5
B8
330
1F
100
AcDbEntity
  8
0
  6
Continuous
 62
     7
370
    15
100
AcDbLine
 10
873.1924029168
 20
31.9987607401
 30
0.0
 11
883.7910624322
 21
31.9987607401
 31
0.0
  0
LINE
  5
B9
330
1F
100
AcDbEntity
  8
0
  6
Continuous
 62
     7
370
    15
100
AcDbLine
 10
873.1924029168
 20
519.9987662238
 30
0.0
 11
873.1924029168
 21
484.9987698
 31
0.0
  0
LINE
  5
BA
330
1F
100
AcDbEntity
  8
0
  6
Continuous
 62
     7
370
    15
100
AcDbLine
 10
873.1924029168
 20
519.9987662238
 30
0.0
 11
883.7910624322
 21
519.9987662238
 31
0.0
  0
LINE
  5
BB
330
1F
100
AcDbEntity
  8
0
  6
Continuous
 62
     7
370
    15
100
AcDbLine
 10
873.1924029168
 20
484.9987698
 30
0.0
 11
883.7910624322
 21
484.9987698
 31
0.0
  0
LINE
  5
BC
330
1F
100
AcDbEntity
  8
0
  6
Continuous
 62
     7
370
    15
100
AcDbLine
 10
872.7288873967
 20
66.9987571639
 30
0.0
 11
872.7288873967
 21
31.9987607401
 31
0.0
  0
LINE
  5
BD
330
1F
100
AcDbEntity
  8
0
  6
Continuous
 62
     7
370
    15
100
AcDbLine
 10
872.7288873967
 20
66.9987571639
 30
0.0
 11
873.1924029168
 21
66.9987571639
 31
0.0
  0
LINE
  5
BE
330
1F
100
AcDbEntity
  8
0
  6
Continuous
 62
     7
370
    15
100
AcDbLine
 10
872.7288873967
 20
31.9987607401
 30
0.0
 11
873.1924029168
 21
31.9987607401
 31
0.0
  0
LINE
  5
BF
330
1F
100
AcDbEntity
  8
0
  6
Continuous
 62
     7
370
    15
100
AcDbLine
 10
872.7288873967
 20
519.9987662238
 30
0.0
 11
872.7288873967
 21
484.9987698
 31
0.0
  0
LINE
  5
C0
330
1F
100
AcDbEntity
  8
0
  6
Continuous
 62
     7
370
    15
100
AcDbLine
 10
872.7288873967
 20
519.9987662238
 30
0.0
 11
873.1924029168
 21
519.9987662238
 31
0.0
  0
LINE
  5
C1
330
1F
100
AcDbEntity
  8
0
  6
Continuous
 62
     7
370
    15
100
AcDbLine
 10
872.7288873967
 20
484.9987698
 30
0.0
 11
873.1924029168
 21
484.9987698
 31
0.0
  0
LINE
  5
C2
330
1F
100
AcDbEntity
  8
0
  6
Continuous
 62
     7
370
    15
100
AcDbLine
 10
872.2910614785
 20
66.9987571639
 30
0.0
 11
872.7288873967
 21
66.9987571639
 31
0.0
  0
LINE
  5
C3
330
1F
100
AcDbEntity
  8
0
  6
Continuous
 62
     7
370
    15
100
AcDbLine
 10
872.2910614785
 20
31.9987607401
 30
0.0
 11
872.7288873967
 21
31.9987607401
 31
0.0
  0
LINE
  5
C4
330
1F
100
AcDbEntity
  8
0
  6
Continuous
 62
     7
370
    15
100
AcDbLine
 10
872.2910614785
 20
519.9987662238
 30
0.0
 11
872.7288873967
 21
519.9987662238
 31
0.0
  0
LINE
  5
C5
330
1F
100
AcDbEntity
  8
0
  6
Continuous
 62
     7
370
    15
100
AcDbLine
 10
872.2910614785
 20
484.9987698
 30
0.0
 11
872.7288873967
 21
484.9987698
 31
0.0
  0
LINE
  5
C6
330
1F
100
AcDbEntity
  8
0
  6
Continuous
 62
     7
370
    15
100
AcDbLine
 10
264.9735840138
 20
34.498758356
 30
0.0
 11
264.2430694874
 21
34.498758356
 31
0.0
  0
ARC
  5
C7
330
1F
100
AcDbEntity
  8
0
  6
Continuous
 62
     7
370
    15
100
AcDbCircle
 10
264.383185104
 20
35.5875488155
 30
0.0
 40
1.097769124501666
100
AcDbArc
 50
174.1853908748
 51
262.6669531193
  0
LINE
  5
C8
330
1F
100
AcDbEntity
  8
0
  6
Continuous
 62
     7
370
    15
100
AcDbLine
 10
263.2910641011
 20
35.6987637681
 30
0.0
 11
264.0215488251
 21
35.6987637681
 31
0.0
  0
ARC
  5
C9
330
1F
100
AcDbEntity
  8
0
  6
Continuous
 62
     7
370
    15
100
AcDbCircle
 10
265.1137348636
 20
35.5876038914
 30
0.0
 40
1.097828247438525
100
AcDbArc
 50
174.1885943756
 51
262.665496213
  0
ARC
  5
CA
330
1F
100
AcDbEntity
  8
0
  6
Continuous
 62
     7
370
    15
100
AcDbCircle
 10
265.1137348636
 20
46.4099242646
 30
0.0
 40
1.097828247438524
100
AcDbArc
 50
97.334503787
 51
185.8114056244
  0
LINE
  5
CB
330
1F
100
AcDbEntity
  8
0
  6
Continuous
 62
     7
370
    15
100
AcDbLine
 10
264.9735840138
 20
47.4987698
 30
0.0
 11
268.5170205411
 21
47.4987698
 31
0.0
  0
LINE
  5
CC
330
1F
100
AcDbEntity
  8
0
  6
Continuous
 62
     7
370
    15
100
AcDbLine
 10
268.5170205411
 20
47.4987698
 30
0.0
 11
268.5170205411
 21
34.498758356
 31
0.0
  0
LINE
  5
CD
330
1F
100
AcDbEntity
  8
0
  6
Continuous
 62
     7
370
    15
100
AcDbLine
 10
268.5170205411
 20
34.498758356
 30
0.0
 11
264.9735840138
 21
34.498758356
 31
0.0
  0
LINE
  5
CE
330
1F
100
AcDbEntity
  8
0
  6
Continuous
 62
     7
370
    15
100
AcDbLine
 10
264.0215488251
 20
46.2987643879
 30
0.0
 11
264.0215488251
 21
35.6987637681
 31
0.0
  0
LINE
  5
CF
330
1F
100
AcDbEntity
  8
0
  6
Continuous
 62
     7
370
    15
100
AcDbLine
 10
264.0215488251
 20
46.2987643879
 30
0.0
 11
263.2910641011
 21
46.2987643879
 31
0.0
  0
LINE
  5
D0
330
1F
100
AcDbEntity
  8
0
  6
Continuous
 62
     7
370
    15
100
AcDbLine
 10
263.2910641011
 20
46.2987643879
 30
0.0
 11
263.2910641011
 21
35.6987637681
 31
0.0
  0
LINE
  5
D1
330
1F
100
AcDbEntity
  8
0
  6
Continuous
 62
     7
370
    15
100
AcDbLine
 10
264.2430694874
 20
47.4987698
 30
0.0
 11
264.9735840138
 21
47.4987698
 31
0.0
  0
ARC
  5
D2
330
1F
100
AcDbEntity
  8
0
  6
Continuous
 62
     7
370
    15
100
AcDbCircle
 10
264.383185104
 20
46.4099793405
 30
0.0
 40
1.097769124501666
100
AcDbArc
 50
97.3330468807
 51
185.8146091252
  0
ARC
  5
D3
330
1F
100
AcDbEntity
  8
0
  6
Continuous
 62
     7
370
    15
100
AcDbCircle
 10
265.1137348636
 20
516.4099230725
 30
0.0
 40
1.097828247438637
100
AcDbArc
 50
97.334503787
 51
185.8114056244
  0
LINE
  5
D4
330
1F
100
AcDbEntity
  8
0
  6
Continuous
 62
     7
370
    15
100
AcDbLine
 10
264.9735840138
 20
517.498768608
 30
0.0
 11
268.5170205411
 21
517.498768608
 31
0.0
  0
LINE
  5
D5
330
1F
100
AcDbEntity
  8
0
  6
Continuous
 62
     7
370
    15
100
AcDbLine
 10
268.5170205411
 20
517.498768608
 30
0.0
 11
268.5170205411
 21
504.4987571639
 31
0.0
  0
LINE
  5
D6
330
1F
100
AcDbEntity
  8
0
  6
Continuous
 62
     7
370
    15
100
AcDbLine
 10
268.5170205411
 20
504.4987571639
 30
0.0
 11
264.9735840138
 21
504.4987571639
 31
0.0
  0
ARC
  5
D7
330
1F
100
AcDbEntity
  8
0
  6
Continuous
 62
     7
370
    15
100
AcDbCircle
 10
265.1137348636
 20
505.5876026994
 30
0.0
 40
1.097828247438525
100
AcDbArc
 50
174.1885943756
 51
262.665496213
  0
LINE
  5
D8
330
1F
100
AcDbEntity
  8
0
  6
Continuous
 62
     7
370
    15
100
AcDbLine
 10
264.0215488251
 20
516.2987631959
 30
0.0
 11
264.0215488251
 21
505.698762576
 31
0.0
  0
LINE
  5
D9
330
1F
100
AcDbEntity
  8
0
  6
Continuous
 62
     7
370
    15
100
AcDbLine
 10
264.9735840138
 20
504.4987571639
 30
0.0
 11
264.2430694874
 21
504.4987571639
 31
0.0
  0
ARC
  5
DA
330
1F
100
AcDbEntity
  8
0
  6
Continuous
 62
     7
370
    15
100
AcDbCircle
 10
264.383185104
 20
505.5875476234
 30
0.0
 40
1.09776912450168
100
AcDbArc
 50
174.1853908748
 51
262.6669531193
  0
LINE
  5
DB
330
1F
100
AcDbEntity
  8
0
  6
Continuous
 62
     7
370
    15
100
AcDbLine
 10
263.2910641011
 20
505.698762576
 30
0.0
 11
264.0215488251
 21
505.698762576
 31
0.0
  0
LINE
  5
DC
330
1F
100
AcDbEntity
  8
0
  6
Continuous
 62
     7
370
    15
100
AcDbLine
 10
264.2430694874
 20
517.498768608
 30
0.0
 11
264.9735840138
 21
517.498768608
 31
0.0
  0
LINE
  5
DD
330
1F
100
AcDbEntity
  8
0
  6
Continuous
 62
     7
370
    15
100
AcDbLine
 10
264.0215488251
 20
516.2987631959
 30
0.0
 11
263.2910641011
 21
516.2987631959
 31
0.0
  0
ARC
  5
DE
330
1F
100
AcDbEntity
  8
0
  6
Continuous
 62
     7
370
    15
100
AcDbCircle
 10
264.383185104
 20
516.4099781485
 30
0.0
 40
1.097769124501793
100
AcDbArc
 50
97.3330468807
 51
185.8146091252
  0
LINE
  5
DF
330
1F
100
AcDbEntity
  8
0
  6
Continuous
 62
     7
370
    15
100
AcDbLine
 10
263.2910641011
 20
516.2987631959
 30
0.0
 11
263.2910641011
 21
505.698762576
 31
0.0
  0
LINE
  5
E0
330
1F
100
AcDbEntity
  8
0
  6
Continuous
 62
     7
370
    15
100
AcDbLine
 10
268.5985596951
 20
47.4987698
 30
0.0
 11
268.5170205411
 21
47.4987698
 31
0.0
  0
LINE
  5
E1
330
1F
100
AcDbEntity
  8
0
  6
Continuous
 62
     7
370
    15
100
AcDbLine
 10
268.5170205411
 20
34.498758356
 30
0.0
 11
268.6505647477
 21
34.498758356
 31
0.0
  0
LINE
  5
E2
330
1F
100
AcDbEntity
  8
0
  6
Continuous
 62
     7
370
    15
100
AcDbLine
 10
268.5985596951
 20
517.498768608
 30
0.0
 11
268.5170205411
 21
517.498768608
 31
0.0
  0
LINE
  5
E3
330
1F
100
AcDbEntity
  8
0
  6
Continuous
 62
     7
370
    15
100
AcDbLine
 10
268.5170205411
 20
504.4987571639
 30
0.0
 11
268.6505647477
 21
504.4987571639
 31
0.0
  0
LINE
  5
E4
330
1F
100
AcDbEntity
  8
0
  6
Continuous
 62
     7
370
    15
100
AcDbLine
 10
263.2910641011
 20
36.2987590235
 30
0.0
 11
263.1862493333
 21
36.2987590235
 31
0.0
  0
LINE
  5
E5
330
1F
100
AcDbEntity
  8
0
  6
Continuous
 62
     7
370
    15
100
AcDbLine
 10
263.2910641011
 20
44.8987704915
 30
0.0
 11
263.1862493333
 21
44.8987704915
 31
0.0
  0
LINE
  5
E6
330
1F
100
AcDbEntity
  8
0
  6
Continuous
 62
     7
370
    15
100
AcDbLine
 10
268.6569424447
 20
33.7987614077
 30
0.0
 11
263.7910576638
 21
33.7987614077
 31
0.0
  0
LINE
  5
E7
330
1F
100
AcDbEntity
  8
0
  6
Continuous
 62
     7
370
    15
100
AcDbLine
 10
268.665197688
 20
32.9987627667
 30
0.0
 11
263.7916537102
 21
32.9987627667
 31
0.0
  0
LINE
  5
E8
330
1F
100
AcDbEntity
  8
0
  6
Continuous
 62
     7
370
    15
100
AcDbLine
 10
268.6195107278
 20
48.9987653893
 30
0.0
 11
263.7916537102
 21
48.9987653893
 31
0.0
  0
LINE
  5
E9
330
1F
100
AcDbEntity
  8
0
  6
Continuous
 62
     7
370
    15
100
AcDbLine
 10
268.6592074212
 20
48.1987667483
 30
0.0
 11
263.7910576638
 21
48.1987667483
 31
0.0
  0
LINE
  5
EA
330
1F
100
AcDbEntity
  8
0
  6
Continuous
 62
     7
370
    15
100
AcDbLine
 10
267.3910589989
 20
49.2987704676
 30
0.0
 11
268.5544224557
 21
49.2987704676
 31
0.0
  0
LINE
  5
EB
330
1F
100
AcDbEntity
  8
0
  6
Continuous
 62
     7
370
    15
100
AcDbLine
 10
268.7175603684
 20
49.2987704676
 30
0.0
 11
268.7799068268
 21
49.2987704676
 31
0.0
  0
LINE
  5
EC
330
1F
100
AcDbEntity
  8
0
  6
Continuous
 62
     7
370
    15
100
AcDbLine
 10
265.1910515603
 20
49.2987704676
 30
0.0
 11
267.3910589989
 21
49.2987704676
 31
0.0
  0
LINE
  5
ED
330
1F
100
AcDbEntity
  8
0
  6
Continuous
 62
     7
370
    15
100
AcDbLine
 10
267.3910589989
 20
32.5987708968
 30
0.0
 11
268.4944303807
 21
32.5987708968
 31
0.0
  0
LINE
  5
EE
330
1F
100
AcDbEntity
  8
0
  6
Continuous
 62
     7
370
    15
100
AcDbLine
 10
265.2910383519
 20
32.5987708968
 30
0.0
 11
267.3910589989
 21
32.5987708968
 31
0.0
  0
LINE
  5
EF
330
1F
100
AcDbEntity
  8
0
  6
Continuous
 62
     7
370
    15
100
AcDbLine
 10
267.3910589989
 20
32.1987641257
 30
0.0
 11
268.2545514878
 21
32.1987641257
 31
0.0
  0
LINE
  5
F0
330
1F
100
AcDbEntity
  8
0
  6
Continuous
 62
     7
370
    15
100
AcDbLine
 10
265.2910383519
 20
32.1987641257
 30
0.0
 11
267.3910589989
 21
32.1987641257
 31
0.0
  0
ARC
  5
F1
330
1F
100
AcDbEntity
  8
0
  6
Continuous
 62
     7
370
    15
100
AcDbCircle
 10
264.2565681883
 20
48.2011174634
 30
0.0
 40
0.8024888267358626
100
AcDbArc
 50
125.4564155542
 51
180.1678356692
  0
ARC
  5
F2
330
1F
100
AcDbEntity
  8
0
  6
Continuous
 62
     7
370
    15
100
AcDbCircle
 10
264.2565681883
 20
33.7964106926
 30
0.0
 40
0.8024888267358626
100
AcDbArc
 50
179.8321643308
 51
234.5435844458
  0
LINE
  5
F3
330
1F
100
AcDbEntity
  8
0
  6
Continuous
 62
     7
370
    15
100
AcDbLine
 10
264.2419369992
 20
34.2487615746
 30
0.0
 11
264.2419369992
 21
33.7987614077
 31
0.0
  0
LINE
  5
F4
330
1F
100
AcDbEntity
  8
0
  6
Continuous
 62
     7
370
    15
100
AcDbLine
 10
264.2419369992
 20
48.1987667483
 30
0.0
 11
264.2419369992
 21
47.7487665814
 31
0.0
  0
LINE
  5
F5
330
1F
100
AcDbEntity
  8
0
  6
Continuous
 62
     7
370
    15
100
AcDbLine
 10
263.4540828046
 20
33.7987614077
 30
0.0
 11
263.4540828046
 21
35.0272131365
 31
0.0
  0
LINE
  5
F6
330
1F
100
AcDbEntity
  8
0
  6
Continuous
 62
     7
370
    15
100
AcDbLine
 10
263.4540828046
 20
46.9703150195
 30
0.0
 11
263.4540828046
 21
48.1987667483
 31
0.0
  0
SPLINE
  5
F7
330
1F
100
AcDbEntity
  8
0
  6
Continuous
 62
     7
370
    15
100
AcDbSpline
210
0.0
220
0.0
230
1.0
 70
    24
 71
     3
 72
    12
 73
     8
 74
     0
 42
0.00000001
 43
0.00000001
 40
0.0
 40
0.0
 40
0.0
 40
0.0
 40
0.2185057815962484
 40
0.4370129915963154
 40
0.6555162179206331
 40
0.8740236704134351
 40
1.0
 40
1.0
 40
1.0
 40
1.0
 10
270.4503866013216
 20
47.69115869221924
 30
0.0
 10
270.2536665988113
 20
47.69115869221924
 30
0.0
 10
269.8602253078035
 20
47.69115869221921
 30
0.0
 10
269.2994783632513
 20
47.69115869221932
 30
0.0
 10
268.881812375017
 20
47.69115869221927
 30
0.0
 10
268.6552595484626
 20
47.69115869221927
 30
0.0
 10
268.6727710805329
 20
47.69115869221924
 30
0.0
 10
268.6791749771761
 20
47.69115869221924
 30
0.0
  0
SPLINE
  5
F8
330
1F
100
AcDbEntity
  8
0
  6
Continuous
 62
     7
370
    15
100
AcDbSpline
210
0.0
220
0.0
230
1.0
 70
    24
 71
     3
 72
     9
 73
     5
 74
     0
 42
0.00000001
 43
0.00000001
 40
0.0
 40
0.0
 40
0.0
 40
0.0
 40
0.1969977672690561
 40
1.0
 40
1.0
 40
1.0
 40
1.0
 10
271.0910471256898
 20
47.69115869221921
 30
0.0
 10
271.0584000068977
 20
47.69115869221921
 30
0.0
 10
270.8926767134577
 20
47.69115869221921
 30
0.0
 10
270.6473691347388
 20
47.69115869221924
 30
0.0
 10
270.4503866013216
 20
47.69115869221924
 30
0.0
  0
SPLINE
  5
F9
330
1F
100
AcDbEntity
  8
0
  6
Continuous
 62
     7
370
    15
100
AcDbSpline
210
0.0
220
0.0
230
1.0
 70
     8
 71
     3
 72
    13
 73
     9
 74
     0
 42
0.00000001
 43
0.00000001
 40
0.0
 40
0.0
 40
0.0
 40
0.0
 40
0.1877298953325393
 40
0.3754728305372036
 40
0.5632112368984064
 40
0.7509454828094013
 40
0.9386831605173751
 40
1.0
 40
1.0
 40
1.0
 40
1.0
 10
270.1571019467043
 20
51.30600158391236
 30
0.0
 10
269.9604158435471
 20
51.30329672157596
 30
0.0
 10
269.5670299752552
 20
51.29788680902125
 30
0.0
 10
269.0340076677199
 20
51.00736482063495
 30
0.0
 10
268.6434791607708
 20
50.55245658362634
 30
0.0
 10
268.4705396716122
 20
49.99078261883308
 30
0.0
 10
268.473795582994
 20
49.51757695436548
 30
0.0
 10
268.6011500630065
 20
49.29615352396724
 30
0.0
 10
268.632504540317
 20
49.24163941560028
 30
0.0
  0
SPLINE
  5
FA
330
1F
100
AcDbEntity
  8
0
  6
Continuous
 62
     7
370
    15
100
AcDbSpline
210
0.0
220
0.0
230
1.0
 70
     8
 71
     3
 72
    10
 73
     6
 74
     0
 42
0.00000001
 43
0.00000001
 40
0.0
 40
0.0
 40
0.0
 40
0.0
 40
0.20933945978085
 40
0.6046633240057445
 40
0.9999999999999999
 40
0.9999999999999999
 40
0.9999999999999999
 40
0.9999999999999999
 10
271.294298964374
 20
50.49987856564758
 30
0.0
 10
271.2525907875398
 20
50.59294130977787
 30
0.0
 10
271.1321194494122
 20
50.86174695332854
 30
0.0
 10
270.7254207944641
 20
51.17841445681279
 30
0.0
 10
270.3465436090512
 20
51.26347208212464
 30
0.0
 10
270.1571019467043
 20
51.30600158391236
 30
0.0
  0
SPLINE
  5
FB
330
1F
100
AcDbEntity
  8
0
  6
Continuous
 62
     7
370
    15
100
AcDbSpline
210
0.0
220
0.0
230
1.0
 70
     8
 71
     3
 72
    13
 73
     9
 74
     0
 42
0.00000001
 43
0.00000001
 40
0.0
 40
0.0
 40
0.0
 40
0.0
 40
0.1768560583406532
 40
0.3537248257769643
 40
0.5305893266827663
 40
0.7074541548476563
 40
0.8843179693042006
 40
1.0
 40
1.0
 40
1.0
 40
1.0
 10
270.1398762043642
 20
30.66281203446625
 30
0.0
 10
269.9432144777979
 20
30.665501201489
 30
0.0
 10
269.5498768923097
 20
30.67087972878141
 30
0.0
 10
269.0164881211062
 20
30.96154855649558
 30
0.0
 10
268.6273523871101
 20
31.41591956102471
 30
0.0
 10
268.4491974490051
 20
31.97961571464592
 30
0.0
 10
268.4701513286581
 20
32.51277715881889
 30
0.0
 10
268.636259457856
 20
32.78604007121402
 30
0.0
 10
268.7019439514802
 20
32.89409701047177
 30
0.0
  0
SPLINE
  5
FC
330
1F
100
AcDbEntity
  8
0
  6
Continuous
 62
     7
370
    15
100
AcDbSpline
210
0.0
220
0.0
230
1.0
 70
     8
 71
     3
 72
    10
 73
     6
 74
     0
 42
0.00000001
 43
0.00000001
 40
0.0
 40
0.0
 40
0.0
 40
0.0
 40
0.0588223105923514
 40
0.5294052587721398
 40
1.0
 40
1.0
 40
1.0
 40
1.0
 10
271.1699934776949
 20
31.26271788296936
 30
0.0
 10
271.1593589532632
 20
31.24123693071324
 30
0.0
 10
271.0636474264292
 20
31.04790673043223
 30
0.0
 10
270.7027698185001
 20
30.79372641135913
 30
0.0
 10
270.3275089764279
 20
30.70645052462237
 30
0.0
 10
270.1398762043642
 20
30.66281203446625
 30
0.0
  0
SPLINE
  5
FD
330
1F
100
AcDbEntity
  8
0
  6
Continuous
 62
     7
370
    15
100
AcDbSpline
210
0.0
220
0.0
230
1.0
 70
    24
 71
     3
 72
    12
 73
     8
 74
     0
 42
0.00000001
 43
0.00000001
 40
0.0
 40
0.0
 40
0.0
 40
0.0
 40
0.2193551470434282
 40
0.4387117280430993
 40
0.6580643098818634
 40
0.8774211343168761
 40
1.0
 40
1.0
 40
1.0
 40
1.0
 10
270.4503866013216
 20
34.13253251729248
 30
0.0
 10
270.2536712802105
 20
34.13253251729245
 30
0.0
 10
269.8602393520319
 20
34.13253251729245
 30
0.0
 10
269.2994221863354
 20
34.13253251729243
 30
0.0
 10
268.8820230358372
 20
34.13253251729248
 30
0.0
 10
268.6561778892171
 20
34.13253251729256
 30
0.0
 10
268.6731502445477
 20
34.13253251729245
 30
0.0
 10
268.6792345818209
 20
34.13253251729248
 30
0.0
  0
SPLINE
  5
FE
330
1F
100
AcDbEntity
  8
0
  6
Continuous
 62
     7
370
    15
100
AcDbSpline
210
0.0
220
0.0
230
1.0
 70
    24
 71
     3
 72
     9
 73
     5
 74
     0
 42
0.00000001
 43
0.00000001
 40
0.0
 40
0.0
 40
0.0
 40
0.0
 40
0.1969977672690561
 40
1.0
 40
1.0
 40
1.0
 40
1.0
 10
271.0910471256898
 20
34.13253251729245
 30
0.0
 10
271.0584000068977
 20
34.13253251729245
 30
0.0
 10
270.8926767134577
 20
34.13253251729248
 30
0.0
 10
270.6473691347388
 20
34.13253251729251
 30
0.0
 10
270.4503866013216
 20
34.13253251729248
 30
0.0
  0
SPLINE
  5
FF
330
1F
100
AcDbEntity
  8
0
  6
Continuous
 62
     7
370
    15
100
AcDbSpline
210
0.0
220
0.0
230
1.0
 70
     8
 71
     3
 72
    13
 73
     9
 74
     0
 42
0.00000001
 43
0.00000001
 40
0.0
 40
0.0
 40
0.0
 40
0.0
 40
0.1768666446852921
 40
0.3537286573976354
 40
0.5305943864519905
 40
0.7074561960043457
 40
0.8843212386046765
 40
1.0
 40
1.0
 40
1.0
 40
1.0
 10
268.5880394753145
 20
53.9224219721341
 30
0.0
 10
268.3913668597562
 20
53.91972974930373
 30
0.0
 10
267.9980267793122
 20
53.91434537414977
 30
0.0
 10
267.4646465932302
 20
53.62366145713085
 30
0.0
 10
267.0755202062388
 20
53.16930381825988
 30
0.0
 10
266.8973559372733
 20
52.60561255860014
 30
0.0
 10
266.9183241788193
 20
52.07246614534961
 30
0.0
 10
267.0844050879676
 20
51.79919492189156
 30
0.0
 10
267.1500774201082
 20
51.69113699612854
 30
0.0
  0
SPLINE
  5
100
330
1F
100
AcDbEntity
  8
0
  6
Continuous
 62
     7
370
    15
100
AcDbSpline
210
0.0
220
0.0
230
1.0
 70
     8
 71
     3
 72
    10
 73
     6
 74
     0
 42
0.00000001
 43
0.00000001
 40
0.0
 40
0.0
 40
0.0
 40
0.0
 40
0.1474527595633529
 40
0.5737379607484987
 40
1.0
 40
1.0
 40
1.0
 40
1.0
 10
269.6766289051699
 20
53.20989314732788
 30
0.0
 10
269.6485721175878
 20
53.27018536657632
 30
0.0
 10
269.5394032953823
 20
53.50478209452514
 30
0.0
 10
269.1543202398028
 20
53.79357597767101
 30
0.0
 10
268.7767963112975
 20
53.87947408520394
 30
0.0
 10
268.5880394753145
 20
53.9224219721341
 30
0.0
  0
SPLINE
  5
101
330
1F
100
AcDbEntity
  8
0
  6
Continuous
 62
     7
370
    15
100
AcDbSpline
210
0.0
220
0.0
230
1.0
 70
     8
 71
     3
 72
    13
 73
     9
 74
     0
 42
0.00000001
 43
0.00000001
 40
0.0
 40
0.0
 40
0.0
 40
0.0
 40
0.1768662259612083
 40
0.3537257360166322
 40
0.5305910463490713
 40
0.7074561085844496
 40
0.8843215124691096
 40
1.0
 40
1.0
 40
1.0
 40
1.0
 10
268.5708137329744
 20
28.0463916462445
 30
0.0
 10
268.3741417594434
 20
28.04908506685844
 30
0.0
 10
267.9808052803443
 20
28.05447180581277
 30
0.0
 10
267.4474172254641
 20
28.34513495012298
 30
0.0
 10
267.0582914430631
 20
28.79949791970202
 30
0.0
 10
266.8801316075604
 20
29.36319975363888
 30
0.0
 10
266.901097780754
 20
29.89634602480207
 30
0.0
 10
267.0671792852963
 20
30.1696184925711
 30
0.0
 10
267.1328516777681
 20
30.27767662225006
 30
0.0
  0
SPLINE
  5
102
330
1F
100
AcDbEntity
  8
0
  6
Continuous
 62
     7
370
    15
100
AcDbSpline
210
0.0
220
0.0
230
1.0
 70
     8
 71
     3
 72
    10
 73
     6
 74
     0
 42
0.00000001
 43
0.00000001
 40
0.0
 40
0.0
 40
0.0
 40
0.0
 40
0.1474638927593408
 40
0.5737391341105101
 40
1.0
 40
1.0
 40
1.0
 40
1.0
 10
269.6594031628298
 20
28.75892047105072
 30
0.0
 10
269.6313472690863
 20
28.69862285001398
 30
0.0
 10
269.5221899433037
 20
28.46402233706663
 30
0.0
 10
269.1370855805503
 20
28.17523921540147
 30
0.0
 10
268.7595688936045
 20
28.08934035315469
 30
0.0
 10
268.5708137329744
 20
28.0463916462445
 30
0.0
  0
LINE
  5
103
330
1F
100
AcDbEntity
  8
0
  6
Continuous
 62
     7
370
    15
100
AcDbLine
 10
263.2910641011
 20
506.2987578314
 30
0.0
 11
263.1862493333
 21
506.2987578314
 31
0.0
  0
LINE
  5
104
330
1F
100
AcDbEntity
  8
0
  6
Continuous
 62
     7
370
    15
100
AcDbLine
 10
263.2910641011
 20
514.8987692994
 30
0.0
 11
263.1862493333
 21
514.8987692994
 31
0.0
  0
LINE
  5
105
330
1F
100
AcDbEntity
  8
0
  6
Continuous
 62
     7
370
    15
100
AcDbLine
 10
268.6569424447
 20
503.7987602156
 30
0.0
 11
263.7910576638
 21
503.7987602156
 31
0.0
  0
LINE
  5
106
330
1F
100
AcDbEntity
  8
0
  6
Continuous
 62
     7
370
    15
100
AcDbLine
 10
268.665197688
 20
502.9987615746
 30
0.0
 11
263.7916537102
 21
502.9987615746
 31
0.0
  0
LINE
  5
107
330
1F
100
AcDbEntity
  8
0
  6
Continuous
 62
     7
370
    15
100
AcDbLine
 10
268.6592074212
 20
518.1987655562
 30
0.0
 11
263.7910576638
 21
518.1987655562
 31
0.0
  0
LINE
  5
108
330
1F
100
AcDbEntity
  8
0
  6
Continuous
 62
     7
370
    15
100
AcDbLine
 10
268.6195107278
 20
518.9987641972
 30
0.0
 11
263.7916537102
 21
518.9987641972
 31
0.0
  0
LINE
  5
109
330
1F
100
AcDbEntity
  8
0
  6
Continuous
 62
     7
370
    15
100
AcDbLine
 10
267.3910589989
 20
519.2987692755
 30
0.0
 11
268.5544224557
 21
519.2987692755
 31
0.0
  0
LINE
  5
10A
330
1F
100
AcDbEntity
  8
0
  6
Continuous
 62
     7
370
    15
100
AcDbLine
 10
268.7175603684
 20
519.2987692755
 30
0.0
 11
268.7799068268
 21
519.2987692755
 31
0.0
  0
LINE
  5
10B
330
1F
100
AcDbEntity
  8
0
  6
Continuous
 62
     7
370
    15
100
AcDbLine
 10
265.1910515603
 20
519.2987692755
 30
0.0
 11
267.3910589989
 21
519.2987692755
 31
0.0
  0
LINE
  5
10C
330
1F
100
AcDbEntity
  8
0
  6
Continuous
 62
     7
370
    15
100
AcDbLine
 10
267.3910589989
 20
502.5987697047
 30
0.0
 11
268.4944303807
 21
502.5987697047
 31
0.0
  0
LINE
  5
10D
330
1F
100
AcDbEntity
  8
0
  6
Continuous
 62
     7
370
    15
100
AcDbLine
 10
265.2910383519
 20
502.5987697047
 30
0.0
 11
267.3910589989
 21
502.5987697047
 31
0.0
  0
LINE
  5
10E
330
1F
100
AcDbEntity
  8
0
  6
Continuous
 62
     7
370
    15
100
AcDbLine
 10
267.3910589989
 20
502.1987629336
 30
0.0
 11
268.2545514878
 21
502.1987629336
 31
0.0
  0
LINE
  5
10F
330
1F
100
AcDbEntity
  8
0
  6
Continuous
 62
     7
370
    15
100
AcDbLine
 10
265.2910383519
 20
502.1987629336
 30
0.0
 11
267.3910589989
 21
502.1987629336
 31
0.0
  0
ARC
  5
110
330
1F
100
AcDbEntity
  8
0
  6
Continuous
 62
     7
370
    15
100
AcDbCircle
 10
264.2565681883
 20
503.7964095005
 30
0.0
 40
0.8024888267358854
100
AcDbArc
 50
179.8321643308
 51
234.5435844458
  0
ARC
  5
111
330
1F
100
AcDbEntity
  8
0
  6
Continuous
 62
     7
370
    15
100
AcDbCircle
 10
264.2565681883
 20
518.2011162713
 30
0.0
 40
0.802488826735978
100
AcDbArc
 50
125.4564155542
 51
180.1678356692
  0
LINE
  5
112
330
1F
100
AcDbEntity
  8
0
  6
Continuous
 62
     7
370
    15
100
AcDbLine
 10
264.2419369992
 20
504.2487603825
 30
0.0
 11
264.2419369992
 21
503.7987602156
 31
0.0
  0
LINE
  5
113
330
1F
100
AcDbEntity
  8
0
  6
Continuous
 62
     7
370
    15
100
AcDbLine
 10
264.2419369992
 20
518.1987655562
 30
0.0
 11
264.2419369992
 21
517.7487653893
 31
0.0
  0
LINE
  5
114
330
1F
100
AcDbEntity
  8
0
  6
Continuous
 62
     7
370
    15
100
AcDbLine
 10
263.4540828046
 20
516.9703138274
 30
0.0
 11
263.4540828046
 21
518.1987655562
 31
0.0
  0
LINE
  5
115
330
1F
100
AcDbEntity
  8
0
  6
Continuous
 62
     7
370
    15
100
AcDbLine
 10
263.4540828046
 20
503.7987602156
 30
0.0
 11
263.4540828046
 21
505.0272119444
 31
0.0
  0
SPLINE
  5
116
330
1F
100
AcDbEntity
  8
0
  6
Continuous
 62
     7
370
    15
100
AcDbSpline
210
0.0
220
0.0
230
1.0
 70
    24
 71
     3
 72
    12
 73
     8
 74
     0
 42
0.00000001
 43
0.00000001
 40
0.0
 40
0.0
 40
0.0
 40
0.0
 40
0.2185057815962484
 40
0.4370129915963154
 40
0.6555162179206331
 40
0.8740236704134351
 40
1.0
 40
1.0
 40
1.0
 40
1.0
 10
270.4503866013216
 20
517.6911575001265
 30
0.0
 10
270.2536665988113
 20
517.6911575001263
 30
0.0
 10
269.8602253078035
 20
517.6911575001265
 30
0.0
 10
269.2994783632513
 20
517.6911575001263
 30
0.0
 10
268.881812375017
 20
517.6911575001263
 30
0.0
 10
268.6552595484626
 20
517.6911575001263
 30
0.0
 10
268.6727710805329
 20
517.6911575001265
 30
0.0
 10
268.6791749771761
 20
517.6911575001265
 30
0.0
  0
SPLINE
  5
117
330
1F
100
AcDbEntity
  8
0
  6
Continuous
 62
     7
370
    15
100
AcDbSpline
210
0.0
220
0.0
230
1.0
 70
    24
 71
     3
 72
     9
 73
     5
 74
     0
 42
0.00000001
 43
0.00000001
 40
0.0
 40
0.0
 40
0.0
 40
0.0
 40
0.1969977672690561
 40
1.0
 40
1.0
 40
1.0
 40
1.0
 10
271.0910471256898
 20
517.6911575001265
 30
0.0
 10
271.0584000068977
 20
517.6911575001265
 30
0.0
 10
270.8926767134577
 20
517.6911575001265
 30
0.0
 10
270.6473691347388
 20
517.6911575001265
 30
0.0
 10
270.4503866013216
 20
517.6911575001265
 30
0.0
  0
SPLINE
  5
118
330
1F
100
AcDbEntity
  8
0
  6
Continuous
 62
     7
370
    15
100
AcDbSpline
210
0.0
220
0.0
230
1.0
 70
     8
 71
     3
 72
    13
 73
     9
 74
     0
 42
0.00000001
 43
0.00000001
 40
0.0
 40
0.0
 40
0.0
 40
0.0
 40
0.1877298953325393
 40
0.3754728305372036
 40
0.5632112368984064
 40
0.7509454828094013
 40
0.9386831605173751
 40
1.0
 40
1.0
 40
1.0
 40
1.0
 10
270.1571019467043
 20
521.3060003918196
 30
0.0
 10
269.9604158435471
 20
521.3032955294831
 30
0.0
 10
269.5670299752552
 20
521.2978856169284
 30
0.0
 10
269.0340076677199
 20
521.007363628542
 30
0.0
 10
268.6434791607708
 20
520.5524553915334
 30
0.0
 10
268.4705396716122
 20
519.9907814267403
 30
0.0
 10
268.473795582994
 20
519.5175757622724
 30
0.0
 10
268.6011500630065
 20
519.2961523318744
 30
0.0
 10
268.632504540317
 20
519.2416382235075
 30
0.0
  0
SPLINE
  5
119
330
1F
100
AcDbEntity
  8
0
  6
Continuous
 62
     7
370
    15
100
AcDbSpline
210
0.0
220
0.0
230
1.0
 70
     8
 71
     3
 72
    10
 73
     6
 74
     0
 42
0.00000001
 43
0.00000001
 40
0.0
 40
0.0
 40
0.0
 40
0.0
 40
0.20933945978085
 40
0.6046633240057445
 40
0.9999999999999999
 40
0.9999999999999999
 40
0.9999999999999999
 40
0.9999999999999999
 10
271.294298964374
 20
520.4998773735548
 30
0.0
 10
271.2525907875398
 20
520.592940117685
 30
0.0
 10
271.1321194494122
 20
520.8617457612355
 30
0.0
 10
270.7254207944641
 20
521.1784132647199
 30
0.0
 10
270.3465436090512
 20
521.2634708900316
 30
0.0
 10
270.1571019467043
 20
521.3060003918196
 30
0.0
  0
SPLINE
  5
11A
330
1F
100
AcDbEntity
  8
0
  6
Continuous
 62
     7
370
    15
100
AcDbSpline
210
0.0
220
0.0
230
1.0
 70
     8
 71
     3
 72
    13
 73
     9
 74
     0
 42
0.00000001
 43
0.00000001
 40
0.0
 40
0.0
 40
0.0
 40
0.0
 40
0.1768560583406532
 40
0.3537248257769643
 40
0.5305893266827663
 40
0.7074541548476563
 40
0.8843179693042006
 40
1.0
 40
1.0
 40
1.0
 40
1.0
 10
270.1398762043642
 20
500.6628108423734
 30
0.0
 10
269.9432144777979
 20
500.665500009396
 30
0.0
 10
269.5498768923097
 20
500.6708785366885
 30
0.0
 10
269.0164881211062
 20
500.9615473644027
 30
0.0
 10
268.6273523871101
 20
501.4159183689317
 30
0.0
 10
268.4491974490051
 20
501.979614522553
 30
0.0
 10
268.4701513286581
 20
502.5127759667259
 30
0.0
 10
268.636259457856
 20
502.7860388791212
 30
0.0
 10
268.7019439514802
 20
502.894095818379
 30
0.0
  0
SPLINE
  5
11B
330
1F
100
AcDbEntity
  8
0
  6
Continuous
 62
     7
370
    15
100
AcDbSpline
210
0.0
220
0.0
230
1.0
 70
     8
 71
     3
 72
    10
 73
     6
 74
     0
 42
0.00000001
 43
0.00000001
 40
0.0
 40
0.0
 40
0.0
 40
0.0
 40
0.0588223105923514
 40
0.5294052587721398
 40
1.0
 40
1.0
 40
1.0
 40
1.0
 10
271.1699934776949
 20
501.2627166908765
 30
0.0
 10
271.1593589532632
 20
501.2412357386203
 30
0.0
 10
271.0636474264292
 20
501.0479055383393
 30
0.0
 10
270.7027698185001
 20
500.7937252192664
 30
0.0
 10
270.3275089764279
 20
500.7064493325295
 30
0.0
 10
270.1398762043642
 20
500.6628108423734
 30
0.0
  0
SPLINE
  5
11C
330
1F
100
AcDbEntity
  8
0
  6
Continuous
 62
     7
370
    15
100
AcDbSpline
210
0.0
220
0.0
230
1.0
 70
    24
 71
     3
 72
    12
 73
     8
 74
     0
 42
0.00000001
 43
0.00000001
 40
0.0
 40
0.0
 40
0.0
 40
0.0
 40
0.2193551470434282
 40
0.4387117280430993
 40
0.6580643098818634
 40
0.8774211343168761
 40
1.0
 40
1.0
 40
1.0
 40
1.0
 10
270.4503866013216
 20
504.1325313251996
 30
0.0
 10
270.2536712802105
 20
504.1325313251996
 30
0.0
 10
269.8602393520319
 20
504.1325313251996
 30
0.0
 10
269.2994221863354
 20
504.1325313251996
 30
0.0
 10
268.8820230358372
 20
504.1325313251996
 30
0.0
 10
268.6561778892171
 20
504.1325313251996
 30
0.0
 10
268.6731502445477
 20
504.1325313251996
 30
0.0
 10
268.6792345818209
 20
504.1325313251996
 30
0.0
  0
SPLINE
  5
11D
330
1F
100
AcDbEntity
  8
0
  6
Continuous
 62
     7
370
    15
100
AcDbSpline
210
0.0
220
0.0
230
1.0
 70
    24
 71
     3
 72
     9
 73
     5
 74
     0
 42
0.00000001
 43
0.00000001
 40
0.0
 40
0.0
 40
0.0
 40
0.0
 40
0.1969977672690561
 40
1.0
 40
1.0
 40
1.0
 40
1.0
 10
271.0910471256898
 20
504.1325313251996
 30
0.0
 10
271.0584000068977
 20
504.1325313251996
 30
0.0
 10
270.8926767134577
 20
504.1325313251995
 30
0.0
 10
270.6473691347388
 20
504.1325313251996
 30
0.0
 10
270.4503866013216
 20
504.1325313251996
 30
0.0
  0
SPLINE
  5
11E
330
1F
100
AcDbEntity
  8
0
  6
Continuous
 62
     7
370
    15
100
AcDbSpline
210
0.0
220
0.0
230
1.0
 70
     8
 71
     3
 72
    13
 73
     9
 74
     0
 42
0.00000001
 43
0.00000001
 40
0.0
 40
0.0
 40
0.0
 40
0.0
 40
0.1768666446852921
 40
0.3537286573976354
 40
0.5305943864519905
 40
0.7074561960043457
 40
0.8843212386046765
 40
1.0
 40
1.0
 40
1.0
 40
1.0
 10
268.5880394753145
 20
523.9224207800413
 30
0.0
 10
268.3913668597562
 20
523.9197285572108
 30
0.0
 10
267.9980267793122
 20
523.914344182057
 30
0.0
 10
267.4646465932302
 20
523.6236602650379
 30
0.0
 10
267.0755202062388
 20
523.1693026261671
 30
0.0
 10
266.8973559372733
 20
522.6056113665072
 30
0.0
 10
266.9183241788193
 20
522.0724649532566
 30
0.0
 10
267.0844050879676
 20
521.7991937297987
 30
0.0
 10
267.1500774201082
 20
521.6911358040358
 30
0.0
  0
SPLINE
  5
11F
330
1F
100
AcDbEntity
  8
0
  6
Continuous
 62
     7
370
    15
100
AcDbSpline
210
0.0
220
0.0
230
1.0
 70
     8
 71
     3
 72
    10
 73
     6
 74
     0
 42
0.00000001
 43
0.00000001
 40
0.0
 40
0.0
 40
0.0
 40
0.0
 40
0.1474527595633529
 40
0.5737379607484987
 40
1.0
 40
1.0
 40
1.0
 40
1.0
 10
269.6766289051699
 20
523.2098919552351
 30
0.0
 10
269.6485721175878
 20
523.2701841744833
 30
0.0
 10
269.5394032953823
 20
523.5047809024322
 30
0.0
 10
269.1543202398028
 20
523.793574785578
 30
0.0
 10
268.7767963112975
 20
523.8794728931111
 30
0.0
 10
268.5880394753145
 20
523.9224207800413
 30
0.0
  0
SPLINE
  5
120
330
1F
100
AcDbEntity
  8
0
  6
Continuous
 62
     7
370
    15
100
AcDbSpline
210
0.0
220
0.0
230
1.0
 70
     8
 71
     3
 72
    13
 73
     9
 74
     0
 42
0.00000001
 43
0.00000001
 40
0.0
 40
0.0
 40
0.0
 40
0.0
 40
0.1768666084924337
 40
0.3537285850128666
 40
0.5305942778745507
 40
0.7074554758623305
 40
0.8843212622764379
 40
0.9999999999999999
 40
0.9999999999999999
 40
0.9999999999999999
 40
0.9999999999999999
 10
268.5708137329744
 20
498.0463904541516
 30
0.0
 10
268.3741411195249
 20
498.0490826558757
 30
0.0
 10
267.9808010432986
 20
498.0544669888175
 30
0.0
 10
267.4474208255846
 20
498.3451512224227
 30
0.0
 10
267.0582949807655
 20
498.7995071655515
 30
0.0
 10
266.8801298507601
 20
499.3632029602755
 30
0.0
 10
266.9010980768412
 20
499.8963448973078
 30
0.0
 10
267.0671793691988
 20
500.1696173187836
 30
0.0
 10
267.1328516777681
 20
500.2776754301572
 30
0.0
  0
SPLINE
  5
121
330
1F
100
AcDbEntity
  8
0
  6
Continuous
 62
     7
370
    15
100
AcDbSpline
210
0.0
220
0.0
230
1.0
 70
     8
 71
     3
 72
    10
 73
     6
 74
     0
 42
0.00000001
 43
0.00000001
 40
0.0
 40
0.0
 40
0.0
 40
0.0
 40
0.1474638927593408
 40
0.5737391341105101
 40
1.0
 40
1.0
 40
1.0
 40
1.0
 10
269.6594031628298
 20
498.7589192789578
 30
0.0
 10
269.6313472690863
 20
498.6986216579211
 30
0.0
 10
269.5221899433037
 20
498.4640211449738
 30
0.0
 10
269.1370855805503
 20
498.1752380233087
 30
0.0
 10
268.7595688936045
 20
498.0893391610618
 30
0.0
 10
268.5708137329744
 20
498.0463904541516
 30
0.0
  0
LINE
  5
122
330
1F
100
AcDbEntity
  8
0
  6
Continuous
 62
     7
370
    15
100
AcDbLine
 10
873.1924029168
 20
30.9987587136
 30
0.0
 11
873.1924029168
 21
-4.0012377101
 31
0.0
  0
LINE
  5
123
330
1F
100
AcDbEntity
  8
0
  6
Continuous
 62
     7
370
    15
100
AcDbLine
 10
883.7910624322
 20
-4.0012377101
 30
0.0
 11
873.1924029168
 21
-4.0012377101
 31
0.0
  0
LINE
  5
124
330
1F
100
AcDbEntity
  8
0
  6
Continuous
 62
     7
370
    15
100
AcDbLine
 10
883.7910624322
 20
30.9987587136
 30
0.0
 11
873.1924029168
 21
30.9987587136
 31
0.0
  0
LINE
  5
125
330
1F
100
AcDbEntity
  8
0
  6
Continuous
 62
     7
370
    15
100
AcDbLine
 10
873.1924029168
 20
555.998764674
 30
0.0
 11
873.1924029168
 21
520.9987682503
 31
0.0
  0
LINE
  5
126
330
1F
100
AcDbEntity
  8
0
  6
Continuous
 62
     7
370
    15
100
AcDbLine
 10
883.7910624322
 20
555.998764674
 30
0.0
 11
873.1924029168
 21
555.998764674
 31
0.0
  0
LINE
  5
127
330
1F
100
AcDbEntity
  8
0
  6
Continuous
 62
     7
370
    15
100
AcDbLine
 10
883.7910624322
 20
520.9987682503
 30
0.0
 11
873.1924029168
 21
520.9987682503
 31
0.0
  0
LINE
  5
128
330
1F
100
AcDbEntity
  8
0
  6
Continuous
 62
     7
370
    15
100
AcDbLine
 10
880.7910414513
 20
67.9987591904
 30
0.0
 11
875.7910462197
 21
67.9987591904
 31
0.0
  0
LINE
  5
129
330
1F
100
AcDbEntity
  8
0
  6
Continuous
 62
     7
370
    15
100
AcDbLine
 10
875.7910462197
 20
483.9987677735
 30
0.0
 11
880.7910414513
 21
483.9987677735
 31
0.0
  0
LINE
  5
12A
330
1F
100
AcDbEntity
  8
0
  6
Continuous
 62
     7
370
    15
100
AcDbLine
 10
872.7288873967
 20
-4.0012377101
 30
0.0
 11
872.7288873967
 21
30.9987587136
 31
0.0
  0
LINE
  5
12B
330
1F
100
AcDbEntity
  8
0
  6
Continuous
 62
     7
370
    15
100
AcDbLine
 10
873.1924029168
 20
-4.0012377101
 30
0.0
 11
872.7288873967
 21
-4.0012377101
 31
0.0
  0
LINE
  5
12C
330
1F
100
AcDbEntity
  8
0
  6
Continuous
 62
     7
370
    15
100
AcDbLine
 10
872.7288873967
 20
30.9987587136
 30
0.0
 11
873.1924029168
 21
30.9987587136
 31
0.0
  0
LINE
  5
12D
330
1F
100
AcDbEntity
  8
0
  6
Continuous
 62
     7
370
    15
100
AcDbLine
 10
872.7288873967
 20
520.9987682503
 30
0.0
 11
872.7288873967
 21
555.998764674
 31
0.0
  0
LINE
  5
12E
330
1F
100
AcDbEntity
  8
0
  6
Continuous
 62
     7
370
    15
100
AcDbLine
 10
872.7288873967
 20
555.998764674
 30
0.0
 11
873.1924029168
 21
555.998764674
 31
0.0
  0
LINE
  5
12F
330
1F
100
AcDbEntity
  8
0
  6
Continuous
 62
     7
370
    15
100
AcDbLine
 10
873.1924029168
 20
520.9987682503
 30
0.0
 11
872.7288873967
 21
520.9987682503
 31
0.0
  0
LINE
  5
130
330
1F
100
AcDbEntity
  8
0
  6
Continuous
 62
     7
370
    15
100
AcDbLine
 10
872.7288873967
 20
555.998764674
 30
0.0
 11
872.2910614785
 21
555.998764674
 31
0.0
  0
LINE
  5
131
330
1F
100
AcDbEntity
  8
0
  6
Continuous
 62
     7
370
    15
100
AcDbLine
 10
872.7288873967
 20
520.9987682503
 30
0.0
 11
872.2910614785
 21
520.9987682503
 31
0.0
  0
LINE
  5
132
330
1F
100
AcDbEntity
  8
0
  6
Continuous
 62
     7
370
    15
100
AcDbLine
 10
872.7288873967
 20
-4.0012377101
 30
0.0
 11
872.2910614785
 21
-4.0012377101
 31
0.0
  0
LINE
  5
133
330
1F
100
AcDbEntity
  8
0
  6
Continuous
 62
     7
370
    15
100
AcDbLine
 10
872.7288873967
 20
30.9987587136
 30
0.0
 11
872.2910614785
 21
30.9987587136
 31
0.0
  0
LINE
  5
134
330
1F
100
AcDbEntity
  8
0
  6
Continuous
 62
     7
370
    15
100
AcDbLine
 10
267.0910390195
 20
47.7487665814
 30
0.0
 11
263.9910610493
 21
47.7487665814
 31
0.0
  0
LINE
  5
135
330
1F
100
AcDbEntity
  8
0
  6
Continuous
 62
     7
370
    15
100
AcDbLine
 10
267.0910390195
 20
34.2487615746
 30
0.0
 11
268.6505647477
 21
34.2487615746
 31
0.0
  0
LINE
  5
136
330
1F
100
AcDbEntity
  8
0
  6
Continuous
 62
     7
370
    15
100
AcDbLine
 10
267.0910390195
 20
47.7487665814
 30
0.0
 11
268.6511309918
 21
47.7487665814
 31
0.0
  0
LINE
  5
137
330
1F
100
AcDbEntity
  8
0
  6
Continuous
 62
     7
370
    15
100
AcDbLine
 10
267.0910390195
 20
34.2487615746
 30
0.0
 11
263.9910610493
 21
34.2487615746
 31
0.0
  0
LINE
  5
138
330
1F
100
AcDbEntity
  8
0
  6
Continuous
 62
     7
370
    15
100
AcDbLine
 10
267.0910390195
 20
517.7487653893
 30
0.0
 11
263.9910610493
 21
517.7487653893
 31
0.0
  0
LINE
  5
139
330
1F
100
AcDbEntity
  8
0
  6
Continuous
 62
     7
370
    15
100
AcDbLine
 10
267.0910390195
 20
504.2487603825
 30
0.0
 11
268.6505647477
 21
504.2487603825
 31
0.0
  0
LINE
  5
13A
330
1F
100
AcDbEntity
  8
0
  6
Continuous
 62
     7
370
    15
100
AcDbLine
 10
267.0910390195
 20
517.7487653893
 30
0.0
 11
268.6511309918
 21
517.7487653893
 31
0.0
  0
LINE
  5
13B
330
1F
100
AcDbEntity
  8
0
  6
Continuous
 62
     7
370
    15
100
AcDbLine
 10
267.0910390195
 20
504.2487603825
 30
0.0
 11
263.9910610493
 21
504.2487603825
 31
0.0
  0
LINE
  5
13C
330
1F
100
AcDbEntity
  8
0
  6
Continuous
 62
     8
370
    15
100
AcDbLine
 10
267.0910390195
 20
47.7487665814
 30
0.0
 11
267.0910390195
 21
47.4987698
 31
0.0
  0
LINE
  5
13D
330
1F
100
AcDbEntity
  8
0
  6
Continuous
 62
     8
370
    15
100
AcDbLine
 10
267.0910390195
 20
34.498758356
 30
0.0
 11
267.0910390195
 21
34.2487615746
 31
0.0
  0
LINE
  5
13E
330
1F
100
AcDbEntity
  8
0
  6
Continuous
 62
     8
370
    15
100
AcDbLine
 10
267.0910390195
 20
517.7487653893
 30
0.0
 11
267.0910390195
 21
517.498768608
 31
0.0
  0
LINE
  5
13F
330
1F
100
AcDbEntity
  8
0
  6
Continuous
 62
     8
370
    15
100
AcDbLine
 10
267.0910390195
 20
504.4987571639
 30
0.0
 11
267.0910390195
 21
504.2487603825
 31
0.0
  0
LINE
  5
140
330
1F
100
AcDbEntity
  8
0
  6
Continuous
 62
     7
370
    15
100
AcDbLine
 10
220.9417805464
 20
47.4987698
 30
0.0
 11
220.9417805464
 21
34.498758356
 31
0.0
  0
LINE
  5
141
330
1F
100
AcDbEntity
  8
0
  6
Continuous
 62
     7
370
    15
100
AcDbLine
 10
220.9417805464
 20
517.498768608
 30
0.0
 11
220.9417805464
 21
504.4987571639
 31
0.0
  0
LINE
  5
142
330
1F
100
AcDbEntity
  8
0
  6
Continuous
 62
     7
370
    15
100
AcDbLine
 10
211.1517772467
 20
48.1987667483
 30
0.0
 11
211.1517772467
 21
48.9987653893
 31
0.0
  0
LINE
  5
143
330
1F
100
AcDbEntity
  8
0
  6
Continuous
 62
     7
370
    15
100
AcDbLine
 10
211.1517772467
 20
32.9987627667
 30
0.0
 11
211.1517772467
 21
33.7987614077
 31
0.0
  0
LINE
  5
144
330
1F
100
AcDbEntity
  8
0
  6
Continuous
 62
     7
370
    15
100
AcDbLine
 10
206.2217876704
 20
49.2987704676
 30
0.0
 11
206.2217876704
 21
48.9987653893
 31
0.0
  0
LINE
  5
145
330
1F
100
AcDbEntity
  8
0
  6
Continuous
 62
     7
370
    15
100
AcDbLine
 10
210.6217876465
 20
48.9987653893
 30
0.0
 11
210.6217876465
 21
49.2987704676
 31
0.0
  0
ARC
  5
146
330
1F
100
AcDbEntity
  8
0
  6
Continuous
 62
     7
370
    15
100
AcDbCircle
 10
208.4217803795
 20
46.1916206248
 30
0.0
 40
3.807142857143287
100
AcDbArc
 50
54.6997515601
 51
125.3002484399
  0
LINE
  5
147
330
1F
100
AcDbEntity
  8
0
  6
Continuous
 62
     7
370
    15
100
AcDbLine
 10
206.321774462
 20
32.5987708968
 30
0.0
 11
206.321774462
 21
32.1987641257
 31
0.0
  0
LINE
  5
148
330
1F
100
AcDbEntity
  8
0
  6
Continuous
 62
     7
370
    15
100
AcDbLine
 10
210.5217859538
 20
32.1987641257
 30
0.0
 11
210.5217859538
 21
32.5987708968
 31
0.0
  0
ARC
  5
149
330
1F
100
AcDbEntity
  8
0
  6
Continuous
 62
     7
370
    15
100
AcDbCircle
 10
206.5217803795
 20
32.998763482
 30
0.0
 40
0.4000000000008015
100
AcDbArc
 50
270.0
 51
0.0
  0
ARC
  5
14A
330
1F
100
AcDbEntity
  8
0
  6
Continuous
 62
     7
370
    15
100
AcDbCircle
 10
210.3217803795
 20
32.998763482
 30
0.0
 40
0.4000000000008015
100
AcDbArc
 50
180.0
 51
270.0
  0
LINE
  5
14B
330
1F
100
AcDbEntity
  8
0
  6
Continuous
 62
     7
370
    15
100
AcDbLine
 10
206.9217846186
 20
48.1987667483
 30
0.0
 11
206.9217846186
 21
47.7487665814
 31
0.0
  0
LINE
  5
14C
330
1F
100
AcDbEntity
  8
0
  6
Continuous
 62
     7
370
    15
100
AcDbLine
 10
206.9217846186
 20
46.7487645548
 30
0.0
 11
206.9217846186
 21
46.2600660723
 31
0.0
  0
LINE
  5
14D
330
1F
100
AcDbEntity
  8
0
  6
Continuous
 62
     7
370
    15
100
AcDbLine
 10
206.9217846186
 20
45.4639417332
 30
0.0
 11
206.9217846186
 21
45.3082544011
 31
0.0
  0
LINE
  5
14E
330
1F
100
AcDbEntity
  8
0
  6
Continuous
 62
     7
370
    15
100
AcDbLine
 10
206.9217846186
 20
36.0091400546
 30
0.0
 11
206.9217846186
 21
35.2487636012
 31
0.0
  0
LINE
  5
14F
330
1F
100
AcDbEntity
  8
0
  6
Continuous
 62
     7
370
    15
100
AcDbLine
 10
206.9217846186
 20
34.2487615746
 30
0.0
 11
206.9217846186
 21
33.7987614077
 31
0.0
  0
LINE
  5
150
330
1F
100
AcDbEntity
  8
0
  6
Continuous
 62
     7
370
    15
100
AcDbLine
 10
209.9217757971
 20
33.7987614077
 30
0.0
 11
209.9217757971
 21
34.2487615746
 31
0.0
  0
LINE
  5
151
330
1F
100
AcDbEntity
  8
0
  6
Continuous
 62
     7
370
    15
100
AcDbLine
 10
209.9217757971
 20
35.2487636012
 30
0.0
 11
209.9217757971
 21
35.7359123629
 31
0.0
  0
LINE
  5
152
330
1F
100
AcDbEntity
  8
0
  6
Continuous
 62
     7
370
    15
100
AcDbLine
 10
209.9217757971
 20
45.0438183945
 30
0.0
 11
209.9217757971
 21
45.2317667407
 31
0.0
  0
LINE
  5
153
330
1F
100
AcDbEntity
  8
0
  6
Continuous
 62
     7
370
    15
100
AcDbLine
 10
209.9217757971
 20
45.9868383807
 30
0.0
 11
209.9217757971
 21
46.7487645548
 31
0.0
  0
LINE
  5
154
330
1F
100
AcDbEntity
  8
0
  6
Continuous
 62
     7
370
    15
100
AcDbLine
 10
209.9217757971
 20
47.7487665814
 30
0.0
 11
209.9217757971
 21
48.1987667483
 31
0.0
  0
SPLINE
  5
155
330
1F
100
AcDbEntity
  8
0
  6
Continuous
 62
     7
370
    15
100
AcDbSpline
210
0.0
220
0.0
230
1.0
 70
     8
 71
     3
 72
    15
 73
    11
 74
     0
 42
0.00000001
 43
0.00000001
 40
0.0
 40
0.0
 40
0.0
 40
0.0
 40
0.1356091173949764
 40
0.2953379103494192
 40
0.4038138054468018
 40
0.531970703719044
 40
0.6738489217721353
 40
0.8261134929514069
 40
0.9126194824664061
 40
1.0
 40
1.0
 40
1.0
 40
1.0
 10
209.9217757971426
 20
35.56480232892273
 30
0.0
 10
209.9661569753838
 20
35.5574818632746
 30
0.0
 10
210.0628130460992
 20
35.54153890111358
 30
0.0
 10
210.2696598398202
 20
35.58920316345559
 30
0.0
 10
210.4629451319794
 20
35.67693537551101
 30
0.0
 10
210.6095071335734
 20
35.79658391689636
 30
0.0
 10
210.7082246195944
 20
35.94750488960971
 30
0.0
 10
210.7378813011105
 20
36.06931487709817
 30
0.0
 10
210.7167069258808
 20
36.19858884696589
 30
0.0
 10
210.6704525361102
 20
36.26525719954613
 30
0.0
 10
210.6472090275427
 20
36.2987590235257
 30
0.0
  0
SPLINE
  5
156
330
1F
100
AcDbEntity
  8
0
  6
Continuous
 62
     7
370
    15
100
AcDbSpline
210
0.0
220
0.0
230
1.0
 70
     8
 71
     3
 72
    20
 73
    16
 74
     0
 42
0.00000001
 43
0.00000001
 40
0.0
 40
0.0
 40
0.0
 40
0.0
 40
0.0607082412857168
 40
0.2265318043948499
 40
0.3908031270530204
 40
0.4705946825057465
 40
0.5476200754108902
 40
0.6228569095512099
 40
0.7003369617036845
 40
0.7786472733860886
 40
0.8566577456080066
 40
0.9331037276572782
 40
0.9703733538747773
 40
0.989232224347167
 40
1.0
 40
1.0
 40
1.0
 40
1.0
 10
206.1855778486868
 20
36.2987590235257
 30
0.0
 10
206.2318522556478
 20
36.24542759132849
 30
0.0
 10
206.4045244445331
 20
36.04642222878232
 30
0.0
 10
206.8215095818273
 20
36.0284880645875
 30
0.0
 10
207.3864498973045
 20
35.95346694842335
 30
0.0
 10
207.9060657854134
 20
35.91052850718249
 30
0.0
 10
208.2999600641807
 20
35.87996773344712
 30
0.0
 10
208.6928715881409
 20
35.8522957510235
 30
0.0
 10
209.0740325665061
 20
35.8209871121421
 30
0.0
 10
209.4297538197348
 20
35.78850510137347
 30
0.0
 10
209.7323937683957
 20
35.75770131718248
 30
0.0
 10
209.9248760082088
 20
35.73476963105007
 30
0.0
 10
210.0130169554057
 20
35.72676023633795
 30
0.0
 10
210.0584382038297
 20
35.71896589439583
 30
0.0
 10
210.0578889237143
 20
35.72292502194002
 30
0.0
 10
210.0576892883917
 20
35.72436396298642
 30
0.0
  0
SPLINE
  5
157
330
1F
100
AcDbEntity
  8
0
  6
Continuous
 62
     7
370
    15
100
AcDbSpline
210
0.0
220
0.0
230
1.0
 70
     8
 71
     3
 72
    18
 73
    14
 74
     0
 42
0.00000001
 43
0.00000001
 40
0.0
 40
0.0
 40
0.0
 40
0.0
 40
0.0057558256776612
 40
0.1156405586245694
 40
0.2383946514687826
 40
0.3593096031671252
 40
0.4757056074283119
 40
0.5872117986999811
 40
0.7047314249150657
 40
0.8264989616408728
 40
0.8891457600929906
 40
0.9517929492285079
 40
1.0
 40
1.0
 40
1.0
 40
1.0
 10
210.4284003765723
 20
44.94558993993042
 30
0.0
 10
210.423753277409
 20
44.94854214278282
 30
0.0
 10
210.3303881942188
 20
45.00785498617799
 30
0.0
 10
210.1079649527181
 20
45.01410591944885
 30
0.0
 10
209.7166137257459
 20
45.07327742739903
 30
0.0
 10
209.2047275752019
 20
45.11882223688068
 30
0.0
 10
208.6536912636496
 20
45.16498747893871
 30
0.0
 10
208.0915761687094
 20
45.20386751478009
 30
0.0
 10
207.5572985671
 20
45.24861978195874
 30
0.0
 10
207.1596582734743
 20
45.28966290607778
 30
0.0
 10
206.9449414857384
 20
45.31080771365334
 30
0.0
 10
206.8488731527034
 20
45.3130823408123
 30
0.0
 10
206.8334306659603
 20
45.29700633374006
 30
0.0
 10
206.8267152102133
 20
45.29001537976499
 30
0.0
  0
SPLINE
  5
158
330
1F
100
AcDbEntity
  8
0
  6
Continuous
 62
     7
370
    15
100
AcDbSpline
210
0.0
220
0.0
230
1.0
 70
     8
 71
     3
 72
    12
 73
     8
 74
     0
 42
0.00000001
 43
0.00000001
 40
0.0
 40
0.0
 40
0.0
 40
0.0
 40
0.2236716726813051
 40
0.4523018666733639
 40
0.6822312804926878
 40
0.9102236872584898
 40
1.0
 40
1.0
 40
1.0
 40
1.0
 10
206.127478221192
 20
46.10060874638794
 30
0.0
 10
206.1147455538006
 20
46.05806578471719
 30
0.0
 10
206.0889979517023
 20
45.97203673710998
 30
0.0
 10
206.2101221744241
 20
45.88041944308227
 30
0.0
 10
206.4418049765155
 20
45.78408862390557
 30
0.0
 10
206.6866485193912
 20
45.72162931454418
 30
0.0
 10
206.8699875157048
 20
45.7268330654402
 30
0.0
 10
206.9217846186301
 20
45.72830323395963
 30
0.0
  0
SPLINE
  5
159
330
1F
100
AcDbEntity
  8
0
  6
Continuous
 62
     7
370
    15
100
AcDbSpline
210
0.0
220
0.0
230
1.0
 70
     8
 71
     3
 72
    19
 73
    15
 74
     0
 42
0.00000001
 43
0.00000001
 40
0.0
 40
0.0
 40
0.0
 40
0.0
 40
0.0979016656717859
 40
0.1753767923064288
 40
0.2884798667723655
 40
0.3734508834899384
 40
0.4570015648503131
 40
0.6168864006976565
 40
0.6796646919023751
 40
0.7634254149027825
 40
0.8137514267878045
 40
0.8702945241141623
 40
0.9323961631721522
 40
1.0
 40
1.0
 40
1.0
 40
1.0
 10
206.3037142546316
 20
45.60548786339996
 30
0.0
 10
206.3542265724459
 20
45.57910599232937
 30
0.0
 10
206.4447121449786
 20
45.53184665417978
 30
0.0
 10
206.819335160164
 20
45.47120653226525
 30
0.0
 10
207.3058622309441
 20
45.41730971537616
 30
0.0
 10
207.8971779046772
 20
45.36408895204131
 30
0.0
 10
208.6512920039235
 20
45.31253804859567
 30
0.0
 10
209.2923697498551
 20
45.245599756912
 30
0.0
 10
209.9416660345065
 20
45.21008442762539
 30
0.0
 10
210.3199708871612
 20
45.28825622629778
 30
0.0
 10
210.5718438627983
 20
45.39647661132615
 30
0.0
 10
210.7054233750376
 20
45.48479035545622
 30
0.0
 10
210.7671990352559
 20
45.55863568050894
 30
0.0
 10
210.695755906975
 20
45.6391574025029
 30
0.0
 10
210.6585190088888
 20
45.68112615761994
 30
0.0
  0
SPLINE
  5
15A
330
1F
100
AcDbEntity
  8
0
  6
Continuous
 62
     7
370
    15
100
AcDbSpline
210
0.0
220
0.0
230
1.0
 70
     8
 71
     3
 72
    25
 73
    21
 74
     0
 42
0.00000001
 43
0.00000001
 40
0.0
 40
0.0
 40
0.0
 40
0.0
 40
0.0176266604132267
 40
0.0344978305666418
 40
0.0503139129986175
 40
0.0649731684005604
 40
0.0909452438696607
 40
0.1134379469739163
 40
0.153840771756824
 40
0.1912344990785861
 40
0.2995711913486163
 40
0.3999638679938782
 40
0.5012958654425138
 40
0.5949062183926866
 40
0.6784876921018369
 40
0.7336316108402124
 40
0.8075187077807442
 40
0.895285398544903
 40
0.9453088009269912
 40
0.9999999999999999
 40
0.9999999999999999
 40
0.9999999999999999
 40
0.9999999999999999
 10
210.3012040646216
 20
45.05554560837982
 30
0.0
 10
210.3409159566372
 20
45.05993564958824
 30
0.0
 10
210.4186376628547
 20
45.06852757195121
 30
0.0
 10
210.5204992875586
 20
45.11453720642997
 30
0.0
 10
210.6015264579837
 20
45.17350208785096
 30
0.0
 10
210.6777204743656
 20
45.25706038105767
 30
0.0
 10
210.7307688002221
 20
45.36070898006436
 30
0.0
 10
210.7549470435392
 20
45.49306404456574
 30
0.0
 10
210.7320397896327
 20
45.62491552179296
 30
0.0
 10
210.5608071626245
 20
45.87012185246284
 30
0.0
 10
210.2180193627215
 20
45.95721450682841
 30
0.0
 10
209.7229064096485
 20
46.01577291843925
 30
0.0
 10
209.1096931730166
 20
46.07411693569075
 30
0.0
 10
208.4602245772751
 20
46.12373974698769
 30
0.0
 10
207.9205181615168
 20
46.16322909109413
 30
0.0
 10
207.4745235463384
 20
46.20240192735866
 30
0.0
 10
207.0857915448307
 20
46.24063580699164
 30
0.0
 10
206.825655845913
 20
46.26845955102227
 30
0.0
 10
206.6952034642414
 20
46.29097865375059
 30
0.0
 10
206.6865464114208
 20
46.30343464288789
 30
0.0
 10
206.682024935021
 20
46.30994025883911
 30
0.0
  0
SPLINE
  5
15B
330
1F
100
AcDbEntity
  8
0
  6
Continuous
 62
     7
370
    15
100
AcDbSpline
210
0.0
220
0.0
230
1.0
 70
     8
 71
     3
 72
    12
 73
     8
 74
     0
 42
0.00000001
 43
0.00000001
 40
0.0
 40
0.0
 40
0.0
 40
0.0
 40
0.1756430871129702
 40
0.5723112226540086
 40
0.7586160656863811
 40
0.920760678476455
 40
1.0
 40
1.0
 40
1.0
 40
1.0
 10
206.770344117417
 20
45.49144927678342
 30
0.0
 10
206.7047866319286
 20
45.48227776075889
 30
0.0
 10
206.4911756934589
 20
45.45239351290209
 30
0.0
 10
206.2752315305203
 20
45.37848770488004
 30
0.0
 10
206.1140989272884
 20
45.16352188509587
 30
0.0
 10
206.0828703349219
 20
45.00332016543967
 30
0.0
 10
206.1138510760135
 20
44.9246539315539
 30
0.0
 10
206.124021151795
 20
44.89883009610413
 30
0.0
  0
LINE
  5
15C
330
1F
100
AcDbEntity
  8
0
  6
Continuous
 62
     7
370
    15
100
AcDbLine
 10
206.2815413268
 20
36.2010223073
 30
0.0
 11
205.1630750687
 21
36.2010223073
 31
0.0
  0
LINE
  5
15D
330
1F
100
AcDbEntity
  8
0
  6
Continuous
 62
     7
370
    15
100
AcDbLine
 10
205.1630750687
 20
35.4010236662
 30
0.0
 11
206.9217846186
 21
35.4010236662
 31
0.0
  0
LINE
  5
15E
330
1F
100
AcDbEntity
  8
0
  6
Continuous
 62
     7
370
    15
100
AcDbLine
 10
203.7527844699
 20
48.9987653893
 30
0.0
 11
203.7527844699
 21
49.0522307557
 31
0.0
  0
LINE
  5
15F
330
1F
100
AcDbEntity
  8
0
  6
Continuous
 62
     7
370
    15
100
AcDbLine
 10
200.7527932913
 20
49.0522307557
 30
0.0
 11
200.7527932913
 21
48.9987653893
 31
0.0
  0
SPLINE
  5
160
330
1F
100
AcDbEntity
  8
0
  6
Continuous
 62
     7
370
    15
100
AcDbSpline
210
0.0
220
0.0
230
1.0
 70
     8
 71
     3
 72
    15
 73
    11
 74
     0
 42
0.00000001
 43
0.00000001
 40
0.0
 40
0.0
 40
0.0
 40
0.0
 40
0.10775558395448
 40
0.2352512525116226
 40
0.3627904438124229
 40
0.4902569714009369
 40
0.6176632515021261
 40
0.7450970725045022
 40
0.872496392135661
 40
1.0
 40
1.0
 40
1.0
 40
1.0
 10
200.7688418419501
 20
32.99876276669739
 30
0.0
 10
200.7853809668439
 20
32.68624054186856
 30
0.0
 10
200.8214890709805
 20
32.0039441621304
 30
0.0
 10
201.1577017574197
 20
30.99479599024036
 30
0.0
 10
201.7157819490587
 20
30.03131661666308
 30
0.0
 10
202.4706057574443
 20
29.21039056518621
 30
0.0
 10
203.3857710211574
 20
28.57512430470216
 30
0.0
 10
204.4130243476342
 20
28.15496398282016
 30
0.0
 10
205.5090067752192
 20
27.94116234314106
 30
0.0
 10
206.2447646784663
 20
28.00668691590102
 30
0.0
 10
206.6127941401144
 20
28.03946260628937
 30
0.0
  0
SPLINE
  5
161
330
1F
100
AcDbEntity
  8
0
  6
Continuous
 62
     7
370
    15
100
AcDbSpline
210
0.0
220
0.0
230
1.0
 70
     8
 71
     3
 72
    15
 73
    11
 74
     0
 42
0.00000001
 43
0.00000001
 40
0.0
 40
0.0
 40
0.0
 40
0.0
 40
0.1316508808122084
 40
0.2633118025097664
 40
0.3951917775166557
 40
0.5266713703602945
 40
0.6575472767439346
 40
0.7882112722851927
 40
0.9184602772686365
 40
0.9999999999999999
 40
0.9999999999999999
 40
0.9999999999999999
 40
0.9999999999999999
 10
206.1151102574011
 20
30.99714938817261
 30
0.0
 10
205.9629262451934
 20
30.98533443563315
 30
0.0
 10
205.6585466138506
 20
30.96170362943917
 30
0.0
 10
205.2076844023317
 20
31.06317743112524
 30
0.0
 10
204.7886564936146
 20
31.25004393663158
 30
0.0
 10
204.41825714198
 20
31.52263120175308
 30
0.0
 10
204.1160117257753
 20
31.86854873481229
 30
0.0
 10
203.8968290237968
 20
32.27024464891159
 30
0.0
 10
203.7794808840747
 20
32.65656416000229
 30
0.0
 10
203.7692968538112
 20
32.90363807126964
 30
0.0
 10
203.7653759510657
 20
32.99876276669739
 30
0.0
  0
SPLINE
  5
162
330
1F
100
AcDbEntity
  8
0
  6
Continuous
 62
     7
370
    15
100
AcDbSpline
210
0.0
220
0.0
230
1.0
 70
     8
 71
     3
 72
    15
 73
    11
 74
     0
 42
0.00000001
 43
0.00000001
 40
0.0
 40
0.0
 40
0.0
 40
0.0
 40
0.1249271744002042
 40
0.2499159491389391
 40
0.3749663957929265
 40
0.4999576941663553
 40
0.6249203967106692
 40
0.749916901807382
 40
0.8748746040201251
 40
1.0
 40
1.0
 40
1.0
 40
1.0
 10
206.7836657555243
 20
53.92929140744446
 30
0.0
 10
206.417288847583
 20
53.97262392476132
 30
0.0
 10
205.6843543749166
 20
54.05931032622538
 30
0.0
 10
204.5803343532001
 20
53.89411176612832
 30
0.0
 10
203.5395309812897
 20
53.50518846195534
 30
0.0
 10
202.6043425314998
 20
52.90016893330088
 30
0.0
 10
201.8237046452755
 20
52.1039694006902
 30
0.0
 10
201.2357273143356
 20
51.15961498531532
 30
0.0
 10
200.8399087355809
 20
50.1111654116776
 30
0.0
 10
200.781844751067
 20
49.37204525001146
 30
0.0
 10
200.7527932913443
 20
49.00223735985993
 30
0.0
  0
SPLINE
  5
163
330
1F
100
AcDbEntity
  8
0
  6
Continuous
 62
     7
370
    15
100
AcDbSpline
210
0.0
220
0.0
230
1.0
 70
     8
 71
     3
 72
    15
 73
    11
 74
     0
 42
0.00000001
 43
0.00000001
 40
0.0
 40
0.0
 40
0.0
 40
0.0
 40
0.1242507647156472
 40
0.2486323191975824
 40
0.3735407918844088
 40
0.4985808856297401
 40
0.6236633115321472
 40
0.7490698212127426
 40
0.8744365574487172
 40
1.0
 40
1.0
 40
1.0
 40
1.0
 10
203.7527844698569
 20
49.00223735985993
 30
0.0
 10
203.766348774787
 20
49.15419014797856
 30
0.0
 10
203.7934916628069
 20
49.45825567389253
 30
0.0
 10
203.9679417138608
 20
49.88557342561351
 30
0.0
 10
204.2212764634976
 20
50.2672152736012
 30
0.0
 10
204.5510950873258
 20
50.58715117967774
 30
0.0
 10
204.9420262354053
 20
50.82771938944269
 30
0.0
 10
205.3747219480305
 20
50.97935861172609
 30
0.0
 10
205.8322531948455
 20
51.03279003775801
 30
0.0
 10
206.1341733163009
 20
50.99210973391424
 30
0.0
 10
206.2852517159125
 20
50.97175363717316
 30
0.0
  0
LINE
  5
164
330
1F
100
AcDbEntity
  8
0
  6
Continuous
 62
     7
370
    15
100
AcDbLine
 10
221.6558441908
 20
33.6138976019
 30
0.0
 11
206.11488674
 21
30.9974772137
 31
0.0
  0
LINE
  5
165
330
1F
100
AcDbEntity
  8
0
  6
Continuous
 62
     7
370
    15
100
AcDbLine
 10
206.6129431517
 20
28.0391198796
 30
0.0
 11
222.1539155038
 21
30.6555402678
 31
0.0
  0
LINE
  5
166
330
1F
100
AcDbEntity
  8
0
  6
Continuous
 62
     7
370
    15
100
AcDbLine
 10
206.2854603322
 20
50.9713215035
 30
0.0
 11
221.8264326842
 21
48.3549011153
 31
0.0
  0
LINE
  5
167
330
1F
100
AcDbEntity
  8
0
  6
Continuous
 62
     7
370
    15
100
AcDbLine
 10
222.3244890959
 20
51.3132733506
 30
0.0
 11
206.7835316451
 21
53.9296937388
 31
0.0
  0
SPLINE
  5
168
330
1F
100
AcDbEntity
  8
0
  6
Continuous
 62
     7
370
    15
100
AcDbSpline
210
0.0
220
0.0
230
1.0
 70
     8
 71
     3
 72
    12
 73
     8
 74
     0
 42
0.00000001
 43
0.00000001
 40
0.0
 40
0.0
 40
0.0
 40
0.0
 40
0.1526135604568276
 40
0.2973905261041906
 40
0.5623705921371759
 40
0.7966015821471988
 40
1.0
 40
1.0
 40
1.0
 40
1.0
 10
222.1535578758856
 20
30.65583829102752
 30
0.0
 10
222.4047776243702
 20
30.70857600548568
 30
0.0
 10
222.8943171708296
 20
30.81134339130187
 30
0.0
 10
223.7438378012055
 20
31.24059622157882
 30
0.0
 10
224.5558272472788
 20
31.9849899252379
 30
0.0
 10
225.1202777174927
 20
33.05602946984859
 30
0.0
 10
225.2019650181644
 20
33.79095761542394
 30
0.0
 10
225.2399310858389
 20
34.13253251729248
 30
0.0
  0
SPLINE
  5
169
330
1F
100
AcDbEntity
  8
0
  6
Continuous
 62
     7
370
    15
100
AcDbSpline
210
0.0
220
0.0
230
1.0
 70
     8
 71
     3
 72
    11
 73
     7
 74
     0
 42
0.00000001
 43
0.00000001
 40
0.0
 40
0.0
 40
0.0
 40
0.0
 40
0.2003624455425825
 40
0.4328096834642056
 40
0.6990173802634269
 40
1.0
 40
1.0
 40
1.0
 40
1.0
 10
222.2416088373801
 20
34.13253251729248
 30
0.0
 10
222.2283816759426
 20
34.07610362593211
 30
0.0
 10
222.1998092379321
 20
33.95420967249291
 30
0.0
 10
222.0839233463421
 20
33.78852060030485
 30
0.0
 10
221.8991754888486
 20
33.64959114947588
 30
0.0
 10
221.7415567117534
 20
33.62621361207185
 30
0.0
 10
221.6579154522558
 20
33.61380819497345
 30
0.0
  0
SPLINE
  5
16A
330
1F
100
AcDbEntity
  8
0
  6
Continuous
 62
     7
370
    15
100
AcDbSpline
210
0.0
220
0.0
230
1.0
 70
     8
 71
     3
 72
    12
 73
     8
 74
     0
 42
0.00000001
 43
0.00000001
 40
0.0
 40
0.0
 40
0.0
 40
0.0
 40
0.2034077986152291
 40
0.4376400377344393
 40
0.7026160208210837
 40
0.8473893807424194
 40
1.0
 40
1.0
 40
1.0
 40
1.0
 10
225.2399310858389
 20
47.69115869221924
 30
0.0
 10
225.2184903605935
 20
48.0341693156919
 30
0.0
 10
225.1723597802058
 20
48.77217043080087
 30
0.0
 10
224.6602607893705
 20
49.86927891570883
 30
0.0
 10
223.8850617963861
 20
50.65204256974845
 30
0.0
 10
223.0572024035202
 20
51.12175776284883
 30
0.0
 10
222.5732169357756
 20
51.24802755975727
 30
0.0
 10
222.3248467238089
 20
51.31282631573914
 30
0.0
  0
SPLINE
  5
16B
330
1F
100
AcDbEntity
  8
0
  6
Continuous
 62
     7
370
    15
100
AcDbSpline
210
0.0
220
0.0
230
1.0
 70
     8
 71
     3
 72
    12
 73
     8
 74
     0
 42
0.00000001
 43
0.00000001
 40
0.0
 40
0.0
 40
0.0
 40
0.0
 40
0.1555612070081118
 40
0.3022035794488034
 40
0.5679688160015415
 40
0.7999504135698806
 40
1.0
 40
1.0
 40
1.0
 40
1.0
 10
221.8245104344031
 20
48.35582498727081
 30
0.0
 10
221.8650569957581
 20
48.34007553414402
 30
0.0
 10
221.9438254510273
 20
48.30947959572965
 30
0.0
 10
222.0734637543328
 20
48.21443336494352
 30
0.0
 10
222.1878936199364
 20
48.06826722797283
 30
0.0
 10
222.2520263647374
 20
47.87400371886172
 30
0.0
 10
222.2449059192357
 20
47.74902799258701
 30
0.0
 10
222.2416088373801
 20
47.69115869221924
 30
0.0
  0
LINE
  5
16C
330
1F
100
AcDbEntity
  8
0
  6
Continuous
 62
     7
370
    15
100
AcDbLine
 10
222.2407743724
 20
47.741152088
 30
0.0
 11
222.2407743724
 21
47.4987698
 31
0.0
  0
LINE
  5
16D
330
1F
100
AcDbEntity
  8
0
  6
Continuous
 62
     7
370
    15
100
AcDbLine
 10
222.2407743724
 20
34.498758356
 30
0.0
 11
222.2407743724
 21
34.0825242203
 31
0.0
  0
LINE
  5
16E
330
1F
100
AcDbEntity
  8
0
  6
Continuous
 62
     7
370
    15
100
AcDbLine
 10
225.2407655509
 20
34.0825242203
 30
0.0
 11
225.2407655509
 21
34.5015150708
 31
0.0
  0
LINE
  5
16F
330
1F
100
AcDbEntity
  8
0
  6
Continuous
 62
     7
370
    15
100
AcDbLine
 10
225.2407655509
 20
47.4960130852
 30
0.0
 11
225.2407655509
 21
47.741152088
 31
0.0
  0
LINE
  5
170
330
1F
100
AcDbEntity
  8
0
  6
Continuous
 62
     7
370
    15
100
AcDbLine
 10
211.540056804
 20
46.5987694663
 30
0.0
 11
209.9217757971
 21
46.5987694663
 31
0.0
  0
LINE
  5
171
330
1F
100
AcDbEntity
  8
0
  6
Continuous
 62
     7
370
    15
100
AcDbLine
 10
210.5486974509
 20
45.7987708252
 30
0.0
 11
211.540056804
 21
45.7987708252
 31
0.0
  0
LINE
  5
172
330
1F
100
AcDbEntity
  8
0
  6
Continuous
 62
     7
370
    15
100
AcDbLine
 10
211.8782833607
 20
47.8669029873
 30
0.0
 11
211.6117611916
 21
46.6586572331
 31
0.0
  0
LINE
  5
173
330
1F
100
AcDbEntity
  8
0
  6
Continuous
 62
     7
370
    15
100
AcDbLine
 10
212.3799160512
 20
46.4271080893
 30
0.0
 11
212.6594916375
 21
47.6945710581
 31
0.0
  0
SPLINE
  5
174
330
1F
100
AcDbEntity
  8
0
  6
Continuous
 62
     7
370
    15
100
AcDbSpline
210
0.0
220
0.0
230
1.0
 70
     8
 71
     3
 72
    11
 73
     7
 74
     0
 42
0.00000001
 43
0.00000001
 40
0.0
 40
0.0
 40
0.0
 40
0.0
 40
0.2541311630691059
 40
0.5022676364033828
 40
0.7495179365131207
 40
1.0
 40
1.0
 40
1.0
 40
1.0
 10
211.5400568039557
 20
45.79877082524536
 30
0.0
 10
211.6401452372511
 20
45.80901594949768
 30
0.0
 10
211.8379611218341
 20
45.82926452618041
 30
0.0
 10
212.0961127089834
 20
45.98329016308391
 30
0.0
 10
212.2995541262558
 20
46.20237139433189
 30
0.0
 10
212.3612901058851
 20
46.38942141972232
 30
0.0
 10
212.3923585207602
 20
46.48355368790863
 30
0.0
  0
LINE
  5
175
330
1F
100
AcDbEntity
  8
0
  6
Continuous
 62
     7
370
    15
100
AcDbLine
 10
211.1517772467
 20
518.1987655562
 30
0.0
 11
211.1517772467
 21
518.9987641972
 31
0.0
  0
LINE
  5
176
330
1F
100
AcDbEntity
  8
0
  6
Continuous
 62
     7
370
    15
100
AcDbLine
 10
211.1517772467
 20
502.9987615746
 30
0.0
 11
211.1517772467
 21
503.7987602156
 31
0.0
  0
LINE
  5
177
330
1F
100
AcDbEntity
  8
0
  6
Continuous
 62
     7
370
    15
100
AcDbLine
 10
206.2217876704
 20
519.2987692755
 30
0.0
 11
206.2217876704
 21
518.9987641972
 31
0.0
  0
LINE
  5
178
330
1F
100
AcDbEntity
  8
0
  6
Continuous
 62
     7
370
    15
100
AcDbLine
 10
210.6217876465
 20
518.9987641972
 30
0.0
 11
210.6217876465
 21
519.2987692755
 31
0.0
  0
ARC
  5
179
330
1F
100
AcDbEntity
  8
0
  6
Continuous
 62
     7
370
    15
100
AcDbCircle
 10
208.4217803795
 20
516.1916206248
 30
0.0
 40
3.807142857143275
100
AcDbArc
 50
54.6997515601
 51
125.3002484399
  0
LINE
  5
17A
330
1F
100
AcDbEntity
  8
0
  6
Continuous
 62
     7
370
    15
100
AcDbLine
 10
206.321774462
 20
502.5987697047
 30
0.0
 11
206.321774462
 21
502.1987629336
 31
0.0
  0
LINE
  5
17B
330
1F
100
AcDbEntity
  8
0
  6
Continuous
 62
     7
370
    15
100
AcDbLine
 10
210.5217859538
 20
502.1987629336
 30
0.0
 11
210.5217859538
 21
502.5987697047
 31
0.0
  0
ARC
  5
17C
330
1F
100
AcDbEntity
  8
0
  6
Continuous
 62
     7
370
    15
100
AcDbCircle
 10
206.5217803795
 20
502.998763482
 30
0.0
 40
0.4000000000008015
100
AcDbArc
 50
270.0
 51
0.0
  0
ARC
  5
17D
330
1F
100
AcDbEntity
  8
0
  6
Continuous
 62
     7
370
    15
100
AcDbCircle
 10
210.3217803795
 20
502.998763482
 30
0.0
 40
0.4000000000008015
100
AcDbArc
 50
180.0
 51
270.0
  0
LINE
  5
17E
330
1F
100
AcDbEntity
  8
0
  6
Continuous
 62
     7
370
    15
100
AcDbLine
 10
206.9217846186
 20
518.1987655562
 30
0.0
 11
206.9217846186
 21
517.7487653893
 31
0.0
  0
LINE
  5
17F
330
1F
100
AcDbEntity
  8
0
  6
Continuous
 62
     7
370
    15
100
AcDbLine
 10
206.9217846186
 20
516.7487633627
 30
0.0
 11
206.9217846186
 21
516.2600648802
 31
0.0
  0
LINE
  5
180
330
1F
100
AcDbEntity
  8
0
  6
Continuous
 62
     7
370
    15
100
AcDbLine
 10
206.9217846186
 20
515.4639405411
 30
0.0
 11
206.9217846186
 21
515.308253209
 31
0.0
  0
LINE
  5
181
330
1F
100
AcDbEntity
  8
0
  6
Continuous
 62
     7
370
    15
100
AcDbLine
 10
206.9217846186
 20
506.0091388625
 30
0.0
 11
206.9217846186
 21
505.2487624091
 31
0.0
  0
LINE
  5
182
330
1F
100
AcDbEntity
  8
0
  6
Continuous
 62
     7
370
    15
100
AcDbLine
 10
206.9217846186
 20
504.2487603825
 30
0.0
 11
206.9217846186
 21
503.7987602156
 31
0.0
  0
LINE
  5
183
330
1F
100
AcDbEntity
  8
0
  6
Continuous
 62
     7
370
    15
100
AcDbLine
 10
209.9217757971
 20
503.7987602156
 30
0.0
 11
209.9217757971
 21
504.2487603825
 31
0.0
  0
LINE
  5
184
330
1F
100
AcDbEntity
  8
0
  6
Continuous
 62
     7
370
    15
100
AcDbLine
 10
209.9217757971
 20
505.2487624091
 30
0.0
 11
209.9217757971
 21
505.7359111708
 31
0.0
  0
LINE
  5
185
330
1F
100
AcDbEntity
  8
0
  6
Continuous
 62
     7
370
    15
100
AcDbLine
 10
209.9217757971
 20
515.0438172024
 30
0.0
 11
209.9217757971
 21
515.2317655486
 31
0.0
  0
LINE
  5
186
330
1F
100
AcDbEntity
  8
0
  6
Continuous
 62
     7
370
    15
100
AcDbLine
 10
209.9217757971
 20
515.9868371886
 30
0.0
 11
209.9217757971
 21
516.7487633627
 31
0.0
  0
LINE
  5
187
330
1F
100
AcDbEntity
  8
0
  6
Continuous
 62
     7
370
    15
100
AcDbLine
 10
209.9217757971
 20
517.7487653893
 30
0.0
 11
209.9217757971
 21
518.1987655562
 31
0.0
  0
SPLINE
  5
188
330
1F
100
AcDbEntity
  8
0
  6
Continuous
 62
     7
370
    15
100
AcDbSpline
210
0.0
220
0.0
230
1.0
 70
     8
 71
     3
 72
    15
 73
    11
 74
     0
 42
0.00000001
 43
0.00000001
 40
0.0
 40
0.0
 40
0.0
 40
0.0
 40
0.1356094025609136
 40
0.295338142820202
 40
0.403814002130962
 40
0.5319708581237416
 40
0.6738490293706532
 40
0.8261135503172465
 40
0.912619511293581
 40
1.0
 40
1.0
 40
1.0
 40
1.0
 10
209.9217757971426
 20
505.5648160379911
 30
0.0
 10
209.9661569319649
 20
505.5574893486274
 30
0.0
 10
210.0628127809485
 20
505.5415328530688
 30
0.0
 10
210.2696598576238
 20
505.5892028631825
 30
0.0
 10
210.4629451271935
 20
505.6769339436843
 30
0.0
 10
210.6095071351065
 20
505.7965828016018
 30
0.0
 10
210.7082246191232
 20
505.9475036739125
 30
0.0
 10
210.7378813011795
 20
506.0693136884587
 30
0.0
 10
210.7167069258676
 20
506.1985876542095
 30
0.0
 10
210.6704525361058
 20
506.2652560072312
 30
0.0
 10
210.6472090275427
 20
506.2987578314329
 30
0.0
  0
SPLINE
  5
189
330
1F
100
AcDbEntity
  8
0
  6
Continuous
 62
     7
370
    15
100
AcDbSpline
210
0.0
220
0.0
230
1.0
 70
     8
 71
     3
 72
    20
 73
    16
 74
     0
 42
0.00000001
 43
0.00000001
 40
0.0
 40
0.0
 40
0.0
 40
0.0
 40
0.0607082412857168
 40
0.2265318043948499
 40
0.3908031270530204
 40
0.4705946825057465
 40
0.5476200754108902
 40
0.6228569095512099
 40
0.7003369617036845
 40
0.7786472733860886
 40
0.8566577456080066
 40
0.9331037276572782
 40
0.9703733538747773
 40
0.989232224347167
 40
1.0
 40
1.0
 40
1.0
 40
1.0
 10
206.1855778486868
 20
506.2987578314329
 30
0.0
 10
206.2318522556478
 20
506.2454263992356
 30
0.0
 10
206.4045244445331
 20
506.0464210366894
 30
0.0
 10
206.8215095818273
 20
506.0284868724947
 30
0.0
 10
207.3864498973045
 20
505.9534657563305
 30
0.0
 10
207.9060657854134
 20
505.9105273150896
 30
0.0
 10
208.2999600641807
 20
505.8799665413541
 30
0.0
 10
208.6928715881409
 20
505.8522945589306
 30
0.0
 10
209.0740325665061
 20
505.8209859200492
 30
0.0
 10
209.4297538197348
 20
505.7885039092806
 30
0.0
 10
209.7323937683957
 20
505.7577001250893
 30
0.0
 10
209.9248760082088
 20
505.7347684389575
 30
0.0
 10
210.0130169554057
 20
505.7267590442448
 30
0.0
 10
210.0584382038297
 20
505.718964702303
 30
0.0
 10
210.0578889237143
 20
505.7229238298472
 30
0.0
 10
210.0576892883917
 20
505.7243627708936
 30
0.0
  0
SPLINE
  5
18A
330
1F
100
AcDbEntity
  8
0
  6
Continuous
 62
     7
370
    15
100
AcDbSpline
210
0.0
220
0.0
230
1.0
 70
     8
 71
     3
 72
    18
 73
    14
 74
     0
 42
0.00000001
 43
0.00000001
 40
0.0
 40
0.0
 40
0.0
 40
0.0
 40
0.0057558256776612
 40
0.1156405586245694
 40
0.2383946514687826
 40
0.3593096031671252
 40
0.4757056074283119
 40
0.5872117986999811
 40
0.7047314249150657
 40
0.8264989616408728
 40
0.8891457600929906
 40
0.9517929492285079
 40
1.0
 40
1.0
 40
1.0
 40
1.0
 10
210.4284003765723
 20
514.9455887478376
 30
0.0
 10
210.423753277409
 20
514.94854095069
 30
0.0
 10
210.3303881942188
 20
515.007853794085
 30
0.0
 10
210.1079649527181
 20
515.014104727356
 30
0.0
 10
209.7166137257459
 20
515.073276235306
 30
0.0
 10
209.2047275752019
 20
515.1188210447879
 30
0.0
 10
208.6536912636496
 20
515.1649862868459
 30
0.0
 10
208.0915761687094
 20
515.203866322687
 30
0.0
 10
207.5572985671
 20
515.2486185898659
 30
0.0
 10
207.1596582734743
 20
515.2896617139851
 30
0.0
 10
206.9449414857384
 20
515.3108065215604
 30
0.0
 10
206.8488731527034
 20
515.3130811487194
 30
0.0
 10
206.8334306659603
 20
515.2970051416472
 30
0.0
 10
206.8267152102133
 20
515.2900141876722
 30
0.0
  0
SPLINE
  5
18B
330
1F
100
AcDbEntity
  8
0
  6
Continuous
 62
     7
370
    15
100
AcDbSpline
210
0.0
220
0.0
230
1.0
 70
     8
 71
     3
 72
    12
 73
     8
 74
     0
 42
0.00000001
 43
0.00000001
 40
0.0
 40
0.0
 40
0.0
 40
0.0
 40
0.2236716613592036
 40
0.452301843778164
 40
0.6822312459586239
 40
0.9102236411836119
 40
1.0
 40
1.0
 40
1.0
 40
1.0
 10
206.127478221192
 20
516.1006075542952
 30
0.0
 10
206.1147455532787
 20
516.0580646795206
 30
0.0
 10
206.088997950125
 20
515.9720358076326
 30
0.0
 10
206.2101221809124
 20
515.8804171707444
 30
0.0
 10
206.4418049521353
 20
515.7840914909544
 30
0.0
 10
206.6866486090868
 20
515.7216169504688
 30
0.0
 10
206.8699875191252
 20
515.7268410305043
 30
0.0
 10
206.9217846186301
 20
515.7283169430281
 30
0.0
  0
SPLINE
  5
18C
330
1F
100
AcDbEntity
  8
0
  6
Continuous
 62
     7
370
    15
100
AcDbSpline
210
0.0
220
0.0
230
1.0
 70
     8
 71
     3
 72
    19
 73
    15
 74
     0
 42
0.00000001
 43
0.00000001
 40
0.0
 40
0.0
 40
0.0
 40
0.0
 40
0.0979016790492786
 40
0.1753768162702884
 40
0.2884797138384032
 40
0.373450922198382
 40
0.4570016149753002
 40
0.6168864726696492
 40
0.6796647724525277
 40
0.7634255068981792
 40
0.813751525659855
 40
0.8702946307123823
 40
0.932396721414543
 40
1.0
 40
1.0
 40
1.0
 40
1.0
 10
206.3037142546316
 20
515.6054866713072
 30
0.0
 10
206.3542266103959
 20
515.5791053074943
 30
0.0
 10
206.4447122509107
 20
515.5318468780243
 30
0.0
 10
206.8193345271767
 20
515.4712002586235
 30
0.0
 10
207.3058638031065
 20
515.4173349421392
 30
0.0
 10
207.8971770611613
 20
515.3640818149386
 30
0.0
 10
208.6512922430202
 20
515.3125401892402
 30
0.0
 10
209.2923697207814
 20
515.245598084421
 30
0.0
 10
209.9416660416593
 20
515.2100834490595
 30
0.0
 10
210.3199708833886
 20
515.2882544783786
 30
0.0
 10
210.5718438689516
 20
515.3964766195153
 30
0.0
 10
210.7054236987635
 20
515.4847840023768
 30
0.0
 10
210.7671991388974
 20
515.5586576961822
 30
0.0
 10
210.69575576047
 20
515.6391643671632
 30
0.0
 10
210.6585190088888
 20
515.6811249655271
 30
0.0
  0
SPLINE
  5
18D
330
1F
100
AcDbEntity
  8
0
  6
Continuous
 62
     7
370
    15
100
AcDbSpline
210
0.0
220
0.0
230
1.0
 70
     8
 71
     3
 72
    25
 73
    21
 74
     0
 42
0.00000001
 43
0.00000001
 40
0.0
 40
0.0
 40
0.0
 40
0.0
 40
0.0176266508500714
 40
0.0344978118502144
 40
0.0503138857013444
 40
0.0649744807077353
 40
0.0909450857381645
 40
0.1134377766392456
 40
0.1538405795020347
 40
0.1912354243436979
 40
0.2995715380000971
 40
0.3999641601783907
 40
0.5012962803023403
 40
0.5949065824652218
 40
0.6784878503809915
 40
0.7336317392016263
 40
0.8075187960555072
 40
0.8952855650331388
 40
0.945308830599114
 40
1.0
 40
1.0
 40
1.0
 40
1.0
 10
210.3012040646216
 20
515.055544416287
 30
0.0
 10
210.3409160092347
 20
515.0599343617071
 30
0.0
 10
210.4186378183929
 20
515.0685260965989
 30
0.0
 10
210.520498711724
 20
515.1145370630214
 30
0.0
 10
210.6015307144707
 20
515.1734990221544
 30
0.0
 10
210.6777128564699
 20
515.2570774548601
 30
0.0
 10
210.7307716744731
 20
515.3607055304524
 30
0.0
 10
210.7549460130588
 20
515.4930655127017
 30
0.0
 10
210.7320385715583
 20
515.624911123586
 30
0.0
 10
210.5608121084209
 20
515.8701482815595
 30
0.0
 10
210.2180170090071
 20
515.9572053949914
 30
0.0
 10
209.7229061736637
 20
516.0157693787397
 30
0.0
 10
209.1096936863645
 20
516.0741329786985
 30
0.0
 10
208.4602253711203
 20
516.1237590124751
 30
0.0
 10
207.9205175676279
 20
516.1632242337101
 30
0.0
 10
207.474523650082
 20
516.2024030406693
 30
0.0
 10
207.0857911295732
 20
516.240626718891
 30
0.0
 10
206.8256562881982
 20
516.2684860035763
 30
0.0
 10
206.6952033366595
 20
516.2909716303285
 30
0.0
 10
206.6865463707591
 20
516.3034314456226
 30
0.0
 10
206.682024935021
 20
516.3099390667463
 30
0.0
  0
SPLINE
  5
18E
330
1F
100
AcDbEntity
  8
0
  6
Continuous
 62
     7
370
    15
100
AcDbSpline
210
0.0
220
0.0
230
1.0
 70
     8
 71
     3
 72
    12
 73
     8
 74
     0
 42
0.00000001
 43
0.00000001
 40
0.0
 40
0.0
 40
0.0
 40
0.0
 40
0.1756430871129702
 40
0.5723112226540086
 40
0.7586160656863811
 40
0.920760678476455
 40
1.0
 40
1.0
 40
1.0
 40
1.0
 10
206.770344117417
 20
515.4914480846907
 30
0.0
 10
206.7047866319286
 20
515.482276568666
 30
0.0
 10
206.4911756934589
 20
515.4523923208092
 30
0.0
 10
206.2752315305203
 20
515.3784865127872
 30
0.0
 10
206.1140989272884
 20
515.1635206930029
 30
0.0
 10
206.0828703349219
 20
515.0033189733468
 30
0.0
 10
206.1138510760135
 20
514.924652739461
 30
0.0
 10
206.124021151795
 20
514.8988289040113
 30
0.0
  0
LINE
  5
18F
330
1F
100
AcDbEntity
  8
0
  6
Continuous
 62
     7
370
    15
100
AcDbLine
 10
206.2815413268
 20
506.2010211152
 30
0.0
 11
205.1630750687
 21
506.2010211152
 31
0.0
  0
LINE
  5
190
330
1F
100
AcDbEntity
  8
0
  6
Continuous
 62
     7
370
    15
100
AcDbLine
 10
205.1630750687
 20
505.4010224741
 30
0.0
 11
206.9217846186
 21
505.4010224741
 31
0.0
  0
LINE
  5
191
330
1F
100
AcDbEntity
  8
0
  6
Continuous
 62
     7
370
    15
100
AcDbLine
 10
203.7527844699
 20
518.9987641972
 30
0.0
 11
203.7527844699
 21
519.0522295636
 31
0.0
  0
LINE
  5
192
330
1F
100
AcDbEntity
  8
0
  6
Continuous
 62
     7
370
    15
100
AcDbLine
 10
200.7527932913
 20
519.0522295636
 30
0.0
 11
200.7527932913
 21
518.9987641972
 31
0.0
  0
SPLINE
  5
193
330
1F
100
AcDbEntity
  8
0
  6
Continuous
 62
     7
370
    15
100
AcDbSpline
210
0.0
220
0.0
230
1.0
 70
     8
 71
     3
 72
    15
 73
    11
 74
     0
 42
0.00000001
 43
0.00000001
 40
0.0
 40
0.0
 40
0.0
 40
0.0
 40
0.10775558395448
 40
0.2352512525116226
 40
0.3627904438124229
 40
0.4902569714009369
 40
0.6176632515021261
 40
0.7450970725045022
 40
0.872496392135661
 40
1.0
 40
1.0
 40
1.0
 40
1.0
 10
200.7688418419501
 20
502.9987615746045
 30
0.0
 10
200.7853809668439
 20
502.6862393497756
 30
0.0
 10
200.8214890709805
 20
502.0039429700376
 30
0.0
 10
201.1577017574197
 20
500.9947947981474
 30
0.0
 10
201.7157819490587
 20
500.0313154245704
 30
0.0
 10
202.4706057574443
 20
499.2103893730934
 30
0.0
 10
203.3857710211574
 20
498.5751231126091
 30
0.0
 10
204.4130243476342
 20
498.1549627907274
 30
0.0
 10
205.5090067752192
 20
497.9411611510482
 30
0.0
 10
206.2447646784663
 20
498.0066857238082
 30
0.0
 10
206.6127941401144
 20
498.0394614141965
 30
0.0
  0
SPLINE
  5
194
330
1F
100
AcDbEntity
  8
0
  6
Continuous
 62
     7
370
    15
100
AcDbSpline
210
0.0
220
0.0
230
1.0
 70
     8
 71
     3
 72
    15
 73
    11
 74
     0
 42
0.00000001
 43
0.00000001
 40
0.0
 40
0.0
 40
0.0
 40
0.0
 40
0.1316509291461834
 40
0.2633118991814027
 40
0.3951919226063761
 40
0.5266715637211037
 40
0.6575475181541965
 40
0.7882152779784374
 40
0.9184602473323468
 40
0.9999999999999999
 40
0.9999999999999999
 40
0.9999999999999999
 40
0.9999999999999999
 10
206.1151102574011
 20
500.9971481960798
 30
0.0
 10
205.9629262413905
 20
500.9853332415475
 30
0.0
 10
205.6585466024417
 20
500.9617024313679
 30
0.0
 10
205.2076844480031
 20
501.0631762629642
 30
0.0
 10
204.7886563222489
 20
501.2500426547424
 30
0.0
 10
204.4182577783108
 20
501.5226303431003
 30
0.0
 10
204.1160065064234
 20
501.8685495762687
 30
0.0
 10
203.8968363246259
 20
502.2702517634945
 30
0.0
 10
203.7794793069518
 20
502.6565672434796
 30
0.0
 10
203.7692964699789
 20
502.9036367434639
 30
0.0
 10
203.7653759510657
 20
502.9987615746045
 30
0.0
  0
SPLINE
  5
195
330
1F
100
AcDbEntity
  8
0
  6
Continuous
 62
     7
370
    15
100
AcDbSpline
210
0.0
220
0.0
230
1.0
 70
     8
 71
     3
 72
    15
 73
    11
 74
     0
 42
0.00000001
 43
0.00000001
 40
0.0
 40
0.0
 40
0.0
 40
0.0
 40
0.1249271744002042
 40
0.2499159491389391
 40
0.3749663957929265
 40
0.4999576941663553
 40
0.6249203967106692
 40
0.749916901807382
 40
0.8748746040201251
 40
1.0
 40
1.0
 40
1.0
 40
1.0
 10
206.7836657555243
 20
523.9292902153517
 30
0.0
 10
206.417288847583
 20
523.9726227326685
 30
0.0
 10
205.6843543749166
 20
524.0593091341326
 30
0.0
 10
204.5803343532001
 20
523.8941105740354
 30
0.0
 10
203.5395309812897
 20
523.5051872698626
 30
0.0
 10
202.6043425314998
 20
522.9001677412077
 30
0.0
 10
201.8237046452755
 20
522.1039682085973
 30
0.0
 10
201.2357273143356
 20
521.1596137932224
 30
0.0
 10
200.8399087355809
 20
520.1111642195847
 30
0.0
 10
200.781844751067
 20
519.3720440579186
 30
0.0
 10
200.7527932913443
 20
519.0022361677671
 30
0.0
  0
SPLINE
  5
196
330
1F
100
AcDbEntity
  8
0
  6
Continuous
 62
     7
370
    15
100
AcDbSpline
210
0.0
220
0.0
230
1.0
 70
     8
 71
     3
 72
    15
 73
    11
 74
     0
 42
0.00000001
 43
0.00000001
 40
0.0
 40
0.0
 40
0.0
 40
0.0
 40
0.1242507647156472
 40
0.2486323191975824
 40
0.3735407918844088
 40
0.4985808856297401
 40
0.6236633115321472
 40
0.7490698212127426
 40
0.8744365574487172
 40
1.0
 40
1.0
 40
1.0
 40
1.0
 10
203.7527844698569
 20
519.0022361677671
 30
0.0
 10
203.766348774787
 20
519.1541889558857
 30
0.0
 10
203.7934916628069
 20
519.4582544817997
 30
0.0
 10
203.9679417138608
 20
519.8855722335205
 30
0.0
 10
204.2212764634976
 20
520.2672140815082
 30
0.0
 10
204.5510950873258
 20
520.5871499875848
 30
0.0
 10
204.9420262354053
 20
520.8277181973498
 30
0.0
 10
205.3747219480305
 20
520.9793574196332
 30
0.0
 10
205.8322531948455
 20
521.0327888456651
 30
0.0
 10
206.1341733163009
 20
520.9921085418214
 30
0.0
 10
206.2852517159125
 20
520.9717524450804
 30
0.0
  0
LINE
  5
197
330
1F
100
AcDbEntity
  8
0
  6
Continuous
 62
     7
370
    15
100
AcDbLine
 10
221.6558441908
 20
503.6138964098
 30
0.0
 11
206.11488674
 21
500.9974760216
 31
0.0
  0
LINE
  5
198
330
1F
100
AcDbEntity
  8
0
  6
Continuous
 62
     7
370
    15
100
AcDbLine
 10
206.6129431517
 20
498.0391186875
 30
0.0
 11
222.1539155038
 21
500.6555390757
 31
0.0
  0
LINE
  5
199
330
1F
100
AcDbEntity
  8
0
  6
Continuous
 62
     7
370
    15
100
AcDbLine
 10
206.2854603322
 20
520.9713203114
 30
0.0
 11
221.8264326842
 21
518.3549148243
 31
0.0
  0
LINE
  5
19A
330
1F
100
AcDbEntity
  8
0
  6
Continuous
 62
     7
370
    15
100
AcDbLine
 10
222.3244890959
 20
521.3132721585
 30
0.0
 11
206.7835316451
 21
523.9296925467
 31
0.0
  0
SPLINE
  5
19B
330
1F
100
AcDbEntity
  8
0
  6
Continuous
 62
     7
370
    15
100
AcDbSpline
210
0.0
220
0.0
230
1.0
 70
     8
 71
     3
 72
    12
 73
     8
 74
     0
 42
0.00000001
 43
0.00000001
 40
0.0
 40
0.0
 40
0.0
 40
0.0
 40
0.1526135604568276
 40
0.2973905261041906
 40
0.5623705921371759
 40
0.7966015821471988
 40
1.0
 40
1.0
 40
1.0
 40
1.0
 10
222.1535578758856
 20
500.6558370989347
 30
0.0
 10
222.4047776243702
 20
500.7085748133928
 30
0.0
 10
222.8943171708296
 20
500.811342199209
 30
0.0
 10
223.7438378012055
 20
501.2405950294859
 30
0.0
 10
224.5558272472788
 20
501.9849887331448
 30
0.0
 10
225.1202777174927
 20
503.0560282777556
 30
0.0
 10
225.2019650181644
 20
503.7909564233311
 30
0.0
 10
225.2399310858389
 20
504.1325313251996
 30
0.0
  0
SPLINE
  5
19C
330
1F
100
AcDbEntity
  8
0
  6
Continuous
 62
     7
370
    15
100
AcDbSpline
210
0.0
220
0.0
230
1.0
 70
     8
 71
     3
 72
    11
 73
     7
 74
     0
 42
0.00000001
 43
0.00000001
 40
0.0
 40
0.0
 40
0.0
 40
0.0
 40
0.2003624455425825
 40
0.4328096834642056
 40
0.6990173802634269
 40
1.0
 40
1.0
 40
1.0
 40
1.0
 10
222.2416088373801
 20
504.1325313251996
 30
0.0
 10
222.2283816759426
 20
504.0761024338391
 30
0.0
 10
222.1998092379321
 20
503.9542084804
 30
0.0
 10
222.0839233463421
 20
503.788519408212
 30
0.0
 10
221.8991754888486
 20
503.6495899573827
 30
0.0
 10
221.7415567117534
 20
503.6262124199791
 30
0.0
 10
221.6579154522558
 20
503.6138070028806
 30
0.0
  0
SPLINE
  5
19D
330
1F
100
AcDbEntity
  8
0
  6
Continuous
 62
     7
370
    15
100
AcDbSpline
210
0.0
220
0.0
230
1.0
 70
     8
 71
     3
 72
    12
 73
     8
 74
     0
 42
0.00000001
 43
0.00000001
 40
0.0
 40
0.0
 40
0.0
 40
0.0
 40
0.2034077986152291
 40
0.4376400377344393
 40
0.7026160208210837
 40
0.8473893807424194
 40
1.0
 40
1.0
 40
1.0
 40
1.0
 10
225.2399310858389
 20
517.6911575001265
 30
0.0
 10
225.2184903605935
 20
518.0341681235989
 30
0.0
 10
225.1723597802058
 20
518.7721692387079
 30
0.0
 10
224.6602607893705
 20
519.869277723616
 30
0.0
 10
223.8850617963861
 20
520.6520413776556
 30
0.0
 10
223.0572024035202
 20
521.121756570756
 30
0.0
 10
222.5732169357756
 20
521.2480263676645
 30
0.0
 10
222.3248467238089
 20
521.3128251236463
 30
0.0
  0
SPLINE
  5
19E
330
1F
100
AcDbEntity
  8
0
  6
Continuous
 62
     7
370
    15
100
AcDbSpline
210
0.0
220
0.0
230
1.0
 70
     8
 71
     3
 72
    12
 73
     8
 74
     0
 42
0.00000001
 43
0.00000001
 40
0.0
 40
0.0
 40
0.0
 40
0.0
 40
0.1555612070081118
 40
0.3022035794488034
 40
0.5679688160015415
 40
0.7999504135698806
 40
1.0
 40
1.0
 40
1.0
 40
1.0
 10
221.8245104344031
 20
518.355823795178
 30
0.0
 10
221.8650569957581
 20
518.3400743420511
 30
0.0
 10
221.9438254510273
 20
518.3094784036367
 30
0.0
 10
222.0734637543328
 20
518.2144321728507
 30
0.0
 10
222.1878936199364
 20
518.06826603588
 30
0.0
 10
222.2520263647374
 20
517.8740025267689
 30
0.0
 10
222.2449059192357
 20
517.7490268004942
 30
0.0
 10
222.2416088373801
 20
517.6911575001265
 30
0.0
  0
LINE
  5
19F
330
1F
100
AcDbEntity
  8
0
  6
Continuous
 62
     7
370
    15
100
AcDbLine
 10
222.2407743724
 20
517.7411657971
 30
0.0
 11
222.2407743724
 21
517.498768608
 31
0.0
  0
LINE
  5
1A0
330
1F
100
AcDbEntity
  8
0
  6
Continuous
 62
     7
370
    15
100
AcDbLine
 10
222.2407743724
 20
504.4987571639
 30
0.0
 11
222.2407743724
 21
504.0825230282
 31
0.0
  0
LINE
  5
1A1
330
1F
100
AcDbEntity
  8
0
  6
Continuous
 62
     7
370
    15
100
AcDbLine
 10
225.2407655509
 20
504.0825230282
 30
0.0
 11
225.2407655509
 21
504.5015138787
 31
0.0
  0
LINE
  5
1A2
330
1F
100
AcDbEntity
  8
0
  6
Continuous
 62
     7
370
    15
100
AcDbLine
 10
225.2407655509
 20
517.4960118931
 30
0.0
 11
225.2407655509
 21
517.7411657971
 31
0.0
  0
LINE
  5
1A3
330
1F
100
AcDbEntity
  8
0
  6
Continuous
 62
     7
370
    15
100
AcDbLine
 10
211.540056804
 20
516.5987682742
 30
0.0
 11
209.9217757971
 21
516.5987682742
 31
0.0
  0
LINE
  5
1A4
330
1F
100
AcDbEntity
  8
0
  6
Continuous
 62
     7
370
    15
100
AcDbLine
 10
210.5486974509
 20
515.7987696332
 30
0.0
 11
211.540056804
 21
515.7987696332
 31
0.0
  0
LINE
  5
1A5
330
1F
100
AcDbEntity
  8
0
  6
Continuous
 62
     7
370
    15
100
AcDbLine
 10
211.8782833607
 20
517.8669017952
 30
0.0
 11
211.6117611916
 21
516.658656041
 31
0.0
  0
LINE
  5
1A6
330
1F
100
AcDbEntity
  8
0
  6
Continuous
 62
     7
370
    15
100
AcDbLine
 10
212.3799160512
 20
516.4271068972
 30
0.0
 11
212.6594916375
 21
517.694569866
 31
0.0
  0
SPLINE
  5
1A7
330
1F
100
AcDbEntity
  8
0
  6
Continuous
 62
     7
370
    15
100
AcDbSpline
210
0.0
220
0.0
230
1.0
 70
     8
 71
     3
 72
    11
 73
     7
 74
     0
 42
0.00000001
 43
0.00000001
 40
0.0
 40
0.0
 40
0.0
 40
0.0
 40
0.2541311630691059
 40
0.5022676364033828
 40
0.7495179365131207
 40
1.0
 40
1.0
 40
1.0
 40
1.0
 10
211.5400568039557
 20
515.7987696331526
 30
0.0
 10
211.6401452372511
 20
515.8090147574048
 30
0.0
 10
211.8379611218341
 20
515.8292633340875
 30
0.0
 10
212.0961127089834
 20
515.983288970991
 30
0.0
 10
212.2995541262558
 20
516.2023702022391
 30
0.0
 10
212.3612901058851
 20
516.3894202276294
 30
0.0
 10
212.3923585207602
 20
516.4835524958158
 30
0.0
  0
LINE
  5
1A8
330
1F
100
AcDbEntity
  8
0
  6
Continuous
 62
     7
370
    15
100
AcDbLine
 10
221.5203926356
 20
47.4987698
 30
0.0
 11
221.5203926356
 21
34.498758356
 31
0.0
  0
LINE
  5
1A9
330
1F
100
AcDbEntity
  8
0
  6
Continuous
 62
     7
370
    15
100
AcDbLine
 10
221.5203926356
 20
47.4987698
 30
0.0
 11
224.2393777163
 21
47.4987698
 31
0.0
  0
LWPOLYLINE
  5
1AA
330
1F
100
AcDbEntity
  8
0
  6
Continuous
 62
     7
370
    15
100
AcDbPolyline
 90
        9
 70
   128
 43
0.0
 10
224.9698922427
 20
46.2987643879
 10
224.9558553488
 20
46.5328765315
 10
224.9142811091
 20
46.7579883736
 10
224.8467639477
 20
46.9654423398
 10
224.7559264691
 20
47.147296111
 10
224.6452257426
 20
47.2965312403
 10
224.5189235003
 20
47.4074256819
 10
224.381892422
 20
47.4757028025
 10
224.2393777163
 20
47.4987698
  0
LINE
  5
1AB
330
1F
100
AcDbEntity
  8
0
  6
Continuous
 62
     7
370
    15
100
AcDbLine
 10
224.9698922427
 20
46.2987643879
 30
0.0
 11
224.9698922427
 21
35.6987637681
 31
0.0
  0
LWPOLYLINE
  5
1AC
330
1F
100
AcDbEntity
  8
0
  6
Continuous
 62
     7
370
    15
100
AcDbPolyline
 90
        9
 70
   128
 43
0.0
 10
224.2393777163
 20
34.498758356
 10
224.381892422
 20
34.5218253535
 10
224.5189235003
 20
34.5901024741
 10
224.6452257426
 20
34.7009969157
 10
224.7559264691
 20
34.850232045
 10
224.8467639477
 20
35.0320858162
 10
224.9142811091
 20
35.2395397824
 10
224.9558553488
 20
35.4646516245
 10
224.9698922427
 20
35.6987637681
  0
LINE
  5
1AD
330
1F
100
AcDbEntity
  8
0
  6
Continuous
 62
     7
370
    15
100
AcDbLine
 10
224.2393777163
 20
34.498758356
 30
0.0
 11
221.5203926356
 21
34.498758356
 31
0.0
  0
LINE
  5
1AE
330
1F
100
AcDbEntity
  8
0
  6
Continuous
 62
     7
370
    15
100
AcDbLine
 10
224.2393777163
 20
47.4987698
 30
0.0
 11
225.1913980038
 21
47.4987698
 31
0.0
  0
LWPOLYLINE
  5
1AF
330
1F
100
AcDbEntity
  8
0
  6
Continuous
 62
     7
370
    15
100
AcDbPolyline
 90
        9
 70
   128
 43
0.0
 10
225.1913980038
 20
47.4987698
 10
225.3339127095
 20
47.4757028025
 10
225.4709437878
 20
47.4074256819
 10
225.5972460301
 20
47.2965312403
 10
225.7079467566
 20
47.147296111
 10
225.7987991364
 20
46.9654423398
 10
225.8663013966
 20
46.7579883736
 10
225.9078756364
 20
46.5328765315
 10
225.9219125302
 20
46.2987643879
  0
LINE
  5
1B0
330
1F
100
AcDbEntity
  8
0
  6
Continuous
 62
     7
370
    15
100
AcDbLine
 10
225.9219125302
 20
46.2987643879
 30
0.0
 11
224.9698922427
 21
46.2987643879
 31
0.0
  0
LINE
  5
1B1
330
1F
100
AcDbEntity
  8
0
  6
Continuous
 62
     7
370
    15
100
AcDbLine
 10
225.9219125302
 20
46.2987643879
 30
0.0
 11
225.9219125302
 21
35.6987637681
 31
0.0
  0
LINE
  5
1B2
330
1F
100
AcDbEntity
  8
0
  6
Continuous
 62
     7
370
    15
100
AcDbLine
 10
224.9698922427
 20
35.6987637681
 30
0.0
 11
225.9219125302
 21
35.6987637681
 31
0.0
  0
LINE
  5
1B3
330
1F
100
AcDbEntity
  8
0
  6
Continuous
 62
     7
370
    15
100
AcDbLine
 10
225.1913980038
 20
34.498758356
 30
0.0
 11
224.2393777163
 21
34.498758356
 31
0.0
  0
LWPOLYLINE
  5
1B4
330
1F
100
AcDbEntity
  8
0
  6
Continuous
 62
     7
370
    15
100
AcDbPolyline
 90
        9
 70
   128
 43
0.0
 10
225.9219125302
 20
35.6987637681
 10
225.9078756364
 20
35.4646516245
 10
225.8663013966
 20
35.2395397824
 10
225.7987991364
 20
35.0320858162
 10
225.7079467566
 20
34.850232045
 10
225.5972460301
 20
34.7009969157
 10
225.4709437878
 20
34.5901024741
 10
225.3339127095
 20
34.5218253535
 10
225.1913980038
 20
34.498758356
  0
LINE
  5
1B5
330
1F
100
AcDbEntity
  8
0
  6
Continuous
 62
     7
370
    15
100
AcDbLine
 10
225.1913980038
 20
504.4987571639
 30
0.0
 11
224.2393777163
 21
504.4987571639
 31
0.0
  0
LWPOLYLINE
  5
1B6
330
1F
100
AcDbEntity
  8
0
  6
Continuous
 62
     7
370
    15
100
AcDbPolyline
 90
        9
 70
   128
 43
0.0
 10
224.2393777163
 20
504.4987571639
 10
224.381892422
 20
504.5218241614
 10
224.5189235003
 20
504.590101282
 10
224.6452257426
 20
504.7009957236
 10
224.7559264691
 20
504.8502308529
 10
224.8467639477
 20
505.0320846241
 10
224.9142811091
 20
505.2395385903
 10
224.9558553488
 20
505.4646504324
 10
224.9698922427
 20
505.698762576
  0
LINE
  5
1B7
330
1F
100
AcDbEntity
  8
0
  6
Continuous
 62
     7
370
    15
100
AcDbLine
 10
224.9698922427
 20
505.698762576
 30
0.0
 11
225.9219125302
 21
505.698762576
 31
0.0
  0
LWPOLYLINE
  5
1B8
330
1F
100
AcDbEntity
  8
0
  6
Continuous
 62
     7
370
    15
100
AcDbPolyline
 90
        9
 70
   128
 43
0.0
 10
225.9219125302
 20
505.698762576
 10
225.9078756364
 20
505.4646504324
 10
225.8663013966
 20
505.2395385903
 10
225.7987991364
 20
505.0320846241
 10
225.7079467566
 20
504.8502308529
 10
225.5972460301
 20
504.7009957236
 10
225.4709437878
 20
504.590101282
 10
225.3339127095
 20
504.5218241614
 10
225.1913980038
 20
504.4987571639
  0
LINE
  5
1B9
330
1F
100
AcDbEntity
  8
0
  6
Continuous
 62
     7
370
    15
100
AcDbLine
 10
225.9219125302
 20
516.2987631959
 30
0.0
 11
224.9698922427
 21
516.2987631959
 31
0.0
  0
LINE
  5
1BA
330
1F
100
AcDbEntity
  8
0
  6
Continuous
 62
     7
370
    15
100
AcDbLine
 10
225.9219125302
 20
516.2987631959
 30
0.0
 11
225.9219125302
 21
505.698762576
 31
0.0
  0
LINE
  5
1BB
330
1F
100
AcDbEntity
  8
0
  6
Continuous
 62
     7
370
    15
100
AcDbLine
 10
224.9698922427
 20
516.2987631959
 30
0.0
 11
224.9698922427
 21
505.698762576
 31
0.0
  0
LINE
  5
1BC
330
1F
100
AcDbEntity
  8
0
  6
Continuous
 62
     7
370
    15
100
AcDbLine
 10
224.2393777163
 20
517.498768608
 30
0.0
 11
225.1913980038
 21
517.498768608
 31
0.0
  0
LWPOLYLINE
  5
1BD
330
1F
100
AcDbEntity
  8
0
  6
Continuous
 62
     7
370
    15
100
AcDbPolyline
 90
        9
 70
   128
 43
0.0
 10
225.1913980038
 20
517.498768608
 10
225.3339127095
 20
517.4757016104
 10
225.4709437878
 20
517.4074244898
 10
225.5972460301
 20
517.2965300482
 10
225.7079467566
 20
517.1472949189
 10
225.7987991364
 20
516.9654411477
 10
225.8663013966
 20
516.7579871815
 10
225.9078756364
 20
516.5328753394
 10
225.9219125302
 20
516.2987631959
  0
LWPOLYLINE
  5
1BE
330
1F
100
AcDbEntity
  8
0
  6
Continuous
 62
     7
370
    15
100
AcDbPolyline
 90
        9
 70
   128
 43
0.0
 10
224.9698922427
 20
516.2987631959
 10
224.9558553488
 20
516.5328753394
 10
224.9142811091
 20
516.7579871815
 10
224.8467639477
 20
516.9654411477
 10
224.7559264691
 20
517.1472949189
 10
224.6452257426
 20
517.2965300482
 10
224.5189235003
 20
517.4074244898
 10
224.381892422
 20
517.4757016104
 10
224.2393777163
 20
517.498768608
  0
LINE
  5
1BF
330
1F
100
AcDbEntity
  8
0
  6
Continuous
 62
     7
370
    15
100
AcDbLine
 10
221.5203926356
 20
517.498768608
 30
0.0
 11
221.5203926356
 21
504.4987571639
 31
0.0
  0
LINE
  5
1C0
330
1F
100
AcDbEntity
  8
0
  6
Continuous
 62
     7
370
    15
100
AcDbLine
 10
221.5203926356
 20
517.498768608
 30
0.0
 11
224.2393777163
 21
517.498768608
 31
0.0
  0
LINE
  5
1C1
330
1F
100
AcDbEntity
  8
0
  6
Continuous
 62
     7
370
    15
100
AcDbLine
 10
224.2393777163
 20
504.4987571639
 30
0.0
 11
221.5203926356
 21
504.4987571639
 31
0.0
  0
LINE
  5
1C2
330
1F
100
AcDbEntity
  8
0
  6
Continuous
 62
     7
370
    15
100
AcDbLine
 10
220.9417805464
 20
47.4987698
 30
0.0
 11
221.5203926356
 21
47.4987698
 31
0.0
  0
LINE
  5
1C3
330
1F
100
AcDbEntity
  8
0
  6
Continuous
 62
     7
370
    15
100
AcDbLine
 10
221.5203926356
 20
34.498758356
 30
0.0
 11
220.9417805464
 21
34.498758356
 31
0.0
  0
LINE
  5
1C4
330
1F
100
AcDbEntity
  8
0
  6
Continuous
 62
     7
370
    15
100
AcDbLine
 10
220.9417805464
 20
517.498768608
 30
0.0
 11
221.5203926356
 21
517.498768608
 31
0.0
  0
LINE
  5
1C5
330
1F
100
AcDbEntity
  8
0
  6
Continuous
 62
     7
370
    15
100
AcDbLine
 10
221.5203926356
 20
504.4987571639
 30
0.0
 11
220.9417805464
 21
504.4987571639
 31
0.0
  0
LINE
  5
1C6
330
1F
100
AcDbEntity
  8
0
  6
Continuous
 62
     7
370
    15
100
AcDbLine
 10
231.0417876036
 20
34.098766486
 30
0.0
 11
231.8417862446
 21
34.098766486
 31
0.0
  0
LINE
  5
1C7
330
1F
100
AcDbEntity
  8
0
  6
Continuous
 62
     7
370
    15
100
AcDbLine
 10
233.3417818339
 20
35.5987620753
 30
0.0
 11
233.3417818339
 21
36.3987607163
 31
0.0
  0
LINE
  5
1C8
330
1F
100
AcDbEntity
  8
0
  6
Continuous
 62
     7
370
    15
100
AcDbLine
 10
231.8417862446
 20
35.5987620753
 30
0.0
 11
233.3417818339
 21
35.5987620753
 31
0.0
  0
LINE
  5
1C9
330
1F
100
AcDbEntity
  8
0
  6
Continuous
 62
     7
370
    15
100
AcDbLine
 10
231.0417876036
 20
37.8987563056
 30
0.0
 11
231.0417876036
 21
36.3987607163
 31
0.0
  0
LINE
  5
1CA
330
1F
100
AcDbEntity
  8
0
  6
Continuous
 62
     7
370
    15
100
AcDbLine
 10
233.3417818339
 20
36.3987607163
 30
0.0
 11
231.8417862446
 21
36.3987607163
 31
0.0
  0
LINE
  5
1CB
330
1F
100
AcDbEntity
  8
0
  6
Continuous
 62
     7
370
    15
100
AcDbLine
 10
231.0417876036
 20
35.5987620753
 30
0.0
 11
231.0417876036
 21
34.098766486
 31
0.0
  0
LINE
  5
1CC
330
1F
100
AcDbEntity
  8
0
  6
Continuous
 62
     7
370
    15
100
AcDbLine
 10
231.8417862446
 20
37.8987563056
 30
0.0
 11
231.0417876036
 21
37.8987563056
 31
0.0
  0
LINE
  5
1CD
330
1F
100
AcDbEntity
  8
0
  6
Continuous
 62
     7
370
    15
100
AcDbLine
 10
231.8417862446
 20
34.098766486
 30
0.0
 11
231.8417862446
 21
35.5987620753
 31
0.0
  0
LINE
  5
1CE
330
1F
100
AcDbEntity
  8
0
  6
Continuous
 62
     7
370
    15
100
AcDbLine
 10
231.8417862446
 20
36.3987607163
 30
0.0
 11
231.8417862446
 21
37.8987563056
 31
0.0
  0
LINE
  5
1CF
330
1F
100
AcDbEntity
  8
0
  6
Continuous
 62
     7
370
    15
100
AcDbLine
 10
229.5417771132
 20
36.3987607163
 30
0.0
 11
229.5417771132
 21
35.5987620753
 31
0.0
  0
LINE
  5
1D0
330
1F
100
AcDbEntity
  8
0
  6
Continuous
 62
     7
370
    15
100
AcDbLine
 10
231.0417876036
 20
36.3987607163
 30
0.0
 11
229.5417771132
 21
36.3987607163
 31
0.0
  0
CIRCLE
  5
1D1
330
1F
100
AcDbEntity
  8
0
  6
Continuous
 62
     7
370
    15
100
AcDbCircle
 10
231.4417803795
 20
35.9987634819
 30
0.0
 40
3.0
  0
LINE
  5
1D2
330
1F
100
AcDbEntity
  8
0
  6
Continuous
 62
     7
370
    15
100
AcDbLine
 10
229.5417771132
 20
35.5987620753
 30
0.0
 11
231.0417876036
 21
35.5987620753
 31
0.0
  0
LINE
  5
1D3
330
1F
100
AcDbEntity
  8
0
  6
Continuous
 62
     7
370
    15
100
AcDbLine
 10
231.0417876036
 20
45.5987674397
 30
0.0
 11
231.0417876036
 21
44.0987569493
 31
0.0
  0
LINE
  5
1D4
330
1F
100
AcDbEntity
  8
0
  6
Continuous
 62
     7
370
    15
100
AcDbLine
 10
233.3417818339
 20
45.5987674397
 30
0.0
 11
233.3417818339
 21
46.3987660807
 31
0.0
  0
LINE
  5
1D5
330
1F
100
AcDbEntity
  8
0
  6
Continuous
 62
     7
370
    15
100
AcDbLine
 10
233.3417818339
 20
46.3987660807
 30
0.0
 11
231.8417862446
 21
46.3987660807
 31
0.0
  0
LINE
  5
1D6
330
1F
100
AcDbEntity
  8
0
  6
Continuous
 62
     7
370
    15
100
AcDbLine
 10
231.0417876036
 20
46.3987660807
 30
0.0
 11
229.5417771132
 21
46.3987660807
 31
0.0
  0
LINE
  5
1D7
330
1F
100
AcDbEntity
  8
0
  6
Continuous
 62
     7
370
    15
100
AcDbLine
 10
231.8417862446
 20
47.89876167
 30
0.0
 11
231.0417876036
 21
47.89876167
 31
0.0
  0
LINE
  5
1D8
330
1F
100
AcDbEntity
  8
0
  6
Continuous
 62
     7
370
    15
100
AcDbLine
 10
231.8417862446
 20
45.5987674397
 30
0.0
 11
233.3417818339
 21
45.5987674397
 31
0.0
  0
LINE
  5
1D9
330
1F
100
AcDbEntity
  8
0
  6
Continuous
 62
     7
370
    15
100
AcDbLine
 10
231.0417876036
 20
47.89876167
 30
0.0
 11
231.0417876036
 21
46.3987660807
 31
0.0
  0
LINE
  5
1DA
330
1F
100
AcDbEntity
  8
0
  6
Continuous
 62
     7
370
    15
100
AcDbLine
 10
229.5417771132
 20
46.3987660807
 30
0.0
 11
229.5417771132
 21
45.5987674397
 31
0.0
  0
CIRCLE
  5
1DB
330
1F
100
AcDbEntity
  8
0
  6
Continuous
 62
     7
370
    15
100
AcDbCircle
 10
231.4417803795
 20
45.998763482
 30
0.0
 40
3.0
  0
LINE
  5
1DC
330
1F
100
AcDbEntity
  8
0
  6
Continuous
 62
     7
370
    15
100
AcDbLine
 10
231.0417876036
 20
44.0987569493
 30
0.0
 11
231.8417862446
 21
44.0987569493
 31
0.0
  0
LINE
  5
1DD
330
1F
100
AcDbEntity
  8
0
  6
Continuous
 62
     7
370
    15
100
AcDbLine
 10
231.8417862446
 20
44.0987569493
 30
0.0
 11
231.8417862446
 21
45.5987674397
 31
0.0
  0
LINE
  5
1DE
330
1F
100
AcDbEntity
  8
0
  6
Continuous
 62
     7
370
    15
100
AcDbLine
 10
231.8417862446
 20
46.3987660807
 30
0.0
 11
231.8417862446
 21
47.89876167
 31
0.0
  0
LINE
  5
1DF
330
1F
100
AcDbEntity
  8
0
  6
Continuous
 62
     7
370
    15
100
AcDbLine
 10
229.5417771132
 20
45.5987674397
 30
0.0
 11
231.0417876036
 21
45.5987674397
 31
0.0
  0
LINE
  5
1E0
330
1F
100
AcDbEntity
  8
0
  6
Continuous
 62
     7
370
    15
100
AcDbLine
 10
231.0417876036
 20
504.0987652939
 30
0.0
 11
231.8417862446
 21
504.0987652939
 31
0.0
  0
LINE
  5
1E1
330
1F
100
AcDbEntity
  8
0
  6
Continuous
 62
     7
370
    15
100
AcDbLine
 10
231.8417862446
 20
504.0987652939
 30
0.0
 11
231.8417862446
 21
505.5987608832
 31
0.0
  0
LINE
  5
1E2
330
1F
100
AcDbEntity
  8
0
  6
Continuous
 62
     7
370
    15
100
AcDbLine
 10
231.8417862446
 20
505.5987608832
 30
0.0
 11
233.3417818339
 21
505.5987608832
 31
0.0
  0
LINE
  5
1E3
330
1F
100
AcDbEntity
  8
0
  6
Continuous
 62
     7
370
    15
100
AcDbLine
 10
233.3417818339
 20
505.5987608832
 30
0.0
 11
233.3417818339
 21
506.3987595242
 31
0.0
  0
LINE
  5
1E4
330
1F
100
AcDbEntity
  8
0
  6
Continuous
 62
     7
370
    15
100
AcDbLine
 10
231.0417876036
 20
507.8987700146
 30
0.0
 11
231.0417876036
 21
506.3987595242
 31
0.0
  0
LINE
  5
1E5
330
1F
100
AcDbEntity
  8
0
  6
Continuous
 62
     7
370
    15
100
AcDbLine
 10
229.5417771132
 20
506.3987595242
 30
0.0
 11
229.5417771132
 21
505.5987608832
 31
0.0
  0
LINE
  5
1E6
330
1F
100
AcDbEntity
  8
0
  6
Continuous
 62
     7
370
    15
100
AcDbLine
 10
231.0417876036
 20
505.5987608832
 30
0.0
 11
231.0417876036
 21
504.0987652939
 31
0.0
  0
LINE
  5
1E7
330
1F
100
AcDbEntity
  8
0
  6
Continuous
 62
     7
370
    15
100
AcDbLine
 10
231.0417876036
 20
506.3987595242
 30
0.0
 11
229.5417771132
 21
506.3987595242
 31
0.0
  0
LINE
  5
1E8
330
1F
100
AcDbEntity
  8
0
  6
Continuous
 62
     7
370
    15
100
AcDbLine
 10
233.3417818339
 20
506.3987595242
 30
0.0
 11
231.8417862446
 21
506.3987595242
 31
0.0
  0
LINE
  5
1E9
330
1F
100
AcDbEntity
  8
0
  6
Continuous
 62
     7
370
    15
100
AcDbLine
 10
229.5417771132
 20
505.5987608832
 30
0.0
 11
231.0417876036
 21
505.5987608832
 31
0.0
  0
LINE
  5
1EA
330
1F
100
AcDbEntity
  8
0
  6
Continuous
 62
     7
370
    15
100
AcDbLine
 10
231.8417862446
 20
506.3987595242
 30
0.0
 11
231.8417862446
 21
507.8987700146
 31
0.0
  0
CIRCLE
  5
1EB
330
1F
100
AcDbEntity
  8
0
  6
Continuous
 62
     7
370
    15
100
AcDbCircle
 10
231.4417803795
 20
505.9987634819
 30
0.0
 40
3.0
  0
LINE
  5
1EC
330
1F
100
AcDbEntity
  8
0
  6
Continuous
 62
     7
370
    15
100
AcDbLine
 10
231.8417862446
 20
507.8987700146
 30
0.0
 11
231.0417876036
 21
507.8987700146
 31
0.0
  0
LINE
  5
1ED
330
1F
100
AcDbEntity
  8
0
  6
Continuous
 62
     7
370
    15
100
AcDbLine
 10
231.0417876036
 20
515.5987662476
 30
0.0
 11
231.0417876036
 21
514.0987706584
 31
0.0
  0
LINE
  5
1EE
330
1F
100
AcDbEntity
  8
0
  6
Continuous
 62
     7
370
    15
100
AcDbLine
 10
233.3417818339
 20
515.5987662476
 30
0.0
 11
233.3417818339
 21
516.3987648886
 31
0.0
  0
LINE
  5
1EF
330
1F
100
AcDbEntity
  8
0
  6
Continuous
 62
     7
370
    15
100
AcDbLine
 10
233.3417818339
 20
516.3987648886
 30
0.0
 11
231.8417862446
 21
516.3987648886
 31
0.0
  0
LINE
  5
1F0
330
1F
100
AcDbEntity
  8
0
  6
Continuous
 62
     7
370
    15
100
AcDbLine
 10
231.0417876036
 20
514.0987706584
 30
0.0
 11
231.8417862446
 21
514.0987706584
 31
0.0
  0
LINE
  5
1F1
330
1F
100
AcDbEntity
  8
0
  6
Continuous
 62
     7
370
    15
100
AcDbLine
 10
231.0417876036
 20
517.8987604779
 30
0.0
 11
231.0417876036
 21
516.3987648886
 31
0.0
  0
LINE
  5
1F2
330
1F
100
AcDbEntity
  8
0
  6
Continuous
 62
     7
370
    15
100
AcDbLine
 10
229.5417771132
 20
516.3987648886
 30
0.0
 11
229.5417771132
 21
515.5987662476
 31
0.0
  0
LINE
  5
1F3
330
1F
100
AcDbEntity
  8
0
  6
Continuous
 62
     7
370
    15
100
AcDbLine
 10
231.0417876036
 20
516.3987648886
 30
0.0
 11
229.5417771132
 21
516.3987648886
 31
0.0
  0
CIRCLE
  5
1F4
330
1F
100
AcDbEntity
  8
0
  6
Continuous
 62
     7
370
    15
100
AcDbCircle
 10
231.4417803795
 20
515.998763482
 30
0.0
 40
3.0
  0
LINE
  5
1F5
330
1F
100
AcDbEntity
  8
0
  6
Continuous
 62
     7
370
    15
100
AcDbLine
 10
231.8417862446
 20
517.8987604779
 30
0.0
 11
231.0417876036
 21
517.8987604779
 31
0.0
  0
LINE
  5
1F6
330
1F
100
AcDbEntity
  8
0
  6
Continuous
 62
     7
370
    15
100
AcDbLine
 10
231.8417862446
 20
515.5987662476
 30
0.0
 11
233.3417818339
 21
515.5987662476
 31
0.0
  0
LINE
  5
1F7
330
1F
100
AcDbEntity
  8
0
  6
Continuous
 62
     7
370
    15
100
AcDbLine
 10
231.8417862446
 20
516.3987648886
 30
0.0
 11
231.8417862446
 21
517.8987604779
 31
0.0
  0
LINE
  5
1F8
330
1F
100
AcDbEntity
  8
0
  6
Continuous
 62
     7
370
    15
100
AcDbLine
 10
231.8417862446
 20
514.0987706584
 30
0.0
 11
231.8417862446
 21
515.5987662476
 31
0.0
  0
LINE
  5
1F9
330
1F
100
AcDbEntity
  8
0
  6
Continuous
 62
     7
370
    15
100
AcDbLine
 10
229.5417771132
 20
515.5987662476
 30
0.0
 11
231.0417876036
 21
515.5987662476
 31
0.0
  0
LINE
  5
1FA
330
1F
100
AcDbEntity
  8
0
  6
Continuous
 62
     7
370
    15
100
AcDbLine
 10
230.4240152629
 20
29.8968774479
 30
0.0
 11
225.4417822154
 21
34.498758356
 31
0.0
  0
LINE
  5
1FB
330
1F
100
AcDbEntity
  8
0
  6
Continuous
 62
     7
370
    15
100
AcDbLine
 10
225.4417822154
 20
47.4987698
 30
0.0
 11
230.4240152629
 21
52.1006507081
 31
0.0
  0
ARC
  5
1FC
330
1F
100
AcDbEntity
  8
0
  6
Continuous
 62
     7
370
    15
100
AcDbCircle
 10
231.4417803796
 20
50.9987634819
 30
0.0
 40
1.499999999999993
100
AcDbArc
 50
43.6028189726
 51
132.7273953127
  0
ARC
  5
1FD
330
1F
100
AcDbEntity
  8
0
  6
Continuous
 62
     7
370
    15
100
AcDbCircle
 10
220.9417803795
 20
40.998763482
 30
0.0
 40
16.00000000000015
100
AcDbArc
 50
316.3971810272
 51
43.6028189726
  0
ARC
  5
1FE
330
1F
100
AcDbEntity
  8
0
  6
Continuous
 62
     7
370
    15
100
AcDbCircle
 10
231.4417803795
 20
30.9987634819
 30
0.0
 40
1.499999999999745
100
AcDbArc
 50
227.2726046868
 51
316.3971810272
  0
LINE
  5
1FF
330
1F
100
AcDbEntity
  8
0
  6
Continuous
 62
     7
370
    15
100
AcDbLine
 10
225.2407655509
 20
47.4987698
 30
0.0
 11
225.4417822154
 21
47.4987698
 31
0.0
  0
LINE
  5
200
330
1F
100
AcDbEntity
  8
0
  6
Continuous
 62
     7
370
    15
100
AcDbLine
 10
225.4417822154
 20
34.498758356
 30
0.0
 11
225.2407655509
 21
34.498758356
 31
0.0
  0
LINE
  5
201
330
1F
100
AcDbEntity
  8
0
  6
Continuous
 62
     7
370
    15
100
AcDbLine
 10
225.4417822154
 20
517.498768608
 30
0.0
 11
230.4240152629
 21
522.100649516
 31
0.0
  0
ARC
  5
202
330
1F
100
AcDbEntity
  8
0
  6
Continuous
 62
     7
370
    15
100
AcDbCircle
 10
231.4417803796
 20
520.9987634819
 30
0.0
 40
1.500000000000048
100
AcDbArc
 50
43.6028189726
 51
132.7273953127
  0
ARC
  5
203
330
1F
100
AcDbEntity
  8
0
  6
Continuous
 62
     7
370
    15
100
AcDbCircle
 10
220.9417803795
 20
510.998763482
 30
0.0
 40
16.00000000000017
100
AcDbArc
 50
316.3971810272
 51
43.6028189726
  0
LINE
  5
204
330
1F
100
AcDbEntity
  8
0
  6
Continuous
 62
     7
370
    15
100
AcDbLine
 10
230.4240152629
 20
499.8968762558
 30
0.0
 11
225.4417822154
 21
504.4987571639
 31
0.0
  0
ARC
  5
205
330
1F
100
AcDbEntity
  8
0
  6
Continuous
 62
     7
370
    15
100
AcDbCircle
 10
231.4417803795
 20
500.9987634819
 30
0.0
 40
1.499999999999844
100
AcDbArc
 50
227.2726046868
 51
316.3971810272
  0
LINE
  5
206
330
1F
100
AcDbEntity
  8
0
  6
Continuous
 62
     7
370
    15
100
AcDbLine
 10
225.2407655509
 20
517.498768608
 30
0.0
 11
225.4417822154
 21
517.498768608
 31
0.0
  0
LINE
  5
207
330
1F
100
AcDbEntity
  8
0
  6
Continuous
 62
     7
370
    15
100
AcDbLine
 10
225.4417822154
 20
504.4987571639
 30
0.0
 11
225.2407655509
 21
504.4987571639
 31
0.0
  0
LINE
  5
208
330
1F
100
AcDbEntity
  8
0
  6
Continuous
 62
     7
370
    15
100
AcDbLine
 10
228.4417733939
 20
-24.001248439
 30
0.0
 11
233.4417835267
 21
-24.001248439
 31
0.0
  0
LINE
  5
209
330
1F
100
AcDbEntity
  8
0
  6
Continuous
 62
     7
370
    15
100
AcDbLine
 10
228.4417733939
 20
-9.0012329418
 30
0.0
 11
233.4417835267
 21
-9.0012329418
 31
0.0
  0
LINE
  5
20A
330
1F
100
AcDbEntity
  8
0
  6
Continuous
 62
     7
370
    15
100
AcDbLine
 10
233.4417835267
 20
-9.0012329418
 30
0.0
 11
233.4417835267
 21
-24.001248439
 31
0.0
  0
LINE
  5
20B
330
1F
100
AcDbEntity
  8
0
  6
Continuous
 62
     7
370
    15
100
AcDbLine
 10
228.4417733939
 20
-9.0012329418
 30
0.0
 11
228.4417733939
 21
-24.001248439
 31
0.0
  0
LINE
  5
20C
330
1F
100
AcDbEntity
  8
0
  6
Continuous
 62
     7
370
    15
100
AcDbLine
 10
233.4417835267
 20
50.986252467
 30
0.0
 11
233.4417835267
 21
501.0112744969
 31
0.0
  0
LINE
  5
20D
330
1F
100
AcDbEntity
  8
0
  6
Continuous
 62
     7
370
    15
100
AcDbLine
 10
228.4417733939
 20
50.2697450322
 30
0.0
 11
228.4417733939
 21
501.7277819317
 31
0.0
  0
LINE
  5
20E
330
1F
100
AcDbEntity
  8
0
  6
Continuous
 62
     7
370
    15
100
AcDbLine
 10
233.4417835267
 20
31.011275689
 30
0.0
 11
233.4417835267
 21
-9.0012329418
 31
0.0
  0
LINE
  5
20F
330
1F
100
AcDbEntity
  8
0
  6
Continuous
 62
     7
370
    15
100
AcDbLine
 10
228.4417733939
 20
31.7277831238
 30
0.0
 11
228.4417733939
 21
-9.0012329418
 31
0.0
  0
LINE
  5
210
330
1F
100
AcDbEntity
  8
0
  6
Continuous
 62
     7
370
    15
100
AcDbLine
 10
233.4417835267
 20
-9.0012329418
 30
0.0
 11
248.4417841227
 21
-9.0012329418
 31
0.0
  0
ARC
  5
211
330
1F
100
AcDbEntity
  8
0
  6
Continuous
 62
     7
370
    15
100
AcDbCircle
 10
233.4417803795
 20
-9.001236518
 30
0.0
 40
15.00000000000001
100
AcDbArc
 50
270.0
 51
0.0
  0
LINE
  5
212
330
1F
100
AcDbEntity
  8
0
  6
Continuous
 62
     7
370
    15
100
AcDbLine
 10
233.4417835267
 20
520.9862512749
 30
0.0
 11
233.4417835267
 21
560.9987599057
 31
0.0
  0
LINE
  5
213
330
1F
100
AcDbEntity
  8
0
  6
Continuous
 62
     7
370
    15
100
AcDbLine
 10
233.4417835267
 20
560.9987599057
 30
0.0
 11
248.4417841227
 21
560.9987599057
 31
0.0
  0
LINE
  5
214
330
1F
100
AcDbEntity
  8
0
  6
Continuous
 62
     7
370
    15
100
AcDbLine
 10
248.4417841227
 20
560.9987599057
 30
0.0
 11
248.4417841227
 21
-9.0012329418
 31
0.0
  0
LINE
  5
215
330
1F
100
AcDbEntity
  8
0
  6
Continuous
 62
     7
370
    15
100
AcDbLine
 10
228.4417733939
 20
560.9987599057
 30
0.0
 11
233.4417835267
 21
560.9987599057
 31
0.0
  0
LINE
  5
216
330
1F
100
AcDbEntity
  8
0
  6
Continuous
 62
     7
370
    15
100
AcDbLine
 10
228.4417733939
 20
575.9987754029
 30
0.0
 11
233.4417835267
 21
575.9987754029
 31
0.0
  0
LINE
  5
217
330
1F
100
AcDbEntity
  8
0
  6
Continuous
 62
     7
370
    15
100
AcDbLine
 10
233.4417835267
 20
560.9987599057
 30
0.0
 11
233.4417835267
 21
575.9987754029
 31
0.0
  0
LINE
  5
218
330
1F
100
AcDbEntity
  8
0
  6
Continuous
 62
     7
370
    15
100
AcDbLine
 10
228.4417733939
 20
560.9987599057
 30
0.0
 11
228.4417733939
 21
575.9987754029
 31
0.0
  0
LINE
  5
219
330
1F
100
AcDbEntity
  8
0
  6
Continuous
 62
     7
370
    15
100
AcDbLine
 10
228.4417733939
 20
520.2697438401
 30
0.0
 11
228.4417733939
 21
560.9987599057
 31
0.0
  0
ARC
  5
21A
330
1F
100
AcDbEntity
  8
0
  6
Continuous
 62
     7
370
    15
100
AcDbCircle
 10
233.4417803795
 20
560.998763482
 30
0.0
 40
15.00000000000011
100
AcDbArc
 50
0.0
 51
90.0
  0
LINE
  5
21B
330
1F
100
AcDbEntity
  8
0
  6
Continuous
 62
     7
370
    15
100
AcDbLine
 10
211.6527095826
 20
36.2987590235
 30
0.0
 11
211.6527095826
 21
44.8987704915
 31
0.0
  0
LINE
  5
21C
330
1F
100
AcDbEntity
  8
0
  6
Continuous
 62
     7
370
    15
100
AcDbLine
 10
211.6527095826
 20
36.2987590235
 30
0.0
 11
206.1384156735
 21
36.2987590235
 31
0.0
  0
LINE
  5
21D
330
1F
100
AcDbEntity
  8
0
  6
Continuous
 62
     7
370
    15
100
AcDbLine
 10
206.1384156735
 20
36.2987590235
 30
0.0
 11
206.1384156735
 21
44.8987704915
 31
0.0
  0
LINE
  5
21E
330
1F
100
AcDbEntity
  8
0
  6
Continuous
 62
     7
370
    15
100
AcDbLine
 10
211.6527095826
 20
44.8987704915
 30
0.0
 11
206.1384156735
 21
44.8987704915
 31
0.0
  0
LINE
  5
21F
330
1F
100
AcDbEntity
  8
0
  6
Continuous
 62
     7
370
    15
100
AcDbLine
 10
205.0241515429
 20
48.1987667483
 30
0.0
 11
180.2120492251
 21
48.1987667483
 31
0.0
  0
LINE
  5
220
330
1F
100
AcDbEntity
  8
0
  6
Continuous
 62
     7
370
    15
100
AcDbLine
 10
205.0241515429
 20
44.8987704915
 30
0.0
 11
205.0241515429
 21
48.1987667483
 31
0.0
  0
LINE
  5
221
330
1F
100
AcDbEntity
  8
0
  6
Continuous
 62
     7
370
    15
100
AcDbLine
 10
205.0241515429
 20
33.7987614077
 30
0.0
 11
205.0241515429
 21
36.2987590235
 31
0.0
  0
LINE
  5
222
330
1F
100
AcDbEntity
  8
0
  6
Continuous
 62
     7
370
    15
100
AcDbLine
 10
180.2120492251
 20
33.7987614077
 30
0.0
 11
205.0241515429
 21
33.7987614077
 31
0.0
  0
LINE
  5
223
330
1F
100
AcDbEntity
  8
0
  6
Continuous
 62
     7
370
    15
100
AcDbLine
 10
180.2120492251
 20
33.7987614077
 30
0.0
 11
180.2120492251
 21
48.1987667483
 31
0.0
  0
LINE
  5
224
330
1F
100
AcDbEntity
  8
0
  6
Continuous
 62
     7
370
    15
100
AcDbLine
 10
205.0241515429
 20
36.2987590235
 30
0.0
 11
206.1384156735
 21
36.2987590235
 31
0.0
  0
LINE
  5
225
330
1F
100
AcDbEntity
  8
0
  6
Continuous
 62
     7
370
    15
100
AcDbLine
 10
205.0241515429
 20
44.8987704915
 30
0.0
 11
206.1384156735
 21
44.8987704915
 31
0.0
  0
LINE
  5
226
330
1F
100
AcDbEntity
  8
0
  6
Continuous
 62
     7
370
    15
100
AcDbLine
 10
205.1517799885
 20
33.0014151734
 30
0.0
 11
207.0440188439
 21
33.0014151734
 31
0.0
  0
LINE
  5
227
330
1F
100
AcDbEntity
  8
0
  6
Continuous
 62
     7
370
    15
100
AcDbLine
 10
207.0440188439
 20
33.0014151734
 30
0.0
 11
207.7167764695
 21
32.9987627667
 31
0.0
  0
LINE
  5
228
330
1F
100
AcDbEntity
  8
0
  6
Continuous
 62
     7
370
    15
100
AcDbLine
 10
207.7167764695
 20
32.9987627667
 30
0.0
 11
180.3509727509
 21
32.9987627667
 31
0.0
  0
ARC
  5
229
330
1F
100
AcDbEntity
  8
0
  6
Continuous
 62
     7
370
    15
100
AcDbCircle
 10
181.467972022
 20
33.6047966248
 30
0.0
 40
1.270812499494435
100
AcDbArc
 50
171.2205995842
 51
208.4822784261
  0
ARC
  5
22A
330
1F
100
AcDbEntity
  8
0
  6
Continuous
 62
     7
370
    15
100
AcDbCircle
 10
206.4984665315
 20
33.6258622549
 30
0.0
 40
1.484418674970809
100
AcDbArc
 50
173.3112340828
 51
204.8767532576
  0
LINE
  5
22B
330
1F
100
AcDbEntity
  8
0
  6
Continuous
 62
     7
370
    15
100
AcDbLine
 10
207.0440188439
 20
48.9961129826
 30
0.0
 11
205.1517799885
 21
48.9961129826
 31
0.0
  0
ARC
  5
22C
330
1F
100
AcDbEntity
  8
0
  6
Continuous
 62
     7
370
    15
100
AcDbCircle
 10
206.4984665315
 20
48.3716659011
 30
0.0
 40
1.484418674970809
100
AcDbArc
 50
155.1232467424
 51
186.6887659172
  0
ARC
  5
22D
330
1F
100
AcDbEntity
  8
0
  6
Continuous
 62
     7
370
    15
100
AcDbCircle
 10
181.467972022
 20
48.3927315312
 30
0.0
 40
1.270812499494435
100
AcDbArc
 50
151.5177215739
 51
188.7794004158
  0
LINE
  5
22E
330
1F
100
AcDbEntity
  8
0
  6
Continuous
 62
     7
370
    15
100
AcDbLine
 10
180.3509727509
 20
48.9987653893
 30
0.0
 11
207.7167764695
 21
48.9987653893
 31
0.0
  0
LINE
  5
22F
330
1F
100
AcDbEntity
  8
0
  6
Continuous
 62
     7
370
    15
100
AcDbLine
 10
207.7167764695
 20
48.9987653893
 30
0.0
 11
207.0440188439
 21
48.9961129826
 31
0.0
  0
LINE
  5
230
330
1F
100
AcDbEntity
  8
0
  6
Continuous
 62
     7
370
    15
100
AcDbLine
 10
205.1517799885
 20
33.0014151734
 30
0.0
 11
205.1517799885
 21
33.7987614077
 31
0.0
  0
LINE
  5
231
330
1F
100
AcDbEntity
  8
0
  6
Continuous
 62
     7
370
    15
100
AcDbLine
 10
205.1630750687
 20
36.2987590235
 30
0.0
 11
205.1630750687
 21
33.7987614077
 31
0.0
  0
LINE
  5
232
330
1F
100
AcDbEntity
  8
0
  6
Continuous
 62
     7
370
    15
100
AcDbLine
 10
205.1517799885
 20
48.1987667483
 30
0.0
 11
205.1517799885
 21
48.9961129826
 31
0.0
  0
LINE
  5
233
330
1F
100
AcDbEntity
  8
0
  6
Continuous
 62
     7
370
    15
100
AcDbLine
 10
205.1630750687
 20
48.1987667483
 30
0.0
 11
205.1630750687
 21
44.8987704915
 31
0.0
  0
LINE
  5
234
330
1F
100
AcDbEntity
  8
0
  6
Continuous
 62
     7
370
    15
100
AcDbLine
 10
207.0440188439
 20
48.1987667483
 30
0.0
 11
207.0440188439
 21
48.9961129826
 31
0.0
  0
LINE
  5
235
330
1F
100
AcDbEntity
  8
0
  6
Continuous
 62
     7
370
    15
100
AcDbLine
 10
211.1517772467
 20
48.9987653893
 30
0.0
 11
207.7167764695
 21
48.9987653893
 31
0.0
  0
LINE
  5
236
330
1F
100
AcDbEntity
  8
0
  6
Continuous
 62
     7
370
    15
100
AcDbLine
 10
211.1517772467
 20
48.1987667483
 30
0.0
 11
207.0440188439
 21
48.1987667483
 31
0.0
  0
LINE
  5
237
330
1F
100
AcDbEntity
  8
0
  6
Continuous
 62
     7
370
    15
100
AcDbLine
 10
211.1517772467
 20
32.9987627667
 30
0.0
 11
207.7167764695
 21
32.9987627667
 31
0.0
  0
LINE
  5
238
330
1F
100
AcDbEntity
  8
0
  6
Continuous
 62
     7
370
    15
100
AcDbLine
 10
207.0440188439
 20
33.0014151734
 30
0.0
 11
207.0440188439
 21
33.7987614077
 31
0.0
  0
LINE
  5
239
330
1F
100
AcDbEntity
  8
0
  6
Continuous
 62
     7
370
    15
100
AcDbLine
 10
211.1517772467
 20
33.7987614077
 30
0.0
 11
207.0440188439
 21
33.7987614077
 31
0.0
  0
LINE
  5
23A
330
1F
100
AcDbEntity
  8
0
  6
Continuous
 62
     7
370
    15
100
AcDbLine
 10
205.1517799885
 20
33.7987614077
 30
0.0
 11
207.0440188439
 21
33.7987614077
 31
0.0
  0
LINE
  5
23B
330
1F
100
AcDbEntity
  8
0
  6
Continuous
 62
     7
370
    15
100
AcDbLine
 10
205.1517799885
 20
48.1987667483
 30
0.0
 11
207.0440188439
 21
48.1987667483
 31
0.0
  0
LINE
  5
23C
330
1F
100
AcDbEntity
  8
0
  6
Continuous
 62
     7
370
    15
100
AcDbLine
 10
206.2217876704
 20
49.2987704676
 30
0.0
 11
210.6217876465
 21
49.2987704676
 31
0.0
  0
LINE
  5
23D
330
1F
100
AcDbEntity
  8
0
  6
Continuous
 62
     7
370
    15
100
AcDbLine
 10
206.321774462
 20
32.5987708968
 30
0.0
 11
210.5217859538
 21
32.5987708968
 31
0.0
  0
LINE
  5
23E
330
1F
100
AcDbEntity
  8
0
  6
Continuous
 62
     7
370
    15
100
AcDbLine
 10
206.321774462
 20
32.1987641257
 30
0.0
 11
210.5217859538
 21
32.1987641257
 31
0.0
  0
ARC
  5
23F
330
1F
100
AcDbEntity
  8
0
  6
Continuous
 62
     7
370
    15
100
AcDbCircle
 10
188.6176936651
 20
40.998764078
 30
0.0
 40
16.90401408232907
100
AcDbArc
 50
154.7901718738
 51
205.2098281262
  0
SPLINE
  5
240
330
1F
100
AcDbEntity
  8
0
  6
Continuous
 62
     7
370
    15
100
AcDbSpline
210
0.0
220
0.0
230
1.0
 70
     8
 71
     3
 72
    12
 73
     8
 74
     0
 42
0.00000001
 43
0.00000001
 40
0.0
 40
0.0
 40
0.0
 40
0.0
 40
0.181862208170751
 40
0.3633456880071066
 40
0.5550783177625649
 40
0.7712597734705837
 40
1.0
 40
1.0
 40
1.0
 40
1.0
 10
173.4561011583945
 20
32.99876276669739
 30
0.0
 10
173.4799583643439
 20
33.00608760684193
 30
0.0
 10
173.5276230935738
 20
33.02072203313997
 30
0.0
 10
173.5423672326283
 20
33.13270300120402
 30
0.0
 10
173.5151345543227
 20
33.30208264147222
 30
0.0
 10
173.4434557582719
 20
33.53052507853019
 30
0.0
 10
173.3643754786885
 20
33.70768242892127
 30
0.0
 10
173.3237192423483
 20
33.79876140771149
 30
0.0
  0
LINE
  5
241
330
1F
100
AcDbEntity
  8
0
  6
Continuous
 62
     7
370
    15
100
AcDbLine
 10
173.0717406066
 20
33.7532681626
 30
0.0
 11
173.4261796267
 21
32.9987627667
 31
0.0
  0
ARC
  5
242
330
1F
100
AcDbEntity
  8
0
  6
Continuous
 62
     7
370
    15
100
AcDbCircle
 10
188.3422914616
 20
40.998764078
 30
0.0
 40
16.90227601465688
100
AcDbArc
 50
154.6168257198
 51
205.3831742802
  0
LINE
  5
243
330
1F
100
AcDbEntity
  8
0
  6
Continuous
 62
     7
370
    15
100
AcDbLine
 10
173.4261796267
 20
48.9987653893
 30
0.0
 11
173.0717406066
 21
48.2442599934
 31
0.0
  0
SPLINE
  5
244
330
1F
100
AcDbEntity
  8
0
  6
Continuous
 62
     7
370
    15
100
AcDbSpline
210
0.0
220
0.0
230
1.0
 70
     8
 71
     3
 72
    12
 73
     8
 74
     0
 42
0.00000001
 43
0.00000001
 40
0.0
 40
0.0
 40
0.0
 40
0.0
 40
0.2510206470293043
 40
0.502394724582161
 40
0.7402776497890325
 40
0.9473067335866278
 40
1.0
 40
1.0
 40
1.0
 40
1.0
 10
173.3237192423483
 20
48.19876674828766
 30
0.0
 10
173.3680372446141
 20
48.29864450133062
 30
0.0
 10
173.4567356477369
 20
48.49854063268749
 30
0.0
 10
173.5317250615905
 20
48.75728693452339
 30
0.0
 10
173.5432323183743
 20
48.9345328231974
 30
0.0
 10
173.5015826556604
 20
48.99494680391261
 30
0.0
 10
173.4637722494821
 20
48.99812133142969
 30
0.0
 10
173.4561011583945
 20
48.99876538930176
 30
0.0
  0
LINE
  5
245
330
1F
100
AcDbEntity
  8
0
  6
Continuous
 62
     7
370
    15
100
AcDbLine
 10
173.4561011584
 20
48.9987653893
 30
0.0
 11
173.4261796267
 21
48.9987653893
 31
0.0
  0
LINE
  5
246
330
1F
100
AcDbEntity
  8
0
  6
Continuous
 62
     7
370
    15
100
AcDbLine
 10
173.4561011584
 20
32.9987627667
 30
0.0
 11
173.4261796267
 21
32.9987627667
 31
0.0
  0
LINE
  5
247
330
1F
100
AcDbEntity
  8
0
  6
Continuous
 62
     7
370
    15
100
AcDbLine
 10
175.3132030757
 20
48.1987667483
 30
0.0
 11
173.3237192423
 21
48.1987667483
 31
0.0
  0
LINE
  5
248
330
1F
100
AcDbEntity
  8
0
  6
Continuous
 62
     7
370
    15
100
AcDbLine
 10
175.3132030757
 20
33.7987614077
 30
0.0
 11
175.3132030757
 21
48.1987667483
 31
0.0
  0
LINE
  5
249
330
1F
100
AcDbEntity
  8
0
  6
Continuous
 62
     7
370
    15
100
AcDbLine
 10
173.3237192423
 20
33.7987614077
 30
0.0
 11
175.3132030757
 21
33.7987614077
 31
0.0
  0
LWPOLYLINE
  5
24A
330
1F
100
AcDbEntity
  8
0
  6
Continuous
 62
     7
370
    15
100
AcDbPolyline
 90
        9
 70
   128
 43
0.0
 10
175.3132030757
 20
48.1987667483
 10
175.3079429658
 20
48.3548415106
 10
175.2923712523
 20
48.504911105
 10
175.2670839818
 20
48.6432236832
 10
175.2330646308
 20
48.7644446295
 10
175.1915946992
 20
48.8639396828
 10
175.1442835124
 20
48.9378643435
 10
175.0929639132
 20
48.9833873909
 10
175.0395879538
 20
48.9987653893
  0
LINE
  5
24B
330
1F
100
AcDbEntity
  8
0
  6
Continuous
 62
     7
370
    15
100
AcDbLine
 10
173.4561011584
 20
48.9987653893
 30
0.0
 11
175.0395879538
 21
48.9987653893
 31
0.0
  0
LWPOLYLINE
  5
24C
330
1F
100
AcDbEntity
  8
0
  6
Continuous
 62
     7
370
    15
100
AcDbPolyline
 90
        9
 70
   128
 43
0.0
 10
175.3132030757
 20
33.7987614077
 10
175.3079429658
 20
33.6426866454
 10
175.2923712523
 20
33.492617051
 10
175.2670839818
 20
33.3543044728
 10
175.2330646308
 20
33.2330835265
 10
175.1915946992
 20
33.1335884732
 10
175.1442835124
 20
33.0596638125
 10
175.0929639132
 20
33.014140765
 10
175.0395879538
 20
32.9987627667
  0
LINE
  5
24D
330
1F
100
AcDbEntity
  8
0
  6
Continuous
 62
     7
370
    15
100
AcDbLine
 10
175.0395879538
 20
32.9987627667
 30
0.0
 11
173.4561011584
 21
32.9987627667
 31
0.0
  0
LINE
  5
24E
330
1F
100
AcDbEntity
  8
0
  6
Continuous
 62
     7
370
    15
100
AcDbLine
 10
180.2120492251
 20
48.1987667483
 30
0.0
 11
175.3132030757
 21
48.1987667483
 31
0.0
  0
LINE
  5
24F
330
1F
100
AcDbEntity
  8
0
  6
Continuous
 62
     7
370
    15
100
AcDbLine
 10
175.3132030757
 20
33.7987614077
 30
0.0
 11
180.2120492251
 21
33.7987614077
 31
0.0
  0
LINE
  5
250
330
1F
100
AcDbEntity
  8
0
  6
Continuous
 62
     7
370
    15
100
AcDbLine
 10
180.3509727509
 20
32.9987627667
 30
0.0
 11
175.0395879538
 21
32.9987627667
 31
0.0
  0
LINE
  5
251
330
1F
100
AcDbEntity
  8
0
  6
Continuous
 62
     7
370
    15
100
AcDbLine
 10
175.0395879538
 20
48.9987653893
 30
0.0
 11
180.3509727509
 21
48.9987653893
 31
0.0
  0
SPLINE
  5
252
330
1F
100
AcDbEntity
  8
0
  6
Continuous
 62
     7
370
    15
100
AcDbSpline
210
0.0
220
0.0
230
1.0
 70
     8
 71
     3
 72
    16
 73
    12
 74
     0
 42
0.00000001
 43
0.00000001
 40
0.0
 40
0.0
 40
0.0
 40
0.0
 40
0.1207077089781526
 40
0.2414108344831375
 40
0.362117918562724
 40
0.4828248333209623
 40
0.6035319812480934
 40
0.7242398020762145
 40
0.8449440598118136
 40
0.9656483401997413
 40
1.0
 40
1.0
 40
1.0
 40
1.0
 10
206.594078281655
 20
28.0463916462445
 30
0.0
 10
206.6134792441565
 20
28.04906705427288
 30
0.0
 10
206.6522804324728
 20
28.05441776873982
 30
0.0
 10
206.6572039970129
 20
28.34535109179298
 30
0.0
 10
206.6199892203683
 20
28.79868735821004
 30
0.0
 10
206.5430905643336
 20
29.36622584458523
 30
0.0
 10
206.4392555091789
 20
29.95454829258681
 30
0.0
 10
206.3231695906112
 20
30.4812516834368
 30
0.0
 10
206.216154719828
 20
30.84451710882707
 30
0.0
 10
206.1435810434177
 20
31.01500461683704
 30
0.0
 10
206.124031002565
 20
30.98184575796545
 30
0.0
 10
206.1196998150488
 20
30.97449962315796
 30
0.0
  0
SPLINE
  5
253
330
1F
100
AcDbEntity
  8
0
  6
Continuous
 62
     7
370
    15
100
AcDbSpline
210
0.0
220
0.0
230
1.0
 70
     8
 71
     3
 72
    16
 73
    12
 74
     0
 42
0.00000001
 43
0.00000001
 40
0.0
 40
0.0
 40
0.0
 40
0.0
 40
0.1205835500006272
 40
0.2411639420302155
 40
0.3617468677750422
 40
0.4823271212948927
 40
0.6029095790313884
 40
0.7234904642075044
 40
0.84407714114446
 40
0.9646563800287297
 40
1.0
 40
1.0
 40
1.0
 40
1.0
 10
206.7646667750021
 20
53.9224219721341
 30
0.0
 10
206.784067893644
 20
53.91974775046543
 30
0.0
 10
206.8228696228305
 20
53.9143993771635
 30
0.0
 10
206.8277905507786
 20
53.62344544978509
 30
0.0
 10
206.7905854958853
 20
53.17011385794068
 30
0.0
 10
206.713652359811
 20
52.60258846364918
 30
0.0
 10
206.6098513342839
 20
52.01426050089228
 30
0.0
 10
206.4937566642283
 20
51.4875879404463
 30
0.0
 10
206.3867243016024
 20
51.12412754735887
 30
0.0
 10
206.3139618615691
 20
50.95358573640696
 30
0.0
 10
206.2943227475991
 20
50.98716450552057
 30
0.0
 10
206.2898710758826
 20
50.99477593121765
 30
0.0
  0
SPLINE
  5
254
330
1F
100
AcDbEntity
  8
0
  6
Continuous
 62
     7
370
    15
100
AcDbSpline
210
0.0
220
0.0
230
1.0
 70
     8
 71
     3
 72
    16
 73
    12
 74
     0
 42
0.00000001
 43
0.00000001
 40
0.0
 40
0.0
 40
0.0
 40
0.0
 40
0.1205117543681748
 40
0.2410321688604558
 40
0.3615496760897255
 40
0.4820674063171059
 40
0.602584445791948
 40
0.7231000162521881
 40
0.8436166271100433
 40
0.9641371437048453
 40
1.0
 40
1.0
 40
1.0
 40
1.0
 10
222.1350506336829
 20
30.66281203446625
 30
0.0
 10
222.1544516963746
 20
30.6654832122123
 30
0.0
 10
222.1932552159425
 20
30.67082575965852
 30
0.0
 10
222.1981746185276
 20
30.9617644489158
 30
0.0
 10
222.1609683469661
 20
31.41510998756342
 30
0.0
 10
222.0840380179441
 20
31.98263812305363
 30
0.0
 10
221.980233420504
 20
32.57098567631297
 30
0.0
 10
221.8641479501124
 20
33.09759428689835
 30
0.0
 10
221.7570870894883
 20
33.46118263512995
 30
0.0
 10
221.6842431894442
 20
33.63177896916339
 30
0.0
 10
221.6645480379098
 20
33.59796027860587
 30
0.0
 10
221.6600314171454
 20
33.5902047556424
 30
0.0
  0
SPLINE
  5
255
330
1F
100
AcDbEntity
  8
0
  6
Continuous
 62
     7
370
    15
100
AcDbSpline
210
0.0
220
0.0
230
1.0
 70
     8
 71
     3
 72
    16
 73
    12
 74
     0
 42
0.00000001
 43
0.00000001
 40
0.0
 40
0.0
 40
0.0
 40
0.0
 40
0.1205121047917788
 40
0.2410325804529558
 40
0.3615501488496461
 40
0.4820650464697371
 40
0.6025821471117625
 40
0.7231010411094512
 40
0.8436171544413902
 40
0.9641310379758448
 40
1.0
 40
1.0
 40
1.0
 40
1.0
 10
222.30563912703
 20
51.30600158391236
 30
0.0
 10
222.3250402157069
 20
51.30332416741465
 30
0.0
 10
222.363843740676
 20
51.2979691484437
 30
0.0
 10
222.3687628095338
 20
51.00703543956545
 30
0.0
 10
222.331558312091
 20
50.55369171494836
 30
0.0
 10
222.2546235081582
 20
49.98617153711449
 30
0.0
 10
222.1508270708625
 20
49.3978225445593
 30
0.0
 10
222.0347122700302
 20
48.871210524184
 30
0.0
 10
221.9276867355635
 20
48.50761654987271
 30
0.0
 10
221.8548262006844
 20
48.33703750927532
 30
0.0
 10
221.8351361463322
 20
48.37085277806097
 30
0.0
 10
221.8306199104925
 20
48.37860886273621
 30
0.0
  0
SPLINE
  5
256
330
1F
100
AcDbEntity
  8
0
  6
Continuous
 62
     7
370
    15
100
AcDbSpline
210
0.0
220
0.0
230
1.0
 70
    24
 71
     3
 72
    16
 73
    12
 74
     0
 42
0.00000001
 43
0.00000001
 40
0.0
 40
0.0
 40
0.0
 40
0.0
 40
0.0611102845076972
 40
0.1864723954319963
 40
0.3118322208390296
 40
0.4371944708864321
 40
0.5625589540335474
 40
0.6879198579853077
 40
0.813281951356681
 40
0.9386471442034847
 40
1.0
 40
1.0
 40
1.0
 40
1.0
 10
225.2119616062781
 20
34.13253251729245
 30
0.0
 10
225.217735364154
 20
34.13253251729243
 30
0.0
 10
225.2353534536528
 20
34.13253251729253
 30
0.0
 10
225.0169220167879
 20
34.13253251729248
 30
0.0
 10
224.6041754548559
 20
34.1325325172924
 30
0.0
 10
224.0477147629698
 20
34.13253251729253
 30
0.0
 10
223.4486103553168
 20
34.13253251729253
 30
0.0
 10
222.8899063708241
 20
34.13253251729243
 30
0.0
 10
222.4729472300644
 20
34.13253251729253
 30
0.0
 10
222.2499555123617
 20
34.13253251729251
 30
0.0
 10
222.2647700713331
 20
34.13253251729251
 30
0.0
 10
222.2696379215857
 20
34.13253251729248
 30
0.0
  0
SPLINE
  5
257
330
1F
100
AcDbEntity
  8
0
  6
Continuous
 62
     7
370
    15
100
AcDbSpline
210
0.0
220
0.0
230
1.0
 70
    24
 71
     3
 72
    16
 73
    12
 74
     0
 42
0.00000001
 43
0.00000001
 40
0.0
 40
0.0
 40
0.0
 40
0.0
 40
0.0610129142997457
 40
0.1861752792253431
 40
0.3113353622753087
 40
0.4364978661023373
 40
0.5616625994709642
 40
0.6868237593471552
 40
0.8119861067477948
 40
0.9371515486853087
 40
1.0
 40
1.0
 40
1.0
 40
1.0
 10
225.2119616062781
 20
47.69115869221924
 30
0.0
 10
225.217735357953
 20
47.69115869221918
 30
0.0
 10
225.2353534285302
 20
47.69115869221921
 30
0.0
 10
225.0169222496822
 20
47.69115869221932
 30
0.0
 10
224.6041746015742
 20
47.69115869221915
 30
0.0
 10
224.0477179432997
 20
47.69115869221927
 30
0.0
 10
223.44859848722
 20
47.69115869221927
 30
0.0
 10
222.8899506616006
 20
47.69115869221927
 30
0.0
 10
222.4727819310949
 20
47.69115869221924
 30
0.0
 10
222.2493022953356
 20
47.69115869221929
 30
0.0
 10
222.264520908631
 20
47.69115869221924
 30
0.0
 10
222.2696081192633
 20
47.69115869221924
 30
0.0
  0
SPLINE
  5
258
330
1F
100
AcDbEntity
  8
0
  6
Continuous
 62
     7
370
    15
100
AcDbSpline
210
0.0
220
0.0
230
1.0
 70
     8
 71
     3
 72
    19
 73
    15
 74
     0
 42
0.00000001
 43
0.00000001
 40
0.0
 40
0.0
 40
0.0
 40
0.0
 40
0.003953715205903
 40
0.1157568464404963
 40
0.2280470985832616
 40
0.3355165832363207
 40
0.4377087770690565
 40
0.5348752405946415
 40
0.6282976297217461
 40
0.7302970810952432
 40
0.8413355002600912
 40
0.9641308253357947
 40
0.9937687989224226
 40
1.0
 40
1.0
 40
1.0
 40
1.0
 10
211.5400568039557
 20
46.59876946625946
 30
0.0
 10
211.5404490620281
 20
46.59876242862119
 30
0.0
 10
211.5519335911582
 20
46.5985563806964
 30
0.0
 10
211.5752637937521
 20
46.58347638372135
 30
0.0
 10
211.6187185182503
 20
46.51656792792833
 30
0.0
 10
211.6567080159498
 20
46.41186060346519
 30
0.0
 10
211.6802044418659
 20
46.28679273342303
 30
0.0
 10
211.6915503212403
 20
46.15836278497576
 30
0.0
 10
211.6921253311186
 20
46.03718233838278
 30
0.0
 10
211.6763659979237
 20
45.92795419213411
 30
0.0
 10
211.6359633123091
 20
45.83853224047099
 30
0.0
 10
211.5841550770494
 20
45.80349051272039
 30
0.0
 10
211.5493927830987
 20
45.79887363652229
 30
0.0
 10
211.5414386054781
 20
45.79878604215801
 30
0.0
 10
211.5400568039557
 20
45.79877082524536
 30
0.0
  0
SPLINE
  5
259
330
1F
100
AcDbEntity
  8
0
  6
Continuous
 62
     7
370
    15
100
AcDbSpline
210
0.0
220
0.0
230
1.0
 70
     8
 71
     3
 72
    30
 73
    26
 74
     0
 42
0.00000001
 43
0.00000001
 40
0.0
 40
0.0
 40
0.0
 40
0.0
 40
0.1246998075928956
 40
0.2494036567885047
 40
0.3741257293653614
 40
0.4367781813851029
 40
0.4681485396509784
 40
0.4838360761992427
 40
0.491688261408273
 40
0.4956075513865121
 40
0.4975654867159801
 40
0.4985475625665967
 40
0.4990357051958802
 40
0.4992811519789171
 40
0.4994142641864529
 40
0.4994783795159183
 40
0.4995021913514931
 40
0.4995140972692805
 40
0.4995407197107877
 40
0.5609182155884728
 40
0.6646273605363806
 40
0.7325806551423476
 40
0.8111539911766412
 40
0.9003089100780034
 40
1.0
 40
1.0
 40
1.0
 40
1.0
 10
211.6117611916205
 20
46.65865723309754
 30
0.0
 10
211.6175256291138
 20
46.65686586072842
 30
0.0
 10
211.6290546909298
 20
46.65328305793068
 30
0.0
 10
211.7189061613729
 20
46.63142504232312
 30
0.0
 10
211.826369993552
 20
46.60576691346019
 30
0.0
 10
211.91192208259
 20
46.58534327142488
 30
0.0
 10
211.9560244511431
 20
46.57482670926388
 30
0.0
 10
211.9782466877573
 20
46.56947149591936
 30
0.0
 10
211.9893896862075
 20
46.5668496757988
 30
0.0
 10
211.9949484834607
 20
46.56547243070125
 30
0.0
 10
211.9977430492647
 20
46.56485200279339
 30
0.0
 10
211.9991207229101
 20
46.56446693707112
 30
0.0
 10
211.99982660405
 20
46.56434152996273
 30
0.0
 10
212.0001700722866
 20
46.56422291936174
 30
0.0
 10
212.0003593345085
 20
46.56422083230049
 30
0.0
 10
212.0004406554341
 20
46.56416631461394
 30
0.0
 10
212.0004827188032
 20
46.56416858849857
 30
0.0
 10
212.0005091754072
 20
46.56417044152428
 30
0.0
 10
212.0224836882661
 20
46.54873340123816
 30
0.0
 10
212.0951999442424
 20
46.55108556606049
 30
0.0
 10
212.1832349117699
 20
46.52252196506488
 30
0.0
 10
212.2673857504731
 20
46.50714506491166
 30
0.0
 10
212.3307565896552
 20
46.49377852098666
 30
0.0
 10
212.381331176122
 20
46.48430096511547
 30
0.0
 10
212.388548515008
 20
46.48381187612621
 30
0.0
 10
212.3923585207602
 20
46.48355368790863
 30
0.0
  0
ELLIPSE
  5
25A
330
1F
100
AcDbEntity
  8
0
  6
Continuous
 62
     7
370
    15
100
AcDbEllipse
 10
212.2688887733
 20
47.7807386607
 30
0.0
 11
0.3906095144045594
 21
-0.08616383961160068
 31
0.0
210
0.0
220
0.0
230
1.0
 40
0.0142285888
 41
0.0
 42
6.283185307179586
  0
LINE
  5
25B
330
1F
100
AcDbEntity
  8
0
  6
Continuous
 62
     7
370
    15
100
AcDbLine
 10
211.6527095826
 20
506.2987578314
 30
0.0
 11
211.6527095826
 21
514.8987692994
 31
0.0
  0
LINE
  5
25C
330
1F
100
AcDbEntity
  8
0
  6
Continuous
 62
     7
370
    15
100
AcDbLine
 10
206.1384156735
 20
506.2987578314
 30
0.0
 11
206.1384156735
 21
514.8987692994
 31
0.0
  0
LINE
  5
25D
330
1F
100
AcDbEntity
  8
0
  6
Continuous
 62
     7
370
    15
100
AcDbLine
 10
211.6527095826
 20
514.8987692994
 30
0.0
 11
206.1384156735
 21
514.8987692994
 31
0.0
  0
LINE
  5
25E
330
1F
100
AcDbEntity
  8
0
  6
Continuous
 62
     7
370
    15
100
AcDbLine
 10
211.6527095826
 20
506.2987578314
 30
0.0
 11
206.1384156735
 21
506.2987578314
 31
0.0
  0
LINE
  5
25F
330
1F
100
AcDbEntity
  8
0
  6
Continuous
 62
     7
370
    15
100
AcDbLine
 10
205.0241515429
 20
518.1987655562
 30
0.0
 11
180.2120492251
 21
518.1987655562
 31
0.0
  0
LINE
  5
260
330
1F
100
AcDbEntity
  8
0
  6
Continuous
 62
     7
370
    15
100
AcDbLine
 10
205.0241515429
 20
514.8987692994
 30
0.0
 11
205.0241515429
 21
518.1987655562
 31
0.0
  0
LINE
  5
261
330
1F
100
AcDbEntity
  8
0
  6
Continuous
 62
     7
370
    15
100
AcDbLine
 10
205.0241515429
 20
503.7987602156
 30
0.0
 11
205.0241515429
 21
506.2987578314
 31
0.0
  0
LINE
  5
262
330
1F
100
AcDbEntity
  8
0
  6
Continuous
 62
     7
370
    15
100
AcDbLine
 10
180.2120492251
 20
503.7987602156
 30
0.0
 11
205.0241515429
 21
503.7987602156
 31
0.0
  0
LINE
  5
263
330
1F
100
AcDbEntity
  8
0
  6
Continuous
 62
     7
370
    15
100
AcDbLine
 10
180.2120492251
 20
503.7987602156
 30
0.0
 11
180.2120492251
 21
518.1987655562
 31
0.0
  0
LINE
  5
264
330
1F
100
AcDbEntity
  8
0
  6
Continuous
 62
     7
370
    15
100
AcDbLine
 10
205.0241515429
 20
514.8987692994
 30
0.0
 11
206.1384156735
 21
514.8987692994
 31
0.0
  0
LINE
  5
265
330
1F
100
AcDbEntity
  8
0
  6
Continuous
 62
     7
370
    15
100
AcDbLine
 10
205.0241515429
 20
506.2987578314
 30
0.0
 11
206.1384156735
 21
506.2987578314
 31
0.0
  0
LINE
  5
266
330
1F
100
AcDbEntity
  8
0
  6
Continuous
 62
     7
370
    15
100
AcDbLine
 10
207.0440188439
 20
518.9961117905
 30
0.0
 11
205.1517799885
 21
518.9961117905
 31
0.0
  0
ARC
  5
267
330
1F
100
AcDbEntity
  8
0
  6
Continuous
 62
     7
370
    15
100
AcDbCircle
 10
206.4984665315
 20
518.371664709
 30
0.0
 40
1.48441867497086
100
AcDbArc
 50
155.1232467424
 51
186.6887659172
  0
ARC
  5
268
330
1F
100
AcDbEntity
  8
0
  6
Continuous
 62
     7
370
    15
100
AcDbCircle
 10
181.467972022
 20
518.3927303391
 30
0.0
 40
1.270812499494472
100
AcDbArc
 50
151.5177215739
 51
188.7794004158
  0
LINE
  5
269
330
1F
100
AcDbEntity
  8
0
  6
Continuous
 62
     7
370
    15
100
AcDbLine
 10
180.3509727509
 20
518.9987641972
 30
0.0
 11
207.7167764695
 21
518.9987641972
 31
0.0
  0
LINE
  5
26A
330
1F
100
AcDbEntity
  8
0
  6
Continuous
 62
     7
370
    15
100
AcDbLine
 10
207.7167764695
 20
518.9987641972
 30
0.0
 11
207.0440188439
 21
518.9961117905
 31
0.0
  0
LINE
  5
26B
330
1F
100
AcDbEntity
  8
0
  6
Continuous
 62
     7
370
    15
100
AcDbLine
 10
205.1517799885
 20
503.0014139813
 30
0.0
 11
207.0440188439
 21
503.0014139813
 31
0.0
  0
LINE
  5
26C
330
1F
100
AcDbEntity
  8
0
  6
Continuous
 62
     7
370
    15
100
AcDbLine
 10
207.0440188439
 20
503.0014139813
 30
0.0
 11
207.7167764695
 21
502.9987615746
 31
0.0
  0
LINE
  5
26D
330
1F
100
AcDbEntity
  8
0
  6
Continuous
 62
     7
370
    15
100
AcDbLine
 10
207.7167764695
 20
502.9987615746
 30
0.0
 11
180.3509727509
 21
502.9987615746
 31
0.0
  0
ARC
  5
26E
330
1F
100
AcDbEntity
  8
0
  6
Continuous
 62
     7
370
    15
100
AcDbCircle
 10
181.467972022
 20
503.6047954327
 30
0.0
 40
1.270812499494439
100
AcDbArc
 50
171.2205995842
 51
208.4822784261
  0
ARC
  5
26F
330
1F
100
AcDbEntity
  8
0
  6
Continuous
 62
     7
370
    15
100
AcDbCircle
 10
206.4984665315
 20
503.6258610628
 30
0.0
 40
1.484418674970836
100
AcDbArc
 50
173.3112340828
 51
204.8767532576
  0
LINE
  5
270
330
1F
100
AcDbEntity
  8
0
  6
Continuous
 62
     7
370
    15
100
AcDbLine
 10
205.1517799885
 20
503.0014139813
 30
0.0
 11
205.1517799885
 21
503.7987602156
 31
0.0
  0
LINE
  5
271
330
1F
100
AcDbEntity
  8
0
  6
Continuous
 62
     7
370
    15
100
AcDbLine
 10
205.1630750687
 20
506.2987578314
 30
0.0
 11
205.1630750687
 21
503.7987602156
 31
0.0
  0
LINE
  5
272
330
1F
100
AcDbEntity
  8
0
  6
Continuous
 62
     7
370
    15
100
AcDbLine
 10
205.1517799885
 20
518.1987655562
 30
0.0
 11
205.1517799885
 21
518.9961117905
 31
0.0
  0
LINE
  5
273
330
1F
100
AcDbEntity
  8
0
  6
Continuous
 62
     7
370
    15
100
AcDbLine
 10
205.1630750687
 20
518.1987655562
 30
0.0
 11
205.1630750687
 21
514.8987692994
 31
0.0
  0
LINE
  5
274
330
1F
100
AcDbEntity
  8
0
  6
Continuous
 62
     7
370
    15
100
AcDbLine
 10
207.0440188439
 20
518.1987655562
 30
0.0
 11
207.0440188439
 21
518.9961117905
 31
0.0
  0
LINE
  5
275
330
1F
100
AcDbEntity
  8
0
  6
Continuous
 62
     7
370
    15
100
AcDbLine
 10
211.1517772467
 20
518.9987641972
 30
0.0
 11
207.7167764695
 21
518.9987641972
 31
0.0
  0
LINE
  5
276
330
1F
100
AcDbEntity
  8
0
  6
Continuous
 62
     7
370
    15
100
AcDbLine
 10
211.1517772467
 20
518.1987655562
 30
0.0
 11
207.0440188439
 21
518.1987655562
 31
0.0
  0
LINE
  5
277
330
1F
100
AcDbEntity
  8
0
  6
Continuous
 62
     7
370
    15
100
AcDbLine
 10
211.1517772467
 20
502.9987615746
 30
0.0
 11
207.7167764695
 21
502.9987615746
 31
0.0
  0
LINE
  5
278
330
1F
100
AcDbEntity
  8
0
  6
Continuous
 62
     7
370
    15
100
AcDbLine
 10
207.0440188439
 20
503.0014139813
 30
0.0
 11
207.0440188439
 21
503.7987602156
 31
0.0
  0
LINE
  5
279
330
1F
100
AcDbEntity
  8
0
  6
Continuous
 62
     7
370
    15
100
AcDbLine
 10
211.1517772467
 20
503.7987602156
 30
0.0
 11
207.0440188439
 21
503.7987602156
 31
0.0
  0
LINE
  5
27A
330
1F
100
AcDbEntity
  8
0
  6
Continuous
 62
     7
370
    15
100
AcDbLine
 10
205.1517799885
 20
503.7987602156
 30
0.0
 11
207.0440188439
 21
503.7987602156
 31
0.0
  0
LINE
  5
27B
330
1F
100
AcDbEntity
  8
0
  6
Continuous
 62
     7
370
    15
100
AcDbLine
 10
205.1517799885
 20
518.1987655562
 30
0.0
 11
207.0440188439
 21
518.1987655562
 31
0.0
  0
LINE
  5
27C
330
1F
100
AcDbEntity
  8
0
  6
Continuous
 62
     7
370
    15
100
AcDbLine
 10
206.2217876704
 20
519.2987692755
 30
0.0
 11
210.6217876465
 21
519.2987692755
 31
0.0
  0
LINE
  5
27D
330
1F
100
AcDbEntity
  8
0
  6
Continuous
 62
     7
370
    15
100
AcDbLine
 10
206.321774462
 20
502.1987629336
 30
0.0
 11
210.5217859538
 21
502.1987629336
 31
0.0
  0
LINE
  5
27E
330
1F
100
AcDbEntity
  8
0
  6
Continuous
 62
     7
370
    15
100
AcDbLine
 10
206.321774462
 20
502.5987697047
 30
0.0
 11
210.5217859538
 21
502.5987697047
 31
0.0
  0
ARC
  5
27F
330
1F
100
AcDbEntity
  8
0
  6
Continuous
 62
     7
370
    15
100
AcDbCircle
 10
188.6176936651
 20
510.9987628859
 30
0.0
 40
16.90401408232922
100
AcDbArc
 50
154.7901718738
 51
205.2098281262
  0
SPLINE
  5
280
330
1F
100
AcDbEntity
  8
0
  6
Continuous
 62
     7
370
    15
100
AcDbSpline
210
0.0
220
0.0
230
1.0
 70
     8
 71
     3
 72
    12
 73
     8
 74
     0
 42
0.00000001
 43
0.00000001
 40
0.0
 40
0.0
 40
0.0
 40
0.0
 40
0.1818625204890634
 40
0.3633463119933281
 40
0.5550863729062995
 40
0.7712593806470155
 40
1.0
 40
1.0
 40
1.0
 40
1.0
 10
173.4561011583945
 20
502.9987615746045
 30
0.0
 10
173.4799584241845
 20
503.0060866743412
 30
0.0
 10
173.527623272971
 20
503.0207216192829
 30
0.0
 10
173.5423666885719
 20
503.1327000633473
 30
0.0
 10
173.5151370860496
 20
503.3020967096487
 30
0.0
 10
173.4434532185412
 20
503.5305241402045
 30
0.0
 10
173.3643751485738
 20
503.7076801306244
 30
0.0
 10
173.3237192423483
 20
503.7987602156186
 30
0.0
  0
LINE
  5
281
330
1F
100
AcDbEntity
  8
0
  6
Continuous
 62
     7
370
    15
100
AcDbLine
 10
173.0717406066
 20
503.7532669705
 30
0.0
 11
173.4261796267
 21
502.9987615746
 31
0.0
  0
ARC
  5
282
330
1F
100
AcDbEntity
  8
0
  6
Continuous
 62
     7
370
    15
100
AcDbCircle
 10
188.3422914616
 20
510.9987628859
 30
0.0
 40
16.90227601465701
100
AcDbArc
 50
154.6168257198
 51
205.3831742802
  0
LINE
  5
283
330
1F
100
AcDbEntity
  8
0
  6
Continuous
 62
     7
370
    15
100
AcDbLine
 10
173.4261796267
 20
518.9987641972
 30
0.0
 11
173.0717406066
 21
518.2442588013
 31
0.0
  0
SPLINE
  5
284
330
1F
100
AcDbEntity
  8
0
  6
Continuous
 62
     7
370
    15
100
AcDbSpline
210
0.0
220
0.0
230
1.0
 70
     8
 71
     3
 72
    12
 73
     8
 74
     0
 42
0.00000001
 43
0.00000001
 40
0.0
 40
0.0
 40
0.0
 40
0.0
 40
0.2510200584691638
 40
0.5023935466332026
 40
0.7402759140835328
 40
0.9473073476181907
 40
0.9999999999999999
 40
0.9999999999999999
 40
0.9999999999999999
 40
0.9999999999999999
 10
173.3237192423483
 20
518.1987655561949
 30
0.0
 10
173.3680372305371
 20
518.2986429275755
 30
0.0
 10
173.4567356054861
 20
518.4985382950711
 30
0.0
 10
173.5317252270854
 20
518.7572902294036
 30
0.0
 10
173.5432318134986
 20
518.9345173940173
 30
0.0
 10
173.5015834070433
 20
518.9949792350312
 30
0.0
 10
173.4637722592793
 20
518.998125820093
 30
0.0
 10
173.4561011583945
 20
518.998764197209
 30
0.0
  0
LINE
  5
285
330
1F
100
AcDbEntity
  8
0
  6
Continuous
 62
     7
370
    15
100
AcDbLine
 10
173.4561011584
 20
502.9987615746
 30
0.0
 11
173.4261796267
 21
502.9987615746
 31
0.0
  0
LINE
  5
286
330
1F
100
AcDbEntity
  8
0
  6
Continuous
 62
     7
370
    15
100
AcDbLine
 10
173.4561011584
 20
518.9987641972
 30
0.0
 11
173.4261796267
 21
518.9987641972
 31
0.0
  0
LINE
  5
287
330
1F
100
AcDbEntity
  8
0
  6
Continuous
 62
     7
370
    15
100
AcDbLine
 10
175.3132030757
 20
518.1987655562
 30
0.0
 11
173.3237192423
 21
518.1987655562
 31
0.0
  0
LINE
  5
288
330
1F
100
AcDbEntity
  8
0
  6
Continuous
 62
     7
370
    15
100
AcDbLine
 10
175.3132030757
 20
503.7987602156
 30
0.0
 11
175.3132030757
 21
518.1987655562
 31
0.0
  0
LINE
  5
289
330
1F
100
AcDbEntity
  8
0
  6
Continuous
 62
     7
370
    15
100
AcDbLine
 10
173.3237192423
 20
503.7987602156
 30
0.0
 11
175.3132030757
 21
503.7987602156
 31
0.0
  0
LWPOLYLINE
  5
28A
330
1F
100
AcDbEntity
  8
0
  6
Continuous
 62
     7
370
    15
100
AcDbPolyline
 90
        9
 70
   128
 43
0.0
 10
175.3132030757
 20
518.1987655562
 10
175.3079429658
 20
518.3548403185
 10
175.2923712523
 20
518.5049099129
 10
175.2670839818
 20
518.6432224911
 10
175.2330646308
 20
518.7644434374
 10
175.1915946992
 20
518.8639384907
 10
175.1442835124
 20
518.9378631514
 10
175.0929639132
 20
518.9833861989
 10
175.0395879538
 20
518.9987641972
  0
LINE
  5
28B
330
1F
100
AcDbEntity
  8
0
  6
Continuous
 62
     7
370
    15
100
AcDbLine
 10
173.4561011584
 20
518.9987641972
 30
0.0
 11
175.0395879538
 21
518.9987641972
 31
0.0
  0
LWPOLYLINE
  5
28C
330
1F
100
AcDbEntity
  8
0
  6
Continuous
 62
     7
370
    15
100
AcDbPolyline
 90
        9
 70
   128
 43
0.0
 10
175.3132030757
 20
503.7987602156
 10
175.3079429658
 20
503.6426854533
 10
175.2923712523
 20
503.4926158589
 10
175.2670839818
 20
503.3543032807
 10
175.2330646308
 20
503.2330823344
 10
175.1915946992
 20
503.1335872811
 10
175.1442835124
 20
503.0596626204
 10
175.0929639132
 20
503.014139573
 10
175.0395879538
 20
502.9987615746
  0
LINE
  5
28D
330
1F
100
AcDbEntity
  8
0
  6
Continuous
 62
     7
370
    15
100
AcDbLine
 10
175.0395879538
 20
502.9987615746
 30
0.0
 11
173.4561011584
 21
502.9987615746
 31
0.0
  0
LINE
  5
28E
330
1F
100
AcDbEntity
  8
0
  6
Continuous
 62
     7
370
    15
100
AcDbLine
 10
180.2120492251
 20
518.1987655562
 30
0.0
 11
175.3132030757
 21
518.1987655562
 31
0.0
  0
LINE
  5
28F
330
1F
100
AcDbEntity
  8
0
  6
Continuous
 62
     7
370
    15
100
AcDbLine
 10
175.0395879538
 20
518.9987641972
 30
0.0
 11
180.3509727509
 21
518.9987641972
 31
0.0
  0
LINE
  5
290
330
1F
100
AcDbEntity
  8
0
  6
Continuous
 62
     7
370
    15
100
AcDbLine
 10
175.3132030757
 20
503.7987602156
 30
0.0
 11
180.2120492251
 21
503.7987602156
 31
0.0
  0
LINE
  5
291
330
1F
100
AcDbEntity
  8
0
  6
Continuous
 62
     7
370
    15
100
AcDbLine
 10
180.3509727509
 20
502.9987615746
 30
0.0
 11
175.0395879538
 21
502.9987615746
 31
0.0
  0
SPLINE
  5
292
330
1F
100
AcDbEntity
  8
0
  6
Continuous
 62
     7
370
    15
100
AcDbSpline
210
0.0
220
0.0
230
1.0
 70
     8
 71
     3
 72
    16
 73
    12
 74
     0
 42
0.00000001
 43
0.00000001
 40
0.0
 40
0.0
 40
0.0
 40
0.0
 40
0.1207078871531619
 40
0.2414126130790105
 40
0.3621198753326838
 40
0.482824069925725
 40
0.6035313960270372
 40
0.7242393950303329
 40
0.8449438309358469
 40
0.9656482894937229
 40
1.0
 40
1.0
 40
1.0
 40
1.0
 10
206.594078281655
 20
498.0463904541516
 30
0.0
 10
206.6134792502712
 20
498.049064643258
 30
0.0
 10
206.6522806794103
 20
498.0544129514363
 30
0.0
 10
206.6572038576846
 20
498.3453673672361
 30
0.0
 10
206.6199902918422
 20
498.7986966114727
 30
0.0
 10
206.5430891451935
 20
499.3662289744503
 30
0.0
 10
206.439255666782
 20
499.9545472041648
 30
0.0
 10
206.3231695482808
 20
500.4812504634992
 30
0.0
 10
206.2161547315514
 20
500.8445159244457
 30
0.0
 10
206.1435810427384
 20
501.0150034242974
 30
0.0
 10
206.1240310024418
 20
500.9818445657916
 30
0.0
 10
206.1196998150488
 20
500.9744984310651
 30
0.0
  0
SPLINE
  5
293
330
1F
100
AcDbEntity
  8
0
  6
Continuous
 62
     7
370
    15
100
AcDbSpline
210
0.0
220
0.0
230
1.0
 70
     8
 71
     3
 72
    16
 73
    12
 74
     0
 42
0.00000001
 43
0.00000001
 40
0.0
 40
0.0
 40
0.0
 40
0.0
 40
0.1205835500006272
 40
0.2411639420302155
 40
0.3617468677750422
 40
0.4823271212948927
 40
0.6029095790313884
 40
0.7234904642075044
 40
0.84407714114446
 40
0.9646563800287297
 40
1.0
 40
1.0
 40
1.0
 40
1.0
 10
206.7646667750021
 20
523.9224207800413
 30
0.0
 10
206.784067893644
 20
523.9197465583725
 30
0.0
 10
206.8228696228305
 20
523.9143981850705
 30
0.0
 10
206.8277905507786
 20
523.6234442576922
 30
0.0
 10
206.7905854958853
 20
523.1701126658478
 30
0.0
 10
206.713652359811
 20
522.6025872715564
 30
0.0
 10
206.6098513342839
 20
522.0142593087993
 30
0.0
 10
206.4937566642283
 20
521.4875867483535
 30
0.0
 10
206.3867243016024
 20
521.1241263552661
 30
0.0
 10
206.3139618615691
 20
520.9535845443141
 30
0.0
 10
206.2943227475991
 20
520.9871633134278
 30
0.0
 10
206.2898710758826
 20
520.9947747391249
 30
0.0
  0
SPLINE
  5
294
330
1F
100
AcDbEntity
  8
0
  6
Continuous
 62
     7
370
    15
100
AcDbSpline
210
0.0
220
0.0
230
1.0
 70
     8
 71
     3
 72
    16
 73
    12
 74
     0
 42
0.00000001
 43
0.00000001
 40
0.0
 40
0.0
 40
0.0
 40
0.0
 40
0.1205116643668327
 40
0.241031988851304
 40
0.3615494060749353
 40
0.4820670462965106
 40
0.6025839957660637
 40
0.7231021485805779
 40
0.8436167439012519
 40
0.9641371704881679
 40
1.0
 40
1.0
 40
1.0
 40
1.0
 10
222.1350506336829
 20
500.6628108423734
 30
0.0
 10
222.154451694626
 20
500.6654820161678
 30
0.0
 10
222.1932552106965
 20
500.6708245557106
 30
0.0
 10
222.1981746395132
 20
500.9617633042465
 30
0.0
 10
222.1609682682721
 20
501.4151086176373
 30
0.0
 10
222.0840383117347
 20
501.982637594872
 30
0.0
 10
221.9802315567774
 20
502.5709863551216
 30
0.0
 10
221.8641508989684
 20
503.0976070941063
 30
0.0
 10
221.7570856617372
 20
503.4611791879655
 30
0.0
 10
221.6842432456091
 20
503.6317779868884
 30
0.0
 10
221.6645480483871
 20
503.5979591256537
 30
0.0
 10
221.6600314171454
 20
503.5902035635496
 30
0.0
  0
SPLINE
  5
295
330
1F
100
AcDbEntity
  8
0
  6
Continuous
 62
     7
370
    15
100
AcDbSpline
210
0.0
220
0.0
230
1.0
 70
     8
 71
     3
 72
    16
 73
    12
 74
     0
 42
0.00000001
 43
0.00000001
 40
0.0
 40
0.0
 40
0.0
 40
0.0
 40
0.1205121047917788
 40
0.2410325804529558
 40
0.3615501488496461
 40
0.4820650464697371
 40
0.6025821471117625
 40
0.7231010411094512
 40
0.8436171544413902
 40
0.9641310379758448
 40
1.0
 40
1.0
 40
1.0
 40
1.0
 10
222.30563912703
 20
521.3060003918196
 30
0.0
 10
222.3250402157069
 20
521.3033229753217
 30
0.0
 10
222.363843740676
 20
521.2979679563507
 30
0.0
 10
222.3687628095338
 20
521.0070342474726
 30
0.0
 10
222.331558312091
 20
520.5536905228554
 30
0.0
 10
222.2546235081582
 20
519.9861703450216
 30
0.0
 10
222.1508270708625
 20
519.3978213524664
 30
0.0
 10
222.0347122700302
 20
518.8712093320911
 30
0.0
 10
221.9276867355635
 20
518.5076153577797
 30
0.0
 10
221.8548262006844
 20
518.3370363171825
 30
0.0
 10
221.8351361463322
 20
518.3708515859681
 30
0.0
 10
221.8306199104925
 20
518.3786076706434
 30
0.0
  0
SPLINE
  5
296
330
1F
100
AcDbEntity
  8
0
  6
Continuous
 62
     7
370
    15
100
AcDbSpline
210
0.0
220
0.0
230
1.0
 70
    24
 71
     3
 72
    16
 73
    12
 74
     0
 42
0.00000001
 43
0.00000001
 40
0.0
 40
0.0
 40
0.0
 40
0.0
 40
0.0611102845076972
 40
0.1864723954319963
 40
0.3118322208390296
 40
0.4371944708864321
 40
0.5625589540335474
 40
0.6879198579853077
 40
0.813281951356681
 40
0.9386471442034847
 40
1.0
 40
1.0
 40
1.0
 40
1.0
 10
225.2119616062781
 20
504.1325313251996
 30
0.0
 10
225.217735364154
 20
504.1325313251996
 30
0.0
 10
225.2353534536528
 20
504.1325313251995
 30
0.0
 10
225.0169220167879
 20
504.1325313251995
 30
0.0
 10
224.6041754548559
 20
504.1325313251996
 30
0.0
 10
224.0477147629698
 20
504.1325313251995
 30
0.0
 10
223.4486103553168
 20
504.1325313251995
 30
0.0
 10
222.8899063708241
 20
504.1325313251996
 30
0.0
 10
222.4729472300644
 20
504.1325313251995
 30
0.0
 10
222.2499555123617
 20
504.1325313251995
 30
0.0
 10
222.2647700713331
 20
504.1325313251995
 30
0.0
 10
222.2696379215857
 20
504.1325313251996
 30
0.0
  0
SPLINE
  5
297
330
1F
100
AcDbEntity
  8
0
  6
Continuous
 62
     7
370
    15
100
AcDbSpline
210
0.0
220
0.0
230
1.0
 70
    24
 71
     3
 72
    16
 73
    12
 74
     0
 42
0.00000001
 43
0.00000001
 40
0.0
 40
0.0
 40
0.0
 40
0.0
 40
0.0610129142997457
 40
0.1861752792253431
 40
0.3113353622753087
 40
0.4364978661023373
 40
0.5616625994709642
 40
0.6868237593471552
 40
0.8119861067477948
 40
0.9371515486853087
 40
1.0
 40
1.0
 40
1.0
 40
1.0
 10
225.2119616062781
 20
517.6911575001265
 30
0.0
 10
225.217735357953
 20
517.6911575001265
 30
0.0
 10
225.2353534285302
 20
517.6911575001265
 30
0.0
 10
225.0169222496822
 20
517.6911575001262
 30
0.0
 10
224.6041746015742
 20
517.6911575001265
 30
0.0
 10
224.0477179432997
 20
517.6911575001263
 30
0.0
 10
223.44859848722
 20
517.6911575001265
 30
0.0
 10
222.8899506616006
 20
517.6911575001263
 30
0.0
 10
222.4727819310949
 20
517.6911575001265
 30
0.0
 10
222.2493022953356
 20
517.6911575001262
 30
0.0
 10
222.264520908631
 20
517.6911575001265
 30
0.0
 10
222.2696081192633
 20
517.6911575001265
 30
0.0
  0
SPLINE
  5
298
330
1F
100
AcDbEntity
  8
0
  6
Continuous
 62
     7
370
    15
100
AcDbSpline
210
0.0
220
0.0
230
1.0
 70
     8
 71
     3
 72
    19
 73
    15
 74
     0
 42
0.00000001
 43
0.00000001
 40
0.0
 40
0.0
 40
0.0
 40
0.0
 40
0.003953715205903
 40
0.1157568464404963
 40
0.2280470985832616
 40
0.3355165832363207
 40
0.4377087770690565
 40
0.5348752405946415
 40
0.6282976297217461
 40
0.7302970810952432
 40
0.8413355002600912
 40
0.9641308253357947
 40
0.9937687989224226
 40
1.0
 40
1.0
 40
1.0
 40
1.0
 10
211.5400568039557
 20
516.5987682741667
 30
0.0
 10
211.5404490620281
 20
516.5987612365283
 30
0.0
 10
211.5519335911582
 20
516.5985551886024
 30
0.0
 10
211.5752637937521
 20
516.583475191629
 30
0.0
 10
211.6187185182503
 20
516.5165667358353
 30
0.0
 10
211.6567080159498
 20
516.4118594113725
 30
0.0
 10
211.6802044418659
 20
516.2867915413301
 30
0.0
 10
211.6915503212403
 20
516.1583615928829
 30
0.0
 10
211.6921253311186
 20
516.0371811462901
 30
0.0
 10
211.6763659979237
 20
515.927953000041
 30
0.0
 10
211.6359633123091
 20
515.8385310483785
 30
0.0
 10
211.5841550770494
 20
515.8034893206272
 30
0.0
 10
211.5493927830987
 20
515.7988724444295
 30
0.0
 10
211.5414386054781
 20
515.7987848500651
 30
0.0
 10
211.5400568039557
 20
515.7987696331526
 30
0.0
  0
SPLINE
  5
299
330
1F
100
AcDbEntity
  8
0
  6
Continuous
 62
     7
370
    15
100
AcDbSpline
210
0.0
220
0.0
230
1.0
 70
     8
 71
     3
 72
    30
 73
    26
 74
     0
 42
0.00000001
 43
0.00000001
 40
0.0
 40
0.0
 40
0.0
 40
0.0
 40
0.1246998075928956
 40
0.2494036567885047
 40
0.3741257293653614
 40
0.4367781813851029
 40
0.4681485396509784
 40
0.4838360761992427
 40
0.491688261408273
 40
0.4956075513865121
 40
0.4975654867159801
 40
0.4985475625665967
 40
0.4990357051958802
 40
0.4992811519789171
 40
0.4994142641864529
 40
0.4994783795159183
 40
0.4995021913514931
 40
0.4995140972692805
 40
0.4995407197107877
 40
0.5609182155884728
 40
0.6646273605363806
 40
0.7325806551423476
 40
0.8111539911766412
 40
0.9003089100780034
 40
1.0
 40
1.0
 40
1.0
 40
1.0
 10
211.6117611916205
 20
516.6586560410047
 30
0.0
 10
211.6175256291138
 20
516.6568646686354
 30
0.0
 10
211.6290546909298
 20
516.6532818658376
 30
0.0
 10
211.7189061613729
 20
516.6314238502306
 30
0.0
 10
211.826369993552
 20
516.6057657213671
 30
0.0
 10
211.91192208259
 20
516.5853420793321
 30
0.0
 10
211.9560244511431
 20
516.5748255171709
 30
0.0
 10
211.9782466877573
 20
516.5694703038265
 30
0.0
 10
211.9893896862075
 20
516.5668484837058
 30
0.0
 10
211.9949484834607
 20
516.5654712386084
 30
0.0
 10
211.9977430492647
 20
516.5648508107006
 30
0.0
 10
211.9991207229101
 20
516.5644657449782
 30
0.0
 10
211.99982660405
 20
516.5643403378699
 30
0.0
 10
212.0001700722866
 20
516.5642217272688
 30
0.0
 10
212.0003593345085
 20
516.5642196402079
 30
0.0
 10
212.0004406554341
 20
516.5641651225209
 30
0.0
 10
212.0004827188032
 20
516.5641673964059
 30
0.0
 10
212.0005091754072
 20
516.5641692494314
 30
0.0
 10
212.0224836882661
 20
516.5487322093294
 30
0.0
 10
212.0951999442424
 20
516.5510843738185
 30
0.0
 10
212.1832349117699
 20
516.522520773002
 30
0.0
 10
212.2673857504731
 20
516.5071438728111
 30
0.0
 10
212.3307565896552
 20
516.4937773288964
 30
0.0
 10
212.381331176122
 20
516.4842997730219
 30
0.0
 10
212.388548515008
 20
516.4838106840331
 30
0.0
 10
212.3923585207602
 20
516.4835524958158
 30
0.0
  0
ELLIPSE
  5
29A
330
1F
100
AcDbEntity
  8
0
  6
Continuous
 62
     7
370
    15
100
AcDbEllipse
 10
212.2688887733
 20
517.7807386607
 30
0.0
 11
0.3906095144045594
 21
-0.08616383961157226
 31
0.0
210
0.0
220
0.0
230
1.0
 40
0.0142285888
 41
0.0
 42
6.283185307179586
  0
LINE
  5
29B
330
1F
100
AcDbEntity
  8
0
  6
Continuous
 62
     7
370
    15
100
AcDbLine
 10
211.4417836459
 20
47.7487665814
 30
0.0
 11
205.2417830022
 21
47.7487665814
 31
0.0
  0
LINE
  5
29C
330
1F
100
AcDbEntity
  8
0
  6
Continuous
 62
     7
370
    15
100
AcDbLine
 10
211.4417836459
 20
47.7487665814
 30
0.0
 11
211.4417836459
 21
46.7487645548
 31
0.0
  0
LINE
  5
29D
330
1F
100
AcDbEntity
  8
0
  6
Continuous
 62
     7
370
    15
100
AcDbLine
 10
211.4417836459
 20
46.7487645548
 30
0.0
 11
205.2417830022
 21
46.7487645548
 31
0.0
  0
LINE
  5
29E
330
1F
100
AcDbEntity
  8
0
  6
Continuous
 62
     7
370
    15
100
AcDbLine
 10
205.2417830022
 20
47.7487665814
 30
0.0
 11
205.2417830022
 21
46.7487645548
 31
0.0
  0
LINE
  5
29F
330
1F
100
AcDbEntity
  8
0
  6
Continuous
 62
     7
370
    15
100
AcDbLine
 10
211.4417836459
 20
517.7487653893
 30
0.0
 11
211.4417836459
 21
516.7487633627
 31
0.0
  0
LINE
  5
2A0
330
1F
100
AcDbEntity
  8
0
  6
Continuous
 62
     7
370
    15
100
AcDbLine
 10
211.4417836459
 20
516.7487633627
 30
0.0
 11
205.2417830022
 21
516.7487633627
 31
0.0
  0
LINE
  5
2A1
330
1F
100
AcDbEntity
  8
0
  6
Continuous
 62
     7
370
    15
100
AcDbLine
 10
205.2417830022
 20
517.7487653893
 30
0.0
 11
205.2417830022
 21
516.7487633627
 31
0.0
  0
LINE
  5
2A2
330
1F
100
AcDbEntity
  8
0
  6
Continuous
 62
     7
370
    15
100
AcDbLine
 10
211.4417836459
 20
517.7487653893
 30
0.0
 11
205.2417830022
 21
517.7487653893
 31
0.0
  0
LINE
  5
2A3
330
1F
100
AcDbEntity
  8
0
  6
Continuous
 62
     7
370
    15
100
AcDbLine
 10
211.4417836459
 20
505.2487624091
 30
0.0
 11
211.4417836459
 21
504.2487603825
 31
0.0
  0
LINE
  5
2A4
330
1F
100
AcDbEntity
  8
0
  6
Continuous
 62
     7
370
    15
100
AcDbLine
 10
205.2417830022
 20
505.2487624091
 30
0.0
 11
205.2417830022
 21
504.2487603825
 31
0.0
  0
LINE
  5
2A5
330
1F
100
AcDbEntity
  8
0
  6
Continuous
 62
     7
370
    15
100
AcDbLine
 10
211.4417836459
 20
505.2487624091
 30
0.0
 11
205.2417830022
 21
505.2487624091
 31
0.0
  0
LINE
  5
2A6
330
1F
100
AcDbEntity
  8
0
  6
Continuous
 62
     7
370
    15
100
AcDbLine
 10
211.4417836459
 20
504.2487603825
 30
0.0
 11
205.2417830022
 21
504.2487603825
 31
0.0
  0
LINE
  5
2A7
330
1F
100
AcDbEntity
  8
0
  6
Continuous
 62
     7
370
    15
100
AcDbLine
 10
211.4417836459
 20
35.2487636012
 30
0.0
 11
211.4417836459
 21
34.2487615746
 31
0.0
  0
LINE
  5
2A8
330
1F
100
AcDbEntity
  8
0
  6
Continuous
 62
     7
370
    15
100
AcDbLine
 10
211.4417836459
 20
34.2487615746
 30
0.0
 11
205.2417830022
 21
34.2487615746
 31
0.0
  0
LINE
  5
2A9
330
1F
100
AcDbEntity
  8
0
  6
Continuous
 62
     7
370
    15
100
AcDbLine
 10
205.2417830022
 20
35.2487636012
 30
0.0
 11
205.2417830022
 21
34.2487615746
 31
0.0
  0
LINE
  5
2AA
330
1F
100
AcDbEntity
  8
0
  6
Continuous
 62
     7
370
    15
100
AcDbLine
 10
211.4417836459
 20
35.2487636012
 30
0.0
 11
205.2417830022
 21
35.2487636012
 31
0.0
  0
LWPOLYLINE
  5
2AB
330
1F
100
AcDbEntity
  8
0
  6
Continuous
 62
     7
370
    15
100
AcDbPolyline
 90
        3
 70
   128
 43
0.0
 10
205.1630750687
 20
504.637621085
 10
205.1656529696
 20
504.6314520043
 10
205.2417830022
 20
504.2487603825
  0
LWPOLYLINE
  5
2AC
330
1F
100
AcDbEntity
  8
0
  6
Continuous
 62
     7
370
    15
100
AcDbPolyline
 90
        3
 70
   128
 43
0.0
 10
205.2417830022
 20
517.7487653893
 10
205.1656529696
 20
517.3660737675
 10
205.1630750687
 20
517.3599046868
  0
LINE
  5
2AD
330
1F
100
AcDbEntity
  8
0
  6
Continuous
 62
     7
370
    15
100
AcDbLine
 10
211.4417836459
 20
516.7487633627
 30
0.0
 11
211.4417836459
 21
516.5987682742
 31
0.0
  0
LINE
  5
2AE
330
1F
100
AcDbEntity
  8
0
  6
Continuous
 62
     7
370
    15
100
AcDbLine
 10
211.4417836459
 20
515.7987696332
 30
0.0
 11
211.4417836459
 21
514.8987692994
 31
0.0
  0
LINE
  5
2AF
330
1F
100
AcDbEntity
  8
0
  6
Continuous
 62
     7
370
    15
100
AcDbLine
 10
211.4417836459
 20
506.2987578314
 30
0.0
 11
211.4417836459
 21
505.2487624091
 31
0.0
  0
LWPOLYLINE
  5
2B0
330
1F
100
AcDbEntity
  8
0
  6
Continuous
 62
     7
370
    15
100
AcDbPolyline
 90
        3
 70
   128
 43
0.0
 10
205.1630750687
 20
34.6376222771
 10
205.1656529696
 20
34.6314531964
 10
205.2417830022
 20
34.2487615746
  0
LWPOLYLINE
  5
2B1
330
1F
100
AcDbEntity
  8
0
  6
Continuous
 62
     7
370
    15
100
AcDbPolyline
 90
        3
 70
   128
 43
0.0
 10
205.2417830022
 20
47.7487665814
 10
205.1656529696
 20
47.3660749596
 10
205.1630750687
 20
47.3599058789
  0
LINE
  5
2B2
330
1F
100
AcDbEntity
  8
0
  6
Continuous
 62
     7
370
    15
100
AcDbLine
 10
211.4417836459
 20
46.7487645548
 30
0.0
 11
211.4417836459
 21
46.5987694663
 31
0.0
  0
LINE
  5
2B3
330
1F
100
AcDbEntity
  8
0
  6
Continuous
 62
     7
370
    15
100
AcDbLine
 10
211.4417836459
 20
45.7987708252
 30
0.0
 11
211.4417836459
 21
44.8987704915
 31
0.0
  0
LINE
  5
2B4
330
1F
100
AcDbEntity
  8
0
  6
Continuous
 62
     7
370
    15
100
AcDbLine
 10
211.4417836459
 20
36.2987590235
 30
0.0
 11
211.4417836459
 21
35.2487636012
 31
0.0
  0
LINE
  5
2B5
330
1F
100
AcDbEntity
  8
0
  6
Continuous
 62
     7
370
    15
100
AcDbLine
 10
13.4417800622
 20
560.9987599057
 30
0.0
 11
13.4417800622
 21
-9.0012329418
 31
0.0
  0
LINE
  5
2B6
330
1F
100
AcDbEntity
  8
0
  6
Continuous
 62
     7
370
    15
100
AcDbLine
 10
13.4417800622
 20
-9.0012329418
 30
0.0
 11
-1.5582196026
 21
-9.0012329418
 31
0.0
  0
LINE
  5
2B7
330
1F
100
AcDbEntity
  8
0
  6
Continuous
 62
     7
370
    15
100
AcDbLine
 10
-1.5582196026
 20
560.9987599057
 30
0.0
 11
-1.5582196026
 21
-9.0012329418
 31
0.0
  0
LINE
  5
2B8
330
1F
100
AcDbEntity
  8
0
  6
Continuous
 62
     7
370
    15
100
AcDbLine
 10
-1.5582196026
 20
560.9987599057
 30
0.0
 11
13.4417800622
 21
560.9987599057
 31
0.0
  0
LINE
  5
2B9
330
1F
100
AcDbEntity
  8
0
  6
Continuous
 62
     7
370
    15
100
AcDbLine
 10
13.4417800622
 20
-9.0012329418
 30
0.0
 11
13.4417800622
 21
-24.001248439
 31
0.0
  0
ARC
  5
2BA
330
1F
100
AcDbEntity
  8
0
  6
Continuous
 62
     7
370
    15
100
AcDbCircle
 10
13.4417803795
 20
-9.001236518
 30
0.0
 40
15.00000000000001
100
AcDbArc
 50
180.0
 51
270.0
  0
ARC
  5
2BB
330
1F
100
AcDbEntity
  8
0
  6
Continuous
 62
     7
370
    15
100
AcDbCircle
 10
13.4417803795
 20
560.998763482
 30
0.0
 40
15.0
100
AcDbArc
 50
90.0
 51
180.0
  0
LINE
  5
2BC
330
1F
100
AcDbEntity
  8
0
  6
Continuous
 62
     7
370
    15
100
AcDbLine
 10
13.4417800622
 20
575.9987754029
 30
0.0
 11
13.4417800622
 21
560.9987599057
 31
0.0
  0
LINE
  5
2BD
330
1F
100
AcDbEntity
  8
0
  6
Continuous
 62
     7
370
    15
100
AcDbLine
 10
224.4417801888
 20
560.9987599057
 30
0.0
 11
224.4417801888
 21
519.9746859473
 31
0.0
  0
LINE
  5
2BE
330
1F
100
AcDbEntity
  8
0
  6
Continuous
 62
     7
370
    15
100
AcDbLine
 10
224.4417801888
 20
501.9908619326
 30
0.0
 11
224.4417801888
 21
49.9746871394
 31
0.0
  0
LINE
  5
2BF
330
1F
100
AcDbEntity
  8
0
  6
Continuous
 62
     7
370
    15
100
AcDbLine
 10
224.4417801888
 20
31.9908631247
 30
0.0
 11
224.4417801888
 21
-9.0012329418
 31
0.0
  0
LINE
  5
2C0
330
1F
100
AcDbEntity
  8
0
  6
Continuous
 62
     7
370
    15
100
AcDbLine
 10
224.4417801888
 20
-9.0012329418
 30
0.0
 11
13.4417800622
 21
-9.0012329418
 31
0.0
  0
LINE
  5
2C1
330
1F
100
AcDbEntity
  8
0
  6
Continuous
 62
     7
370
    15
100
AcDbLine
 10
224.4417801888
 20
560.9987599057
 30
0.0
 11
13.4417800622
 21
560.9987599057
 31
0.0
  0
LINE
  5
2C2
330
1F
100
AcDbEntity
  8
0
  6
Continuous
 62
     7
370
    15
100
AcDbLine
 10
204.4417843611
 20
48.9987653893
 30
0.0
 11
204.4417843611
 21
50.4581702155
 31
0.0
  0
LINE
  5
2C3
330
1F
100
AcDbEntity
  8
0
  6
Continuous
 62
     7
370
    15
100
AcDbLine
 10
204.4417843611
 20
53.8008881014
 30
0.0
 11
204.4417843611
 21
498.1862229508
 31
0.0
  0
LINE
  5
2C4
330
1F
100
AcDbEntity
  8
0
  6
Continuous
 62
     7
370
    15
100
AcDbLine
 10
204.4417843611
 20
501.526005308
 30
0.0
 11
204.4417843611
 21
502.9987615746
 31
0.0
  0
LINE
  5
2C5
330
1F
100
AcDbEntity
  8
0
  6
Continuous
 62
     7
370
    15
100
AcDbLine
 10
204.4417843611
 20
518.9987641972
 30
0.0
 11
204.4417843611
 21
520.4581690234
 31
0.0
  0
LINE
  5
2C6
330
1F
100
AcDbEntity
  8
0
  6
Continuous
 62
     7
370
    15
100
AcDbLine
 10
204.4417843611
 20
523.8008869093
 30
0.0
 11
204.4417843611
 21
555.998764674
 31
0.0
  0
LINE
  5
2C7
330
1F
100
AcDbEntity
  8
0
  6
Continuous
 62
     7
370
    15
100
AcDbLine
 10
204.4417843611
 20
555.998764674
 30
0.0
 11
18.4417799504
 21
555.998764674
 31
0.0
  0
LINE
  5
2C8
330
1F
100
AcDbEntity
  8
0
  6
Continuous
 62
     7
370
    15
100
AcDbLine
 10
204.4417843611
 20
-4.0012377101
 30
0.0
 11
18.4417799504
 21
-4.0012377101
 31
0.0
  0
LINE
  5
2C9
330
1F
100
AcDbEntity
  8
0
  6
Continuous
 62
     7
370
    15
100
AcDbLine
 10
204.4417843611
 20
-4.0012377101
 30
0.0
 11
204.4417843611
 21
28.1862241429
 31
0.0
  0
LINE
  5
2CA
330
1F
100
AcDbEntity
  8
0
  6
Continuous
 62
     7
370
    15
100
AcDbLine
 10
204.4417843611
 20
31.5260065001
 30
0.0
 11
204.4417843611
 21
32.9987627667
 31
0.0
  0
LINE
  5
2CB
330
1F
100
AcDbEntity
  8
0
  6
Continuous
 62
     7
370
    15
100
AcDbLine
 10
18.4417799504
 20
555.998764674
 30
0.0
 11
18.4417799504
 21
-4.0012377101
 31
0.0
  0
LINE
  5
2CC
330
1F
100
AcDbEntity
  8
0
  6
Continuous
 62
     7
370
    15
100
AcDbLine
 10
224.4417801888
 20
-9.0012329418
 30
0.0
 11
224.4417801888
 21
-24.001248439
 31
0.0
  0
LINE
  5
2CD
330
1F
100
AcDbEntity
  8
0
  6
Continuous
 62
     7
370
    15
100
AcDbLine
 10
224.4417801888
 20
-24.001248439
 30
0.0
 11
13.4417800622
 21
-24.001248439
 31
0.0
  0
LINE
  5
2CE
330
1F
100
AcDbEntity
  8
0
  6
Continuous
 62
     7
370
    15
100
AcDbLine
 10
224.4417801888
 20
575.9987754029
 30
0.0
 11
13.4417800622
 21
575.9987754029
 31
0.0
  0
LINE
  5
2CF
330
1F
100
AcDbEntity
  8
0
  6
Continuous
 62
     7
370
    15
100
AcDbLine
 10
224.4417801888
 20
575.9987754029
 30
0.0
 11
224.4417801888
 21
560.9987599057
 31
0.0
  0
LINE
  5
2D0
330
1F
100
AcDbEntity
  8
0
  6
Continuous
 62
     7
370
    15
100
AcDbLine
 10
228.4417733939
 20
-4.0012377101
 30
0.0
 11
224.4417801888
 21
-4.0012377101
 31
0.0
  0
LINE
  5
2D1
330
1F
100
AcDbEntity
  8
0
  6
Continuous
 62
     7
370
    15
100
AcDbLine
 10
228.4417733939
 20
-19.001223405
 30
0.0
 11
224.4417801888
 21
-19.001223405
 31
0.0
  0
LINE
  5
2D2
330
1F
100
AcDbEntity
  8
0
  6
Continuous
 62
     7
370
    15
100
AcDbLine
 10
228.4417733939
 20
570.9987503689
 30
0.0
 11
224.4417801888
 21
570.9987503689
 31
0.0
  0
LINE
  5
2D3
330
1F
100
AcDbEntity
  8
0
  6
Continuous
 62
     7
370
    15
100
AcDbLine
 10
228.4417733939
 20
555.998764674
 30
0.0
 11
224.4417801888
 21
555.998764674
 31
0.0
  0
LINE
  5
2D4
330
1F
100
AcDbEntity
  8
0
  6
Continuous
 62
     7
370
    15
100
AcDbLine
 10
271.0910471257
 20
607.5874627779
 30
0.0
 11
272.2910376366
 21
607.5874627779
 31
0.0
  0
LINE
  5
2D5
330
1F
100
AcDbEntity
  8
0
  6
Continuous
 62
     7
370
    15
100
AcDbLine
 10
270.9910603341
 20
610.0874603937
 30
0.0
 11
271.0910471257
 21
610.0874603937
 31
0.0
  0
LINE
  5
2D6
330
1F
100
AcDbEntity
  8
0
  6
Continuous
 62
     7
370
    15
100
AcDbLine
 10
271.0910471257
 20
616.087472553
 30
0.0
 11
270.9910603341
 21
616.087472553
 31
0.0
  0
LINE
  5
2D7
330
1F
100
AcDbEntity
  8
0
  6
Continuous
 62
     7
370
    15
100
AcDbLine
 10
266.8428154763
 20
673.0874688575
 30
0.0
 11
266.0910518941
 21
672.8138537357
 31
0.0
  0
SPLINE
  5
2D8
330
1F
100
AcDbEntity
  8
0
  6
Continuous
 62
     7
370
    15
100
AcDbSpline
210
0.0
220
0.0
230
1.0
 70
     8
 71
     3
 72
    15
 73
    11
 74
     0
 42
0.00000001
 43
0.00000001
 40
0.0
 40
0.0
 40
0.0
 40
0.0
 40
0.1250763880408006
 40
0.2501511909551939
 40
0.3752922053852685
 40
0.5003044548175923
 40
0.6252875014821089
 40
0.7502635101719308
 40
0.8750792368359497
 40
0.9999999999999999
 40
0.9999999999999999
 40
0.9999999999999999
 40
0.9999999999999999
 10
269.905480938785
 20
638.145288939236
 30
0.0
 10
269.8793640757913
 20
638.4040557318866
 30
0.0
 10
269.82713068079
 20
638.9215860377675
 30
0.0
 10
269.7482321006207
 20
639.7026992596585
 30
0.0
 10
269.6738057687933
 20
640.4398764046338
 30
0.0
 10
269.6068242432902
 20
641.1034626246972
 30
0.0
 10
269.550674890972
 20
641.6592189989987
 30
0.0
 10
269.5082008147255
 20
642.0803221467335
 30
0.0
 10
269.4793282854411
 20
642.365917125566
 30
0.0
 10
269.4750037845484
 20
642.4089599204466
 30
0.0
 10
269.4728406246828
 20
642.4304903695568
 30
0.0
  0
SPLINE
  5
2D9
330
1F
100
AcDbEntity
  8
0
  6
Continuous
 62
     7
370
    15
100
AcDbSpline
210
0.0
220
0.0
230
1.0
 70
     8
 71
     3
 72
    15
 73
    11
 74
     0
 42
0.00000001
 43
0.00000001
 40
0.0
 40
0.0
 40
0.0
 40
0.0
 40
0.1249398734156141
 40
0.2497676901414757
 40
0.3747516976425535
 40
0.499737921761322
 40
0.6247476871247258
 40
0.7498802057052864
 40
0.874943380761323
 40
1.0
 40
1.0
 40
1.0
 40
1.0
 10
266.4885850723909
 20
642.1290994832499
 30
0.0
 10
266.4907616161365
 20
642.1075252006607
 30
0.0
 10
266.4951127515184
 20
642.0643959851312
 30
0.0
 10
266.5239613444163
 20
641.7786738882237
 30
0.0
 10
266.566490037899
 20
641.3575055356166
 30
0.0
 10
266.6226217103971
 20
640.8017094056304
 30
0.0
 10
266.6896167708196
 20
640.1381938846536
 30
0.0
 10
266.7640053632215
 20
639.4011439740018
 30
0.0
 10
266.8428647767771
 20
638.620233906771
 30
0.0
 10
266.8951056396778
 20
638.1028807670689
 30
0.0
 10
266.9212253864931
 20
637.8442109773143
 30
0.0
  0
LINE
  5
2DA
330
1F
100
AcDbEntity
  8
0
  6
Continuous
 62
     7
370
    15
100
AcDbLine
 10
266.9209273633
 20
637.8440768669
 30
0.0
 11
268.490019637
 21
622.3031045148
 31
0.0
  0
LINE
  5
2DB
330
1F
100
AcDbEntity
  8
0
  6
Continuous
 62
     7
370
    15
100
AcDbLine
 10
271.4748414334
 20
622.6044655988
 30
0.0
 11
269.905778962
 21
638.1454230497
 31
0.0
  0
SPLINE
  5
2DC
330
1F
100
AcDbEntity
  8
0
  6
Continuous
 62
     7
370
    15
100
AcDbSpline
210
0.0
220
0.0
230
1.0
 70
     8
 71
     3
 72
     9
 73
     5
 74
     0
 42
0.00000001
 43
0.00000001
 40
0.0
 40
0.0
 40
0.0
 40
0.0
 40
0.4837366228449641
 40
1.0
 40
1.0
 40
1.0
 40
1.0
 10
268.660101490848
 20
620.6217319915279
 30
0.0
 10
268.6695559300679
 20
620.557501058002
 30
0.0
 10
268.6891005309384
 20
620.4247202626425
 30
0.0
 10
268.722945718732
 20
620.3885669820736
 30
0.0
 10
268.7404187496828
 20
620.3699023673519
 30
0.0
  0
SPLINE
  5
2DD
330
1F
100
AcDbEntity
  8
0
  6
Continuous
 62
     7
370
    15
100
AcDbSpline
210
0.0
220
0.0
230
1.0
 70
     8
 71
     3
 72
    11
 73
     7
 74
     0
 42
0.00000001
 43
0.00000001
 40
0.0
 40
0.0
 40
0.0
 40
0.0
 40
0.2484421589557797
 40
0.4978869182898011
 40
0.7483883454251155
 40
1.0
 40
1.0
 40
1.0
 40
1.0
 10
268.4902878578829
 20
622.3032535264476
 30
0.0
 10
268.5083020016336
 20
622.1247817122139
 30
0.0
 10
268.5444029860854
 20
621.7671178520868
 30
0.0
 10
268.591405673435
 20
621.3022877816194
 30
0.0
 10
268.6301987478507
 20
620.9194093039813
 30
0.0
 10
268.6452551001067
 20
620.7721077731355
 30
0.0
 10
268.652799921863
 20
620.6982941577419
 30
0.0
  0
SPLINE
  5
2DE
330
1F
100
AcDbEntity
  8
0
  6
Continuous
 62
     7
370
    15
100
AcDbSpline
210
0.0
220
0.0
230
1.0
 70
     8
 71
     3
 72
    19
 73
    15
 74
     0
 42
0.00000001
 43
0.00000001
 40
0.0
 40
0.0
 40
0.0
 40
0.0
 40
0.0802803590103682
 40
0.1534390927477407
 40
0.2193400370614751
 40
0.2779457368891965
 40
0.3728403954091362
 40
0.4421527949908685
 40
0.5315336737000689
 40
0.6554835312672248
 40
0.7303562541000159
 40
0.8130777050597906
 40
0.9031426307478029
 40
1.0
 40
1.0
 40
1.0
 40
1.0
 10
268.6757477101015
 20
620.5390752503856
 30
0.0
 10
268.7111070981297
 20
620.4162005422432
 30
0.0
 10
268.7786891628594
 20
620.1813512718686
 30
0.0
 10
268.9759269106974
 20
619.8869508248185
 30
0.0
 10
269.2007641937562
 20
619.6628195978553
 30
0.0
 10
269.4964268020454
 20
619.4697771798168
 30
0.0
 10
269.8383760718588
 20
619.3518795534496
 30
0.0
 10
270.2481294381649
 20
619.3220743841374
 30
0.0
 10
270.6872174680315
 20
619.4243942540166
 30
0.0
 10
271.0737630550478
 20
619.6756076097317
 30
0.0
 10
271.3666032206684
 20
620.016328668495
 30
0.0
 10
271.5473856634613
 20
620.3717908589153
 30
0.0
 10
271.6532468713948
 20
620.7987402805898
 30
0.0
 10
271.6210079412983
 20
621.0938070776704
 30
0.0
 10
271.6043027218507
 20
621.246701593159
 30
0.0
  0
SPLINE
  5
2DF
330
1F
100
AcDbEntity
  8
0
  6
Continuous
 62
     7
370
    15
100
AcDbSpline
210
0.0
220
0.0
230
1.0
 70
     8
 71
     3
 72
    11
 73
     7
 74
     0
 42
0.00000001
 43
0.00000001
 40
0.0
 40
0.0
 40
0.0
 40
0.0
 40
0.2477415414335603
 40
0.4969499530456637
 40
0.7476749454496505
 40
1.0
 40
1.0
 40
1.0
 40
1.0
 10
271.6280551727938
 20
621.0790188262447
 30
0.0
 10
271.6216276388163
 20
621.1436451643094
 30
0.0
 10
271.6087345136269
 20
621.273280491033
 30
0.0
 10
271.5727410915604
 20
621.6311469046565
 30
0.0
 10
271.5277891873221
 20
622.077473946758
 30
0.0
 10
271.4923494454228
 20
622.4283403050983
 30
0.0
 10
271.4745732124971
 20
622.6043314883693
 30
0.0
  0
LINE
  5
2E0
330
1F
100
AcDbEntity
  8
0
  6
Continuous
 62
     7
370
    15
100
AcDbLine
 10
271.7583509263
 20
632.2591365526
 30
0.0
 11
271.7583509263
 21
632.5589479158
 31
0.0
  0
LINE
  5
2E1
330
1F
100
AcDbEntity
  8
0
  6
Continuous
 62
     7
370
    15
100
AcDbLine
 10
270.9583373841
 20
632.5589479158
 30
0.0
 11
270.9583373841
 21
632.261580343
 31
0.0
  0
SPLINE
  5
2E2
330
1F
100
AcDbEntity
  8
0
  6
Continuous
 62
     7
370
    15
100
AcDbSpline
210
0.0
220
0.0
230
1.0
 70
    24
 71
     3
 72
    11
 73
     7
 74
     0
 42
0.00000001
 43
0.00000001
 40
0.0
 40
0.0
 40
0.0
 40
0.0
 40
0.0207850328835332
 40
0.3465561843128634
 40
0.6711381646362238
 40
0.9999999999999999
 40
0.9999999999999999
 40
0.9999999999999999
 40
0.9999999999999999
 10
270.9583373840975
 20
632.8452737281307
 30
0.0
 10
270.9583373840975
 20
632.8419520240898
 30
0.0
 10
270.9583373840973
 20
632.7865680810257
 30
0.0
 10
270.9583373840977
 20
632.69332991585
 30
0.0
 10
270.9583373840973
 20
632.5806177805636
 30
0.0
 10
270.9583373840975
 20
632.5460902814896
 30
0.0
 10
270.9583373840975
 20
632.5287134597286
 30
0.0
  0
SPLINE
  5
2E3
330
1F
100
AcDbEntity
  8
0
  6
Continuous
 62
     7
370
    15
100
AcDbSpline
210
0.0
220
0.0
230
1.0
 70
    24
 71
     3
 72
    11
 73
     7
 74
     0
 42
0.00000001
 43
0.00000001
 40
0.0
 40
0.0
 40
0.0
 40
0.0
 40
0.2504877331241812
 40
0.4977261212757707
 40
0.7458640449708547
 40
0.9999999999999999
 40
0.9999999999999999
 40
0.9999999999999999
 40
0.9999999999999999
 10
271.7583509262728
 20
632.5262696692928
 30
0.0
 10
271.7583509262728
 20
632.542486801004
 30
0.0
 10
271.7583509262728
 20
632.574710694622
 30
0.0
 10
271.7583509262727
 20
632.6834862310228
 30
0.0
 10
271.7583509262729
 20
632.8223166619553
 30
0.0
 10
271.7583509262728
 20
632.92934412168
 30
0.0
 10
271.7583509262728
 20
632.9834968993648
 30
0.0
  0
LINE
  5
2E4
330
1F
100
AcDbEntity
  8
0
  6
Continuous
 62
     7
370
    15
100
AcDbLine
 10
271.7583509263
 20
632.9834968994
 30
0.0
 11
271.7583509263
 21
633.087462301
 31
0.0
  0
LINE
  5
2E5
330
1F
100
AcDbEntity
  8
0
  6
Continuous
 62
     7
370
    15
100
AcDbLine
 10
270.7515986737
 20
633.087462301
 30
0.0
 11
270.960542756
 21
632.8402371356
 31
0.0
  0
LINE
  5
2E6
330
1F
100
AcDbEntity
  8
0
  6
Continuous
 62
     7
370
    15
100
AcDbLine
 10
266.4819689568
 20
642.2254801939
 30
0.0
 11
266.4663525399
 21
642.6847190807
 31
0.0
  0
SPLINE
  5
2E7
330
1F
100
AcDbEntity
  8
0
  6
Continuous
 62
     7
370
    15
100
AcDbSpline
210
0.0
220
0.0
230
1.0
 70
     8
 71
     3
 72
    11
 73
     7
 74
     0
 42
0.00000001
 43
0.00000001
 40
0.0
 40
0.0
 40
0.0
 40
0.0
 40
0.1207578523566905
 40
0.4133920650957122
 40
0.7063559730788216
 40
1.0
 40
1.0
 40
1.0
 40
1.0
 10
268.5146363552736
 20
622.0620484302028
 30
0.0
 10
268.5245600160492
 20
621.9637476674491
 30
0.0
 10
268.5585318244348
 20
621.6272332750333
 30
0.0
 10
268.6058678525932
 20
621.1583294532519
 30
0.0
 10
268.6487560862587
 20
620.7335852025919
 30
0.0
 10
268.6563167673424
 20
620.6590452026826
 30
0.0
 10
268.660101490848
 20
620.6217319915279
 30
0.0
  0
LINE
  5
2E8
330
1F
100
AcDbEntity
  8
0
  6
Continuous
 62
     7
370
    15
100
AcDbLine
 10
272.2910376366
 20
672.087466831
 30
0.0
 11
271.9910474595
 21
672.087466831
 31
0.0
  0
LINE
  5
2E9
330
1F
100
AcDbEntity
  8
0
  6
Continuous
 62
     7
370
    15
100
AcDbLine
 10
271.9910474595
 20
671.0874648044
 30
0.0
 11
271.8910606679
 21
671.0874648044
 31
0.0
  0
LINE
  5
2EA
330
1F
100
AcDbEntity
  8
0
  6
Continuous
 62
     7
370
    15
100
AcDbLine
 10
271.8910606679
 20
665.0874675462
 30
0.0
 11
271.9910474595
 21
665.0874675462
 31
0.0
  0
LINE
  5
2EB
330
1F
100
AcDbEntity
  8
0
  6
Continuous
 62
     7
370
    15
100
AcDbLine
 10
271.9910474595
 20
648.0874628971
 30
0.0
 11
271.8910606679
 21
648.0874628971
 31
0.0
  0
LINE
  5
2EC
330
1F
100
AcDbEntity
  8
0
  6
Continuous
 62
     7
370
    15
100
AcDbLine
 10
271.8910606679
 20
642.0874656389
 30
0.0
 11
271.9910474595
 21
642.0874656389
 31
0.0
  0
LINE
  5
2ED
330
1F
100
AcDbEntity
  8
0
  6
Continuous
 62
     7
370
    15
100
AcDbLine
 10
272.2910376366
 20
616.087472553
 30
0.0
 11
272.2910376366
 21
611.0874624202
 31
0.0
  0
LINE
  5
2EE
330
1F
100
AcDbEntity
  8
0
  6
Continuous
 62
     7
370
    15
100
AcDbLine
 10
287.2910531338
 20
616.087472553
 30
0.0
 11
287.2910531338
 21
611.0874624202
 31
0.0
  0
LINE
  5
2EF
330
1F
100
AcDbEntity
  8
0
  6
Continuous
 62
     7
370
    15
100
AcDbLine
 10
272.2910376366
 20
611.0874624202
 30
0.0
 11
287.2910531338
 21
611.0874624202
 31
0.0
  0
LINE
  5
2F0
330
1F
100
AcDbEntity
  8
0
  6
Continuous
 62
     7
370
    15
100
AcDbLine
 10
272.2910376366
 20
616.087472553
 30
0.0
 11
287.2910531338
 21
616.087472553
 31
0.0
  0
ARC
  5
2F1
330
1F
100
AcDbEntity
  8
0
  6
Continuous
 62
     7
370
    15
100
AcDbCircle
 10
287.2910495576
 20
611.0874655673
 30
0.0
 40
15.0
100
AcDbArc
 50
180.0
 51
270.0
  0
LINE
  5
2F2
330
1F
100
AcDbEntity
  8
0
  6
Continuous
 62
     7
370
    15
100
AcDbLine
 10
287.2910531338
 20
596.0874618242
 30
0.0
 11
287.2910531338
 21
611.0874624202
 31
0.0
  0
LINE
  5
2F3
330
1F
100
AcDbEntity
  8
0
  6
Continuous
 62
     7
370
    15
100
AcDbLine
 10
857.2910459813
 20
616.087472553
 30
0.0
 11
857.2910459813
 21
611.0874624202
 31
0.0
  0
LINE
  5
2F4
330
1F
100
AcDbEntity
  8
0
  6
Continuous
 62
     7
370
    15
100
AcDbLine
 10
287.2910531338
 20
611.0874624202
 30
0.0
 11
857.2910459813
 21
611.0874624202
 31
0.0
  0
LINE
  5
2F5
330
1F
100
AcDbEntity
  8
0
  6
Continuous
 62
     7
370
    15
100
AcDbLine
 10
287.2910531338
 20
616.087472553
 30
0.0
 11
857.2910459813
 21
616.087472553
 31
0.0
  0
LINE
  5
2F6
330
1F
100
AcDbEntity
  8
0
  6
Continuous
 62
     7
370
    15
100
AcDbLine
 10
857.2910459813
 20
611.0874624202
 30
0.0
 11
857.2910459813
 21
596.0874618242
 31
0.0
  0
LINE
  5
2F7
330
1F
100
AcDbEntity
  8
0
  6
Continuous
 62
     7
370
    15
100
AcDbLine
 10
287.2910531338
 20
596.0874618242
 30
0.0
 11
857.2910459813
 21
596.0874618242
 31
0.0
  0
LINE
  5
2F8
330
1F
100
AcDbEntity
  8
0
  6
Continuous
 62
     7
370
    15
100
AcDbLine
 10
872.2910614785
 20
616.087472553
 30
0.0
 11
872.2910614785
 21
611.0874624202
 31
0.0
  0
LINE
  5
2F9
330
1F
100
AcDbEntity
  8
0
  6
Continuous
 62
     7
370
    15
100
AcDbLine
 10
872.2910614785
 20
611.0874624202
 30
0.0
 11
857.2910459813
 21
611.0874624202
 31
0.0
  0
LINE
  5
2FA
330
1F
100
AcDbEntity
  8
0
  6
Continuous
 62
     7
370
    15
100
AcDbLine
 10
872.2910614785
 20
616.087472553
 30
0.0
 11
857.2910459813
 21
616.087472553
 31
0.0
  0
ARC
  5
2FB
330
1F
100
AcDbEntity
  8
0
  6
Continuous
 62
     7
370
    15
100
AcDbCircle
 10
857.2910495576
 20
611.0874655673
 30
0.0
 40
15.0
100
AcDbArc
 50
270.0
 51
0.0
  0
LINE
  5
2FC
330
1F
100
AcDbEntity
  8
0
  6
Continuous
 62
     7
370
    15
100
AcDbLine
 10
271.0910471257
 20
612.0012612293
 30
0.0
 11
271.0910471257
 21
614.105230684
 31
0.0
  0
LINE
  5
2FD
330
1F
100
AcDbEntity
  8
0
  6
Continuous
 62
     7
370
    15
100
AcDbLine
 10
271.0910471257
 20
614.105230684
 30
0.0
 11
272.2910376366
 21
614.105230684
 31
0.0
  0
LINE
  5
2FE
330
1F
100
AcDbEntity
  8
0
  6
Continuous
 62
     7
370
    15
100
AcDbLine
 10
271.0910471257
 20
612.0012612293
 30
0.0
 11
272.2910376366
 21
612.0012612293
 31
0.0
  0
LINE
  5
2FF
330
1F
100
AcDbEntity
  8
0
  6
Continuous
 62
     7
370
    15
100
AcDbLine
 10
271.0910471257
 20
619.0874637315
 30
0.0
 11
272.2910376366
 21
619.0874637315
 31
0.0
  0
LINE
  5
300
330
1F
100
AcDbEntity
  8
0
  6
Continuous
 62
     7
370
    15
100
AcDbLine
 10
272.2910376366
 20
616.087472553
 30
0.0
 11
272.2910376366
 21
619.0874637315
 31
0.0
  0
LINE
  5
301
330
1F
100
AcDbEntity
  8
0
  6
Continuous
 62
     7
370
    15
100
AcDbLine
 10
271.0910471257
 20
619.0874637315
 30
0.0
 11
271.0910471257
 21
614.105230684
 31
0.0
  0
LINE
  5
302
330
1F
100
AcDbEntity
  8
0
  6
Continuous
 62
     7
370
    15
100
AcDbLine
 10
272.2910376366
 20
611.0874624202
 30
0.0
 11
272.2910376366
 21
607.5874627779
 31
0.0
  0
LINE
  5
303
330
1F
100
AcDbEntity
  8
0
  6
Continuous
 62
     7
370
    15
100
AcDbLine
 10
271.0910471257
 20
607.5874627779
 30
0.0
 11
271.0910471257
 21
612.0012612293
 31
0.0
  0
LINE
  5
304
330
1F
100
AcDbEntity
  8
0
  6
Continuous
 62
     7
370
    15
100
AcDbLine
 10
270.9910603341
 20
610.0874603937
 30
0.0
 11
270.9910603341
 21
616.087472553
 31
0.0
  0
LINE
  5
305
330
1F
100
AcDbEntity
  8
0
  6
Continuous
 62
     7
370
    15
100
AcDbLine
 10
264.2430694874
 20
620.2898682306
 30
0.0
 11
264.9735840138
 21
619.3378479431
 31
0.0
  0
LWPOLYLINE
  5
306
330
1F
100
AcDbEntity
  8
0
  6
Continuous
 62
     7
370
    15
100
AcDbPolyline
 90
        9
 70
   128
 43
0.0
 10
264.9735840138
 20
619.3378479431
 10
264.7878559407
 20
619.1953332374
 10
264.6092506226
 20
619.0583021591
 10
264.4446821984
 20
618.9319999168
 10
264.3004091557
 20
618.8212991903
 10
264.1820045289
 20
618.7304468105
 10
264.0940280732
 20
618.6629445503
 10
264.0398474511
 20
618.6213703105
 10
264.0215488251
 20
618.6073334167
  0
LINE
  5
307
330
1F
100
AcDbEntity
  8
0
  6
Continuous
 62
     7
370
    15
100
AcDbLine
 10
264.0215488251
 20
618.6073334167
 30
0.0
 11
263.2910641011
 21
619.5593537042
 31
0.0
  0
LWPOLYLINE
  5
308
330
1F
100
AcDbEntity
  8
0
  6
Continuous
 62
     7
370
    15
100
AcDbPolyline
 90
        9
 70
   128
 43
0.0
 10
263.2910641011
 20
619.5593537042
 10
263.3093329247
 20
619.5733905981
 10
263.3635135468
 20
619.6149648378
 10
263.4514900025
 20
619.6824819992
 10
263.5698946294
 20
619.7733194778
 10
263.714167672
 20
619.8840202043
 10
263.8787360963
 20
620.0103224466
 10
264.0573414143
 20
620.1473535249
 10
264.2430694874
 20
620.2898682306
  0
ARC
  5
309
330
1F
100
AcDbEntity
  8
0
  6
Continuous
 62
     7
370
    15
100
AcDbCircle
 10
269.4910495576
 20
620.7874655673
 30
0.0
 40
2.800000000000011
100
AcDbArc
 50
0.0
 51
45.4024529621
  0
LINE
  5
30A
330
1F
100
AcDbEntity
  8
0
  6
Continuous
 62
     7
370
    15
100
AcDbLine
 10
268.3833869275
 20
623.3590604017
 30
0.0
 11
267.7865060147
 21
623.0088533113
 31
0.0
  0
LINE
  5
30B
330
1F
100
AcDbEntity
  8
0
  6
Continuous
 62
     7
370
    15
100
AcDbLine
 10
264.9735840138
 20
619.3378479431
 30
0.0
 11
268.5170205411
 21
622.0568330238
 31
0.0
  0
LINE
  5
30C
330
1F
100
AcDbEntity
  8
0
  6
Continuous
 62
     7
370
    15
100
AcDbLine
 10
267.7865060147
 20
623.0088533113
 30
0.0
 11
264.2430694874
 21
620.2898682306
 31
0.0
  0
LINE
  5
30D
330
1F
100
AcDbEntity
  8
0
  6
Continuous
 62
     7
370
    15
100
AcDbLine
 10
272.2910376366
 20
619.0874637315
 30
0.0
 11
272.2910376366
 21
620.0874657581
 31
0.0
  0
LINE
  5
30E
330
1F
100
AcDbEntity
  8
0
  6
Continuous
 62
     7
370
    15
100
AcDbLine
 10
271.0910471257
 20
619.728407378
 30
0.0
 11
271.0910471257
 21
619.0874637315
 31
0.0
  0
ARC
  5
30F
330
1F
100
AcDbEntity
  8
0
  6
Continuous
 62
     7
370
    15
100
AcDbCircle
 10
267.3910495576
 20
636.1074655673
 30
0.0
 40
2.200000000000049
100
AcDbArc
 50
103.5934783353
 51
268.1042765976
  0
LINE
  5
310
330
1F
100
AcDbEntity
  8
0
  6
Continuous
 62
     7
370
    15
100
AcDbLine
 10
263.8442250069
 20
637.485227103
 30
0.0
 11
264.1778620061
 21
639.3774659584
 31
0.0
  0
LWPOLYLINE
  5
311
330
1F
100
AcDbEntity
  8
0
  6
Continuous
 62
     7
370
    15
100
AcDbPolyline
 90
        9
 70
   128
 43
0.0
 10
264.1778620061
 20
639.3774659584
 10
264.0336187657
 20
639.4029022405
 10
263.8965876874
 20
639.4270570228
 10
263.771477538
 20
639.4491256425
 10
263.6626394566
 20
639.4683183382
 10
263.5737987336
 20
639.4839794586
 10
263.5080846127
 20
639.495572562
 10
263.4677024659
 20
639.5026804159
 10
263.4540828046
 20
639.505094404
  0
LINE
  5
312
330
1F
100
AcDbEntity
  8
0
  6
Continuous
 62
     7
370
    15
100
AcDbLine
 10
263.4540828046
 20
639.505094404
 30
0.0
 11
267.8291233357
 21
664.3171967218
 31
0.0
  0
LWPOLYLINE
  5
313
330
1F
100
AcDbEntity
  8
0
  6
Continuous
 62
     7
370
    15
100
AcDbPolyline
 90
        9
 70
   128
 43
0.0
 10
267.8291233357
 20
664.3171967218
 10
267.8442629155
 20
664.3145294139
 10
267.8891154107
 20
664.3066168973
 10
267.9619224843
 20
664.2937869976
 10
268.059882718
 20
664.2765165517
 10
268.1792708214
 20
664.255461211
 10
268.3154972371
 20
664.2314405391
 10
268.4632869538
 20
664.2053784082
 10
268.6169775304
 20
664.178273196
  0
LINE
  5
314
330
1F
100
AcDbEntity
  8
0
  6
Continuous
 62
     7
370
    15
100
AcDbLine
 10
268.6169775304
 20
664.178273196
 30
0.0
 11
263.7916537102
 21
636.8124694774
 31
0.0
  0
LINE
  5
315
330
1F
100
AcDbEntity
  8
0
  6
Continuous
 62
     7
370
    15
100
AcDbLine
 10
263.7916537102
 20
636.8124694774
 30
0.0
 11
263.8442250069
 21
637.485227103
 31
0.0
  0
LWPOLYLINE
  5
316
330
1F
100
AcDbEntity
  8
0
  6
Continuous
 62
     7
370
    15
100
AcDbPolyline
 90
        5
 70
   128
 43
0.0
 10
266.6764291104
 20
671.2055267045
 10
266.4229603585
 20
671.9019324729
 10
266.2394078549
 20
672.4062473724
 10
266.1282749947
 20
672.7116019676
 10
266.0910518941
 20
672.8138537357
  0
LWPOLYLINE
  5
317
330
1F
100
AcDbEntity
  8
0
  6
Continuous
 62
     7
370
    15
100
AcDbPolyline
 90
        5
 70
   128
 43
0.0
 10
267.4360605057
 20
671.4575053403
 10
267.1792240914
 20
672.163179631
 10
266.9931979951
 20
672.6743043611
 10
266.8805154141
 20
672.9838163803
 10
266.8428154763
 20
673.0874688575
  0
LINE
  5
318
330
1F
100
AcDbEntity
  8
0
  6
Continuous
 62
     7
370
    15
100
AcDbLine
 10
267.6581474122
 20
671.1030663202
 30
0.0
 11
267.4360605057
 21
671.4575053403
 31
0.0
  0
LINE
  5
319
330
1F
100
AcDbEntity
  8
0
  6
Continuous
 62
     7
370
    15
100
AcDbLine
 10
267.575952607
 20
671.0731447885
 30
0.0
 11
267.6581474122
 21
671.1030663202
 31
0.0
  0
SPLINE
  5
31A
330
1F
100
AcDbEntity
  8
0
  6
Continuous
 62
     7
370
    15
100
AcDbSpline
210
0.0
220
0.0
230
1.0
 70
     8
 71
     3
 72
    12
 73
     8
 74
     0
 42
0.00000001
 43
0.00000001
 40
0.0
 40
0.0
 40
0.0
 40
0.0
 40
0.2510200584691638
 40
0.5023935466332026
 40
0.7402759140835328
 40
0.9473073476181907
 40
0.9999999999999999
 40
0.9999999999999999
 40
0.9999999999999999
 40
0.9999999999999999
 10
266.6764291104006
 20
671.2055267045482
 30
0.0
 10
266.7041457265156
 20
671.1612087163594
 30
0.0
 10
266.7596179830182
 20
671.0725103414105
 30
0.0
 10
266.9665904326957
 20
670.9975207198111
 30
0.0
 10
267.2279802339721
 20
670.9860141333979
 30
0.0
 10
267.4445632786742
 20
671.0276625398533
 30
0.0
 10
267.5537922956336
 20
671.0654736876171
 30
0.0
 10
267.5759526070284
 20
671.0731447885021
 30
0.0
  0
LINE
  5
31B
330
1F
100
AcDbEntity
  8
0
  6
Continuous
 62
     7
370
    15
100
AcDbLine
 10
267.575952607
 20
671.0731447885
 30
0.0
 11
268.1522997197
 21
669.4896579931
 31
0.0
  0
LWPOLYLINE
  5
31C
330
1F
100
AcDbEntity
  8
0
  6
Continuous
 62
     7
370
    15
100
AcDbPolyline
 90
        9
 70
   128
 43
0.0
 10
267.4005361375
 20
669.2160428712
 10
267.4149902638
 20
669.2213029811
 10
267.4577565964
 20
669.2368746946
 10
267.5272258099
 20
669.2621619651
 10
267.6207156953
 20
669.2961813161
 10
267.7346499737
 20
669.3376512477
 10
267.8646179017
 20
669.3849624345
 10
268.0056424912
 20
669.4362820337
 10
268.1522997197
 20
669.4896579931
  0
LINE
  5
31D
330
1F
100
AcDbEntity
  8
0
  6
Continuous
 62
     7
370
    15
100
AcDbLine
 10
267.4005361375
 20
669.2160428712
 30
0.0
 11
266.6764291104
 21
671.2055267045
 31
0.0
  0
ARC
  5
31E
330
1F
100
AcDbEntity
  8
0
  6
Continuous
 62
     7
370
    15
100
AcDbCircle
 10
267.9810550637
 20
642.2764564858
 30
0.0
 40
1.600000000000032
100
AcDbArc
 50
347.034367059
 51
204.5705045338
  0
ARC
  5
31F
330
1F
100
AcDbEntity
  8
0
  6
Continuous
 62
     7
370
    15
100
AcDbCircle
 10
268.4937640289
 20
670.2995304217
 30
0.0
 40
0.5000000000001137
100
AcDbArc
 50
36.8410865503
 51
90.0
  0
ARC
  5
320
330
1F
100
AcDbEntity
  8
0
  6
Continuous
 62
     7
370
    15
100
AcDbCircle
 10
261.2910495576
 20
664.9031516133
 30
0.0
 40
9.5
100
AcDbArc
 50
0.0
 51
36.8410865502
  0
LINE
  5
321
330
1F
100
AcDbEntity
  8
0
  6
Continuous
 62
     7
370
    15
100
AcDbLine
 10
270.7910569485
 20
664.9031550834
 30
0.0
 11
270.7910569485
 21
636.8774683425
 31
0.0
  0
ARC
  5
322
330
1F
100
AcDbEntity
  8
0
  6
Continuous
 62
     7
370
    15
100
AcDbCircle
 10
258.4734625171
 20
665.9668560356
 30
0.0
 40
10.3000000000002
100
AcDbArc
 50
350.0
 51
20.0
  0
ARC
  5
323
330
1F
100
AcDbEntity
  8
0
  6
Continuous
 62
     7
370
    15
100
AcDbCircle
 10
268.3757514833
 20
671.7995304217
 30
0.0
 40
1.0
100
AcDbArc
 50
224.1440002858
 51
270.0
  0
LINE
  5
324
330
1F
100
AcDbEntity
  8
0
  6
Continuous
 62
     7
370
    15
100
AcDbLine
 10
268.3757575329
 20
670.7995296667
 30
0.0
 11
268.4937747296
 21
670.7995296667
 31
0.0
  0
LWPOLYLINE
  5
325
330
1F
100
AcDbEntity
  8
0
  6
Continuous
 62
     7
370
    15
100
AcDbPolyline
 90
        3
 70
   128
 43
0.0
 10
270.7910569485
 20
636.8774683425
 10
270.5824406918
 20
635.6871784875
 10
270.226273137
 20
634.9710286806
  0
ARC
  5
326
330
1F
100
AcDbEntity
  8
0
  6
Continuous
 62
     7
370
    15
100
AcDbCircle
 10
267.2910495576
 20
636.8774655673
 30
0.0
 40
3.500000000000111
100
AcDbArc
 50
181.0639402281
 51
271.3221928089
  0
ARC
  5
327
330
1F
100
AcDbEntity
  8
0
  6
Continuous
 62
     7
370
    15
100
AcDbCircle
 10
258.4734625171
 20
665.9668560356
 30
0.0
 40
9.500000000000078
100
AcDbArc
 50
350.0
 51
20.0
  0
ARC
  5
328
330
1F
100
AcDbEntity
  8
0
  6
Continuous
 62
     7
370
    15
100
AcDbCircle
 10
267.8846673509
 20
637.5749610941
 30
0.0
 40
4.69842830268837
100
AcDbArc
 50
170.0
 51
264.3261771657
  0
LINE
  5
329
330
1F
100
AcDbEntity
  8
0
  6
Continuous
 62
     7
370
    15
100
AcDbLine
 10
263.4540828046
 20
639.505094404
 30
0.0
 11
263.2576258954
 21
638.3908302734
 31
0.0
  0
SPLINE
  5
32A
330
1F
100
AcDbEntity
  8
0
  6
Continuous
 62
     7
370
    15
100
AcDbSpline
210
0.0
220
0.0
230
1.0
 70
     8
 71
     3
 72
    12
 73
     8
 74
     0
 42
0.00000001
 43
0.00000001
 40
0.0
 40
0.0
 40
0.0
 40
0.0
 40
0.2340578646743021
 40
0.4681095995907884
 40
0.7021662525576917
 40
0.9362177186208106
 40
1.0
 40
1.0
 40
1.0
 40
1.0
 10
268.5880394753145
 20
637.7645791718944
 30
0.0
 10
268.3916408795862
 20
637.745200457537
 30
0.0
 10
267.9988488316259
 20
637.7064435363324
 30
0.0
 10
267.4613584556548
 20
637.7011865529131
 30
0.0
 10
267.0878509068593
 20
637.7396686281318
 30
0.0
 10
266.9086799303091
 20
637.7943308406931
 30
0.0
 10
266.9373728259397
 20
637.8382849102504
 30
0.0
 10
266.9435175236391
 20
637.8476978490337
 30
0.0
  0
SPLINE
  5
32B
330
1F
100
AcDbEntity
  8
0
  6
Continuous
 62
     7
370
    15
100
AcDbSpline
210
0.0
220
0.0
230
1.0
 70
     8
 71
     3
 72
    11
 73
     7
 74
     0
 42
0.00000001
 43
0.00000001
 40
0.0
 40
0.0
 40
0.0
 40
0.0
 40
0.1986884143722294
 40
0.4657846124457586
 40
0.7328995629828402
 40
1.0
 40
1.0
 40
1.0
 40
1.0
 10
269.8839338596987
 20
638.1434709975704
 30
0.0
 10
269.8827497813461
 20
638.1189778404847
 30
0.0
 10
269.8799739502626
 20
638.0615586109002
 30
0.0
 10
269.6104704170234
 20
637.9544756758828
 30
0.0
 10
269.1633936806995
 20
637.8436629691023
 30
0.0
 10
268.7798207368167
 20
637.7909399601722
 30
0.0
 10
268.5880394753145
 20
637.7645791718944
 30
0.0
  0
SPLINE
  5
32C
330
1F
100
AcDbEntity
  8
0
  6
Continuous
 62
     7
370
    15
100
AcDbSpline
210
0.0
220
0.0
230
1.0
 70
     8
 71
     3
 72
    12
 73
     8
 74
     0
 42
0.00000001
 43
0.00000001
 40
0.0
 40
0.0
 40
0.0
 40
0.0
 40
0.2339637986787812
 40
0.4679314099192302
 40
0.7018957118169417
 40
0.9358618348788783
 40
1.0
 40
1.0
 40
1.0
 40
1.0
 10
267.9810555752443
 20
643.7764526555522
 30
0.0
 10
267.7849765724645
 20
643.7539484612724
 30
0.0
 10
267.3928153716956
 20
643.7089397059954
 30
0.0
 10
266.8898628267045
 20
643.3614620201829
 30
0.0
 10
266.5700888652741
 20
642.8679532437726
 30
0.0
 10
266.4421123778682
 20
642.4143712643806
 30
0.0
 10
266.4999280784043
 20
642.1713809975473
 30
0.0
 10
266.5123673256563
 20
642.1191008040889
 30
0.0
  0
SPLINE
  5
32D
330
1F
100
AcDbEntity
  8
0
  6
Continuous
 62
     7
370
    15
100
AcDbSpline
210
0.0
220
0.0
230
1.0
 70
     8
 71
     3
 72
    11
 73
     7
 74
     0
 42
0.00000001
 43
0.00000001
 40
0.0
 40
0.0
 40
0.0
 40
0.0
 40
0.1976861585316498
 40
0.4651230364919047
 40
0.7325636972527094
 40
0.9999999999999999
 40
0.9999999999999999
 40
0.9999999999999999
 40
0.9999999999999999
 10
269.4512637432741
 20
642.4261690328104
 30
0.0
 10
269.4329821516794
 20
642.5709166970092
 30
0.0
 10
269.3899685716819
 20
642.9114841580664
 30
0.0
 10
269.0645326375412
 20
643.3612745378465
 30
0.0
 10
268.5712246750508
 20
643.7089865759647
 30
0.0
 10
268.1777775399509
 20
643.7539640845107
 30
0.0
 10
267.9810555752443
 20
643.7764526555522
 30
0.0
  0
SPLINE
  5
32E
330
1F
100
AcDbEntity
  8
0
  6
Continuous
 62
     7
370
    15
100
AcDbSpline
210
0.0
220
0.0
230
1.0
 70
     8
 71
     3
 72
    12
 73
     8
 74
     0
 42
0.00000001
 43
0.00000001
 40
0.0
 40
0.0
 40
0.0
 40
0.0
 40
0.2350075899205386
 40
0.4700315036605494
 40
0.7050497480180404
 40
0.9400627841620258
 40
1.0
 40
1.0
 40
1.0
 40
1.0
 10
270.1571019467043
 20
622.2236068198665
 30
0.0
 10
269.9607220575066
 20
622.2042288891167
 30
0.0
 10
269.5679486384034
 20
622.1654716816104
 30
0.0
 10
269.0303327542778
 20
622.1602052160758
 30
0.0
 10
268.6572595541166
 20
622.1987297993928
 30
0.0
 10
268.4782358775226
 20
622.2528519792643
 30
0.0
 10
268.5061355971392
 20
622.2961530027657
 30
0.0
 10
268.5118051346468
 20
622.3049522588237
 30
0.0
  0
SPLINE
  5
32F
330
1F
100
AcDbEntity
  8
0
  6
Continuous
 62
     7
370
    15
100
AcDbSpline
210
0.0
220
0.0
230
1.0
 70
     8
 71
     3
 72
    11
 73
     7
 74
     0
 42
0.00000001
 43
0.00000001
 40
0.0
 40
0.0
 40
0.0
 40
0.0
 40
0.1989241176137589
 40
0.465944990380075
 40
0.732968168308107
 40
1.0
 40
1.0
 40
1.0
 40
1.0
 10
271.4530559357332
 20
622.6026029536708
 30
0.0
 10
271.4518888127231
 20
622.5780768538557
 30
0.0
 10
271.4491550309864
 20
622.5206287501288
 30
0.0
 10
271.1795346149308
 20
622.4135080649811
 30
0.0
 10
270.7324768500329
 20
622.3026851958783
 30
0.0
 10
270.3488956529818
 20
622.2499665632859
 30
0.0
 10
270.1571019467043
 20
622.2236068198665
 30
0.0
  0
LINE
  5
330
330
1F
100
AcDbEntity
  8
0
  6
Continuous
 62
     7
370
    15
100
AcDbLine
 10
268.6801882561
 20
620.6211806486
 30
0.0
 11
268.6791749772
 21
620.8247156093
 31
0.0
  0
ARC
  5
331
330
1F
100
AcDbEntity
  8
0
  6
Continuous
 62
     7
370
    15
100
AcDbCircle
 10
271.3583372545
 20
632.5252325293
 30
0.0
 40
0.4000150162574163
100
AcDbArc
 50
0.1485539448
 51
179.5014058744
  0
ELLIPSE
  5
332
330
1F
100
AcDbEntity
  8
0
  6
Continuous
 62
     7
370
    15
100
AcDbEllipse
 10
271.3583489579
 20
632.2603571736
 30
0.0
 11
0.3991830274373456
 21
-0.02624604221148275
 31
0.0
210
0.0
220
0.0
230
1.0
 40
0.9763157485
 41
0.0
 42
6.283185307179586
  0
SPLINE
  5
333
330
1F
100
AcDbEntity
  8
0
  6
Continuous
 62
     7
370
    15
100
AcDbSpline
210
0.0
220
0.0
230
1.0
 70
     8
 71
     3
 72
    13
 73
     9
 74
     0
 42
0.00000001
 43
0.00000001
 40
0.0
 40
0.0
 40
0.0
 40
0.0
 40
0.008167739690015
 40
0.2391350261271738
 40
0.4711086260108783
 40
0.6931232956450747
 40
0.9042359312570555
 40
1.0
 40
1.0
 40
1.0
 40
1.0
 10
271.3583441551851
 20
632.9891891429409
 30
0.0
 10
271.3566852425702
 20
632.9887968778788
 30
0.0
 10
271.3081156105098
 20
632.9773121441071
 30
0.0
 10
271.2120086986496
 20
632.9540169489935
 30
0.0
 10
271.0891615219734
 20
632.9104067367302
 30
0.0
 10
271.0035218116554
 20
632.8729561690616
 30
0.0
 10
270.9595158942096
 20
632.8517944747076
 30
0.0
 10
270.9627289400594
 20
632.8468246222903
 30
0.0
 10
270.9637316044496
 20
632.8452737281306
 30
0.0
  0
SPLINE
  5
334
330
1F
100
AcDbEntity
  8
0
  6
Continuous
 62
     7
370
    15
100
AcDbSpline
210
0.0
220
0.0
230
1.0
 70
     8
 71
     3
 72
    13
 73
     9
 74
     0
 42
0.00000001
 43
0.00000001
 40
0.0
 40
0.0
 40
0.0
 40
0.0
 40
0.1252281716953725
 40
0.2499808634145237
 40
0.4999695310349077
 40
0.7500005780999462
 40
0.8747329118276171
 40
1.0
 40
1.0
 40
1.0
 40
1.0
 10
271.7583509262728
 20
632.9834968993648
 30
0.0
 10
271.7566444447355
 20
632.9835188964512
 30
0.0
 10
271.7532379610161
 20
632.9835628071035
 30
0.0
 10
271.7188205711196
 20
632.9840747656614
 30
0.0
 10
271.6435953234144
 20
632.985123856928
 30
0.0
 10
271.5349116348127
 20
632.98668101996
 30
0.0
 10
271.4362020940738
 20
632.988077362957
 30
0.0
 10
271.3843337839793
 20
632.9888180215178
 30
0.0
 10
271.3583441551851
 20
632.9891891429409
 30
0.0
  0
SPLINE
  5
335
330
1F
100
AcDbEntity
  8
0
  6
Continuous
 62
     7
370
    15
100
AcDbSpline
210
0.0
220
0.0
230
1.0
 70
     8
 71
     3
 72
    10
 73
     6
 74
     0
 42
0.00000001
 43
0.00000001
 40
0.0
 40
0.0
 40
0.0
 40
0.0
 40
0.0190723000344614
 40
0.5253559500583788
 40
1.0
 40
1.0
 40
1.0
 40
1.0
 10
271.3583441551851
 20
632.9891891429409
 30
0.0
 10
271.3598734678924
 20
632.9899293275186
 30
0.0
 10
271.4019991438114
 20
633.0103180782891
 30
0.0
 10
271.4845231888089
 20
633.0487220535541
 30
0.0
 10
271.5546798252421
 20
633.0748295826673
 30
0.0
 10
271.5886267002749
 20
633.0874623010143
 30
0.0
  0
LINE
  5
336
330
1F
100
AcDbEntity
  8
0
  6
Continuous
 62
     7
370
    15
100
AcDbLine
 10
266.4818199452
 20
642.2284306238
 30
0.0
 11
266.494277316
 21
642.0776606748
 31
0.0
  0
LINE
  5
337
330
1F
100
AcDbEntity
  8
0
  6
Continuous
 62
     7
370
    15
100
AcDbLine
 10
269.4740625199
 20
642.4211622426
 30
0.0
 11
269.438478547
 21
642.6313282201
 31
0.0
  0
LINE
  5
338
330
1F
100
AcDbEntity
  8
0
  6
Continuous
 62
     7
370
    15
100
AcDbLine
 10
287.2910531338
 20
831.0874658847
 30
0.0
 11
287.2910531338
 21
846.0874655495
 31
0.0
  0
LINE
  5
339
330
1F
100
AcDbEntity
  8
0
  6
Continuous
 62
     7
370
    15
100
AcDbLine
 10
287.2910531338
 20
831.0874658847
 30
0.0
 11
272.2910376366
 21
831.0874658847
 31
0.0
  0
ARC
  5
33A
330
1F
100
AcDbEntity
  8
0
  6
Continuous
 62
     7
370
    15
100
AcDbCircle
 10
287.2910495576
 20
831.0874655673
 30
0.0
 40
15.0
100
AcDbArc
 50
90.0
 51
180.0
  0
LINE
  5
33B
330
1F
100
AcDbEntity
  8
0
  6
Continuous
 62
     7
370
    15
100
AcDbLine
 10
857.2910459813
 20
831.0874658847
 30
0.0
 11
857.2910459813
 21
846.0874655495
 31
0.0
  0
LINE
  5
33C
330
1F
100
AcDbEntity
  8
0
  6
Continuous
 62
     7
370
    15
100
AcDbLine
 10
857.2910459813
 20
831.0874658847
 30
0.0
 11
287.2910531338
 21
831.0874658847
 31
0.0
  0
LINE
  5
33D
330
1F
100
AcDbEntity
  8
0
  6
Continuous
 62
     7
370
    15
100
AcDbLine
 10
857.2910459813
 20
846.0874655495
 30
0.0
 11
287.2910531338
 21
846.0874655495
 31
0.0
  0
LINE
  5
33E
330
1F
100
AcDbEntity
  8
0
  6
Continuous
 62
     7
370
    15
100
AcDbLine
 10
857.2910459813
 20
831.0874658847
 30
0.0
 11
872.2910614785
 21
831.0874658847
 31
0.0
  0
ARC
  5
33F
330
1F
100
AcDbEntity
  8
0
  6
Continuous
 62
     7
370
    15
100
AcDbCircle
 10
857.2910495576
 20
831.0874655673
 30
0.0
 40
15.0
100
AcDbArc
 50
0.0
 51
90.0
  0
LINE
  5
340
330
1F
100
AcDbEntity
  8
0
  6
Continuous
 62
     7
370
    15
100
AcDbLine
 10
287.2910531338
 20
620.0874657581
 30
0.0
 11
287.2910531338
 21
831.0874658847
 31
0.0
  0
LINE
  5
341
330
1F
100
AcDbEntity
  8
0
  6
Continuous
 62
     7
370
    15
100
AcDbLine
 10
287.2910531338
 20
620.0874657581
 30
0.0
 11
272.2910376366
 21
620.0874657581
 31
0.0
  0
LINE
  5
342
330
1F
100
AcDbEntity
  8
0
  6
Continuous
 62
     7
370
    15
100
AcDbLine
 10
272.2910376366
 20
620.0874657581
 30
0.0
 11
272.2910376366
 21
831.0874658847
 31
0.0
  0
LINE
  5
343
330
1F
100
AcDbEntity
  8
0
  6
Continuous
 62
     7
370
    15
100
AcDbLine
 10
857.2910459813
 20
620.0874657581
 30
0.0
 11
857.2910459813
 21
831.0874658847
 31
0.0
  0
LINE
  5
344
330
1F
100
AcDbEntity
  8
0
  6
Continuous
 62
     7
370
    15
100
AcDbLine
 10
857.2910459813
 20
620.0874657581
 30
0.0
 11
287.2910531338
 21
620.0874657581
 31
0.0
  0
LINE
  5
345
330
1F
100
AcDbEntity
  8
0
  6
Continuous
 62
     7
370
    15
100
AcDbLine
 10
292.2910483655
 20
640.0874615858
 30
0.0
 11
852.2910507497
 21
640.0874615858
 31
0.0
  0
LINE
  5
346
330
1F
100
AcDbEntity
  8
0
  6
Continuous
 62
     7
370
    15
100
AcDbLine
 10
292.2910483655
 20
640.0874615858
 30
0.0
 11
292.2910483655
 21
826.0874659965
 31
0.0
  0
LINE
  5
347
330
1F
100
AcDbEntity
  8
0
  6
Continuous
 62
     7
370
    15
100
AcDbLine
 10
852.2910507497
 20
826.0874659965
 30
0.0
 11
292.2910483655
 21
826.0874659965
 31
0.0
  0
LINE
  5
348
330
1F
100
AcDbEntity
  8
0
  6
Continuous
 62
     7
370
    15
100
AcDbLine
 10
852.2910507497
 20
826.0874659965
 30
0.0
 11
852.2910507497
 21
640.0874615858
 31
0.0
  0
LINE
  5
349
330
1F
100
AcDbEntity
  8
0
  6
Continuous
 62
     7
370
    15
100
AcDbLine
 10
872.2910614785
 20
620.0874657581
 30
0.0
 11
872.2910614785
 21
831.0874658847
 31
0.0
  0
LINE
  5
34A
330
1F
100
AcDbEntity
  8
0
  6
Continuous
 62
     7
370
    15
100
AcDbLine
 10
872.2910614785
 20
620.0874657581
 30
0.0
 11
857.2910459813
 21
620.0874657581
 31
0.0
  0
LINE
  5
34B
330
1F
100
AcDbEntity
  8
0
  6
Continuous
 62
     7
370
    15
100
AcDbLine
 10
292.2910483655
 20
616.087472553
 30
0.0
 11
292.2910483655
 21
620.0874657581
 31
0.0
  0
LINE
  5
34C
330
1F
100
AcDbEntity
  8
0
  6
Continuous
 62
     7
370
    15
100
AcDbLine
 10
277.2910626706
 20
616.087472553
 30
0.0
 11
277.2910626706
 21
620.0874657581
 31
0.0
  0
LINE
  5
34D
330
1F
100
AcDbEntity
  8
0
  6
Continuous
 62
     7
370
    15
100
AcDbLine
 10
867.2910364445
 20
616.087472553
 30
0.0
 11
867.2910364445
 21
620.0874657581
 31
0.0
  0
LINE
  5
34E
330
1F
100
AcDbEntity
  8
0
  6
Continuous
 62
     7
370
    15
100
AcDbLine
 10
852.2910507497
 20
616.087472553
 30
0.0
 11
852.2910507497
 21
620.0874657581
 31
0.0
  0
LINE
  5
34F
330
1F
100
AcDbEntity
  8
0
  6
Continuous
 62
     7
370
    15
100
AcDbLine
 10
872.2910614785
 20
620.0874657581
 30
0.0
 11
872.9583652791
 21
620.0874657581
 31
0.0
  0
ARC
  5
350
330
1F
100
AcDbEntity
  8
0
  6
Continuous
 62
     7
370
    15
100
AcDbCircle
 10
878.2910495576
 20
617.8374655673
 30
0.0
 40
5.500000000000115
100
AcDbArc
 50
202.024312837
 51
152.720387264
  0
ARC
  5
351
330
1F
100
AcDbEntity
  8
0
  6
Continuous
 62
     7
370
    15
100
AcDbCircle
 10
872.9583673056
 20
620.5874655673
 30
0.0
 40
0.5
100
AcDbArc
 50
270.0
 51
332.720387264
  0
ARC
  5
352
330
1F
100
AcDbEntity
  8
0
  6
Continuous
 62
     7
370
    15
100
AcDbCircle
 10
872.7289006922
 20
615.5874655673
 30
0.0
 40
0.5000000000001137
100
AcDbArc
 50
22.024312837
 51
90.0
  0
LINE
  5
353
330
1F
100
AcDbEntity
  8
0
  6
Continuous
 62
     7
370
    15
100
AcDbLine
 10
872.7288873967
 20
616.087472553
 30
0.0
 11
872.2910614785
 21
616.087472553
 31
0.0
  0
LINE
  5
354
330
1F
100
AcDbEntity
  8
0
  6
Continuous
 62
     7
370
    15
100
AcDbLine
 10
271.9910474595
 20
639.2874629447
 30
0.0
 11
272.2910376366
 21
639.2885209272
 31
0.0
  0
LINE
  5
355
330
1F
100
AcDbEntity
  8
0
  6
Continuous
 62
     7
370
    15
100
AcDbLine
 10
272.2910376366
 20
641.2874669979
 30
0.0
 11
271.9910474595
 21
641.2874669979
 31
0.0
  0
LINE
  5
356
330
1F
100
AcDbEntity
  8
0
  6
Continuous
 62
     7
370
    15
100
AcDbLine
 10
271.9910474595
 20
639.2874629447
 30
0.0
 11
271.9910474595
 21
641.2874669979
 31
0.0
  0
LINE
  5
357
330
1F
100
AcDbEntity
  8
0
  6
Continuous
 62
     7
370
    15
100
AcDbLine
 10
271.9910474595
 20
633.087462301
 30
0.0
 11
271.9910474595
 21
639.2874629447
 31
0.0
  0
LINE
  5
358
330
1F
100
AcDbEntity
  8
0
  6
Continuous
 62
     7
370
    15
100
AcDbLine
 10
272.2910376366
 20
633.087462301
 30
0.0
 11
271.9910474595
 21
633.087462301
 31
0.0
  0
ARC
  5
359
330
1F
100
AcDbEntity
  8
0
  6
Continuous
 62
     7
370
    15
100
AcDbCircle
 10
267.0910495576
 20
636.1874655673
 30
0.0
 40
3.099999999999981
100
AcDbArc
 50
192.3148957395
 51
270.0
  0
LINE
  5
35A
330
1F
100
AcDbEntity
  8
0
  6
Continuous
 62
     7
370
    15
100
AcDbLine
 10
271.9910474595
 20
639.2874629447
 30
0.0
 11
270.7910569485
 21
639.2874629447
 31
0.0
  0
LINE
  5
35B
330
1F
100
AcDbEntity
  8
0
  6
Continuous
 62
     7
370
    15
100
AcDbLine
 10
267.0910390195
 20
633.087462301
 30
0.0
 11
267.4011917885
 21
633.087462301
 31
0.0
  0
LINE
  5
35C
330
1F
100
AcDbEntity
  8
0
  6
Continuous
 62
     7
370
    15
100
AcDbLine
 10
270.4164417561
 20
633.087462301
 30
0.0
 11
271.9910474595
 21
633.087462301
 31
0.0
  0
LINE
  5
35D
330
1F
100
AcDbEntity
  8
0
  6
Continuous
 62
     7
370
    15
100
AcDbLine
 10
271.9910474595
 20
672.087466831
 30
0.0
 11
271.9910474595
 21
665.3374643276
 31
0.0
  0
LINE
  5
35E
330
1F
100
AcDbEntity
  8
0
  6
Continuous
 62
     7
370
    15
100
AcDbLine
 10
271.9910474595
 20
641.2874669979
 30
0.0
 11
271.9910474595
 21
665.3374643276
 31
0.0
  0
LINE
  5
35F
330
1F
100
AcDbEntity
  8
0
  6
Continuous
 62
     7
370
    15
100
AcDbLine
 10
271.8910606679
 20
665.0874675462
 30
0.0
 11
271.8910606679
 21
671.0874648044
 31
0.0
  0
LINE
  5
360
330
1F
100
AcDbEntity
  8
0
  6
Continuous
 62
     7
370
    15
100
AcDbLine
 10
271.8910606679
 20
642.0874656389
 30
0.0
 11
271.8910606679
 21
648.0874628971
 31
0.0
  0
LINE
  5
361
330
1F
100
AcDbEntity
  8
0
  6
Continuous
 62
     7
370
    15
100
AcDbLine
 10
271.9910474595
 20
656.0874642084
 30
0.0
 11
270.7910569485
 21
656.4090014646
 31
0.0
  0
LINE
  5
362
330
1F
100
AcDbEntity
  8
0
  6
Continuous
 62
     7
370
    15
100
AcDbLine
 10
270.7910569485
 20
657.4442745397
 30
0.0
 11
271.9910474595
 21
657.1227372835
 31
0.0
  0
LINE
  5
363
330
1F
100
AcDbEntity
  8
0
  6
Continuous
 62
     8
370
    15
100
AcDbLine
 10
272.2910376366
 20
665.3374643276
 30
0.0
 11
271.9910474595
 21
665.3374643276
 31
0.0
  0
ENDSEC
  0
SECTION
  2
OBJECTS
  0
DICTIONARY
  5
C
330
0
100
AcDbDictionary
281
     1
  3
ACAD_GROUP
350
D
  3
ACAD_LAYOUT
350
1A
  3
ACAD_MLINESTYLE
350
17
  3
ACAD_PLOTSETTINGS
350
19
  3
ACAD_PLOTSTYLENAME
350
E
  0
DICTIONARY
  5
D
102
{ACAD_REACTORS
330
C
102
}
330
C
100
AcDbDictionary
281
     1
  0
DICTIONARY
  5
1A
102
{ACAD_REACTORS
330
C
102
}
330
C
100
AcDbDictionary
281
     1
  3
Layout1
350
1E
  3
Layout2
350
26
  3
Model
350
22
  0
DICTIONARY
  5
17
102
{ACAD_REACTORS
330
C
102
}
330
C
100
AcDbDictionary
281
     1
  3
Standard
350
18
  0
DICTIONARY
  5
19
102
{ACAD_REACTORS
330
C
102
}
330
C
100
AcDbDictionary
281
     1
  0
ACDBDICTIONARYWDFLT
  5
E
102
{ACAD_REACTORS
330
C
102
}
330
C
100
AcDbDictionary
281
     1
  3
Normal
350
F
100
AcDbDictionaryWithDefault
340
F
  0
LAYOUT
  5
1E
102
{ACAD_REACTORS
330
1A
102
}
330
1A
100
AcDbPlotSettings
  1

  2
none_device
  4

  6

 40
0.0
 41
0.0
 42
0.0
 43
0.0
 44
0.0
 45
0.0
 46
0.0
 47
0.0
 48
0.0
 49
0.0
140
0.0
141
0.0
142
1.0
143
1.0
 70
   688
 72
     0
 73
     0
 74
     5
  7

 75
    16
147
1.0
148
0.0
149
0.0
100
AcDbLayout
  1
Layout1
 70
     1
 71
     1
 10
0.0
 20
0.0
 11
420.0
 21
297.0
 12
0.0
 22
0.0
 32
0.0
 14
1.0000000000E+20
 24
1.0000000000E+20
 34
1.0000000000E+20
 15
-1.0000000000E+20
 25
-1.0000000000E+20
 35
-1.0000000000E+20
146
0.0
 13
0.0
 23
0.0
 33
0.0
 16
1.0
 26
0.0
 36
0.0
 17
0.0
 27
1.0
 37
0.0
 76
     0
330
1B
  0
LAYOUT
  5
26
102
{ACAD_REACTORS
330
1A
102
}
330
1A
100
AcDbPlotSettings
  1

  2
none_device
  4

  6

 40
0.0
 41
0.0
 42
0.0
 43
0.0
 44
0.0
 45
0.0
 46
0.0
 47
0.0
 48
0.0
 49
0.0
140
0.0
141
0.0
142
1.0
143
1.0
 70
   688
 72
     0
 73
     0
 74
     5
  7

 75
    16
147
1.0
148
0.0
149
0.0
100
AcDbLayout
  1
Layout2
 70
     1
 71
     2
 10
0.0
 20
0.0
 11
0.0
 21
0.0
 12
0.0
 22
0.0
 32
0.0
 14
0.0
 24
0.0
 34
0.0
 15
0.0
 25
0.0
 35
0.0
146
0.0
 13
0.0
 23
0.0
 33
0.0
 16
1.0
 26
0.0
 36
0.0
 17
0.0
 27
1.0
 37
0.0
 76
     0
330
23
  0
LAYOUT
  5
22
102
{ACAD_REACTORS
330
1A
102
}
330
1A
100
AcDbPlotSettings
  1

  2
none_device
  4

  6

 40
0.0
 41
0.0
 42
0.0
 43
0.0
 44
0.0
 45
0.0
 46
0.0
 47
0.0
 48
0.0
 49
0.0
140
0.0
141
0.0
142
1.0
143
1.0
 70
  1712
 72
     0
 73
     0
 74
     0
  7

 75
     0
147
1.0
148
0.0
149
0.0
100
AcDbLayout
  1
Model
 70
     1
 71
     0
 10
0.0
 20
0.0
 11
840.0
 21
594.0
 12
0.0
 22
0.0
 32
0.0
 14
0.0
 24
0.0
 34
0.0
 15
840.0
 25
594.0
 35
0.0
146
0.0
 13
0.0
 23
0.0
 33
0.0
 16
1.0
 26
0.0
 36
0.0
 17
0.0
 27
1.0
 37
0.0
 76
     0
330
1F
331
29
  0
MLINESTYLE
  5
18
102
{ACAD_REACTORS
330
17
102
}
330
17
100
AcDbMlineStyle
  2
Standard
 70
     0
  3

 62
   256
 51
90.0
 52
90.0
 71
     2
 49
0.5
 62
   256
  6
BYLAYER
 49
-0.5
 62
   256
  6
BYLAYER
  0
ACDBPLACEHOLDER
  5
F
102
{ACAD_REACTORS
330
E
102
}
330
E
  0
ENDSEC
  0
EOF
