  0
SECTION
  2
HEADER
  9
$ACADVER
  1
AC1015
  9
$ACADMAINTVER
 70
     6
  9
$DWGCODEPAGE
  3
DOS932
  9
$INSBASE
 10
0.0
 20
0.0
 30
0.0
  9
$EXTMIN
 10
0.0
 20
0.0
 30
0.0
  9
$EXTMAX
 10
840.0
 20
594.0
 30
0.0
  9
$LIMMIN
 10
0.0
 20
0.0
  9
$LIMMAX
 10
840.0
 20
594.0
  9
$ORTHOMODE
 70
     0
  9
$REGENMODE
 70
     1
  9
$FILLMODE
 70
     1
  9
$QTEXTMODE
 70
     0
  9
$MIRRTEXT
 70
     1
  9
$LTSCALE
 40
2.0
  9
$ATTMODE
 70
     1
  9
$TEXTSIZE
 40
7.0
  9
$TRACEWID
 40
1.0
  9
$TEXTSTYLE
  7
Standard
  9
$CLAYER
  8
0
  9
$CELTYPE
  6
ByLayer
  9
$CECOLOR
 62
   256
  9
$CELTSCALE
 40
1.0
  9
$DISPSILH
 70
     0
  9
$DIMSCALE
 40
1.0
  9
$DIMASZ
 40
6.0
  9
$DIMEXO
 40
2.0
  9
$DIMDLI
 40
3.75
  9
$DIMRND
 40
0.0
  9
$DIMDLE
 40
0.0
  9
$DIMEXE
 40
2.0
  9
$DIMTP
 40
0.0
  9
$DIMTM
 40
0.0
  9
$DIMTXT
 40
7.0
  9
$DIMCEN
 40
2.5
  9
$DIMTSZ
 40
0.0
  9
$DIMTOL
 70
     0
  9
$DIMLIM
 70
     0
  9
$DIMTIH
 70
     1
  9
$DIMTOH
 70
     1
  9
$DIMSE1
 70
     0
  9
$DIMSE2
 70
     0
  9
$DIMTAD
 70
     1
  9
$DIMZIN
 70
     0
  9
$DIMBLK
  1

  9
$DIMASO
 70
     1
  9
$DIMSHO
 70
     1
  9
$DIMPOST
  1

  9
$DIMAPOST
  1

  9
$DIMALT
 70
     0
  9
$DIMALTD
 70
     3
  9
$DIMALTF
 40
0.0393700787
  9
$DIMLFAC
 40
1.0
  9
$DIMTOFL
 70
     1
  9
$DIMTVP
 40
0.0
  9
$DIMTIX
 70
     0
  9
$DIMSOXD
 70
     0
  9
$DIMSAH
 70
     0
  9
$DIMBLK1
  1

  9
$DIMBLK2
  1

  9
$DIMSTYLE
  2
ISO-25
  9
$DIMCLRD
 70
     0
  9
$DIMCLRE
 70
     0
  9
$DIMCLRT
 70
     0
  9
$DIMTFAC
 40
1.0
  9
$DIMGAP
 40
3.048
  9
$DIMJUST
 70
     0
  9
$DIMSD1
 70
     0
  9
$DIMSD2
 70
     0
  9
$DIMTOLJ
 70
     0
  9
$DIMTZIN
 70
     0
  9
$DIMALTZ
 70
     0
  9
$DIMALTTZ
 70
     0
  9
$DIMUPT
 70
     0
  9
$DIMDEC
 70
     1
  9
$DIMTDEC
 70
     1
  9
$DIMALTU
 70
     2
  9
$DIMALTTD
 70
     3
  9
$DIMTXSTY
  7
Standard
  9
$DIMAUNIT
 70
     0
  9
$DIMADEC
 70
     2
  9
$DIMALTRND
 40
0.0
  9
$DIMAZIN
 70
     0
  9
$DIMDSEP
 70
    44
  9
$DIMATFIT
 70
     3
  9
$DIMFRAC
 70
     0
  9
$DIMLDRBLK
  1

  9
$DIMLUNIT
 70
     2
  9
$DIMLWD
 70
    -2
  9
$DIMLWE
 70
    -2
  9
$DIMTMOVE
 70
     0
  9
$LUNITS
 70
     2
  9
$LUPREC
 70
     1
  9
$SKETCHINC
 40
1.0
  9
$FILLETRAD
 40
10.0
  9
$AUNITS
 70
     0
  9
$AUPREC
 70
     2
  9
$MENU
  1
.
  9
$ELEVATION
 40
0.0
  9
$PELEVATION
 40
0.0
  9
$THICKNESS
 40
0.0
  9
$LIMCHECK
 70
     0
  9
$CHAMFERA
 40
10.0
  9
$CHAMFERB
 40
10.0
  9
$CHAMFERC
 40
20.0
  9
$CHAMFERD
 40
0.0
  9
$SKPOLY
 70
     0
  9
$TDCREATE
 40
2460452.688216493
  9
$TDUCREATE
 40
2460452.313216493
  9
$TDUPDATE
 40
2460452.688216505
  9
$TDUUPDATE
 40
2460452.313216505
  9
$TDINDWG
 40
0.0000000116
  9
$TDUSRTIMER
 40
0.0000000116
  9
$USRTIMER
 70
     1
  9
$ANGBASE
 50
0.0
  9
$ANGDIR
 70
     0
  9
$PDMODE
 70
     0
  9
$PDSIZE
 40
-1.0
  9
$PLINEWID
 40
0.0
  9
$SPLFRAME
 70
     0
  9
$SPLINETYPE
 70
     6
  9
$SPLINESEGS
 70
     8
  9
$HANDSEED
  5
364
  9
$SURFTAB1
 70
     6
  9
$SURFTAB2
 70
     6
  9
$SURFTYPE
 70
     6
  9
$SURFU
 70
     6
  9
$SURFV
 70
     6
  9
$UCSBASE
  2

  9
$UCSNAME
  2

  9
$UCSORG
 10
0.0
 20
0.0
 30
0.0
  9
$UCSXDIR
 10
1.0
 20
0.0
 30
0.0
  9
$UCSYDIR
 10
0.0
 20
1.0
 30
0.0
  9
$UCSORTHOREF
  2

  9
$UCSORTHOVIEW
 70
     0
  9
$UCSORGTOP
 10
0.0
 20
0.0
 30
0.0
  9
$UCSORGBOTTOM
 10
0.0
 20
0.0
 30
0.0
  9
$UCSORGLEFT
 10
0.0
 20
0.0
 30
0.0
  9
$UCSORGRIGHT
 10
0.0
 20
0.0
 30
0.0
  9
$UCSORGFRONT
 10
0.0
 20
0.0
 30
0.0
  9
$UCSORGBACK
 10
0.0
 20
0.0
 30
0.0
  9
$PUCSBASE
  2

  9
$PUCSNAME
  2

  9
$PUCSORG
 10
0.0
 20
0.0
 30
0.0
  9
$PUCSXDIR
 10
1.0
 20
0.0
 30
0.0
  9
$PUCSYDIR
 10
0.0
 20
1.0
 30
0.0
  9
$PUCSORTHOREF
  2

  9
$PUCSORTHOVIEW
 70
     0
  9
$PUCSORGTOP
 10
0.0
 20
0.0
 30
0.0
  9
$PUCSORGBOTTOM
 10
0.0
 20
0.0
 30
0.0
  9
$PUCSORGLEFT
 10
0.0
 20
0.0
 30
0.0
  9
$PUCSORGRIGHT
 10
0.0
 20
0.0
 30
0.0
  9
$PUCSORGFRONT
 10
0.0
 20
0.0
 30
0.0
  9
$PUCSORGBACK
 10
0.0
 20
0.0
 30
0.0
  9
$USERI1
 70
     0
  9
$USERI2
 70
     0
  9
$USERI3
 70
     0
  9
$USERI4
 70
     0
  9
$USERI5
 70
     0
  9
$USERR1
 40
0.0
  9
$USERR2
 40
0.0
  9
$USERR3
 40
0.0
  9
$USERR4
 40
0.0
  9
$USERR5
 40
0.0
  9
$WORLDVIEW
 70
     1
  9
$SHADEDGE
 70
     3
  9
$SHADEDIF
 70
    70
  9
$TILEMODE
 70
     1
  9
$MAXACTVP
 70
    64
  9
$PINSBASE
 10
0.0
 20
0.0
 30
0.0
  9
$PLIMCHECK
 70
     0
  9
$PEXTMIN
 10
1.0000000000E+20
 20
1.0000000000E+20
 30
1.0000000000E+20
  9
$PEXTMAX
 10
-1.0000000000E+20
 20
-1.0000000000E+20
 30
-1.0000000000E+20
  9
$PLIMMIN
 10
0.0
 20
0.0
  9
$PLIMMAX
 10
420.0
 20
297.0
  9
$UNITMODE
 70
     0
  9
$VISRETAIN
 70
     1
  9
$PLINEGEN
 70
     0
  9
$PSLTSCALE
 70
     1
  9
$TREEDEPTH
 70
  3020
  9
$CMLSTYLE
  2
Standard
  9
$CMLJUST
 70
     0
  9
$CMLSCALE
 40
20.0
  9
$PROXYGRAPHICS
 70
     1
  9
$MEASUREMENT
 70
     1
  9
$CELWEIGHT
370
    -1
  9
$ENDCAPS
280
     0
  9
$JOINSTYLE
280
     0
  9
$LWDISPLAY
290
     1
  9
$INSUNITS
 70
     4
  9
$HYPERLINKBASE
  1

  9
$STYLESHEET
  1

  9
$XEDIT
290
     1
  9
$CEPSNTYPE
380
     0
  9
$PSTYLEMODE
290
     1
  9
$FINGERPRINTGUID
  2
{6F2FDBA8-041B-4939-8D7D-E00C7654EFC5}
  9
$VERSIONGUID
  2
{FAEB1C32-E019-11D5-929B-00C0DF256EC4}
  9
$EXTNAMES
290
     1
  9
$PSVPSCALE
 40
0.0
  9
$OLESTARTUP
290
     0
  0
ENDSEC
  0
SECTION
  2
CLASSES
  0
CLASS
  1
ACDBDICTIONARYWDFLT
  2
AcDbDictionaryWithDefault
  3
ObjectDBX Classes
 90
        0
280
     0
281
     0
  0
CLASS
  1
VISUALSTYLE
  2
AcDbVisualStyle
  3
ObjectDBX Classes
 90
     4095
280
     0
281
     0
  0
CLASS
  1
MATERIAL
  2
AcDbMaterial
  3
ObjectDBX Classes
 90
     1153
280
     0
281
     0
  0
CLASS
  1
ACDBPLACEHOLDER
  2
AcDbPlaceHolder
  3
ObjectDBX Classes
 90
        0
280
     0
281
     0
  0
CLASS
  1
LAYOUT
  2
AcDbLayout
  3
ObjectDBX Classes
 90
        0
280
     0
281
     0
  0
ENDSEC
  0
SECTION
  2
TABLES
  0
TABLE
  2
VPORT
  5
8
330
0
100
AcDbSymbolTable
 70
     1
  0
VPORT
  5
29
330
8
100
AcDbSymbolTableRecord
100
AcDbViewportTableRecord
  2
*Active
 70
     0
 10
0.0
 20
0.0
 11
1.0
 21
1.0
 12
420.0
 22
297.0
 13
0.0
 23
0.0
 14
10.0
 24
10.0
 15
10.0
 25
10.0
 16
0.0
 26
0.0
 36
1.0
 17
0.0
 27
0.0
 37
0.0
 40
594.0
 41
1.4141414141
 42
50.0
 43
0.0
 44
0.0
 50
0.0
 51
0.0
 71
     0
 72
  2000
 73
     1
 74
     3
 75
     0
 76
     0
 77
     0
 78
     0
281
     0
 65
     1
110
0.0
120
0.0
130
0.0
111
1.0
121
0.0
131
0.0
112
0.0
122
1.0
132
0.0
 79
     0
146
0.0
  0
ENDTAB
  0
TABLE
  2
LTYPE
  5
5
330
0
100
AcDbSymbolTable
 70
     6
  0
LTYPE
  5
14
330
5
100
AcDbSymbolTableRecord
100
AcDbLinetypeTableRecord
  2
ByBlock
 70
     0
  3

 72
    65
 73
     0
 40
0.0
  0
LTYPE
  5
15
330
5
100
AcDbSymbolTableRecord
100
AcDbLinetypeTableRecord
  2
ByLayer
 70
     0
  3

 72
    65
 73
     0
 40
0.0
  0
LTYPE
  5
16
330
5
100
AcDbSymbolTableRecord
100
AcDbLinetypeTableRecord
  2
Continuous
 70
     0
  3
Solid line
 72
    65
 73
     0
 40
0.0
  0
LTYPE
  5
3F
330
5
100
AcDbSymbolTableRecord
100
AcDbLinetypeTableRecord
  2
HIDDEN
 70
     0
  3
Hidden __ __ __ __ __ __ __ __ __ __ __ __ __ __
 72
    65
 73
     2
 40
1.905
 49
1.27
 74
     0
 49
-0.635
 74
     0
  0
LTYPE
  5
40
330
5
100
AcDbSymbolTableRecord
100
AcDbLinetypeTableRecord
  2
PHANTOM
 70
     0
  3
Phantom ______  __  __  ______  __  __  ______
 72
    65
 73
     6
 40
12.7
 49
6.35
 74
     0
 49
-1.27
 74
     0
 49
1.27
 74
     0
 49
-1.27
 74
     0
 49
1.27
 74
     0
 49
-1.27
 74
     0
  0
LTYPE
  5
41
330
5
100
AcDbSymbolTableRecord
100
AcDbLinetypeTableRecord
  2
CENTER
 70
     0
  3
Center ____ _ ____ _ ____ _ ____ _ ____ _ ____
 72
    65
 73
     4
 40
10.16
 49
6.35
 74
     0
 49
-1.27
 74
     0
 49
1.27
 74
     0
 49
-1.27
 74
     0
  0
LTYPE
  5
42
330
5
100
AcDbSymbolTableRecord
100
AcDbLinetypeTableRecord
  2
CENTERX2
 70
     0
  3
Center (2x) ________  __  ________  __  _____
 72
    65
 73
     4
 40
20.32
 49
12.7
 74
     0
 49
-2.54
 74
     0
 49
2.54
 74
     0
 49
-2.54
 74
     0
  0
LTYPE
  5
43
330
5
100
AcDbSymbolTableRecord
100
AcDbLinetypeTableRecord
  2
DOT2
 70
     0
  3
Dot (.5x) ........................................
 72
    65
 73
     2
 40
0.635
 49
0.0
 74
     0
 49
-0.635
 74
     0
  0
ENDTAB
  0
TABLE
  2
LAYER
  5
2
330
0
100
AcDbSymbolTable
 70
     1
  0
LAYER
  5
10
330
2
100
AcDbSymbolTableRecord
100
AcDbLayerTableRecord
  2
0
 70
     0
 62
     7
  6
Continuous
370
    -3
390
F
  0
ENDTAB
  0
TABLE
  2
STYLE
  5
3
330
0
100
AcDbSymbolTable
 70
     2
  0
STYLE
  5
11
330
3
100
AcDbSymbolTableRecord
100
AcDbTextStyleTableRecord
  2
Standard
 70
     0
 40
0.0
 41
1.0
 50
0.0
 71
     0
 42
2.5
  3
txt
  4
bigfont
  0
STYLE
  5
44
330
3
100
AcDbSymbolTableRecord
100
AcDbTextStyleTableRecord
  2
SLDTEXTSTYLE0
 70
     0
 40
0.0
 41
0.7
 50
0.0
 71
     0
 42
0.2
  3
TXT
  4
bigfont
  0
ENDTAB
  0
TABLE
  2
VIEW
  5
6
330
0
100
AcDbSymbolTable
 70
     0
  0
ENDTAB
  0
TABLE
  2
UCS
  5
7
330
0
100
AcDbSymbolTable
 70
     0
  0
ENDTAB
  0
TABLE
  2
APPID
  5
9
330
0
100
AcDbSymbolTable
 70
     1
  0
APPID
  5
12
330
9
100
AcDbSymbolTableRecord
100
AcDbRegAppTableRecord
  2
ACAD
 70
     0
  0
ENDTAB
  0
TABLE
  2
DIMSTYLE
  5
A
330
0
100
AcDbSymbolTable
 70
     1
100
AcDbDimStyleTable
  0
DIMSTYLE
105
27
330
A
100
AcDbSymbolTableRecord
100
AcDbDimStyleTableRecord
  2
ISO-25
 70
     0
 41
2.5
 42
0.625
 43
3.75
 44
1.25
 73
     0
 74
     0
 77
     1
 78
     8
140
2.5
141
2.5
143
0.0393700787
147
0.625
171
     3
172
     1
178
     0
271
     2
272
     2
274
     3
278
    44
283
     0
284
     8
340
11
  0
ENDTAB
  0
TABLE
  2
BLOCK_RECORD
  5
1
330
0
100
AcDbSymbolTable
 70
     1
  0
BLOCK_RECORD
  5
1F
330
1
100
AcDbSymbolTableRecord
100
AcDbBlockTableRecord
  2
*Model_Space
340
22
  0
BLOCK_RECORD
  5
1B
330
1
100
AcDbSymbolTableRecord
100
AcDbBlockTableRecord
  2
*Paper_Space
340
1E
  0
BLOCK_RECORD
  5
23
330
1
100
AcDbSymbolTableRecord
100
AcDbBlockTableRecord
  2
*Paper_Space0
340
26
  0
ENDTAB
  0
ENDSEC
  0
SECTION
  2
BLOCKS
  0
BLOCK
  5
20
330
1F
100
AcDbEntity
  8
0
100
AcDbBlockBegin
  2
*Model_Space
 70
     0
 10
0.0
 20
0.0
 30
0.0
  3
*Model_Space
  1

  0
ENDBLK
  5
21
330
1F
100
AcDbEntity
  8
0
100
AcDbBlockEnd
  0
BLOCK
  5
1C
330
1B
100
AcDbEntity
 67
     1
  8
0
100
AcDbBlockBegin
  2
*Paper_Space
 70
     0
 10
0.0
 20
0.0
 30
0.0
  3
*Paper_Space
  1

  0
ENDBLK
  5
1D
330
1B
100
AcDbEntity
 67
     1
  8
0
100
AcDbBlockEnd
  0
BLOCK
  5
24
330
23
100
AcDbEntity
  8
0
100
AcDbBlockBegin
  2
*Paper_Space0
 70
     0
 10
0.0
 20
0.0
 30
0.0
  3
*Paper_Space0
  1

  0
ENDBLK
  5
25
330
23
100
AcDbEntity
  8
0
100
AcDbBlockEnd
  0
ENDSEC
  0
SECTION
  2
ENTITIES
  0
MTEXT
  5
45
330
1F
100
AcDbEntity
  8
0
  6
Continuous
 62
     7
370
     0
100
AcDbMText
 10
64.3294511272
 20
595.5400103712
 30
0.0
 40
7.0
 41
0.0
 71
     1
 72
     1
  1
CHB-518N
  7
SLDTEXTSTYLE0
 73
     1
 44
1.0
  0
LINE
  5
46
330
1F
100
AcDbEntity
  8
0
  6
Continuous
 62
     7
370
    15
100
AcDbLine
 10
257.9680918981
 20
38.9060202189
 30
0.0
 11
258.0680786897
 21
38.9060202189
 31
0.0
  0
LINE
  5
47
330
1F
100
AcDbEntity
  8
0
  6
Continuous
 62
     7
370
    15
100
AcDbLine
 10
258.0680786897
 20
44.9060174771
 30
0.0
 11
257.9680918981
 21
44.9060174771
 31
0.0
  0
LINE
  5
48
330
1F
100
AcDbEntity
  8
0
  6
Continuous
 62
     7
370
    15
100
AcDbLine
 10
257.9680918981
 20
28.9060148545
 30
0.0
 11
258.0680786897
 21
28.9060148545
 31
0.0
  0
LINE
  5
49
330
1F
100
AcDbEntity
  8
0
  6
Continuous
 62
     7
370
    15
100
AcDbLine
 10
258.0680786897
 20
34.9060121126
 30
0.0
 11
257.9680918981
 21
34.9060121126
 31
0.0
  0
LINE
  5
4A
330
1F
100
AcDbEntity
  8
0
  6
Continuous
 62
     7
370
    15
100
AcDbLine
 10
257.9680918981
 20
498.9060136624
 30
0.0
 11
258.0680786897
 21
498.9060136624
 31
0.0
  0
LINE
  5
4B
330
1F
100
AcDbEntity
  8
0
  6
Continuous
 62
     7
370
    15
100
AcDbLine
 10
258.0680786897
 20
504.9060109205
 30
0.0
 11
257.9680918981
 21
504.9060109205
 31
0.0
  0
LINE
  5
4C
330
1F
100
AcDbEntity
  8
0
  6
Continuous
 62
     7
370
    15
100
AcDbLine
 10
257.9680918981
 20
508.9060190268
 30
0.0
 11
258.0680786897
 21
508.9060190268
 31
0.0
  0
LINE
  5
4D
330
1F
100
AcDbEntity
  8
0
  6
Continuous
 62
     7
370
    15
100
AcDbLine
 10
258.0680786897
 20
514.906016285
 30
0.0
 11
257.9680918981
 21
514.906016285
 31
0.0
  0
LINE
  5
4E
330
1F
100
AcDbEntity
  8
0
  6
Continuous
 62
     7
370
    15
100
AcDbLine
 10
259.2680692007
 20
48.4060171194
 30
0.0
 11
258.0680786897
 21
48.4060171194
 31
0.0
  0
LINE
  5
4F
330
1F
100
AcDbEntity
  8
0
  6
Continuous
 62
     7
370
    15
100
AcDbLine
 10
259.2680692007
 20
518.4060159273
 30
0.0
 11
258.0680786897
 21
518.4060159273
 31
0.0
  0
LINE
  5
50
330
1F
100
AcDbEntity
  8
0
  6
Continuous
 62
     7
370
    15
100
AcDbLine
 10
258.0680786897
 20
25.4060152121
 30
0.0
 11
259.2680692007
 21
25.4060152121
 31
0.0
  0
LINE
  5
51
330
1F
100
AcDbEntity
  8
0
  6
Continuous
 62
     7
370
    15
100
AcDbLine
 10
258.0680786897
 20
495.40601402
 30
0.0
 11
259.2680692007
 21
495.40601402
 31
0.0
  0
LINE
  5
52
330
1F
100
AcDbEntity
  8
0
  6
Continuous
 62
     7
370
    15
100
AcDbLine
 10
870.7680939962
 20
27.9060128279
 30
0.0
 11
870.7680939962
 21
62.9060092516
 31
0.0
  0
LINE
  5
53
330
1F
100
AcDbEntity
  8
0
  6
Continuous
 62
     7
370
    15
100
AcDbLine
 10
870.7680939962
 20
480.9060218878
 30
0.0
 11
870.7680939962
 21
515.9060183115
 31
0.0
  0
LINE
  5
54
330
1F
100
AcDbEntity
  8
0
  6
Continuous
 62
     7
370
    15
100
AcDbLine
 10
250.1632808973
 20
40.8060225792
 30
0.0
 11
250.1632808973
 21
32.2060111113
 31
0.0
  0
LINE
  5
55
330
1F
100
AcDbEntity
  8
0
  6
Continuous
 62
     7
370
    15
100
AcDbLine
 10
250.7680892278
 20
29.7060134955
 30
0.0
 11
250.7680892278
 21
28.9062681742
 31
0.0
  0
LINE
  5
56
330
1F
100
AcDbEntity
  8
0
  6
Continuous
 62
     7
370
    15
100
AcDbLine
 10
250.7680892278
 20
44.9057641573
 30
0.0
 11
250.7680892278
 21
44.106018836
 31
0.0
  0
LINE
  5
57
330
1F
100
AcDbEntity
  8
0
  6
Continuous
 62
     7
370
    15
100
AcDbLine
 10
252.1680831243
 20
45.2060225554
 30
0.0
 11
252.1680831243
 21
44.9060174771
 31
0.0
  0
ARC
  5
58
330
1F
100
AcDbEntity
  8
0
  6
Continuous
 62
     7
370
    15
100
AcDbCircle
 10
254.3680811216
 20
42.0988727126
 30
0.0
 40
3.807142857143194
100
AcDbArc
 50
77.9663271603
 51
90.0
  0
ARC
  5
59
330
1F
100
AcDbEntity
  8
0
  6
Continuous
 62
     7
370
    15
100
AcDbCircle
 10
254.3680811216
 20
42.0988727126
 30
0.0
 40
3.807142857143293
100
AcDbArc
 50
90.0
 51
125.3002484399
  0
LINE
  5
5A
330
1F
100
AcDbEntity
  8
0
  6
Continuous
 62
     7
370
    15
100
AcDbLine
 10
252.2680699159
 20
28.5060229845
 30
0.0
 11
252.2680699159
 21
28.1060162134
 31
0.0
  0
ARC
  5
5B
330
1F
100
AcDbEntity
  8
0
  6
Continuous
 62
     7
370
    15
100
AcDbCircle
 10
252.4680811216
 20
28.9060155697
 30
0.0
 40
0.4000000000008299
100
AcDbArc
 50
270.0
 51
0.0
  0
LINE
  5
5C
330
1F
100
AcDbEntity
  8
0
  6
Continuous
 62
     7
370
    15
100
AcDbLine
 10
252.8680800726
 20
44.106018836
 30
0.0
 11
252.8680800726
 21
43.6560186692
 31
0.0
  0
LINE
  5
5D
330
1F
100
AcDbEntity
  8
0
  6
Continuous
 62
     7
370
    15
100
AcDbLine
 10
252.8680800726
 20
30.1560136624
 30
0.0
 11
252.8680800726
 21
29.7060134955
 31
0.0
  0
SPLINE
  5
5E
330
1F
100
AcDbEntity
  8
0
  6
Continuous
 62
     7
370
    15
100
AcDbSpline
210
0.0
220
0.0
230
1.0
 70
     8
 71
     3
 72
    11
 73
     7
 74
     0
 42
0.00000001
 43
0.00000001
 40
0.0
 40
0.0
 40
0.0
 40
0.0
 40
0.2262215555257281
 40
0.467943969805146
 40
0.7254849661367999
 40
1.0
 40
1.0
 40
1.0
 40
1.0
 10
255.5885850717269
 20
45.13644903375952
 30
0.0
 10
255.5914029526353
 20
45.11354906738843
 30
0.0
 10
255.5972317976174
 20
45.06618001297991
 30
0.0
 10
255.6140466825819
 20
44.74140313333088
 30
0.0
 10
255.6276365284225
 20
44.24090392730448
 30
0.0
 10
255.6281604557439
 20
43.81708218532998
 30
0.0
 10
255.6284307767592
 20
43.59841077997534
 30
0.0
  0
SPLINE
  5
5F
330
1F
100
AcDbEntity
  8
0
  6
Continuous
 62
     7
370
    15
100
AcDbSpline
210
0.0
220
0.0
230
1.0
 70
     8
 71
     3
 72
    12
 73
     8
 74
     0
 42
0.00000001
 43
0.00000001
 40
0.0
 40
0.0
 40
0.0
 40
0.0
 40
0.248946245326258
 40
0.4822936287519815
 40
0.699811415192867
 40
0.9035372363555159
 40
1.0
 40
1.0
 40
1.0
 40
1.0
 10
255.6284307767592
 20
30.03978460504858
 30
0.0
 10
255.6270049097016
 20
29.90244892722676
 30
0.0
 10
255.6242425197871
 20
29.63638296456486
 30
0.0
 10
255.6133415879867
 20
29.30057904134886
 30
0.0
 10
255.6108312570938
 20
29.06740146374623
 30
0.0
 10
255.6156202732442
 20
28.94728762523571
 30
0.0
 10
255.6420508757419
 20
28.94594823361313
 30
0.0
 10
255.6505440999709
 20
28.94551783277838
 30
0.0
  0
LINE
  5
60
330
1F
100
AcDbEntity
  8
0
  6
Continuous
 62
     7
370
    15
100
AcDbLine
 10
255.6275963117
 20
43.6484041758
 30
0.0
 11
255.6275963117
 21
29.9897763081
 31
0.0
  0
LINE
  5
61
330
1F
100
AcDbEntity
  8
0
  6
Continuous
 62
     7
370
    15
100
AcDbLine
 10
254.103982382
 20
47.5863042422
 30
0.0
 11
255.5913268854
 21
45.1061549731
 31
0.0
  0
LINE
  5
62
330
1F
100
AcDbEntity
  8
0
  6
Continuous
 62
     7
370
    15
100
AcDbLine
 10
258.0680786897
 20
46.8092682905
 30
0.0
 11
256.6767870714
 21
49.1292300768
 31
0.0
  0
LINE
  5
63
330
1F
100
AcDbEntity
  8
0
  6
Continuous
 62
     7
370
    15
100
AcDbLine
 10
255.655819111
 20
28.81343394
 30
0.0
 11
254.0867566396
 21
26.1970135517
 31
0.0
  0
LINE
  5
64
330
1F
100
AcDbEntity
  8
0
  6
Continuous
 62
     7
370
    15
100
AcDbLine
 10
256.6595613291
 20
24.6540877171
 30
0.0
 11
258.0680786897
 21
27.002764041
 31
0.0
  0
LINE
  5
65
330
1F
100
AcDbEntity
  8
0
  6
Continuous
 62
     7
370
    15
100
AcDbLine
 10
256.6966950227
 20
49.0937206097
 30
0.0
 11
256.6067218115
 21
49.2075058766
 31
0.0
  0
SPLINE
  5
66
330
1F
100
AcDbEntity
  8
0
  6
Continuous
 62
     7
370
    15
100
AcDbSpline
210
0.0
220
0.0
230
1.0
 70
     8
 71
     3
 72
    20
 73
    16
 74
     0
 42
0.00000001
 43
0.00000001
 40
0.0
 40
0.0
 40
0.0
 40
0.0
 40
0.0337800478578503
 40
0.1101059187966603
 40
0.173929028912456
 40
0.2252728862077671
 40
0.2665372765709878
 40
0.3037717494799613
 40
0.3388592941554547
 40
0.3726402342717979
 40
0.4139167244222641
 40
0.6259819266062212
 40
0.8390274639719425
 40
0.9659457555635218
 40
1.0
 40
1.0
 40
1.0
 40
1.0
 10
256.4944266607009
 20
49.34957354738562
 30
0.0
 10
256.4537657644697
 20
49.4057569380999
 30
0.0
 10
256.3212317503832
 20
49.58888645531487
 30
0.0
 10
256.0113711236157
 20
49.76607798246594
 30
0.0
 10
255.62409617936
 20
49.88902040498749
 30
0.0
 10
255.2542535629304
 20
49.90382021991754
 30
0.0
 10
254.9199384742556
 20
49.85324276091441
 30
0.0
 10
254.6454609610694
 20
49.75216687137224
 30
0.0
 10
254.4179456575928
 20
49.61747125021748
 30
0.0
 10
254.2119052171827
 20
49.44128714876533
 30
0.0
 10
253.8674185665914
 20
48.99878608641642
 30
0.0
 10
253.6863040306013
 20
48.31212268421162
 30
0.0
 10
253.5364998282131
 20
47.13128437761588
 30
0.0
 10
253.4814059045134
 20
46.22663926773699
 30
0.0
 10
253.4748184430258
 20
45.8120518200843
 30
0.0
 10
253.473424844905
 20
45.72434454634039
 30
0.0
  0
SPLINE
  5
67
330
1F
100
AcDbEntity
  8
0
  6
Continuous
 62
     7
370
    15
100
AcDbSpline
210
0.0
220
0.0
230
1.0
 70
     8
 71
     3
 72
    19
 73
    15
 74
     0
 42
0.00000001
 43
0.00000001
 40
0.0
 40
0.0
 40
0.0
 40
0.0
 40
0.0102731821704146
 40
0.1295971195302142
 40
0.3268124095654802
 40
0.5525088281484031
 40
0.5858534670519812
 40
0.6186008904450959
 40
0.6529060193029207
 40
0.6960065533277052
 40
0.7523109547519893
 40
0.8223143869603826
 40
0.9054609801583439
 40
1.0
 40
1.0
 40
1.0
 40
1.0
 10
253.4705936242781
 20
28.10601621343939
 30
0.0
 10
253.4709168351972
 20
28.07881881102295
 30
0.0
 10
253.4749941700877
 20
27.73572112683836
 30
0.0
 10
253.5147521115698
 20
26.91572335667081
 30
0.0
 10
253.6497819258515
 20
25.69330290457789
 30
0.0
 10
253.7401026920875
 20
25.04990792381517
 30
0.0
 10
254.0910604935029
 20
24.50984257589262
 30
0.0
 10
254.2602793106905
 20
24.32200150250918
 30
0.0
 10
254.4969784128142
 20
24.1455003543696
 30
0.0
 10
254.8106151445621
 20
23.9920538654057
 30
0.0
 10
255.2140862824555
 20
23.89023175611046
 30
0.0
 10
255.6999631069933
 20
23.91343270082563
 30
0.0
 10
256.2297327536705
 20
24.12371845069036
 30
0.0
 10
256.4949411144962
 20
24.44555464618101
 30
0.0
 10
256.6360472966871
 20
24.61679011061038
 30
0.0
  0
LINE
  5
68
330
1F
100
AcDbEntity
  8
0
  6
Continuous
 62
     7
370
    15
100
AcDbLine
 10
250.1632808973
 20
510.8060213871
 30
0.0
 11
250.1632808973
 21
502.2060099192
 31
0.0
  0
LINE
  5
69
330
1F
100
AcDbEntity
  8
0
  6
Continuous
 62
     7
370
    15
100
AcDbLine
 10
250.7680892278
 20
514.9057629652
 30
0.0
 11
250.7680892278
 21
514.106017644
 31
0.0
  0
LINE
  5
6A
330
1F
100
AcDbEntity
  8
0
  6
Continuous
 62
     7
370
    15
100
AcDbLine
 10
250.7680892278
 20
499.7060123034
 30
0.0
 11
250.7680892278
 21
498.9062669821
 31
0.0
  0
LINE
  5
6B
330
1F
100
AcDbEntity
  8
0
  6
Continuous
 62
     7
370
    15
100
AcDbLine
 10
252.1680831243
 20
515.2060213633
 30
0.0
 11
252.1680831243
 21
514.906016285
 31
0.0
  0
ARC
  5
6C
330
1F
100
AcDbEntity
  8
0
  6
Continuous
 62
     7
370
    15
100
AcDbCircle
 10
254.3680811216
 20
512.0988727126
 30
0.0
 40
3.807142857143276
100
AcDbArc
 50
77.9663271603
 51
90.0
  0
ARC
  5
6D
330
1F
100
AcDbEntity
  8
0
  6
Continuous
 62
     7
370
    15
100
AcDbCircle
 10
254.3680811216
 20
512.0988727126
 30
0.0
 40
3.807142857143368
100
AcDbArc
 50
90.0
 51
125.3002484399
  0
LINE
  5
6E
330
1F
100
AcDbEntity
  8
0
  6
Continuous
 62
     7
370
    15
100
AcDbLine
 10
252.2680699159
 20
498.5060217924
 30
0.0
 11
252.2680699159
 21
498.1060150213
 31
0.0
  0
ARC
  5
6F
330
1F
100
AcDbEntity
  8
0
  6
Continuous
 62
     7
370
    15
100
AcDbCircle
 10
252.4680811216
 20
498.9060155697
 30
0.0
 40
0.4000000000008299
100
AcDbArc
 50
270.0
 51
0.0
  0
LINE
  5
70
330
1F
100
AcDbEntity
  8
0
  6
Continuous
 62
     7
370
    15
100
AcDbLine
 10
252.8680800726
 20
514.106017644
 30
0.0
 11
252.8680800726
 21
513.6560174771
 31
0.0
  0
LINE
  5
71
330
1F
100
AcDbEntity
  8
0
  6
Continuous
 62
     7
370
    15
100
AcDbLine
 10
252.8680800726
 20
500.1560124703
 30
0.0
 11
252.8680800726
 21
499.7060123034
 31
0.0
  0
SPLINE
  5
72
330
1F
100
AcDbEntity
  8
0
  6
Continuous
 62
     7
370
    15
100
AcDbSpline
210
0.0
220
0.0
230
1.0
 70
     8
 71
     3
 72
    11
 73
     7
 74
     0
 42
0.00000001
 43
0.00000001
 40
0.0
 40
0.0
 40
0.0
 40
0.0
 40
0.2262215555257281
 40
0.467943969805146
 40
0.7254849661367999
 40
1.0
 40
1.0
 40
1.0
 40
1.0
 10
255.5885850717269
 20
515.1364478416667
 30
0.0
 10
255.5914029526353
 20
515.1135478752955
 30
0.0
 10
255.5972317976174
 20
515.0661788208869
 30
0.0
 10
255.6140466825819
 20
514.7414019412379
 30
0.0
 10
255.6276365284225
 20
514.2409027352119
 30
0.0
 10
255.6281604557439
 20
513.8170809932371
 30
0.0
 10
255.6284307767592
 20
513.5984095878825
 30
0.0
  0
SPLINE
  5
73
330
1F
100
AcDbEntity
  8
0
  6
Continuous
 62
     7
370
    15
100
AcDbSpline
210
0.0
220
0.0
230
1.0
 70
     8
 71
     3
 72
    12
 73
     8
 74
     0
 42
0.00000001
 43
0.00000001
 40
0.0
 40
0.0
 40
0.0
 40
0.0
 40
0.248946245326258
 40
0.4822936287519815
 40
0.699811415192867
 40
0.9035372363555159
 40
1.0
 40
1.0
 40
1.0
 40
1.0
 10
255.6284307767592
 20
500.0397834129557
 30
0.0
 10
255.6270049097016
 20
499.9024477351338
 30
0.0
 10
255.6242425197871
 20
499.6363817724719
 30
0.0
 10
255.6133415879867
 20
499.3005778492562
 30
0.0
 10
255.6108312570938
 20
499.0674002716534
 30
0.0
 10
255.6156202732442
 20
498.9472864331426
 30
0.0
 10
255.6420508757419
 20
498.9459470415203
 30
0.0
 10
255.6505440999709
 20
498.9455166406855
 30
0.0
  0
LINE
  5
74
330
1F
100
AcDbEntity
  8
0
  6
Continuous
 62
     7
370
    15
100
AcDbLine
 10
255.6275963117
 20
513.6484178848
 30
0.0
 11
255.6275963117
 21
499.989775116
 31
0.0
  0
LINE
  5
75
330
1F
100
AcDbEntity
  8
0
  6
Continuous
 62
     7
370
    15
100
AcDbLine
 10
254.103982382
 20
517.5863030501
 30
0.0
 11
255.5913268854
 21
515.106153781
 31
0.0
  0
LINE
  5
76
330
1F
100
AcDbEntity
  8
0
  6
Continuous
 62
     7
370
    15
100
AcDbLine
 10
258.0680786897
 20
516.8092670984
 30
0.0
 11
256.6767870714
 21
519.1292288847
 31
0.0
  0
LINE
  5
77
330
1F
100
AcDbEntity
  8
0
  6
Continuous
 62
     7
370
    15
100
AcDbLine
 10
255.655819111
 20
498.8134327479
 30
0.0
 11
254.0867566396
 21
496.1970123596
 31
0.0
  0
LINE
  5
78
330
1F
100
AcDbEntity
  8
0
  6
Continuous
 62
     7
370
    15
100
AcDbLine
 10
256.6595613291
 20
494.654086525
 30
0.0
 11
258.0680786897
 21
497.0027628489
 31
0.0
  0
LINE
  5
79
330
1F
100
AcDbEntity
  8
0
  6
Continuous
 62
     7
370
    15
100
AcDbLine
 10
256.6966950227
 20
519.0937194176
 30
0.0
 11
256.6067218115
 21
519.2075046845
 31
0.0
  0
SPLINE
  5
7A
330
1F
100
AcDbEntity
  8
0
  6
Continuous
 62
     7
370
    15
100
AcDbSpline
210
0.0
220
0.0
230
1.0
 70
     8
 71
     3
 72
    20
 73
    16
 74
     0
 42
0.00000001
 43
0.00000001
 40
0.0
 40
0.0
 40
0.0
 40
0.0
 40
0.0337800478578503
 40
0.1101059187966603
 40
0.173929028912456
 40
0.2252728862077671
 40
0.2665372765709878
 40
0.3037717494799613
 40
0.3388592941554547
 40
0.3726402342717979
 40
0.4139167244222641
 40
0.6259819266062212
 40
0.8390274639719425
 40
0.9659457555635218
 40
1.0
 40
1.0
 40
1.0
 40
1.0
 10
256.4944266607009
 20
519.3495723552928
 30
0.0
 10
256.4537657644697
 20
519.405755746007
 30
0.0
 10
256.3212317503832
 20
519.5888852632219
 30
0.0
 10
256.0113711236157
 20
519.766076790373
 30
0.0
 10
255.62409617936
 20
519.8890192128946
 30
0.0
 10
255.2542535629304
 20
519.9038190278246
 30
0.0
 10
254.9199384742556
 20
519.8532415688215
 30
0.0
 10
254.6454609610694
 20
519.7521656792793
 30
0.0
 10
254.4179456575928
 20
519.6174700581248
 30
0.0
 10
254.2119052171827
 20
519.4412859566723
 30
0.0
 10
253.8674185665914
 20
518.9987848943236
 30
0.0
 10
253.6863040306013
 20
518.3121214921183
 30
0.0
 10
253.5364998282131
 20
517.1312831855234
 30
0.0
 10
253.4814059045134
 20
516.2266380756439
 30
0.0
 10
253.4748184430258
 20
515.8120506279914
 30
0.0
 10
253.473424844905
 20
515.7243433542476
 30
0.0
  0
SPLINE
  5
7B
330
1F
100
AcDbEntity
  8
0
  6
Continuous
 62
     7
370
    15
100
AcDbSpline
210
0.0
220
0.0
230
1.0
 70
     8
 71
     3
 72
    19
 73
    15
 74
     0
 42
0.00000001
 43
0.00000001
 40
0.0
 40
0.0
 40
0.0
 40
0.0
 40
0.0102731877996411
 40
0.1295971905434143
 40
0.3268125886434962
 40
0.5525091308975699
 40
0.5858537880724609
 40
0.6186012294096421
 40
0.6529063770650836
 40
0.6960069347069583
 40
0.7523113669834383
 40
0.8223148375504599
 40
0.9054620882061949
 40
1.0
 40
1.0
 40
1.0
 40
1.0
 10
253.4705936242781
 20
498.1060150213465
 30
0.0
 10
253.4709168351971
 20
498.0788176189303
 30
0.0
 10
253.4749941700875
 20
497.7357199347479
 30
0.0
 10
253.5147521116315
 20
496.9157221643797
 30
0.0
 10
253.6497819254505
 20
495.6933017137674
 30
0.0
 10
253.7401026931661
 20
495.0499067282746
 30
0.0
 10
254.0910604930017
 20
494.5098413854019
 30
0.0
 10
254.2602793126562
 20
494.3220003041326
 30
0.0
 10
254.4969784042115
 20
494.1454991897764
 30
0.0
 10
254.810615191367
 20
493.9920525236935
 30
0.0
 10
255.2140860247659
 20
493.8902313877663
 30
0.0
 10
255.6999658372518
 20
493.9134273862352
 30
0.0
 10
256.2297266028392
 20
494.1237374727011
 30
0.0
 10
256.4949398243622
 20
494.4455615006216
 30
0.0
 10
256.6360472966871
 20
494.6167889185176
 30
0.0
  0
LINE
  5
7C
330
1F
100
AcDbEntity
  8
0
  6
Continuous
 62
     7
370
    15
100
AcDbLine
 10
870.7680939962
 20
-8.0939856224
 30
0.0
 11
870.7680939962
 21
26.9060108013
 31
0.0
  0
LINE
  5
7D
330
1F
100
AcDbEntity
  8
0
  6
Continuous
 62
     7
370
    15
100
AcDbLine
 10
870.7680939962
 20
516.9060203381
 30
0.0
 11
870.7680939962
 21
551.9060167618
 31
0.0
  0
LINE
  5
7E
330
1F
100
AcDbEntity
  8
0
  6
Continuous
 62
     7
370
    15
100
AcDbLine
 10
867.7680730154
 20
26.9060108013
 30
0.0
 11
867.7680730154
 21
27.9060128279
 31
0.0
  0
LINE
  5
7F
330
1F
100
AcDbEntity
  8
0
  6
Continuous
 62
     7
370
    15
100
AcDbLine
 10
867.7680730154
 20
62.9060092516
 30
0.0
 11
867.7680730154
 21
63.9060112782
 31
0.0
  0
LINE
  5
80
330
1F
100
AcDbEntity
  8
0
  6
Continuous
 62
     7
370
    15
100
AcDbLine
 10
862.7680777837
 20
63.9060112782
 30
0.0
 11
862.7680777837
 21
62.9060092516
 31
0.0
  0
LINE
  5
81
330
1F
100
AcDbEntity
  8
0
  6
Continuous
 62
     7
370
    15
100
AcDbLine
 10
862.7680777837
 20
27.9060128279
 30
0.0
 11
862.7680777837
 21
26.9060108013
 31
0.0
  0
LINE
  5
82
330
1F
100
AcDbEntity
  8
0
  6
Continuous
 62
     7
370
    15
100
AcDbLine
 10
862.7680777837
 20
516.9060203381
 30
0.0
 11
862.7680777837
 21
515.9060183115
 31
0.0
  0
LINE
  5
83
330
1F
100
AcDbEntity
  8
0
  6
Continuous
 62
     7
370
    15
100
AcDbLine
 10
862.7680777837
 20
480.9060218878
 30
0.0
 11
862.7680777837
 21
479.9060198612
 31
0.0
  0
LINE
  5
84
330
1F
100
AcDbEntity
  8
0
  6
Continuous
 62
     7
370
    15
100
AcDbLine
 10
867.7680730154
 20
479.9060198612
 30
0.0
 11
867.7680730154
 21
480.9060218878
 31
0.0
  0
LINE
  5
85
330
1F
100
AcDbEntity
  8
0
  6
Continuous
 62
     7
370
    15
100
AcDbLine
 10
867.7680730154
 20
515.9060183115
 30
0.0
 11
867.7680730154
 21
516.9060203381
 31
0.0
  0
LINE
  5
86
330
1F
100
AcDbEntity
  8
0
  6
Continuous
 62
     7
370
    15
100
AcDbLine
 10
250.9680926134
 20
30.4488214798
 30
0.0
 11
250.9680926134
 21
30.1560136624
 31
0.0
  0
LINE
  5
87
330
1F
100
AcDbEntity
  8
0
  6
Continuous
 62
     7
370
    15
100
AcDbLine
 10
250.9680926134
 20
43.6560186692
 30
0.0
 11
250.9680926134
 21
43.3632108517
 31
0.0
  0
LINE
  5
88
330
1F
100
AcDbEntity
  8
0
  6
Continuous
 62
     7
370
    15
100
AcDbLine
 10
250.9680926134
 20
500.4488202877
 30
0.0
 11
250.9680926134
 21
500.1560124703
 31
0.0
  0
LINE
  5
89
330
1F
100
AcDbEntity
  8
0
  6
Continuous
 62
     7
370
    15
100
AcDbLine
 10
250.9680926134
 20
513.6560174771
 30
0.0
 11
250.9680926134
 21
513.3632096596
 31
0.0
  0
LINE
  5
8A
330
1F
100
AcDbEntity
  8
0
  6
Continuous
 62
     7
370
    15
100
AcDbLine
 10
844.2680775453
 20
-13.093980854
 30
0.0
 11
274.2680846979
 21
-13.093980854
 31
0.0
  0
LINE
  5
8B
330
1F
100
AcDbEntity
  8
0
  6
Continuous
 62
     7
370
    15
100
AcDbLine
 10
844.2680775453
 20
-13.093980854
 30
0.0
 11
844.2680775453
 21
-28.0939963512
 31
0.0
  0
LINE
  5
8C
330
1F
100
AcDbEntity
  8
0
  6
Continuous
 62
     7
370
    15
100
AcDbLine
 10
844.2680775453
 20
-28.0939963512
 30
0.0
 11
274.2680846979
 21
-28.0939963512
 31
0.0
  0
LINE
  5
8D
330
1F
100
AcDbEntity
  8
0
  6
Continuous
 62
     7
370
    15
100
AcDbLine
 10
274.2680846979
 20
-28.0939963512
 30
0.0
 11
274.2680846979
 21
-13.093980854
 31
0.0
  0
ARC
  5
8E
330
1F
100
AcDbEntity
  8
0
  6
Continuous
 62
     7
370
    15
100
AcDbCircle
 10
274.2680811216
 20
-13.0939844303
 30
0.0
 40
15.00000000000001
100
AcDbArc
 50
180.0
 51
270.0
  0
LINE
  5
8F
330
1F
100
AcDbEntity
  8
0
  6
Continuous
 62
     7
370
    15
100
AcDbLine
 10
259.2680692007
 20
-13.093980854
 30
0.0
 11
274.2680846979
 21
-13.093980854
 31
0.0
  0
LINE
  5
90
330
1F
100
AcDbEntity
  8
0
  6
Continuous
 62
     7
370
    15
100
AcDbLine
 10
839.2680823137
 20
-8.0939856224
 30
0.0
 11
279.2680799295
 21
-8.0939856224
 31
0.0
  0
LINE
  5
91
330
1F
100
AcDbEntity
  8
0
  6
Continuous
 62
     7
370
    15
100
AcDbLine
 10
839.2680823137
 20
-8.0939856224
 30
0.0
 11
839.2680823137
 21
551.9060167618
 31
0.0
  0
LINE
  5
92
330
1F
100
AcDbEntity
  8
0
  6
Continuous
 62
     7
370
    15
100
AcDbLine
 10
279.2680799295
 20
551.9060167618
 30
0.0
 11
839.2680823137
 21
551.9060167618
 31
0.0
  0
LINE
  5
93
330
1F
100
AcDbEntity
  8
0
  6
Continuous
 62
     7
370
    15
100
AcDbLine
 10
279.2680799295
 20
-8.0939856224
 30
0.0
 11
279.2680799295
 21
551.9060167618
 31
0.0
  0
LINE
  5
94
330
1F
100
AcDbEntity
  8
0
  6
Continuous
 62
     7
370
    15
100
AcDbLine
 10
844.2680775453
 20
-13.093980854
 30
0.0
 11
844.2680775453
 21
556.9060119934
 31
0.0
  0
LINE
  5
95
330
1F
100
AcDbEntity
  8
0
  6
Continuous
 62
     7
370
    15
100
AcDbLine
 10
274.2680846979
 20
556.9060119934
 30
0.0
 11
274.2680846979
 21
-13.093980854
 31
0.0
  0
LINE
  5
96
330
1F
100
AcDbEntity
  8
0
  6
Continuous
 62
     7
370
    15
100
AcDbLine
 10
274.2680846979
 20
556.9060119934
 30
0.0
 11
844.2680775453
 21
556.9060119934
 31
0.0
  0
LINE
  5
97
330
1F
100
AcDbEntity
  8
0
  6
Continuous
 62
     7
370
    15
100
AcDbLine
 10
259.2680692007
 20
26.9185277767
 30
0.0
 11
259.2680692007
 21
-13.093980854
 31
0.0
  0
LINE
  5
98
330
1F
100
AcDbEntity
  8
0
  6
Continuous
 62
     7
370
    15
100
AcDbLine
 10
259.2680692007
 20
46.8935045548
 30
0.0
 11
259.2680692007
 21
496.9185265846
 31
0.0
  0
LINE
  5
99
330
1F
100
AcDbEntity
  8
0
  6
Continuous
 62
     7
370
    15
100
AcDbLine
 10
259.2680692007
 20
516.8935033627
 30
0.0
 11
259.2680692007
 21
556.9060119934
 31
0.0
  0
LINE
  5
9A
330
1F
100
AcDbEntity
  8
0
  6
Continuous
 62
     7
370
    15
100
AcDbLine
 10
259.2680692007
 20
556.9060119934
 30
0.0
 11
274.2680846979
 21
556.9060119934
 31
0.0
  0
LINE
  5
9B
330
1F
100
AcDbEntity
  8
0
  6
Continuous
 62
     7
370
    15
100
AcDbLine
 10
844.2680775453
 20
-13.093980854
 30
0.0
 11
859.2680930425
 21
-13.093980854
 31
0.0
  0
ARC
  5
9C
330
1F
100
AcDbEntity
  8
0
  6
Continuous
 62
     7
370
    15
100
AcDbCircle
 10
844.2680811216
 20
-13.0939844303
 30
0.0
 40
15.00000000000001
100
AcDbArc
 50
270.0
 51
0.0
  0
LINE
  5
9D
330
1F
100
AcDbEntity
  8
0
  6
Continuous
 62
     7
370
    15
100
AcDbLine
 10
859.2680930425
 20
556.9060119934
 30
0.0
 11
844.2680775453
 21
556.9060119934
 31
0.0
  0
LINE
  5
9E
330
1F
100
AcDbEntity
  8
0
  6
Continuous
 62
     7
370
    15
100
AcDbLine
 10
859.2680930425
 20
-13.093980854
 30
0.0
 11
859.2680930425
 21
556.9060119934
 31
0.0
  0
ARC
  5
9F
330
1F
100
AcDbEntity
  8
0
  6
Continuous
 62
     7
370
    15
100
AcDbCircle
 10
274.2680811216
 20
556.9060155697
 30
0.0
 40
15.00000000000011
100
AcDbArc
 50
90.0
 51
180.0
  0
LINE
  5
A0
330
1F
100
AcDbEntity
  8
0
  6
Continuous
 62
     7
370
    15
100
AcDbLine
 10
274.2680846979
 20
556.9060119934
 30
0.0
 11
274.2680846979
 21
571.9060274906
 31
0.0
  0
LINE
  5
A1
330
1F
100
AcDbEntity
  8
0
  6
Continuous
 62
     7
370
    15
100
AcDbLine
 10
274.2680846979
 20
571.9060274906
 30
0.0
 11
844.2680775453
 21
571.9060274906
 31
0.0
  0
LINE
  5
A2
330
1F
100
AcDbEntity
  8
0
  6
Continuous
 62
     7
370
    15
100
AcDbLine
 10
844.2680775453
 20
571.9060274906
 30
0.0
 11
844.2680775453
 21
556.9060119934
 31
0.0
  0
ARC
  5
A3
330
1F
100
AcDbEntity
  8
0
  6
Continuous
 62
     7
370
    15
100
AcDbCircle
 10
844.2680811216
 20
556.9060155697
 30
0.0
 40
15.00000000000011
100
AcDbArc
 50
0.0
 51
90.0
  0
LINE
  5
A4
330
1F
100
AcDbEntity
  8
0
  6
Continuous
 62
     7
370
    15
100
AcDbLine
 10
258.0680786897
 20
47.9405048437
 30
0.0
 11
259.2680692007
 21
47.9405048437
 31
0.0
  0
LINE
  5
A5
330
1F
100
AcDbEntity
  8
0
  6
Continuous
 62
     7
370
    15
100
AcDbLine
 10
258.0680786897
 20
25.8715274878
 30
0.0
 11
259.2680692007
 21
25.8715274878
 31
0.0
  0
LINE
  5
A6
330
1F
100
AcDbEntity
  8
0
  6
Continuous
 62
     7
370
    15
100
AcDbLine
 10
258.0680786897
 20
25.8715274878
 30
0.0
 11
258.0680786897
 21
47.9405048437
 31
0.0
  0
LINE
  5
A7
330
1F
100
AcDbEntity
  8
0
  6
Continuous
 62
     7
370
    15
100
AcDbLine
 10
259.2680692007
 20
46.8935045548
 30
0.0
 11
259.2680692007
 21
26.9185277767
 31
0.0
  0
LINE
  5
A8
330
1F
100
AcDbEntity
  8
0
  6
Continuous
 62
     7
370
    15
100
AcDbLine
 10
258.0680786897
 20
517.9405036516
 30
0.0
 11
259.2680692007
 21
517.9405036516
 31
0.0
  0
LINE
  5
A9
330
1F
100
AcDbEntity
  8
0
  6
Continuous
 62
     7
370
    15
100
AcDbLine
 10
259.2680692007
 20
516.8935033627
 30
0.0
 11
259.2680692007
 21
496.9185265846
 31
0.0
  0
LINE
  5
AA
330
1F
100
AcDbEntity
  8
0
  6
Continuous
 62
     7
370
    15
100
AcDbLine
 10
258.0680786897
 20
495.8715262957
 30
0.0
 11
259.2680692007
 21
495.8715262957
 31
0.0
  0
LINE
  5
AB
330
1F
100
AcDbEntity
  8
0
  6
Continuous
 62
     7
370
    15
100
AcDbLine
 10
258.0680786897
 20
495.8715262957
 30
0.0
 11
258.0680786897
 21
517.9405036516
 31
0.0
  0
LINE
  5
AC
330
1F
100
AcDbEntity
  8
0
  6
Continuous
 62
     7
370
    15
100
AcDbLine
 10
257.9680918981
 20
41.9060113974
 30
0.0
 11
257.9680918981
 21
44.9060174771
 31
0.0
  0
LINE
  5
AD
330
1F
100
AcDbEntity
  8
0
  6
Continuous
 62
     7
370
    15
100
AcDbLine
 10
257.9680918981
 20
38.9060202189
 30
0.0
 11
257.9680918981
 21
41.9060113974
 31
0.0
  0
LINE
  5
AE
330
1F
100
AcDbEntity
  8
0
  6
Continuous
 62
     7
370
    15
100
AcDbLine
 10
257.9680918981
 20
28.9060148545
 30
0.0
 11
257.9680918981
 21
34.9060121126
 31
0.0
  0
LINE
  5
AF
330
1F
100
AcDbEntity
  8
0
  6
Continuous
 62
     7
370
    15
100
AcDbLine
 10
257.9680918981
 20
498.9060136624
 30
0.0
 11
257.9680918981
 21
504.9060109205
 31
0.0
  0
LINE
  5
B0
330
1F
100
AcDbEntity
  8
0
  6
Continuous
 62
     7
370
    15
100
AcDbLine
 10
257.9680918981
 20
511.9060102053
 30
0.0
 11
257.9680918981
 21
514.906016285
 31
0.0
  0
LINE
  5
B1
330
1F
100
AcDbEntity
  8
0
  6
Continuous
 62
     7
370
    15
100
AcDbLine
 10
257.9680918981
 20
508.9060190268
 30
0.0
 11
257.9680918981
 21
511.9060102053
 31
0.0
  0
LINE
  5
B2
330
1F
100
AcDbEntity
  8
0
  6
Continuous
 62
     7
370
    15
100
AcDbLine
 10
258.0680786897
 20
47.9405048437
 30
0.0
 11
258.0680786897
 21
48.4060171194
 31
0.0
  0
LINE
  5
B3
330
1F
100
AcDbEntity
  8
0
  6
Continuous
 62
     7
370
    15
100
AcDbLine
 10
258.0680786897
 20
517.9405036516
 30
0.0
 11
258.0680786897
 21
518.4060159273
 31
0.0
  0
LINE
  5
B4
330
1F
100
AcDbEntity
  8
0
  6
Continuous
 62
     7
370
    15
100
AcDbLine
 10
258.0680786897
 20
25.4060152121
 30
0.0
 11
258.0680786897
 21
25.8715274878
 31
0.0
  0
LINE
  5
B5
330
1F
100
AcDbEntity
  8
0
  6
Continuous
 62
     7
370
    15
100
AcDbLine
 10
258.0680786897
 20
495.40601402
 30
0.0
 11
258.0680786897
 21
495.8715262957
 31
0.0
  0
LINE
  5
B6
330
1F
100
AcDbEntity
  8
0
  6
Continuous
 62
     7
370
    15
100
AcDbLine
 10
860.1694344808
 20
62.9060092516
 30
0.0
 11
860.1694344808
 21
27.9060128279
 31
0.0
  0
LINE
  5
B7
330
1F
100
AcDbEntity
  8
0
  6
Continuous
 62
     7
370
    15
100
AcDbLine
 10
860.1694344808
 20
62.9060092516
 30
0.0
 11
870.7680939962
 21
62.9060092516
 31
0.0
  0
LINE
  5
B8
330
1F
100
AcDbEntity
  8
0
  6
Continuous
 62
     7
370
    15
100
AcDbLine
 10
860.1694344808
 20
27.9060128279
 30
0.0
 11
870.7680939962
 21
27.9060128279
 31
0.0
  0
LINE
  5
B9
330
1F
100
AcDbEntity
  8
0
  6
Continuous
 62
     7
370
    15
100
AcDbLine
 10
860.1694344808
 20
515.9060183115
 30
0.0
 11
860.1694344808
 21
480.9060218878
 31
0.0
  0
LINE
  5
BA
330
1F
100
AcDbEntity
  8
0
  6
Continuous
 62
     7
370
    15
100
AcDbLine
 10
860.1694344808
 20
515.9060183115
 30
0.0
 11
870.7680939962
 21
515.9060183115
 31
0.0
  0
LINE
  5
BB
330
1F
100
AcDbEntity
  8
0
  6
Continuous
 62
     7
370
    15
100
AcDbLine
 10
860.1694344808
 20
480.9060218878
 30
0.0
 11
870.7680939962
 21
480.9060218878
 31
0.0
  0
LINE
  5
BC
330
1F
100
AcDbEntity
  8
0
  6
Continuous
 62
     7
370
    15
100
AcDbLine
 10
859.7059189607
 20
62.9060092516
 30
0.0
 11
859.7059189607
 21
27.9060128279
 31
0.0
  0
LINE
  5
BD
330
1F
100
AcDbEntity
  8
0
  6
Continuous
 62
     7
370
    15
100
AcDbLine
 10
859.7059189607
 20
62.9060092516
 30
0.0
 11
860.1694344808
 21
62.9060092516
 31
0.0
  0
LINE
  5
BE
330
1F
100
AcDbEntity
  8
0
  6
Continuous
 62
     7
370
    15
100
AcDbLine
 10
859.7059189607
 20
27.9060128279
 30
0.0
 11
860.1694344808
 21
27.9060128279
 31
0.0
  0
LINE
  5
BF
330
1F
100
AcDbEntity
  8
0
  6
Continuous
 62
     7
370
    15
100
AcDbLine
 10
859.7059189607
 20
515.9060183115
 30
0.0
 11
859.7059189607
 21
480.9060218878
 31
0.0
  0
LINE
  5
C0
330
1F
100
AcDbEntity
  8
0
  6
Continuous
 62
     7
370
    15
100
AcDbLine
 10
859.7059189607
 20
515.9060183115
 30
0.0
 11
860.1694344808
 21
515.9060183115
 31
0.0
  0
LINE
  5
C1
330
1F
100
AcDbEntity
  8
0
  6
Continuous
 62
     7
370
    15
100
AcDbLine
 10
859.7059189607
 20
480.9060218878
 30
0.0
 11
860.1694344808
 21
480.9060218878
 31
0.0
  0
LINE
  5
C2
330
1F
100
AcDbEntity
  8
0
  6
Continuous
 62
     7
370
    15
100
AcDbLine
 10
859.2680930425
 20
62.9060092516
 30
0.0
 11
859.7059189607
 21
62.9060092516
 31
0.0
  0
LINE
  5
C3
330
1F
100
AcDbEntity
  8
0
  6
Continuous
 62
     7
370
    15
100
AcDbLine
 10
859.2680930425
 20
27.9060128279
 30
0.0
 11
859.7059189607
 21
27.9060128279
 31
0.0
  0
LINE
  5
C4
330
1F
100
AcDbEntity
  8
0
  6
Continuous
 62
     7
370
    15
100
AcDbLine
 10
859.2680930425
 20
515.9060183115
 30
0.0
 11
859.7059189607
 21
515.9060183115
 31
0.0
  0
LINE
  5
C5
330
1F
100
AcDbEntity
  8
0
  6
Continuous
 62
     7
370
    15
100
AcDbLine
 10
859.2680930425
 20
480.9060218878
 30
0.0
 11
859.7059189607
 21
480.9060218878
 31
0.0
  0
ARC
  5
C6
330
1F
100
AcDbEntity
  8
0
  6
Continuous
 62
     7
370
    15
100
AcDbCircle
 10
252.0907664277
 20
42.3171763523
 30
0.0
 40
1.09782824743847
100
AcDbArc
 50
97.334503787
 51
185.8114056244
  0
LINE
  5
C7
330
1F
100
AcDbEntity
  8
0
  6
Continuous
 62
     7
370
    15
100
AcDbLine
 10
251.9506155779
 20
43.4060218878
 30
0.0
 11
255.4940521051
 21
43.4060218878
 31
0.0
  0
LINE
  5
C8
330
1F
100
AcDbEntity
  8
0
  6
Continuous
 62
     7
370
    15
100
AcDbLine
 10
255.4940521051
 20
43.4060218878
 30
0.0
 11
255.4940521051
 21
30.4060104437
 31
0.0
  0
LINE
  5
C9
330
1F
100
AcDbEntity
  8
0
  6
Continuous
 62
     7
370
    15
100
AcDbLine
 10
255.4940521051
 20
30.4060104437
 30
0.0
 11
251.9506155779
 21
30.4060104437
 31
0.0
  0
ARC
  5
CA
330
1F
100
AcDbEntity
  8
0
  6
Continuous
 62
     7
370
    15
100
AcDbCircle
 10
252.0907664277
 20
31.4948559792
 30
0.0
 40
1.097828247438468
100
AcDbArc
 50
174.1885943756
 51
262.665496213
  0
LINE
  5
CB
330
1F
100
AcDbEntity
  8
0
  6
Continuous
 62
     7
370
    15
100
AcDbLine
 10
250.9985803892
 20
42.2060164757
 30
0.0
 11
250.9985803892
 21
31.6060158558
 31
0.0
  0
LINE
  5
CC
330
1F
100
AcDbEntity
  8
0
  6
Continuous
 62
     7
370
    15
100
AcDbLine
 10
251.9506155779
 20
30.4060104437
 30
0.0
 11
251.2201010515
 21
30.4060104437
 31
0.0
  0
ARC
  5
CD
330
1F
100
AcDbEntity
  8
0
  6
Continuous
 62
     7
370
    15
100
AcDbCircle
 10
251.3602166681
 20
31.4948009032
 30
0.0
 40
1.097769124501666
100
AcDbArc
 50
174.1853908748
 51
262.6669531193
  0
LINE
  5
CE
330
1F
100
AcDbEntity
  8
0
  6
Continuous
 62
     7
370
    15
100
AcDbLine
 10
250.2680956651
 20
31.6060158558
 30
0.0
 11
250.9985803892
 21
31.6060158558
 31
0.0
  0
LINE
  5
CF
330
1F
100
AcDbEntity
  8
0
  6
Continuous
 62
     7
370
    15
100
AcDbLine
 10
250.9985803892
 20
42.2060164757
 30
0.0
 11
250.2680956651
 21
42.2060164757
 31
0.0
  0
LINE
  5
D0
330
1F
100
AcDbEntity
  8
0
  6
Continuous
 62
     7
370
    15
100
AcDbLine
 10
250.2680956651
 20
42.2060164757
 30
0.0
 11
250.2680956651
 21
31.6060158558
 31
0.0
  0
LINE
  5
D1
330
1F
100
AcDbEntity
  8
0
  6
Continuous
 62
     7
370
    15
100
AcDbLine
 10
251.2201010515
 20
43.4060218878
 30
0.0
 11
251.9506155779
 21
43.4060218878
 31
0.0
  0
ARC
  5
D2
330
1F
100
AcDbEntity
  8
0
  6
Continuous
 62
     7
370
    15
100
AcDbCircle
 10
251.3602166681
 20
42.3172314283
 30
0.0
 40
1.097769124501662
100
AcDbArc
 50
97.3330468807
 51
185.8146091252
  0
ARC
  5
D3
330
1F
100
AcDbEntity
  8
0
  6
Continuous
 62
     7
370
    15
100
AcDbCircle
 10
252.0907664277
 20
512.3171751602
 30
0.0
 40
1.097828247438517
100
AcDbArc
 50
97.334503787
 51
185.8114056244
  0
LINE
  5
D4
330
1F
100
AcDbEntity
  8
0
  6
Continuous
 62
     7
370
    15
100
AcDbLine
 10
251.9506155779
 20
513.4060206957
 30
0.0
 11
255.4940521051
 21
513.4060206957
 31
0.0
  0
LINE
  5
D5
330
1F
100
AcDbEntity
  8
0
  6
Continuous
 62
     7
370
    15
100
AcDbLine
 10
255.4940521051
 20
513.4060206957
 30
0.0
 11
255.4940521051
 21
500.4060092516
 31
0.0
  0
LINE
  5
D6
330
1F
100
AcDbEntity
  8
0
  6
Continuous
 62
     7
370
    15
100
AcDbLine
 10
255.4940521051
 20
500.4060092516
 30
0.0
 11
251.9506155779
 21
500.4060092516
 31
0.0
  0
ARC
  5
D7
330
1F
100
AcDbEntity
  8
0
  6
Continuous
 62
     7
370
    15
100
AcDbCircle
 10
252.0907664277
 20
501.4948547871
 30
0.0
 40
1.097828247438469
100
AcDbArc
 50
174.1885943756
 51
262.665496213
  0
LINE
  5
D8
330
1F
100
AcDbEntity
  8
0
  6
Continuous
 62
     7
370
    15
100
AcDbLine
 10
250.9985803892
 20
512.2060152836
 30
0.0
 11
250.9985803892
 21
501.6060146637
 31
0.0
  0
LINE
  5
D9
330
1F
100
AcDbEntity
  8
0
  6
Continuous
 62
     7
370
    15
100
AcDbLine
 10
250.9985803892
 20
512.2060152836
 30
0.0
 11
250.2680956651
 21
512.2060152836
 31
0.0
  0
LINE
  5
DA
330
1F
100
AcDbEntity
  8
0
  6
Continuous
 62
     7
370
    15
100
AcDbLine
 10
250.2680956651
 20
501.6060146637
 30
0.0
 11
250.9985803892
 21
501.6060146637
 31
0.0
  0
LINE
  5
DB
330
1F
100
AcDbEntity
  8
0
  6
Continuous
 62
     7
370
    15
100
AcDbLine
 10
250.2680956651
 20
512.2060152836
 30
0.0
 11
250.2680956651
 21
501.6060146637
 31
0.0
  0
LINE
  5
DC
330
1F
100
AcDbEntity
  8
0
  6
Continuous
 62
     7
370
    15
100
AcDbLine
 10
251.2201010515
 20
513.4060206957
 30
0.0
 11
251.9506155779
 21
513.4060206957
 31
0.0
  0
ARC
  5
DD
330
1F
100
AcDbEntity
  8
0
  6
Continuous
 62
     7
370
    15
100
AcDbCircle
 10
251.3602166681
 20
512.3172302362
 30
0.0
 40
1.097769124501645
100
AcDbArc
 50
97.3330468807
 51
185.8146091252
  0
LINE
  5
DE
330
1F
100
AcDbEntity
  8
0
  6
Continuous
 62
     7
370
    15
100
AcDbLine
 10
251.9506155779
 20
500.4060092516
 30
0.0
 11
251.2201010515
 21
500.4060092516
 31
0.0
  0
ARC
  5
DF
330
1F
100
AcDbEntity
  8
0
  6
Continuous
 62
     7
370
    15
100
AcDbCircle
 10
251.3602166681
 20
501.4947997111
 30
0.0
 40
1.097769124501677
100
AcDbArc
 50
174.1853908748
 51
262.6669531193
  0
LINE
  5
E0
330
1F
100
AcDbEntity
  8
0
  6
Continuous
 62
     7
370
    15
100
AcDbLine
 10
255.5755912592
 20
43.4060218878
 30
0.0
 11
255.4940521051
 21
43.4060218878
 31
0.0
  0
LINE
  5
E1
330
1F
100
AcDbEntity
  8
0
  6
Continuous
 62
     7
370
    15
100
AcDbLine
 10
255.4940521051
 20
30.4060104437
 30
0.0
 11
255.6275963117
 21
30.4060104437
 31
0.0
  0
LINE
  5
E2
330
1F
100
AcDbEntity
  8
0
  6
Continuous
 62
     7
370
    15
100
AcDbLine
 10
255.5755912592
 20
513.4060206957
 30
0.0
 11
255.4940521051
 21
513.4060206957
 31
0.0
  0
LINE
  5
E3
330
1F
100
AcDbEntity
  8
0
  6
Continuous
 62
     7
370
    15
100
AcDbLine
 10
255.4940521051
 20
500.4060092516
 30
0.0
 11
255.6275963117
 21
500.4060092516
 31
0.0
  0
LINE
  5
E4
330
1F
100
AcDbEntity
  8
0
  6
Continuous
 62
     7
370
    15
100
AcDbLine
 10
250.2680956651
 20
40.8060225792
 30
0.0
 11
250.1632808973
 21
40.8060225792
 31
0.0
  0
LINE
  5
E5
330
1F
100
AcDbEntity
  8
0
  6
Continuous
 62
     7
370
    15
100
AcDbLine
 10
250.2680956651
 20
32.2060111113
 30
0.0
 11
250.1632808973
 21
32.2060111113
 31
0.0
  0
LINE
  5
E6
330
1F
100
AcDbEntity
  8
0
  6
Continuous
 62
     7
370
    15
100
AcDbLine
 10
255.6339740087
 20
29.7060134955
 30
0.0
 11
250.7680892278
 21
29.7060134955
 31
0.0
  0
LINE
  5
E7
330
1F
100
AcDbEntity
  8
0
  6
Continuous
 62
     7
370
    15
100
AcDbLine
 10
255.642229252
 20
28.9060148545
 30
0.0
 11
250.7686852743
 21
28.9060148545
 31
0.0
  0
LINE
  5
E8
330
1F
100
AcDbEntity
  8
0
  6
Continuous
 62
     7
370
    15
100
AcDbLine
 10
255.5965422918
 20
44.9060174771
 30
0.0
 11
250.7686852743
 21
44.9060174771
 31
0.0
  0
LINE
  5
E9
330
1F
100
AcDbEntity
  8
0
  6
Continuous
 62
     7
370
    15
100
AcDbLine
 10
255.6362389852
 20
44.106018836
 30
0.0
 11
250.7680892278
 21
44.106018836
 31
0.0
  0
LINE
  5
EA
330
1F
100
AcDbEntity
  8
0
  6
Continuous
 62
     7
370
    15
100
AcDbLine
 10
254.368090563
 20
45.2060225554
 30
0.0
 11
255.5314540197
 21
45.2060225554
 31
0.0
  0
LINE
  5
EB
330
1F
100
AcDbEntity
  8
0
  6
Continuous
 62
     7
370
    15
100
AcDbLine
 10
255.6945919325
 20
45.2060225554
 30
0.0
 11
255.7569383909
 21
45.2060225554
 31
0.0
  0
LINE
  5
EC
330
1F
100
AcDbEntity
  8
0
  6
Continuous
 62
     7
370
    15
100
AcDbLine
 10
252.1680831243
 20
45.2060225554
 30
0.0
 11
254.368090563
 21
45.2060225554
 31
0.0
  0
LINE
  5
ED
330
1F
100
AcDbEntity
  8
0
  6
Continuous
 62
     7
370
    15
100
AcDbLine
 10
254.368090563
 20
28.5060229845
 30
0.0
 11
255.4714619447
 21
28.5060229845
 31
0.0
  0
LINE
  5
EE
330
1F
100
AcDbEntity
  8
0
  6
Continuous
 62
     7
370
    15
100
AcDbLine
 10
252.2680699159
 20
28.5060229845
 30
0.0
 11
254.368090563
 21
28.5060229845
 31
0.0
  0
LINE
  5
EF
330
1F
100
AcDbEntity
  8
0
  6
Continuous
 62
     7
370
    15
100
AcDbLine
 10
254.368090563
 20
28.1060162134
 30
0.0
 11
255.2315830518
 21
28.1060162134
 31
0.0
  0
LINE
  5
F0
330
1F
100
AcDbEntity
  8
0
  6
Continuous
 62
     7
370
    15
100
AcDbLine
 10
252.2680699159
 20
28.1060162134
 30
0.0
 11
254.368090563
 21
28.1060162134
 31
0.0
  0
ARC
  5
F1
330
1F
100
AcDbEntity
  8
0
  6
Continuous
 62
     7
370
    15
100
AcDbCircle
 10
251.2335997524
 20
29.7036627803
 30
0.0
 40
0.8024888267358486
100
AcDbArc
 50
179.8321643308
 51
234.5435844458
  0
ARC
  5
F2
330
1F
100
AcDbEntity
  8
0
  6
Continuous
 62
     7
370
    15
100
AcDbCircle
 10
251.2335997524
 20
44.1083695512
 30
0.0
 40
0.8024888267358343
100
AcDbArc
 50
125.4564155542
 51
180.1678356692
  0
LINE
  5
F3
330
1F
100
AcDbEntity
  8
0
  6
Continuous
 62
     7
370
    15
100
AcDbLine
 10
251.2189685632
 20
30.1560136624
 30
0.0
 11
251.2189685632
 21
29.7060134955
 31
0.0
  0
LINE
  5
F4
330
1F
100
AcDbEntity
  8
0
  6
Continuous
 62
     7
370
    15
100
AcDbLine
 10
251.2189685632
 20
44.106018836
 30
0.0
 11
251.2189685632
 21
43.6560186692
 31
0.0
  0
LINE
  5
F5
330
1F
100
AcDbEntity
  8
0
  6
Continuous
 62
     7
370
    15
100
AcDbLine
 10
250.4311143686
 20
29.7060134955
 30
0.0
 11
250.4311143686
 21
30.9344652243
 31
0.0
  0
LINE
  5
F6
330
1F
100
AcDbEntity
  8
0
  6
Continuous
 62
     7
370
    15
100
AcDbLine
 10
250.4311143686
 20
42.8775671072
 30
0.0
 11
250.4311143686
 21
44.106018836
 31
0.0
  0
SPLINE
  5
F7
330
1F
100
AcDbEntity
  8
0
  6
Continuous
 62
     7
370
    15
100
AcDbSpline
210
0.0
220
0.0
230
1.0
 70
    24
 71
     3
 72
    12
 73
     8
 74
     0
 42
0.00000001
 43
0.00000001
 40
0.0
 40
0.0
 40
0.0
 40
0.0
 40
0.2185057815962484
 40
0.4370129915963154
 40
0.6555162179206331
 40
0.8740236704134351
 40
1.0
 40
1.0
 40
1.0
 40
1.0
 10
257.4274181653701
 20
43.59841077997534
 30
0.0
 10
257.2306981628598
 20
43.59841077997534
 30
0.0
 10
256.837256871852
 20
43.59841077997531
 30
0.0
 10
256.2765099272998
 20
43.59841077997542
 30
0.0
 10
255.8588439390655
 20
43.59841077997537
 30
0.0
 10
255.6322911125111
 20
43.59841077997537
 30
0.0
 10
255.6498026445814
 20
43.59841077997534
 30
0.0
 10
255.6562065412245
 20
43.59841077997534
 30
0.0
  0
SPLINE
  5
F8
330
1F
100
AcDbEntity
  8
0
  6
Continuous
 62
     7
370
    15
100
AcDbSpline
210
0.0
220
0.0
230
1.0
 70
    24
 71
     3
 72
     9
 73
     5
 74
     0
 42
0.00000001
 43
0.00000001
 40
0.0
 40
0.0
 40
0.0
 40
0.0
 40
0.1969977672690561
 40
1.0
 40
1.0
 40
1.0
 40
1.0
 10
258.0680786897383
 20
43.59841077997531
 30
0.0
 10
258.0354315709462
 20
43.59841077997531
 30
0.0
 10
257.8697082775062
 20
43.59841077997531
 30
0.0
 10
257.6244006987872
 20
43.59841077997534
 30
0.0
 10
257.4274181653701
 20
43.59841077997534
 30
0.0
  0
SPLINE
  5
F9
330
1F
100
AcDbEntity
  8
0
  6
Continuous
 62
     7
370
    15
100
AcDbSpline
210
0.0
220
0.0
230
1.0
 70
     8
 71
     3
 72
    13
 73
     9
 74
     0
 42
0.00000001
 43
0.00000001
 40
0.0
 40
0.0
 40
0.0
 40
0.0
 40
0.1877298953325393
 40
0.3754728305372036
 40
0.5632112368984064
 40
0.7509454828094013
 40
0.9386831605173751
 40
1.0
 40
1.0
 40
1.0
 40
1.0
 10
257.1341335107527
 20
47.21325367166845
 30
0.0
 10
256.9374474075956
 20
47.21054880933207
 30
0.0
 10
256.5440615393036
 20
47.20513889677736
 30
0.0
 10
256.0110392317685
 20
46.91461690839105
 30
0.0
 10
255.6205107248193
 20
46.45970867138244
 30
0.0
 10
255.4475712356607
 20
45.89803470658918
 30
0.0
 10
255.4508271470425
 20
45.42482904212159
 30
0.0
 10
255.5781816270549
 20
45.20340561172334
 30
0.0
 10
255.6095361043654
 20
45.14889150335638
 30
0.0
  0
SPLINE
  5
FA
330
1F
100
AcDbEntity
  8
0
  6
Continuous
 62
     7
370
    15
100
AcDbSpline
210
0.0
220
0.0
230
1.0
 70
     8
 71
     3
 72
    10
 73
     6
 74
     0
 42
0.00000001
 43
0.00000001
 40
0.0
 40
0.0
 40
0.0
 40
0.0
 40
0.20933945978085
 40
0.6046633240057445
 40
0.9999999999999999
 40
0.9999999999999999
 40
0.9999999999999999
 40
0.9999999999999999
 10
258.2713305284224
 20
46.40713065340368
 30
0.0
 10
258.2296223515883
 20
46.50019339753398
 30
0.0
 10
258.1091510134607
 20
46.76899904108464
 30
0.0
 10
257.7024523585126
 20
47.08566654456889
 30
0.0
 10
257.3235751730997
 20
47.17072416988074
 30
0.0
 10
257.1341335107527
 20
47.21325367166845
 30
0.0
  0
SPLINE
  5
FB
330
1F
100
AcDbEntity
  8
0
  6
Continuous
 62
     7
370
    15
100
AcDbSpline
210
0.0
220
0.0
230
1.0
 70
     8
 71
     3
 72
    13
 73
     9
 74
     0
 42
0.00000001
 43
0.00000001
 40
0.0
 40
0.0
 40
0.0
 40
0.0
 40
0.1768560583406532
 40
0.3537248257769643
 40
0.5305893266827663
 40
0.7074541548476563
 40
0.8843179693042006
 40
1.0
 40
1.0
 40
1.0
 40
1.0
 10
257.1169077684127
 20
26.57006412222235
 30
0.0
 10
256.9202460418464
 20
26.5727532892451
 30
0.0
 10
256.5269084563582
 20
26.57813181653751
 30
0.0
 10
255.9935196851547
 20
26.86880064425168
 30
0.0
 10
255.6043839511586
 20
27.32317164878081
 30
0.0
 10
255.4262290130535
 20
27.88686780240202
 30
0.0
 10
255.4471828927066
 20
28.42002924657499
 30
0.0
 10
255.6132910219045
 20
28.69329215897012
 30
0.0
 10
255.6789755155287
 20
28.80134909822787
 30
0.0
  0
SPLINE
  5
FC
330
1F
100
AcDbEntity
  8
0
  6
Continuous
 62
     7
370
    15
100
AcDbSpline
210
0.0
220
0.0
230
1.0
 70
     8
 71
     3
 72
    10
 73
     6
 74
     0
 42
0.00000001
 43
0.00000001
 40
0.0
 40
0.0
 40
0.0
 40
0.0
 40
0.0588223105923514
 40
0.5294052587721398
 40
1.0
 40
1.0
 40
1.0
 40
1.0
 10
258.1470250417433
 20
27.16996997072546
 30
0.0
 10
258.1363905173116
 20
27.14848901846933
 30
0.0
 10
258.0406789904777
 20
26.95515881818833
 30
0.0
 10
257.6798013825486
 20
26.70097849911524
 30
0.0
 10
257.3045405404764
 20
26.61370261237847
 30
0.0
 10
257.1169077684127
 20
26.57006412222235
 30
0.0
  0
SPLINE
  5
FD
330
1F
100
AcDbEntity
  8
0
  6
Continuous
 62
     7
370
    15
100
AcDbSpline
210
0.0
220
0.0
230
1.0
 70
    24
 71
     3
 72
    12
 73
     8
 74
     0
 42
0.00000001
 43
0.00000001
 40
0.0
 40
0.0
 40
0.0
 40
0.0
 40
0.2193551470434282
 40
0.4387117280430993
 40
0.6580643098818634
 40
0.8774211343168761
 40
1.0
 40
1.0
 40
1.0
 40
1.0
 10
257.4274181653701
 20
30.03978460504858
 30
0.0
 10
257.230702844259
 20
30.03978460504855
 30
0.0
 10
256.8372709160804
 20
30.03978460504855
 30
0.0
 10
256.276453750384
 20
30.03978460504852
 30
0.0
 10
255.8590545998856
 20
30.03978460504858
 30
0.0
 10
255.6332094532656
 20
30.03978460504866
 30
0.0
 10
255.6501818085962
 20
30.03978460504855
 30
0.0
 10
255.6562661458693
 20
30.03978460504858
 30
0.0
  0
SPLINE
  5
FE
330
1F
100
AcDbEntity
  8
0
  6
Continuous
 62
     7
370
    15
100
AcDbSpline
210
0.0
220
0.0
230
1.0
 70
    24
 71
     3
 72
     9
 73
     5
 74
     0
 42
0.00000001
 43
0.00000001
 40
0.0
 40
0.0
 40
0.0
 40
0.0
 40
0.1969977672690561
 40
1.0
 40
1.0
 40
1.0
 40
1.0
 10
258.0680786897383
 20
30.03978460504855
 30
0.0
 10
258.0354315709462
 20
30.03978460504855
 30
0.0
 10
257.8697082775062
 20
30.03978460504858
 30
0.0
 10
257.6244006987872
 20
30.03978460504861
 30
0.0
 10
257.4274181653701
 20
30.03978460504858
 30
0.0
  0
SPLINE
  5
FF
330
1F
100
AcDbEntity
  8
0
  6
Continuous
 62
     7
370
    15
100
AcDbSpline
210
0.0
220
0.0
230
1.0
 70
     8
 71
     3
 72
    13
 73
     9
 74
     0
 42
0.00000001
 43
0.00000001
 40
0.0
 40
0.0
 40
0.0
 40
0.0
 40
0.1768666446852921
 40
0.3537286573976354
 40
0.5305943864519905
 40
0.7074561960043457
 40
0.8843212386046765
 40
1.0
 40
1.0
 40
1.0
 40
1.0
 10
255.565071039363
 20
49.82967405989019
 30
0.0
 10
255.3683984238046
 20
49.82698183705983
 30
0.0
 10
254.9750583433607
 20
49.82159746190587
 30
0.0
 10
254.4416781572787
 20
49.53091354488695
 30
0.0
 10
254.0525517702873
 20
49.07655590601598
 30
0.0
 10
253.8743875013218
 20
48.51286464635623
 30
0.0
 10
253.8953557428678
 20
47.97971823310571
 30
0.0
 10
254.0614366520161
 20
47.70644700964765
 30
0.0
 10
254.1271089841567
 20
47.59838908388464
 30
0.0
  0
SPLINE
  5
100
330
1F
100
AcDbEntity
  8
0
  6
Continuous
 62
     7
370
    15
100
AcDbSpline
210
0.0
220
0.0
230
1.0
 70
     8
 71
     3
 72
    10
 73
     6
 74
     0
 42
0.00000001
 43
0.00000001
 40
0.0
 40
0.0
 40
0.0
 40
0.0
 40
0.1474527595633529
 40
0.5737379607484987
 40
1.0
 40
1.0
 40
1.0
 40
1.0
 10
256.6536604692183
 20
49.11714523508398
 30
0.0
 10
256.6256036816363
 20
49.17743745433242
 30
0.0
 10
256.5164348594308
 20
49.41203418228124
 30
0.0
 10
256.1313518038513
 20
49.70082806542711
 30
0.0
 10
255.753827875346
 20
49.78672617296004
 30
0.0
 10
255.565071039363
 20
49.82967405989019
 30
0.0
  0
SPLINE
  5
101
330
1F
100
AcDbEntity
  8
0
  6
Continuous
 62
     7
370
    15
100
AcDbSpline
210
0.0
220
0.0
230
1.0
 70
     8
 71
     3
 72
    13
 73
     9
 74
     0
 42
0.00000001
 43
0.00000001
 40
0.0
 40
0.0
 40
0.0
 40
0.0
 40
0.1768662259612083
 40
0.3537257360166322
 40
0.5305910463490713
 40
0.7074561085844496
 40
0.8843215124691096
 40
1.0
 40
1.0
 40
1.0
 40
1.0
 10
255.5478452970229
 20
23.95364373400061
 30
0.0
 10
255.3511733234918
 20
23.95633715461454
 30
0.0
 10
254.9578368443928
 20
23.96172389356888
 30
0.0
 10
254.4244487895125
 20
24.25238703787907
 30
0.0
 10
254.0353230071116
 20
24.70675000745812
 30
0.0
 10
253.8571631716089
 20
25.27045184139498
 30
0.0
 10
253.8781293448025
 20
25.80359811255817
 30
0.0
 10
254.0442108493448
 20
26.07687058032721
 30
0.0
 10
254.1098832418166
 20
26.18492871000616
 30
0.0
  0
SPLINE
  5
102
330
1F
100
AcDbEntity
  8
0
  6
Continuous
 62
     7
370
    15
100
AcDbSpline
210
0.0
220
0.0
230
1.0
 70
     8
 71
     3
 72
    10
 73
     6
 74
     0
 42
0.00000001
 43
0.00000001
 40
0.0
 40
0.0
 40
0.0
 40
0.0
 40
0.1474638927593408
 40
0.5737391341105101
 40
1.0
 40
1.0
 40
1.0
 40
1.0
 10
256.6364347268782
 20
24.66617255880682
 30
0.0
 10
256.6083788331347
 20
24.60587493777008
 30
0.0
 10
256.4992215073522
 20
24.37127442482273
 30
0.0
 10
256.1141171445988
 20
24.08249130315757
 30
0.0
 10
255.736600457653
 20
23.99659244091079
 30
0.0
 10
255.5478452970229
 20
23.95364373400061
 30
0.0
  0
LINE
  5
103
330
1F
100
AcDbEntity
  8
0
  6
Continuous
 62
     7
370
    15
100
AcDbLine
 10
250.2680956651
 20
502.2060099192
 30
0.0
 11
250.1632808973
 21
502.2060099192
 31
0.0
  0
LINE
  5
104
330
1F
100
AcDbEntity
  8
0
  6
Continuous
 62
     7
370
    15
100
AcDbLine
 10
250.2680956651
 20
510.8060213871
 30
0.0
 11
250.1632808973
 21
510.8060213871
 31
0.0
  0
LINE
  5
105
330
1F
100
AcDbEntity
  8
0
  6
Continuous
 62
     7
370
    15
100
AcDbLine
 10
255.6362389852
 20
514.106017644
 30
0.0
 11
250.7680892278
 21
514.106017644
 31
0.0
  0
LINE
  5
106
330
1F
100
AcDbEntity
  8
0
  6
Continuous
 62
     7
370
    15
100
AcDbLine
 10
255.5965422918
 20
514.906016285
 30
0.0
 11
250.7686852743
 21
514.906016285
 31
0.0
  0
LINE
  5
107
330
1F
100
AcDbEntity
  8
0
  6
Continuous
 62
     7
370
    15
100
AcDbLine
 10
255.642229252
 20
498.9060136624
 30
0.0
 11
250.7686852743
 21
498.9060136624
 31
0.0
  0
LINE
  5
108
330
1F
100
AcDbEntity
  8
0
  6
Continuous
 62
     7
370
    15
100
AcDbLine
 10
255.6339740087
 20
499.7060123034
 30
0.0
 11
250.7680892278
 21
499.7060123034
 31
0.0
  0
LINE
  5
109
330
1F
100
AcDbEntity
  8
0
  6
Continuous
 62
     7
370
    15
100
AcDbLine
 10
254.368090563
 20
515.2060213633
 30
0.0
 11
255.5314540197
 21
515.2060213633
 31
0.0
  0
LINE
  5
10A
330
1F
100
AcDbEntity
  8
0
  6
Continuous
 62
     7
370
    15
100
AcDbLine
 10
255.6945919325
 20
515.2060213633
 30
0.0
 11
255.7569383909
 21
515.2060213633
 31
0.0
  0
LINE
  5
10B
330
1F
100
AcDbEntity
  8
0
  6
Continuous
 62
     7
370
    15
100
AcDbLine
 10
252.1680831243
 20
515.2060213633
 30
0.0
 11
254.368090563
 21
515.2060213633
 31
0.0
  0
LINE
  5
10C
330
1F
100
AcDbEntity
  8
0
  6
Continuous
 62
     7
370
    15
100
AcDbLine
 10
254.368090563
 20
498.5060217924
 30
0.0
 11
255.4714619447
 21
498.5060217924
 31
0.0
  0
LINE
  5
10D
330
1F
100
AcDbEntity
  8
0
  6
Continuous
 62
     7
370
    15
100
AcDbLine
 10
252.2680699159
 20
498.5060217924
 30
0.0
 11
254.368090563
 21
498.5060217924
 31
0.0
  0
LINE
  5
10E
330
1F
100
AcDbEntity
  8
0
  6
Continuous
 62
     7
370
    15
100
AcDbLine
 10
254.368090563
 20
498.1060150213
 30
0.0
 11
255.2315830518
 21
498.1060150213
 31
0.0
  0
LINE
  5
10F
330
1F
100
AcDbEntity
  8
0
  6
Continuous
 62
     7
370
    15
100
AcDbLine
 10
252.2680699159
 20
498.1060150213
 30
0.0
 11
254.368090563
 21
498.1060150213
 31
0.0
  0
ARC
  5
110
330
1F
100
AcDbEntity
  8
0
  6
Continuous
 62
     7
370
    15
100
AcDbCircle
 10
251.2335997524
 20
514.1083683591
 30
0.0
 40
0.8024888267358345
100
AcDbArc
 50
125.4564155542
 51
180.1678356692
  0
ARC
  5
111
330
1F
100
AcDbEntity
  8
0
  6
Continuous
 62
     7
370
    15
100
AcDbCircle
 10
251.2335997524
 20
499.7036615882
 30
0.0
 40
0.8024888267358343
100
AcDbArc
 50
179.8321643308
 51
234.5435844458
  0
LINE
  5
112
330
1F
100
AcDbEntity
  8
0
  6
Continuous
 62
     7
370
    15
100
AcDbLine
 10
251.2189685632
 20
500.1560124703
 30
0.0
 11
251.2189685632
 21
499.7060123034
 31
0.0
  0
LINE
  5
113
330
1F
100
AcDbEntity
  8
0
  6
Continuous
 62
     7
370
    15
100
AcDbLine
 10
251.2189685632
 20
514.106017644
 30
0.0
 11
251.2189685632
 21
513.6560174771
 31
0.0
  0
LINE
  5
114
330
1F
100
AcDbEntity
  8
0
  6
Continuous
 62
     7
370
    15
100
AcDbLine
 10
250.4311143686
 20
512.8775659151
 30
0.0
 11
250.4311143686
 21
514.106017644
 31
0.0
  0
LINE
  5
115
330
1F
100
AcDbEntity
  8
0
  6
Continuous
 62
     7
370
    15
100
AcDbLine
 10
250.4311143686
 20
499.7060123034
 30
0.0
 11
250.4311143686
 21
500.9344640322
 31
0.0
  0
SPLINE
  5
116
330
1F
100
AcDbEntity
  8
0
  6
Continuous
 62
     7
370
    15
100
AcDbSpline
210
0.0
220
0.0
230
1.0
 70
    24
 71
     3
 72
    12
 73
     8
 74
     0
 42
0.00000001
 43
0.00000001
 40
0.0
 40
0.0
 40
0.0
 40
0.0
 40
0.2185057815962484
 40
0.4370129915963154
 40
0.6555162179206331
 40
0.8740236704134351
 40
1.0
 40
1.0
 40
1.0
 40
1.0
 10
257.4274181653701
 20
513.5984095878825
 30
0.0
 10
257.2306981628598
 20
513.5984095878824
 30
0.0
 10
256.837256871852
 20
513.5984095878825
 30
0.0
 10
256.2765099272998
 20
513.5984095878824
 30
0.0
 10
255.8588439390655
 20
513.5984095878824
 30
0.0
 10
255.6322911125111
 20
513.5984095878824
 30
0.0
 10
255.6498026445814
 20
513.5984095878825
 30
0.0
 10
255.6562065412245
 20
513.5984095878825
 30
0.0
  0
SPLINE
  5
117
330
1F
100
AcDbEntity
  8
0
  6
Continuous
 62
     7
370
    15
100
AcDbSpline
210
0.0
220
0.0
230
1.0
 70
    24
 71
     3
 72
     9
 73
     5
 74
     0
 42
0.00000001
 43
0.00000001
 40
0.0
 40
0.0
 40
0.0
 40
0.0
 40
0.1969977672690561
 40
1.0
 40
1.0
 40
1.0
 40
1.0
 10
258.0680786897383
 20
513.5984095878825
 30
0.0
 10
258.0354315709462
 20
513.5984095878825
 30
0.0
 10
257.8697082775062
 20
513.5984095878825
 30
0.0
 10
257.6244006987872
 20
513.5984095878825
 30
0.0
 10
257.4274181653701
 20
513.5984095878825
 30
0.0
  0
SPLINE
  5
118
330
1F
100
AcDbEntity
  8
0
  6
Continuous
 62
     7
370
    15
100
AcDbSpline
210
0.0
220
0.0
230
1.0
 70
     8
 71
     3
 72
    13
 73
     9
 74
     0
 42
0.00000001
 43
0.00000001
 40
0.0
 40
0.0
 40
0.0
 40
0.0
 40
0.1877298953325393
 40
0.3754728305372036
 40
0.5632112368984064
 40
0.7509454828094013
 40
0.9386831605173751
 40
1.0
 40
1.0
 40
1.0
 40
1.0
 10
257.1341335107527
 20
517.2132524795757
 30
0.0
 10
256.9374474075956
 20
517.2105476172392
 30
0.0
 10
256.5440615393036
 20
517.2051377046845
 30
0.0
 10
256.0110392317685
 20
516.914615716298
 30
0.0
 10
255.6205107248193
 20
516.4597074792895
 30
0.0
 10
255.4475712356607
 20
515.8980335144964
 30
0.0
 10
255.4508271470425
 20
515.4248278500286
 30
0.0
 10
255.5781816270549
 20
515.2034044196305
 30
0.0
 10
255.6095361043654
 20
515.1488903112636
 30
0.0
  0
SPLINE
  5
119
330
1F
100
AcDbEntity
  8
0
  6
Continuous
 62
     7
370
    15
100
AcDbSpline
210
0.0
220
0.0
230
1.0
 70
     8
 71
     3
 72
    10
 73
     6
 74
     0
 42
0.00000001
 43
0.00000001
 40
0.0
 40
0.0
 40
0.0
 40
0.0
 40
0.20933945978085
 40
0.6046633240057445
 40
0.9999999999999999
 40
0.9999999999999999
 40
0.9999999999999999
 40
0.9999999999999999
 10
258.2713305284224
 20
516.4071294613109
 30
0.0
 10
258.2296223515883
 20
516.5001922054411
 30
0.0
 10
258.1091510134607
 20
516.7689978489917
 30
0.0
 10
257.7024523585126
 20
517.085665352476
 30
0.0
 10
257.3235751730997
 20
517.1707229777878
 30
0.0
 10
257.1341335107527
 20
517.2132524795757
 30
0.0
  0
SPLINE
  5
11A
330
1F
100
AcDbEntity
  8
0
  6
Continuous
 62
     7
370
    15
100
AcDbSpline
210
0.0
220
0.0
230
1.0
 70
     8
 71
     3
 72
    13
 73
     9
 74
     0
 42
0.00000001
 43
0.00000001
 40
0.0
 40
0.0
 40
0.0
 40
0.0
 40
0.1768560583406532
 40
0.3537248257769643
 40
0.5305893266827663
 40
0.7074541548476563
 40
0.8843179693042006
 40
1.0
 40
1.0
 40
1.0
 40
1.0
 10
257.1169077684127
 20
496.5700629301294
 30
0.0
 10
256.9202460418464
 20
496.5727520971522
 30
0.0
 10
256.5269084563582
 20
496.5781306244446
 30
0.0
 10
255.9935196851547
 20
496.8687994521588
 30
0.0
 10
255.6043839511586
 20
497.3231704566878
 30
0.0
 10
255.4262290130535
 20
497.8868666103091
 30
0.0
 10
255.4471828927066
 20
498.420028054482
 30
0.0
 10
255.6132910219045
 20
498.6932909668773
 30
0.0
 10
255.6789755155287
 20
498.801347906135
 30
0.0
  0
SPLINE
  5
11B
330
1F
100
AcDbEntity
  8
0
  6
Continuous
 62
     7
370
    15
100
AcDbSpline
210
0.0
220
0.0
230
1.0
 70
     8
 71
     3
 72
    10
 73
     6
 74
     0
 42
0.00000001
 43
0.00000001
 40
0.0
 40
0.0
 40
0.0
 40
0.0
 40
0.0588223105923514
 40
0.5294052587721398
 40
1.0
 40
1.0
 40
1.0
 40
1.0
 10
258.1470250417433
 20
497.1699687786326
 30
0.0
 10
258.1363905173116
 20
497.1484878263764
 30
0.0
 10
258.0406789904777
 20
496.9551576260953
 30
0.0
 10
257.6798013825486
 20
496.7009773070226
 30
0.0
 10
257.3045405404764
 20
496.6137014202856
 30
0.0
 10
257.1169077684127
 20
496.5700629301294
 30
0.0
  0
SPLINE
  5
11C
330
1F
100
AcDbEntity
  8
0
  6
Continuous
 62
     7
370
    15
100
AcDbSpline
210
0.0
220
0.0
230
1.0
 70
    24
 71
     3
 72
    12
 73
     8
 74
     0
 42
0.00000001
 43
0.00000001
 40
0.0
 40
0.0
 40
0.0
 40
0.0
 40
0.2193551470434282
 40
0.4387117280430993
 40
0.6580643098818634
 40
0.8774211343168761
 40
1.0
 40
1.0
 40
1.0
 40
1.0
 10
257.4274181653701
 20
500.0397834129557
 30
0.0
 10
257.230702844259
 20
500.0397834129557
 30
0.0
 10
256.8372709160804
 20
500.0397834129557
 30
0.0
 10
256.276453750384
 20
500.0397834129557
 30
0.0
 10
255.8590545998856
 20
500.0397834129557
 30
0.0
 10
255.6332094532656
 20
500.0397834129557
 30
0.0
 10
255.6501818085962
 20
500.0397834129557
 30
0.0
 10
255.6562661458693
 20
500.0397834129557
 30
0.0
  0
SPLINE
  5
11D
330
1F
100
AcDbEntity
  8
0
  6
Continuous
 62
     7
370
    15
100
AcDbSpline
210
0.0
220
0.0
230
1.0
 70
    24
 71
     3
 72
     9
 73
     5
 74
     0
 42
0.00000001
 43
0.00000001
 40
0.0
 40
0.0
 40
0.0
 40
0.0
 40
0.1969977672690561
 40
1.0
 40
1.0
 40
1.0
 40
1.0
 10
258.0680786897383
 20
500.0397834129557
 30
0.0
 10
258.0354315709462
 20
500.0397834129557
 30
0.0
 10
257.8697082775062
 20
500.0397834129556
 30
0.0
 10
257.6244006987872
 20
500.0397834129557
 30
0.0
 10
257.4274181653701
 20
500.0397834129557
 30
0.0
  0
SPLINE
  5
11E
330
1F
100
AcDbEntity
  8
0
  6
Continuous
 62
     7
370
    15
100
AcDbSpline
210
0.0
220
0.0
230
1.0
 70
     8
 71
     3
 72
    13
 73
     9
 74
     0
 42
0.00000001
 43
0.00000001
 40
0.0
 40
0.0
 40
0.0
 40
0.0
 40
0.1768666446852921
 40
0.3537286573976354
 40
0.5305943864519905
 40
0.7074561960043457
 40
0.8843212386046765
 40
1.0
 40
1.0
 40
1.0
 40
1.0
 10
255.565071039363
 20
519.8296728677974
 30
0.0
 10
255.3683984238046
 20
519.8269806449669
 30
0.0
 10
254.9750583433607
 20
519.8215962698131
 30
0.0
 10
254.4416781572787
 20
519.530912352794
 30
0.0
 10
254.0525517702873
 20
519.0765547139232
 30
0.0
 10
253.8743875013218
 20
518.5128634542633
 30
0.0
 10
253.8953557428678
 20
517.9797170410128
 30
0.0
 10
254.0614366520161
 20
517.7064458175548
 30
0.0
 10
254.1271089841567
 20
517.5983878917918
 30
0.0
  0
SPLINE
  5
11F
330
1F
100
AcDbEntity
  8
0
  6
Continuous
 62
     7
370
    15
100
AcDbSpline
210
0.0
220
0.0
230
1.0
 70
     8
 71
     3
 72
    10
 73
     6
 74
     0
 42
0.00000001
 43
0.00000001
 40
0.0
 40
0.0
 40
0.0
 40
0.0
 40
0.1474527595633529
 40
0.5737379607484987
 40
1.0
 40
1.0
 40
1.0
 40
1.0
 10
256.6536604692183
 20
519.1171440429912
 30
0.0
 10
256.6256036816363
 20
519.1774362622394
 30
0.0
 10
256.5164348594308
 20
519.4120329901883
 30
0.0
 10
256.1313518038513
 20
519.7008268733341
 30
0.0
 10
255.753827875346
 20
519.7867249808672
 30
0.0
 10
255.565071039363
 20
519.8296728677974
 30
0.0
  0
SPLINE
  5
120
330
1F
100
AcDbEntity
  8
0
  6
Continuous
 62
     7
370
    15
100
AcDbSpline
210
0.0
220
0.0
230
1.0
 70
     8
 71
     3
 72
    13
 73
     9
 74
     0
 42
0.00000001
 43
0.00000001
 40
0.0
 40
0.0
 40
0.0
 40
0.0
 40
0.1768666084924337
 40
0.3537285850128666
 40
0.5305942778745507
 40
0.7074554758623305
 40
0.8843212622764379
 40
0.9999999999999999
 40
0.9999999999999999
 40
0.9999999999999999
 40
0.9999999999999999
 10
255.5478452970229
 20
493.9536425419077
 30
0.0
 10
255.3511726835734
 20
493.9563347436318
 30
0.0
 10
254.9578326073471
 20
493.9617190765736
 30
0.0
 10
254.4244523896331
 20
494.2524033101788
 30
0.0
 10
254.035326544814
 20
494.7067592533076
 30
0.0
 10
253.8571614148085
 20
495.2704550480316
 30
0.0
 10
253.8781296408897
 20
495.8035969850639
 30
0.0
 10
254.0442109332473
 20
496.0768694065397
 30
0.0
 10
254.1098832418166
 20
496.1849275179133
 30
0.0
  0
SPLINE
  5
121
330
1F
100
AcDbEntity
  8
0
  6
Continuous
 62
     7
370
    15
100
AcDbSpline
210
0.0
220
0.0
230
1.0
 70
     8
 71
     3
 72
    10
 73
     6
 74
     0
 42
0.00000001
 43
0.00000001
 40
0.0
 40
0.0
 40
0.0
 40
0.0
 40
0.1474638927593408
 40
0.5737391341105101
 40
1.0
 40
1.0
 40
1.0
 40
1.0
 10
256.6364347268782
 20
494.6661713667139
 30
0.0
 10
256.6083788331347
 20
494.6058737456772
 30
0.0
 10
256.4992215073522
 20
494.3712732327299
 30
0.0
 10
256.1141171445988
 20
494.0824901110648
 30
0.0
 10
255.736600457653
 20
493.9965912488179
 30
0.0
 10
255.5478452970229
 20
493.9536425419077
 30
0.0
  0
LINE
  5
122
330
1F
100
AcDbEntity
  8
0
  6
Continuous
 62
     7
370
    15
100
AcDbLine
 10
860.1694344808
 20
26.9060108013
 30
0.0
 11
860.1694344808
 21
-8.0939856224
 31
0.0
  0
LINE
  5
123
330
1F
100
AcDbEntity
  8
0
  6
Continuous
 62
     7
370
    15
100
AcDbLine
 10
870.7680939962
 20
26.9060108013
 30
0.0
 11
860.1694344808
 21
26.9060108013
 31
0.0
  0
LINE
  5
124
330
1F
100
AcDbEntity
  8
0
  6
Continuous
 62
     7
370
    15
100
AcDbLine
 10
870.7680939962
 20
-8.0939856224
 30
0.0
 11
860.1694344808
 21
-8.0939856224
 31
0.0
  0
LINE
  5
125
330
1F
100
AcDbEntity
  8
0
  6
Continuous
 62
     7
370
    15
100
AcDbLine
 10
860.1694344808
 20
551.9060167618
 30
0.0
 11
860.1694344808
 21
516.9060203381
 31
0.0
  0
LINE
  5
126
330
1F
100
AcDbEntity
  8
0
  6
Continuous
 62
     7
370
    15
100
AcDbLine
 10
870.7680939962
 20
551.9060167618
 30
0.0
 11
860.1694344808
 21
551.9060167618
 31
0.0
  0
LINE
  5
127
330
1F
100
AcDbEntity
  8
0
  6
Continuous
 62
     7
370
    15
100
AcDbLine
 10
870.7680939962
 20
516.9060203381
 30
0.0
 11
860.1694344808
 21
516.9060203381
 31
0.0
  0
LINE
  5
128
330
1F
100
AcDbEntity
  8
0
  6
Continuous
 62
     7
370
    15
100
AcDbLine
 10
867.7680730154
 20
63.9060112782
 30
0.0
 11
862.7680777837
 21
63.9060112782
 31
0.0
  0
LINE
  5
129
330
1F
100
AcDbEntity
  8
0
  6
Continuous
 62
     7
370
    15
100
AcDbLine
 10
862.7680777837
 20
479.9060198612
 30
0.0
 11
867.7680730154
 21
479.9060198612
 31
0.0
  0
LINE
  5
12A
330
1F
100
AcDbEntity
  8
0
  6
Continuous
 62
     7
370
    15
100
AcDbLine
 10
859.7059189607
 20
-8.0939856224
 30
0.0
 11
859.7059189607
 21
26.9060108013
 31
0.0
  0
LINE
  5
12B
330
1F
100
AcDbEntity
  8
0
  6
Continuous
 62
     7
370
    15
100
AcDbLine
 10
859.7059189607
 20
26.9060108013
 30
0.0
 11
860.1694344808
 21
26.9060108013
 31
0.0
  0
LINE
  5
12C
330
1F
100
AcDbEntity
  8
0
  6
Continuous
 62
     7
370
    15
100
AcDbLine
 10
860.1694344808
 20
-8.0939856224
 30
0.0
 11
859.7059189607
 21
-8.0939856224
 31
0.0
  0
LINE
  5
12D
330
1F
100
AcDbEntity
  8
0
  6
Continuous
 62
     7
370
    15
100
AcDbLine
 10
859.7059189607
 20
516.9060203381
 30
0.0
 11
859.7059189607
 21
551.9060167618
 31
0.0
  0
LINE
  5
12E
330
1F
100
AcDbEntity
  8
0
  6
Continuous
 62
     7
370
    15
100
AcDbLine
 10
859.7059189607
 20
551.9060167618
 30
0.0
 11
860.1694344808
 21
551.9060167618
 31
0.0
  0
LINE
  5
12F
330
1F
100
AcDbEntity
  8
0
  6
Continuous
 62
     7
370
    15
100
AcDbLine
 10
860.1694344808
 20
516.9060203381
 30
0.0
 11
859.7059189607
 21
516.9060203381
 31
0.0
  0
LINE
  5
130
330
1F
100
AcDbEntity
  8
0
  6
Continuous
 62
     7
370
    15
100
AcDbLine
 10
859.7059189607
 20
551.9060167618
 30
0.0
 11
859.2680930425
 21
551.9060167618
 31
0.0
  0
LINE
  5
131
330
1F
100
AcDbEntity
  8
0
  6
Continuous
 62
     7
370
    15
100
AcDbLine
 10
859.7059189607
 20
516.9060203381
 30
0.0
 11
859.2680930425
 21
516.9060203381
 31
0.0
  0
LINE
  5
132
330
1F
100
AcDbEntity
  8
0
  6
Continuous
 62
     7
370
    15
100
AcDbLine
 10
859.7059189607
 20
26.9060108013
 30
0.0
 11
859.2680930425
 21
26.9060108013
 31
0.0
  0
LINE
  5
133
330
1F
100
AcDbEntity
  8
0
  6
Continuous
 62
     7
370
    15
100
AcDbLine
 10
859.7059189607
 20
-8.0939856224
 30
0.0
 11
859.2680930425
 21
-8.0939856224
 31
0.0
  0
LINE
  5
134
330
1F
100
AcDbEntity
  8
0
  6
Continuous
 62
     7
370
    15
100
AcDbLine
 10
254.0680705835
 20
30.1560136624
 30
0.0
 11
250.9680926134
 21
30.1560136624
 31
0.0
  0
LINE
  5
135
330
1F
100
AcDbEntity
  8
0
  6
Continuous
 62
     7
370
    15
100
AcDbLine
 10
254.0680705835
 20
30.1560136624
 30
0.0
 11
255.6275963117
 21
30.1560136624
 31
0.0
  0
LINE
  5
136
330
1F
100
AcDbEntity
  8
0
  6
Continuous
 62
     7
370
    15
100
AcDbLine
 10
254.0680705835
 20
43.6560186692
 30
0.0
 11
255.6281625559
 21
43.6560186692
 31
0.0
  0
LINE
  5
137
330
1F
100
AcDbEntity
  8
0
  6
Continuous
 62
     7
370
    15
100
AcDbLine
 10
254.0680705835
 20
43.6560186692
 30
0.0
 11
250.9680926134
 21
43.6560186692
 31
0.0
  0
LINE
  5
138
330
1F
100
AcDbEntity
  8
0
  6
Continuous
 62
     7
370
    15
100
AcDbLine
 10
254.0680705835
 20
500.1560124703
 30
0.0
 11
250.9680926134
 21
500.1560124703
 31
0.0
  0
LINE
  5
139
330
1F
100
AcDbEntity
  8
0
  6
Continuous
 62
     7
370
    15
100
AcDbLine
 10
254.0680705835
 20
513.6560174771
 30
0.0
 11
250.9680926134
 21
513.6560174771
 31
0.0
  0
LINE
  5
13A
330
1F
100
AcDbEntity
  8
0
  6
Continuous
 62
     7
370
    15
100
AcDbLine
 10
254.0680705835
 20
500.1560124703
 30
0.0
 11
255.6275963117
 21
500.1560124703
 31
0.0
  0
LINE
  5
13B
330
1F
100
AcDbEntity
  8
0
  6
Continuous
 62
     7
370
    15
100
AcDbLine
 10
254.0680705835
 20
513.6560174771
 30
0.0
 11
255.6281625559
 21
513.6560174771
 31
0.0
  0
LINE
  5
13C
330
1F
100
AcDbEntity
  8
0
  6
Continuous
 62
     8
370
    15
100
AcDbLine
 10
254.0680705835
 20
30.4060104437
 30
0.0
 11
254.0680705835
 21
30.1560136624
 31
0.0
  0
LINE
  5
13D
330
1F
100
AcDbEntity
  8
0
  6
Continuous
 62
     8
370
    15
100
AcDbLine
 10
254.0680705835
 20
43.6560186692
 30
0.0
 11
254.0680705835
 21
43.4060218878
 31
0.0
  0
LINE
  5
13E
330
1F
100
AcDbEntity
  8
0
  6
Continuous
 62
     8
370
    15
100
AcDbLine
 10
254.0680705835
 20
500.4060092516
 30
0.0
 11
254.0680705835
 21
500.1560124703
 31
0.0
  0
LINE
  5
13F
330
1F
100
AcDbEntity
  8
0
  6
Continuous
 62
     8
370
    15
100
AcDbLine
 10
254.0680705835
 20
513.6560174771
 30
0.0
 11
254.0680705835
 21
513.4060206957
 31
0.0
  0
LINE
  5
140
330
1F
100
AcDbEntity
  8
0
  6
Continuous
 62
     7
370
    15
100
AcDbLine
 10
203.0412518546
 20
43.4060218878
 30
0.0
 11
203.0412518546
 21
30.4060104437
 31
0.0
  0
LINE
  5
141
330
1F
100
AcDbEntity
  8
0
  6
Continuous
 62
     7
370
    15
100
AcDbLine
 10
203.0412518546
 20
513.4060206957
 30
0.0
 11
203.0412518546
 21
500.4060092516
 31
0.0
  0
LINE
  5
142
330
1F
100
AcDbEntity
  8
0
  6
Continuous
 62
     7
370
    15
100
AcDbLine
 10
193.2512485549
 20
28.9060148545
 30
0.0
 11
193.2512485549
 21
29.7060134955
 31
0.0
  0
LINE
  5
143
330
1F
100
AcDbEntity
  8
0
  6
Continuous
 62
     7
370
    15
100
AcDbLine
 10
193.2512485549
 20
44.106018836
 30
0.0
 11
193.2512485549
 21
44.9060174771
 31
0.0
  0
LINE
  5
144
330
1F
100
AcDbEntity
  8
0
  6
Continuous
 62
     7
370
    15
100
AcDbLine
 10
188.3212589785
 20
45.2060225554
 30
0.0
 11
188.3212589785
 21
44.9060174771
 31
0.0
  0
LINE
  5
145
330
1F
100
AcDbEntity
  8
0
  6
Continuous
 62
     7
370
    15
100
AcDbLine
 10
192.7212589547
 20
44.9060174771
 30
0.0
 11
192.7212589547
 21
45.2060225554
 31
0.0
  0
ARC
  5
146
330
1F
100
AcDbEntity
  8
0
  6
Continuous
 62
     7
370
    15
100
AcDbCircle
 10
190.5212516877
 20
42.0988727126
 30
0.0
 40
3.807142857143293
100
AcDbArc
 50
54.6997515601
 51
125.3002484399
  0
LINE
  5
147
330
1F
100
AcDbEntity
  8
0
  6
Continuous
 62
     7
370
    15
100
AcDbLine
 10
188.4212457701
 20
28.5060229845
 30
0.0
 11
188.4212457701
 21
28.1060162134
 31
0.0
  0
LINE
  5
148
330
1F
100
AcDbEntity
  8
0
  6
Continuous
 62
     7
370
    15
100
AcDbLine
 10
192.6212572619
 20
28.1060162134
 30
0.0
 11
192.6212572619
 21
28.5060229845
 31
0.0
  0
ARC
  5
149
330
1F
100
AcDbEntity
  8
0
  6
Continuous
 62
     7
370
    15
100
AcDbCircle
 10
188.6212516877
 20
28.9060155697
 30
0.0
 40
0.4000000000008015
100
AcDbArc
 50
270.0
 51
0.0
  0
ARC
  5
14A
330
1F
100
AcDbEntity
  8
0
  6
Continuous
 62
     7
370
    15
100
AcDbCircle
 10
192.4212516877
 20
28.9060155697
 30
0.0
 40
0.4000000000007731
100
AcDbArc
 50
180.0
 51
270.0
  0
LINE
  5
14B
330
1F
100
AcDbEntity
  8
0
  6
Continuous
 62
     7
370
    15
100
AcDbLine
 10
189.0212559268
 20
44.106018836
 30
0.0
 11
189.0212559268
 21
43.6560186692
 31
0.0
  0
LINE
  5
14C
330
1F
100
AcDbEntity
  8
0
  6
Continuous
 62
     7
370
    15
100
AcDbLine
 10
189.0212559268
 20
42.6560166426
 30
0.0
 11
189.0212559268
 21
42.1673181601
 31
0.0
  0
LINE
  5
14D
330
1F
100
AcDbEntity
  8
0
  6
Continuous
 62
     7
370
    15
100
AcDbLine
 10
189.0212559268
 20
41.371193821
 30
0.0
 11
189.0212559268
 21
41.2155064888
 31
0.0
  0
LINE
  5
14E
330
1F
100
AcDbEntity
  8
0
  6
Continuous
 62
     7
370
    15
100
AcDbLine
 10
189.0212559268
 20
31.9163921423
 30
0.0
 11
189.0212559268
 21
31.1560156889
 31
0.0
  0
LINE
  5
14F
330
1F
100
AcDbEntity
  8
0
  6
Continuous
 62
     7
370
    15
100
AcDbLine
 10
189.0212559268
 20
30.1560136624
 30
0.0
 11
189.0212559268
 21
29.7060134955
 31
0.0
  0
LINE
  5
150
330
1F
100
AcDbEntity
  8
0
  6
Continuous
 62
     7
370
    15
100
AcDbLine
 10
192.0212471053
 20
29.7060134955
 30
0.0
 11
192.0212471053
 21
30.1560136624
 31
0.0
  0
LINE
  5
151
330
1F
100
AcDbEntity
  8
0
  6
Continuous
 62
     7
370
    15
100
AcDbLine
 10
192.0212471053
 20
31.1560156889
 30
0.0
 11
192.0212471053
 21
31.6431644507
 31
0.0
  0
LINE
  5
152
330
1F
100
AcDbEntity
  8
0
  6
Continuous
 62
     7
370
    15
100
AcDbLine
 10
192.0212471053
 20
40.9510704823
 30
0.0
 11
192.0212471053
 21
41.1390188284
 31
0.0
  0
LINE
  5
153
330
1F
100
AcDbEntity
  8
0
  6
Continuous
 62
     7
370
    15
100
AcDbLine
 10
192.0212471053
 20
41.8940904684
 30
0.0
 11
192.0212471053
 21
42.6560166426
 31
0.0
  0
LINE
  5
154
330
1F
100
AcDbEntity
  8
0
  6
Continuous
 62
     7
370
    15
100
AcDbLine
 10
192.0212471053
 20
43.6560186692
 30
0.0
 11
192.0212471053
 21
44.106018836
 31
0.0
  0
SPLINE
  5
155
330
1F
100
AcDbEntity
  8
0
  6
Continuous
 62
     7
370
    15
100
AcDbSpline
210
0.0
220
0.0
230
1.0
 70
     8
 71
     3
 72
    15
 73
    11
 74
     0
 42
0.00000001
 43
0.00000001
 40
0.0
 40
0.0
 40
0.0
 40
0.0
 40
0.1356091173949764
 40
0.2953379103494192
 40
0.4038138054468018
 40
0.531970703719044
 40
0.6738489217721353
 40
0.8261134929514069
 40
0.9126194824664061
 40
1.0
 40
1.0
 40
1.0
 40
1.0
 10
192.0212471052731
 20
31.47205441667883
 30
0.0
 10
192.0656282835143
 20
31.46473395103069
 30
0.0
 10
192.1622843542296
 20
31.44879098886969
 30
0.0
 10
192.3691311479507
 20
31.4964552512117
 30
0.0
 10
192.5624164401098
 20
31.58418746326711
 30
0.0
 10
192.7089784417038
 20
31.70383600465246
 30
0.0
 10
192.8076959277248
 20
31.85475697736581
 30
0.0
 10
192.837352609241
 20
31.97656696485426
 30
0.0
 10
192.8161782340113
 20
32.10584093472199
 30
0.0
 10
192.7699238442406
 20
32.17250928730223
 30
0.0
 10
192.7466803356731
 20
32.2060111112818
 30
0.0
  0
SPLINE
  5
156
330
1F
100
AcDbEntity
  8
0
  6
Continuous
 62
     7
370
    15
100
AcDbSpline
210
0.0
220
0.0
230
1.0
 70
     8
 71
     3
 72
    20
 73
    16
 74
     0
 42
0.00000001
 43
0.00000001
 40
0.0
 40
0.0
 40
0.0
 40
0.0
 40
0.0607082412857168
 40
0.2265318043948499
 40
0.3908031270530204
 40
0.4705946825057465
 40
0.5476200754108902
 40
0.6228569095512099
 40
0.7003369617036845
 40
0.7786472733860886
 40
0.8566577456080066
 40
0.9331037276572782
 40
0.9703733538747773
 40
0.989232224347167
 40
1.0
 40
1.0
 40
1.0
 40
1.0
 10
188.2850491568173
 20
32.2060111112818
 30
0.0
 10
188.3313235637783
 20
32.15267967908459
 30
0.0
 10
188.5039957526635
 20
31.95367431653842
 30
0.0
 10
188.9209808899577
 20
31.9357401523436
 30
0.0
 10
189.485921205435
 20
31.86071903617946
 30
0.0
 10
190.0055370935438
 20
31.81778059493859
 30
0.0
 10
190.3994313723111
 20
31.78721982120322
 30
0.0
 10
190.7923428962714
 20
31.7595478387796
 30
0.0
 10
191.1735038746366
 20
31.7282391998982
 30
0.0
 10
191.5292251278653
 20
31.69575718912957
 30
0.0
 10
191.8318650765261
 20
31.66495340493858
 30
0.0
 10
192.0243473163392
 20
31.64202171880617
 30
0.0
 10
192.1124882635361
 20
31.63401232409405
 30
0.0
 10
192.1579095119602
 20
31.62621798215193
 30
0.0
 10
192.1573602318447
 20
31.63017710969612
 30
0.0
 10
192.1571605965222
 20
31.63161605074252
 30
0.0
  0
SPLINE
  5
157
330
1F
100
AcDbEntity
  8
0
  6
Continuous
 62
     7
370
    15
100
AcDbSpline
210
0.0
220
0.0
230
1.0
 70
     8
 71
     3
 72
    18
 73
    14
 74
     0
 42
0.00000001
 43
0.00000001
 40
0.0
 40
0.0
 40
0.0
 40
0.0
 40
0.0057558256776612
 40
0.1156405586245694
 40
0.2383946514687826
 40
0.3593096031671252
 40
0.4757056074283119
 40
0.5872117986999811
 40
0.7047314249150657
 40
0.8264989616408728
 40
0.8891457600929906
 40
0.9517929492285079
 40
1.0
 40
1.0
 40
1.0
 40
1.0
 10
192.5278716847027
 20
40.85284202768652
 30
0.0
 10
192.5232245855395
 20
40.85579423053892
 30
0.0
 10
192.4298595023492
 20
40.91510707393409
 30
0.0
 10
192.2074362608486
 20
40.92135800720495
 30
0.0
 10
191.8160850338764
 20
40.98052951515513
 30
0.0
 10
191.3041988833323
 20
41.02607432463679
 30
0.0
 10
190.7531625717801
 20
41.07223956669481
 30
0.0
 10
190.1910474768398
 20
41.11111960253619
 30
0.0
 10
189.6567698752305
 20
41.15587186971484
 30
0.0
 10
189.2591295816047
 20
41.19691499383388
 30
0.0
 10
189.0444127938689
 20
41.21805980140944
 30
0.0
 10
188.9483444608339
 20
41.2203344285684
 30
0.0
 10
188.9329019740908
 20
41.20425842149616
 30
0.0
 10
188.9261865183438
 20
41.19726746752109
 30
0.0
  0
SPLINE
  5
158
330
1F
100
AcDbEntity
  8
0
  6
Continuous
 62
     7
370
    15
100
AcDbSpline
210
0.0
220
0.0
230
1.0
 70
     8
 71
     3
 72
    12
 73
     8
 74
     0
 42
0.00000001
 43
0.00000001
 40
0.0
 40
0.0
 40
0.0
 40
0.0
 40
0.2236716726813051
 40
0.4523018666733639
 40
0.6822312804926878
 40
0.9102236872584898
 40
1.0
 40
1.0
 40
1.0
 40
1.0
 10
188.2269495293224
 20
42.00786083414404
 30
0.0
 10
188.2142168619311
 20
41.96531787247329
 30
0.0
 10
188.1884692598327
 20
41.87928882486608
 30
0.0
 10
188.3095934825546
 20
41.78767153083837
 30
0.0
 10
188.541276284646
 20
41.69134071166167
 30
0.0
 10
188.7861198275217
 20
41.62888140230028
 30
0.0
 10
188.9694588238353
 20
41.6340851531963
 30
0.0
 10
189.0212559267605
 20
41.63555532171573
 30
0.0
  0
SPLINE
  5
159
330
1F
100
AcDbEntity
  8
0
  6
Continuous
 62
     7
370
    15
100
AcDbSpline
210
0.0
220
0.0
230
1.0
 70
     8
 71
     3
 72
    19
 73
    15
 74
     0
 42
0.00000001
 43
0.00000001
 40
0.0
 40
0.0
 40
0.0
 40
0.0
 40
0.0979016656717859
 40
0.1753767923064288
 40
0.2884798667723655
 40
0.3734508834899384
 40
0.4570015648503131
 40
0.6168864006976565
 40
0.6796646919023751
 40
0.7634254149027825
 40
0.8137514267878045
 40
0.8702945241141623
 40
0.9323961631721522
 40
1.0
 40
1.0
 40
1.0
 40
1.0
 10
188.4031855627621
 20
41.51273995115606
 30
0.0
 10
188.4536978805764
 20
41.48635808008547
 30
0.0
 10
188.5441834531091
 20
41.43909874193588
 30
0.0
 10
188.9188064682945
 20
41.37845862002135
 30
0.0
 10
189.4053335390745
 20
41.32456180313226
 30
0.0
 10
189.9966492128077
 20
41.27134103979741
 30
0.0
 10
190.750763312054
 20
41.21979013635177
 30
0.0
 10
191.3918410579856
 20
41.15285184466811
 30
0.0
 10
192.0411373426369
 20
41.11733651538149
 30
0.0
 10
192.4194421952917
 20
41.19550831405389
 30
0.0
 10
192.6713151709287
 20
41.30372869908225
 30
0.0
 10
192.8048946831681
 20
41.39204244321232
 30
0.0
 10
192.8666703433864
 20
41.46588776826504
 30
0.0
 10
192.7952272151055
 20
41.54640949025901
 30
0.0
 10
192.7579903170193
 20
41.58837824537603
 30
0.0
  0
SPLINE
  5
15A
330
1F
100
AcDbEntity
  8
0
  6
Continuous
 62
     7
370
    15
100
AcDbSpline
210
0.0
220
0.0
230
1.0
 70
     8
 71
     3
 72
    25
 73
    21
 74
     0
 42
0.00000001
 43
0.00000001
 40
0.0
 40
0.0
 40
0.0
 40
0.0
 40
0.0176266604132267
 40
0.0344978305666418
 40
0.0503139129986175
 40
0.0649731684005604
 40
0.0909452438696607
 40
0.1134379469739163
 40
0.153840771756824
 40
0.1912344990785861
 40
0.2995711913486163
 40
0.3999638679938782
 40
0.5012958654425138
 40
0.5949062183926866
 40
0.6784876921018369
 40
0.7336316108402124
 40
0.8075187077807442
 40
0.895285398544903
 40
0.9453088009269912
 40
0.9999999999999999
 40
0.9999999999999999
 40
0.9999999999999999
 40
0.9999999999999999
 10
192.400675372752
 20
40.96279769613592
 30
0.0
 10
192.4403872647676
 20
40.96718773734434
 30
0.0
 10
192.5181089709851
 20
40.97577965970731
 30
0.0
 10
192.619970595689
 20
41.02178929418606
 30
0.0
 10
192.7009977661142
 20
41.08075417560705
 30
0.0
 10
192.777191782496
 20
41.16431246881378
 30
0.0
 10
192.8302401083525
 20
41.26796106782047
 30
0.0
 10
192.8544183516697
 20
41.40031613232184
 30
0.0
 10
192.8315110977632
 20
41.53216760954906
 30
0.0
 10
192.660278470755
 20
41.77737394021894
 30
0.0
 10
192.317490670852
 20
41.86446659458451
 30
0.0
 10
191.8223777177789
 20
41.92302500619535
 30
0.0
 10
191.209164481147
 20
41.98136902344685
 30
0.0
 10
190.5596958854055
 20
42.03099183474379
 30
0.0
 10
190.0199894696473
 20
42.07048117885023
 30
0.0
 10
189.5739948544689
 20
42.10965401511476
 30
0.0
 10
189.1852628529611
 20
42.14788789474774
 30
0.0
 10
188.9251271540435
 20
42.17571163877837
 30
0.0
 10
188.7946747723718
 20
42.19823074150669
 30
0.0
 10
188.7860177195513
 20
42.21068673064399
 30
0.0
 10
188.7814962431515
 20
42.21719234659521
 30
0.0
  0
SPLINE
  5
15B
330
1F
100
AcDbEntity
  8
0
  6
Continuous
 62
     7
370
    15
100
AcDbSpline
210
0.0
220
0.0
230
1.0
 70
     8
 71
     3
 72
    12
 73
     8
 74
     0
 42
0.00000001
 43
0.00000001
 40
0.0
 40
0.0
 40
0.0
 40
0.0
 40
0.1756430871129702
 40
0.5723112226540086
 40
0.7586160656863811
 40
0.920760678476455
 40
1.0
 40
1.0
 40
1.0
 40
1.0
 10
188.8698154255475
 20
41.39870136453952
 30
0.0
 10
188.8042579400591
 20
41.38952984851499
 30
0.0
 10
188.5906470015893
 20
41.35964560065819
 30
0.0
 10
188.3747028386507
 20
41.28573979263614
 30
0.0
 10
188.2135702354188
 20
41.07077397285197
 30
0.0
 10
188.1823416430523
 20
40.91057225319577
 30
0.0
 10
188.213322384144
 20
40.83190601931
 30
0.0
 10
188.2234924599255
 20
40.80608218386023
 30
0.0
  0
LINE
  5
15C
330
1F
100
AcDbEntity
  8
0
  6
Continuous
 62
     7
370
    15
100
AcDbLine
 10
188.3810126349
 20
32.108274395
 30
0.0
 11
187.2625463769
 21
32.108274395
 31
0.0
  0
LINE
  5
15D
330
1F
100
AcDbEntity
  8
0
  6
Continuous
 62
     7
370
    15
100
AcDbLine
 10
187.2625463769
 20
31.308275754
 30
0.0
 11
189.0212559268
 21
31.308275754
 31
0.0
  0
LINE
  5
15E
330
1F
100
AcDbEntity
  8
0
  6
Continuous
 62
     7
370
    15
100
AcDbLine
 10
185.852255778
 20
44.9060174771
 30
0.0
 11
185.852255778
 21
44.9594828434
 31
0.0
  0
LINE
  5
15F
330
1F
100
AcDbEntity
  8
0
  6
Continuous
 62
     7
370
    15
100
AcDbLine
 10
182.8522645995
 20
44.9594828434
 30
0.0
 11
182.8522645995
 21
44.9060174771
 31
0.0
  0
SPLINE
  5
160
330
1F
100
AcDbEntity
  8
0
  6
Continuous
 62
     7
370
    15
100
AcDbSpline
210
0.0
220
0.0
230
1.0
 70
     8
 71
     3
 72
    15
 73
    11
 74
     0
 42
0.00000001
 43
0.00000001
 40
0.0
 40
0.0
 40
0.0
 40
0.0
 40
0.10775558395448
 40
0.2352512525116226
 40
0.3627904438124229
 40
0.4902569714009369
 40
0.6176632515021261
 40
0.7450970725045022
 40
0.872496392135661
 40
1.0
 40
1.0
 40
1.0
 40
1.0
 10
182.8683131500805
 20
28.90601485445349
 30
0.0
 10
182.8848522749743
 20
28.59349262962466
 30
0.0
 10
182.9209603791109
 20
27.9111962498865
 30
0.0
 10
183.2571730655502
 20
26.90204807799645
 30
0.0
 10
183.8152532571891
 20
25.93856870441919
 30
0.0
 10
184.5700770655748
 20
25.11764265294231
 30
0.0
 10
185.4852423292878
 20
24.48237639245826
 30
0.0
 10
186.5124956557647
 20
24.06221607057627
 30
0.0
 10
187.6084780833497
 20
23.84841443089717
 30
0.0
 10
188.3442359865967
 20
23.91393900365713
 30
0.0
 10
188.7122654482449
 20
23.94671469404547
 30
0.0
  0
SPLINE
  5
161
330
1F
100
AcDbEntity
  8
0
  6
Continuous
 62
     7
370
    15
100
AcDbSpline
210
0.0
220
0.0
230
1.0
 70
     8
 71
     3
 72
    15
 73
    11
 74
     0
 42
0.00000001
 43
0.00000001
 40
0.0
 40
0.0
 40
0.0
 40
0.0
 40
0.1316508808122084
 40
0.2633118025097664
 40
0.3951917775166557
 40
0.5266713703602945
 40
0.6575472767439346
 40
0.7882112722851927
 40
0.9184602772686365
 40
0.9999999999999999
 40
0.9999999999999999
 40
0.9999999999999999
 40
0.9999999999999999
 10
188.2145815655315
 20
26.90440147592871
 30
0.0
 10
188.0623975533238
 20
26.89258652338924
 30
0.0
 10
187.758017921981
 20
26.86895571719528
 30
0.0
 10
187.3071557104621
 20
26.97042951888135
 30
0.0
 10
186.8881278017451
 20
27.15729602438768
 30
0.0
 10
186.5177284501105
 20
27.42988328950918
 30
0.0
 10
186.2154830339057
 20
27.77580082256839
 30
0.0
 10
185.9963003319272
 20
28.1774967366677
 30
0.0
 10
185.8789521922051
 20
28.56381624775839
 30
0.0
 10
185.8687681619416
 20
28.81089015902574
 30
0.0
 10
185.8648472591961
 20
28.90601485445349
 30
0.0
  0
SPLINE
  5
162
330
1F
100
AcDbEntity
  8
0
  6
Continuous
 62
     7
370
    15
100
AcDbSpline
210
0.0
220
0.0
230
1.0
 70
     8
 71
     3
 72
    15
 73
    11
 74
     0
 42
0.00000001
 43
0.00000001
 40
0.0
 40
0.0
 40
0.0
 40
0.0
 40
0.1249271744002042
 40
0.2499159491389391
 40
0.3749663957929265
 40
0.4999576941663553
 40
0.6249203967106692
 40
0.749916901807382
 40
0.8748746040201251
 40
1.0
 40
1.0
 40
1.0
 40
1.0
 10
188.8831370636547
 20
49.83654349520056
 30
0.0
 10
188.5167601557135
 20
49.87987601251742
 30
0.0
 10
187.7838256830471
 20
49.96656241398148
 30
0.0
 10
186.6798056613305
 20
49.80136385388442
 30
0.0
 10
185.6390022894201
 20
49.41244054971145
 30
0.0
 10
184.7038138396302
 20
48.80742102105698
 30
0.0
 10
183.923175953406
 20
48.0112214884463
 30
0.0
 10
183.3351986224661
 20
47.06686707307142
 30
0.0
 10
182.9393800437114
 20
46.0184174994337
 30
0.0
 10
182.8813160591974
 20
45.27929733776756
 30
0.0
 10
182.8522645994747
 20
44.90948944761602
 30
0.0
  0
SPLINE
  5
163
330
1F
100
AcDbEntity
  8
0
  6
Continuous
 62
     7
370
    15
100
AcDbSpline
210
0.0
220
0.0
230
1.0
 70
     8
 71
     3
 72
    15
 73
    11
 74
     0
 42
0.00000001
 43
0.00000001
 40
0.0
 40
0.0
 40
0.0
 40
0.0
 40
0.1242507647156472
 40
0.2486323191975824
 40
0.3735407918844088
 40
0.4985808856297401
 40
0.6236633115321472
 40
0.7490698212127426
 40
0.8744365574487172
 40
1.0
 40
1.0
 40
1.0
 40
1.0
 10
185.8522557779873
 20
44.90948944761602
 30
0.0
 10
185.8658200829174
 20
45.06144223573466
 30
0.0
 10
185.8929629709374
 20
45.36550776164863
 30
0.0
 10
186.0674130219913
 20
45.79282551336961
 30
0.0
 10
186.320747771628
 20
46.1744673613573
 30
0.0
 10
186.6505663954563
 20
46.49440326743385
 30
0.0
 10
187.0414975435357
 20
46.7349714771988
 30
0.0
 10
187.4741932561609
 20
46.88661069948219
 30
0.0
 10
187.931724502976
 20
46.94004212551411
 30
0.0
 10
188.2336446244313
 20
46.89936182167035
 30
0.0
 10
188.3847230240429
 20
46.87900572492926
 30
0.0
  0
LINE
  5
164
330
1F
100
AcDbEntity
  8
0
  6
Continuous
 62
     7
370
    15
100
AcDbLine
 10
203.755315499
 20
29.5211496897
 30
0.0
 11
188.2143580481
 21
26.9047293015
 31
0.0
  0
LINE
  5
165
330
1F
100
AcDbEntity
  8
0
  6
Continuous
 62
     7
370
    15
100
AcDbLine
 10
188.7124144599
 20
23.9463719673
 30
0.0
 11
204.2533868119
 21
26.5627923556
 31
0.0
  0
LINE
  5
166
330
1F
100
AcDbEntity
  8
0
  6
Continuous
 62
     7
370
    15
100
AcDbLine
 10
188.3849316403
 20
46.8785735913
 30
0.0
 11
203.9259039923
 21
44.262153203
 31
0.0
  0
LINE
  5
167
330
1F
100
AcDbEntity
  8
0
  6
Continuous
 62
     7
370
    15
100
AcDbLine
 10
204.4239604041
 20
47.2205254383
 30
0.0
 11
188.8830029532
 21
49.8369458266
 31
0.0
  0
SPLINE
  5
168
330
1F
100
AcDbEntity
  8
0
  6
Continuous
 62
     7
370
    15
100
AcDbSpline
210
0.0
220
0.0
230
1.0
 70
     8
 71
     3
 72
    12
 73
     8
 74
     0
 42
0.00000001
 43
0.00000001
 40
0.0
 40
0.0
 40
0.0
 40
0.0
 40
0.1526135604568276
 40
0.2973905261041906
 40
0.5623705921371759
 40
0.7966015821471988
 40
1.0
 40
1.0
 40
1.0
 40
1.0
 10
204.253029184016
 20
26.56309037878363
 30
0.0
 10
204.5042489325006
 20
26.61582809324178
 30
0.0
 10
204.99378847896
 20
26.71859547905797
 30
0.0
 10
205.843309109336
 20
27.14784830933492
 30
0.0
 10
206.6552985554093
 20
27.89224201299401
 30
0.0
 10
207.2197490256232
 20
28.96328155760469
 30
0.0
 10
207.3014363262948
 20
29.69820970318004
 30
0.0
 10
207.3394023939694
 20
30.03978460504858
 30
0.0
  0
SPLINE
  5
169
330
1F
100
AcDbEntity
  8
0
  6
Continuous
 62
     7
370
    15
100
AcDbSpline
210
0.0
220
0.0
230
1.0
 70
     8
 71
     3
 72
    11
 73
     7
 74
     0
 42
0.00000001
 43
0.00000001
 40
0.0
 40
0.0
 40
0.0
 40
0.0
 40
0.2003624455425825
 40
0.4328096834642056
 40
0.6990173802634269
 40
1.0
 40
1.0
 40
1.0
 40
1.0
 10
204.3410801455105
 20
30.03978460504858
 30
0.0
 10
204.327852984073
 20
29.98335571368821
 30
0.0
 10
204.2992805460626
 20
29.86146176024901
 30
0.0
 10
204.1833946544726
 20
29.69577268806095
 30
0.0
 10
203.9986467969791
 20
29.55684323723198
 30
0.0
 10
203.8410280198839
 20
29.53346569982795
 30
0.0
 10
203.7573867603863
 20
29.52106028272955
 30
0.0
  0
SPLINE
  5
16A
330
1F
100
AcDbEntity
  8
0
  6
Continuous
 62
     7
370
    15
100
AcDbSpline
210
0.0
220
0.0
230
1.0
 70
     8
 71
     3
 72
    12
 73
     8
 74
     0
 42
0.00000001
 43
0.00000001
 40
0.0
 40
0.0
 40
0.0
 40
0.0
 40
0.2034077986152291
 40
0.4376400377344393
 40
0.7026160208210837
 40
0.8473893807424194
 40
1.0
 40
1.0
 40
1.0
 40
1.0
 10
207.3394023939694
 20
43.59841077997534
 30
0.0
 10
207.3179616687239
 20
43.941421403448
 30
0.0
 10
207.2718310883363
 20
44.67942251855697
 30
0.0
 10
206.7597320975009
 20
45.77653100346493
 30
0.0
 10
205.9845331045166
 20
46.55929465750455
 30
0.0
 10
205.1566737116506
 20
47.02900985060493
 30
0.0
 10
204.6726882439061
 20
47.15527964751337
 30
0.0
 10
204.4243180319393
 20
47.22007840349524
 30
0.0
  0
SPLINE
  5
16B
330
1F
100
AcDbEntity
  8
0
  6
Continuous
 62
     7
370
    15
100
AcDbSpline
210
0.0
220
0.0
230
1.0
 70
     8
 71
     3
 72
    12
 73
     8
 74
     0
 42
0.00000001
 43
0.00000001
 40
0.0
 40
0.0
 40
0.0
 40
0.0
 40
0.1555612070081118
 40
0.3022035794488034
 40
0.5679688160015415
 40
0.7999504135698806
 40
1.0
 40
1.0
 40
1.0
 40
1.0
 10
203.9239817425335
 20
44.26307707502691
 30
0.0
 10
203.9645283038886
 20
44.24732762190012
 30
0.0
 10
204.0432967591578
 20
44.21673168348575
 30
0.0
 10
204.1729350624633
 20
44.12168545269962
 30
0.0
 10
204.2873649280669
 20
43.97551931572893
 30
0.0
 10
204.3514976728679
 20
43.78125580661782
 30
0.0
 10
204.3443772273662
 20
43.65628008034312
 30
0.0
 10
204.3410801455105
 20
43.59841077997534
 30
0.0
  0
LINE
  5
16C
330
1F
100
AcDbEntity
  8
0
  6
Continuous
 62
     7
370
    15
100
AcDbLine
 10
204.3402456805
 20
43.6484041758
 30
0.0
 11
204.3402456805
 21
43.4060218878
 31
0.0
  0
LINE
  5
16D
330
1F
100
AcDbEntity
  8
0
  6
Continuous
 62
     7
370
    15
100
AcDbLine
 10
204.3402456805
 20
30.4060104437
 30
0.0
 11
204.3402456805
 21
29.9897763081
 31
0.0
  0
LINE
  5
16E
330
1F
100
AcDbEntity
  8
0
  6
Continuous
 62
     7
370
    15
100
AcDbLine
 10
207.340236859
 20
29.9897763081
 30
0.0
 11
207.340236859
 21
30.4087671585
 31
0.0
  0
LINE
  5
16F
330
1F
100
AcDbEntity
  8
0
  6
Continuous
 62
     7
370
    15
100
AcDbLine
 10
207.340236859
 20
43.403265173
 30
0.0
 11
207.340236859
 21
43.6484041758
 31
0.0
  0
LINE
  5
170
330
1F
100
AcDbEntity
  8
0
  6
Continuous
 62
     7
370
    15
100
AcDbLine
 10
193.6395281121
 20
42.506021554
 30
0.0
 11
192.0212471053
 21
42.506021554
 31
0.0
  0
LINE
  5
171
330
1F
100
AcDbEntity
  8
0
  6
Continuous
 62
     7
370
    15
100
AcDbLine
 10
192.648168759
 20
41.706022913
 30
0.0
 11
193.6395281121
 21
41.706022913
 31
0.0
  0
LINE
  5
172
330
1F
100
AcDbEntity
  8
0
  6
Continuous
 62
     7
370
    15
100
AcDbLine
 10
193.9777546689
 20
43.7741550751
 30
0.0
 11
193.7112324998
 21
42.5659093209
 31
0.0
  0
LINE
  5
173
330
1F
100
AcDbEntity
  8
0
  6
Continuous
 62
     7
370
    15
100
AcDbLine
 10
194.4793873593
 20
42.3343601771
 30
0.0
 11
194.7589629456
 21
43.6018231459
 31
0.0
  0
SPLINE
  5
174
330
1F
100
AcDbEntity
  8
0
  6
Continuous
 62
     7
370
    15
100
AcDbSpline
210
0.0
220
0.0
230
1.0
 70
     8
 71
     3
 72
    11
 73
     7
 74
     0
 42
0.00000001
 43
0.00000001
 40
0.0
 40
0.0
 40
0.0
 40
0.0
 40
0.2541311630691059
 40
0.5022676364033828
 40
0.7495179365131207
 40
1.0
 40
1.0
 40
1.0
 40
1.0
 10
193.6395281120861
 20
41.70602291300146
 30
0.0
 10
193.7396165453816
 20
41.71626803725378
 30
0.0
 10
193.9374324299646
 20
41.73651661393652
 30
0.0
 10
194.1955840171139
 20
41.89054225084002
 30
0.0
 10
194.3990254343863
 20
42.10962348208799
 30
0.0
 10
194.4607614140156
 20
42.29667350747842
 30
0.0
 10
194.4918298288906
 20
42.39080577566473
 30
0.0
  0
LINE
  5
175
330
1F
100
AcDbEntity
  8
0
  6
Continuous
 62
     7
370
    15
100
AcDbLine
 10
193.2512485549
 20
514.106017644
 30
0.0
 11
193.2512485549
 21
514.906016285
 31
0.0
  0
LINE
  5
176
330
1F
100
AcDbEntity
  8
0
  6
Continuous
 62
     7
370
    15
100
AcDbLine
 10
193.2512485549
 20
498.9060136624
 30
0.0
 11
193.2512485549
 21
499.7060123034
 31
0.0
  0
LINE
  5
177
330
1F
100
AcDbEntity
  8
0
  6
Continuous
 62
     7
370
    15
100
AcDbLine
 10
188.3212589785
 20
515.2060213633
 30
0.0
 11
188.3212589785
 21
514.906016285
 31
0.0
  0
LINE
  5
178
330
1F
100
AcDbEntity
  8
0
  6
Continuous
 62
     7
370
    15
100
AcDbLine
 10
192.7212589547
 20
514.906016285
 30
0.0
 11
192.7212589547
 21
515.2060213633
 31
0.0
  0
ARC
  5
179
330
1F
100
AcDbEntity
  8
0
  6
Continuous
 62
     7
370
    15
100
AcDbCircle
 10
190.5212516877
 20
512.0988727126
 30
0.0
 40
3.807142857143368
100
AcDbArc
 50
54.6997515601
 51
125.3002484399
  0
LINE
  5
17A
330
1F
100
AcDbEntity
  8
0
  6
Continuous
 62
     7
370
    15
100
AcDbLine
 10
188.4212457701
 20
498.5060217924
 30
0.0
 11
188.4212457701
 21
498.1060150213
 31
0.0
  0
LINE
  5
17B
330
1F
100
AcDbEntity
  8
0
  6
Continuous
 62
     7
370
    15
100
AcDbLine
 10
192.6212572619
 20
498.1060150213
 30
0.0
 11
192.6212572619
 21
498.5060217924
 31
0.0
  0
ARC
  5
17C
330
1F
100
AcDbEntity
  8
0
  6
Continuous
 62
     7
370
    15
100
AcDbCircle
 10
188.6212516877
 20
498.9060155697
 30
0.0
 40
0.4000000000008015
100
AcDbArc
 50
270.0
 51
0.0
  0
ARC
  5
17D
330
1F
100
AcDbEntity
  8
0
  6
Continuous
 62
     7
370
    15
100
AcDbCircle
 10
192.4212516877
 20
498.9060155697
 30
0.0
 40
0.4000000000007731
100
AcDbArc
 50
180.0
 51
270.0
  0
LINE
  5
17E
330
1F
100
AcDbEntity
  8
0
  6
Continuous
 62
     7
370
    15
100
AcDbLine
 10
189.0212559268
 20
514.106017644
 30
0.0
 11
189.0212559268
 21
513.6560174771
 31
0.0
  0
LINE
  5
17F
330
1F
100
AcDbEntity
  8
0
  6
Continuous
 62
     7
370
    15
100
AcDbLine
 10
189.0212559268
 20
512.6560154505
 30
0.0
 11
189.0212559268
 21
512.167316968
 31
0.0
  0
LINE
  5
180
330
1F
100
AcDbEntity
  8
0
  6
Continuous
 62
     7
370
    15
100
AcDbLine
 10
189.0212559268
 20
511.3711926289
 30
0.0
 11
189.0212559268
 21
511.2155052967
 31
0.0
  0
LINE
  5
181
330
1F
100
AcDbEntity
  8
0
  6
Continuous
 62
     7
370
    15
100
AcDbLine
 10
189.0212559268
 20
501.9163909502
 30
0.0
 11
189.0212559268
 21
501.1560144968
 31
0.0
  0
LINE
  5
182
330
1F
100
AcDbEntity
  8
0
  6
Continuous
 62
     7
370
    15
100
AcDbLine
 10
189.0212559268
 20
500.1560124703
 30
0.0
 11
189.0212559268
 21
499.7060123034
 31
0.0
  0
LINE
  5
183
330
1F
100
AcDbEntity
  8
0
  6
Continuous
 62
     7
370
    15
100
AcDbLine
 10
192.0212471053
 20
499.7060123034
 30
0.0
 11
192.0212471053
 21
500.1560124703
 31
0.0
  0
LINE
  5
184
330
1F
100
AcDbEntity
  8
0
  6
Continuous
 62
     7
370
    15
100
AcDbLine
 10
192.0212471053
 20
501.1560144968
 30
0.0
 11
192.0212471053
 21
501.6431632586
 31
0.0
  0
LINE
  5
185
330
1F
100
AcDbEntity
  8
0
  6
Continuous
 62
     7
370
    15
100
AcDbLine
 10
192.0212471053
 20
510.9510692902
 30
0.0
 11
192.0212471053
 21
511.1390176363
 31
0.0
  0
LINE
  5
186
330
1F
100
AcDbEntity
  8
0
  6
Continuous
 62
     7
370
    15
100
AcDbLine
 10
192.0212471053
 20
511.8940892763
 30
0.0
 11
192.0212471053
 21
512.6560154505
 31
0.0
  0
LINE
  5
187
330
1F
100
AcDbEntity
  8
0
  6
Continuous
 62
     7
370
    15
100
AcDbLine
 10
192.0212471053
 20
513.6560174771
 30
0.0
 11
192.0212471053
 21
514.106017644
 31
0.0
  0
SPLINE
  5
188
330
1F
100
AcDbEntity
  8
0
  6
Continuous
 62
     7
370
    15
100
AcDbSpline
210
0.0
220
0.0
230
1.0
 70
     8
 71
     3
 72
    15
 73
    11
 74
     0
 42
0.00000001
 43
0.00000001
 40
0.0
 40
0.0
 40
0.0
 40
0.0
 40
0.1356094025609136
 40
0.295338142820202
 40
0.403814002130962
 40
0.5319708581237416
 40
0.6738490293706532
 40
0.8261135503172465
 40
0.912619511293581
 40
1.0
 40
1.0
 40
1.0
 40
1.0
 10
192.0212471052731
 20
501.4720681257472
 30
0.0
 10
192.0656282400954
 20
501.4647414363835
 30
0.0
 10
192.1622840890789
 20
501.4487849408249
 30
0.0
 10
192.3691311657543
 20
501.4964549509386
 30
0.0
 10
192.562416435324
 20
501.5841860314404
 30
0.0
 10
192.708978443237
 20
501.7038348893579
 30
0.0
 10
192.8076959272536
 20
501.8547557616686
 30
0.0
 10
192.83735260931
 20
501.9765657762148
 30
0.0
 10
192.8161782339981
 20
502.1058397419656
 30
0.0
 10
192.7699238442362
 20
502.1725080949874
 30
0.0
 10
192.7466803356731
 20
502.2060099191889
 30
0.0
  0
SPLINE
  5
189
330
1F
100
AcDbEntity
  8
0
  6
Continuous
 62
     7
370
    15
100
AcDbSpline
210
0.0
220
0.0
230
1.0
 70
     8
 71
     3
 72
    20
 73
    16
 74
     0
 42
0.00000001
 43
0.00000001
 40
0.0
 40
0.0
 40
0.0
 40
0.0
 40
0.0607082412857168
 40
0.2265318043948499
 40
0.3908031270530204
 40
0.4705946825057465
 40
0.5476200754108902
 40
0.6228569095512099
 40
0.7003369617036845
 40
0.7786472733860886
 40
0.8566577456080066
 40
0.9331037276572782
 40
0.9703733538747773
 40
0.989232224347167
 40
1.0
 40
1.0
 40
1.0
 40
1.0
 10
188.2850491568173
 20
502.2060099191889
 30
0.0
 10
188.3313235637783
 20
502.1526784869916
 30
0.0
 10
188.5039957526635
 20
501.9536731244455
 30
0.0
 10
188.9209808899577
 20
501.9357389602508
 30
0.0
 10
189.485921205435
 20
501.8607178440866
 30
0.0
 10
190.0055370935438
 20
501.8177794028456
 30
0.0
 10
190.3994313723111
 20
501.7872186291103
 30
0.0
 10
190.7923428962714
 20
501.7595466466867
 30
0.0
 10
191.1735038746366
 20
501.7282380078053
 30
0.0
 10
191.5292251278653
 20
501.6957559970367
 30
0.0
 10
191.8318650765261
 20
501.6649522128454
 30
0.0
 10
192.0243473163392
 20
501.6420205267136
 30
0.0
 10
192.1124882635361
 20
501.6340111320009
 30
0.0
 10
192.1579095119602
 20
501.6262167900591
 30
0.0
 10
192.1573602318447
 20
501.6301759176033
 30
0.0
 10
192.1571605965222
 20
501.6316148586497
 30
0.0
  0
SPLINE
  5
18A
330
1F
100
AcDbEntity
  8
0
  6
Continuous
 62
     7
370
    15
100
AcDbSpline
210
0.0
220
0.0
230
1.0
 70
     8
 71
     3
 72
    18
 73
    14
 74
     0
 42
0.00000001
 43
0.00000001
 40
0.0
 40
0.0
 40
0.0
 40
0.0
 40
0.0057558256776612
 40
0.1156405586245694
 40
0.2383946514687826
 40
0.3593096031671252
 40
0.4757056074283119
 40
0.5872117986999811
 40
0.7047314249150657
 40
0.8264989616408728
 40
0.8891457600929906
 40
0.9517929492285079
 40
1.0
 40
1.0
 40
1.0
 40
1.0
 10
192.5278716847027
 20
510.8528408355937
 30
0.0
 10
192.5232245855395
 20
510.8557930384461
 30
0.0
 10
192.4298595023492
 20
510.9151058818411
 30
0.0
 10
192.2074362608486
 20
510.9213568151121
 30
0.0
 10
191.8160850338764
 20
510.9805283230622
 30
0.0
 10
191.3041988833323
 20
511.026073132544
 30
0.0
 10
190.7531625717801
 20
511.072238374602
 30
0.0
 10
190.1910474768398
 20
511.1111184104431
 30
0.0
 10
189.6567698752305
 20
511.155870677622
 30
0.0
 10
189.2591295816047
 20
511.1969138017412
 30
0.0
 10
189.0444127938689
 20
511.2180586093165
 30
0.0
 10
188.9483444608339
 20
511.2203332364755
 30
0.0
 10
188.9329019740908
 20
511.2042572294033
 30
0.0
 10
188.9261865183438
 20
511.1972662754283
 30
0.0
  0
SPLINE
  5
18B
330
1F
100
AcDbEntity
  8
0
  6
Continuous
 62
     7
370
    15
100
AcDbSpline
210
0.0
220
0.0
230
1.0
 70
     8
 71
     3
 72
    12
 73
     8
 74
     0
 42
0.00000001
 43
0.00000001
 40
0.0
 40
0.0
 40
0.0
 40
0.0
 40
0.2236716613592036
 40
0.452301843778164
 40
0.6822312459586239
 40
0.9102236411836119
 40
1.0
 40
1.0
 40
1.0
 40
1.0
 10
188.2269495293224
 20
512.0078596420512
 30
0.0
 10
188.2142168614091
 20
511.9653167672768
 30
0.0
 10
188.1884692582555
 20
511.8792878953886
 30
0.0
 10
188.3095934890428
 20
511.7876692585005
 30
0.0
 10
188.5412762602657
 20
511.6913435787105
 30
0.0
 10
188.7861199172172
 20
511.6288690382249
 30
0.0
 10
188.9694588272556
 20
511.6340931182604
 30
0.0
 10
189.0212559267605
 20
511.6355690307841
 30
0.0
  0
SPLINE
  5
18C
330
1F
100
AcDbEntity
  8
0
  6
Continuous
 62
     7
370
    15
100
AcDbSpline
210
0.0
220
0.0
230
1.0
 70
     8
 71
     3
 72
    19
 73
    15
 74
     0
 42
0.00000001
 43
0.00000001
 40
0.0
 40
0.0
 40
0.0
 40
0.0
 40
0.0979016790492786
 40
0.1753768162702884
 40
0.2884797138384032
 40
0.373450922198382
 40
0.4570016149753002
 40
0.6168864726696492
 40
0.6796647724525277
 40
0.7634255068981792
 40
0.813751525659855
 40
0.8702946307123823
 40
0.932396721414543
 40
1.0
 40
1.0
 40
1.0
 40
1.0
 10
188.4031855627621
 20
511.5127387590632
 30
0.0
 10
188.4536979185263
 20
511.4863573952504
 30
0.0
 10
188.5441835590411
 20
511.4390989657804
 30
0.0
 10
188.9188058353071
 20
511.3784523463796
 30
0.0
 10
189.4053351112369
 20
511.3245870298953
 30
0.0
 10
189.9966483692917
 20
511.2713339026947
 30
0.0
 10
190.7507635511506
 20
511.2197922769963
 30
0.0
 10
191.3918410289119
 20
511.1528501721771
 30
0.0
 10
192.0411373497897
 20
511.1173355368156
 30
0.0
 10
192.419442191519
 20
511.1955065661347
 30
0.0
 10
192.671315177082
 20
511.3037287072714
 30
0.0
 10
192.804895006894
 20
511.3920360901329
 30
0.0
 10
192.8666704470279
 20
511.4659097839382
 30
0.0
 10
192.7952270686005
 20
511.5464164549193
 30
0.0
 10
192.7579903170193
 20
511.5883770532832
 30
0.0
  0
SPLINE
  5
18D
330
1F
100
AcDbEntity
  8
0
  6
Continuous
 62
     7
370
    15
100
AcDbSpline
210
0.0
220
0.0
230
1.0
 70
     8
 71
     3
 72
    25
 73
    21
 74
     0
 42
0.00000001
 43
0.00000001
 40
0.0
 40
0.0
 40
0.0
 40
0.0
 40
0.0176266508500714
 40
0.0344978118502144
 40
0.0503138857013444
 40
0.0649744807077353
 40
0.0909450857381645
 40
0.1134377766392456
 40
0.1538405795020347
 40
0.1912354243436979
 40
0.2995715380000971
 40
0.3999641601783907
 40
0.5012962803023403
 40
0.5949065824652218
 40
0.6784878503809915
 40
0.7336317392016263
 40
0.8075187960555072
 40
0.8952855650331388
 40
0.945308830599114
 40
1.0
 40
1.0
 40
1.0
 40
1.0
 10
192.400675372752
 20
510.9627965040431
 30
0.0
 10
192.4403873173651
 20
510.9671864494632
 30
0.0
 10
192.5181091265233
 20
510.975778184355
 30
0.0
 10
192.6199700198544
 20
511.0217891507776
 30
0.0
 10
192.7010020226012
 20
511.0807511099105
 30
0.0
 10
192.7771841646004
 20
511.1643295426163
 30
0.0
 10
192.8302429826036
 20
511.2679576182084
 30
0.0
 10
192.8544173211892
 20
511.4003176004578
 30
0.0
 10
192.8315098796888
 20
511.5321632113421
 30
0.0
 10
192.6602834165514
 20
511.7774003693156
 30
0.0
 10
192.3174883171376
 20
511.8644574827476
 30
0.0
 10
191.8223774817941
 20
511.9230214664958
 30
0.0
 10
191.209164994495
 20
511.9813850664545
 30
0.0
 10
190.5596966792508
 20
512.0310111002314
 30
0.0
 10
190.0199888757583
 20
512.0704763214662
 30
0.0
 10
189.5739949582125
 20
512.1096551284254
 30
0.0
 10
189.1852624377037
 20
512.1478788066471
 30
0.0
 10
188.9251275963287
 20
512.1757380913324
 30
0.0
 10
188.7946746447899
 20
512.1982237180847
 30
0.0
 10
188.7860176788896
 20
512.2106835333786
 30
0.0
 10
188.7814962431515
 20
512.2171911545024
 30
0.0
  0
SPLINE
  5
18E
330
1F
100
AcDbEntity
  8
0
  6
Continuous
 62
     7
370
    15
100
AcDbSpline
210
0.0
220
0.0
230
1.0
 70
     8
 71
     3
 72
    12
 73
     8
 74
     0
 42
0.00000001
 43
0.00000001
 40
0.0
 40
0.0
 40
0.0
 40
0.0
 40
0.1756430871129702
 40
0.5723112226540086
 40
0.7586160656863811
 40
0.920760678476455
 40
1.0
 40
1.0
 40
1.0
 40
1.0
 10
188.8698154255475
 20
511.3987001724467
 30
0.0
 10
188.8042579400591
 20
511.389528656422
 30
0.0
 10
188.5906470015893
 20
511.3596444085653
 30
0.0
 10
188.3747028386507
 20
511.2857386005433
 30
0.0
 10
188.2135702354188
 20
511.0707727807589
 30
0.0
 10
188.1823416430523
 20
510.9105710611029
 30
0.0
 10
188.213322384144
 20
510.8319048272171
 30
0.0
 10
188.2234924599255
 20
510.8060809917674
 30
0.0
  0
LINE
  5
18F
330
1F
100
AcDbEntity
  8
0
  6
Continuous
 62
     7
370
    15
100
AcDbLine
 10
188.3810126349
 20
502.1082732029
 30
0.0
 11
187.2625463769
 21
502.1082732029
 31
0.0
  0
LINE
  5
190
330
1F
100
AcDbEntity
  8
0
  6
Continuous
 62
     7
370
    15
100
AcDbLine
 10
187.2625463769
 20
501.3082745619
 30
0.0
 11
189.0212559268
 21
501.3082745619
 31
0.0
  0
LINE
  5
191
330
1F
100
AcDbEntity
  8
0
  6
Continuous
 62
     7
370
    15
100
AcDbLine
 10
185.852255778
 20
514.906016285
 30
0.0
 11
185.852255778
 21
514.9594816513
 31
0.0
  0
LINE
  5
192
330
1F
100
AcDbEntity
  8
0
  6
Continuous
 62
     7
370
    15
100
AcDbLine
 10
182.8522645995
 20
514.9594816513
 30
0.0
 11
182.8522645995
 21
514.906016285
 31
0.0
  0
SPLINE
  5
193
330
1F
100
AcDbEntity
  8
0
  6
Continuous
 62
     7
370
    15
100
AcDbSpline
210
0.0
220
0.0
230
1.0
 70
     8
 71
     3
 72
    15
 73
    11
 74
     0
 42
0.00000001
 43
0.00000001
 40
0.0
 40
0.0
 40
0.0
 40
0.0
 40
0.10775558395448
 40
0.2352512525116226
 40
0.3627904438124229
 40
0.4902569714009369
 40
0.6176632515021261
 40
0.7450970725045022
 40
0.872496392135661
 40
1.0
 40
1.0
 40
1.0
 40
1.0
 10
182.8683131500805
 20
498.9060136623606
 30
0.0
 10
182.8848522749743
 20
498.5934914375317
 30
0.0
 10
182.9209603791109
 20
497.9111950577937
 30
0.0
 10
183.2571730655502
 20
496.9020468859036
 30
0.0
 10
183.8152532571891
 20
495.9385675123265
 30
0.0
 10
184.5700770655748
 20
495.1176414608495
 30
0.0
 10
185.4852423292878
 20
494.4823752003652
 30
0.0
 10
186.5124956557647
 20
494.0622148784835
 30
0.0
 10
187.6084780833497
 20
493.8484132388043
 30
0.0
 10
188.3442359865967
 20
493.9139378115643
 30
0.0
 10
188.7122654482449
 20
493.9467135019526
 30
0.0
  0
SPLINE
  5
194
330
1F
100
AcDbEntity
  8
0
  6
Continuous
 62
     7
370
    15
100
AcDbSpline
210
0.0
220
0.0
230
1.0
 70
     8
 71
     3
 72
    15
 73
    11
 74
     0
 42
0.00000001
 43
0.00000001
 40
0.0
 40
0.0
 40
0.0
 40
0.0
 40
0.1316509291461834
 40
0.2633118991814027
 40
0.3951919226063761
 40
0.5266715637211037
 40
0.6575475181541965
 40
0.7882152779784374
 40
0.9184602473323468
 40
0.9999999999999999
 40
0.9999999999999999
 40
0.9999999999999999
 40
0.9999999999999999
 10
188.2145815655315
 20
496.9044002838358
 30
0.0
 10
188.062397549521
 20
496.8925853293036
 30
0.0
 10
187.7580179105721
 20
496.868954519124
 30
0.0
 10
187.3071557561336
 20
496.9704283507204
 30
0.0
 10
186.8881276303793
 20
497.1572947424984
 30
0.0
 10
186.5177290864413
 20
497.4298824308564
 30
0.0
 10
186.2154778145539
 20
497.7758016640248
 30
0.0
 10
185.9963076327563
 20
498.1775038512505
 30
0.0
 10
185.8789506150823
 20
498.5638193312357
 30
0.0
 10
185.8687677781093
 20
498.81088883122
 30
0.0
 10
185.8648472591961
 20
498.9060136623606
 30
0.0
  0
SPLINE
  5
195
330
1F
100
AcDbEntity
  8
0
  6
Continuous
 62
     7
370
    15
100
AcDbSpline
210
0.0
220
0.0
230
1.0
 70
     8
 71
     3
 72
    15
 73
    11
 74
     0
 42
0.00000001
 43
0.00000001
 40
0.0
 40
0.0
 40
0.0
 40
0.0
 40
0.1249271744002042
 40
0.2499159491389391
 40
0.3749663957929265
 40
0.4999576941663553
 40
0.6249203967106692
 40
0.749916901807382
 40
0.8748746040201251
 40
1.0
 40
1.0
 40
1.0
 40
1.0
 10
188.8831370636547
 20
519.8365423031078
 30
0.0
 10
188.5167601557135
 20
519.8798748204246
 30
0.0
 10
187.7838256830471
 20
519.9665612218887
 30
0.0
 10
186.6798056613305
 20
519.8013626617915
 30
0.0
 10
185.6390022894201
 20
519.4124393576187
 30
0.0
 10
184.7038138396302
 20
518.8074198289638
 30
0.0
 10
183.923175953406
 20
518.0112202963534
 30
0.0
 10
183.3351986224661
 20
517.0668658809785
 30
0.0
 10
182.9393800437114
 20
516.0184163073408
 30
0.0
 10
182.8813160591974
 20
515.2792961456747
 30
0.0
 10
182.8522645994747
 20
514.9094882555232
 30
0.0
  0
SPLINE
  5
196
330
1F
100
AcDbEntity
  8
0
  6
Continuous
 62
     7
370
    15
100
AcDbSpline
210
0.0
220
0.0
230
1.0
 70
     8
 71
     3
 72
    15
 73
    11
 74
     0
 42
0.00000001
 43
0.00000001
 40
0.0
 40
0.0
 40
0.0
 40
0.0
 40
0.1242507647156472
 40
0.2486323191975824
 40
0.3735407918844088
 40
0.4985808856297401
 40
0.6236633115321472
 40
0.7490698212127426
 40
0.8744365574487172
 40
1.0
 40
1.0
 40
1.0
 40
1.0
 10
185.8522557779873
 20
514.9094882555232
 30
0.0
 10
185.8658200829174
 20
515.0614410436418
 30
0.0
 10
185.8929629709374
 20
515.3655065695558
 30
0.0
 10
186.0674130219913
 20
515.7928243212766
 30
0.0
 10
186.320747771628
 20
516.1744661692643
 30
0.0
 10
186.6505663954563
 20
516.4944020753409
 30
0.0
 10
187.0414975435357
 20
516.7349702851059
 30
0.0
 10
187.4741932561609
 20
516.8866095073893
 30
0.0
 10
187.931724502976
 20
516.9400409334212
 30
0.0
 10
188.2336446244313
 20
516.8993606295776
 30
0.0
 10
188.3847230240429
 20
516.8790045328365
 30
0.0
  0
LINE
  5
197
330
1F
100
AcDbEntity
  8
0
  6
Continuous
 62
     7
370
    15
100
AcDbLine
 10
203.755315499
 20
499.5211484976
 30
0.0
 11
188.2143580481
 21
496.9047281094
 31
0.0
  0
LINE
  5
198
330
1F
100
AcDbEntity
  8
0
  6
Continuous
 62
     7
370
    15
100
AcDbLine
 10
188.7124144599
 20
493.9463707752
 30
0.0
 11
204.2533868119
 21
496.5627911635
 31
0.0
  0
LINE
  5
199
330
1F
100
AcDbEntity
  8
0
  6
Continuous
 62
     7
370
    15
100
AcDbLine
 10
188.3849316403
 20
516.8785723992
 30
0.0
 11
203.9259039923
 21
514.2621669121
 31
0.0
  0
LINE
  5
19A
330
1F
100
AcDbEntity
  8
0
  6
Continuous
 62
     7
370
    15
100
AcDbLine
 10
204.4239604041
 20
517.2205242462
 30
0.0
 11
188.8830029532
 21
519.8369446345
 31
0.0
  0
SPLINE
  5
19B
330
1F
100
AcDbEntity
  8
0
  6
Continuous
 62
     7
370
    15
100
AcDbSpline
210
0.0
220
0.0
230
1.0
 70
     8
 71
     3
 72
    12
 73
     8
 74
     0
 42
0.00000001
 43
0.00000001
 40
0.0
 40
0.0
 40
0.0
 40
0.0
 40
0.1526135604568276
 40
0.2973905261041906
 40
0.5623705921371759
 40
0.7966015821471988
 40
1.0
 40
1.0
 40
1.0
 40
1.0
 10
204.253029184016
 20
496.5630891866907
 30
0.0
 10
204.5042489325006
 20
496.6158269011489
 30
0.0
 10
204.99378847896
 20
496.7185942869651
 30
0.0
 10
205.843309109336
 20
497.147847117242
 30
0.0
 10
206.6552985554093
 20
497.8922408209009
 30
0.0
 10
207.2197490256232
 20
498.9632803655118
 30
0.0
 10
207.3014363262948
 20
499.6982085110872
 30
0.0
 10
207.3394023939694
 20
500.0397834129557
 30
0.0
  0
SPLINE
  5
19C
330
1F
100
AcDbEntity
  8
0
  6
Continuous
 62
     7
370
    15
100
AcDbSpline
210
0.0
220
0.0
230
1.0
 70
     8
 71
     3
 72
    11
 73
     7
 74
     0
 42
0.00000001
 43
0.00000001
 40
0.0
 40
0.0
 40
0.0
 40
0.0
 40
0.2003624455425825
 40
0.4328096834642056
 40
0.6990173802634269
 40
1.0
 40
1.0
 40
1.0
 40
1.0
 10
204.3410801455105
 20
500.0397834129557
 30
0.0
 10
204.327852984073
 20
499.9833545215953
 30
0.0
 10
204.2992805460626
 20
499.8614605681561
 30
0.0
 10
204.1833946544726
 20
499.6957714959681
 30
0.0
 10
203.9986467969791
 20
499.5568420451389
 30
0.0
 10
203.8410280198839
 20
499.5334645077351
 30
0.0
 10
203.7573867603863
 20
499.5210590906366
 30
0.0
  0
SPLINE
  5
19D
330
1F
100
AcDbEntity
  8
0
  6
Continuous
 62
     7
370
    15
100
AcDbSpline
210
0.0
220
0.0
230
1.0
 70
     8
 71
     3
 72
    12
 73
     8
 74
     0
 42
0.00000001
 43
0.00000001
 40
0.0
 40
0.0
 40
0.0
 40
0.0
 40
0.2034077986152291
 40
0.4376400377344393
 40
0.7026160208210837
 40
0.8473893807424194
 40
1.0
 40
1.0
 40
1.0
 40
1.0
 10
207.3394023939694
 20
513.5984095878825
 30
0.0
 10
207.3179616687239
 20
513.9414202113551
 30
0.0
 10
207.2718310883363
 20
514.679421326464
 30
0.0
 10
206.7597320975009
 20
515.7765298113721
 30
0.0
 10
205.9845331045166
 20
516.5592934654117
 30
0.0
 10
205.1566737116506
 20
517.0290086585121
 30
0.0
 10
204.6726882439061
 20
517.1552784554206
 30
0.0
 10
204.4243180319393
 20
517.2200772114024
 30
0.0
  0
SPLINE
  5
19E
330
1F
100
AcDbEntity
  8
0
  6
Continuous
 62
     7
370
    15
100
AcDbSpline
210
0.0
220
0.0
230
1.0
 70
     8
 71
     3
 72
    12
 73
     8
 74
     0
 42
0.00000001
 43
0.00000001
 40
0.0
 40
0.0
 40
0.0
 40
0.0
 40
0.1555612070081118
 40
0.3022035794488034
 40
0.5679688160015415
 40
0.7999504135698806
 40
1.0
 40
1.0
 40
1.0
 40
1.0
 10
203.9239817425335
 20
514.2630758829341
 30
0.0
 10
203.9645283038886
 20
514.2473264298072
 30
0.0
 10
204.0432967591578
 20
514.2167304913928
 30
0.0
 10
204.1729350624633
 20
514.1216842606068
 30
0.0
 10
204.2873649280669
 20
513.9755181236361
 30
0.0
 10
204.3514976728679
 20
513.781254614525
 30
0.0
 10
204.3443772273662
 20
513.6562788882503
 30
0.0
 10
204.3410801455105
 20
513.5984095878825
 30
0.0
  0
LINE
  5
19F
330
1F
100
AcDbEntity
  8
0
  6
Continuous
 62
     7
370
    15
100
AcDbLine
 10
204.3402456805
 20
513.6484178848
 30
0.0
 11
204.3402456805
 21
513.4060206957
 31
0.0
  0
LINE
  5
1A0
330
1F
100
AcDbEntity
  8
0
  6
Continuous
 62
     7
370
    15
100
AcDbLine
 10
204.3402456805
 20
500.4060092516
 30
0.0
 11
204.3402456805
 21
499.989775116
 31
0.0
  0
LINE
  5
1A1
330
1F
100
AcDbEntity
  8
0
  6
Continuous
 62
     7
370
    15
100
AcDbLine
 10
207.340236859
 20
499.989775116
 30
0.0
 11
207.340236859
 21
500.4087659664
 31
0.0
  0
LINE
  5
1A2
330
1F
100
AcDbEntity
  8
0
  6
Continuous
 62
     7
370
    15
100
AcDbLine
 10
207.340236859
 20
513.4032639809
 30
0.0
 11
207.340236859
 21
513.6484178848
 31
0.0
  0
LINE
  5
1A3
330
1F
100
AcDbEntity
  8
0
  6
Continuous
 62
     7
370
    15
100
AcDbLine
 10
193.6395281121
 20
512.5060203619
 30
0.0
 11
192.0212471053
 21
512.5060203619
 31
0.0
  0
LINE
  5
1A4
330
1F
100
AcDbEntity
  8
0
  6
Continuous
 62
     7
370
    15
100
AcDbLine
 10
192.648168759
 20
511.7060217209
 30
0.0
 11
193.6395281121
 21
511.7060217209
 31
0.0
  0
LINE
  5
1A5
330
1F
100
AcDbEntity
  8
0
  6
Continuous
 62
     7
370
    15
100
AcDbLine
 10
193.9777546689
 20
513.774153883
 30
0.0
 11
193.7112324998
 21
512.5659081288
 31
0.0
  0
LINE
  5
1A6
330
1F
100
AcDbEntity
  8
0
  6
Continuous
 62
     7
370
    15
100
AcDbLine
 10
194.4793873593
 20
512.334358985
 30
0.0
 11
194.7589629456
 21
513.6018219538
 31
0.0
  0
SPLINE
  5
1A7
330
1F
100
AcDbEntity
  8
0
  6
Continuous
 62
     7
370
    15
100
AcDbSpline
210
0.0
220
0.0
230
1.0
 70
     8
 71
     3
 72
    11
 73
     7
 74
     0
 42
0.00000001
 43
0.00000001
 40
0.0
 40
0.0
 40
0.0
 40
0.0
 40
0.2541311630691059
 40
0.5022676364033828
 40
0.7495179365131207
 40
1.0
 40
1.0
 40
1.0
 40
1.0
 10
193.6395281120861
 20
511.7060217209086
 30
0.0
 10
193.7396165453816
 20
511.7162668451609
 30
0.0
 10
193.9374324299646
 20
511.7365154218436
 30
0.0
 10
194.1955840171139
 20
511.8905410587471
 30
0.0
 10
194.3990254343863
 20
512.1096222899953
 30
0.0
 10
194.4607614140156
 20
512.2966723153855
 30
0.0
 10
194.4918298288906
 20
512.3908045835719
 30
0.0
  0
LINE
  5
1A8
330
1F
100
AcDbEntity
  8
0
  6
Continuous
 62
     7
370
    15
100
AcDbLine
 10
208.0213838383
 20
42.2060164757
 30
0.0
 11
207.0693635508
 21
42.2060164757
 31
0.0
  0
LINE
  5
1A9
330
1F
100
AcDbEntity
  8
0
  6
Continuous
 62
     7
370
    15
100
AcDbLine
 10
208.0213838383
 20
42.2060164757
 30
0.0
 11
208.0213838383
 21
31.6060158558
 31
0.0
  0
LINE
  5
1AA
330
1F
100
AcDbEntity
  8
0
  6
Continuous
 62
     7
370
    15
100
AcDbLine
 10
207.0693635508
 20
31.6060158558
 30
0.0
 11
208.0213838383
 21
31.6060158558
 31
0.0
  0
LINE
  5
1AB
330
1F
100
AcDbEntity
  8
0
  6
Continuous
 62
     7
370
    15
100
AcDbLine
 10
207.0693635508
 20
42.2060164757
 30
0.0
 11
207.0693635508
 21
31.6060158558
 31
0.0
  0
LINE
  5
1AC
330
1F
100
AcDbEntity
  8
0
  6
Continuous
 62
     7
370
    15
100
AcDbLine
 10
206.3388490244
 20
43.4060218878
 30
0.0
 11
207.290869312
 21
43.4060218878
 31
0.0
  0
LWPOLYLINE
  5
1AD
330
1F
100
AcDbEntity
  8
0
  6
Continuous
 62
     7
370
    15
100
AcDbPolyline
 90
        9
 70
   128
 43
0.0
 10
207.290869312
 20
43.4060218878
 10
207.4333840176
 20
43.3829548903
 10
207.570415096
 20
43.3146777697
 10
207.6967173382
 20
43.2037833281
 10
207.8074180647
 20
43.0545481987
 10
207.8982704445
 20
42.8726944275
 10
207.9657727048
 20
42.6652404614
 10
208.0073469445
 20
42.4401286192
 10
208.0213838383
 20
42.2060164757
  0
LWPOLYLINE
  5
1AE
330
1F
100
AcDbEntity
  8
0
  6
Continuous
 62
     7
370
    15
100
AcDbPolyline
 90
        9
 70
   128
 43
0.0
 10
207.0693635508
 20
42.2060164757
 10
207.055326657
 20
42.4401286192
 10
207.0137524172
 20
42.6652404614
 10
206.9462352559
 20
42.8726944275
 10
206.8553977772
 20
43.0545481987
 10
206.7446970507
 20
43.2037833281
 10
206.6183948084
 20
43.3146777697
 10
206.4813637301
 20
43.3829548903
 10
206.3388490244
 20
43.4060218878
  0
LINE
  5
1AF
330
1F
100
AcDbEntity
  8
0
  6
Continuous
 62
     7
370
    15
100
AcDbLine
 10
207.290869312
 20
30.4060104437
 30
0.0
 11
206.3388490244
 21
30.4060104437
 31
0.0
  0
LWPOLYLINE
  5
1B0
330
1F
100
AcDbEntity
  8
0
  6
Continuous
 62
     7
370
    15
100
AcDbPolyline
 90
        9
 70
   128
 43
0.0
 10
206.3388490244
 20
30.4060104437
 10
206.4813637301
 20
30.4290774412
 10
206.6183948084
 20
30.4973545618
 10
206.7446970507
 20
30.6082490034
 10
206.8553977772
 20
30.7574841328
 10
206.9462352559
 20
30.939337904
 10
207.0137524172
 20
31.1467918701
 10
207.055326657
 20
31.3719037123
 10
207.0693635508
 20
31.6060158558
  0
LWPOLYLINE
  5
1B1
330
1F
100
AcDbEntity
  8
0
  6
Continuous
 62
     7
370
    15
100
AcDbPolyline
 90
        9
 70
   128
 43
0.0
 10
208.0213838383
 20
31.6060158558
 10
208.0073469445
 20
31.3719037123
 10
207.9657727048
 20
31.1467918701
 10
207.8982704445
 20
30.939337904
 10
207.8074180647
 20
30.7574841328
 10
207.6967173382
 20
30.6082490034
 10
207.570415096
 20
30.4973545618
 10
207.4333840176
 20
30.4290774412
 10
207.290869312
 20
30.4060104437
  0
LINE
  5
1B2
330
1F
100
AcDbEntity
  8
0
  6
Continuous
 62
     7
370
    15
100
AcDbLine
 10
203.6198639437
 20
43.4060218878
 30
0.0
 11
203.6198639437
 21
30.4060104437
 31
0.0
  0
LINE
  5
1B3
330
1F
100
AcDbEntity
  8
0
  6
Continuous
 62
     7
370
    15
100
AcDbLine
 10
203.6198639437
 20
43.4060218878
 30
0.0
 11
206.3388490244
 21
43.4060218878
 31
0.0
  0
LINE
  5
1B4
330
1F
100
AcDbEntity
  8
0
  6
Continuous
 62
     7
370
    15
100
AcDbLine
 10
206.3388490244
 20
30.4060104437
 30
0.0
 11
203.6198639437
 21
30.4060104437
 31
0.0
  0
LINE
  5
1B5
330
1F
100
AcDbEntity
  8
0
  6
Continuous
 62
     7
370
    15
100
AcDbLine
 10
206.3388490244
 20
513.4060206957
 30
0.0
 11
207.290869312
 21
513.4060206957
 31
0.0
  0
LWPOLYLINE
  5
1B6
330
1F
100
AcDbEntity
  8
0
  6
Continuous
 62
     7
370
    15
100
AcDbPolyline
 90
        9
 70
   128
 43
0.0
 10
207.290869312
 20
513.4060206957
 10
207.4333840176
 20
513.3829536982
 10
207.570415096
 20
513.3146765776
 10
207.6967173382
 20
513.203782136
 10
207.8074180647
 20
513.0545470066
 10
207.8982704445
 20
512.8726932354
 10
207.9657727048
 20
512.6652392693
 10
208.0073469445
 20
512.4401274271
 10
208.0213838383
 20
512.2060152836
  0
LINE
  5
1B7
330
1F
100
AcDbEntity
  8
0
  6
Continuous
 62
     7
370
    15
100
AcDbLine
 10
208.0213838383
 20
512.2060152836
 30
0.0
 11
207.0693635508
 21
512.2060152836
 31
0.0
  0
LWPOLYLINE
  5
1B8
330
1F
100
AcDbEntity
  8
0
  6
Continuous
 62
     7
370
    15
100
AcDbPolyline
 90
        9
 70
   128
 43
0.0
 10
207.0693635508
 20
512.2060152836
 10
207.055326657
 20
512.4401274271
 10
207.0137524172
 20
512.6652392693
 10
206.9462352559
 20
512.8726932354
 10
206.8553977772
 20
513.0545470066
 10
206.7446970507
 20
513.203782136
 10
206.6183948084
 20
513.3146765776
 10
206.4813637301
 20
513.3829536982
 10
206.3388490244
 20
513.4060206957
  0
LINE
  5
1B9
330
1F
100
AcDbEntity
  8
0
  6
Continuous
 62
     7
370
    15
100
AcDbLine
 10
207.290869312
 20
500.4060092516
 30
0.0
 11
206.3388490244
 21
500.4060092516
 31
0.0
  0
LWPOLYLINE
  5
1BA
330
1F
100
AcDbEntity
  8
0
  6
Continuous
 62
     7
370
    15
100
AcDbPolyline
 90
        9
 70
   128
 43
0.0
 10
206.3388490244
 20
500.4060092516
 10
206.4813637301
 20
500.4290762491
 10
206.6183948084
 20
500.4973533697
 10
206.7446970507
 20
500.6082478113
 10
206.8553977772
 20
500.7574829407
 10
206.9462352559
 20
500.9393367119
 10
207.0137524172
 20
501.146790678
 10
207.055326657
 20
501.3719025202
 10
207.0693635508
 20
501.6060146637
  0
LINE
  5
1BB
330
1F
100
AcDbEntity
  8
0
  6
Continuous
 62
     7
370
    15
100
AcDbLine
 10
207.0693635508
 20
501.6060146637
 30
0.0
 11
208.0213838383
 21
501.6060146637
 31
0.0
  0
LWPOLYLINE
  5
1BC
330
1F
100
AcDbEntity
  8
0
  6
Continuous
 62
     7
370
    15
100
AcDbPolyline
 90
        9
 70
   128
 43
0.0
 10
208.0213838383
 20
501.6060146637
 10
208.0073469445
 20
501.3719025202
 10
207.9657727048
 20
501.146790678
 10
207.8982704445
 20
500.9393367119
 10
207.8074180647
 20
500.7574829407
 10
207.6967173382
 20
500.6082478113
 10
207.570415096
 20
500.4973533697
 10
207.4333840176
 20
500.4290762491
 10
207.290869312
 20
500.4060092516
  0
LINE
  5
1BD
330
1F
100
AcDbEntity
  8
0
  6
Continuous
 62
     7
370
    15
100
AcDbLine
 10
208.0213838383
 20
512.2060152836
 30
0.0
 11
208.0213838383
 21
501.6060146637
 31
0.0
  0
LINE
  5
1BE
330
1F
100
AcDbEntity
  8
0
  6
Continuous
 62
     7
370
    15
100
AcDbLine
 10
207.0693635508
 20
512.2060152836
 30
0.0
 11
207.0693635508
 21
501.6060146637
 31
0.0
  0
LINE
  5
1BF
330
1F
100
AcDbEntity
  8
0
  6
Continuous
 62
     7
370
    15
100
AcDbLine
 10
203.6198639437
 20
513.4060206957
 30
0.0
 11
203.6198639437
 21
500.4060092516
 31
0.0
  0
LINE
  5
1C0
330
1F
100
AcDbEntity
  8
0
  6
Continuous
 62
     7
370
    15
100
AcDbLine
 10
203.6198639437
 20
513.4060206957
 30
0.0
 11
206.3388490244
 21
513.4060206957
 31
0.0
  0
LINE
  5
1C1
330
1F
100
AcDbEntity
  8
0
  6
Continuous
 62
     7
370
    15
100
AcDbLine
 10
206.3388490244
 20
500.4060092516
 30
0.0
 11
203.6198639437
 21
500.4060092516
 31
0.0
  0
LINE
  5
1C2
330
1F
100
AcDbEntity
  8
0
  6
Continuous
 62
     7
370
    15
100
AcDbLine
 10
203.0412518546
 20
43.4060218878
 30
0.0
 11
203.6198639437
 21
43.4060218878
 31
0.0
  0
LINE
  5
1C3
330
1F
100
AcDbEntity
  8
0
  6
Continuous
 62
     7
370
    15
100
AcDbLine
 10
203.6198639437
 20
30.4060104437
 30
0.0
 11
203.0412518546
 21
30.4060104437
 31
0.0
  0
LINE
  5
1C4
330
1F
100
AcDbEntity
  8
0
  6
Continuous
 62
     7
370
    15
100
AcDbLine
 10
203.0412518546
 20
513.4060206957
 30
0.0
 11
203.6198639437
 21
513.4060206957
 31
0.0
  0
LINE
  5
1C5
330
1F
100
AcDbEntity
  8
0
  6
Continuous
 62
     7
370
    15
100
AcDbLine
 10
203.6198639437
 20
500.4060092516
 30
0.0
 11
203.0412518546
 21
500.4060092516
 31
0.0
  0
CIRCLE
  5
1C6
330
1F
100
AcDbEntity
  8
0
  6
Continuous
 62
     7
370
    15
100
AcDbCircle
 10
213.5412516877
 20
41.9060155697
 30
0.0
 40
3.0
  0
LINE
  5
1C7
330
1F
100
AcDbEntity
  8
0
  6
Continuous
 62
     7
370
    15
100
AcDbLine
 10
213.1412589118
 20
42.3060181685
 30
0.0
 11
211.6412484213
 21
42.3060181685
 31
0.0
  0
LINE
  5
1C8
330
1F
100
AcDbEntity
  8
0
  6
Continuous
 62
     7
370
    15
100
AcDbLine
 10
211.6412484213
 20
42.3060181685
 30
0.0
 11
211.6412484213
 21
41.5060195275
 31
0.0
  0
LINE
  5
1C9
330
1F
100
AcDbEntity
  8
0
  6
Continuous
 62
     7
370
    15
100
AcDbLine
 10
211.6412484213
 20
41.5060195275
 30
0.0
 11
213.1412589118
 21
41.5060195275
 31
0.0
  0
LINE
  5
1CA
330
1F
100
AcDbEntity
  8
0
  6
Continuous
 62
     7
370
    15
100
AcDbLine
 10
213.1412589118
 20
41.5060195275
 30
0.0
 11
213.1412589118
 21
40.006009037
 31
0.0
  0
LINE
  5
1CB
330
1F
100
AcDbEntity
  8
0
  6
Continuous
 62
     7
370
    15
100
AcDbLine
 10
213.1412589118
 20
40.006009037
 30
0.0
 11
213.9412575528
 21
40.006009037
 31
0.0
  0
LINE
  5
1CC
330
1F
100
AcDbEntity
  8
0
  6
Continuous
 62
     7
370
    15
100
AcDbLine
 10
213.9412575528
 20
40.006009037
 30
0.0
 11
213.9412575528
 21
41.5060195275
 31
0.0
  0
LINE
  5
1CD
330
1F
100
AcDbEntity
  8
0
  6
Continuous
 62
     7
370
    15
100
AcDbLine
 10
215.441253142
 20
41.5060195275
 30
0.0
 11
215.441253142
 21
42.3060181685
 31
0.0
  0
LINE
  5
1CE
330
1F
100
AcDbEntity
  8
0
  6
Continuous
 62
     7
370
    15
100
AcDbLine
 10
215.441253142
 20
42.3060181685
 30
0.0
 11
213.9412575528
 21
42.3060181685
 31
0.0
  0
LINE
  5
1CF
330
1F
100
AcDbEntity
  8
0
  6
Continuous
 62
     7
370
    15
100
AcDbLine
 10
213.9412575528
 20
43.8060137577
 30
0.0
 11
213.1412589118
 21
43.8060137577
 31
0.0
  0
LINE
  5
1D0
330
1F
100
AcDbEntity
  8
0
  6
Continuous
 62
     7
370
    15
100
AcDbLine
 10
213.1412589118
 20
43.8060137577
 30
0.0
 11
213.1412589118
 21
42.3060181685
 31
0.0
  0
LINE
  5
1D1
330
1F
100
AcDbEntity
  8
0
  6
Continuous
 62
     7
370
    15
100
AcDbLine
 10
213.9412575528
 20
42.3060181685
 30
0.0
 11
213.9412575528
 21
43.8060137577
 31
0.0
  0
LINE
  5
1D2
330
1F
100
AcDbEntity
  8
0
  6
Continuous
 62
     7
370
    15
100
AcDbLine
 10
213.9412575528
 20
41.5060195275
 30
0.0
 11
215.441253142
 21
41.5060195275
 31
0.0
  0
LINE
  5
1D3
330
1F
100
AcDbEntity
  8
0
  6
Continuous
 62
     7
370
    15
100
AcDbLine
 10
213.9412575528
 20
30.0060185738
 30
0.0
 11
213.9412575528
 21
31.506014163
 31
0.0
  0
LINE
  5
1D4
330
1F
100
AcDbEntity
  8
0
  6
Continuous
 62
     7
370
    15
100
AcDbLine
 10
215.441253142
 20
31.506014163
 30
0.0
 11
215.441253142
 21
32.3060128041
 31
0.0
  0
LINE
  5
1D5
330
1F
100
AcDbEntity
  8
0
  6
Continuous
 62
     7
370
    15
100
AcDbLine
 10
215.441253142
 20
32.3060128041
 30
0.0
 11
213.9412575528
 21
32.3060128041
 31
0.0
  0
LINE
  5
1D6
330
1F
100
AcDbEntity
  8
0
  6
Continuous
 62
     7
370
    15
100
AcDbLine
 10
211.6412484213
 20
31.506014163
 30
0.0
 11
213.1412589118
 21
31.506014163
 31
0.0
  0
LINE
  5
1D7
330
1F
100
AcDbEntity
  8
0
  6
Continuous
 62
     7
370
    15
100
AcDbLine
 10
213.1412589118
 20
31.506014163
 30
0.0
 11
213.1412589118
 21
30.0060185738
 31
0.0
  0
LINE
  5
1D8
330
1F
100
AcDbEntity
  8
0
  6
Continuous
 62
     7
370
    15
100
AcDbLine
 10
213.9412575528
 20
31.506014163
 30
0.0
 11
215.441253142
 21
31.506014163
 31
0.0
  0
LINE
  5
1D9
330
1F
100
AcDbEntity
  8
0
  6
Continuous
 62
     7
370
    15
100
AcDbLine
 10
213.9412575528
 20
32.3060128041
 30
0.0
 11
213.9412575528
 21
33.8060083933
 31
0.0
  0
LINE
  5
1DA
330
1F
100
AcDbEntity
  8
0
  6
Continuous
 62
     7
370
    15
100
AcDbLine
 10
213.1412589118
 20
30.0060185738
 30
0.0
 11
213.9412575528
 21
30.0060185738
 31
0.0
  0
LINE
  5
1DB
330
1F
100
AcDbEntity
  8
0
  6
Continuous
 62
     7
370
    15
100
AcDbLine
 10
213.9412575528
 20
33.8060083933
 30
0.0
 11
213.1412589118
 21
33.8060083933
 31
0.0
  0
LINE
  5
1DC
330
1F
100
AcDbEntity
  8
0
  6
Continuous
 62
     7
370
    15
100
AcDbLine
 10
211.6412484213
 20
32.3060128041
 30
0.0
 11
211.6412484213
 21
31.506014163
 31
0.0
  0
LINE
  5
1DD
330
1F
100
AcDbEntity
  8
0
  6
Continuous
 62
     7
370
    15
100
AcDbLine
 10
213.1412589118
 20
32.3060128041
 30
0.0
 11
211.6412484213
 21
32.3060128041
 31
0.0
  0
LINE
  5
1DE
330
1F
100
AcDbEntity
  8
0
  6
Continuous
 62
     7
370
    15
100
AcDbLine
 10
213.1412589118
 20
33.8060083933
 30
0.0
 11
213.1412589118
 21
32.3060128041
 31
0.0
  0
CIRCLE
  5
1DF
330
1F
100
AcDbEntity
  8
0
  6
Continuous
 62
     7
370
    15
100
AcDbCircle
 10
213.5412516877
 20
31.9060155697
 30
0.0
 40
3.0
  0
CIRCLE
  5
1E0
330
1F
100
AcDbEntity
  8
0
  6
Continuous
 62
     7
370
    15
100
AcDbCircle
 10
213.5412516877
 20
511.9060155697
 30
0.0
 40
3.0
  0
LINE
  5
1E1
330
1F
100
AcDbEntity
  8
0
  6
Continuous
 62
     7
370
    15
100
AcDbLine
 10
213.1412589118
 20
510.0060227461
 30
0.0
 11
213.9412575528
 21
510.0060227461
 31
0.0
  0
LINE
  5
1E2
330
1F
100
AcDbEntity
  8
0
  6
Continuous
 62
     7
370
    15
100
AcDbLine
 10
213.9412575528
 20
510.0060227461
 30
0.0
 11
213.9412575528
 21
511.5060183354
 31
0.0
  0
LINE
  5
1E3
330
1F
100
AcDbEntity
  8
0
  6
Continuous
 62
     7
370
    15
100
AcDbLine
 10
213.9412575528
 20
511.5060183354
 30
0.0
 11
215.441253142
 21
511.5060183354
 31
0.0
  0
LINE
  5
1E4
330
1F
100
AcDbEntity
  8
0
  6
Continuous
 62
     7
370
    15
100
AcDbLine
 10
215.441253142
 20
511.5060183354
 30
0.0
 11
215.441253142
 21
512.3060169764
 31
0.0
  0
LINE
  5
1E5
330
1F
100
AcDbEntity
  8
0
  6
Continuous
 62
     7
370
    15
100
AcDbLine
 10
215.441253142
 20
512.3060169764
 30
0.0
 11
213.9412575528
 21
512.3060169764
 31
0.0
  0
LINE
  5
1E6
330
1F
100
AcDbEntity
  8
0
  6
Continuous
 62
     7
370
    15
100
AcDbLine
 10
213.1412589118
 20
513.8060125656
 30
0.0
 11
213.1412589118
 21
512.3060169764
 31
0.0
  0
LINE
  5
1E7
330
1F
100
AcDbEntity
  8
0
  6
Continuous
 62
     7
370
    15
100
AcDbLine
 10
211.6412484213
 20
511.5060183354
 30
0.0
 11
213.1412589118
 21
511.5060183354
 31
0.0
  0
LINE
  5
1E8
330
1F
100
AcDbEntity
  8
0
  6
Continuous
 62
     7
370
    15
100
AcDbLine
 10
213.9412575528
 20
513.8060125656
 30
0.0
 11
213.1412589118
 21
513.8060125656
 31
0.0
  0
LINE
  5
1E9
330
1F
100
AcDbEntity
  8
0
  6
Continuous
 62
     7
370
    15
100
AcDbLine
 10
213.9412575528
 20
512.3060169764
 30
0.0
 11
213.9412575528
 21
513.8060125656
 31
0.0
  0
LINE
  5
1EA
330
1F
100
AcDbEntity
  8
0
  6
Continuous
 62
     7
370
    15
100
AcDbLine
 10
211.6412484213
 20
512.3060169764
 30
0.0
 11
211.6412484213
 21
511.5060183354
 31
0.0
  0
LINE
  5
1EB
330
1F
100
AcDbEntity
  8
0
  6
Continuous
 62
     7
370
    15
100
AcDbLine
 10
213.1412589118
 20
511.5060183354
 30
0.0
 11
213.1412589118
 21
510.0060227461
 31
0.0
  0
LINE
  5
1EC
330
1F
100
AcDbEntity
  8
0
  6
Continuous
 62
     7
370
    15
100
AcDbLine
 10
213.1412589118
 20
512.3060169764
 30
0.0
 11
211.6412484213
 21
512.3060169764
 31
0.0
  0
LINE
  5
1ED
330
1F
100
AcDbEntity
  8
0
  6
Continuous
 62
     7
370
    15
100
AcDbLine
 10
215.441253142
 20
501.5060129709
 30
0.0
 11
215.441253142
 21
502.306011612
 31
0.0
  0
LINE
  5
1EE
330
1F
100
AcDbEntity
  8
0
  6
Continuous
 62
     7
370
    15
100
AcDbLine
 10
213.9412575528
 20
502.306011612
 30
0.0
 11
213.9412575528
 21
503.8060221024
 31
0.0
  0
LINE
  5
1EF
330
1F
100
AcDbEntity
  8
0
  6
Continuous
 62
     7
370
    15
100
AcDbLine
 10
213.1412589118
 20
503.8060221024
 30
0.0
 11
213.1412589118
 21
502.306011612
 31
0.0
  0
LINE
  5
1F0
330
1F
100
AcDbEntity
  8
0
  6
Continuous
 62
     7
370
    15
100
AcDbLine
 10
213.1412589118
 20
502.306011612
 30
0.0
 11
211.6412484213
 21
502.306011612
 31
0.0
  0
LINE
  5
1F1
330
1F
100
AcDbEntity
  8
0
  6
Continuous
 62
     7
370
    15
100
AcDbLine
 10
215.441253142
 20
502.306011612
 30
0.0
 11
213.9412575528
 21
502.306011612
 31
0.0
  0
LINE
  5
1F2
330
1F
100
AcDbEntity
  8
0
  6
Continuous
 62
     7
370
    15
100
AcDbLine
 10
213.9412575528
 20
503.8060221024
 30
0.0
 11
213.1412589118
 21
503.8060221024
 31
0.0
  0
CIRCLE
  5
1F3
330
1F
100
AcDbEntity
  8
0
  6
Continuous
 62
     7
370
    15
100
AcDbCircle
 10
213.5412516877
 20
501.9060155697
 30
0.0
 40
3.0
  0
LINE
  5
1F4
330
1F
100
AcDbEntity
  8
0
  6
Continuous
 62
     7
370
    15
100
AcDbLine
 10
213.1412589118
 20
500.0060173817
 30
0.0
 11
213.9412575528
 21
500.0060173817
 31
0.0
  0
LINE
  5
1F5
330
1F
100
AcDbEntity
  8
0
  6
Continuous
 62
     7
370
    15
100
AcDbLine
 10
211.6412484213
 20
502.306011612
 30
0.0
 11
211.6412484213
 21
501.5060129709
 31
0.0
  0
LINE
  5
1F6
330
1F
100
AcDbEntity
  8
0
  6
Continuous
 62
     7
370
    15
100
AcDbLine
 10
213.9412575528
 20
501.5060129709
 30
0.0
 11
215.441253142
 21
501.5060129709
 31
0.0
  0
LINE
  5
1F7
330
1F
100
AcDbEntity
  8
0
  6
Continuous
 62
     7
370
    15
100
AcDbLine
 10
211.6412484213
 20
501.5060129709
 30
0.0
 11
213.1412589118
 21
501.5060129709
 31
0.0
  0
LINE
  5
1F8
330
1F
100
AcDbEntity
  8
0
  6
Continuous
 62
     7
370
    15
100
AcDbLine
 10
213.9412575528
 20
500.0060173817
 30
0.0
 11
213.9412575528
 21
501.5060129709
 31
0.0
  0
LINE
  5
1F9
330
1F
100
AcDbEntity
  8
0
  6
Continuous
 62
     7
370
    15
100
AcDbLine
 10
213.1412589118
 20
501.5060129709
 30
0.0
 11
213.1412589118
 21
500.0060173817
 31
0.0
  0
LINE
  5
1FA
330
1F
100
AcDbEntity
  8
0
  6
Continuous
 62
     7
370
    15
100
AcDbLine
 10
207.5412535235
 20
43.4060218878
 30
0.0
 11
212.523486571
 21
48.0079027958
 31
0.0
  0
ARC
  5
1FB
330
1F
100
AcDbEntity
  8
0
  6
Continuous
 62
     7
370
    15
100
AcDbCircle
 10
203.0412516877
 20
36.9060155697
 30
0.0
 40
16.00000000000017
100
AcDbArc
 50
316.3971810272
 51
43.6028189726
  0
ARC
  5
1FC
330
1F
100
AcDbEntity
  8
0
  6
Continuous
 62
     7
370
    15
100
AcDbCircle
 10
213.5412516877
 20
46.9060155697
 30
0.0
 40
1.499999999999993
100
AcDbArc
 50
43.6028189726
 51
132.7273953127
  0
ARC
  5
1FD
330
1F
100
AcDbEntity
  8
0
  6
Continuous
 62
     7
370
    15
100
AcDbCircle
 10
213.5412516877
 20
26.9060155697
 30
0.0
 40
1.499999999999787
100
AcDbArc
 50
227.2726046868
 51
316.3971810272
  0
LINE
  5
1FE
330
1F
100
AcDbEntity
  8
0
  6
Continuous
 62
     7
370
    15
100
AcDbLine
 10
212.523486571
 20
25.8041295357
 30
0.0
 11
207.5412535235
 21
30.4060104437
 31
0.0
  0
LINE
  5
1FF
330
1F
100
AcDbEntity
  8
0
  6
Continuous
 62
     7
370
    15
100
AcDbLine
 10
207.340236859
 20
43.4060218878
 30
0.0
 11
207.5412535235
 21
43.4060218878
 31
0.0
  0
LINE
  5
200
330
1F
100
AcDbEntity
  8
0
  6
Continuous
 62
     7
370
    15
100
AcDbLine
 10
207.5412535235
 20
30.4060104437
 30
0.0
 11
207.340236859
 21
30.4060104437
 31
0.0
  0
LINE
  5
201
330
1F
100
AcDbEntity
  8
0
  6
Continuous
 62
     7
370
    15
100
AcDbLine
 10
212.523486571
 20
495.8041283436
 30
0.0
 11
207.5412535235
 21
500.4060092516
 31
0.0
  0
LINE
  5
202
330
1F
100
AcDbEntity
  8
0
  6
Continuous
 62
     7
370
    15
100
AcDbLine
 10
207.5412535235
 20
513.4060206957
 30
0.0
 11
212.523486571
 21
518.0079016037
 31
0.0
  0
ARC
  5
203
330
1F
100
AcDbEntity
  8
0
  6
Continuous
 62
     7
370
    15
100
AcDbCircle
 10
203.0412516877
 20
506.9060155697
 30
0.0
 40
16.00000000000017
100
AcDbArc
 50
316.3971810272
 51
43.6028189726
  0
ARC
  5
204
330
1F
100
AcDbEntity
  8
0
  6
Continuous
 62
     7
370
    15
100
AcDbCircle
 10
213.5412516877
 20
516.9060155697
 30
0.0
 40
1.500000000000028
100
AcDbArc
 50
43.6028189726
 51
132.7273953127
  0
ARC
  5
205
330
1F
100
AcDbEntity
  8
0
  6
Continuous
 62
     7
370
    15
100
AcDbCircle
 10
213.5412516877
 20
496.9060155697
 30
0.0
 40
1.499999999999844
100
AcDbArc
 50
227.2726046868
 51
316.3971810272
  0
LINE
  5
206
330
1F
100
AcDbEntity
  8
0
  6
Continuous
 62
     7
370
    15
100
AcDbLine
 10
207.340236859
 20
513.4060206957
 30
0.0
 11
207.5412535235
 21
513.4060206957
 31
0.0
  0
LINE
  5
207
330
1F
100
AcDbEntity
  8
0
  6
Continuous
 62
     7
370
    15
100
AcDbLine
 10
207.5412535235
 20
500.4060092516
 30
0.0
 11
207.340236859
 21
500.4060092516
 31
0.0
  0
LINE
  5
208
330
1F
100
AcDbEntity
  8
0
  6
Continuous
 62
     7
370
    15
100
AcDbLine
 10
210.541244702
 20
-28.0939963512
 30
0.0
 11
215.5412548348
 21
-28.0939963512
 31
0.0
  0
LINE
  5
209
330
1F
100
AcDbEntity
  8
0
  6
Continuous
 62
     7
370
    15
100
AcDbLine
 10
210.541244702
 20
-13.093980854
 30
0.0
 11
215.5412548348
 21
-13.093980854
 31
0.0
  0
LINE
  5
20A
330
1F
100
AcDbEntity
  8
0
  6
Continuous
 62
     7
370
    15
100
AcDbLine
 10
215.5412548348
 20
-13.093980854
 30
0.0
 11
215.5412548348
 21
-28.0939963512
 31
0.0
  0
LINE
  5
20B
330
1F
100
AcDbEntity
  8
0
  6
Continuous
 62
     7
370
    15
100
AcDbLine
 10
210.541244702
 20
-13.093980854
 30
0.0
 11
210.541244702
 21
-28.0939963512
 31
0.0
  0
LINE
  5
20C
330
1F
100
AcDbEntity
  8
0
  6
Continuous
 62
     7
370
    15
100
AcDbLine
 10
215.5412548348
 20
26.9185277767
 30
0.0
 11
215.5412548348
 21
-13.093980854
 31
0.0
  0
LINE
  5
20D
330
1F
100
AcDbEntity
  8
0
  6
Continuous
 62
     7
370
    15
100
AcDbLine
 10
210.541244702
 20
27.6350352116
 30
0.0
 11
210.541244702
 21
-13.093980854
 31
0.0
  0
LINE
  5
20E
330
1F
100
AcDbEntity
  8
0
  6
Continuous
 62
     7
370
    15
100
AcDbLine
 10
215.5412548348
 20
46.8935045548
 30
0.0
 11
215.5412548348
 21
496.9185265846
 31
0.0
  0
LINE
  5
20F
330
1F
100
AcDbEntity
  8
0
  6
Continuous
 62
     7
370
    15
100
AcDbLine
 10
210.541244702
 20
46.1769971199
 30
0.0
 11
210.541244702
 21
497.6350340195
 31
0.0
  0
LINE
  5
210
330
1F
100
AcDbEntity
  8
0
  6
Continuous
 62
     7
370
    15
100
AcDbLine
 10
215.5412548348
 20
-13.093980854
 30
0.0
 11
230.5412554308
 21
-13.093980854
 31
0.0
  0
ARC
  5
211
330
1F
100
AcDbEntity
  8
0
  6
Continuous
 62
     7
370
    15
100
AcDbCircle
 10
215.5412516877
 20
-13.0939844303
 30
0.0
 40
15.00000000000001
100
AcDbArc
 50
270.0
 51
0.0
  0
LINE
  5
212
330
1F
100
AcDbEntity
  8
0
  6
Continuous
 62
     7
370
    15
100
AcDbLine
 10
215.5412548348
 20
516.8935033627
 30
0.0
 11
215.5412548348
 21
556.9060119934
 31
0.0
  0
LINE
  5
213
330
1F
100
AcDbEntity
  8
0
  6
Continuous
 62
     7
370
    15
100
AcDbLine
 10
215.5412548348
 20
556.9060119934
 30
0.0
 11
230.5412554308
 21
556.9060119934
 31
0.0
  0
LINE
  5
214
330
1F
100
AcDbEntity
  8
0
  6
Continuous
 62
     7
370
    15
100
AcDbLine
 10
230.5412554308
 20
556.9060119934
 30
0.0
 11
230.5412554308
 21
-13.093980854
 31
0.0
  0
LINE
  5
215
330
1F
100
AcDbEntity
  8
0
  6
Continuous
 62
     7
370
    15
100
AcDbLine
 10
210.541244702
 20
556.9060119934
 30
0.0
 11
215.5412548348
 21
556.9060119934
 31
0.0
  0
LINE
  5
216
330
1F
100
AcDbEntity
  8
0
  6
Continuous
 62
     7
370
    15
100
AcDbLine
 10
210.541244702
 20
571.9060274906
 30
0.0
 11
215.5412548348
 21
571.9060274906
 31
0.0
  0
LINE
  5
217
330
1F
100
AcDbEntity
  8
0
  6
Continuous
 62
     7
370
    15
100
AcDbLine
 10
215.5412548348
 20
556.9060119934
 30
0.0
 11
215.5412548348
 21
571.9060274906
 31
0.0
  0
LINE
  5
218
330
1F
100
AcDbEntity
  8
0
  6
Continuous
 62
     7
370
    15
100
AcDbLine
 10
210.541244702
 20
556.9060119934
 30
0.0
 11
210.541244702
 21
571.9060274906
 31
0.0
  0
LINE
  5
219
330
1F
100
AcDbEntity
  8
0
  6
Continuous
 62
     7
370
    15
100
AcDbLine
 10
210.541244702
 20
516.1769959278
 30
0.0
 11
210.541244702
 21
556.9060119934
 31
0.0
  0
ARC
  5
21A
330
1F
100
AcDbEntity
  8
0
  6
Continuous
 62
     7
370
    15
100
AcDbCircle
 10
215.5412516877
 20
556.9060155697
 30
0.0
 40
15.00000000000011
100
AcDbArc
 50
0.0
 51
90.0
  0
LINE
  5
21B
330
1F
100
AcDbEntity
  8
0
  6
Continuous
 62
     7
370
    15
100
AcDbLine
 10
193.7521808907
 20
32.2060111113
 30
0.0
 11
193.7521808907
 21
40.8060225792
 31
0.0
  0
LINE
  5
21C
330
1F
100
AcDbEntity
  8
0
  6
Continuous
 62
     7
370
    15
100
AcDbLine
 10
193.7521808907
 20
32.2060111113
 30
0.0
 11
188.2378869816
 21
32.2060111113
 31
0.0
  0
LINE
  5
21D
330
1F
100
AcDbEntity
  8
0
  6
Continuous
 62
     7
370
    15
100
AcDbLine
 10
188.2378869816
 20
32.2060111113
 30
0.0
 11
188.2378869816
 21
40.8060225792
 31
0.0
  0
LINE
  5
21E
330
1F
100
AcDbEntity
  8
0
  6
Continuous
 62
     7
370
    15
100
AcDbLine
 10
193.7521808907
 20
40.8060225792
 30
0.0
 11
188.2378869816
 21
40.8060225792
 31
0.0
  0
LINE
  5
21F
330
1F
100
AcDbEntity
  8
0
  6
Continuous
 62
     7
370
    15
100
AcDbLine
 10
187.123622851
 20
44.106018836
 30
0.0
 11
162.3115205332
 21
44.106018836
 31
0.0
  0
LINE
  5
220
330
1F
100
AcDbEntity
  8
0
  6
Continuous
 62
     7
370
    15
100
AcDbLine
 10
187.123622851
 20
40.8060225792
 30
0.0
 11
187.123622851
 21
44.106018836
 31
0.0
  0
LINE
  5
221
330
1F
100
AcDbEntity
  8
0
  6
Continuous
 62
     7
370
    15
100
AcDbLine
 10
187.123622851
 20
29.7060134955
 30
0.0
 11
187.123622851
 21
32.2060111113
 31
0.0
  0
LINE
  5
222
330
1F
100
AcDbEntity
  8
0
  6
Continuous
 62
     7
370
    15
100
AcDbLine
 10
162.3115205332
 20
29.7060134955
 30
0.0
 11
187.123622851
 21
29.7060134955
 31
0.0
  0
LINE
  5
223
330
1F
100
AcDbEntity
  8
0
  6
Continuous
 62
     7
370
    15
100
AcDbLine
 10
162.3115205332
 20
29.7060134955
 30
0.0
 11
162.3115205332
 21
44.106018836
 31
0.0
  0
LINE
  5
224
330
1F
100
AcDbEntity
  8
0
  6
Continuous
 62
     7
370
    15
100
AcDbLine
 10
187.123622851
 20
32.2060111113
 30
0.0
 11
188.2378869816
 21
32.2060111113
 31
0.0
  0
LINE
  5
225
330
1F
100
AcDbEntity
  8
0
  6
Continuous
 62
     7
370
    15
100
AcDbLine
 10
187.123622851
 20
40.8060225792
 30
0.0
 11
188.2378869816
 21
40.8060225792
 31
0.0
  0
LINE
  5
226
330
1F
100
AcDbEntity
  8
0
  6
Continuous
 62
     7
370
    15
100
AcDbLine
 10
187.2512512967
 20
28.9086672611
 30
0.0
 11
189.143490152
 21
28.9086672611
 31
0.0
  0
LINE
  5
227
330
1F
100
AcDbEntity
  8
0
  6
Continuous
 62
     7
370
    15
100
AcDbLine
 10
189.143490152
 20
28.9086672611
 30
0.0
 11
189.8162477776
 21
28.9060148545
 31
0.0
  0
LINE
  5
228
330
1F
100
AcDbEntity
  8
0
  6
Continuous
 62
     7
370
    15
100
AcDbLine
 10
189.8162477776
 20
28.9060148545
 30
0.0
 11
162.450444059
 21
28.9060148545
 31
0.0
  0
ARC
  5
229
330
1F
100
AcDbEntity
  8
0
  6
Continuous
 62
     7
370
    15
100
AcDbCircle
 10
163.5674433302
 20
29.5120487126
 30
0.0
 40
1.270812499494434
100
AcDbArc
 50
171.2205995842
 51
208.4822784261
  0
ARC
  5
22A
330
1F
100
AcDbEntity
  8
0
  6
Continuous
 62
     7
370
    15
100
AcDbCircle
 10
188.5979378396
 20
29.5331143427
 30
0.0
 40
1.484418674970808
100
AcDbArc
 50
173.3112340828
 51
204.8767532576
  0
LINE
  5
22B
330
1F
100
AcDbEntity
  8
0
  6
Continuous
 62
     7
370
    15
100
AcDbLine
 10
189.143490152
 20
44.9033650704
 30
0.0
 11
187.2512512967
 21
44.9033650704
 31
0.0
  0
ARC
  5
22C
330
1F
100
AcDbEntity
  8
0
  6
Continuous
 62
     7
370
    15
100
AcDbCircle
 10
188.5979378396
 20
44.2789179888
 30
0.0
 40
1.484418674970809
100
AcDbArc
 50
155.1232467424
 51
186.6887659172
  0
ARC
  5
22D
330
1F
100
AcDbEntity
  8
0
  6
Continuous
 62
     7
370
    15
100
AcDbCircle
 10
163.5674433302
 20
44.2999836189
 30
0.0
 40
1.270812499494435
100
AcDbArc
 50
151.5177215739
 51
188.7794004158
  0
LINE
  5
22E
330
1F
100
AcDbEntity
  8
0
  6
Continuous
 62
     7
370
    15
100
AcDbLine
 10
162.450444059
 20
44.9060174771
 30
0.0
 11
189.8162477776
 21
44.9060174771
 31
0.0
  0
LINE
  5
22F
330
1F
100
AcDbEntity
  8
0
  6
Continuous
 62
     7
370
    15
100
AcDbLine
 10
189.8162477776
 20
44.9060174771
 30
0.0
 11
189.143490152
 21
44.9033650704
 31
0.0
  0
LINE
  5
230
330
1F
100
AcDbEntity
  8
0
  6
Continuous
 62
     7
370
    15
100
AcDbLine
 10
187.2512512967
 20
28.9086672611
 30
0.0
 11
187.2512512967
 21
29.7060134955
 31
0.0
  0
LINE
  5
231
330
1F
100
AcDbEntity
  8
0
  6
Continuous
 62
     7
370
    15
100
AcDbLine
 10
187.2625463769
 20
32.2060111113
 30
0.0
 11
187.2625463769
 21
29.7060134955
 31
0.0
  0
LINE
  5
232
330
1F
100
AcDbEntity
  8
0
  6
Continuous
 62
     7
370
    15
100
AcDbLine
 10
187.2512512967
 20
44.106018836
 30
0.0
 11
187.2512512967
 21
44.9033650704
 31
0.0
  0
LINE
  5
233
330
1F
100
AcDbEntity
  8
0
  6
Continuous
 62
     7
370
    15
100
AcDbLine
 10
187.2625463769
 20
44.106018836
 30
0.0
 11
187.2625463769
 21
40.8060225792
 31
0.0
  0
LINE
  5
234
330
1F
100
AcDbEntity
  8
0
  6
Continuous
 62
     7
370
    15
100
AcDbLine
 10
193.2512485549
 20
28.9060148545
 30
0.0
 11
189.8162477776
 21
28.9060148545
 31
0.0
  0
LINE
  5
235
330
1F
100
AcDbEntity
  8
0
  6
Continuous
 62
     7
370
    15
100
AcDbLine
 10
189.143490152
 20
28.9086672611
 30
0.0
 11
189.143490152
 21
29.7060134955
 31
0.0
  0
LINE
  5
236
330
1F
100
AcDbEntity
  8
0
  6
Continuous
 62
     7
370
    15
100
AcDbLine
 10
193.2512485549
 20
29.7060134955
 30
0.0
 11
189.143490152
 21
29.7060134955
 31
0.0
  0
LINE
  5
237
330
1F
100
AcDbEntity
  8
0
  6
Continuous
 62
     7
370
    15
100
AcDbLine
 10
189.143490152
 20
44.106018836
 30
0.0
 11
189.143490152
 21
44.9033650704
 31
0.0
  0
LINE
  5
238
330
1F
100
AcDbEntity
  8
0
  6
Continuous
 62
     7
370
    15
100
AcDbLine
 10
193.2512485549
 20
44.9060174771
 30
0.0
 11
189.8162477776
 21
44.9060174771
 31
0.0
  0
LINE
  5
239
330
1F
100
AcDbEntity
  8
0
  6
Continuous
 62
     7
370
    15
100
AcDbLine
 10
193.2512485549
 20
44.106018836
 30
0.0
 11
189.143490152
 21
44.106018836
 31
0.0
  0
LINE
  5
23A
330
1F
100
AcDbEntity
  8
0
  6
Continuous
 62
     7
370
    15
100
AcDbLine
 10
187.2512512967
 20
44.106018836
 30
0.0
 11
189.143490152
 21
44.106018836
 31
0.0
  0
LINE
  5
23B
330
1F
100
AcDbEntity
  8
0
  6
Continuous
 62
     7
370
    15
100
AcDbLine
 10
187.2512512967
 20
29.7060134955
 30
0.0
 11
189.143490152
 21
29.7060134955
 31
0.0
  0
LINE
  5
23C
330
1F
100
AcDbEntity
  8
0
  6
Continuous
 62
     7
370
    15
100
AcDbLine
 10
188.3212589785
 20
45.2060225554
 30
0.0
 11
192.7212589547
 21
45.2060225554
 31
0.0
  0
LINE
  5
23D
330
1F
100
AcDbEntity
  8
0
  6
Continuous
 62
     7
370
    15
100
AcDbLine
 10
188.4212457701
 20
28.1060162134
 30
0.0
 11
192.6212572619
 21
28.1060162134
 31
0.0
  0
LINE
  5
23E
330
1F
100
AcDbEntity
  8
0
  6
Continuous
 62
     7
370
    15
100
AcDbLine
 10
188.4212457701
 20
28.5060229845
 30
0.0
 11
192.6212572619
 21
28.5060229845
 31
0.0
  0
LINE
  5
23F
330
1F
100
AcDbEntity
  8
0
  6
Continuous
 62
     7
370
    15
100
AcDbLine
 10
157.4126743838
 20
44.106018836
 30
0.0
 11
155.4231905505
 21
44.106018836
 31
0.0
  0
LINE
  5
240
330
1F
100
AcDbEntity
  8
0
  6
Continuous
 62
     7
370
    15
100
AcDbLine
 10
157.4126743838
 20
29.7060134955
 30
0.0
 11
157.4126743838
 21
44.106018836
 31
0.0
  0
LINE
  5
241
330
1F
100
AcDbEntity
  8
0
  6
Continuous
 62
     7
370
    15
100
AcDbLine
 10
155.4231905505
 20
29.7060134955
 30
0.0
 11
157.4126743838
 21
29.7060134955
 31
0.0
  0
ARC
  5
242
330
1F
100
AcDbEntity
  8
0
  6
Continuous
 62
     7
370
    15
100
AcDbCircle
 10
170.7171649732
 20
36.9060161658
 30
0.0
 40
16.90401408232907
100
AcDbArc
 50
154.7901718738
 51
205.2098281262
  0
SPLINE
  5
243
330
1F
100
AcDbEntity
  8
0
  6
Continuous
 62
     7
370
    15
100
AcDbSpline
210
0.0
220
0.0
230
1.0
 70
     8
 71
     3
 72
    12
 73
     8
 74
     0
 42
0.00000001
 43
0.00000001
 40
0.0
 40
0.0
 40
0.0
 40
0.0
 40
0.181862208170751
 40
0.3633456880071066
 40
0.5550783177625649
 40
0.7712597734705837
 40
1.0
 40
1.0
 40
1.0
 40
1.0
 10
155.5555724665249
 20
28.90601485445349
 30
0.0
 10
155.5794296724743
 20
28.91333969459803
 30
0.0
 10
155.6270944017043
 20
28.92797412089607
 30
0.0
 10
155.6418385407588
 20
29.03995508896012
 30
0.0
 10
155.6146058624531
 20
29.20933472922832
 30
0.0
 10
155.5429270664023
 20
29.43777716628629
 30
0.0
 10
155.4638467868189
 20
29.61493451667738
 30
0.0
 10
155.4231905504788
 20
29.70601349546759
 30
0.0
  0
LINE
  5
244
330
1F
100
AcDbEntity
  8
0
  6
Continuous
 62
     7
370
    15
100
AcDbLine
 10
155.1712119147
 20
29.6605202503
 30
0.0
 11
155.5256509348
 21
28.9060148545
 31
0.0
  0
ARC
  5
245
330
1F
100
AcDbEntity
  8
0
  6
Continuous
 62
     7
370
    15
100
AcDbCircle
 10
170.4417627697
 20
36.9060161658
 30
0.0
 40
16.90227601465686
100
AcDbArc
 50
154.6168257198
 51
205.3831742802
  0
LINE
  5
246
330
1F
100
AcDbEntity
  8
0
  6
Continuous
 62
     7
370
    15
100
AcDbLine
 10
155.5256509348
 20
44.9060174771
 30
0.0
 11
155.1712119147
 21
44.1515120812
 31
0.0
  0
SPLINE
  5
247
330
1F
100
AcDbEntity
  8
0
  6
Continuous
 62
     7
370
    15
100
AcDbSpline
210
0.0
220
0.0
230
1.0
 70
     8
 71
     3
 72
    12
 73
     8
 74
     0
 42
0.00000001
 43
0.00000001
 40
0.0
 40
0.0
 40
0.0
 40
0.0
 40
0.2510206470293043
 40
0.502394724582161
 40
0.7402776497890325
 40
0.9473067335866278
 40
1.0
 40
1.0
 40
1.0
 40
1.0
 10
155.4231905504788
 20
44.10601883604376
 30
0.0
 10
155.4675085527446
 20
44.20589658908672
 30
0.0
 10
155.5562069558674
 20
44.40579272044359
 30
0.0
 10
155.631196369721
 20
44.66453902227948
 30
0.0
 10
155.6427036265047
 20
44.8417849109535
 30
0.0
 10
155.6010539637909
 20
44.90219889166872
 30
0.0
 10
155.5632435576125
 20
44.90537341918579
 30
0.0
 10
155.5555724665249
 20
44.90601747705786
 30
0.0
  0
LINE
  5
248
330
1F
100
AcDbEntity
  8
0
  6
Continuous
 62
     7
370
    15
100
AcDbLine
 10
155.5555724665
 20
28.9060148545
 30
0.0
 11
155.5256509348
 21
28.9060148545
 31
0.0
  0
LINE
  5
249
330
1F
100
AcDbEntity
  8
0
  6
Continuous
 62
     7
370
    15
100
AcDbLine
 10
155.5555724665
 20
44.9060174771
 30
0.0
 11
155.5256509348
 21
44.9060174771
 31
0.0
  0
LWPOLYLINE
  5
24A
330
1F
100
AcDbEntity
  8
0
  6
Continuous
 62
     7
370
    15
100
AcDbPolyline
 90
        9
 70
   128
 43
0.0
 10
157.4126743838
 20
44.106018836
 10
157.4074142739
 20
44.2620935984
 10
157.3918425604
 20
44.4121631928
 10
157.3665552899
 20
44.550475771
 10
157.3325359389
 20
44.6716967173
 10
157.2910660073
 20
44.7711917706
 10
157.2437548205
 20
44.8451164313
 10
157.1924352213
 20
44.8906394787
 10
157.139059262
 20
44.9060174771
  0
LINE
  5
24B
330
1F
100
AcDbEntity
  8
0
  6
Continuous
 62
     7
370
    15
100
AcDbLine
 10
155.5555724665
 20
44.9060174771
 30
0.0
 11
157.139059262
 21
44.9060174771
 31
0.0
  0
LWPOLYLINE
  5
24C
330
1F
100
AcDbEntity
  8
0
  6
Continuous
 62
     7
370
    15
100
AcDbPolyline
 90
        9
 70
   128
 43
0.0
 10
157.4126743838
 20
29.7060134955
 10
157.4074142739
 20
29.5499387331
 10
157.3918425604
 20
29.3998691387
 10
157.3665552899
 20
29.2615565605
 10
157.3325359389
 20
29.1403356142
 10
157.2910660073
 20
29.0408405609
 10
157.2437548205
 20
28.9669159003
 10
157.1924352213
 20
28.9213928528
 10
157.139059262
 20
28.9060148545
  0
LINE
  5
24D
330
1F
100
AcDbEntity
  8
0
  6
Continuous
 62
     7
370
    15
100
AcDbLine
 10
157.139059262
 20
28.9060148545
 30
0.0
 11
155.5555724665
 21
28.9060148545
 31
0.0
  0
LINE
  5
24E
330
1F
100
AcDbEntity
  8
0
  6
Continuous
 62
     7
370
    15
100
AcDbLine
 10
157.4126743838
 20
29.7060134955
 30
0.0
 11
162.3115205332
 21
29.7060134955
 31
0.0
  0
LINE
  5
24F
330
1F
100
AcDbEntity
  8
0
  6
Continuous
 62
     7
370
    15
100
AcDbLine
 10
162.450444059
 20
28.9060148545
 30
0.0
 11
157.139059262
 21
28.9060148545
 31
0.0
  0
LINE
  5
250
330
1F
100
AcDbEntity
  8
0
  6
Continuous
 62
     7
370
    15
100
AcDbLine
 10
162.3115205332
 20
44.106018836
 30
0.0
 11
157.4126743838
 21
44.106018836
 31
0.0
  0
LINE
  5
251
330
1F
100
AcDbEntity
  8
0
  6
Continuous
 62
     7
370
    15
100
AcDbLine
 10
157.139059262
 20
44.9060174771
 30
0.0
 11
162.450444059
 21
44.9060174771
 31
0.0
  0
SPLINE
  5
252
330
1F
100
AcDbEntity
  8
0
  6
Continuous
 62
     7
370
    15
100
AcDbSpline
210
0.0
220
0.0
230
1.0
 70
     8
 71
     3
 72
    16
 73
    12
 74
     0
 42
0.00000001
 43
0.00000001
 40
0.0
 40
0.0
 40
0.0
 40
0.0
 40
0.1207077089781526
 40
0.2414108344831375
 40
0.362117918562724
 40
0.4828248333209623
 40
0.6035319812480934
 40
0.7242398020762145
 40
0.8449440598118136
 40
0.9656483401997413
 40
1.0
 40
1.0
 40
1.0
 40
1.0
 10
188.6935495897854
 20
23.95364373400061
 30
0.0
 10
188.712950552287
 20
23.95631914202897
 30
0.0
 10
188.7517517406033
 20
23.96166985649592
 30
0.0
 10
188.7566753051434
 20
24.25260317954908
 30
0.0
 10
188.7194605284988
 20
24.70593944596613
 30
0.0
 10
188.6425618724641
 20
25.27347793234133
 30
0.0
 10
188.5387268173094
 20
25.86180038034291
 30
0.0
 10
188.4226408987416
 20
26.38850377119289
 30
0.0
 10
188.3156260279585
 20
26.75176919658318
 30
0.0
 10
188.2430523515482
 20
26.92225670459314
 30
0.0
 10
188.2235023106955
 20
26.88909784572155
 30
0.0
 10
188.2191711231793
 20
26.88175171091406
 30
0.0
  0
SPLINE
  5
253
330
1F
100
AcDbEntity
  8
0
  6
Continuous
 62
     7
370
    15
100
AcDbSpline
210
0.0
220
0.0
230
1.0
 70
     8
 71
     3
 72
    16
 73
    12
 74
     0
 42
0.00000001
 43
0.00000001
 40
0.0
 40
0.0
 40
0.0
 40
0.0
 40
0.1205835500006272
 40
0.2411639420302155
 40
0.3617468677750422
 40
0.4823271212948927
 40
0.6029095790313884
 40
0.7234904642075044
 40
0.84407714114446
 40
0.9646563800287297
 40
1.0
 40
1.0
 40
1.0
 40
1.0
 10
188.8641380831326
 20
49.82967405989019
 30
0.0
 10
188.8835392017745
 20
49.82699983822153
 30
0.0
 10
188.922340930961
 20
49.8216514649196
 30
0.0
 10
188.9272618589091
 20
49.53069753754119
 30
0.0
 10
188.8900568040157
 20
49.07736594569678
 30
0.0
 10
188.8131236679414
 20
48.50984055140528
 30
0.0
 10
188.7093226424144
 20
47.92151258864838
 30
0.0
 10
188.5932279723588
 20
47.39484002820241
 30
0.0
 10
188.4861956097329
 20
47.03137963511497
 30
0.0
 10
188.4134331696996
 20
46.86083782416306
 30
0.0
 10
188.3937940557295
 20
46.89441659327667
 30
0.0
 10
188.389342384013
 20
46.90202801897375
 30
0.0
  0
SPLINE
  5
254
330
1F
100
AcDbEntity
  8
0
  6
Continuous
 62
     7
370
    15
100
AcDbSpline
210
0.0
220
0.0
230
1.0
 70
     8
 71
     3
 72
    16
 73
    12
 74
     0
 42
0.00000001
 43
0.00000001
 40
0.0
 40
0.0
 40
0.0
 40
0.0
 40
0.1205117543681748
 40
0.2410321688604558
 40
0.3615496760897255
 40
0.4820674063171059
 40
0.602584445791948
 40
0.7231000162521881
 40
0.8436166271100433
 40
0.9641371437048453
 40
1.0
 40
1.0
 40
1.0
 40
1.0
 10
204.2345219418133
 20
26.57006412222235
 30
0.0
 10
204.2539230045051
 20
26.5727352999684
 30
0.0
 10
204.292726524073
 20
26.57807784741462
 30
0.0
 10
204.2976459266581
 20
26.8690165366719
 30
0.0
 10
204.2604396550966
 20
27.32236207531952
 30
0.0
 10
204.1835093260745
 20
27.88989021080973
 30
0.0
 10
204.0797047286344
 20
28.47823776406907
 30
0.0
 10
203.9636192582429
 20
29.00484637465445
 30
0.0
 10
203.8565583976187
 20
29.36843472288605
 30
0.0
 10
203.7837144975747
 20
29.53903105691949
 30
0.0
 10
203.7640193460402
 20
29.50521236636197
 30
0.0
 10
203.7595027252758
 20
29.4974568433985
 30
0.0
  0
SPLINE
  5
255
330
1F
100
AcDbEntity
  8
0
  6
Continuous
 62
     7
370
    15
100
AcDbSpline
210
0.0
220
0.0
230
1.0
 70
     8
 71
     3
 72
    16
 73
    12
 74
     0
 42
0.00000001
 43
0.00000001
 40
0.0
 40
0.0
 40
0.0
 40
0.0
 40
0.1205121047917788
 40
0.2410325804529558
 40
0.3615501488496461
 40
0.4820650464697371
 40
0.6025821471117625
 40
0.7231010411094512
 40
0.8436171544413902
 40
0.9641310379758448
 40
1.0
 40
1.0
 40
1.0
 40
1.0
 10
204.4051104351605
 20
47.21325367166845
 30
0.0
 10
204.4245115238373
 20
47.21057625517075
 30
0.0
 10
204.4633150488064
 20
47.2052212361998
 30
0.0
 10
204.4682341176643
 20
46.91428752732155
 30
0.0
 10
204.4310296202214
 20
46.46094380270446
 30
0.0
 10
204.3540948162886
 20
45.89342362487059
 30
0.0
 10
204.250298378993
 20
45.3050746323154
 30
0.0
 10
204.1341835781606
 20
44.7784626119401
 30
0.0
 10
204.027158043694
 20
44.41486863762881
 30
0.0
 10
203.9542975088149
 20
44.24428959703142
 30
0.0
 10
203.9346074544626
 20
44.27810486581707
 30
0.0
 10
203.930091218623
 20
44.28586095049231
 30
0.0
  0
SPLINE
  5
256
330
1F
100
AcDbEntity
  8
0
  6
Continuous
 62
     7
370
    15
100
AcDbSpline
210
0.0
220
0.0
230
1.0
 70
    24
 71
     3
 72
    16
 73
    12
 74
     0
 42
0.00000001
 43
0.00000001
 40
0.0
 40
0.0
 40
0.0
 40
0.0
 40
0.0611102845076972
 40
0.1864723954319963
 40
0.3118322208390296
 40
0.4371944708864321
 40
0.5625589540335474
 40
0.6879198579853077
 40
0.813281951356681
 40
0.9386471442034847
 40
1.0
 40
1.0
 40
1.0
 40
1.0
 10
207.3114329144086
 20
30.03978460504855
 30
0.0
 10
207.3172066722844
 20
30.03978460504852
 30
0.0
 10
207.3348247617833
 20
30.03978460504864
 30
0.0
 10
207.1163933249184
 20
30.03978460504858
 30
0.0
 10
206.7036467629864
 20
30.0397846050485
 30
0.0
 10
206.1471860711003
 20
30.03978460504864
 30
0.0
 10
205.5480816634473
 20
30.03978460504864
 30
0.0
 10
204.9893776789545
 20
30.03978460504852
 30
0.0
 10
204.5724185381949
 20
30.03978460504864
 30
0.0
 10
204.3494268204922
 20
30.03978460504861
 30
0.0
 10
204.3642413794635
 20
30.03978460504861
 30
0.0
 10
204.3691092297161
 20
30.03978460504858
 30
0.0
  0
SPLINE
  5
257
330
1F
100
AcDbEntity
  8
0
  6
Continuous
 62
     7
370
    15
100
AcDbSpline
210
0.0
220
0.0
230
1.0
 70
    24
 71
     3
 72
    16
 73
    12
 74
     0
 42
0.00000001
 43
0.00000001
 40
0.0
 40
0.0
 40
0.0
 40
0.0
 40
0.0610129142997457
 40
0.1861752792253431
 40
0.3113353622753087
 40
0.4364978661023373
 40
0.5616625994709642
 40
0.6868237593471552
 40
0.8119861067477948
 40
0.9371515486853087
 40
1.0
 40
1.0
 40
1.0
 40
1.0
 10
207.3114329144085
 20
43.59841077997534
 30
0.0
 10
207.3172066660835
 20
43.59841077997528
 30
0.0
 10
207.3348247366607
 20
43.59841077997531
 30
0.0
 10
207.1163935578126
 20
43.59841077997542
 30
0.0
 10
206.7036459097046
 20
43.59841077997525
 30
0.0
 10
206.1471892514301
 20
43.59841077997537
 30
0.0
 10
205.5480697953505
 20
43.59841077997537
 30
0.0
 10
204.9894219697311
 20
43.59841077997537
 30
0.0
 10
204.5722532392253
 20
43.59841077997534
 30
0.0
 10
204.348773603466
 20
43.5984107799754
 30
0.0
 10
204.3639922167615
 20
43.59841077997534
 30
0.0
 10
204.3690794273937
 20
43.59841077997534
 30
0.0
  0
SPLINE
  5
258
330
1F
100
AcDbEntity
  8
0
  6
Continuous
 62
     7
370
    15
100
AcDbSpline
210
0.0
220
0.0
230
1.0
 70
     8
 71
     3
 72
    19
 73
    15
 74
     0
 42
0.00000001
 43
0.00000001
 40
0.0
 40
0.0
 40
0.0
 40
0.0
 40
0.003953715205903
 40
0.1157568464404963
 40
0.2280470985832616
 40
0.3355165832363207
 40
0.4377087770690565
 40
0.5348752405946415
 40
0.6282976297217461
 40
0.7302970810952432
 40
0.8413355002600912
 40
0.9641308253357947
 40
0.9937687989224226
 40
1.0
 40
1.0
 40
1.0
 40
1.0
 10
193.6395281120861
 20
42.50602155401556
 30
0.0
 10
193.6399203701585
 20
42.50601451637728
 30
0.0
 10
193.6514048992887
 20
42.50580846845251
 30
0.0
 10
193.6747351018825
 20
42.49072847147745
 30
0.0
 10
193.7181898263807
 20
42.42382001568443
 30
0.0
 10
193.7561793240803
 20
42.31911269122129
 30
0.0
 10
193.7796757499963
 20
42.19404482117914
 30
0.0
 10
193.7910216293707
 20
42.06561487273186
 30
0.0
 10
193.7915966392491
 20
41.94443442613888
 30
0.0
 10
193.7758373060541
 20
41.83520627989021
 30
0.0
 10
193.7354346204396
 20
41.7457843282271
 30
0.0
 10
193.6836263851799
 20
41.7107426004765
 30
0.0
 10
193.6488640912291
 20
41.7061257242784
 30
0.0
 10
193.6409099136086
 20
41.70603812991411
 30
0.0
 10
193.6395281120861
 20
41.70602291300146
 30
0.0
  0
SPLINE
  5
259
330
1F
100
AcDbEntity
  8
0
  6
Continuous
 62
     7
370
    15
100
AcDbSpline
210
0.0
220
0.0
230
1.0
 70
     8
 71
     3
 72
    30
 73
    26
 74
     0
 42
0.00000001
 43
0.00000001
 40
0.0
 40
0.0
 40
0.0
 40
0.0
 40
0.1246998075928956
 40
0.2494036567885047
 40
0.3741257293653614
 40
0.4367781813851029
 40
0.4681485396509784
 40
0.4838360761992427
 40
0.491688261408273
 40
0.4956075513865121
 40
0.4975654867159801
 40
0.4985475625665967
 40
0.4990357051958802
 40
0.4992811519789171
 40
0.4994142641864529
 40
0.4994783795159183
 40
0.4995021913514931
 40
0.4995140972692805
 40
0.4995407197107877
 40
0.5609182155884728
 40
0.6646273605363806
 40
0.7325806551423476
 40
0.8111539911766412
 40
0.9003089100780034
 40
1.0
 40
1.0
 40
1.0
 40
1.0
 10
193.7112324997509
 20
42.56590932085363
 30
0.0
 10
193.7169969372443
 20
42.56411794848452
 30
0.0
 10
193.7285259990602
 20
42.56053514568678
 30
0.0
 10
193.8183774695034
 20
42.53867713007922
 30
0.0
 10
193.9258413016825
 20
42.51301900121629
 30
0.0
 10
194.0113933907204
 20
42.49259535918098
 30
0.0
 10
194.0554957592735
 20
42.48207879701999
 30
0.0
 10
194.0777179958877
 20
42.47672358367547
 30
0.0
 10
194.088860994338
 20
42.4741017635549
 30
0.0
 10
194.0944197915912
 20
42.47272451845735
 30
0.0
 10
194.0972143573951
 20
42.47210409054949
 30
0.0
 10
194.0985920310405
 20
42.47171902482722
 30
0.0
 10
194.0992979121804
 20
42.47159361771882
 30
0.0
 10
194.099641380417
 20
42.47147500711785
 30
0.0
 10
194.0998306426389
 20
42.4714729200566
 30
0.0
 10
194.0999119635645
 20
42.47141840237003
 30
0.0
 10
194.0999540269337
 20
42.47142067625467
 30
0.0
 10
194.0999804835376
 20
42.47142252928037
 30
0.0
 10
194.1219549963966
 20
42.45598548899427
 30
0.0
 10
194.1946712523729
 20
42.4583376538166
 30
0.0
 10
194.2827062199003
 20
42.42977405282097
 30
0.0
 10
194.3668570586035
 20
42.41439715266776
 30
0.0
 10
194.4302278977856
 20
42.40103060874276
 30
0.0
 10
194.4808024842525
 20
42.39155305287156
 30
0.0
 10
194.4880198231385
 20
42.39106396388232
 30
0.0
 10
194.4918298288906
 20
42.39080577566473
 30
0.0
  0
ELLIPSE
  5
25A
330
1F
100
AcDbEntity
  8
0
  6
Continuous
 62
     7
370
    15
100
AcDbEllipse
 10
194.3683600814
 20
43.6879907485
 30
0.0
 11
0.3906095144045594
 21
-0.08616383961160068
 31
0.0
210
0.0
220
0.0
230
1.0
 40
0.0142285888
 41
0.0
 42
6.283185307179586
  0
LINE
  5
25B
330
1F
100
AcDbEntity
  8
0
  6
Continuous
 62
     7
370
    15
100
AcDbLine
 10
193.7521808907
 20
502.2060099192
 30
0.0
 11
193.7521808907
 21
510.8060213871
 31
0.0
  0
LINE
  5
25C
330
1F
100
AcDbEntity
  8
0
  6
Continuous
 62
     7
370
    15
100
AcDbLine
 10
188.2378869816
 20
502.2060099192
 30
0.0
 11
188.2378869816
 21
510.8060213871
 31
0.0
  0
LINE
  5
25D
330
1F
100
AcDbEntity
  8
0
  6
Continuous
 62
     7
370
    15
100
AcDbLine
 10
193.7521808907
 20
510.8060213871
 30
0.0
 11
188.2378869816
 21
510.8060213871
 31
0.0
  0
LINE
  5
25E
330
1F
100
AcDbEntity
  8
0
  6
Continuous
 62
     7
370
    15
100
AcDbLine
 10
193.7521808907
 20
502.2060099192
 30
0.0
 11
188.2378869816
 21
502.2060099192
 31
0.0
  0
LINE
  5
25F
330
1F
100
AcDbEntity
  8
0
  6
Continuous
 62
     7
370
    15
100
AcDbLine
 10
187.123622851
 20
514.106017644
 30
0.0
 11
162.3115205332
 21
514.106017644
 31
0.0
  0
LINE
  5
260
330
1F
100
AcDbEntity
  8
0
  6
Continuous
 62
     7
370
    15
100
AcDbLine
 10
187.123622851
 20
510.8060213871
 30
0.0
 11
187.123622851
 21
514.106017644
 31
0.0
  0
LINE
  5
261
330
1F
100
AcDbEntity
  8
0
  6
Continuous
 62
     7
370
    15
100
AcDbLine
 10
187.123622851
 20
499.7060123034
 30
0.0
 11
187.123622851
 21
502.2060099192
 31
0.0
  0
LINE
  5
262
330
1F
100
AcDbEntity
  8
0
  6
Continuous
 62
     7
370
    15
100
AcDbLine
 10
162.3115205332
 20
499.7060123034
 30
0.0
 11
187.123622851
 21
499.7060123034
 31
0.0
  0
LINE
  5
263
330
1F
100
AcDbEntity
  8
0
  6
Continuous
 62
     7
370
    15
100
AcDbLine
 10
162.3115205332
 20
499.7060123034
 30
0.0
 11
162.3115205332
 21
514.106017644
 31
0.0
  0
LINE
  5
264
330
1F
100
AcDbEntity
  8
0
  6
Continuous
 62
     7
370
    15
100
AcDbLine
 10
187.123622851
 20
510.8060213871
 30
0.0
 11
188.2378869816
 21
510.8060213871
 31
0.0
  0
LINE
  5
265
330
1F
100
AcDbEntity
  8
0
  6
Continuous
 62
     7
370
    15
100
AcDbLine
 10
187.123622851
 20
502.2060099192
 30
0.0
 11
188.2378869816
 21
502.2060099192
 31
0.0
  0
LINE
  5
266
330
1F
100
AcDbEntity
  8
0
  6
Continuous
 62
     7
370
    15
100
AcDbLine
 10
187.2512512967
 20
498.9086660691
 30
0.0
 11
189.143490152
 21
498.9086660691
 31
0.0
  0
LINE
  5
267
330
1F
100
AcDbEntity
  8
0
  6
Continuous
 62
     7
370
    15
100
AcDbLine
 10
189.143490152
 20
498.9086660691
 30
0.0
 11
189.8162477776
 21
498.9060136624
 31
0.0
  0
LINE
  5
268
330
1F
100
AcDbEntity
  8
0
  6
Continuous
 62
     7
370
    15
100
AcDbLine
 10
189.8162477776
 20
498.9060136624
 30
0.0
 11
162.450444059
 21
498.9060136624
 31
0.0
  0
ARC
  5
269
330
1F
100
AcDbEntity
  8
0
  6
Continuous
 62
     7
370
    15
100
AcDbCircle
 10
163.5674433302
 20
499.5120475205
 30
0.0
 40
1.270812499494445
100
AcDbArc
 50
171.2205995842
 51
208.4822784261
  0
ARC
  5
26A
330
1F
100
AcDbEntity
  8
0
  6
Continuous
 62
     7
370
    15
100
AcDbCircle
 10
188.5979378396
 20
499.5331131506
 30
0.0
 40
1.484418674970812
100
AcDbArc
 50
173.3112340828
 51
204.8767532576
  0
LINE
  5
26B
330
1F
100
AcDbEntity
  8
0
  6
Continuous
 62
     7
370
    15
100
AcDbLine
 10
189.143490152
 20
514.9033638783
 30
0.0
 11
187.2512512967
 21
514.9033638783
 31
0.0
  0
ARC
  5
26C
330
1F
100
AcDbEntity
  8
0
  6
Continuous
 62
     7
370
    15
100
AcDbCircle
 10
188.5979378396
 20
514.2789167968
 30
0.0
 40
1.484418674970812
100
AcDbArc
 50
155.1232467424
 51
186.6887659172
  0
ARC
  5
26D
330
1F
100
AcDbEntity
  8
0
  6
Continuous
 62
     7
370
    15
100
AcDbCircle
 10
163.5674433302
 20
514.2999824269
 30
0.0
 40
1.270812499494456
100
AcDbArc
 50
151.5177215739
 51
188.7794004158
  0
LINE
  5
26E
330
1F
100
AcDbEntity
  8
0
  6
Continuous
 62
     7
370
    15
100
AcDbLine
 10
162.450444059
 20
514.906016285
 30
0.0
 11
189.8162477776
 21
514.906016285
 31
0.0
  0
LINE
  5
26F
330
1F
100
AcDbEntity
  8
0
  6
Continuous
 62
     7
370
    15
100
AcDbLine
 10
189.8162477776
 20
514.906016285
 30
0.0
 11
189.143490152
 21
514.9033638783
 31
0.0
  0
LINE
  5
270
330
1F
100
AcDbEntity
  8
0
  6
Continuous
 62
     7
370
    15
100
AcDbLine
 10
187.2512512967
 20
514.106017644
 30
0.0
 11
187.2512512967
 21
514.9033638783
 31
0.0
  0
LINE
  5
271
330
1F
100
AcDbEntity
  8
0
  6
Continuous
 62
     7
370
    15
100
AcDbLine
 10
187.2625463769
 20
514.106017644
 30
0.0
 11
187.2625463769
 21
510.8060213871
 31
0.0
  0
LINE
  5
272
330
1F
100
AcDbEntity
  8
0
  6
Continuous
 62
     7
370
    15
100
AcDbLine
 10
187.2512512967
 20
498.9086660691
 30
0.0
 11
187.2512512967
 21
499.7060123034
 31
0.0
  0
LINE
  5
273
330
1F
100
AcDbEntity
  8
0
  6
Continuous
 62
     7
370
    15
100
AcDbLine
 10
187.2625463769
 20
502.2060099192
 30
0.0
 11
187.2625463769
 21
499.7060123034
 31
0.0
  0
LINE
  5
274
330
1F
100
AcDbEntity
  8
0
  6
Continuous
 62
     7
370
    15
100
AcDbLine
 10
189.143490152
 20
514.106017644
 30
0.0
 11
189.143490152
 21
514.9033638783
 31
0.0
  0
LINE
  5
275
330
1F
100
AcDbEntity
  8
0
  6
Continuous
 62
     7
370
    15
100
AcDbLine
 10
193.2512485549
 20
514.906016285
 30
0.0
 11
189.8162477776
 21
514.906016285
 31
0.0
  0
LINE
  5
276
330
1F
100
AcDbEntity
  8
0
  6
Continuous
 62
     7
370
    15
100
AcDbLine
 10
193.2512485549
 20
514.106017644
 30
0.0
 11
189.143490152
 21
514.106017644
 31
0.0
  0
LINE
  5
277
330
1F
100
AcDbEntity
  8
0
  6
Continuous
 62
     7
370
    15
100
AcDbLine
 10
193.2512485549
 20
498.9060136624
 30
0.0
 11
189.8162477776
 21
498.9060136624
 31
0.0
  0
LINE
  5
278
330
1F
100
AcDbEntity
  8
0
  6
Continuous
 62
     7
370
    15
100
AcDbLine
 10
189.143490152
 20
498.9086660691
 30
0.0
 11
189.143490152
 21
499.7060123034
 31
0.0
  0
LINE
  5
279
330
1F
100
AcDbEntity
  8
0
  6
Continuous
 62
     7
370
    15
100
AcDbLine
 10
193.2512485549
 20
499.7060123034
 30
0.0
 11
189.143490152
 21
499.7060123034
 31
0.0
  0
LINE
  5
27A
330
1F
100
AcDbEntity
  8
0
  6
Continuous
 62
     7
370
    15
100
AcDbLine
 10
187.2512512967
 20
499.7060123034
 30
0.0
 11
189.143490152
 21
499.7060123034
 31
0.0
  0
LINE
  5
27B
330
1F
100
AcDbEntity
  8
0
  6
Continuous
 62
     7
370
    15
100
AcDbLine
 10
187.2512512967
 20
514.106017644
 30
0.0
 11
189.143490152
 21
514.106017644
 31
0.0
  0
LINE
  5
27C
330
1F
100
AcDbEntity
  8
0
  6
Continuous
 62
     7
370
    15
100
AcDbLine
 10
188.3212589785
 20
515.2060213633
 30
0.0
 11
192.7212589547
 21
515.2060213633
 31
0.0
  0
LINE
  5
27D
330
1F
100
AcDbEntity
  8
0
  6
Continuous
 62
     7
370
    15
100
AcDbLine
 10
188.4212457701
 20
498.5060217924
 30
0.0
 11
192.6212572619
 21
498.5060217924
 31
0.0
  0
LINE
  5
27E
330
1F
100
AcDbEntity
  8
0
  6
Continuous
 62
     7
370
    15
100
AcDbLine
 10
188.4212457701
 20
498.1060150213
 30
0.0
 11
192.6212572619
 21
498.1060150213
 31
0.0
  0
LINE
  5
27F
330
1F
100
AcDbEntity
  8
0
  6
Continuous
 62
     7
370
    15
100
AcDbLine
 10
157.4126743838
 20
514.106017644
 30
0.0
 11
155.4231905505
 21
514.106017644
 31
0.0
  0
LINE
  5
280
330
1F
100
AcDbEntity
  8
0
  6
Continuous
 62
     7
370
    15
100
AcDbLine
 10
157.4126743838
 20
499.7060123034
 30
0.0
 11
157.4126743838
 21
514.106017644
 31
0.0
  0
LINE
  5
281
330
1F
100
AcDbEntity
  8
0
  6
Continuous
 62
     7
370
    15
100
AcDbLine
 10
155.4231905505
 20
499.7060123034
 30
0.0
 11
157.4126743838
 21
499.7060123034
 31
0.0
  0
ARC
  5
282
330
1F
100
AcDbEntity
  8
0
  6
Continuous
 62
     7
370
    15
100
AcDbCircle
 10
170.7171649732
 20
506.9060149737
 30
0.0
 40
16.9040140823295
100
AcDbArc
 50
154.7901718738
 51
205.2098281262
  0
SPLINE
  5
283
330
1F
100
AcDbEntity
  8
0
  6
Continuous
 62
     7
370
    15
100
AcDbSpline
210
0.0
220
0.0
230
1.0
 70
     8
 71
     3
 72
    12
 73
     8
 74
     0
 42
0.00000001
 43
0.00000001
 40
0.0
 40
0.0
 40
0.0
 40
0.0
 40
0.1818625204890634
 40
0.3633463119933281
 40
0.5550863729062995
 40
0.7712593806470155
 40
1.0
 40
1.0
 40
1.0
 40
1.0
 10
155.5555724665249
 20
498.9060136623606
 30
0.0
 10
155.5794297323149
 20
498.9133387620973
 30
0.0
 10
155.6270945811015
 20
498.927973707039
 30
0.0
 10
155.6418379967023
 20
499.0399521511034
 30
0.0
 10
155.6146083941801
 20
499.2093487974047
 30
0.0
 10
155.5429245266716
 20
499.4377762279606
 30
0.0
 10
155.4638464567043
 20
499.6149322183805
 30
0.0
 10
155.4231905504788
 20
499.7060123033747
 30
0.0
  0
LINE
  5
284
330
1F
100
AcDbEntity
  8
0
  6
Continuous
 62
     7
370
    15
100
AcDbLine
 10
155.1712119147
 20
499.6605190582
 30
0.0
 11
155.5256509348
 21
498.9060136624
 31
0.0
  0
ARC
  5
285
330
1F
100
AcDbEntity
  8
0
  6
Continuous
 62
     7
370
    15
100
AcDbCircle
 10
170.4417627697
 20
506.9060149737
 30
0.0
 40
16.90227601465729
100
AcDbArc
 50
154.6168257198
 51
205.3831742802
  0
LINE
  5
286
330
1F
100
AcDbEntity
  8
0
  6
Continuous
 62
     7
370
    15
100
AcDbLine
 10
155.5256509348
 20
514.906016285
 30
0.0
 11
155.1712119147
 21
514.1515108891
 31
0.0
  0
SPLINE
  5
287
330
1F
100
AcDbEntity
  8
0
  6
Continuous
 62
     7
370
    15
100
AcDbSpline
210
0.0
220
0.0
230
1.0
 70
     8
 71
     3
 72
    12
 73
     8
 74
     0
 42
0.00000001
 43
0.00000001
 40
0.0
 40
0.0
 40
0.0
 40
0.0
 40
0.2510200584691638
 40
0.5023935466332026
 40
0.7402759140835328
 40
0.9473073476181907
 40
0.9999999999999999
 40
0.9999999999999999
 40
0.9999999999999999
 40
0.9999999999999999
 10
155.4231905504788
 20
514.106017643951
 30
0.0
 10
155.4675085386675
 20
514.2058950153316
 30
0.0
 10
155.5562069136165
 20
514.4057903828271
 30
0.0
 10
155.6311965352158
 20
514.6645423171597
 30
0.0
 10
155.642703121629
 20
514.8417694817734
 30
0.0
 10
155.6010547151737
 20
514.9022313227873
 30
0.0
 10
155.5632435674098
 20
514.9053779078491
 30
0.0
 10
155.5555724665249
 20
514.9060162849651
 30
0.0
  0
LINE
  5
288
330
1F
100
AcDbEntity
  8
0
  6
Continuous
 62
     7
370
    15
100
AcDbLine
 10
155.5555724665
 20
498.9060136624
 30
0.0
 11
155.5256509348
 21
498.9060136624
 31
0.0
  0
LINE
  5
289
330
1F
100
AcDbEntity
  8
0
  6
Continuous
 62
     7
370
    15
100
AcDbLine
 10
155.5555724665
 20
514.906016285
 30
0.0
 11
155.5256509348
 21
514.906016285
 31
0.0
  0
LWPOLYLINE
  5
28A
330
1F
100
AcDbEntity
  8
0
  6
Continuous
 62
     7
370
    15
100
AcDbPolyline
 90
        9
 70
   128
 43
0.0
 10
157.4126743838
 20
514.106017644
 10
157.4074142739
 20
514.2620924063
 10
157.3918425604
 20
514.4121620007
 10
157.3665552899
 20
514.5504745789
 10
157.3325359389
 20
514.6716955252
 10
157.2910660073
 20
514.7711905785
 10
157.2437548205
 20
514.8451152392
 10
157.1924352213
 20
514.8906382866
 10
157.139059262
 20
514.906016285
  0
LINE
  5
28B
330
1F
100
AcDbEntity
  8
0
  6
Continuous
 62
     7
370
    15
100
AcDbLine
 10
155.5555724665
 20
514.906016285
 30
0.0
 11
157.139059262
 21
514.906016285
 31
0.0
  0
LWPOLYLINE
  5
28C
330
1F
100
AcDbEntity
  8
0
  6
Continuous
 62
     7
370
    15
100
AcDbPolyline
 90
        9
 70
   128
 43
0.0
 10
157.4126743838
 20
499.7060123034
 10
157.4074142739
 20
499.549937541
 10
157.3918425604
 20
499.3998679466
 10
157.3665552899
 20
499.2615553684
 10
157.3325359389
 20
499.1403344221
 10
157.2910660073
 20
499.0408393688
 10
157.2437548205
 20
498.9669147082
 10
157.1924352213
 20
498.9213916607
 10
157.139059262
 20
498.9060136624
  0
LINE
  5
28D
330
1F
100
AcDbEntity
  8
0
  6
Continuous
 62
     7
370
    15
100
AcDbLine
 10
157.139059262
 20
498.9060136624
 30
0.0
 11
155.5555724665
 21
498.9060136624
 31
0.0
  0
LINE
  5
28E
330
1F
100
AcDbEntity
  8
0
  6
Continuous
 62
     7
370
    15
100
AcDbLine
 10
162.3115205332
 20
514.106017644
 30
0.0
 11
157.4126743838
 21
514.106017644
 31
0.0
  0
LINE
  5
28F
330
1F
100
AcDbEntity
  8
0
  6
Continuous
 62
     7
370
    15
100
AcDbLine
 10
157.139059262
 20
514.906016285
 30
0.0
 11
162.450444059
 21
514.906016285
 31
0.0
  0
LINE
  5
290
330
1F
100
AcDbEntity
  8
0
  6
Continuous
 62
     7
370
    15
100
AcDbLine
 10
157.4126743838
 20
499.7060123034
 30
0.0
 11
162.3115205332
 21
499.7060123034
 31
0.0
  0
LINE
  5
291
330
1F
100
AcDbEntity
  8
0
  6
Continuous
 62
     7
370
    15
100
AcDbLine
 10
162.450444059
 20
498.9060136624
 30
0.0
 11
157.139059262
 21
498.9060136624
 31
0.0
  0
SPLINE
  5
292
330
1F
100
AcDbEntity
  8
0
  6
Continuous
 62
     7
370
    15
100
AcDbSpline
210
0.0
220
0.0
230
1.0
 70
     8
 71
     3
 72
    16
 73
    12
 74
     0
 42
0.00000001
 43
0.00000001
 40
0.0
 40
0.0
 40
0.0
 40
0.0
 40
0.1207078871531619
 40
0.2414126130790105
 40
0.3621198753326838
 40
0.482824069925725
 40
0.6035313960270372
 40
0.7242393950303329
 40
0.8449438309358469
 40
0.9656482894937229
 40
1.0
 40
1.0
 40
1.0
 40
1.0
 10
188.6935495897854
 20
493.9536425419077
 30
0.0
 10
188.7129505584016
 20
493.9563167310142
 30
0.0
 10
188.7517519875407
 20
493.9616650391924
 30
0.0
 10
188.756675165815
 20
494.2526194549922
 30
0.0
 10
188.7194615999726
 20
494.7059486992288
 30
0.0
 10
188.6425604533239
 20
495.2734810622064
 30
0.0
 10
188.5387269749124
 20
495.8617992919209
 30
0.0
 10
188.4226408564112
 20
496.3885025512553
 30
0.0
 10
188.3156260396818
 20
496.7517680122017
 30
0.0
 10
188.2430523508689
 20
496.9222555120535
 30
0.0
 10
188.2235023105723
 20
496.8890966535477
 30
0.0
 10
188.2191711231793
 20
496.8817505188211
 30
0.0
  0
SPLINE
  5
293
330
1F
100
AcDbEntity
  8
0
  6
Continuous
 62
     7
370
    15
100
AcDbSpline
210
0.0
220
0.0
230
1.0
 70
     8
 71
     3
 72
    16
 73
    12
 74
     0
 42
0.00000001
 43
0.00000001
 40
0.0
 40
0.0
 40
0.0
 40
0.0
 40
0.1205835500006272
 40
0.2411639420302155
 40
0.3617468677750422
 40
0.4823271212948927
 40
0.6029095790313884
 40
0.7234904642075044
 40
0.84407714114446
 40
0.9646563800287297
 40
1.0
 40
1.0
 40
1.0
 40
1.0
 10
188.8641380831326
 20
519.8296728677974
 30
0.0
 10
188.8835392017745
 20
519.8269986461286
 30
0.0
 10
188.922340930961
 20
519.8216502728266
 30
0.0
 10
188.9272618589091
 20
519.5306963454484
 30
0.0
 10
188.8900568040157
 20
519.0773647536039
 30
0.0
 10
188.8131236679414
 20
518.5098393593125
 30
0.0
 10
188.7093226424144
 20
517.9215113965554
 30
0.0
 10
188.5932279723588
 20
517.3948388361096
 30
0.0
 10
188.4861956097329
 20
517.0313784430222
 30
0.0
 10
188.4134331696996
 20
516.8608366320702
 30
0.0
 10
188.3937940557295
 20
516.8944154011839
 30
0.0
 10
188.389342384013
 20
516.902026826881
 30
0.0
  0
SPLINE
  5
294
330
1F
100
AcDbEntity
  8
0
  6
Continuous
 62
     7
370
    15
100
AcDbSpline
210
0.0
220
0.0
230
1.0
 70
     8
 71
     3
 72
    16
 73
    12
 74
     0
 42
0.00000001
 43
0.00000001
 40
0.0
 40
0.0
 40
0.0
 40
0.0
 40
0.1205116643668327
 40
0.241031988851304
 40
0.3615494060749353
 40
0.4820670462965106
 40
0.6025839957660637
 40
0.7231021485805779
 40
0.8436167439012519
 40
0.9641371704881679
 40
1.0
 40
1.0
 40
1.0
 40
1.0
 10
204.2345219418133
 20
496.5700629301294
 30
0.0
 10
204.2539230027564
 20
496.5727341039239
 30
0.0
 10
204.292726518827
 20
496.5780766434667
 30
0.0
 10
204.2976459476437
 20
496.8690153920025
 30
0.0
 10
204.2604395764026
 20
497.3223607053934
 30
0.0
 10
204.1835096198651
 20
497.8898896826281
 30
0.0
 10
204.0797028649078
 20
498.4782384428777
 30
0.0
 10
203.9636222070988
 20
499.0048591818623
 30
0.0
 10
203.8565569698677
 20
499.3684312757217
 30
0.0
 10
203.7837145537396
 20
499.5390300746445
 30
0.0
 10
203.7640193565176
 20
499.5052112134098
 30
0.0
 10
203.7595027252758
 20
499.4974556513056
 30
0.0
  0
SPLINE
  5
295
330
1F
100
AcDbEntity
  8
0
  6
Continuous
 62
     7
370
    15
100
AcDbSpline
210
0.0
220
0.0
230
1.0
 70
     8
 71
     3
 72
    16
 73
    12
 74
     0
 42
0.00000001
 43
0.00000001
 40
0.0
 40
0.0
 40
0.0
 40
0.0
 40
0.1205121047917788
 40
0.2410325804529558
 40
0.3615501488496461
 40
0.4820650464697371
 40
0.6025821471117625
 40
0.7231010411094512
 40
0.8436171544413902
 40
0.9641310379758448
 40
1.0
 40
1.0
 40
1.0
 40
1.0
 10
204.4051104351605
 20
517.2132524795757
 30
0.0
 10
204.4245115238373
 20
517.2105750630778
 30
0.0
 10
204.4633150488064
 20
517.2052200441068
 30
0.0
 10
204.4682341176643
 20
516.9142863352287
 30
0.0
 10
204.4310296202214
 20
516.4609426106115
 30
0.0
 10
204.3540948162886
 20
515.8934224327777
 30
0.0
 10
204.250298378993
 20
515.3050734402225
 30
0.0
 10
204.1341835781606
 20
514.7784614198472
 30
0.0
 10
204.027158043694
 20
514.4148674455358
 30
0.0
 10
203.9542975088149
 20
514.2442884049386
 30
0.0
 10
203.9346074544626
 20
514.2781036737242
 30
0.0
 10
203.930091218623
 20
514.2858597583995
 30
0.0
  0
SPLINE
  5
296
330
1F
100
AcDbEntity
  8
0
  6
Continuous
 62
     7
370
    15
100
AcDbSpline
210
0.0
220
0.0
230
1.0
 70
    24
 71
     3
 72
    16
 73
    12
 74
     0
 42
0.00000001
 43
0.00000001
 40
0.0
 40
0.0
 40
0.0
 40
0.0
 40
0.0611102845076972
 40
0.1864723954319963
 40
0.3118322208390296
 40
0.4371944708864321
 40
0.5625589540335474
 40
0.6879198579853077
 40
0.813281951356681
 40
0.9386471442034847
 40
1.0
 40
1.0
 40
1.0
 40
1.0
 10
207.3114329144086
 20
500.0397834129557
 30
0.0
 10
207.3172066722844
 20
500.0397834129557
 30
0.0
 10
207.3348247617833
 20
500.0397834129556
 30
0.0
 10
207.1163933249184
 20
500.0397834129556
 30
0.0
 10
206.7036467629864
 20
500.0397834129557
 30
0.0
 10
206.1471860711003
 20
500.0397834129556
 30
0.0
 10
205.5480816634473
 20
500.0397834129556
 30
0.0
 10
204.9893776789545
 20
500.0397834129557
 30
0.0
 10
204.5724185381949
 20
500.0397834129556
 30
0.0
 10
204.3494268204922
 20
500.0397834129556
 30
0.0
 10
204.3642413794635
 20
500.0397834129556
 30
0.0
 10
204.3691092297161
 20
500.0397834129557
 30
0.0
  0
SPLINE
  5
297
330
1F
100
AcDbEntity
  8
0
  6
Continuous
 62
     7
370
    15
100
AcDbSpline
210
0.0
220
0.0
230
1.0
 70
    24
 71
     3
 72
    16
 73
    12
 74
     0
 42
0.00000001
 43
0.00000001
 40
0.0
 40
0.0
 40
0.0
 40
0.0
 40
0.0610129142997457
 40
0.1861752792253431
 40
0.3113353622753087
 40
0.4364978661023373
 40
0.5616625994709642
 40
0.6868237593471552
 40
0.8119861067477948
 40
0.9371515486853087
 40
1.0
 40
1.0
 40
1.0
 40
1.0
 10
207.3114329144085
 20
513.5984095878825
 30
0.0
 10
207.3172066660835
 20
513.5984095878825
 30
0.0
 10
207.3348247366607
 20
513.5984095878825
 30
0.0
 10
207.1163935578126
 20
513.5984095878823
 30
0.0
 10
206.7036459097046
 20
513.5984095878825
 30
0.0
 10
206.1471892514301
 20
513.5984095878824
 30
0.0
 10
205.5480697953505
 20
513.5984095878825
 30
0.0
 10
204.9894219697311
 20
513.5984095878824
 30
0.0
 10
204.5722532392253
 20
513.5984095878825
 30
0.0
 10
204.348773603466
 20
513.5984095878823
 30
0.0
 10
204.3639922167615
 20
513.5984095878825
 30
0.0
 10
204.3690794273937
 20
513.5984095878825
 30
0.0
  0
SPLINE
  5
298
330
1F
100
AcDbEntity
  8
0
  6
Continuous
 62
     7
370
    15
100
AcDbSpline
210
0.0
220
0.0
230
1.0
 70
     8
 71
     3
 72
    19
 73
    15
 74
     0
 42
0.00000001
 43
0.00000001
 40
0.0
 40
0.0
 40
0.0
 40
0.0
 40
0.003953715205903
 40
0.1157568464404963
 40
0.2280470985832616
 40
0.3355165832363207
 40
0.4377087770690565
 40
0.5348752405946415
 40
0.6282976297217461
 40
0.7302970810952432
 40
0.8413355002600912
 40
0.9641308253357947
 40
0.9937687989224226
 40
1.0
 40
1.0
 40
1.0
 40
1.0
 10
193.6395281120861
 20
512.5060203619228
 30
0.0
 10
193.6399203701585
 20
512.5060133242844
 30
0.0
 10
193.6514048992887
 20
512.5058072763585
 30
0.0
 10
193.6747351018825
 20
512.490727279385
 30
0.0
 10
193.7181898263807
 20
512.4238188235914
 30
0.0
 10
193.7561793240803
 20
512.3191114991286
 30
0.0
 10
193.7796757499963
 20
512.1940436290862
 30
0.0
 10
193.7910216293707
 20
512.065613680639
 30
0.0
 10
193.7915966392491
 20
511.9444332340461
 30
0.0
 10
193.7758373060541
 20
511.8352050877971
 30
0.0
 10
193.7354346204396
 20
511.7457831361346
 30
0.0
 10
193.6836263851799
 20
511.7107414083833
 30
0.0
 10
193.6488640912291
 20
511.7061245321856
 30
0.0
 10
193.6409099136086
 20
511.7060369378212
 30
0.0
 10
193.6395281120861
 20
511.7060217209086
 30
0.0
  0
SPLINE
  5
299
330
1F
100
AcDbEntity
  8
0
  6
Continuous
 62
     7
370
    15
100
AcDbSpline
210
0.0
220
0.0
230
1.0
 70
     8
 71
     3
 72
    30
 73
    26
 74
     0
 42
0.00000001
 43
0.00000001
 40
0.0
 40
0.0
 40
0.0
 40
0.0
 40
0.1246998075928956
 40
0.2494036567885047
 40
0.3741257293653614
 40
0.4367781813851029
 40
0.4681485396509784
 40
0.4838360761992427
 40
0.491688261408273
 40
0.4956075513865121
 40
0.4975654867159801
 40
0.4985475625665967
 40
0.4990357051958802
 40
0.4992811519789171
 40
0.4994142641864529
 40
0.4994783795159183
 40
0.4995021913514931
 40
0.4995140972692805
 40
0.4995407197107877
 40
0.5609182155884728
 40
0.6646273605363806
 40
0.7325806551423476
 40
0.8111539911766412
 40
0.9003089100780034
 40
1.0
 40
1.0
 40
1.0
 40
1.0
 10
193.7112324997509
 20
512.5659081287608
 30
0.0
 10
193.7169969372443
 20
512.5641167563916
 30
0.0
 10
193.7285259990602
 20
512.5605339535937
 30
0.0
 10
193.8183774695034
 20
512.5386759379868
 30
0.0
 10
193.9258413016825
 20
512.5130178091232
 30
0.0
 10
194.0113933907204
 20
512.4925941670882
 30
0.0
 10
194.0554957592735
 20
512.482077604927
 30
0.0
 10
194.0777179958877
 20
512.4767223915826
 30
0.0
 10
194.088860994338
 20
512.4741005714619
 30
0.0
 10
194.0944197915912
 20
512.4727233263645
 30
0.0
 10
194.0972143573951
 20
512.4721028984567
 30
0.0
 10
194.0985920310405
 20
512.4717178327343
 30
0.0
 10
194.0992979121804
 20
512.471592425626
 30
0.0
 10
194.099641380417
 20
512.4714738150249
 30
0.0
 10
194.0998306426389
 20
512.471471727964
 30
0.0
 10
194.0999119635645
 20
512.471417210277
 30
0.0
 10
194.0999540269337
 20
512.471419484162
 30
0.0
 10
194.0999804835376
 20
512.4714213371875
 30
0.0
 10
194.1219549963966
 20
512.4559842970855
 30
0.0
 10
194.1946712523729
 20
512.4583364615747
 30
0.0
 10
194.2827062199003
 20
512.4297728607582
 30
0.0
 10
194.3668570586035
 20
512.4143959605672
 30
0.0
 10
194.4302278977856
 20
512.4010294166525
 30
0.0
 10
194.4808024842525
 20
512.391551860778
 30
0.0
 10
194.4880198231385
 20
512.3910627717892
 30
0.0
 10
194.4918298288906
 20
512.3908045835719
 30
0.0
  0
ELLIPSE
  5
29A
330
1F
100
AcDbEntity
  8
0
  6
Continuous
 62
     7
370
    15
100
AcDbEllipse
 10
194.3683600814
 20
513.6879907485
 30
0.0
 11
0.3906095144045594
 21
-0.08616383961157226
 31
0.0
210
0.0
220
0.0
230
1.0
 40
0.0142285888
 41
0.0
 42
6.283185307179586
  0
LINE
  5
29B
330
1F
100
AcDbEntity
  8
0
  6
Continuous
 62
     7
370
    15
100
AcDbLine
 10
193.541254954
 20
31.1560156889
 30
0.0
 11
193.541254954
 21
30.1560136624
 31
0.0
  0
LINE
  5
29C
330
1F
100
AcDbEntity
  8
0
  6
Continuous
 62
     7
370
    15
100
AcDbLine
 10
193.541254954
 20
30.1560136624
 30
0.0
 11
187.3412543103
 21
30.1560136624
 31
0.0
  0
LINE
  5
29D
330
1F
100
AcDbEntity
  8
0
  6
Continuous
 62
     7
370
    15
100
AcDbLine
 10
187.3412543103
 20
31.1560156889
 30
0.0
 11
187.3412543103
 21
30.1560136624
 31
0.0
  0
LINE
  5
29E
330
1F
100
AcDbEntity
  8
0
  6
Continuous
 62
     7
370
    15
100
AcDbLine
 10
193.541254954
 20
31.1560156889
 30
0.0
 11
187.3412543103
 21
31.1560156889
 31
0.0
  0
LINE
  5
29F
330
1F
100
AcDbEntity
  8
0
  6
Continuous
 62
     7
370
    15
100
AcDbLine
 10
193.541254954
 20
513.6560174771
 30
0.0
 11
187.3412543103
 21
513.6560174771
 31
0.0
  0
LINE
  5
2A0
330
1F
100
AcDbEntity
  8
0
  6
Continuous
 62
     7
370
    15
100
AcDbLine
 10
193.541254954
 20
513.6560174771
 30
0.0
 11
193.541254954
 21
512.6560154505
 31
0.0
  0
LINE
  5
2A1
330
1F
100
AcDbEntity
  8
0
  6
Continuous
 62
     7
370
    15
100
AcDbLine
 10
193.541254954
 20
512.6560154505
 30
0.0
 11
187.3412543103
 21
512.6560154505
 31
0.0
  0
LINE
  5
2A2
330
1F
100
AcDbEntity
  8
0
  6
Continuous
 62
     7
370
    15
100
AcDbLine
 10
187.3412543103
 20
513.6560174771
 30
0.0
 11
187.3412543103
 21
512.6560154505
 31
0.0
  0
LINE
  5
2A3
330
1F
100
AcDbEntity
  8
0
  6
Continuous
 62
     7
370
    15
100
AcDbLine
 10
193.541254954
 20
501.1560144968
 30
0.0
 11
193.541254954
 21
500.1560124703
 31
0.0
  0
LINE
  5
2A4
330
1F
100
AcDbEntity
  8
0
  6
Continuous
 62
     7
370
    15
100
AcDbLine
 10
193.541254954
 20
500.1560124703
 30
0.0
 11
187.3412543103
 21
500.1560124703
 31
0.0
  0
LINE
  5
2A5
330
1F
100
AcDbEntity
  8
0
  6
Continuous
 62
     7
370
    15
100
AcDbLine
 10
187.3412543103
 20
501.1560144968
 30
0.0
 11
187.3412543103
 21
500.1560124703
 31
0.0
  0
LINE
  5
2A6
330
1F
100
AcDbEntity
  8
0
  6
Continuous
 62
     7
370
    15
100
AcDbLine
 10
193.541254954
 20
501.1560144968
 30
0.0
 11
187.3412543103
 21
501.1560144968
 31
0.0
  0
LINE
  5
2A7
330
1F
100
AcDbEntity
  8
0
  6
Continuous
 62
     7
370
    15
100
AcDbLine
 10
193.541254954
 20
43.6560186692
 30
0.0
 11
193.541254954
 21
42.6560166426
 31
0.0
  0
LINE
  5
2A8
330
1F
100
AcDbEntity
  8
0
  6
Continuous
 62
     7
370
    15
100
AcDbLine
 10
193.541254954
 20
42.6560166426
 30
0.0
 11
187.3412543103
 21
42.6560166426
 31
0.0
  0
LINE
  5
2A9
330
1F
100
AcDbEntity
  8
0
  6
Continuous
 62
     7
370
    15
100
AcDbLine
 10
187.3412543103
 20
43.6560186692
 30
0.0
 11
187.3412543103
 21
42.6560166426
 31
0.0
  0
LINE
  5
2AA
330
1F
100
AcDbEntity
  8
0
  6
Continuous
 62
     7
370
    15
100
AcDbLine
 10
193.541254954
 20
43.6560186692
 30
0.0
 11
187.3412543103
 21
43.6560186692
 31
0.0
  0
LWPOLYLINE
  5
2AB
330
1F
100
AcDbEntity
  8
0
  6
Continuous
 62
     7
370
    15
100
AcDbPolyline
 90
        3
 70
   128
 43
0.0
 10
187.2625463769
 20
500.5448731728
 10
187.2651242777
 20
500.538704092
 10
187.3412543103
 20
500.1560124703
  0
LWPOLYLINE
  5
2AC
330
1F
100
AcDbEntity
  8
0
  6
Continuous
 62
     7
370
    15
100
AcDbPolyline
 90
        3
 70
   128
 43
0.0
 10
187.3412543103
 20
513.6560174771
 10
187.2651242777
 20
513.2733258553
 10
187.2625463769
 20
513.2671567745
  0
LINE
  5
2AD
330
1F
100
AcDbEntity
  8
0
  6
Continuous
 62
     7
370
    15
100
AcDbLine
 10
193.541254954
 20
512.6560154505
 30
0.0
 11
193.541254954
 21
512.5060203619
 31
0.0
  0
LINE
  5
2AE
330
1F
100
AcDbEntity
  8
0
  6
Continuous
 62
     7
370
    15
100
AcDbLine
 10
193.541254954
 20
511.7060217209
 30
0.0
 11
193.541254954
 21
510.8060213871
 31
0.0
  0
LINE
  5
2AF
330
1F
100
AcDbEntity
  8
0
  6
Continuous
 62
     7
370
    15
100
AcDbLine
 10
193.541254954
 20
502.2060099192
 30
0.0
 11
193.541254954
 21
501.1560144968
 31
0.0
  0
LWPOLYLINE
  5
2B0
330
1F
100
AcDbEntity
  8
0
  6
Continuous
 62
     7
370
    15
100
AcDbPolyline
 90
        3
 70
   128
 43
0.0
 10
187.2625463769
 20
30.5448743649
 10
187.2651242777
 20
30.5387052841
 10
187.3412543103
 20
30.1560136624
  0
LWPOLYLINE
  5
2B1
330
1F
100
AcDbEntity
  8
0
  6
Continuous
 62
     7
370
    15
100
AcDbPolyline
 90
        3
 70
   128
 43
0.0
 10
187.3412543103
 20
43.6560186692
 10
187.2651242777
 20
43.2733270474
 10
187.2625463769
 20
43.2671579666
  0
LINE
  5
2B2
330
1F
100
AcDbEntity
  8
0
  6
Continuous
 62
     7
370
    15
100
AcDbLine
 10
193.541254954
 20
42.6560166426
 30
0.0
 11
193.541254954
 21
42.506021554
 31
0.0
  0
LINE
  5
2B3
330
1F
100
AcDbEntity
  8
0
  6
Continuous
 62
     7
370
    15
100
AcDbLine
 10
193.541254954
 20
41.706022913
 30
0.0
 11
193.541254954
 21
40.8060225792
 31
0.0
  0
LINE
  5
2B4
330
1F
100
AcDbEntity
  8
0
  6
Continuous
 62
     7
370
    15
100
AcDbLine
 10
193.541254954
 20
32.2060111113
 30
0.0
 11
193.541254954
 21
31.1560156889
 31
0.0
  0
LINE
  5
2B5
330
1F
100
AcDbEntity
  8
0
  6
Continuous
 62
     7
370
    15
100
AcDbLine
 10
-4.4587486297
 20
-13.093980854
 30
0.0
 11
-19.4587482944
 21
-13.093980854
 31
0.0
  0
LINE
  5
2B6
330
1F
100
AcDbEntity
  8
0
  6
Continuous
 62
     7
370
    15
100
AcDbLine
 10
-4.4587486297
 20
-13.093980854
 30
0.0
 11
-4.4587486297
 21
-28.0939963512
 31
0.0
  0
ARC
  5
2B7
330
1F
100
AcDbEntity
  8
0
  6
Continuous
 62
     7
370
    15
100
AcDbCircle
 10
-4.4587483123
 20
-13.0939844303
 30
0.0
 40
15.00000000000001
100
AcDbArc
 50
180.0
 51
270.0
  0
LINE
  5
2B8
330
1F
100
AcDbEntity
  8
0
  6
Continuous
 62
     7
370
    15
100
AcDbLine
 10
-4.4587486297
 20
556.9060119934
 30
0.0
 11
-4.4587486297
 21
-13.093980854
 31
0.0
  0
LINE
  5
2B9
330
1F
100
AcDbEntity
  8
0
  6
Continuous
 62
     7
370
    15
100
AcDbLine
 10
-19.4587482944
 20
556.9060119934
 30
0.0
 11
-19.4587482944
 21
-13.093980854
 31
0.0
  0
LINE
  5
2BA
330
1F
100
AcDbEntity
  8
0
  6
Continuous
 62
     7
370
    15
100
AcDbLine
 10
-19.4587482944
 20
556.9060119934
 30
0.0
 11
-4.4587486297
 21
556.9060119934
 31
0.0
  0
ARC
  5
2BB
330
1F
100
AcDbEntity
  8
0
  6
Continuous
 62
     7
370
    15
100
AcDbCircle
 10
-4.4587483123
 20
556.9060155697
 30
0.0
 40
15.0
100
AcDbArc
 50
90.0
 51
180.0
  0
LINE
  5
2BC
330
1F
100
AcDbEntity
  8
0
  6
Continuous
 62
     7
370
    15
100
AcDbLine
 10
-4.4587486297
 20
571.9060274906
 30
0.0
 11
-4.4587486297
 21
556.9060119934
 31
0.0
  0
LINE
  5
2BD
330
1F
100
AcDbEntity
  8
0
  6
Continuous
 62
     7
370
    15
100
AcDbLine
 10
206.5412514969
 20
556.9060119934
 30
0.0
 11
206.5412514969
 21
515.881938035
 31
0.0
  0
LINE
  5
2BE
330
1F
100
AcDbEntity
  8
0
  6
Continuous
 62
     7
370
    15
100
AcDbLine
 10
206.5412514969
 20
497.8981140204
 30
0.0
 11
206.5412514969
 21
45.8819392271
 31
0.0
  0
LINE
  5
2BF
330
1F
100
AcDbEntity
  8
0
  6
Continuous
 62
     7
370
    15
100
AcDbLine
 10
206.5412514969
 20
27.8981152125
 30
0.0
 11
206.5412514969
 21
-13.093980854
 31
0.0
  0
LINE
  5
2C0
330
1F
100
AcDbEntity
  8
0
  6
Continuous
 62
     7
370
    15
100
AcDbLine
 10
206.5412514969
 20
-13.093980854
 30
0.0
 11
-4.4587486297
 21
-13.093980854
 31
0.0
  0
LINE
  5
2C1
330
1F
100
AcDbEntity
  8
0
  6
Continuous
 62
     7
370
    15
100
AcDbLine
 10
206.5412514969
 20
556.9060119934
 30
0.0
 11
-4.4587486297
 21
556.9060119934
 31
0.0
  0
LINE
  5
2C2
330
1F
100
AcDbEntity
  8
0
  6
Continuous
 62
     7
370
    15
100
AcDbLine
 10
186.5412556693
 20
44.9060174771
 30
0.0
 11
186.5412556693
 21
46.3654223032
 31
0.0
  0
LINE
  5
2C3
330
1F
100
AcDbEntity
  8
0
  6
Continuous
 62
     7
370
    15
100
AcDbLine
 10
186.5412556693
 20
49.7081401892
 30
0.0
 11
186.5412556693
 21
494.0934750386
 31
0.0
  0
LINE
  5
2C4
330
1F
100
AcDbEntity
  8
0
  6
Continuous
 62
     7
370
    15
100
AcDbLine
 10
186.5412556693
 20
497.4332573958
 30
0.0
 11
186.5412556693
 21
498.9060136624
 31
0.0
  0
LINE
  5
2C5
330
1F
100
AcDbEntity
  8
0
  6
Continuous
 62
     7
370
    15
100
AcDbLine
 10
186.5412556693
 20
514.906016285
 30
0.0
 11
186.5412556693
 21
516.3654211111
 31
0.0
  0
LINE
  5
2C6
330
1F
100
AcDbEntity
  8
0
  6
Continuous
 62
     7
370
    15
100
AcDbLine
 10
186.5412556693
 20
519.7081389971
 30
0.0
 11
186.5412556693
 21
551.9060167618
 31
0.0
  0
LINE
  5
2C7
330
1F
100
AcDbEntity
  8
0
  6
Continuous
 62
     7
370
    15
100
AcDbLine
 10
0.5412512585
 20
551.9060167618
 30
0.0
 11
0.5412512585
 21
-8.0939856224
 31
0.0
  0
LINE
  5
2C8
330
1F
100
AcDbEntity
  8
0
  6
Continuous
 62
     7
370
    15
100
AcDbLine
 10
186.5412556693
 20
-8.0939856224
 30
0.0
 11
0.5412512585
 21
-8.0939856224
 31
0.0
  0
LINE
  5
2C9
330
1F
100
AcDbEntity
  8
0
  6
Continuous
 62
     7
370
    15
100
AcDbLine
 10
186.5412556693
 20
-8.0939856224
 30
0.0
 11
186.5412556693
 21
24.0934762306
 31
0.0
  0
LINE
  5
2CA
330
1F
100
AcDbEntity
  8
0
  6
Continuous
 62
     7
370
    15
100
AcDbLine
 10
186.5412556693
 20
27.4332585879
 30
0.0
 11
186.5412556693
 21
28.9060148545
 31
0.0
  0
LINE
  5
2CB
330
1F
100
AcDbEntity
  8
0
  6
Continuous
 62
     7
370
    15
100
AcDbLine
 10
186.5412556693
 20
551.9060167618
 30
0.0
 11
0.5412512585
 21
551.9060167618
 31
0.0
  0
LINE
  5
2CC
330
1F
100
AcDbEntity
  8
0
  6
Continuous
 62
     7
370
    15
100
AcDbLine
 10
206.5412514969
 20
-13.093980854
 30
0.0
 11
206.5412514969
 21
-28.0939963512
 31
0.0
  0
LINE
  5
2CD
330
1F
100
AcDbEntity
  8
0
  6
Continuous
 62
     7
370
    15
100
AcDbLine
 10
206.5412514969
 20
-28.0939963512
 30
0.0
 11
-4.4587486297
 21
-28.0939963512
 31
0.0
  0
LINE
  5
2CE
330
1F
100
AcDbEntity
  8
0
  6
Continuous
 62
     7
370
    15
100
AcDbLine
 10
206.5412514969
 20
571.9060274906
 30
0.0
 11
-4.4587486297
 21
571.9060274906
 31
0.0
  0
LINE
  5
2CF
330
1F
100
AcDbEntity
  8
0
  6
Continuous
 62
     7
370
    15
100
AcDbLine
 10
206.5412514969
 20
571.9060274906
 30
0.0
 11
206.5412514969
 21
556.9060119934
 31
0.0
  0
LINE
  5
2D0
330
1F
100
AcDbEntity
  8
0
  6
Continuous
 62
     7
370
    15
100
AcDbLine
 10
210.541244702
 20
-8.0939856224
 30
0.0
 11
206.5412514969
 21
-8.0939856224
 31
0.0
  0
LINE
  5
2D1
330
1F
100
AcDbEntity
  8
0
  6
Continuous
 62
     7
370
    15
100
AcDbLine
 10
210.541244702
 20
-23.0939713173
 30
0.0
 11
206.5412514969
 21
-23.0939713173
 31
0.0
  0
LINE
  5
2D2
330
1F
100
AcDbEntity
  8
0
  6
Continuous
 62
     7
370
    15
100
AcDbLine
 10
210.541244702
 20
566.9060024567
 30
0.0
 11
206.5412514969
 21
566.9060024567
 31
0.0
  0
LINE
  5
2D3
330
1F
100
AcDbEntity
  8
0
  6
Continuous
 62
     7
370
    15
100
AcDbLine
 10
210.541244702
 20
551.9060167618
 30
0.0
 11
206.5412514969
 21
551.9060167618
 31
0.0
  0
LINE
  5
2D4
330
1F
100
AcDbEntity
  8
0
  6
Continuous
 62
     7
370
    15
100
AcDbLine
 10
258.0680786897
 20
605.6137433355
 30
0.0
 11
259.2680692007
 21
605.6137433355
 31
0.0
  0
LINE
  5
2D5
330
1F
100
AcDbEntity
  8
0
  6
Continuous
 62
     7
370
    15
100
AcDbLine
 10
257.9680918981
 20
608.1137409513
 30
0.0
 11
258.0680786897
 21
608.1137409513
 31
0.0
  0
LINE
  5
2D6
330
1F
100
AcDbEntity
  8
0
  6
Continuous
 62
     7
370
    15
100
AcDbLine
 10
258.0680786897
 20
614.1137531107
 30
0.0
 11
257.9680918981
 21
614.1137531107
 31
0.0
  0
LINE
  5
2D7
330
1F
100
AcDbEntity
  8
0
  6
Continuous
 62
     7
370
    15
100
AcDbLine
 10
253.8198470403
 20
671.1137494152
 30
0.0
 11
253.0680834581
 21
670.8401342934
 31
0.0
  0
SPLINE
  5
2D8
330
1F
100
AcDbEntity
  8
0
  6
Continuous
 62
     7
370
    15
100
AcDbSpline
210
0.0
220
0.0
230
1.0
 70
     8
 71
     3
 72
    15
 73
    11
 74
     0
 42
0.00000001
 43
0.00000001
 40
0.0
 40
0.0
 40
0.0
 40
0.0
 40
0.1250763880408006
 40
0.2501511909551939
 40
0.3752922053852685
 40
0.5003044548175923
 40
0.6252875014821089
 40
0.7502635101719308
 40
0.8750792368359497
 40
0.9999999999999999
 40
0.9999999999999999
 40
0.9999999999999999
 40
0.9999999999999999
 10
256.8825125028334
 20
636.1715694969123
 30
0.0
 10
256.8563956398398
 20
636.430336289563
 30
0.0
 10
256.8041622448386
 20
636.9478665954439
 30
0.0
 10
256.7252636646692
 20
637.7289798173349
 30
0.0
 10
256.6508373328418
 20
638.46615696231
 30
0.0
 10
256.5838558073388
 20
639.1297431823737
 30
0.0
 10
256.5277064550205
 20
639.685499556675
 30
0.0
 10
256.4852323787739
 20
640.1066027044099
 30
0.0
 10
256.4563598494896
 20
640.3921976832424
 30
0.0
 10
256.452035348597
 20
640.435240478123
 30
0.0
 10
256.4498721887313
 20
640.456770927233
 30
0.0
  0
SPLINE
  5
2D9
330
1F
100
AcDbEntity
  8
0
  6
Continuous
 62
     7
370
    15
100
AcDbSpline
210
0.0
220
0.0
230
1.0
 70
     8
 71
     3
 72
    15
 73
    11
 74
     0
 42
0.00000001
 43
0.00000001
 40
0.0
 40
0.0
 40
0.0
 40
0.0
 40
0.1249398734156141
 40
0.2497676901414757
 40
0.3747516976425535
 40
0.499737921761322
 40
0.6247476871247258
 40
0.7498802057052864
 40
0.874943380761323
 40
1.0
 40
1.0
 40
1.0
 40
1.0
 10
253.4656166364394
 20
640.1553800409263
 30
0.0
 10
253.467793180185
 20
640.1338057583371
 30
0.0
 10
253.4721443155669
 20
640.0906765428076
 30
0.0
 10
253.5009929084647
 20
639.8049544459001
 30
0.0
 10
253.5435216019475
 20
639.383786093293
 30
0.0
 10
253.5996532744456
 20
638.8279899633068
 30
0.0
 10
253.6666483348681
 20
638.1644744423298
 30
0.0
 10
253.74103692727
 20
637.4274245316782
 30
0.0
 10
253.8198963408256
 20
636.6465144644475
 30
0.0
 10
253.8721372037263
 20
636.1291613247453
 30
0.0
 10
253.8982569505416
 20
635.8704915349906
 30
0.0
  0
LINE
  5
2DA
330
1F
100
AcDbEntity
  8
0
  6
Continuous
 62
     7
370
    15
100
AcDbLine
 10
253.8979589273
 20
635.8703574245
 30
0.0
 11
255.467051201
 21
620.3293850725
 31
0.0
  0
LINE
  5
2DB
330
1F
100
AcDbEntity
  8
0
  6
Continuous
 62
     7
370
    15
100
AcDbLine
 10
258.4518729974
 20
620.6307461565
 30
0.0
 11
256.8828105261
 21
636.1717036074
 31
0.0
  0
SPLINE
  5
2DC
330
1F
100
AcDbEntity
  8
0
  6
Continuous
 62
     7
370
    15
100
AcDbSpline
210
0.0
220
0.0
230
1.0
 70
     8
 71
     3
 72
     9
 73
     5
 74
     0
 42
0.00000001
 43
0.00000001
 40
0.0
 40
0.0
 40
0.0
 40
0.0
 40
0.4837366228449641
 40
1.0
 40
1.0
 40
1.0
 40
1.0
 10
255.6371330548964
 20
618.6480125492042
 30
0.0
 10
255.6465874941163
 20
618.5837816156784
 30
0.0
 10
255.6661320949868
 20
618.4510008203189
 30
0.0
 10
255.6999772827805
 20
618.41484753975
 30
0.0
 10
255.7174503137313
 20
618.3961829250281
 30
0.0
  0
SPLINE
  5
2DD
330
1F
100
AcDbEntity
  8
0
  6
Continuous
 62
     7
370
    15
100
AcDbSpline
210
0.0
220
0.0
230
1.0
 70
     8
 71
     3
 72
    11
 73
     7
 74
     0
 42
0.00000001
 43
0.00000001
 40
0.0
 40
0.0
 40
0.0
 40
0.0
 40
0.2484421589557797
 40
0.4978869182898011
 40
0.7483883454251155
 40
1.0
 40
1.0
 40
1.0
 40
1.0
 10
255.4673194219313
 20
620.3295340841239
 30
0.0
 10
255.485333565682
 20
620.1510622698904
 30
0.0
 10
255.5214345501339
 20
619.7933984097632
 30
0.0
 10
255.5684372374835
 20
619.3285683392958
 30
0.0
 10
255.6072303118992
 20
618.9456898616577
 30
0.0
 10
255.6222866641552
 20
618.7983883308119
 30
0.0
 10
255.6298314859114
 20
618.7245747154182
 30
0.0
  0
SPLINE
  5
2DE
330
1F
100
AcDbEntity
  8
0
  6
Continuous
 62
     7
370
    15
100
AcDbSpline
210
0.0
220
0.0
230
1.0
 70
     8
 71
     3
 72
    19
 73
    15
 74
     0
 42
0.00000001
 43
0.00000001
 40
0.0
 40
0.0
 40
0.0
 40
0.0
 40
0.0802803590103682
 40
0.1534390927477407
 40
0.2193400370614751
 40
0.2779457368891965
 40
0.3728403954091362
 40
0.4421527949908685
 40
0.5315336737000689
 40
0.6554835312672248
 40
0.7303562541000159
 40
0.8130777050597906
 40
0.9031426307478029
 40
1.0
 40
1.0
 40
1.0
 40
1.0
 10
255.65277927415
 20
618.5653558080619
 30
0.0
 10
255.6881386621781
 20
618.4424810999196
 30
0.0
 10
255.7557207269079
 20
618.207631829545
 30
0.0
 10
255.9529584747459
 20
617.913231382495
 30
0.0
 10
256.1777957578046
 20
617.6891001555318
 30
0.0
 10
256.4734583660938
 20
617.4960577374932
 30
0.0
 10
256.8154076359073
 20
617.3781601111259
 30
0.0
 10
257.2251610022134
 20
617.3483549418138
 30
0.0
 10
257.66424903208
 20
617.450674811693
 30
0.0
 10
258.0507946190963
 20
617.7018881674081
 30
0.0
 10
258.3436347847169
 20
618.0426092261713
 30
0.0
 10
258.5244172275097
 20
618.3980714165917
 30
0.0
 10
258.6302784354433
 20
618.8250208382661
 30
0.0
 10
258.5980395053468
 20
619.1200876353467
 30
0.0
 10
258.5813342858992
 20
619.2729821508353
 30
0.0
  0
SPLINE
  5
2DF
330
1F
100
AcDbEntity
  8
0
  6
Continuous
 62
     7
370
    15
100
AcDbSpline
210
0.0
220
0.0
230
1.0
 70
     8
 71
     3
 72
    11
 73
     7
 74
     0
 42
0.00000001
 43
0.00000001
 40
0.0
 40
0.0
 40
0.0
 40
0.0
 40
0.2477415414335603
 40
0.4969499530456637
 40
0.7476749454496505
 40
1.0
 40
1.0
 40
1.0
 40
1.0
 10
258.6050867368422
 20
619.105299383921
 30
0.0
 10
258.5986592028648
 20
619.1699257219858
 30
0.0
 10
258.5857660776754
 20
619.2995610487095
 30
0.0
 10
258.5497726556089
 20
619.657427462333
 30
0.0
 10
258.5048207513706
 20
620.1037545044344
 30
0.0
 10
258.4693810094713
 20
620.4546208627746
 30
0.0
 10
258.4516047765456
 20
620.6306120460456
 30
0.0
  0
LINE
  5
2E0
330
1F
100
AcDbEntity
  8
0
  6
Continuous
 62
     7
370
    15
100
AcDbLine
 10
258.7353824903
 20
630.2854171102
 30
0.0
 11
258.7353824903
 21
630.5852284735
 31
0.0
  0
LINE
  5
2E1
330
1F
100
AcDbEntity
  8
0
  6
Continuous
 62
     7
370
    15
100
AcDbLine
 10
257.9353689481
 20
630.5852284735
 30
0.0
 11
257.9353689481
 21
630.2878609007
 31
0.0
  0
SPLINE
  5
2E2
330
1F
100
AcDbEntity
  8
0
  6
Continuous
 62
     7
370
    15
100
AcDbSpline
210
0.0
220
0.0
230
1.0
 70
    24
 71
     3
 72
    11
 73
     7
 74
     0
 42
0.00000001
 43
0.00000001
 40
0.0
 40
0.0
 40
0.0
 40
0.0
 40
0.0207850328835332
 40
0.3465561843128634
 40
0.6711381646362238
 40
0.9999999999999999
 40
0.9999999999999999
 40
0.9999999999999999
 40
0.9999999999999999
 10
257.9353689481459
 20
630.871554285807
 30
0.0
 10
257.9353689481459
 20
630.8682325817663
 30
0.0
 10
257.9353689481457
 20
630.8128486387021
 30
0.0
 10
257.9353689481461
 20
630.7196104735265
 30
0.0
 10
257.9353689481458
 20
630.60689833824
 30
0.0
 10
257.9353689481459
 20
630.572370839166
 30
0.0
 10
257.9353689481459
 20
630.5549940174049
 30
0.0
  0
SPLINE
  5
2E3
330
1F
100
AcDbEntity
  8
0
  6
Continuous
 62
     7
370
    15
100
AcDbSpline
210
0.0
220
0.0
230
1.0
 70
    24
 71
     3
 72
    11
 73
     7
 74
     0
 42
0.00000001
 43
0.00000001
 40
0.0
 40
0.0
 40
0.0
 40
0.0
 40
0.2504877331241812
 40
0.4977261212757707
 40
0.7458640449708547
 40
0.9999999999999999
 40
0.9999999999999999
 40
0.9999999999999999
 40
0.9999999999999999
 10
258.7353824903212
 20
630.5525502269691
 30
0.0
 10
258.7353824903213
 20
630.5687673586804
 30
0.0
 10
258.7353824903213
 20
630.6009912522984
 30
0.0
 10
258.7353824903211
 20
630.7097667886992
 30
0.0
 10
258.7353824903213
 20
630.8485972196316
 30
0.0
 10
258.7353824903213
 20
630.9556246793563
 30
0.0
 10
258.7353824903212
 20
631.0097774570411
 30
0.0
  0
LINE
  5
2E4
330
1F
100
AcDbEntity
  8
0
  6
Continuous
 62
     7
370
    15
100
AcDbLine
 10
257.7286302377
 20
631.1137428587
 30
0.0
 11
257.93757432
 21
630.8665176933
 31
0.0
  0
LINE
  5
2E5
330
1F
100
AcDbEntity
  8
0
  6
Continuous
 62
     7
370
    15
100
AcDbLine
 10
258.7353824903
 20
631.009777457
 30
0.0
 11
258.7353824903
 21
631.1137428587
 31
0.0
  0
LINE
  5
2E6
330
1F
100
AcDbEntity
  8
0
  6
Continuous
 62
     7
370
    15
100
AcDbLine
 10
253.4590005209
 20
640.2517607515
 30
0.0
 11
253.4433841039
 21
640.7109996384
 31
0.0
  0
SPLINE
  5
2E7
330
1F
100
AcDbEntity
  8
0
  6
Continuous
 62
     7
370
    15
100
AcDbSpline
210
0.0
220
0.0
230
1.0
 70
     8
 71
     3
 72
    11
 73
     7
 74
     0
 42
0.00000001
 43
0.00000001
 40
0.0
 40
0.0
 40
0.0
 40
0.0
 40
0.1207578523566905
 40
0.4133920650957122
 40
0.7063559730788216
 40
1.0
 40
1.0
 40
1.0
 40
1.0
 10
255.4916679193221
 20
620.0883289878791
 30
0.0
 10
255.5015915800977
 20
619.9900282251255
 30
0.0
 10
255.5355633884833
 20
619.6535138327097
 30
0.0
 10
255.5828994166417
 20
619.1846100109283
 30
0.0
 10
255.6257876503072
 20
618.7598657602684
 30
0.0
 10
255.6333483313909
 20
618.685325760359
 30
0.0
 10
255.6371330548964
 20
618.6480125492042
 30
0.0
  0
LINE
  5
2E8
330
1F
100
AcDbEntity
  8
0
  6
Continuous
 62
     7
370
    15
100
AcDbLine
 10
259.2680692007
 20
670.1137473886
 30
0.0
 11
258.9680790235
 21
670.1137473886
 31
0.0
  0
LINE
  5
2E9
330
1F
100
AcDbEntity
  8
0
  6
Continuous
 62
     7
370
    15
100
AcDbLine
 10
258.9680790235
 20
669.1137453621
 30
0.0
 11
258.8680922319
 21
669.1137453621
 31
0.0
  0
LINE
  5
2EA
330
1F
100
AcDbEntity
  8
0
  6
Continuous
 62
     7
370
    15
100
AcDbLine
 10
258.8680922319
 20
663.1137481039
 30
0.0
 11
258.9680790235
 21
663.1137481039
 31
0.0
  0
LINE
  5
2EB
330
1F
100
AcDbEntity
  8
0
  6
Continuous
 62
     7
370
    15
100
AcDbLine
 10
258.9680790235
 20
646.1137434547
 30
0.0
 11
258.8680922319
 21
646.1137434547
 31
0.0
  0
LINE
  5
2EC
330
1F
100
AcDbEntity
  8
0
  6
Continuous
 62
     7
370
    15
100
AcDbLine
 10
258.8680922319
 20
640.1137461966
 30
0.0
 11
258.9680790235
 21
640.1137461966
 31
0.0
  0
LINE
  5
2ED
330
1F
100
AcDbEntity
  8
0
  6
Continuous
 62
     7
370
    15
100
AcDbLine
 10
259.2680692007
 20
614.1137531107
 30
0.0
 11
259.2680692007
 21
609.1137429779
 31
0.0
  0
LINE
  5
2EE
330
1F
100
AcDbEntity
  8
0
  6
Continuous
 62
     7
370
    15
100
AcDbLine
 10
259.2680692007
 20
614.1137531107
 30
0.0
 11
274.2680846979
 21
614.1137531107
 31
0.0
  0
LINE
  5
2EF
330
1F
100
AcDbEntity
  8
0
  6
Continuous
 62
     7
370
    15
100
AcDbLine
 10
274.2680846979
 20
614.1137531107
 30
0.0
 11
274.2680846979
 21
609.1137429779
 31
0.0
  0
LINE
  5
2F0
330
1F
100
AcDbEntity
  8
0
  6
Continuous
 62
     7
370
    15
100
AcDbLine
 10
259.2680692007
 20
609.1137429779
 30
0.0
 11
274.2680846979
 21
609.1137429779
 31
0.0
  0
LINE
  5
2F1
330
1F
100
AcDbEntity
  8
0
  6
Continuous
 62
     7
370
    15
100
AcDbLine
 10
844.2680775453
 20
614.1137531107
 30
0.0
 11
844.2680775453
 21
609.1137429779
 31
0.0
  0
LINE
  5
2F2
330
1F
100
AcDbEntity
  8
0
  6
Continuous
 62
     7
370
    15
100
AcDbLine
 10
274.2680846979
 20
609.1137429779
 30
0.0
 11
844.2680775453
 21
609.1137429779
 31
0.0
  0
LINE
  5
2F3
330
1F
100
AcDbEntity
  8
0
  6
Continuous
 62
     7
370
    15
100
AcDbLine
 10
274.2680846979
 20
614.1137531107
 30
0.0
 11
844.2680775453
 21
614.1137531107
 31
0.0
  0
ARC
  5
2F4
330
1F
100
AcDbEntity
  8
0
  6
Continuous
 62
     7
370
    15
100
AcDbCircle
 10
274.2680811216
 20
609.113746125
 30
0.0
 40
15.00000000000011
100
AcDbArc
 50
180.0
 51
270.0
  0
LINE
  5
2F5
330
1F
100
AcDbEntity
  8
0
  6
Continuous
 62
     7
370
    15
100
AcDbLine
 10
274.2680846979
 20
594.1137423819
 30
0.0
 11
274.2680846979
 21
609.1137429779
 31
0.0
  0
LINE
  5
2F6
330
1F
100
AcDbEntity
  8
0
  6
Continuous
 62
     7
370
    15
100
AcDbLine
 10
844.2680775453
 20
609.1137429779
 30
0.0
 11
844.2680775453
 21
594.1137423819
 31
0.0
  0
LINE
  5
2F7
330
1F
100
AcDbEntity
  8
0
  6
Continuous
 62
     7
370
    15
100
AcDbLine
 10
274.2680846979
 20
594.1137423819
 30
0.0
 11
844.2680775453
 21
594.1137423819
 31
0.0
  0
LINE
  5
2F8
330
1F
100
AcDbEntity
  8
0
  6
Continuous
 62
     7
370
    15
100
AcDbLine
 10
859.2680930425
 20
614.1137531107
 30
0.0
 11
859.2680930425
 21
609.1137429779
 31
0.0
  0
LINE
  5
2F9
330
1F
100
AcDbEntity
  8
0
  6
Continuous
 62
     7
370
    15
100
AcDbLine
 10
859.2680930425
 20
609.1137429779
 30
0.0
 11
844.2680775453
 21
609.1137429779
 31
0.0
  0
LINE
  5
2FA
330
1F
100
AcDbEntity
  8
0
  6
Continuous
 62
     7
370
    15
100
AcDbLine
 10
859.2680930425
 20
614.1137531107
 30
0.0
 11
844.2680775453
 21
614.1137531107
 31
0.0
  0
ARC
  5
2FB
330
1F
100
AcDbEntity
  8
0
  6
Continuous
 62
     7
370
    15
100
AcDbCircle
 10
844.2680811216
 20
609.113746125
 30
0.0
 40
15.0
100
AcDbArc
 50
270.0
 51
0.0
  0
LINE
  5
2FC
330
1F
100
AcDbEntity
  8
0
  6
Continuous
 62
     7
370
    15
100
AcDbLine
 10
258.0680786897
 20
612.1315112417
 30
0.0
 11
259.2680692007
 21
612.1315112417
 31
0.0
  0
LINE
  5
2FD
330
1F
100
AcDbEntity
  8
0
  6
Continuous
 62
     7
370
    15
100
AcDbLine
 10
258.0680786897
 20
610.027541787
 30
0.0
 11
259.2680692007
 21
610.027541787
 31
0.0
  0
LINE
  5
2FE
330
1F
100
AcDbEntity
  8
0
  6
Continuous
 62
     7
370
    15
100
AcDbLine
 10
258.0680786897
 20
610.027541787
 30
0.0
 11
258.0680786897
 21
612.1315112417
 31
0.0
  0
LINE
  5
2FF
330
1F
100
AcDbEntity
  8
0
  6
Continuous
 62
     7
370
    15
100
AcDbLine
 10
258.0680786897
 20
617.1137442892
 30
0.0
 11
259.2680692007
 21
617.1137442892
 31
0.0
  0
LINE
  5
300
330
1F
100
AcDbEntity
  8
0
  6
Continuous
 62
     7
370
    15
100
AcDbLine
 10
259.2680692007
 20
614.1137531107
 30
0.0
 11
259.2680692007
 21
617.1137442892
 31
0.0
  0
LINE
  5
301
330
1F
100
AcDbEntity
  8
0
  6
Continuous
 62
     7
370
    15
100
AcDbLine
 10
258.0680786897
 20
617.1137442892
 30
0.0
 11
258.0680786897
 21
612.1315112417
 31
0.0
  0
LINE
  5
302
330
1F
100
AcDbEntity
  8
0
  6
Continuous
 62
     7
370
    15
100
AcDbLine
 10
259.2680692007
 20
609.1137429779
 30
0.0
 11
259.2680692007
 21
605.6137433355
 31
0.0
  0
LINE
  5
303
330
1F
100
AcDbEntity
  8
0
  6
Continuous
 62
     7
370
    15
100
AcDbLine
 10
258.0680786897
 20
605.6137433355
 30
0.0
 11
258.0680786897
 21
610.027541787
 31
0.0
  0
LINE
  5
304
330
1F
100
AcDbEntity
  8
0
  6
Continuous
 62
     7
370
    15
100
AcDbLine
 10
257.9680918981
 20
608.1137409513
 30
0.0
 11
257.9680918981
 21
614.1137531107
 31
0.0
  0
LINE
  5
305
330
1F
100
AcDbEntity
  8
0
  6
Continuous
 62
     7
370
    15
100
AcDbLine
 10
251.2201010515
 20
618.3161487883
 30
0.0
 11
251.9506155779
 21
617.3641285007
 31
0.0
  0
LWPOLYLINE
  5
306
330
1F
100
AcDbEntity
  8
0
  6
Continuous
 62
     7
370
    15
100
AcDbPolyline
 90
        9
 70
   128
 43
0.0
 10
251.9506155779
 20
617.3641285007
 10
251.7648875047
 20
617.2216137951
 10
251.5862821867
 20
617.0845827167
 10
251.4217137624
 20
616.9582804745
 10
251.2774407198
 20
616.847579748
 10
251.1590360929
 20
616.7567273682
 10
251.0710596372
 20
616.689225108
 10
251.0168790151
 20
616.6476508682
 10
250.9985803892
 20
616.6336139744
  0
LINE
  5
307
330
1F
100
AcDbEntity
  8
0
  6
Continuous
 62
     7
370
    15
100
AcDbLine
 10
250.9985803892
 20
616.6336139744
 30
0.0
 11
250.2680956651
 21
617.5856342619
 31
0.0
  0
LWPOLYLINE
  5
308
330
1F
100
AcDbEntity
  8
0
  6
Continuous
 62
     7
370
    15
100
AcDbPolyline
 90
        9
 70
   128
 43
0.0
 10
250.2680956651
 20
617.5856342619
 10
250.2863644888
 20
617.5996711557
 10
250.3405451109
 20
617.6412453955
 10
250.4285215666
 20
617.7087625568
 10
250.5469261934
 20
617.7996000355
 10
250.6911992361
 20
617.910300762
 10
250.8557676603
 20
618.0366030043
 10
251.0343729784
 20
618.1736340826
 10
251.2201010515
 20
618.3161487883
  0
ARC
  5
309
330
1F
100
AcDbEntity
  8
0
  6
Continuous
 62
     7
370
    15
100
AcDbCircle
 10
256.4680811216
 20
618.813746125
 30
0.0
 40
2.800000000000011
100
AcDbArc
 50
0.0
 51
45.7322600129
  0
LINE
  5
30A
330
1F
100
AcDbEntity
  8
0
  6
Continuous
 62
     7
370
    15
100
AcDbLine
 10
255.3604184915
 20
621.3853409594
 30
0.0
 11
254.7635375787
 21
621.035133869
 31
0.0
  0
LINE
  5
30B
330
1F
100
AcDbEntity
  8
0
  6
Continuous
 62
     7
370
    15
100
AcDbLine
 10
251.9506155779
 20
617.3641285007
 30
0.0
 11
255.4940521051
 21
620.0831135815
 31
0.0
  0
LINE
  5
30C
330
1F
100
AcDbEntity
  8
0
  6
Continuous
 62
     7
370
    15
100
AcDbLine
 10
254.7635375787
 20
621.035133869
 30
0.0
 11
251.2201010515
 21
618.3161487883
 31
0.0
  0
LINE
  5
30D
330
1F
100
AcDbEntity
  8
0
  6
Continuous
 62
     7
370
    15
100
AcDbLine
 10
259.2680692007
 20
617.1137442892
 30
0.0
 11
259.2680692007
 21
618.1137463158
 31
0.0
  0
LINE
  5
30E
330
1F
100
AcDbEntity
  8
0
  6
Continuous
 62
     7
370
    15
100
AcDbLine
 10
258.0680786897
 20
617.7546879356
 30
0.0
 11
258.0680786897
 21
617.1137442892
 31
0.0
  0
ARC
  5
30F
330
1F
100
AcDbEntity
  8
0
  6
Continuous
 62
     7
370
    15
100
AcDbCircle
 10
254.3680811216
 20
634.133746125
 30
0.0
 40
2.200000000000049
100
AcDbArc
 50
103.5934783353
 51
268.1042765976
  0
LINE
  5
310
330
1F
100
AcDbEntity
  8
0
  6
Continuous
 62
     7
370
    15
100
AcDbLine
 10
250.821256571
 20
635.5115076607
 30
0.0
 11
251.1548935701
 21
637.403746516
 31
0.0
  0
LWPOLYLINE
  5
311
330
1F
100
AcDbEntity
  8
0
  6
Continuous
 62
     7
370
    15
100
AcDbPolyline
 90
        9
 70
   128
 43
0.0
 10
251.1548935701
 20
637.403746516
 10
251.0106503298
 20
637.4291827982
 10
250.8736192514
 20
637.4533375805
 10
250.748509102
 20
637.4754062002
 10
250.6396710207
 20
637.4945988958
 10
250.5508302976
 20
637.5102600162
 10
250.4851161768
 20
637.5218531197
 10
250.4447340299
 20
637.5289609735
 10
250.4311143686
 20
637.5313749617
  0
LINE
  5
312
330
1F
100
AcDbEntity
  8
0
  6
Continuous
 62
     7
370
    15
100
AcDbLine
 10
250.4311143686
 20
637.5313749617
 30
0.0
 11
254.8061548998
 21
662.3434772795
 31
0.0
  0
LWPOLYLINE
  5
313
330
1F
100
AcDbEntity
  8
0
  6
Continuous
 62
     7
370
    15
100
AcDbPolyline
 90
        9
 70
   128
 43
0.0
 10
254.8061548998
 20
662.3434772795
 10
254.8212944795
 20
662.3408099716
 10
254.8661469747
 20
662.332897455
 10
254.9389540483
 20
662.3200675552
 10
255.036914282
 20
662.3027971094
 10
255.1563023855
 20
662.2817417686
 10
255.2925288011
 20
662.2577210968
 10
255.4403185178
 20
662.2316589659
 10
255.5940090944
 20
662.2045537537
  0
LINE
  5
314
330
1F
100
AcDbEntity
  8
0
  6
Continuous
 62
     7
370
    15
100
AcDbLine
 10
255.5940090944
 20
662.2045537537
 30
0.0
 11
250.7686852743
 21
634.8387500351
 31
0.0
  0
LINE
  5
315
330
1F
100
AcDbEntity
  8
0
  6
Continuous
 62
     7
370
    15
100
AcDbLine
 10
250.7686852743
 20
634.8387500351
 30
0.0
 11
250.821256571
 21
635.5115076607
 31
0.0
  0
LWPOLYLINE
  5
316
330
1F
100
AcDbEntity
  8
0
  6
Continuous
 62
     7
370
    15
100
AcDbPolyline
 90
        5
 70
   128
 43
0.0
 10
253.6534606744
 20
669.2318072622
 10
253.3999919225
 20
669.9282130306
 10
253.216439419
 20
670.4325279301
 10
253.1053065588
 20
670.7378825252
 10
253.0680834581
 20
670.8401342934
  0
LWPOLYLINE
  5
317
330
1F
100
AcDbEntity
  8
0
  6
Continuous
 62
     7
370
    15
100
AcDbPolyline
 90
        5
 70
   128
 43
0.0
 10
254.4130920698
 20
669.483785898
 10
254.1562556555
 20
670.1894601887
 10
253.9702295591
 20
670.7005849188
 10
253.8575469782
 20
671.0100969379
 10
253.8198470403
 20
671.1137494152
  0
LINE
  5
318
330
1F
100
AcDbEntity
  8
0
  6
Continuous
 62
     7
370
    15
100
AcDbLine
 10
254.6351789762
 20
669.1293468779
 30
0.0
 11
254.4130920698
 21
669.483785898
 31
0.0
  0
LINE
  5
319
330
1F
100
AcDbEntity
  8
0
  6
Continuous
 62
     7
370
    15
100
AcDbLine
 10
254.5529841711
 20
669.0994253462
 30
0.0
 11
254.6351789762
 21
669.1293468779
 31
0.0
  0
SPLINE
  5
31A
330
1F
100
AcDbEntity
  8
0
  6
Continuous
 62
     7
370
    15
100
AcDbSpline
210
0.0
220
0.0
230
1.0
 70
     8
 71
     3
 72
    12
 73
     8
 74
     0
 42
0.00000001
 43
0.00000001
 40
0.0
 40
0.0
 40
0.0
 40
0.0
 40
0.2510200584691638
 40
0.5023935466332026
 40
0.7402759140835328
 40
0.9473073476181907
 40
0.9999999999999999
 40
0.9999999999999999
 40
0.9999999999999999
 40
0.9999999999999999
 10
253.653460674449
 20
669.2318072622245
 30
0.0
 10
253.6811772905641
 20
669.1874892740358
 30
0.0
 10
253.7366495470667
 20
669.0987908990869
 30
0.0
 10
253.9436219967441
 20
669.0238012774876
 30
0.0
 10
254.2050117980205
 20
669.0122946910743
 30
0.0
 10
254.4215948427227
 20
669.0539430975297
 30
0.0
 10
254.5308238596821
 20
669.0917542452936
 30
0.0
 10
254.5529841710768
 20
669.0994253461784
 30
0.0
  0
LINE
  5
31B
330
1F
100
AcDbEntity
  8
0
  6
Continuous
 62
     7
370
    15
100
AcDbLine
 10
254.5529841711
 20
669.0994253462
 30
0.0
 11
255.1293312837
 21
667.5159385508
 31
0.0
  0
LWPOLYLINE
  5
31C
330
1F
100
AcDbEntity
  8
0
  6
Continuous
 62
     7
370
    15
100
AcDbPolyline
 90
        9
 70
   128
 43
0.0
 10
254.3775677015
 20
667.2423234289
 10
254.3920218279
 20
667.2475835388
 10
254.4347881605
 20
667.2631552523
 10
254.504257374
 20
667.2884425228
 10
254.5977472593
 20
667.3224618738
 10
254.7116815378
 20
667.3639318054
 10
254.8416494657
 20
667.4112429922
 10
254.9826740553
 20
667.4625625914
 10
255.1293312837
 20
667.5159385508
  0
LINE
  5
31D
330
1F
100
AcDbEntity
  8
0
  6
Continuous
 62
     7
370
    15
100
AcDbLine
 10
254.3775677015
 20
667.2423234289
 30
0.0
 11
253.6534606744
 21
669.2318072622
 31
0.0
  0
ARC
  5
31E
330
1F
100
AcDbEntity
  8
0
  6
Continuous
 62
     7
370
    15
100
AcDbCircle
 10
254.9580866278
 20
640.3027370435
 30
0.0
 40
1.600000000000028
100
AcDbArc
 50
347.034367059
 51
204.5705045338
  0
ARC
  5
31F
330
1F
100
AcDbEntity
  8
0
  6
Continuous
 62
     7
370
    15
100
AcDbCircle
 10
255.470795593
 20
668.3258109794
 30
0.0
 40
0.5000000000001137
100
AcDbArc
 50
36.8410865503
 51
90.0
  0
ARC
  5
320
330
1F
100
AcDbEntity
  8
0
  6
Continuous
 62
     7
370
    15
100
AcDbCircle
 10
245.4504940811
 20
663.9931365933
 30
0.0
 40
10.3000000000002
100
AcDbArc
 50
350.0
 51
20.0
  0
ARC
  5
321
330
1F
100
AcDbEntity
  8
0
  6
Continuous
 62
     7
370
    15
100
AcDbCircle
 10
255.3527830474
 20
669.8258109794
 30
0.0
 40
1.0
100
AcDbArc
 50
224.1440002858
 51
270.0
  0
ARC
  5
322
330
1F
100
AcDbEntity
  8
0
  6
Continuous
 62
     7
370
    15
100
AcDbCircle
 10
248.2680811216
 20
662.929432171
 30
0.0
 40
9.499999999999972
100
AcDbArc
 50
0.0
 51
36.8410865502
  0
LINE
  5
323
330
1F
100
AcDbEntity
  8
0
  6
Continuous
 62
     7
370
    15
100
AcDbLine
 10
255.352789097
 20
668.8258102243
 30
0.0
 11
255.4708062937
 21
668.8258102243
 31
0.0
  0
LINE
  5
324
330
1F
100
AcDbEntity
  8
0
  6
Continuous
 62
     7
370
    15
100
AcDbLine
 10
257.7680885126
 20
662.9294356411
 30
0.0
 11
257.7680885126
 21
634.9037489002
 31
0.0
  0
LWPOLYLINE
  5
325
330
1F
100
AcDbEntity
  8
0
  6
Continuous
 62
     7
370
    15
100
AcDbPolyline
 90
        3
 70
   128
 43
0.0
 10
257.7680885126
 20
634.9037489002
 10
257.5594722559
 20
633.7134590452
 10
257.203304701
 20
632.9973092382
  0
ARC
  5
326
330
1F
100
AcDbEntity
  8
0
  6
Continuous
 62
     7
370
    15
100
AcDbCircle
 10
254.2680811216
 20
634.903746125
 30
0.0
 40
3.500000000000039
100
AcDbArc
 50
181.0639402281
 51
271.3221928089
  0
ARC
  5
327
330
1F
100
AcDbEntity
  8
0
  6
Continuous
 62
     7
370
    15
100
AcDbCircle
 10
245.4504940811
 20
663.9931365933
 30
0.0
 40
9.500000000000059
100
AcDbArc
 50
350.0
 51
20.0
  0
ARC
  5
328
330
1F
100
AcDbEntity
  8
0
  6
Continuous
 62
     7
370
    15
100
AcDbCircle
 10
254.861698915
 20
635.6012416518
 30
0.0
 40
4.698428302688362
100
AcDbArc
 50
170.0
 51
264.3261771657
  0
LINE
  5
329
330
1F
100
AcDbEntity
  8
0
  6
Continuous
 62
     7
370
    15
100
AcDbLine
 10
250.4311143686
 20
637.5313749617
 30
0.0
 11
250.2346574594
 21
636.4171108311
 31
0.0
  0
SPLINE
  5
32A
330
1F
100
AcDbEntity
  8
0
  6
Continuous
 62
     7
370
    15
100
AcDbSpline
210
0.0
220
0.0
230
1.0
 70
     8
 71
     3
 72
    12
 73
     8
 74
     0
 42
0.00000001
 43
0.00000001
 40
0.0
 40
0.0
 40
0.0
 40
0.0
 40
0.2340578646743021
 40
0.4681095995907884
 40
0.7021662525576917
 40
0.9362177186208106
 40
1.0
 40
1.0
 40
1.0
 40
1.0
 10
255.565071039363
 20
635.7908597295707
 30
0.0
 10
255.3686724436346
 20
635.7714810152133
 30
0.0
 10
254.9758803956744
 20
635.7327240940087
 30
0.0
 10
254.4383900197033
 20
635.7274671105895
 30
0.0
 10
254.0648824709077
 20
635.765949185808
 30
0.0
 10
253.8857114943576
 20
635.8206113983695
 30
0.0
 10
253.9144043899882
 20
635.8645654679268
 30
0.0
 10
253.9205490876876
 20
635.87397840671
 30
0.0
  0
SPLINE
  5
32B
330
1F
100
AcDbEntity
  8
0
  6
Continuous
 62
     7
370
    15
100
AcDbSpline
210
0.0
220
0.0
230
1.0
 70
     8
 71
     3
 72
    11
 73
     7
 74
     0
 42
0.00000001
 43
0.00000001
 40
0.0
 40
0.0
 40
0.0
 40
0.0
 40
0.1986884143722294
 40
0.4657846124457586
 40
0.7328995629828402
 40
1.0
 40
1.0
 40
1.0
 40
1.0
 10
256.8609654237471
 20
636.1697515552466
 30
0.0
 10
256.8597813453946
 20
636.1452583981612
 30
0.0
 10
256.8570055143111
 20
636.0878391685765
 30
0.0
 10
256.5875019810719
 20
635.9807562335592
 30
0.0
 10
256.140425244748
 20
635.8699435267787
 30
0.0
 10
255.7568523008652
 20
635.8172205178486
 30
0.0
 10
255.565071039363
 20
635.7908597295707
 30
0.0
  0
SPLINE
  5
32C
330
1F
100
AcDbEntity
  8
0
  6
Continuous
 62
     7
370
    15
100
AcDbSpline
210
0.0
220
0.0
230
1.0
 70
     8
 71
     3
 72
    12
 73
     8
 74
     0
 42
0.00000001
 43
0.00000001
 40
0.0
 40
0.0
 40
0.0
 40
0.0
 40
0.2339637986787812
 40
0.4679314099192302
 40
0.7018957118169417
 40
0.9358618348788783
 40
1.0
 40
1.0
 40
1.0
 40
1.0
 10
254.9580871392928
 20
641.8027332132285
 30
0.0
 10
254.762008136513
 20
641.7802290189488
 30
0.0
 10
254.3698469357441
 20
641.7352202636716
 30
0.0
 10
253.8668943907529
 20
641.3877425778594
 30
0.0
 10
253.5471204293226
 20
640.894233801449
 30
0.0
 10
253.4191439419167
 20
640.4406518220569
 30
0.0
 10
253.4769596424528
 20
640.1976615552236
 30
0.0
 10
253.4893988897048
 20
640.1453813617652
 30
0.0
  0
SPLINE
  5
32D
330
1F
100
AcDbEntity
  8
0
  6
Continuous
 62
     7
370
    15
100
AcDbSpline
210
0.0
220
0.0
230
1.0
 70
     8
 71
     3
 72
    11
 73
     7
 74
     0
 42
0.00000001
 43
0.00000001
 40
0.0
 40
0.0
 40
0.0
 40
0.0
 40
0.1976861585316498
 40
0.4651230364919047
 40
0.7325636972527094
 40
0.9999999999999999
 40
0.9999999999999999
 40
0.9999999999999999
 40
0.9999999999999999
 10
256.4282953073225
 20
640.4524495904868
 30
0.0
 10
256.4100137157279
 20
640.5971972546857
 30
0.0
 10
256.3670001357304
 20
640.9377647157428
 30
0.0
 10
256.0415642015897
 20
641.3875550955228
 30
0.0
 10
255.5482562390993
 20
641.735267133641
 30
0.0
 10
255.1548091039994
 20
641.7802446421871
 30
0.0
 10
254.9580871392928
 20
641.8027332132285
 30
0.0
  0
SPLINE
  5
32E
330
1F
100
AcDbEntity
  8
0
  6
Continuous
 62
     7
370
    15
100
AcDbSpline
210
0.0
220
0.0
230
1.0
 70
     8
 71
     3
 72
    12
 73
     8
 74
     0
 42
0.00000001
 43
0.00000001
 40
0.0
 40
0.0
 40
0.0
 40
0.0
 40
0.2350075899205386
 40
0.4700315036605494
 40
0.7050497480180404
 40
0.9400627841620258
 40
1.0
 40
1.0
 40
1.0
 40
1.0
 10
257.1341335107527
 20
620.2498873775428
 30
0.0
 10
256.9377536215551
 20
620.2305094467931
 30
0.0
 10
256.5449802024519
 20
620.1917522392868
 30
0.0
 10
256.0073643183263
 20
620.1864857737522
 30
0.0
 10
255.634291118165
 20
620.2250103570692
 30
0.0
 10
255.4552674415711
 20
620.2791325369407
 30
0.0
 10
255.4831671611877
 20
620.322433560442
 30
0.0
 10
255.4888366986953
 20
620.3312328165
 30
0.0
  0
SPLINE
  5
32F
330
1F
100
AcDbEntity
  8
0
  6
Continuous
 62
     7
370
    15
100
AcDbSpline
210
0.0
220
0.0
230
1.0
 70
     8
 71
     3
 72
    11
 73
     7
 74
     0
 42
0.00000001
 43
0.00000001
 40
0.0
 40
0.0
 40
0.0
 40
0.0
 40
0.1989241176137589
 40
0.465944990380075
 40
0.732968168308107
 40
1.0
 40
1.0
 40
1.0
 40
1.0
 10
258.4300874997817
 20
620.6288835113471
 30
0.0
 10
258.4289203767715
 20
620.6043574115321
 30
0.0
 10
258.4261865950349
 20
620.5469093078052
 30
0.0
 10
258.1565661789793
 20
620.4397886226575
 30
0.0
 10
257.7095084140814
 20
620.3289657535547
 30
0.0
 10
257.3259272170303
 20
620.2762471209624
 30
0.0
 10
257.1341335107527
 20
620.2498873775428
 30
0.0
  0
LINE
  5
330
330
1F
100
AcDbEntity
  8
0
  6
Continuous
 62
     7
370
    15
100
AcDbLine
 10
255.6572198202
 20
618.6474612062
 30
0.0
 11
255.6562065412
 21
618.850996167
 31
0.0
  0
ARC
  5
331
330
1F
100
AcDbEntity
  8
0
  6
Continuous
 62
     7
370
    15
100
AcDbCircle
 10
258.3353688186
 20
630.551513087
 30
0.0
 40
0.4000150162574163
100
AcDbArc
 50
0.1485539448
 51
179.5014058744
  0
ELLIPSE
  5
332
330
1F
100
AcDbEntity
  8
0
  6
Continuous
 62
     7
370
    15
100
AcDbEllipse
 10
258.3353805219
 20
630.2866377313
 30
0.0
 11
0.3991830274373456
 21
-0.02624604221159644
 31
0.0
210
0.0
220
0.0
230
1.0
 40
0.9763157485
 41
0.0
 42
6.283185307179586
  0
SPLINE
  5
333
330
1F
100
AcDbEntity
  8
0
  6
Continuous
 62
     7
370
    15
100
AcDbSpline
210
0.0
220
0.0
230
1.0
 70
     8
 71
     3
 72
    13
 73
     9
 74
     0
 42
0.00000001
 43
0.00000001
 40
0.0
 40
0.0
 40
0.0
 40
0.0
 40
0.008167739690015
 40
0.2391350261271738
 40
0.4711086260108783
 40
0.6931232956450747
 40
0.9042359312570555
 40
1.0
 40
1.0
 40
1.0
 40
1.0
 10
258.3353757192336
 20
631.0154697006171
 30
0.0
 10
258.3337168066187
 20
631.0150774355552
 30
0.0
 10
258.2851471745582
 20
631.0035927017835
 30
0.0
 10
258.1890402626981
 20
630.9802975066699
 30
0.0
 10
258.0661930860219
 20
630.9366872944066
 30
0.0
 10
257.9805533757039
 20
630.8992367267379
 30
0.0
 10
257.9365474582581
 20
630.878075032384
 30
0.0
 10
257.9397605041078
 20
630.8731051799667
 30
0.0
 10
257.9407631684981
 20
630.871554285807
 30
0.0
  0
SPLINE
  5
334
330
1F
100
AcDbEntity
  8
0
  6
Continuous
 62
     7
370
    15
100
AcDbSpline
210
0.0
220
0.0
230
1.0
 70
     8
 71
     3
 72
    13
 73
     9
 74
     0
 42
0.00000001
 43
0.00000001
 40
0.0
 40
0.0
 40
0.0
 40
0.0
 40
0.1252281716953725
 40
0.2499808634145237
 40
0.4999695310349077
 40
0.7500005780999462
 40
0.8747329118276171
 40
1.0
 40
1.0
 40
1.0
 40
1.0
 10
258.7353824903212
 20
631.0097774570411
 30
0.0
 10
258.733676008784
 20
631.0097994541277
 30
0.0
 10
258.7302695250646
 20
631.0098433647798
 30
0.0
 10
258.6958521351681
 20
631.0103553233378
 30
0.0
 10
258.6206268874628
 20
631.0114044146043
 30
0.0
 10
258.5119431988611
 20
631.0129615776364
 30
0.0
 10
258.4132336581224
 20
631.0143579206334
 30
0.0
 10
258.3613653480278
 20
631.015098579194
 30
0.0
 10
258.3353757192336
 20
631.0154697006171
 30
0.0
  0
SPLINE
  5
335
330
1F
100
AcDbEntity
  8
0
  6
Continuous
 62
     7
370
    15
100
AcDbSpline
210
0.0
220
0.0
230
1.0
 70
     8
 71
     3
 72
    10
 73
     6
 74
     0
 42
0.00000001
 43
0.00000001
 40
0.0
 40
0.0
 40
0.0
 40
0.0
 40
0.0190723000344614
 40
0.5253559500583788
 40
1.0
 40
1.0
 40
1.0
 40
1.0
 10
258.3353757192336
 20
631.0154697006171
 30
0.0
 10
258.3369050319409
 20
631.0162098851949
 30
0.0
 10
258.3790307078599
 20
631.0365986359657
 30
0.0
 10
258.4615547528574
 20
631.0750026112305
 30
0.0
 10
258.5317113892905
 20
631.1011101403437
 30
0.0
 10
258.5656582643233
 20
631.1137428586906
 30
0.0
  0
LINE
  5
336
330
1F
100
AcDbEntity
  8
0
  6
Continuous
 62
     7
370
    15
100
AcDbLine
 10
253.4588813116
 20
640.2535935944
 30
0.0
 11
253.47130888
 21
640.1039412325
 31
0.0
  0
LINE
  5
337
330
1F
100
AcDbEntity
  8
0
  6
Continuous
 62
     7
370
    15
100
AcDbLine
 10
256.4510940839
 20
640.4474428003
 30
0.0
 11
256.415510111
 21
640.6576087778
 31
0.0
  0
LINE
  5
338
330
1F
100
AcDbEntity
  8
0
  6
Continuous
 62
     7
370
    15
100
AcDbLine
 10
274.2680846979
 20
829.1137464424
 30
0.0
 11
274.2680846979
 21
844.1137461071
 31
0.0
  0
LINE
  5
339
330
1F
100
AcDbEntity
  8
0
  6
Continuous
 62
     7
370
    15
100
AcDbLine
 10
274.2680846979
 20
829.1137464424
 30
0.0
 11
259.2680692007
 21
829.1137464424
 31
0.0
  0
ARC
  5
33A
330
1F
100
AcDbEntity
  8
0
  6
Continuous
 62
     7
370
    15
100
AcDbCircle
 10
274.2680811216
 20
829.113746125
 30
0.0
 40
15.00000000000006
100
AcDbArc
 50
90.0
 51
180.0
  0
LINE
  5
33B
330
1F
100
AcDbEntity
  8
0
  6
Continuous
 62
     7
370
    15
100
AcDbLine
 10
844.2680775453
 20
829.1137464424
 30
0.0
 11
859.2680930425
 21
829.1137464424
 31
0.0
  0
LINE
  5
33C
330
1F
100
AcDbEntity
  8
0
  6
Continuous
 62
     7
370
    15
100
AcDbLine
 10
844.2680775453
 20
829.1137464424
 30
0.0
 11
844.2680775453
 21
844.1137461071
 31
0.0
  0
ARC
  5
33D
330
1F
100
AcDbEntity
  8
0
  6
Continuous
 62
     7
370
    15
100
AcDbCircle
 10
844.2680811216
 20
829.113746125
 30
0.0
 40
14.99999999999989
100
AcDbArc
 50
0.0
 51
90.0
  0
LINE
  5
33E
330
1F
100
AcDbEntity
  8
0
  6
Continuous
 62
     7
370
    15
100
AcDbLine
 10
844.2680775453
 20
829.1137464424
 30
0.0
 11
274.2680846979
 21
829.1137464424
 31
0.0
  0
LINE
  5
33F
330
1F
100
AcDbEntity
  8
0
  6
Continuous
 62
     7
370
    15
100
AcDbLine
 10
844.2680775453
 20
844.1137461071
 30
0.0
 11
274.2680846979
 21
844.1137461071
 31
0.0
  0
LINE
  5
340
330
1F
100
AcDbEntity
  8
0
  6
Continuous
 62
     7
370
    15
100
AcDbLine
 10
844.2680775453
 20
618.1137463158
 30
0.0
 11
844.2680775453
 21
829.1137464424
 31
0.0
  0
LINE
  5
341
330
1F
100
AcDbEntity
  8
0
  6
Continuous
 62
     7
370
    15
100
AcDbLine
 10
844.2680775453
 20
618.1137463158
 30
0.0
 11
274.2680846979
 21
618.1137463158
 31
0.0
  0
LINE
  5
342
330
1F
100
AcDbEntity
  8
0
  6
Continuous
 62
     7
370
    15
100
AcDbLine
 10
274.2680846979
 20
618.1137463158
 30
0.0
 11
274.2680846979
 21
829.1137464424
 31
0.0
  0
LINE
  5
343
330
1F
100
AcDbEntity
  8
0
  6
Continuous
 62
     7
370
    15
100
AcDbLine
 10
839.2680823137
 20
824.1137465542
 30
0.0
 11
279.2680799295
 21
824.1137465542
 31
0.0
  0
LINE
  5
344
330
1F
100
AcDbEntity
  8
0
  6
Continuous
 62
     7
370
    15
100
AcDbLine
 10
279.2680799295
 20
638.1137421434
 30
0.0
 11
279.2680799295
 21
824.1137465542
 31
0.0
  0
LINE
  5
345
330
1F
100
AcDbEntity
  8
0
  6
Continuous
 62
     7
370
    15
100
AcDbLine
 10
279.2680799295
 20
638.1137421434
 30
0.0
 11
839.2680823137
 21
638.1137421434
 31
0.0
  0
LINE
  5
346
330
1F
100
AcDbEntity
  8
0
  6
Continuous
 62
     7
370
    15
100
AcDbLine
 10
839.2680823137
 20
824.1137465542
 30
0.0
 11
839.2680823137
 21
638.1137421434
 31
0.0
  0
LINE
  5
347
330
1F
100
AcDbEntity
  8
0
  6
Continuous
 62
     7
370
    15
100
AcDbLine
 10
274.2680846979
 20
618.1137463158
 30
0.0
 11
259.2680692007
 21
618.1137463158
 31
0.0
  0
LINE
  5
348
330
1F
100
AcDbEntity
  8
0
  6
Continuous
 62
     7
370
    15
100
AcDbLine
 10
259.2680692007
 20
618.1137463158
 30
0.0
 11
259.2680692007
 21
829.1137464424
 31
0.0
  0
LINE
  5
349
330
1F
100
AcDbEntity
  8
0
  6
Continuous
 62
     7
370
    15
100
AcDbLine
 10
859.2680930425
 20
618.1137463158
 30
0.0
 11
859.2680930425
 21
829.1137464424
 31
0.0
  0
LINE
  5
34A
330
1F
100
AcDbEntity
  8
0
  6
Continuous
 62
     7
370
    15
100
AcDbLine
 10
859.2680930425
 20
618.1137463158
 30
0.0
 11
844.2680775453
 21
618.1137463158
 31
0.0
  0
LINE
  5
34B
330
1F
100
AcDbEntity
  8
0
  6
Continuous
 62
     7
370
    15
100
AcDbLine
 10
854.2680680086
 20
614.1137531107
 30
0.0
 11
854.2680680086
 21
618.1137463158
 31
0.0
  0
LINE
  5
34C
330
1F
100
AcDbEntity
  8
0
  6
Continuous
 62
     7
370
    15
100
AcDbLine
 10
839.2680823137
 20
614.1137531107
 30
0.0
 11
839.2680823137
 21
618.1137463158
 31
0.0
  0
LINE
  5
34D
330
1F
100
AcDbEntity
  8
0
  6
Continuous
 62
     7
370
    15
100
AcDbLine
 10
279.2680799295
 20
614.1137531107
 30
0.0
 11
279.2680799295
 21
618.1137463158
 31
0.0
  0
LINE
  5
34E
330
1F
100
AcDbEntity
  8
0
  6
Continuous
 62
     7
370
    15
100
AcDbLine
 10
264.2680942346
 20
614.1137531107
 30
0.0
 11
264.2680942346
 21
618.1137463158
 31
0.0
  0
LINE
  5
34F
330
1F
100
AcDbEntity
  8
0
  6
Continuous
 62
     7
370
    15
100
AcDbLine
 10
859.2680930425
 20
618.1137463158
 30
0.0
 11
859.9353968431
 21
618.1137463158
 31
0.0
  0
ARC
  5
350
330
1F
100
AcDbEntity
  8
0
  6
Continuous
 62
     7
370
    15
100
AcDbCircle
 10
865.2680811216
 20
615.863746125
 30
0.0
 40
5.500000000000063
100
AcDbArc
 50
202.024312837
 51
152.720387264
  0
ARC
  5
351
330
1F
100
AcDbEntity
  8
0
  6
Continuous
 62
     7
370
    15
100
AcDbCircle
 10
859.7059322563
 20
613.613746125
 30
0.0
 40
0.5
100
AcDbArc
 50
22.024312837
 51
90.0
  0
ARC
  5
352
330
1F
100
AcDbEntity
  8
0
  6
Continuous
 62
     7
370
    15
100
AcDbCircle
 10
859.9353988697
 20
618.613746125
 30
0.0
 40
0.499999999999953
100
AcDbArc
 50
270.0
 51
332.720387264
  0
LINE
  5
353
330
1F
100
AcDbEntity
  8
0
  6
Continuous
 62
     7
370
    15
100
AcDbLine
 10
859.7059189607
 20
614.1137531107
 30
0.0
 11
859.2680930425
 21
614.1137531107
 31
0.0
  0
LINE
  5
354
330
1F
100
AcDbEntity
  8
0
  6
Continuous
 62
     7
370
    15
100
AcDbLine
 10
258.9680790235
 20
637.3137435024
 30
0.0
 11
259.2680692007
 21
637.3148014849
 31
0.0
  0
LINE
  5
355
330
1F
100
AcDbEntity
  8
0
  6
Continuous
 62
     7
370
    15
100
AcDbLine
 10
259.2680692007
 20
639.3137475555
 30
0.0
 11
258.9680790235
 21
639.3137475555
 31
0.0
  0
LINE
  5
356
330
1F
100
AcDbEntity
  8
0
  6
Continuous
 62
     7
370
    15
100
AcDbLine
 10
258.9680790235
 20
637.3137435024
 30
0.0
 11
258.9680790235
 21
639.3137475555
 31
0.0
  0
ARC
  5
357
330
1F
100
AcDbEntity
  8
0
  6
Continuous
 62
     7
370
    15
100
AcDbCircle
 10
254.0680811216
 20
634.213746125
 30
0.0
 40
3.099999999999981
100
AcDbArc
 50
192.3148957395
 51
270.0
  0
LINE
  5
358
330
1F
100
AcDbEntity
  8
0
  6
Continuous
 62
     7
370
    15
100
AcDbLine
 10
258.9680790235
 20
637.3137435024
 30
0.0
 11
257.7680885126
 21
637.3137435024
 31
0.0
  0
LINE
  5
359
330
1F
100
AcDbEntity
  8
0
  6
Continuous
 62
     7
370
    15
100
AcDbLine
 10
258.9680790235
 20
631.1137428587
 30
0.0
 11
258.9680790235
 21
637.3137435024
 31
0.0
  0
LINE
  5
35A
330
1F
100
AcDbEntity
  8
0
  6
Continuous
 62
     7
370
    15
100
AcDbLine
 10
254.0680705835
 20
631.1137428587
 30
0.0
 11
254.3782233526
 21
631.1137428587
 31
0.0
  0
LINE
  5
35B
330
1F
100
AcDbEntity
  8
0
  6
Continuous
 62
     7
370
    15
100
AcDbLine
 10
257.3934733202
 20
631.1137428587
 30
0.0
 11
258.9680790235
 21
631.1137428587
 31
0.0
  0
LINE
  5
35C
330
1F
100
AcDbEntity
  8
0
  6
Continuous
 62
     7
370
    15
100
AcDbLine
 10
259.2680692007
 20
631.1137428587
 30
0.0
 11
258.9680790235
 21
631.1137428587
 31
0.0
  0
LINE
  5
35D
330
1F
100
AcDbEntity
  8
0
  6
Continuous
 62
     7
370
    15
100
AcDbLine
 10
258.9680790235
 20
670.1137473886
 30
0.0
 11
258.9680790235
 21
663.3637448852
 31
0.0
  0
LINE
  5
35E
330
1F
100
AcDbEntity
  8
0
  6
Continuous
 62
     7
370
    15
100
AcDbLine
 10
258.9680790235
 20
639.3137475555
 30
0.0
 11
258.9680790235
 21
663.3637448852
 31
0.0
  0
LINE
  5
35F
330
1F
100
AcDbEntity
  8
0
  6
Continuous
 62
     7
370
    15
100
AcDbLine
 10
258.8680922319
 20
663.1137481039
 30
0.0
 11
258.8680922319
 21
669.1137453621
 31
0.0
  0
LINE
  5
360
330
1F
100
AcDbEntity
  8
0
  6
Continuous
 62
     7
370
    15
100
AcDbLine
 10
258.8680922319
 20
640.1137461966
 30
0.0
 11
258.8680922319
 21
646.1137434547
 31
0.0
  0
LINE
  5
361
330
1F
100
AcDbEntity
  8
0
  6
Continuous
 62
     7
370
    15
100
AcDbLine
 10
257.7680885126
 20
655.4705550974
 30
0.0
 11
258.9680790235
 21
655.1490178411
 31
0.0
  0
LINE
  5
362
330
1F
100
AcDbEntity
  8
0
  6
Continuous
 62
     7
370
    15
100
AcDbLine
 10
258.9680790235
 20
654.113744766
 30
0.0
 11
257.7680885126
 21
654.4352820223
 31
0.0
  0
LINE
  5
363
330
1F
100
AcDbEntity
  8
0
  6
Continuous
 62
     8
370
    15
100
AcDbLine
 10
259.2680692007
 20
663.3637448852
 30
0.0
 11
258.9680790235
 21
663.3637448852
 31
0.0
  0
ENDSEC
  0
SECTION
  2
OBJECTS
  0
DICTIONARY
  5
C
330
0
100
AcDbDictionary
281
     1
  3
ACAD_GROUP
350
D
  3
ACAD_LAYOUT
350
1A
  3
ACAD_MLINESTYLE
350
17
  3
ACAD_PLOTSETTINGS
350
19
  3
ACAD_PLOTSTYLENAME
350
E
  0
DICTIONARY
  5
D
102
{ACAD_REACTORS
330
C
102
}
330
C
100
AcDbDictionary
281
     1
  0
DICTIONARY
  5
1A
102
{ACAD_REACTORS
330
C
102
}
330
C
100
AcDbDictionary
281
     1
  3
Layout1
350
1E
  3
Layout2
350
26
  3
Model
350
22
  0
DICTIONARY
  5
17
102
{ACAD_REACTORS
330
C
102
}
330
C
100
AcDbDictionary
281
     1
  3
Standard
350
18
  0
DICTIONARY
  5
19
102
{ACAD_REACTORS
330
C
102
}
330
C
100
AcDbDictionary
281
     1
  0
ACDBDICTIONARYWDFLT
  5
E
102
{ACAD_REACTORS
330
C
102
}
330
C
100
AcDbDictionary
281
     1
  3
Normal
350
F
100
AcDbDictionaryWithDefault
340
F
  0
LAYOUT
  5
1E
102
{ACAD_REACTORS
330
1A
102
}
330
1A
100
AcDbPlotSettings
  1

  2
none_device
  4

  6

 40
0.0
 41
0.0
 42
0.0
 43
0.0
 44
0.0
 45
0.0
 46
0.0
 47
0.0
 48
0.0
 49
0.0
140
0.0
141
0.0
142
1.0
143
1.0
 70
   688
 72
     0
 73
     0
 74
     5
  7

 75
    16
147
1.0
148
0.0
149
0.0
100
AcDbLayout
  1
Layout1
 70
     1
 71
     1
 10
0.0
 20
0.0
 11
420.0
 21
297.0
 12
0.0
 22
0.0
 32
0.0
 14
1.0000000000E+20
 24
1.0000000000E+20
 34
1.0000000000E+20
 15
-1.0000000000E+20
 25
-1.0000000000E+20
 35
-1.0000000000E+20
146
0.0
 13
0.0
 23
0.0
 33
0.0
 16
1.0
 26
0.0
 36
0.0
 17
0.0
 27
1.0
 37
0.0
 76
     0
330
1B
  0
LAYOUT
  5
26
102
{ACAD_REACTORS
330
1A
102
}
330
1A
100
AcDbPlotSettings
  1

  2
none_device
  4

  6

 40
0.0
 41
0.0
 42
0.0
 43
0.0
 44
0.0
 45
0.0
 46
0.0
 47
0.0
 48
0.0
 49
0.0
140
0.0
141
0.0
142
1.0
143
1.0
 70
   688
 72
     0
 73
     0
 74
     5
  7

 75
    16
147
1.0
148
0.0
149
0.0
100
AcDbLayout
  1
Layout2
 70
     1
 71
     2
 10
0.0
 20
0.0
 11
0.0
 21
0.0
 12
0.0
 22
0.0
 32
0.0
 14
0.0
 24
0.0
 34
0.0
 15
0.0
 25
0.0
 35
0.0
146
0.0
 13
0.0
 23
0.0
 33
0.0
 16
1.0
 26
0.0
 36
0.0
 17
0.0
 27
1.0
 37
0.0
 76
     0
330
23
  0
LAYOUT
  5
22
102
{ACAD_REACTORS
330
1A
102
}
330
1A
100
AcDbPlotSettings
  1

  2
none_device
  4

  6

 40
0.0
 41
0.0
 42
0.0
 43
0.0
 44
0.0
 45
0.0
 46
0.0
 47
0.0
 48
0.0
 49
0.0
140
0.0
141
0.0
142
1.0
143
1.0
 70
  1712
 72
     0
 73
     0
 74
     0
  7

 75
     0
147
1.0
148
0.0
149
0.0
100
AcDbLayout
  1
Model
 70
     1
 71
     0
 10
0.0
 20
0.0
 11
840.0
 21
594.0
 12
0.0
 22
0.0
 32
0.0
 14
0.0
 24
0.0
 34
0.0
 15
840.0
 25
594.0
 35
0.0
146
0.0
 13
0.0
 23
0.0
 33
0.0
 16
1.0
 26
0.0
 36
0.0
 17
0.0
 27
1.0
 37
0.0
 76
     0
330
1F
331
29
  0
MLINESTYLE
  5
18
102
{ACAD_REACTORS
330
17
102
}
330
17
100
AcDbMlineStyle
  2
Standard
 70
     0
  3

 62
   256
 51
90.0
 52
90.0
 71
     2
 49
0.5
 62
   256
  6
BYLAYER
 49
-0.5
 62
   256
  6
BYLAYER
  0
ACDBPLACEHOLDER
  5
F
102
{ACAD_REACTORS
330
E
102
}
330
E
  0
ENDSEC
  0
EOF
