  0
SECTION
  2
HEADER
  9
$ACADVER
  1
AC1015
  9
$ACADMAINTVER
 70
     6
  9
$DWGCODEPAGE
  3
DOS932
  9
$INSBASE
 10
0.0
 20
0.0
 30
0.0
  9
$EXTMIN
 10
0.0
 20
0.0
 30
0.0
  9
$EXTMAX
 10
840.0
 20
594.0
 30
0.0
  9
$LIMMIN
 10
0.0
 20
0.0
  9
$LIMMAX
 10
840.0
 20
594.0
  9
$ORTHOMODE
 70
     0
  9
$REGENMODE
 70
     1
  9
$FILLMODE
 70
     1
  9
$QTEXTMODE
 70
     0
  9
$MIRRTEXT
 70
     1
  9
$LTSCALE
 40
2.0
  9
$ATTMODE
 70
     1
  9
$TEXTSIZE
 40
7.0
  9
$TRACEWID
 40
1.0
  9
$TEXTSTYLE
  7
Standard
  9
$CLAYER
  8
0
  9
$CELTYPE
  6
ByLayer
  9
$CECOLOR
 62
   256
  9
$CELTSCALE
 40
1.0
  9
$DISPSILH
 70
     0
  9
$DIMSCALE
 40
1.0
  9
$DIMASZ
 40
6.0
  9
$DIMEXO
 40
2.0
  9
$DIMDLI
 40
3.75
  9
$DIMRND
 40
0.0
  9
$DIMDLE
 40
0.0
  9
$DIMEXE
 40
2.0
  9
$DIMTP
 40
0.0
  9
$DIMTM
 40
0.0
  9
$DIMTXT
 40
7.0
  9
$DIMCEN
 40
2.5
  9
$DIMTSZ
 40
0.0
  9
$DIMTOL
 70
     0
  9
$DIMLIM
 70
     0
  9
$DIMTIH
 70
     1
  9
$DIMTOH
 70
     1
  9
$DIMSE1
 70
     0
  9
$DIMSE2
 70
     0
  9
$DIMTAD
 70
     1
  9
$DIMZIN
 70
     0
  9
$DIMBLK
  1

  9
$DIMASO
 70
     1
  9
$DIMSHO
 70
     1
  9
$DIMPOST
  1

  9
$DIMAPOST
  1

  9
$DIMALT
 70
     0
  9
$DIMALTD
 70
     3
  9
$DIMALTF
 40
0.0393700787
  9
$DIMLFAC
 40
1.0
  9
$DIMTOFL
 70
     1
  9
$DIMTVP
 40
0.0
  9
$DIMTIX
 70
     0
  9
$DIMSOXD
 70
     0
  9
$DIMSAH
 70
     0
  9
$DIMBLK1
  1

  9
$DIMBLK2
  1

  9
$DIMSTYLE
  2
ISO-25
  9
$DIMCLRD
 70
     0
  9
$DIMCLRE
 70
     0
  9
$DIMCLRT
 70
     0
  9
$DIMTFAC
 40
1.0
  9
$DIMGAP
 40
3.048
  9
$DIMJUST
 70
     0
  9
$DIMSD1
 70
     0
  9
$DIMSD2
 70
     0
  9
$DIMTOLJ
 70
     0
  9
$DIMTZIN
 70
     0
  9
$DIMALTZ
 70
     0
  9
$DIMALTTZ
 70
     0
  9
$DIMUPT
 70
     0
  9
$DIMDEC
 70
     1
  9
$DIMTDEC
 70
     1
  9
$DIMALTU
 70
     2
  9
$DIMALTTD
 70
     3
  9
$DIMTXSTY
  7
Standard
  9
$DIMAUNIT
 70
     0
  9
$DIMADEC
 70
     2
  9
$DIMALTRND
 40
0.0
  9
$DIMAZIN
 70
     0
  9
$DIMDSEP
 70
    44
  9
$DIMATFIT
 70
     3
  9
$DIMFRAC
 70
     0
  9
$DIMLDRBLK
  1

  9
$DIMLUNIT
 70
     2
  9
$DIMLWD
 70
    -2
  9
$DIMLWE
 70
    -2
  9
$DIMTMOVE
 70
     0
  9
$LUNITS
 70
     2
  9
$LUPREC
 70
     1
  9
$SKETCHINC
 40
1.0
  9
$FILLETRAD
 40
10.0
  9
$AUNITS
 70
     0
  9
$AUPREC
 70
     2
  9
$MENU
  1
.
  9
$ELEVATION
 40
0.0
  9
$PELEVATION
 40
0.0
  9
$THICKNESS
 40
0.0
  9
$LIMCHECK
 70
     0
  9
$CHAMFERA
 40
10.0
  9
$CHAMFERB
 40
10.0
  9
$CHAMFERC
 40
20.0
  9
$CHAMFERD
 40
0.0
  9
$SKPOLY
 70
     0
  9
$TDCREATE
 40
2460453.566341435
  9
$TDUCREATE
 40
2460453.191341435
  9
$TDUPDATE
 40
2460453.566341447
  9
$TDUUPDATE
 40
2460453.191341447
  9
$TDINDWG
 40
0.0000000116
  9
$TDUSRTIMER
 40
0.0000000116
  9
$USRTIMER
 70
     1
  9
$ANGBASE
 50
0.0
  9
$ANGDIR
 70
     0
  9
$PDMODE
 70
     0
  9
$PDSIZE
 40
-1.0
  9
$PLINEWID
 40
0.0
  9
$SPLFRAME
 70
     0
  9
$SPLINETYPE
 70
     6
  9
$SPLINESEGS
 70
     8
  9
$HANDSEED
  5
362
  9
$SURFTAB1
 70
     6
  9
$SURFTAB2
 70
     6
  9
$SURFTYPE
 70
     6
  9
$SURFU
 70
     6
  9
$SURFV
 70
     6
  9
$UCSBASE
  2

  9
$UCSNAME
  2

  9
$UCSORG
 10
0.0
 20
0.0
 30
0.0
  9
$UCSXDIR
 10
1.0
 20
0.0
 30
0.0
  9
$UCSYDIR
 10
0.0
 20
1.0
 30
0.0
  9
$UCSORTHOREF
  2

  9
$UCSORTHOVIEW
 70
     0
  9
$UCSORGTOP
 10
0.0
 20
0.0
 30
0.0
  9
$UCSORGBOTTOM
 10
0.0
 20
0.0
 30
0.0
  9
$UCSORGLEFT
 10
0.0
 20
0.0
 30
0.0
  9
$UCSORGRIGHT
 10
0.0
 20
0.0
 30
0.0
  9
$UCSORGFRONT
 10
0.0
 20
0.0
 30
0.0
  9
$UCSORGBACK
 10
0.0
 20
0.0
 30
0.0
  9
$PUCSBASE
  2

  9
$PUCSNAME
  2

  9
$PUCSORG
 10
0.0
 20
0.0
 30
0.0
  9
$PUCSXDIR
 10
1.0
 20
0.0
 30
0.0
  9
$PUCSYDIR
 10
0.0
 20
1.0
 30
0.0
  9
$PUCSORTHOREF
  2

  9
$PUCSORTHOVIEW
 70
     0
  9
$PUCSORGTOP
 10
0.0
 20
0.0
 30
0.0
  9
$PUCSORGBOTTOM
 10
0.0
 20
0.0
 30
0.0
  9
$PUCSORGLEFT
 10
0.0
 20
0.0
 30
0.0
  9
$PUCSORGRIGHT
 10
0.0
 20
0.0
 30
0.0
  9
$PUCSORGFRONT
 10
0.0
 20
0.0
 30
0.0
  9
$PUCSORGBACK
 10
0.0
 20
0.0
 30
0.0
  9
$USERI1
 70
     0
  9
$USERI2
 70
     0
  9
$USERI3
 70
     0
  9
$USERI4
 70
     0
  9
$USERI5
 70
     0
  9
$USERR1
 40
0.0
  9
$USERR2
 40
0.0
  9
$USERR3
 40
0.0
  9
$USERR4
 40
0.0
  9
$USERR5
 40
0.0
  9
$WORLDVIEW
 70
     1
  9
$SHADEDGE
 70
     3
  9
$SHADEDIF
 70
    70
  9
$TILEMODE
 70
     1
  9
$MAXACTVP
 70
    64
  9
$PINSBASE
 10
0.0
 20
0.0
 30
0.0
  9
$PLIMCHECK
 70
     0
  9
$PEXTMIN
 10
1.0000000000E+20
 20
1.0000000000E+20
 30
1.0000000000E+20
  9
$PEXTMAX
 10
-1.0000000000E+20
 20
-1.0000000000E+20
 30
-1.0000000000E+20
  9
$PLIMMIN
 10
0.0
 20
0.0
  9
$PLIMMAX
 10
420.0
 20
297.0
  9
$UNITMODE
 70
     0
  9
$VISRETAIN
 70
     1
  9
$PLINEGEN
 70
     0
  9
$PSLTSCALE
 70
     1
  9
$TREEDEPTH
 70
  3020
  9
$CMLSTYLE
  2
Standard
  9
$CMLJUST
 70
     0
  9
$CMLSCALE
 40
20.0
  9
$PROXYGRAPHICS
 70
     1
  9
$MEASUREMENT
 70
     1
  9
$CELWEIGHT
370
    -1
  9
$ENDCAPS
280
     0
  9
$JOINSTYLE
280
     0
  9
$LWDISPLAY
290
     1
  9
$INSUNITS
 70
     4
  9
$HYPERLINKBASE
  1

  9
$STYLESHEET
  1

  9
$XEDIT
290
     1
  9
$CEPSNTYPE
380
     0
  9
$PSTYLEMODE
290
     1
  9
$FINGERPRINTGUID
  2
{4584FBB8-379F-42E8-8B7E-AA2B48DE6570}
  9
$VERSIONGUID
  2
{FAEB1C32-E019-11D5-929B-00C0DF256EC4}
  9
$EXTNAMES
290
     1
  9
$PSVPSCALE
 40
0.0
  9
$OLESTARTUP
290
     0
  0
ENDSEC
  0
SECTION
  2
CLASSES
  0
CLASS
  1
ACDBDICTIONARYWDFLT
  2
AcDbDictionaryWithDefault
  3
ObjectDBX Classes
 90
        0
280
     0
281
     0
  0
CLASS
  1
VISUALSTYLE
  2
AcDbVisualStyle
  3
ObjectDBX Classes
 90
     4095
280
     0
281
     0
  0
CLASS
  1
MATERIAL
  2
AcDbMaterial
  3
ObjectDBX Classes
 90
     1153
280
     0
281
     0
  0
CLASS
  1
ACDBPLACEHOLDER
  2
AcDbPlaceHolder
  3
ObjectDBX Classes
 90
        0
280
     0
281
     0
  0
CLASS
  1
LAYOUT
  2
AcDbLayout
  3
ObjectDBX Classes
 90
        0
280
     0
281
     0
  0
ENDSEC
  0
SECTION
  2
TABLES
  0
TABLE
  2
VPORT
  5
8
330
0
100
AcDbSymbolTable
 70
     1
  0
VPORT
  5
29
330
8
100
AcDbSymbolTableRecord
100
AcDbViewportTableRecord
  2
*Active
 70
     0
 10
0.0
 20
0.0
 11
1.0
 21
1.0
 12
420.0
 22
297.0
 13
0.0
 23
0.0
 14
10.0
 24
10.0
 15
10.0
 25
10.0
 16
0.0
 26
0.0
 36
1.0
 17
0.0
 27
0.0
 37
0.0
 40
594.0
 41
1.4141414141
 42
50.0
 43
0.0
 44
0.0
 50
0.0
 51
0.0
 71
     0
 72
  2000
 73
     1
 74
     3
 75
     0
 76
     0
 77
     0
 78
     0
281
     0
 65
     1
110
0.0
120
0.0
130
0.0
111
1.0
121
0.0
131
0.0
112
0.0
122
1.0
132
0.0
 79
     0
146
0.0
  0
ENDTAB
  0
TABLE
  2
LTYPE
  5
5
330
0
100
AcDbSymbolTable
 70
     6
  0
LTYPE
  5
14
330
5
100
AcDbSymbolTableRecord
100
AcDbLinetypeTableRecord
  2
ByBlock
 70
     0
  3

 72
    65
 73
     0
 40
0.0
  0
LTYPE
  5
15
330
5
100
AcDbSymbolTableRecord
100
AcDbLinetypeTableRecord
  2
ByLayer
 70
     0
  3

 72
    65
 73
     0
 40
0.0
  0
LTYPE
  5
16
330
5
100
AcDbSymbolTableRecord
100
AcDbLinetypeTableRecord
  2
Continuous
 70
     0
  3
Solid line
 72
    65
 73
     0
 40
0.0
  0
LTYPE
  5
3F
330
5
100
AcDbSymbolTableRecord
100
AcDbLinetypeTableRecord
  2
HIDDEN
 70
     0
  3
Hidden __ __ __ __ __ __ __ __ __ __ __ __ __ __
 72
    65
 73
     2
 40
1.905
 49
1.27
 74
     0
 49
-0.635
 74
     0
  0
LTYPE
  5
40
330
5
100
AcDbSymbolTableRecord
100
AcDbLinetypeTableRecord
  2
PHANTOM
 70
     0
  3
Phantom ______  __  __  ______  __  __  ______
 72
    65
 73
     6
 40
12.7
 49
6.35
 74
     0
 49
-1.27
 74
     0
 49
1.27
 74
     0
 49
-1.27
 74
     0
 49
1.27
 74
     0
 49
-1.27
 74
     0
  0
LTYPE
  5
41
330
5
100
AcDbSymbolTableRecord
100
AcDbLinetypeTableRecord
  2
CENTER
 70
     0
  3
Center ____ _ ____ _ ____ _ ____ _ ____ _ ____
 72
    65
 73
     4
 40
10.16
 49
6.35
 74
     0
 49
-1.27
 74
     0
 49
1.27
 74
     0
 49
-1.27
 74
     0
  0
LTYPE
  5
42
330
5
100
AcDbSymbolTableRecord
100
AcDbLinetypeTableRecord
  2
CENTERX2
 70
     0
  3
Center (2x) ________  __  ________  __  _____
 72
    65
 73
     4
 40
20.32
 49
12.7
 74
     0
 49
-2.54
 74
     0
 49
2.54
 74
     0
 49
-2.54
 74
     0
  0
LTYPE
  5
43
330
5
100
AcDbSymbolTableRecord
100
AcDbLinetypeTableRecord
  2
DOT2
 70
     0
  3
Dot (.5x) ........................................
 72
    65
 73
     2
 40
0.635
 49
0.0
 74
     0
 49
-0.635
 74
     0
  0
ENDTAB
  0
TABLE
  2
LAYER
  5
2
330
0
100
AcDbSymbolTable
 70
     1
  0
LAYER
  5
10
330
2
100
AcDbSymbolTableRecord
100
AcDbLayerTableRecord
  2
0
 70
     0
 62
     7
  6
Continuous
370
    -3
390
F
  0
ENDTAB
  0
TABLE
  2
STYLE
  5
3
330
0
100
AcDbSymbolTable
 70
     2
  0
STYLE
  5
11
330
3
100
AcDbSymbolTableRecord
100
AcDbTextStyleTableRecord
  2
Standard
 70
     0
 40
0.0
 41
1.0
 50
0.0
 71
     0
 42
2.5
  3
txt
  4
bigfont
  0
STYLE
  5
44
330
3
100
AcDbSymbolTableRecord
100
AcDbTextStyleTableRecord
  2
SLDTEXTSTYLE0
 70
     0
 40
0.0
 41
0.7
 50
0.0
 71
     0
 42
0.2
  3
TXT
  4
bigfont
  0
ENDTAB
  0
TABLE
  2
VIEW
  5
6
330
0
100
AcDbSymbolTable
 70
     0
  0
ENDTAB
  0
TABLE
  2
UCS
  5
7
330
0
100
AcDbSymbolTable
 70
     0
  0
ENDTAB
  0
TABLE
  2
APPID
  5
9
330
0
100
AcDbSymbolTable
 70
     1
  0
APPID
  5
12
330
9
100
AcDbSymbolTableRecord
100
AcDbRegAppTableRecord
  2
ACAD
 70
     0
  0
ENDTAB
  0
TABLE
  2
DIMSTYLE
  5
A
330
0
100
AcDbSymbolTable
 70
     1
100
AcDbDimStyleTable
  0
DIMSTYLE
105
27
330
A
100
AcDbSymbolTableRecord
100
AcDbDimStyleTableRecord
  2
ISO-25
 70
     0
 41
2.5
 42
0.625
 43
3.75
 44
1.25
 73
     0
 74
     0
 77
     1
 78
     8
140
2.5
141
2.5
143
0.0393700787
147
0.625
171
     3
172
     1
178
     0
271
     2
272
     2
274
     3
278
    44
283
     0
284
     8
340
11
  0
ENDTAB
  0
TABLE
  2
BLOCK_RECORD
  5
1
330
0
100
AcDbSymbolTable
 70
     1
  0
BLOCK_RECORD
  5
1F
330
1
100
AcDbSymbolTableRecord
100
AcDbBlockTableRecord
  2
*Model_Space
340
22
  0
BLOCK_RECORD
  5
1B
330
1
100
AcDbSymbolTableRecord
100
AcDbBlockTableRecord
  2
*Paper_Space
340
1E
  0
BLOCK_RECORD
  5
23
330
1
100
AcDbSymbolTableRecord
100
AcDbBlockTableRecord
  2
*Paper_Space0
340
26
  0
ENDTAB
  0
ENDSEC
  0
SECTION
  2
BLOCKS
  0
BLOCK
  5
20
330
1F
100
AcDbEntity
  8
0
100
AcDbBlockBegin
  2
*Model_Space
 70
     0
 10
0.0
 20
0.0
 30
0.0
  3
*Model_Space
  1

  0
ENDBLK
  5
21
330
1F
100
AcDbEntity
  8
0
100
AcDbBlockEnd
  0
BLOCK
  5
1C
330
1B
100
AcDbEntity
 67
     1
  8
0
100
AcDbBlockBegin
  2
*Paper_Space
 70
     0
 10
0.0
 20
0.0
 30
0.0
  3
*Paper_Space
  1

  0
ENDBLK
  5
1D
330
1B
100
AcDbEntity
 67
     1
  8
0
100
AcDbBlockEnd
  0
BLOCK
  5
24
330
23
100
AcDbEntity
  8
0
100
AcDbBlockBegin
  2
*Paper_Space0
 70
     0
 10
0.0
 20
0.0
 30
0.0
  3
*Paper_Space0
  1

  0
ENDBLK
  5
25
330
23
100
AcDbEntity
  8
0
100
AcDbBlockEnd
  0
ENDSEC
  0
SECTION
  2
ENTITIES
  0
MTEXT
  5
45
330
1F
100
AcDbEntity
  8
0
  6
Continuous
 62
     7
370
     0
100
AcDbMText
 10
133.8612557447
 20
555.3821551102
 30
0.0
 40
7.0
 41
0.0
 71
     1
 72
     1
  1
CHB-517P
  7
SLDTEXTSTYLE0
 73
     1
 44
1.0
  0
LINE
  5
46
330
1F
100
AcDbEntity
  8
0
  6
Continuous
 62
     7
370
    15
100
AcDbLine
 10
298.8955710206
 20
85.5709457595
 30
0.0
 11
298.9955578122
 21
85.5709457595
 31
0.0
  0
LINE
  5
47
330
1F
100
AcDbEntity
  8
0
  6
Continuous
 62
     7
370
    15
100
AcDbLine
 10
298.9955578122
 20
91.5709430177
 30
0.0
 11
298.8955710206
 21
91.5709430177
 31
0.0
  0
LINE
  5
48
330
1F
100
AcDbEntity
  8
0
  6
Continuous
 62
     7
370
    15
100
AcDbLine
 10
298.8955710206
 20
75.5709403951
 30
0.0
 11
298.9955578122
 21
75.5709403951
 31
0.0
  0
LINE
  5
49
330
1F
100
AcDbEntity
  8
0
  6
Continuous
 62
     7
370
    15
100
AcDbLine
 10
298.9955578122
 20
81.5709376533
 30
0.0
 11
298.8955710206
 21
81.5709376533
 31
0.0
  0
LINE
  5
4A
330
1F
100
AcDbEntity
  8
0
  6
Continuous
 62
     7
370
    15
100
AcDbLine
 10
298.8955710206
 20
445.5709451635
 30
0.0
 11
298.9955578122
 21
445.5709451635
 31
0.0
  0
LINE
  5
4B
330
1F
100
AcDbEntity
  8
0
  6
Continuous
 62
     7
370
    15
100
AcDbLine
 10
298.9955578122
 20
451.5709424217
 30
0.0
 11
298.8955710206
 21
451.5709424217
 31
0.0
  0
LINE
  5
4C
330
1F
100
AcDbEntity
  8
0
  6
Continuous
 62
     7
370
    15
100
AcDbLine
 10
298.8955710206
 20
455.5709505279
 30
0.0
 11
298.9955578122
 21
455.5709505279
 31
0.0
  0
LINE
  5
4D
330
1F
100
AcDbEntity
  8
0
  6
Continuous
 62
     7
370
    15
100
AcDbLine
 10
298.9955578122
 20
461.5709477861
 30
0.0
 11
298.8955710206
 21
461.5709477861
 31
0.0
  0
LINE
  5
4E
330
1F
100
AcDbEntity
  8
0
  6
Continuous
 62
     7
370
    15
100
AcDbLine
 10
300.1955483231
 20
95.0709426601
 30
0.0
 11
298.9955578122
 21
95.0709426601
 31
0.0
  0
LINE
  5
4F
330
1F
100
AcDbEntity
  8
0
  6
Continuous
 62
     7
370
    15
100
AcDbLine
 10
300.1955483231
 20
465.0709474284
 30
0.0
 11
298.9955578122
 21
465.0709474284
 31
0.0
  0
LINE
  5
50
330
1F
100
AcDbEntity
  8
0
  6
Continuous
 62
     7
370
    15
100
AcDbLine
 10
298.9955578122
 20
72.0709407527
 30
0.0
 11
300.1955483231
 21
72.0709407527
 31
0.0
  0
LINE
  5
51
330
1F
100
AcDbEntity
  8
0
  6
Continuous
 62
     7
370
    15
100
AcDbLine
 10
298.9955578122
 20
442.0709455211
 30
0.0
 11
300.1955483231
 21
442.0709455211
 31
0.0
  0
LINE
  5
52
330
1F
100
AcDbEntity
  8
0
  6
Continuous
 62
     7
370
    15
100
AcDbLine
 10
911.6955731186
 20
74.5709383685
 30
0.0
 11
911.6955731186
 21
109.5709496934
 31
0.0
  0
LINE
  5
53
330
1F
100
AcDbEntity
  8
0
  6
Continuous
 62
     7
370
    15
100
AcDbLine
 10
911.6955731186
 20
427.5709384878
 30
0.0
 11
911.6955731186
 21
462.5709498126
 31
0.0
  0
SPLINE
  5
54
330
1F
100
AcDbEntity
  8
0
  6
Continuous
 62
     7
370
    15
100
AcDbSpline
210
0.0
220
0.0
230
1.0
 70
     8
 71
     3
 72
    11
 73
     7
 74
     0
 42
0.00000001
 43
0.00000001
 40
0.0
 40
0.0
 40
0.0
 40
0.0
 40
0.2262215555257281
 40
0.467943969805146
 40
0.7254849661367999
 40
1.0
 40
1.0
 40
1.0
 40
1.0
 10
296.5160641941606
 20
91.8013745744058
 30
0.0
 10
296.518882075069
 20
91.7784746080347
 30
0.0
 10
296.5247109200511
 20
91.73110555362615
 30
0.0
 10
296.5415258050156
 20
91.40632867397716
 30
0.0
 10
296.5551156508562
 20
90.90582946795078
 30
0.0
 10
296.5556395781776
 20
90.48200772597623
 30
0.0
 10
296.555909899193
 20
90.26333632062162
 30
0.0
  0
SPLINE
  5
55
330
1F
100
AcDbEntity
  8
0
  6
Continuous
 62
     7
370
    15
100
AcDbSpline
210
0.0
220
0.0
230
1.0
 70
     8
 71
     3
 72
    12
 73
     8
 74
     0
 42
0.00000001
 43
0.00000001
 40
0.0
 40
0.0
 40
0.0
 40
0.0
 40
0.2489469272997727
 40
0.4822949499668513
 40
0.6998133322848473
 40
0.9035365115921212
 40
1.0
 40
1.0
 40
1.0
 40
1.0
 10
296.5559098991929
 20
76.70471014569483
 30
0.0
 10
296.5544840276903
 20
76.56737421660084
 30
0.0
 10
296.5517216291643
 20
76.30130776713919
 30
0.0
 10
296.5408207574918
 20
75.96550724289366
 30
0.0
 10
296.5383102326093
 20
75.73231914538705
 30
0.0
 10
296.5430997625959
 20
75.6122388423163
 30
0.0
 10
296.5695299980647
 20
75.61088002317746
 30
0.0
 10
296.5780232224046
 20
75.61044337342466
 30
0.0
  0
LINE
  5
56
330
1F
100
AcDbEntity
  8
0
  6
Continuous
 62
     7
370
    15
100
AcDbLine
 10
296.5550754342
 20
90.3133446176
 30
0.0
 11
296.5550754342
 21
76.6547018487
 31
0.0
  0
LINE
  5
57
330
1F
100
AcDbEntity
  8
0
  6
Continuous
 62
     7
370
    15
100
AcDbLine
 10
295.0314615044
 20
94.2512297828
 30
0.0
 11
296.5188060078
 21
91.7710805137
 31
0.0
  0
LINE
  5
58
330
1F
100
AcDbEntity
  8
0
  6
Continuous
 62
     7
370
    15
100
AcDbLine
 10
298.9955578122
 20
93.4741938312
 30
0.0
 11
297.6042661938
 21
95.7941556175
 31
0.0
  0
LINE
  5
59
330
1F
100
AcDbEntity
  8
0
  6
Continuous
 62
     7
370
    15
100
AcDbLine
 10
296.5832982335
 20
75.4783594806
 30
0.0
 11
295.0142357621
 21
72.8619390924
 31
0.0
  0
LINE
  5
5A
330
1F
100
AcDbEntity
  8
0
  6
Continuous
 62
     7
370
    15
100
AcDbLine
 10
297.5870404515
 20
71.3190132577
 30
0.0
 11
298.9955578122
 21
73.6677044828
 31
0.0
  0
LINE
  5
5B
330
1F
100
AcDbEntity
  8
0
  6
Continuous
 62
     7
370
    15
100
AcDbLine
 10
297.6241741452
 20
95.7586461503
 30
0.0
 11
297.5342009339
 21
95.8724314172
 31
0.0
  0
SPLINE
  5
5C
330
1F
100
AcDbEntity
  8
0
  6
Continuous
 62
     7
370
    15
100
AcDbSpline
210
0.0
220
0.0
230
1.0
 70
     8
 71
     3
 72
    20
 73
    16
 74
     0
 42
0.00000001
 43
0.00000001
 40
0.0
 40
0.0
 40
0.0
 40
0.0
 40
0.0337801041482552
 40
0.1101061022749897
 40
0.1739293187443561
 40
0.2252732615980574
 40
0.2665377207234436
 40
0.3037722556792077
 40
0.3388598588238929
 40
0.3726408552321278
 40
0.4139174141649223
 40
0.6259829697301459
 40
0.8390273000564822
 40
0.9659476190534879
 40
0.9999999999999999
 40
0.9999999999999999
 40
0.9999999999999999
 40
0.9999999999999999
 10
297.4219057831346
 20
96.0144990880319
 30
0.0
 10
297.3812448869033
 20
96.07068247874636
 30
0.0
 10
297.2487108728166
 20
96.25381199596197
 30
0.0
 10
296.9388502460516
 20
96.43100352310408
 30
0.0
 10
296.5515753017871
 20
96.553945945656
 30
0.0
 10
296.1817326853823
 20
96.56874576050382
 30
0.0
 10
295.8474175966383
 20
96.51816830173044
 30
0.0
 10
295.5729400836702
 20
96.41709241146299
 30
0.0
 10
295.34542477945
 20
96.2823967927815
 30
0.0
 10
295.139384341877
 20
96.10621268189337
 30
0.0
 10
294.794897659636
 20
95.66371172480167
 30
0.0
 10
294.6137844113762
 20
94.97704835718731
 30
0.0
 10
294.4639773155715
 20
93.79621946452735
 30
0.0
 10
294.4088856858174
 20
92.89157392652334
 30
0.0
 10
294.4022976163864
 20
92.47698721699312
 30
0.0
 10
294.4009039673387
 20
92.38928498814786
 30
0.0
  0
SPLINE
  5
5D
330
1F
100
AcDbEntity
  8
0
  6
Continuous
 62
     7
370
    15
100
AcDbSpline
210
0.0
220
0.0
230
1.0
 70
     8
 71
     3
 72
    19
 73
    15
 74
     0
 42
0.00000001
 43
0.00000001
 40
0.0
 40
0.0
 40
0.0
 40
0.0
 40
0.0102731917439754
 40
0.1295972403015469
 40
0.3268127141214025
 40
0.5525081494245776
 40
0.5858541169709375
 40
0.6186015708813197
 40
0.652906731708035
 40
0.6960073058981332
 40
0.7523113367202262
 40
0.8223147693292134
 40
0.9054620519088806
 40
1.0
 40
1.0
 40
1.0
 40
1.0
 10
294.3980727467119
 20
74.77094175408567
 30
0.0
 10
294.3983959568252
 20
74.74374435013361
 30
0.0
 10
294.4024732815523
 20
74.40064664657753
 30
0.0
 10
294.4422321674006
 20
73.58065067633775
 30
0.0
 10
294.577254712655
 20
72.35821962714095
 30
0.0
 10
294.6675978392068
 20
71.71486586600584
 30
0.0
 10
295.0185362498003
 20
71.17476831054492
 30
0.0
 10
295.1877587318835
 20
70.98692747727875
 30
0.0
 10
295.4244575556843
 20
70.81042655127132
 30
0.0
 10
295.7380925820354
 20
70.65697520192862
 30
0.0
 10
296.1415672686621
 20
70.55518394549438
 30
0.0
 10
296.6274448058497
 20
70.5783451419016
 30
0.0
 10
297.1572058161
 20
70.78866701002812
 30
0.0
 10
297.4224189783385
 20
71.11048920734083
 30
0.0
 10
297.5635264191209
 20
71.28171565125669
 30
0.0
  0
LINE
  5
5E
330
1F
100
AcDbEntity
  8
0
  6
Continuous
 62
     7
370
    15
100
AcDbLine
 10
291.0907600197
 20
87.4709481199
 30
0.0
 11
291.0907600197
 21
78.8709366519
 31
0.0
  0
LINE
  5
5F
330
1F
100
AcDbEntity
  8
0
  6
Continuous
 62
     7
370
    15
100
AcDbLine
 10
291.6955683503
 20
76.3709390361
 30
0.0
 11
291.6955683503
 21
75.5711937148
 31
0.0
  0
LINE
  5
60
330
1F
100
AcDbEntity
  8
0
  6
Continuous
 62
     7
370
    15
100
AcDbLine
 10
291.6955683503
 20
91.570689698
 30
0.0
 11
291.6955683503
 21
90.7709443767
 31
0.0
  0
ARC
  5
61
330
1F
100
AcDbEntity
  8
0
  6
Continuous
 62
     7
370
    15
100
AcDbCircle
 10
295.295560244
 20
88.7638012335
 30
0.0
 40
3.807142857143205
100
AcDbArc
 50
77.9663271603
 51
90.0
  0
ARC
  5
62
330
1F
100
AcDbEntity
  8
0
  6
Continuous
 62
     7
370
    15
100
AcDbCircle
 10
295.295560244
 20
88.7638012335
 30
0.0
 40
3.807142857143245
100
AcDbArc
 50
90.0
 51
125.3002484399
  0
LINE
  5
63
330
1F
100
AcDbEntity
  8
0
  6
Continuous
 62
     7
370
    15
100
AcDbLine
 10
293.0955622468
 20
91.870948096
 30
0.0
 11
293.0955622468
 21
91.5709430177
 31
0.0
  0
LINE
  5
64
330
1F
100
AcDbEntity
  8
0
  6
Continuous
 62
     7
370
    15
100
AcDbLine
 10
293.1955490384
 20
75.1709485252
 30
0.0
 11
293.1955490384
 21
74.7709417541
 31
0.0
  0
ARC
  5
65
330
1F
100
AcDbEntity
  8
0
  6
Continuous
 62
     7
370
    15
100
AcDbCircle
 10
293.395560244
 20
75.5709440906
 30
0.0
 40
0.4000000000008868
100
AcDbArc
 50
270.0
 51
0.0
  0
LINE
  5
66
330
1F
100
AcDbEntity
  8
0
  6
Continuous
 62
     7
370
    15
100
AcDbLine
 10
293.795559195
 20
90.7709443767
 30
0.0
 11
293.795559195
 21
90.3209442098
 31
0.0
  0
LINE
  5
67
330
1F
100
AcDbEntity
  8
0
  6
Continuous
 62
     7
370
    15
100
AcDbLine
 10
293.795559195
 20
76.820939203
 30
0.0
 11
293.795559195
 21
76.3709390361
 31
0.0
  0
LINE
  5
68
330
1F
100
AcDbEntity
  8
0
  6
Continuous
 62
     7
370
    15
100
AcDbLine
 10
291.0907600197
 20
457.4709379871
 30
0.0
 11
291.0907600197
 21
448.8709414203
 31
0.0
  0
LINE
  5
69
330
1F
100
AcDbEntity
  8
0
  6
Continuous
 62
     7
370
    15
100
AcDbLine
 10
291.6955683503
 20
446.3709438045
 30
0.0
 11
291.6955683503
 21
445.5711984832
 31
0.0
  0
LINE
  5
6A
330
1F
100
AcDbEntity
  8
0
  6
Continuous
 62
     7
370
    15
100
AcDbLine
 10
291.6955683503
 20
461.5706944663
 30
0.0
 11
291.6955683503
 21
460.7709491451
 31
0.0
  0
LINE
  5
6B
330
1F
100
AcDbEntity
  8
0
  6
Continuous
 62
     7
370
    15
100
AcDbLine
 10
293.0955622468
 20
461.8709379632
 30
0.0
 11
293.0955622468
 21
461.5709477861
 31
0.0
  0
ARC
  5
6C
330
1F
100
AcDbEntity
  8
0
  6
Continuous
 62
     7
370
    15
100
AcDbCircle
 10
295.295560244
 20
458.7638012335
 30
0.0
 40
3.807142857143247
100
AcDbArc
 50
77.9663271603
 51
90.0
  0
ARC
  5
6D
330
1F
100
AcDbEntity
  8
0
  6
Continuous
 62
     7
370
    15
100
AcDbCircle
 10
295.295560244
 20
458.7638012335
 30
0.0
 40
3.807142857143256
100
AcDbArc
 50
90.0
 51
125.3002484399
  0
LINE
  5
6E
330
1F
100
AcDbEntity
  8
0
  6
Continuous
 62
     7
370
    15
100
AcDbLine
 10
293.1955490384
 20
445.1709383924
 30
0.0
 11
293.1955490384
 21
444.7709465225
 31
0.0
  0
ARC
  5
6F
330
1F
100
AcDbEntity
  8
0
  6
Continuous
 62
     7
370
    15
100
AcDbCircle
 10
293.395560244
 20
445.5709440906
 30
0.0
 40
0.4000000000008868
100
AcDbArc
 50
270.0
 51
0.0
  0
LINE
  5
70
330
1F
100
AcDbEntity
  8
0
  6
Continuous
 62
     7
370
    15
100
AcDbLine
 10
293.795559195
 20
460.7709491451
 30
0.0
 11
293.795559195
 21
460.3209489782
 31
0.0
  0
LINE
  5
71
330
1F
100
AcDbEntity
  8
0
  6
Continuous
 62
     7
370
    15
100
AcDbLine
 10
293.795559195
 20
446.8209439714
 30
0.0
 11
293.795559195
 21
446.3709438045
 31
0.0
  0
SPLINE
  5
72
330
1F
100
AcDbEntity
  8
0
  6
Continuous
 62
     7
370
    15
100
AcDbSpline
210
0.0
220
0.0
230
1.0
 70
     8
 71
     3
 72
    11
 73
     7
 74
     0
 42
0.00000001
 43
0.00000001
 40
0.0
 40
0.0
 40
0.0
 40
0.0
 40
0.2262215555257281
 40
0.467943969805146
 40
0.7254849661367999
 40
1.0
 40
1.0
 40
1.0
 40
1.0
 10
296.5160641941606
 20
461.8013793427774
 30
0.0
 10
296.518882075069
 20
461.7784793764063
 30
0.0
 10
296.5247109200511
 20
461.7311103219977
 30
0.0
 10
296.5415258050156
 20
461.4063334423486
 30
0.0
 10
296.5551156508562
 20
460.9058342363225
 30
0.0
 10
296.5556395781776
 20
460.4820124943478
 30
0.0
 10
296.555909899193
 20
460.2633410889932
 30
0.0
  0
SPLINE
  5
73
330
1F
100
AcDbEntity
  8
0
  6
Continuous
 62
     7
370
    15
100
AcDbSpline
210
0.0
220
0.0
230
1.0
 70
     8
 71
     3
 72
    12
 73
     8
 74
     0
 42
0.00000001
 43
0.00000001
 40
0.0
 40
0.0
 40
0.0
 40
0.0
 40
0.248946245326258
 40
0.4822936287519815
 40
0.699811415192867
 40
0.9035372363555159
 40
1.0
 40
1.0
 40
1.0
 40
1.0
 10
296.555909899193
 20
446.7047149140664
 30
0.0
 10
296.5544840321353
 20
446.5673792362446
 30
0.0
 10
296.5517216422208
 20
446.3013132735827
 30
0.0
 10
296.5408207104203
 20
445.9655093503669
 30
0.0
 10
296.5383103795275
 20
445.732331772764
 30
0.0
 10
296.5430993956779
 20
445.6122179342534
 30
0.0
 10
296.5695299981757
 20
445.610878542631
 30
0.0
 10
296.5780232224046
 20
445.6104481417962
 30
0.0
  0
LINE
  5
74
330
1F
100
AcDbEntity
  8
0
  6
Continuous
 62
     7
370
    15
100
AcDbLine
 10
296.5550754342
 20
460.3133344848
 30
0.0
 11
296.5550754342
 21
446.6547066171
 31
0.0
  0
LINE
  5
75
330
1F
100
AcDbEntity
  8
0
  6
Continuous
 62
     7
370
    15
100
AcDbLine
 10
295.0314615044
 20
464.2512345512
 30
0.0
 11
296.5188060078
 21
461.7710852821
 31
0.0
  0
LINE
  5
76
330
1F
100
AcDbEntity
  8
0
  6
Continuous
 62
     7
370
    15
100
AcDbLine
 10
298.9955578122
 20
463.4741836984
 30
0.0
 11
297.6042661938
 21
465.7941603858
 31
0.0
  0
LINE
  5
77
330
1F
100
AcDbEntity
  8
0
  6
Continuous
 62
     7
370
    15
100
AcDbLine
 10
296.5832982335
 20
445.478364249
 30
0.0
 11
295.0142357621
 21
442.8619438608
 31
0.0
  0
LINE
  5
78
330
1F
100
AcDbEntity
  8
0
  6
Continuous
 62
     7
370
    15
100
AcDbLine
 10
297.5870404515
 20
441.3190180261
 30
0.0
 11
298.9955578122
 21
443.66769435
 31
0.0
  0
LINE
  5
79
330
1F
100
AcDbEntity
  8
0
  6
Continuous
 62
     7
370
    15
100
AcDbLine
 10
297.6241741452
 20
465.7586509187
 30
0.0
 11
297.5342009339
 21
465.8724361856
 31
0.0
  0
SPLINE
  5
7A
330
1F
100
AcDbEntity
  8
0
  6
Continuous
 62
     7
370
    15
100
AcDbSpline
210
0.0
220
0.0
230
1.0
 70
     8
 71
     3
 72
    20
 73
    16
 74
     0
 42
0.00000001
 43
0.00000001
 40
0.0
 40
0.0
 40
0.0
 40
0.0
 40
0.0337800597585031
 40
0.1101059575867862
 40
0.1739290901873538
 40
0.2252729655710176
 40
0.2665376739920787
 40
0.3037715041999457
 40
0.3388590612367208
 40
0.3726400132540311
 40
0.4139165179461338
 40
0.625981794840297
 40
0.8390274072615947
 40
0.9659457435662699
 40
1.0
 40
1.0
 40
1.0
 40
1.0
 10
297.4219057831346
 20
466.0145038564035
 30
0.0
 10
297.3812448926381
 20
466.0706872189502
 30
0.0
 10
297.2487108972439
 20
466.2538166443532
 30
0.0
 10
296.9388500112724
 20
466.4310094446562
 30
0.0
 10
296.5515759490441
 20
466.5539475348539
 30
0.0
 10
296.1817302186727
 20
466.5687591488153
 30
0.0
 10
295.8474226409155
 20
466.5181487444152
 30
0.0
 10
295.5729368581776
 20
466.4171020027251
 30
0.0
 10
295.3454252308815
 20
466.2824001576711
 30
0.0
 10
295.1393841967492
 20
466.1062179019116
 30
0.0
 10
294.794897933485
 20
465.6637156354867
 30
0.0
 10
294.61378305112
 20
464.97705331005
 30
0.0
 10
294.4639789667716
 20
463.7962146365078
 30
0.0
 10
294.4088850262828
 20
462.8915695788195
 30
0.0
 10
294.4022975653436
 20
462.4769821294627
 30
0.0
 10
294.4009039673387
 20
462.3892748553582
 30
0.0
  0
SPLINE
  5
7B
330
1F
100
AcDbEntity
  8
0
  6
Continuous
 62
     7
370
    15
100
AcDbSpline
210
0.0
220
0.0
230
1.0
 70
     8
 71
     3
 72
    19
 73
    15
 74
     0
 42
0.00000001
 43
0.00000001
 40
0.0
 40
0.0
 40
0.0
 40
0.0
 40
0.0102731867005115
 40
0.1295971766777946
 40
0.3268125536777763
 40
0.5525090717845487
 40
0.5858537253918906
 40
0.6186024527172128
 40
0.6529064790361263
 40
0.6960070320666668
 40
0.7523114583191286
 40
0.8223148565610179
 40
0.905462098320818
 40
1.0
 40
1.0
 40
1.0
 40
1.0
 10
294.3980727467119
 20
444.7709465224572
 30
0.0
 10
294.3983959579625
 20
444.7437491204278
 30
0.0
 10
294.4024732970362
 20
444.4006514411257
 30
0.0
 10
294.4422308498577
 20
443.5806532173235
 30
0.0
 10
294.5772635334314
 20
442.3582361141954
 30
0.0
 10
294.6675751326372
 20
441.7148304339074
 30
0.0
 10
295.0185442719617
 20
441.1747741223519
 30
0.0
 10
295.1877490415444
 20
440.9869148504702
 30
0.0
 10
295.4244641016832
 20
440.8104348542354
 30
0.0
 10
295.7380927885091
 20
440.6569811812224
 30
0.0
 10
296.141565448627
 20
440.5551679382794
 30
0.0
 10
296.6274450996484
 20
440.578337050735
 30
0.0
 10
297.1572057248718
 20
440.788656243289
 30
0.0
 10
297.4224189466566
 20
441.1104788543926
 30
0.0
 10
297.5635264191209
 20
441.281705518467
 30
0.0
  0
LINE
  5
7C
330
1F
100
AcDbEntity
  8
0
  6
Continuous
 62
     7
370
    15
100
AcDbLine
 10
911.6955731186
 20
38.5709399183
 30
0.0
 11
911.6955731186
 21
73.5709512431
 31
0.0
  0
LINE
  5
7D
330
1F
100
AcDbEntity
  8
0
  6
Continuous
 62
     7
370
    15
100
AcDbLine
 10
911.6955731186
 20
463.570936938
 30
0.0
 11
911.6955731186
 21
498.5709482629
 31
0.0
  0
LINE
  5
7E
330
1F
100
AcDbEntity
  8
0
  6
Continuous
 62
     7
370
    15
100
AcDbLine
 10
908.6955521378
 20
73.5709512431
 30
0.0
 11
908.6955521378
 21
74.5709383685
 31
0.0
  0
LINE
  5
7F
330
1F
100
AcDbEntity
  8
0
  6
Continuous
 62
     7
370
    15
100
AcDbLine
 10
908.6955521378
 20
109.5709496934
 30
0.0
 11
908.6955521378
 21
110.5709368188
 31
0.0
  0
LINE
  5
80
330
1F
100
AcDbEntity
  8
0
  6
Continuous
 62
     7
370
    15
100
AcDbLine
 10
903.6955569062
 20
110.5709368188
 30
0.0
 11
903.6955569062
 21
109.5709496934
 31
0.0
  0
LINE
  5
81
330
1F
100
AcDbEntity
  8
0
  6
Continuous
 62
     7
370
    15
100
AcDbLine
 10
903.6955569062
 20
74.5709383685
 30
0.0
 11
903.6955569062
 21
73.5709512431
 31
0.0
  0
LINE
  5
82
330
1F
100
AcDbEntity
  8
0
  6
Continuous
 62
     7
370
    15
100
AcDbLine
 10
903.6955569062
 20
463.570936938
 30
0.0
 11
903.6955569062
 21
462.5709498126
 31
0.0
  0
LINE
  5
83
330
1F
100
AcDbEntity
  8
0
  6
Continuous
 62
     7
370
    15
100
AcDbLine
 10
903.6955569062
 20
427.5709384878
 30
0.0
 11
903.6955569062
 21
426.5709513624
 31
0.0
  0
LINE
  5
84
330
1F
100
AcDbEntity
  8
0
  6
Continuous
 62
     7
370
    15
100
AcDbLine
 10
908.6955521378
 20
426.5709513624
 30
0.0
 11
908.6955521378
 21
427.5709384878
 31
0.0
  0
LINE
  5
85
330
1F
100
AcDbEntity
  8
0
  6
Continuous
 62
     7
370
    15
100
AcDbLine
 10
908.6955521378
 20
462.5709498126
 30
0.0
 11
908.6955521378
 21
463.570936938
 31
0.0
  0
LINE
  5
86
330
1F
100
AcDbEntity
  8
0
  6
Continuous
 62
     7
370
    15
100
AcDbLine
 10
291.8955717358
 20
77.1137619216
 30
0.0
 11
291.8955717358
 21
76.820939203
 31
0.0
  0
LINE
  5
87
330
1F
100
AcDbEntity
  8
0
  6
Continuous
 62
     7
370
    15
100
AcDbLine
 10
291.8955717358
 20
90.3209442098
 30
0.0
 11
291.8955717358
 21
90.0281363923
 31
0.0
  0
LINE
  5
88
330
1F
100
AcDbEntity
  8
0
  6
Continuous
 62
     7
370
    15
100
AcDbLine
 10
291.8955717358
 20
447.1137517888
 30
0.0
 11
291.8955717358
 21
446.8209439714
 31
0.0
  0
LINE
  5
89
330
1F
100
AcDbEntity
  8
0
  6
Continuous
 62
     7
370
    15
100
AcDbLine
 10
291.8955717358
 20
460.3209489782
 30
0.0
 11
291.8955717358
 21
460.0281262595
 31
0.0
  0
LINE
  5
8A
330
1F
100
AcDbEntity
  8
0
  6
Continuous
 62
     7
370
    15
100
AcDbLine
 10
885.1955566678
 20
18.5709440906
 30
0.0
 11
315.1955638203
 21
18.5709440906
 31
0.0
  0
LINE
  5
8B
330
1F
100
AcDbEntity
  8
0
  6
Continuous
 62
     7
370
    15
100
AcDbLine
 10
315.1955638203
 20
18.5709440906
 30
0.0
 11
315.1955638203
 21
33.5709446866
 31
0.0
  0
LINE
  5
8C
330
1F
100
AcDbEntity
  8
0
  6
Continuous
 62
     7
370
    15
100
AcDbLine
 10
885.1955566678
 20
33.5709446866
 30
0.0
 11
315.1955638203
 21
33.5709446866
 31
0.0
  0
LINE
  5
8D
330
1F
100
AcDbEntity
  8
0
  6
Continuous
 62
     7
370
    15
100
AcDbLine
 10
885.1955566678
 20
33.5709446866
 30
0.0
 11
885.1955566678
 21
18.5709440906
 31
0.0
  0
LINE
  5
8E
330
1F
100
AcDbEntity
  8
0
  6
Continuous
 62
     7
370
    15
100
AcDbLine
 10
300.1955483231
 20
33.5709446866
 30
0.0
 11
315.1955638203
 21
33.5709446866
 31
0.0
  0
LINE
  5
8F
330
1F
100
AcDbEntity
  8
0
  6
Continuous
 62
     7
370
    15
100
AcDbLine
 10
300.1955483231
 20
33.5709446866
 30
0.0
 11
300.1955483231
 21
73.5834533174
 31
0.0
  0
LINE
  5
90
330
1F
100
AcDbEntity
  8
0
  6
Continuous
 62
     7
370
    15
100
AcDbLine
 10
300.1955483231
 20
93.5584300954
 30
0.0
 11
300.1955483231
 21
443.5834580858
 31
0.0
  0
LINE
  5
91
330
1F
100
AcDbEntity
  8
0
  6
Continuous
 62
     7
370
    15
100
AcDbLine
 10
300.1955483231
 20
463.5584348638
 30
0.0
 11
300.1955483231
 21
503.5709434945
 31
0.0
  0
LINE
  5
92
330
1F
100
AcDbEntity
  8
0
  6
Continuous
 62
     7
370
    15
100
AcDbLine
 10
300.1955483231
 20
503.5709434945
 30
0.0
 11
315.1955638203
 21
503.5709434945
 31
0.0
  0
LINE
  5
93
330
1F
100
AcDbEntity
  8
0
  6
Continuous
 62
     7
370
    15
100
AcDbLine
 10
315.1955638203
 20
33.5709446866
 30
0.0
 11
315.1955638203
 21
503.5709434945
 31
0.0
  0
ARC
  5
94
330
1F
100
AcDbEntity
  8
0
  6
Continuous
 62
     7
370
    15
100
AcDbCircle
 10
315.195560244
 20
33.5709440906
 30
0.0
 40
15.00000000000004
100
AcDbArc
 50
180.0
 51
270.0
  0
LINE
  5
95
330
1F
100
AcDbEntity
  8
0
  6
Continuous
 62
     7
370
    15
100
AcDbLine
 10
880.1955614361
 20
38.5709399183
 30
0.0
 11
880.1955614361
 21
498.5709482629
 31
0.0
  0
LINE
  5
96
330
1F
100
AcDbEntity
  8
0
  6
Continuous
 62
     7
370
    15
100
AcDbLine
 10
320.1955590519
 20
498.5709482629
 30
0.0
 11
880.1955614361
 21
498.5709482629
 31
0.0
  0
LINE
  5
97
330
1F
100
AcDbEntity
  8
0
  6
Continuous
 62
     7
370
    15
100
AcDbLine
 10
315.1955638203
 20
503.5709434945
 30
0.0
 11
885.1955566678
 21
503.5709434945
 31
0.0
  0
LINE
  5
98
330
1F
100
AcDbEntity
  8
0
  6
Continuous
 62
     7
370
    15
100
AcDbLine
 10
885.1955566678
 20
33.5709446866
 30
0.0
 11
885.1955566678
 21
503.5709434945
 31
0.0
  0
LINE
  5
99
330
1F
100
AcDbEntity
  8
0
  6
Continuous
 62
     7
370
    15
100
AcDbLine
 10
880.1955614361
 20
38.5709399183
 30
0.0
 11
320.1955590519
 21
38.5709399183
 31
0.0
  0
LINE
  5
9A
330
1F
100
AcDbEntity
  8
0
  6
Continuous
 62
     7
370
    15
100
AcDbLine
 10
320.1955590519
 20
38.5709399183
 30
0.0
 11
320.1955590519
 21
498.5709482629
 31
0.0
  0
LINE
  5
9B
330
1F
100
AcDbEntity
  8
0
  6
Continuous
 62
     7
370
    15
100
AcDbLine
 10
885.1955566678
 20
33.5709446866
 30
0.0
 11
900.195572165
 21
33.5709446866
 31
0.0
  0
ARC
  5
9C
330
1F
100
AcDbEntity
  8
0
  6
Continuous
 62
     7
370
    15
100
AcDbCircle
 10
885.195560244
 20
33.5709440906
 30
0.0
 40
15.00000000000004
100
AcDbArc
 50
270.0
 51
0.0
  0
LINE
  5
9D
330
1F
100
AcDbEntity
  8
0
  6
Continuous
 62
     7
370
    15
100
AcDbLine
 10
900.195572165
 20
503.5709434945
 30
0.0
 11
885.1955566678
 21
503.5709434945
 31
0.0
  0
LINE
  5
9E
330
1F
100
AcDbEntity
  8
0
  6
Continuous
 62
     7
370
    15
100
AcDbLine
 10
900.195572165
 20
33.5709446866
 30
0.0
 11
900.195572165
 21
503.5709434945
 31
0.0
  0
LINE
  5
9F
330
1F
100
AcDbEntity
  8
0
  6
Continuous
 62
     7
370
    15
100
AcDbLine
 10
315.1955638203
 20
503.5709434945
 30
0.0
 11
315.1955638203
 21
518.5709440906
 31
0.0
  0
LINE
  5
A0
330
1F
100
AcDbEntity
  8
0
  6
Continuous
 62
     7
370
    15
100
AcDbLine
 10
315.1955638203
 20
518.5709440906
 30
0.0
 11
885.1955566678
 21
518.5709440906
 31
0.0
  0
LINE
  5
A1
330
1F
100
AcDbEntity
  8
0
  6
Continuous
 62
     7
370
    15
100
AcDbLine
 10
885.1955566678
 20
518.5709440906
 30
0.0
 11
885.1955566678
 21
503.5709434945
 31
0.0
  0
ARC
  5
A2
330
1F
100
AcDbEntity
  8
0
  6
Continuous
 62
     7
370
    15
100
AcDbCircle
 10
315.195560244
 20
503.5709440906
 30
0.0
 40
15.00000000000006
100
AcDbArc
 50
90.0
 51
180.0
  0
ARC
  5
A3
330
1F
100
AcDbEntity
  8
0
  6
Continuous
 62
     7
370
    15
100
AcDbCircle
 10
885.195560244
 20
503.5709440906
 30
0.0
 40
15.0
100
AcDbArc
 50
0.0
 51
90.0
  0
LINE
  5
A4
330
1F
100
AcDbEntity
  8
0
  6
Continuous
 62
     7
370
    15
100
AcDbLine
 10
298.9955578122
 20
94.6054303844
 30
0.0
 11
300.1955483231
 21
94.6054303844
 31
0.0
  0
LINE
  5
A5
330
1F
100
AcDbEntity
  8
0
  6
Continuous
 62
     7
370
    15
100
AcDbLine
 10
298.9955578122
 20
72.5364679296
 30
0.0
 11
300.1955483231
 21
72.5364679296
 31
0.0
  0
LINE
  5
A6
330
1F
100
AcDbEntity
  8
0
  6
Continuous
 62
     7
370
    15
100
AcDbLine
 10
298.9955578122
 20
72.5364679296
 30
0.0
 11
298.9955578122
 21
94.6054303844
 31
0.0
  0
LINE
  5
A7
330
1F
100
AcDbEntity
  8
0
  6
Continuous
 62
     7
370
    15
100
AcDbLine
 10
300.1955483231
 20
93.5584300954
 30
0.0
 11
300.1955483231
 21
73.5834533174
 31
0.0
  0
LINE
  5
A8
330
1F
100
AcDbEntity
  8
0
  6
Continuous
 62
     7
370
    15
100
AcDbLine
 10
298.9955578122
 20
464.6054202516
 30
0.0
 11
300.1955483231
 21
464.6054202516
 31
0.0
  0
LINE
  5
A9
330
1F
100
AcDbEntity
  8
0
  6
Continuous
 62
     7
370
    15
100
AcDbLine
 10
298.9955578122
 20
442.5364577968
 30
0.0
 11
300.1955483231
 21
442.5364577968
 31
0.0
  0
LINE
  5
AA
330
1F
100
AcDbEntity
  8
0
  6
Continuous
 62
     7
370
    15
100
AcDbLine
 10
298.9955578122
 20
442.5364577968
 30
0.0
 11
298.9955578122
 21
464.6054202516
 31
0.0
  0
LINE
  5
AB
330
1F
100
AcDbEntity
  8
0
  6
Continuous
 62
     7
370
    15
100
AcDbLine
 10
300.1955483231
 20
463.5584348638
 30
0.0
 11
300.1955483231
 21
443.5834580858
 31
0.0
  0
LINE
  5
AC
330
1F
100
AcDbEntity
  8
0
  6
Continuous
 62
     7
370
    15
100
AcDbLine
 10
298.8955710206
 20
88.570936938
 30
0.0
 11
298.8955710206
 21
91.5709430177
 31
0.0
  0
LINE
  5
AD
330
1F
100
AcDbEntity
  8
0
  6
Continuous
 62
     7
370
    15
100
AcDbLine
 10
298.8955710206
 20
85.5709457595
 30
0.0
 11
298.8955710206
 21
88.570936938
 31
0.0
  0
LINE
  5
AE
330
1F
100
AcDbEntity
  8
0
  6
Continuous
 62
     7
370
    15
100
AcDbLine
 10
298.8955710206
 20
75.5709403951
 30
0.0
 11
298.8955710206
 21
81.5709376533
 31
0.0
  0
LINE
  5
AF
330
1F
100
AcDbEntity
  8
0
  6
Continuous
 62
     7
370
    15
100
AcDbLine
 10
298.8955710206
 20
445.5709451635
 30
0.0
 11
298.8955710206
 21
451.5709424217
 31
0.0
  0
LINE
  5
B0
330
1F
100
AcDbEntity
  8
0
  6
Continuous
 62
     7
370
    15
100
AcDbLine
 10
298.8955710206
 20
458.5709417064
 30
0.0
 11
298.8955710206
 21
461.5709477861
 31
0.0
  0
LINE
  5
B1
330
1F
100
AcDbEntity
  8
0
  6
Continuous
 62
     7
370
    15
100
AcDbLine
 10
298.8955710206
 20
455.5709505279
 30
0.0
 11
298.8955710206
 21
458.5709417064
 31
0.0
  0
LINE
  5
B2
330
1F
100
AcDbEntity
  8
0
  6
Continuous
 62
     7
370
    15
100
AcDbLine
 10
298.9955578122
 20
94.6054303844
 30
0.0
 11
298.9955578122
 21
95.0709426601
 31
0.0
  0
LINE
  5
B3
330
1F
100
AcDbEntity
  8
0
  6
Continuous
 62
     7
370
    15
100
AcDbLine
 10
298.9955578122
 20
464.6054202516
 30
0.0
 11
298.9955578122
 21
465.0709474284
 31
0.0
  0
LINE
  5
B4
330
1F
100
AcDbEntity
  8
0
  6
Continuous
 62
     7
370
    15
100
AcDbLine
 10
298.9955578122
 20
72.0709407527
 30
0.0
 11
298.9955578122
 21
72.5364679296
 31
0.0
  0
LINE
  5
B5
330
1F
100
AcDbEntity
  8
0
  6
Continuous
 62
     7
370
    15
100
AcDbLine
 10
298.9955578122
 20
442.0709455211
 30
0.0
 11
298.9955578122
 21
442.5364577968
 31
0.0
  0
LINE
  5
B6
330
1F
100
AcDbEntity
  8
0
  6
Continuous
 62
     7
370
    15
100
AcDbLine
 10
901.0969136033
 20
74.5709383685
 30
0.0
 11
911.6955731186
 21
74.5709383685
 31
0.0
  0
LINE
  5
B7
330
1F
100
AcDbEntity
  8
0
  6
Continuous
 62
     7
370
    15
100
AcDbLine
 10
901.0969136033
 20
109.5709496934
 30
0.0
 11
901.0969136033
 21
74.5709383685
 31
0.0
  0
LINE
  5
B8
330
1F
100
AcDbEntity
  8
0
  6
Continuous
 62
     7
370
    15
100
AcDbLine
 10
901.0969136033
 20
109.5709496934
 30
0.0
 11
911.6955731186
 21
109.5709496934
 31
0.0
  0
LINE
  5
B9
330
1F
100
AcDbEntity
  8
0
  6
Continuous
 62
     7
370
    15
100
AcDbLine
 10
901.0969136033
 20
462.5709498126
 30
0.0
 11
901.0969136033
 21
427.5709384878
 31
0.0
  0
LINE
  5
BA
330
1F
100
AcDbEntity
  8
0
  6
Continuous
 62
     7
370
    15
100
AcDbLine
 10
901.0969136033
 20
462.5709498126
 30
0.0
 11
911.6955731186
 21
462.5709498126
 31
0.0
  0
LINE
  5
BB
330
1F
100
AcDbEntity
  8
0
  6
Continuous
 62
     7
370
    15
100
AcDbLine
 10
901.0969136033
 20
427.5709384878
 30
0.0
 11
911.6955731186
 21
427.5709384878
 31
0.0
  0
LINE
  5
BC
330
1F
100
AcDbEntity
  8
0
  6
Continuous
 62
     7
370
    15
100
AcDbLine
 10
900.6333980832
 20
109.5709496934
 30
0.0
 11
900.6333980832
 21
74.5709383685
 31
0.0
  0
LINE
  5
BD
330
1F
100
AcDbEntity
  8
0
  6
Continuous
 62
     7
370
    15
100
AcDbLine
 10
900.6333980832
 20
109.5709496934
 30
0.0
 11
901.0969136033
 21
109.5709496934
 31
0.0
  0
LINE
  5
BE
330
1F
100
AcDbEntity
  8
0
  6
Continuous
 62
     7
370
    15
100
AcDbLine
 10
900.6333980832
 20
74.5709383685
 30
0.0
 11
901.0969136033
 21
74.5709383685
 31
0.0
  0
LINE
  5
BF
330
1F
100
AcDbEntity
  8
0
  6
Continuous
 62
     7
370
    15
100
AcDbLine
 10
900.6333980832
 20
462.5709498126
 30
0.0
 11
900.6333980832
 21
427.5709384878
 31
0.0
  0
LINE
  5
C0
330
1F
100
AcDbEntity
  8
0
  6
Continuous
 62
     7
370
    15
100
AcDbLine
 10
900.6333980832
 20
462.5709498126
 30
0.0
 11
901.0969136033
 21
462.5709498126
 31
0.0
  0
LINE
  5
C1
330
1F
100
AcDbEntity
  8
0
  6
Continuous
 62
     7
370
    15
100
AcDbLine
 10
900.6333980832
 20
427.5709384878
 30
0.0
 11
901.0969136033
 21
427.5709384878
 31
0.0
  0
LINE
  5
C2
330
1F
100
AcDbEntity
  8
0
  6
Continuous
 62
     7
370
    15
100
AcDbLine
 10
900.195572165
 20
109.5709496934
 30
0.0
 11
900.6333980832
 21
109.5709496934
 31
0.0
  0
LINE
  5
C3
330
1F
100
AcDbEntity
  8
0
  6
Continuous
 62
     7
370
    15
100
AcDbLine
 10
900.195572165
 20
74.5709383685
 30
0.0
 11
900.6333980832
 21
74.5709383685
 31
0.0
  0
LINE
  5
C4
330
1F
100
AcDbEntity
  8
0
  6
Continuous
 62
     7
370
    15
100
AcDbLine
 10
900.195572165
 20
462.5709498126
 30
0.0
 11
900.6333980832
 21
462.5709498126
 31
0.0
  0
LINE
  5
C5
330
1F
100
AcDbEntity
  8
0
  6
Continuous
 62
     7
370
    15
100
AcDbLine
 10
900.195572165
 20
427.5709384878
 30
0.0
 11
900.6333980832
 21
427.5709384878
 31
0.0
  0
LINE
  5
C6
330
1F
100
AcDbEntity
  8
0
  6
Continuous
 62
     7
370
    15
100
AcDbLine
 10
291.9260595116
 20
88.8709420163
 30
0.0
 11
291.1955747876
 21
88.8709420163
 31
0.0
  0
LINE
  5
C7
330
1F
100
AcDbEntity
  8
0
  6
Continuous
 62
     7
370
    15
100
AcDbLine
 10
291.9260595116
 20
88.8709420163
 30
0.0
 11
291.9260595116
 21
78.2709413965
 31
0.0
  0
LINE
  5
C8
330
1F
100
AcDbEntity
  8
0
  6
Continuous
 62
     7
370
    15
100
AcDbLine
 10
291.1955747876
 20
78.2709413965
 30
0.0
 11
291.9260595116
 21
78.2709413965
 31
0.0
  0
LINE
  5
C9
330
1F
100
AcDbEntity
  8
0
  6
Continuous
 62
     7
370
    15
100
AcDbLine
 10
291.1955747876
 20
88.8709420163
 30
0.0
 11
291.1955747876
 21
78.2709413965
 31
0.0
  0
ARC
  5
CA
330
1F
100
AcDbEntity
  8
0
  6
Continuous
 62
     7
370
    15
100
AcDbCircle
 10
293.0182455501
 20
88.982101893
 30
0.0
 40
1.097828247438481
100
AcDbArc
 50
97.334503787
 51
185.8114056244
  0
LINE
  5
CB
330
1F
100
AcDbEntity
  8
0
  6
Continuous
 62
     7
370
    15
100
AcDbLine
 10
292.8780947003
 20
90.0709474284
 30
0.0
 11
296.4215312275
 21
90.0709474284
 31
0.0
  0
LINE
  5
CC
330
1F
100
AcDbEntity
  8
0
  6
Continuous
 62
     7
370
    15
100
AcDbLine
 10
296.4215312275
 20
90.0709474284
 30
0.0
 11
296.4215312275
 21
77.0709508855
 31
0.0
  0
LINE
  5
CD
330
1F
100
AcDbEntity
  8
0
  6
Continuous
 62
     7
370
    15
100
AcDbLine
 10
296.4215312275
 20
77.0709508855
 30
0.0
 11
292.8780947003
 21
77.0709508855
 31
0.0
  0
ARC
  5
CE
330
1F
100
AcDbEntity
  8
0
  6
Continuous
 62
     7
370
    15
100
AcDbCircle
 10
293.0182281465
 20
78.1597812333
 30
0.0
 40
1.097810962296579
100
AcDbArc
 50
174.1884875252
 51
262.6662958986
  0
LINE
  5
CF
330
1F
100
AcDbEntity
  8
0
  6
Continuous
 62
     7
370
    15
100
AcDbLine
 10
292.8780947003
 20
77.0709508855
 30
0.0
 11
292.1475801739
 21
77.0709508855
 31
0.0
  0
ARC
  5
D0
330
1F
100
AcDbEntity
  8
0
  6
Continuous
 62
     7
370
    15
100
AcDbCircle
 10
292.2876783885
 20
78.1597261583
 30
0.0
 40
1.097751840989428
100
AcDbArc
 50
174.1852840308
 51
262.6677527935
  0
LINE
  5
D1
330
1F
100
AcDbEntity
  8
0
  6
Continuous
 62
     7
370
    15
100
AcDbLine
 10
292.1475801739
 20
90.0709474284
 30
0.0
 11
292.8780947003
 21
90.0709474284
 31
0.0
  0
ARC
  5
D2
330
1F
100
AcDbEntity
  8
0
  6
Continuous
 62
     7
370
    15
100
AcDbCircle
 10
292.2876957905
 20
88.9821569689
 30
0.0
 40
1.09776912450168
100
AcDbArc
 50
97.3330468807
 51
185.8146091252
  0
LINE
  5
D3
330
1F
100
AcDbEntity
  8
0
  6
Continuous
 62
     7
370
    15
100
AcDbLine
 10
292.8780947003
 20
447.0709407527
 30
0.0
 11
292.1475801739
 21
447.0709407527
 31
0.0
  0
ARC
  5
D4
330
1F
100
AcDbEntity
  8
0
  6
Continuous
 62
     7
370
    15
100
AcDbCircle
 10
292.2876957905
 20
448.1597312122
 30
0.0
 40
1.09776912450168
100
AcDbArc
 50
174.1853908748
 51
262.6669531193
  0
LINE
  5
D5
330
1F
100
AcDbEntity
  8
0
  6
Continuous
 62
     7
370
    15
100
AcDbLine
 10
291.1955747876
 20
448.2709461648
 30
0.0
 11
291.9260595116
 21
448.2709461648
 31
0.0
  0
ARC
  5
D6
330
1F
100
AcDbEntity
  8
0
  6
Continuous
 62
     7
370
    15
100
AcDbCircle
 10
293.0182455501
 20
448.1597862882
 30
0.0
 40
1.097828247438453
100
AcDbArc
 50
174.1885943756
 51
262.665496213
  0
LINE
  5
D7
330
1F
100
AcDbEntity
  8
0
  6
Continuous
 62
     7
370
    15
100
AcDbLine
 10
292.1475801739
 20
460.0709372957
 30
0.0
 11
292.8780947003
 21
460.0709372957
 31
0.0
  0
ARC
  5
D8
330
1F
100
AcDbEntity
  8
0
  6
Continuous
 62
     7
370
    15
100
AcDbCircle
 10
293.0182281465
 20
458.9821069479
 30
0.0
 40
1.097810962296555
100
AcDbArc
 50
97.3337041014
 51
185.8115124748
  0
LINE
  5
D9
330
1F
100
AcDbEntity
  8
0
  6
Continuous
 62
     7
370
    15
100
AcDbLine
 10
291.9260595116
 20
458.8709467847
 30
0.0
 11
291.1955747876
 21
458.8709467847
 31
0.0
  0
ARC
  5
DA
330
1F
100
AcDbEntity
  8
0
  6
Continuous
 62
     7
370
    15
100
AcDbCircle
 10
292.2876783885
 20
458.9821620229
 30
0.0
 40
1.097751840989475
100
AcDbArc
 50
97.3322472065
 51
185.8147159692
  0
LINE
  5
DB
330
1F
100
AcDbEntity
  8
0
  6
Continuous
 62
     7
370
    15
100
AcDbLine
 10
291.9260595116
 20
458.8709467847
 30
0.0
 11
291.9260595116
 21
448.2709461648
 31
0.0
  0
LINE
  5
DC
330
1F
100
AcDbEntity
  8
0
  6
Continuous
 62
     7
370
    15
100
AcDbLine
 10
291.1955747876
 20
458.8709467847
 30
0.0
 11
291.1955747876
 21
448.2709461648
 31
0.0
  0
LINE
  5
DD
330
1F
100
AcDbEntity
  8
0
  6
Continuous
 62
     7
370
    15
100
AcDbLine
 10
292.8780947003
 20
460.0709372957
 30
0.0
 11
296.4215312275
 21
460.0709372957
 31
0.0
  0
LINE
  5
DE
330
1F
100
AcDbEntity
  8
0
  6
Continuous
 62
     7
370
    15
100
AcDbLine
 10
296.4215312275
 20
460.0709372957
 30
0.0
 11
296.4215312275
 21
447.0709407527
 31
0.0
  0
LINE
  5
DF
330
1F
100
AcDbEntity
  8
0
  6
Continuous
 62
     7
370
    15
100
AcDbLine
 10
296.4215312275
 20
447.0709407527
 30
0.0
 11
292.8780947003
 21
447.0709407527
 31
0.0
  0
LINE
  5
E0
330
1F
100
AcDbEntity
  8
0
  6
Continuous
 62
     7
370
    15
100
AcDbLine
 10
296.5214882168
 20
90.0709474284
 30
0.0
 11
296.4215312275
 21
90.0709474284
 31
0.0
  0
LINE
  5
E1
330
1F
100
AcDbEntity
  8
0
  6
Continuous
 62
     7
370
    15
100
AcDbLine
 10
296.4215312275
 20
77.0709508855
 30
0.0
 11
296.5550754342
 21
77.0709508855
 31
0.0
  0
LINE
  5
E2
330
1F
100
AcDbEntity
  8
0
  6
Continuous
 62
     7
370
    15
100
AcDbLine
 10
296.5030703816
 20
460.0709372957
 30
0.0
 11
296.4215312275
 21
460.0709372957
 31
0.0
  0
LINE
  5
E3
330
1F
100
AcDbEntity
  8
0
  6
Continuous
 62
     7
370
    15
100
AcDbLine
 10
296.4215312275
 20
447.0709407527
 30
0.0
 11
296.5550754342
 21
447.0709407527
 31
0.0
  0
SPLINE
  5
E4
330
1F
100
AcDbEntity
  8
0
  6
Continuous
 62
     7
370
    15
100
AcDbSpline
210
0.0
220
0.0
230
1.0
 70
    24
 71
     3
 72
    12
 73
     8
 74
     0
 42
0.00000001
 43
0.00000001
 40
0.0
 40
0.0
 40
0.0
 40
0.0
 40
0.2185057815962484
 40
0.4370129915963154
 40
0.6555162179206331
 40
0.8740236704134351
 40
1.0
 40
1.0
 40
1.0
 40
1.0
 10
298.3548972878038
 20
90.26333632062162
 30
0.0
 10
298.1581772852935
 20
90.26333632062162
 30
0.0
 10
297.7647359942857
 20
90.26333632062162
 30
0.0
 10
297.2039890497335
 20
90.26333632062163
 30
0.0
 10
296.7863230614992
 20
90.26333632062163
 30
0.0
 10
296.5597702349448
 20
90.26333632062163
 30
0.0
 10
296.5772817670152
 20
90.26333632062162
 30
0.0
 10
296.5836856636583
 20
90.26333632062162
 30
0.0
  0
SPLINE
  5
E5
330
1F
100
AcDbEntity
  8
0
  6
Continuous
 62
     7
370
    15
100
AcDbSpline
210
0.0
220
0.0
230
1.0
 70
    24
 71
     3
 72
     9
 73
     5
 74
     0
 42
0.00000001
 43
0.00000001
 40
0.0
 40
0.0
 40
0.0
 40
0.0
 40
0.002514049757833
 40
1.0
 40
1.0
 40
1.0
 40
1.0
 10
298.8955710205614
 20
90.26333632062162
 30
0.0
 10
298.8952234596243
 20
90.26333632062162
 30
0.0
 10
298.7569760219848
 20
90.26333632061453
 30
0.0
 10
298.5556836253438
 20
90.26333632061808
 30
0.0
 10
298.3548972878038
 20
90.26333632062162
 30
0.0
  0
SPLINE
  5
E6
330
1F
100
AcDbEntity
  8
0
  6
Continuous
 62
     7
370
    15
100
AcDbSpline
210
0.0
220
0.0
230
1.0
 70
     8
 71
     3
 72
    13
 73
     9
 74
     0
 42
0.00000001
 43
0.00000001
 40
0.0
 40
0.0
 40
0.0
 40
0.0
 40
0.1877294643297671
 40
0.3754697565488462
 40
0.5632077318877364
 40
0.7509460546053167
 40
0.9386833012926509
 40
0.9999999999999999
 40
0.9999999999999999
 40
0.9999999999999999
 40
0.9999999999999999
 10
298.0616126331865
 20
93.87817921231473
 30
0.0
 10
297.8649271696028
 20
93.87547313127604
 30
0.0
 10
297.4715448979807
 20
93.87006081311691
 30
0.0
 10
296.9385147534381
 20
93.57955991121189
 30
0.0
 10
296.5479862867086
 20
93.12464464821387
 30
0.0
 10
296.3750522669651
 20
92.56296467847588
 30
0.0
 10
296.3783061377055
 20
92.08975461345881
 30
0.0
 10
296.5056607234562
 20
91.86833115843297
 30
0.0
 10
296.5370152267992
 20
91.81381704400266
 30
0.0
  0
SPLINE
  5
E7
330
1F
100
AcDbEntity
  8
0
  6
Continuous
 62
     7
370
    15
100
AcDbSpline
210
0.0
220
0.0
230
1.0
 70
     8
 71
     3
 72
    10
 73
     6
 74
     0
 42
0.00000001
 43
0.00000001
 40
0.0
 40
0.0
 40
0.0
 40
0.0
 40
0.2093477129028555
 40
0.6046642924802784
 40
1.0
 40
1.0
 40
1.0
 40
1.0
 10
299.1988096508562
 20
93.07205619404996
 30
0.0
 10
299.1571025315985
 20
93.16512475880737
 30
0.0
 10
299.0366388044931
 20
93.43393704761091
 30
0.0
 10
298.6299253073282
 20
93.75058937769847
 30
0.0
 10
298.2510532465351
 20
93.835648581508
 30
0.0
 10
298.0616126331865
 20
93.87817921231473
 30
0.0
  0
SPLINE
  5
E8
330
1F
100
AcDbEntity
  8
0
  6
Continuous
 62
     7
370
    15
100
AcDbSpline
210
0.0
220
0.0
230
1.0
 70
     8
 71
     3
 72
    13
 73
     9
 74
     0
 42
0.00000001
 43
0.00000001
 40
0.0
 40
0.0
 40
0.0
 40
0.0
 40
0.1768571588297971
 40
0.3537266023025458
 40
0.5305917792284776
 40
0.7074530366646451
 40
0.8843175271386954
 40
1.0
 40
1.0
 40
1.0
 40
1.0
 10
298.0443868908464
 20
73.23498966286863
 30
0.0
 10
297.8477253011042
 20
73.23768506894818
 30
0.0
 10
297.454388461345
 20
73.24307606833233
 30
0.0
 10
296.9209984231896
 20
73.53373991191093
 30
0.0
 10
296.531867269841
 20
73.98810910796708
 30
0.0
 10
296.3537062005369
 20
74.55179734139938
 30
0.0
 10
296.3746623383233
 20
75.08495491274084
 30
0.0
 10
296.5407702359206
 20
75.35821773518572
 30
0.0
 10
296.6064546379625
 20
75.46627463887418
 30
0.0
  0
SPLINE
  5
E9
330
1F
100
AcDbEntity
  8
0
  6
Continuous
 62
     7
370
    15
100
AcDbSpline
210
0.0
220
0.0
230
1.0
 70
     8
 71
     3
 72
    10
 73
     6
 74
     0
 42
0.00000001
 43
0.00000001
 40
0.0
 40
0.0
 40
0.0
 40
0.0
 40
0.0588225494660017
 40
0.5293998899635767
 40
1.0
 40
1.0
 40
1.0
 40
1.0
 10
299.0745041641771
 20
73.83489551137174
 30
0.0
 10
299.0638696711931
 20
73.81341451628407
 30
0.0
 10
298.9681597866906
 20
73.62008667621284
 30
0.0
 10
298.607272301797
 20
73.36592474463993
 30
0.0
 10
298.2320183872872
 20
73.27863539404483
 30
0.0
 10
298.0443868908464
 20
73.23498966286863
 30
0.0
  0
SPLINE
  5
EA
330
1F
100
AcDbEntity
  8
0
  6
Continuous
 62
     7
370
    15
100
AcDbSpline
210
0.0
220
0.0
230
1.0
 70
    24
 71
     3
 72
    12
 73
     8
 74
     0
 42
0.00000001
 43
0.00000001
 40
0.0
 40
0.0
 40
0.0
 40
0.0
 40
0.2193551470434282
 40
0.4387117280430993
 40
0.6580643098818634
 40
0.8774211343168761
 40
1.0
 40
1.0
 40
1.0
 40
1.0
 10
298.3548972878038
 20
76.70471014569486
 30
0.0
 10
298.1581819666927
 20
76.70471014569483
 30
0.0
 10
297.7647500385141
 20
76.70471014569483
 30
0.0
 10
297.2039328728176
 20
76.70471014569486
 30
0.0
 10
296.7865337223193
 20
76.70471014569483
 30
0.0
 10
296.5606885756993
 20
76.7047101456949
 30
0.0
 10
296.5776609310299
 20
76.70471014569486
 30
0.0
 10
296.5837452683031
 20
76.70471014569486
 30
0.0
  0
SPLINE
  5
EB
330
1F
100
AcDbEntity
  8
0
  6
Continuous
 62
     7
370
    15
100
AcDbSpline
210
0.0
220
0.0
230
1.0
 70
    24
 71
     3
 72
     9
 73
     5
 74
     0
 42
0.00000001
 43
0.00000001
 40
0.0
 40
0.0
 40
0.0
 40
0.0
 40
0.002514049757833
 40
1.0
 40
1.0
 40
1.0
 40
1.0
 10
298.8955710205614
 20
76.70471014569486
 30
0.0
 10
298.8952234596243
 20
76.70471014569486
 30
0.0
 10
298.7569760219848
 20
76.70471014568686
 30
0.0
 10
298.5556836253438
 20
76.70471014569085
 30
0.0
 10
298.3548972878038
 20
76.70471014569486
 30
0.0
  0
SPLINE
  5
EC
330
1F
100
AcDbEntity
  8
0
  6
Continuous
 62
     7
370
    15
100
AcDbSpline
210
0.0
220
0.0
230
1.0
 70
     8
 71
     3
 72
    13
 73
     9
 74
     0
 42
0.00000001
 43
0.00000001
 40
0.0
 40
0.0
 40
0.0
 40
0.0
 40
0.1768666446852921
 40
0.3537286573976354
 40
0.5305943864519905
 40
0.7074561960043457
 40
0.8843212386046765
 40
1.0
 40
1.0
 40
1.0
 40
1.0
 10
296.4925501617967
 20
96.49459960053647
 30
0.0
 10
296.2958775462384
 20
96.4919073777061
 30
0.0
 10
295.9025374657944
 20
96.48652300255218
 30
0.0
 10
295.3691572797124
 20
96.19583908553322
 30
0.0
 10
294.980030892721
 20
95.74148144666228
 30
0.0
 10
294.8018666237556
 20
95.17779018700249
 30
0.0
 10
294.8228348653016
 20
94.64464377375204
 30
0.0
 10
294.9889157744498
 20
94.37137255029396
 30
0.0
 10
295.0545881065904
 20
94.26331462453092
 30
0.0
  0
SPLINE
  5
ED
330
1F
100
AcDbEntity
  8
0
  6
Continuous
 62
     7
370
    15
100
AcDbSpline
210
0.0
220
0.0
230
1.0
 70
     8
 71
     3
 72
    10
 73
     6
 74
     0
 42
0.00000001
 43
0.00000001
 40
0.0
 40
0.0
 40
0.0
 40
0.0
 40
0.1474527595633529
 40
0.5737379607484987
 40
1.0
 40
1.0
 40
1.0
 40
1.0
 10
297.5811395916521
 20
95.78207077573026
 30
0.0
 10
297.5530828040701
 20
95.84236299497867
 30
0.0
 10
297.4439139818645
 20
96.07695972292754
 30
0.0
 10
297.058830926285
 20
96.36575360607335
 30
0.0
 10
296.6813069977797
 20
96.45165171360631
 30
0.0
 10
296.4925501617967
 20
96.49459960053647
 30
0.0
  0
SPLINE
  5
EE
330
1F
100
AcDbEntity
  8
0
  6
Continuous
 62
     7
370
    15
100
AcDbSpline
210
0.0
220
0.0
230
1.0
 70
     8
 71
     3
 72
    13
 73
     9
 74
     0
 42
0.00000001
 43
0.00000001
 40
0.0
 40
0.0
 40
0.0
 40
0.0
 40
0.1768666084924337
 40
0.3537285850128666
 40
0.5305942778745507
 40
0.7074554758623305
 40
0.8843212622764379
 40
0.9999999999999999
 40
0.9999999999999999
 40
0.9999999999999999
 40
0.9999999999999999
 10
296.4753244194566
 20
70.61856927464689
 30
0.0
 10
296.2786518060071
 20
70.62126147637099
 30
0.0
 10
295.8853117297808
 20
70.62664580931283
 30
0.0
 10
295.3519315120668
 20
70.91733004291805
 30
0.0
 10
294.9628056672477
 20
71.37168598604671
 30
0.0
 10
294.7846405372422
 20
71.93538178077058
 30
0.0
 10
294.8056087633234
 20
72.46852371780302
 30
0.0
 10
294.9716900556811
 20
72.74179613927889
 30
0.0
 10
295.0373623642503
 20
72.84985425065244
 30
0.0
  0
SPLINE
  5
EF
330
1F
100
AcDbEntity
  8
0
  6
Continuous
 62
     7
370
    15
100
AcDbSpline
210
0.0
220
0.0
230
1.0
 70
     8
 71
     3
 72
    10
 73
     6
 74
     0
 42
0.00000001
 43
0.00000001
 40
0.0
 40
0.0
 40
0.0
 40
0.0
 40
0.1474548300881962
 40
0.5737380079964546
 40
1.0
 40
1.0
 40
1.0
 40
1.0
 10
297.563913849312
 20
71.3310980994531
 30
0.0
 10
297.5358572332769
 20
71.27080598938768
 30
0.0
 10
297.4266906024826
 20
71.03621296109463
 30
0.0
 10
297.0416032568729
 20
70.7474135539535
 30
0.0
 10
296.664080904762
 20
70.66151665623119
 30
0.0
 10
296.4753244194566
 20
70.61856927464689
 30
0.0
  0
LINE
  5
F0
330
1F
100
AcDbEntity
  8
0
  6
Continuous
 62
     7
370
    15
100
AcDbLine
 10
291.1955747876
 20
78.8709366519
 30
0.0
 11
291.0907600197
 21
78.8709366519
 31
0.0
  0
LINE
  5
F1
330
1F
100
AcDbEntity
  8
0
  6
Continuous
 62
     7
370
    15
100
AcDbLine
 10
291.1955747876
 20
87.4709481199
 30
0.0
 11
291.0907600197
 21
87.4709481199
 31
0.0
  0
LINE
  5
F2
330
1F
100
AcDbEntity
  8
0
  6
Continuous
 62
     7
370
    15
100
AcDbLine
 10
296.5214882168
 20
76.3709390361
 30
0.0
 11
291.6955683503
 21
76.3709390361
 31
0.0
  0
LINE
  5
F3
330
1F
100
AcDbEntity
  8
0
  6
Continuous
 62
     7
370
    15
100
AcDbLine
 10
296.577427176
 20
75.5709403951
 30
0.0
 11
291.6961643967
 21
75.5709403951
 31
0.0
  0
LINE
  5
F4
330
1F
100
AcDbEntity
  8
0
  6
Continuous
 62
     7
370
    15
100
AcDbLine
 10
296.6256175313
 20
91.5709430177
 30
0.0
 11
291.6961643967
 21
91.5709430177
 31
0.0
  0
LINE
  5
F5
330
1F
100
AcDbEntity
  8
0
  6
Continuous
 62
     7
370
    15
100
AcDbLine
 10
296.5214882168
 20
90.7709443767
 30
0.0
 11
291.6955683503
 21
90.7709443767
 31
0.0
  0
LINE
  5
F6
330
1F
100
AcDbEntity
  8
0
  6
Continuous
 62
     7
370
    15
100
AcDbLine
 10
295.2955696854
 20
91.870948096
 30
0.0
 11
296.4589331421
 21
91.870948096
 31
0.0
  0
LINE
  5
F7
330
1F
100
AcDbEntity
  8
0
  6
Continuous
 62
     7
370
    15
100
AcDbLine
 10
293.0955622468
 20
91.870948096
 30
0.0
 11
295.2955696854
 21
91.870948096
 31
0.0
  0
LINE
  5
F8
330
1F
100
AcDbEntity
  8
0
  6
Continuous
 62
     7
370
    15
100
AcDbLine
 10
295.2955696854
 20
74.7709417541
 30
0.0
 11
296.1590621743
 21
74.7709417541
 31
0.0
  0
LINE
  5
F9
330
1F
100
AcDbEntity
  8
0
  6
Continuous
 62
     7
370
    15
100
AcDbLine
 10
293.1955490384
 20
74.7709417541
 30
0.0
 11
295.2955696854
 21
74.7709417541
 31
0.0
  0
LINE
  5
FA
330
1F
100
AcDbEntity
  8
0
  6
Continuous
 62
     7
370
    15
100
AcDbLine
 10
295.2955696854
 20
75.1709485252
 30
0.0
 11
296.3989410672
 21
75.1709485252
 31
0.0
  0
LINE
  5
FB
330
1F
100
AcDbEntity
  8
0
  6
Continuous
 62
     7
370
    15
100
AcDbLine
 10
293.1955490384
 20
75.1709485252
 30
0.0
 11
295.2955696854
 21
75.1709485252
 31
0.0
  0
ARC
  5
FC
330
1F
100
AcDbEntity
  8
0
  6
Continuous
 62
     7
370
    15
100
AcDbCircle
 10
292.1610788748
 20
76.368588321
 30
0.0
 40
0.8024888267358627
100
AcDbArc
 50
179.8321643308
 51
234.5435844458
  0
ARC
  5
FD
330
1F
100
AcDbEntity
  8
0
  6
Continuous
 62
     7
370
    15
100
AcDbCircle
 10
292.1610907222
 20
90.773303854
 30
0.0
 40
0.8025006998318122
100
AcDbArc
 50
125.4568503071
 51
180.1684587762
  0
LINE
  5
FE
330
1F
100
AcDbEntity
  8
0
  6
Continuous
 62
     7
370
    15
100
AcDbLine
 10
292.1464476857
 20
76.820939203
 30
0.0
 11
292.1464476857
 21
76.3709390361
 31
0.0
  0
LINE
  5
FF
330
1F
100
AcDbEntity
  8
0
  6
Continuous
 62
     7
370
    15
100
AcDbLine
 10
292.1464476857
 20
90.7709443767
 30
0.0
 11
292.1464476857
 21
90.3209442098
 31
0.0
  0
LINE
  5
100
330
1F
100
AcDbEntity
  8
0
  6
Continuous
 62
     7
370
    15
100
AcDbLine
 10
291.358593491
 20
76.3709390361
 30
0.0
 11
291.358593491
 21
77.5993907649
 31
0.0
  0
LINE
  5
101
330
1F
100
AcDbEntity
  8
0
  6
Continuous
 62
     7
370
    15
100
AcDbLine
 10
291.358593491
 20
89.542507549
 30
0.0
 11
291.358593491
 21
90.7709443767
 31
0.0
  0
LINE
  5
102
330
1F
100
AcDbEntity
  8
0
  6
Continuous
 62
     7
370
    15
100
AcDbLine
 10
291.1955747876
 20
448.8709414203
 30
0.0
 11
291.0907600197
 21
448.8709414203
 31
0.0
  0
LINE
  5
103
330
1F
100
AcDbEntity
  8
0
  6
Continuous
 62
     7
370
    15
100
AcDbLine
 10
291.1955747876
 20
457.4709379871
 30
0.0
 11
291.0907600197
 21
457.4709379871
 31
0.0
  0
LINE
  5
104
330
1F
100
AcDbEntity
  8
0
  6
Continuous
 62
     7
370
    15
100
AcDbLine
 10
296.5614531312
 20
446.3709438045
 30
0.0
 11
291.6955683503
 21
446.3709438045
 31
0.0
  0
LINE
  5
105
330
1F
100
AcDbEntity
  8
0
  6
Continuous
 62
     7
370
    15
100
AcDbLine
 10
296.5697083745
 20
445.5709451635
 30
0.0
 11
291.6961643967
 21
445.5709451635
 31
0.0
  0
LINE
  5
106
330
1F
100
AcDbEntity
  8
0
  6
Continuous
 62
     7
370
    15
100
AcDbLine
 10
296.5637181077
 20
460.7709491451
 30
0.0
 11
291.6955683503
 21
460.7709491451
 31
0.0
  0
LINE
  5
107
330
1F
100
AcDbEntity
  8
0
  6
Continuous
 62
     7
370
    15
100
AcDbLine
 10
296.5240214142
 20
461.5709477861
 30
0.0
 11
291.6961643967
 21
461.5709477861
 31
0.0
  0
LINE
  5
108
330
1F
100
AcDbEntity
  8
0
  6
Continuous
 62
     7
370
    15
100
AcDbLine
 10
295.2955696854
 20
461.8709379632
 30
0.0
 11
296.4589331421
 21
461.8709379632
 31
0.0
  0
LINE
  5
109
330
1F
100
AcDbEntity
  8
0
  6
Continuous
 62
     7
370
    15
100
AcDbLine
 10
296.6220710549
 20
461.8709379632
 30
0.0
 11
296.6844175133
 21
461.8709379632
 31
0.0
  0
LINE
  5
10A
330
1F
100
AcDbEntity
  8
0
  6
Continuous
 62
     7
370
    15
100
AcDbLine
 10
293.0955622468
 20
461.8709379632
 30
0.0
 11
295.2955696854
 21
461.8709379632
 31
0.0
  0
LINE
  5
10B
330
1F
100
AcDbEntity
  8
0
  6
Continuous
 62
     7
370
    15
100
AcDbLine
 10
295.2955696854
 20
444.7709465225
 30
0.0
 11
296.1590621743
 21
444.7709465225
 31
0.0
  0
LINE
  5
10C
330
1F
100
AcDbEntity
  8
0
  6
Continuous
 62
     7
370
    15
100
AcDbLine
 10
293.1955490384
 20
444.7709465225
 30
0.0
 11
295.2955696854
 21
444.7709465225
 31
0.0
  0
LINE
  5
10D
330
1F
100
AcDbEntity
  8
0
  6
Continuous
 62
     7
370
    15
100
AcDbLine
 10
295.2955696854
 20
445.1709383924
 30
0.0
 11
296.3989410672
 21
445.1709383924
 31
0.0
  0
LINE
  5
10E
330
1F
100
AcDbEntity
  8
0
  6
Continuous
 62
     7
370
    15
100
AcDbLine
 10
293.1955490384
 20
445.1709383924
 30
0.0
 11
295.2955696854
 21
445.1709383924
 31
0.0
  0
ARC
  5
10F
330
1F
100
AcDbEntity
  8
0
  6
Continuous
 62
     7
370
    15
100
AcDbCircle
 10
292.1610907222
 20
446.3685843272
 30
0.0
 40
0.8025006998318238
100
AcDbArc
 50
179.8315412238
 51
234.5431496929
  0
ARC
  5
110
330
1F
100
AcDbEntity
  8
0
  6
Continuous
 62
     7
370
    15
100
AcDbCircle
 10
292.1610788748
 20
460.7732998602
 30
0.0
 40
0.8024888267358854
100
AcDbArc
 50
125.4564155542
 51
180.1678356692
  0
LINE
  5
111
330
1F
100
AcDbEntity
  8
0
  6
Continuous
 62
     7
370
    15
100
AcDbLine
 10
292.1464476857
 20
446.8209439714
 30
0.0
 11
292.1464476857
 21
446.3709438045
 31
0.0
  0
LINE
  5
112
330
1F
100
AcDbEntity
  8
0
  6
Continuous
 62
     7
370
    15
100
AcDbLine
 10
292.1464476857
 20
460.7709491451
 30
0.0
 11
292.1464476857
 21
460.3209489782
 31
0.0
  0
LINE
  5
113
330
1F
100
AcDbEntity
  8
0
  6
Continuous
 62
     7
370
    15
100
AcDbLine
 10
291.358593491
 20
446.3709438045
 30
0.0
 11
291.358593491
 21
447.5993806321
 31
0.0
  0
LINE
  5
114
330
1F
100
AcDbEntity
  8
0
  6
Continuous
 62
     7
370
    15
100
AcDbLine
 10
291.358593491
 20
459.5424974162
 30
0.0
 11
291.358593491
 21
460.7709491451
 31
0.0
  0
SPLINE
  5
115
330
1F
100
AcDbEntity
  8
0
  6
Continuous
 62
     7
370
    15
100
AcDbSpline
210
0.0
220
0.0
230
1.0
 70
    24
 71
     3
 72
    12
 73
     8
 74
     0
 42
0.00000001
 43
0.00000001
 40
0.0
 40
0.0
 40
0.0
 40
0.0
 40
0.2185057815962484
 40
0.4370129915963154
 40
0.6555162179206331
 40
0.8740236704134351
 40
1.0
 40
1.0
 40
1.0
 40
1.0
 10
298.3548972878038
 20
460.2633410889932
 30
0.0
 10
298.1581772852935
 20
460.2633410889931
 30
0.0
 10
297.7647359942857
 20
460.2633410889932
 30
0.0
 10
297.2039890497335
 20
460.2633410889932
 30
0.0
 10
296.7863230614992
 20
460.2633410889931
 30
0.0
 10
296.5597702349448
 20
460.2633410889931
 30
0.0
 10
296.5772817670152
 20
460.2633410889932
 30
0.0
 10
296.5836856636583
 20
460.2633410889932
 30
0.0
  0
SPLINE
  5
116
330
1F
100
AcDbEntity
  8
0
  6
Continuous
 62
     7
370
    15
100
AcDbSpline
210
0.0
220
0.0
230
1.0
 70
    24
 71
     3
 72
     9
 73
     5
 74
     0
 42
0.00000001
 43
0.00000001
 40
0.0
 40
0.0
 40
0.0
 40
0.0
 40
0.1969977672690561
 40
1.0
 40
1.0
 40
1.0
 40
1.0
 10
298.995557812172
 20
460.2633410889932
 30
0.0
 10
298.9629106933799
 20
460.2633410889932
 30
0.0
 10
298.7971873999399
 20
460.2633410889932
 30
0.0
 10
298.551879821221
 20
460.2633410889932
 30
0.0
 10
298.3548972878038
 20
460.2633410889932
 30
0.0
  0
SPLINE
  5
117
330
1F
100
AcDbEntity
  8
0
  6
Continuous
 62
     7
370
    15
100
AcDbSpline
210
0.0
220
0.0
230
1.0
 70
     8
 71
     3
 72
    13
 73
     9
 74
     0
 42
0.00000001
 43
0.00000001
 40
0.0
 40
0.0
 40
0.0
 40
0.0
 40
0.1877298953325393
 40
0.3754728305372036
 40
0.5632112368984064
 40
0.7509454828094013
 40
0.9386831605173751
 40
1.0
 40
1.0
 40
1.0
 40
1.0
 10
298.0616126331865
 20
463.8781839806863
 30
0.0
 10
297.8649265300293
 20
463.8754791183499
 30
0.0
 10
297.4715406617374
 20
463.8700692057952
 30
0.0
 10
296.9385183542021
 20
463.5795472174088
 30
0.0
 10
296.547989847253
 20
463.1246389804002
 30
0.0
 10
296.3750503580944
 20
462.5629650156072
 30
0.0
 10
296.3783062694762
 20
462.0897593511394
 30
0.0
 10
296.5056607494886
 20
461.8683359207412
 30
0.0
 10
296.5370152267992
 20
461.8138218123742
 30
0.0
  0
SPLINE
  5
118
330
1F
100
AcDbEntity
  8
0
  6
Continuous
 62
     7
370
    15
100
AcDbSpline
210
0.0
220
0.0
230
1.0
 70
     8
 71
     3
 72
    10
 73
     6
 74
     0
 42
0.00000001
 43
0.00000001
 40
0.0
 40
0.0
 40
0.0
 40
0.0
 40
0.20933945978085
 40
0.6046633240057445
 40
0.9999999999999999
 40
0.9999999999999999
 40
0.9999999999999999
 40
0.9999999999999999
 10
299.1988096508562
 20
463.0720609624215
 30
0.0
 10
299.157101474022
 20
463.1651237065518
 30
0.0
 10
299.0366301358944
 20
463.4339293501024
 30
0.0
 10
298.6299314809463
 20
463.7505968535868
 30
0.0
 10
298.2510542955334
 20
463.8356544788986
 30
0.0
 10
298.0616126331865
 20
463.8781839806863
 30
0.0
  0
SPLINE
  5
119
330
1F
100
AcDbEntity
  8
0
  6
Continuous
 62
     7
370
    15
100
AcDbSpline
210
0.0
220
0.0
230
1.0
 70
     8
 71
     3
 72
    13
 73
     9
 74
     0
 42
0.00000001
 43
0.00000001
 40
0.0
 40
0.0
 40
0.0
 40
0.0
 40
0.1768560583406532
 40
0.3537248257769643
 40
0.5305893266827663
 40
0.7074541548476563
 40
0.8843179693042006
 40
1.0
 40
1.0
 40
1.0
 40
1.0
 10
298.0443868908464
 20
443.2349944312402
 30
0.0
 10
297.8477251642801
 20
443.2376835982629
 30
0.0
 10
297.454387578792
 20
443.2430621255553
 30
0.0
 10
296.9209988075884
 20
443.5337309532695
 30
0.0
 10
296.5318630735924
 20
443.9881019577986
 30
0.0
 10
296.3537081354872
 20
444.5517981114199
 30
0.0
 10
296.3746620151404
 20
445.0849595555928
 30
0.0
 10
296.5407701443382
 20
445.3582224679881
 30
0.0
 10
296.6064546379624
 20
445.4662794072458
 30
0.0
  0
SPLINE
  5
11A
330
1F
100
AcDbEntity
  8
0
  6
Continuous
 62
     7
370
    15
100
AcDbSpline
210
0.0
220
0.0
230
1.0
 70
     8
 71
     3
 72
    10
 73
     6
 74
     0
 42
0.00000001
 43
0.00000001
 40
0.0
 40
0.0
 40
0.0
 40
0.0
 40
0.0588223105923514
 40
0.5294052587721398
 40
1.0
 40
1.0
 40
1.0
 40
1.0
 10
299.0745041641771
 20
443.8349002797433
 30
0.0
 10
299.0638696397453
 20
443.8134193274872
 30
0.0
 10
298.9681581129114
 20
443.6200891272061
 30
0.0
 10
298.6072805049823
 20
443.3659088081333
 30
0.0
 10
298.2320196629101
 20
443.2786329213964
 30
0.0
 10
298.0443868908464
 20
443.2349944312402
 30
0.0
  0
SPLINE
  5
11B
330
1F
100
AcDbEntity
  8
0
  6
Continuous
 62
     7
370
    15
100
AcDbSpline
210
0.0
220
0.0
230
1.0
 70
    24
 71
     3
 72
    12
 73
     8
 74
     0
 42
0.00000001
 43
0.00000001
 40
0.0
 40
0.0
 40
0.0
 40
0.0
 40
0.2193551470434282
 40
0.4387117280430993
 40
0.6580643098818634
 40
0.8774211343168761
 40
1.0
 40
1.0
 40
1.0
 40
1.0
 10
298.3548972878038
 20
446.7047149140664
 30
0.0
 10
298.1581819666927
 20
446.7047149140665
 30
0.0
 10
297.7647500385141
 20
446.7047149140665
 30
0.0
 10
297.2039328728176
 20
446.7047149140664
 30
0.0
 10
296.7865337223193
 20
446.7047149140665
 30
0.0
 10
296.5606885756993
 20
446.7047149140664
 30
0.0
 10
296.5776609310299
 20
446.7047149140664
 30
0.0
 10
296.5837452683031
 20
446.7047149140664
 30
0.0
  0
SPLINE
  5
11C
330
1F
100
AcDbEntity
  8
0
  6
Continuous
 62
     7
370
    15
100
AcDbSpline
210
0.0
220
0.0
230
1.0
 70
    24
 71
     3
 72
     9
 73
     5
 74
     0
 42
0.00000001
 43
0.00000001
 40
0.0
 40
0.0
 40
0.0
 40
0.0
 40
0.1969977672690561
 40
1.0
 40
1.0
 40
1.0
 40
1.0
 10
298.995557812172
 20
446.7047149140665
 30
0.0
 10
298.9629106933799
 20
446.7047149140665
 30
0.0
 10
298.7971873999399
 20
446.7047149140664
 30
0.0
 10
298.551879821221
 20
446.7047149140664
 30
0.0
 10
298.3548972878038
 20
446.7047149140664
 30
0.0
  0
SPLINE
  5
11D
330
1F
100
AcDbEntity
  8
0
  6
Continuous
 62
     7
370
    15
100
AcDbSpline
210
0.0
220
0.0
230
1.0
 70
     8
 71
     3
 72
    13
 73
     9
 74
     0
 42
0.00000001
 43
0.00000001
 40
0.0
 40
0.0
 40
0.0
 40
0.0
 40
0.1768656016236828
 40
0.3537269957702988
 40
0.530592106245929
 40
0.7074532972332674
 40
0.884317721257274
 40
1.0
 40
1.0
 40
1.0
 40
1.0
 10
296.4925501617967
 20
466.4945894677468
 30
0.0
 10
296.2958774388473
 20
466.4919034792957
 30
0.0
 10
295.9025366716194
 20
466.4865315662907
 30
0.0
 10
295.3691573109152
 20
466.1958427366374
 30
0.0
 10
294.9800311353852
 20
465.7414866561278
 30
0.0
 10
294.8018656219161
 20
465.1777943082582
 30
0.0
 10
294.8228382556343
 20
464.6446459127974
 30
0.0
 10
294.9889157705457
 20
464.3713674822807
 30
0.0
 10
295.0545881065904
 20
464.2633044917413
 30
0.0
  0
SPLINE
  5
11E
330
1F
100
AcDbEntity
  8
0
  6
Continuous
 62
     7
370
    15
100
AcDbSpline
210
0.0
220
0.0
230
1.0
 70
     8
 71
     3
 72
    10
 73
     6
 74
     0
 42
0.00000001
 43
0.00000001
 40
0.0
 40
0.0
 40
0.0
 40
0.0
 40
0.1474532214280553
 40
0.5737397578617798
 40
1.0
 40
1.0
 40
1.0
 40
1.0
 10
297.5811395916521
 20
465.7820755441018
 30
0.0
 10
297.553082786708
 20
465.842367705162
 30
0.0
 10
297.4439138969474
 20
466.0769642067007
 30
0.0
 10
297.0588333042516
 20
466.3657613970559
 30
0.0
 10
296.6813073280559
 20
466.4516476604862
 30
0.0
 10
296.4925501617967
 20
466.4945894677468
 30
0.0
  0
SPLINE
  5
11F
330
1F
100
AcDbEntity
  8
0
  6
Continuous
 62
     7
370
    15
100
AcDbSpline
210
0.0
220
0.0
230
1.0
 70
     8
 71
     3
 72
    13
 73
     9
 74
     0
 42
0.00000001
 43
0.00000001
 40
0.0
 40
0.0
 40
0.0
 40
0.0
 40
0.176865507979167
 40
0.353726808483495
 40
0.5305918253148695
 40
0.7074565940495948
 40
0.884321704433035
 40
1.0
 40
1.0
 40
1.0
 40
1.0
 10
296.4753244194566
 20
440.6185740430184
 30
0.0
 10
296.2786516691844
 20
440.6212600056332
 30
0.0
 10
295.8853108473116
 20
440.6266318669661
 30
0.0
 10
295.3519318964393
 20
440.9173210841561
 30
0.0
 10
294.9628014709744
 20
441.3716788359125
 30
0.0
 10
294.7846424721453
 20
441.9353825508134
 30
0.0
 10
294.8056084401445
 20
442.4685283606702
 30
0.0
 10
294.9716899641015
 20
442.7418008720861
 30
0.0
 10
295.0373623642503
 20
442.849859019024
 30
0.0
  0
SPLINE
  5
120
330
1F
100
AcDbEntity
  8
0
  6
Continuous
 62
     7
370
    15
100
AcDbSpline
210
0.0
220
0.0
230
1.0
 70
     8
 71
     3
 72
    10
 73
     6
 74
     0
 42
0.00000001
 43
0.00000001
 40
0.0
 40
0.0
 40
0.0
 40
0.0
 40
0.1474633503720048
 40
0.57374383420109
 40
1.0
 40
1.0
 40
1.0
 40
1.0
 10
297.563913849312
 20
441.3311028678247
 30
0.0
 10
297.5358577638686
 20
441.2708055120493
 30
0.0
 10
297.4266983965117
 20
441.0362032464189
 30
0.0
 10
297.0416041781706
 20
440.7474012907745
 30
0.0
 10
296.6640807494946
 20
440.6615156423271
 30
0.0
 10
296.4753244194566
 20
440.6185740430184
 30
0.0
  0
LINE
  5
121
330
1F
100
AcDbEntity
  8
0
  6
Continuous
 62
     7
370
    15
100
AcDbLine
 10
901.0969136033
 20
73.5709512431
 30
0.0
 11
901.0969136033
 21
38.5709399183
 31
0.0
  0
LINE
  5
122
330
1F
100
AcDbEntity
  8
0
  6
Continuous
 62
     7
370
    15
100
AcDbLine
 10
911.6955731186
 20
73.5709512431
 30
0.0
 11
901.0969136033
 21
73.5709512431
 31
0.0
  0
LINE
  5
123
330
1F
100
AcDbEntity
  8
0
  6
Continuous
 62
     7
370
    15
100
AcDbLine
 10
911.6955731186
 20
38.5709399183
 30
0.0
 11
901.0969136033
 21
38.5709399183
 31
0.0
  0
LINE
  5
124
330
1F
100
AcDbEntity
  8
0
  6
Continuous
 62
     7
370
    15
100
AcDbLine
 10
901.0969136033
 20
498.5709482629
 30
0.0
 11
901.0969136033
 21
463.570936938
 31
0.0
  0
LINE
  5
125
330
1F
100
AcDbEntity
  8
0
  6
Continuous
 62
     7
370
    15
100
AcDbLine
 10
911.6955731186
 20
498.5709482629
 30
0.0
 11
901.0969136033
 21
498.5709482629
 31
0.0
  0
LINE
  5
126
330
1F
100
AcDbEntity
  8
0
  6
Continuous
 62
     7
370
    15
100
AcDbLine
 10
911.6955731186
 20
463.570936938
 30
0.0
 11
901.0969136033
 21
463.570936938
 31
0.0
  0
LINE
  5
127
330
1F
100
AcDbEntity
  8
0
  6
Continuous
 62
     7
370
    15
100
AcDbLine
 10
908.6955521378
 20
110.5709368188
 30
0.0
 11
903.6955569062
 21
110.5709368188
 31
0.0
  0
LINE
  5
128
330
1F
100
AcDbEntity
  8
0
  6
Continuous
 62
     7
370
    15
100
AcDbLine
 10
903.6955569062
 20
426.5709513624
 30
0.0
 11
908.6955521378
 21
426.5709513624
 31
0.0
  0
LINE
  5
129
330
1F
100
AcDbEntity
  8
0
  6
Continuous
 62
     7
370
    15
100
AcDbLine
 10
900.6333980832
 20
38.5709399183
 30
0.0
 11
900.6333980832
 21
73.5709512431
 31
0.0
  0
LINE
  5
12A
330
1F
100
AcDbEntity
  8
0
  6
Continuous
 62
     7
370
    15
100
AcDbLine
 10
900.6333980832
 20
73.5709512431
 30
0.0
 11
901.0969136033
 21
73.5709512431
 31
0.0
  0
LINE
  5
12B
330
1F
100
AcDbEntity
  8
0
  6
Continuous
 62
     7
370
    15
100
AcDbLine
 10
901.0969136033
 20
38.5709399183
 30
0.0
 11
900.6333980832
 21
38.5709399183
 31
0.0
  0
LINE
  5
12C
330
1F
100
AcDbEntity
  8
0
  6
Continuous
 62
     7
370
    15
100
AcDbLine
 10
900.6333980832
 20
463.570936938
 30
0.0
 11
900.6333980832
 21
498.5709482629
 31
0.0
  0
LINE
  5
12D
330
1F
100
AcDbEntity
  8
0
  6
Continuous
 62
     7
370
    15
100
AcDbLine
 10
900.6333980832
 20
498.5709482629
 30
0.0
 11
901.0969136033
 21
498.5709482629
 31
0.0
  0
LINE
  5
12E
330
1F
100
AcDbEntity
  8
0
  6
Continuous
 62
     7
370
    15
100
AcDbLine
 10
901.0969136033
 20
463.570936938
 30
0.0
 11
900.6333980832
 21
463.570936938
 31
0.0
  0
LINE
  5
12F
330
1F
100
AcDbEntity
  8
0
  6
Continuous
 62
     7
370
    15
100
AcDbLine
 10
900.6333980832
 20
498.5709482629
 30
0.0
 11
900.195572165
 21
498.5709482629
 31
0.0
  0
LINE
  5
130
330
1F
100
AcDbEntity
  8
0
  6
Continuous
 62
     7
370
    15
100
AcDbLine
 10
900.6333980832
 20
463.570936938
 30
0.0
 11
900.195572165
 21
463.570936938
 31
0.0
  0
LINE
  5
131
330
1F
100
AcDbEntity
  8
0
  6
Continuous
 62
     7
370
    15
100
AcDbLine
 10
900.6333980832
 20
73.5709512431
 30
0.0
 11
900.195572165
 21
73.5709512431
 31
0.0
  0
LINE
  5
132
330
1F
100
AcDbEntity
  8
0
  6
Continuous
 62
     7
370
    15
100
AcDbLine
 10
900.6333980832
 20
38.5709399183
 30
0.0
 11
900.195572165
 21
38.5709399183
 31
0.0
  0
LINE
  5
133
330
1F
100
AcDbEntity
  8
0
  6
Continuous
 62
     7
370
    15
100
AcDbLine
 10
294.9955497059
 20
90.3209442098
 30
0.0
 11
296.5556416783
 21
90.3209442098
 31
0.0
  0
LINE
  5
134
330
1F
100
AcDbEntity
  8
0
  6
Continuous
 62
     7
370
    15
100
AcDbLine
 10
294.9955497059
 20
76.820939203
 30
0.0
 11
296.5550754342
 21
76.820939203
 31
0.0
  0
LINE
  5
135
330
1F
100
AcDbEntity
  8
0
  6
Continuous
 62
     7
370
    15
100
AcDbLine
 10
294.9955497059
 20
76.820939203
 30
0.0
 11
291.8955717358
 21
76.820939203
 31
0.0
  0
LINE
  5
136
330
1F
100
AcDbEntity
  8
0
  6
Continuous
 62
     7
370
    15
100
AcDbLine
 10
294.9955497059
 20
90.3209442098
 30
0.0
 11
291.8955717358
 21
90.3209442098
 31
0.0
  0
LINE
  5
137
330
1F
100
AcDbEntity
  8
0
  6
Continuous
 62
     7
370
    15
100
AcDbLine
 10
294.9955497059
 20
446.8209439714
 30
0.0
 11
296.5550754342
 21
446.8209439714
 31
0.0
  0
LINE
  5
138
330
1F
100
AcDbEntity
  8
0
  6
Continuous
 62
     7
370
    15
100
AcDbLine
 10
294.9955497059
 20
460.3209489782
 30
0.0
 11
296.5556416783
 21
460.3209489782
 31
0.0
  0
LINE
  5
139
330
1F
100
AcDbEntity
  8
0
  6
Continuous
 62
     7
370
    15
100
AcDbLine
 10
294.9955497059
 20
446.8209439714
 30
0.0
 11
291.8955717358
 21
446.8209439714
 31
0.0
  0
LINE
  5
13A
330
1F
100
AcDbEntity
  8
0
  6
Continuous
 62
     7
370
    15
100
AcDbLine
 10
294.9955497059
 20
460.3209489782
 30
0.0
 11
291.8955717358
 21
460.3209489782
 31
0.0
  0
LINE
  5
13B
330
1F
100
AcDbEntity
  8
0
  6
Continuous
 62
     8
370
    15
100
AcDbLine
 10
294.9955497059
 20
77.0709508855
 30
0.0
 11
294.9955497059
 21
76.820939203
 31
0.0
  0
LINE
  5
13C
330
1F
100
AcDbEntity
  8
0
  6
Continuous
 62
     8
370
    15
100
AcDbLine
 10
294.9955497059
 20
90.3209442098
 30
0.0
 11
294.9955497059
 21
90.0709474284
 31
0.0
  0
LINE
  5
13D
330
1F
100
AcDbEntity
  8
0
  6
Continuous
 62
     8
370
    15
100
AcDbLine
 10
294.9955497059
 20
447.0709407527
 30
0.0
 11
294.9955497059
 21
446.8209439714
 31
0.0
  0
LINE
  5
13E
330
1F
100
AcDbEntity
  8
0
  6
Continuous
 62
     8
370
    15
100
AcDbLine
 10
294.9955497059
 20
460.3209489782
 30
0.0
 11
294.9955497059
 21
460.0709372957
 31
0.0
  0
LINE
  5
13F
330
1F
100
AcDbEntity
  8
0
  6
Continuous
 62
     7
370
    15
100
AcDbLine
 10
235.0604381722
 20
460.0709372957
 30
0.0
 11
235.0604381722
 21
447.0709407527
 31
0.0
  0
LINE
  5
140
330
1F
100
AcDbEntity
  8
0
  6
Continuous
 62
     7
370
    15
100
AcDbLine
 10
235.0604381722
 20
90.0709474284
 30
0.0
 11
235.0604381722
 21
77.0709508855
 31
0.0
  0
SPLINE
  5
141
330
1F
100
AcDbEntity
  8
0
  6
Continuous
 62
     7
370
    15
100
AcDbSpline
210
0.0
220
0.0
230
1.0
 70
     8
 71
     3
 72
    15
 73
    11
 74
     0
 42
0.00000001
 43
0.00000001
 40
0.0
 40
0.0
 40
0.0
 40
0.0
 40
0.1356094709088844
 40
0.2953382916724378
 40
0.4038142056556964
 40
0.5319711262403176
 40
0.6738493689946979
 40
0.8261180522725436
 40
0.9126194672532787
 40
1.0
 40
1.0
 40
1.0
 40
1.0
 10
224.0404334228732
 20
78.1369948584863
 30
0.0
 10
224.0848145574424
 20
78.12966816089936
 30
0.0
 10
224.1814704058747
 20
78.11371164743136
 30
0.0
 10
224.388317486721
 20
78.16138179304785
 30
0.0
 10
224.5816027441512
 20
78.2491124791801
 30
0.0
 10
224.7281648026606
 20
78.36876298079102
 30
0.0
 10
224.8268830205262
 20
78.51967812706373
 30
0.0
 10
224.8565396074311
 20
78.64151273612404
 30
0.0
 10
224.8353632917271
 20
78.77076474556871
 30
0.0
 10
224.7891101487847
 20
78.83743366088225
 30
0.0
 10
224.7658666532733
 20
78.87093665192808
 30
0.0
  0
SPLINE
  5
142
330
1F
100
AcDbEntity
  8
0
  6
Continuous
 62
     7
370
    15
100
AcDbSpline
210
0.0
220
0.0
230
1.0
 70
     8
 71
     3
 72
    20
 73
    16
 74
     0
 42
0.00000001
 43
0.00000001
 40
0.0
 40
0.0
 40
0.0
 40
0.0
 40
0.0607082442931093
 40
0.2265318156168854
 40
0.3908031464128035
 40
0.4705947058182799
 40
0.5476201025391426
 40
0.6228569404065788
 40
0.7003369963972954
 40
0.7786473119590714
 40
0.8566577880455075
 40
0.9331035889870581
 40
0.970373352407119
 40
0.989232223813748
 40
0.9999999999999999
 40
0.9999999999999999
 40
0.9999999999999999
 40
0.9999999999999999
 10
220.3042354744174
 20
78.87093665192808
 30
0.0
 10
220.350509881377
 20
78.81760521967924
 30
0.0
 10
220.523182070257
 20
78.61859985694066
 30
0.0
 10
220.9401672076429
 20
78.60066569613178
 30
0.0
 10
221.505107522796
 20
78.52564456799333
 30
0.0
 10
222.0247234115395
 20
78.48270615018902
 30
0.0
 10
222.4186176884734
 20
78.4521453087649
 30
0.0
 10
222.8115292191794
 20
78.424473575395
 30
0.0
 10
223.1926901716549
 20
78.39316398066393
 30
0.0
 10
223.5484115229976
 20
78.36068559227184
 30
0.0
 10
223.8510508681695
 20
78.32986842716785
 30
0.0
 10
224.0435342286028
 20
78.30697744344766
 30
0.0
 10
224.131674432688
 20
78.29893525073467
 30
0.0
 10
224.1770958346943
 20
78.29114376157307
 30
0.0
 10
224.1765465508133
 20
78.29510271399168
 30
0.0
 10
224.1763469141223
 20
78.29654159138883
 30
0.0
  0
SPLINE
  5
143
330
1F
100
AcDbEntity
  8
0
  6
Continuous
 62
     7
370
    15
100
AcDbSpline
210
0.0
220
0.0
230
1.0
 70
     8
 71
     3
 72
    18
 73
    14
 74
     0
 42
0.00000001
 43
0.00000001
 40
0.0
 40
0.0
 40
0.0
 40
0.0
 40
0.0449171205329644
 40
0.1504737378790871
 40
0.2683928196161977
 40
0.3845451998928426
 40
0.4963566240362861
 40
0.6034708340646622
 40
0.7163616231885583
 40
0.8333330070618413
 40
0.8935122872477876
 40
0.953691942728982
 40
1.0
 40
1.0
 40
1.0
 40
1.0
 10
224.6466871660449
 20
87.45561482499326
 30
0.0
 10
224.6093793632703
 20
87.48142679132886
 30
0.0
 10
224.4843970743582
 20
87.56789767393322
 30
0.0
 10
224.2277819481777
 20
87.59069784582799
 30
0.0
 10
223.8349512468118
 20
87.64423625934576
 30
0.0
 10
223.3234669939242
 20
87.69131128645807
 30
0.0
 10
222.7723283706542
 20
87.7370870016807
 30
0.0
 10
222.2102395200857
 20
87.77606687305351
 30
0.0
 10
221.6759545265308
 20
87.82079134967344
 30
0.0
 10
221.2783161191949
 20
87.86184049883438
 30
0.0
 10
221.0635990640113
 20
87.88298672087517
 30
0.0
 10
220.9675309356196
 20
87.88525470097002
 30
0.0
 10
220.9520883264882
 20
87.86919273716168
 30
0.0
 10
220.9453728359439
 20
87.86220790932856
 30
0.0
  0
SPLINE
  5
144
330
1F
100
AcDbEntity
  8
0
  6
Continuous
 62
     7
370
    15
100
AcDbSpline
210
0.0
220
0.0
230
1.0
 70
     8
 71
     3
 72
    12
 73
     8
 74
     0
 42
0.00000001
 43
0.00000001
 40
0.0
 40
0.0
 40
0.0
 40
0.0
 40
0.2236735179102078
 40
0.4523033260044015
 40
0.6822306951024003
 40
0.9102237881699555
 40
1.0
 40
1.0
 40
1.0
 40
1.0
 10
220.2461358469226
 20
88.67280127595151
 30
0.0
 10
220.2334031314521
 20
88.6302527390409
 30
0.0
 10
220.2076555614662
 20
88.54421284955785
 30
0.0
 10
220.3287786204972
 20
88.45259044675544
 30
0.0
 10
220.5604648751051
 20
88.3562958418744
 30
0.0
 10
220.8053054144482
 20
88.2937936258337
 30
0.0
 10
220.9886451002753
 20
88.29901938233823
 30
0.0
 10
221.0404422443606
 20
88.30049576352323
 30
0.0
  0
SPLINE
  5
145
330
1F
100
AcDbEntity
  8
0
  6
Continuous
 62
     7
370
    15
100
AcDbSpline
210
0.0
220
0.0
230
1.0
 70
     8
 71
     3
 72
    19
 73
    15
 74
     0
 42
0.00000001
 43
0.00000001
 40
0.0
 40
0.0
 40
0.0
 40
0.0
 40
0.0979014274624083
 40
0.1753765650578146
 40
0.2884796555249647
 40
0.3734508642955646
 40
0.4570015574762394
 40
0.6168864159432278
 40
0.6796647160294805
 40
0.7634254508799037
 40
0.8137514698847786
 40
0.8702950732440567
 40
0.9323967210878519
 40
1.0
 40
1.0
 40
1.0
 40
1.0
 10
220.4223718803622
 20
88.17766549180234
 30
0.0
 10
220.4728843102683
 20
88.15129017358139
 30
0.0
 10
220.563370186514
 20
88.10404252018353
 30
0.0
 10
220.9379926509572
 20
88.0433965116572
 30
0.0
 10
221.4245207653527
 20
87.98950987938439
 30
0.0
 10
222.0158347449524
 20
87.93626153444711
 30
0.0
 10
222.7699498399242
 20
87.88471845038268
 30
0.0
 10
223.4110273288328
 20
87.8177773389982
 30
0.0
 10
224.0603236986171
 20
87.78226169831568
 30
0.0
 10
224.4386283677012
 20
87.86043575925103
 30
0.0
 10
224.6905024661794
 20
87.96865027893702
 30
0.0
 10
224.8240801954952
 20
88.05698762444358
 30
0.0
 10
224.8858569298629
 20
88.13082971553516
 30
0.0
 10
224.8144135264493
 20
88.21134076315349
 30
0.0
 10
224.7771766346194
 20
88.25330378602231
 30
0.0
  0
SPLINE
  5
146
330
1F
100
AcDbEntity
  8
0
  6
Continuous
 62
     7
370
    15
100
AcDbSpline
210
0.0
220
0.0
230
1.0
 70
     8
 71
     3
 72
    25
 73
    21
 74
     0
 42
0.00000001
 43
0.00000001
 40
0.0
 40
0.0
 40
0.0
 40
0.0
 40
0.0176266494183487
 40
0.0344978090481336
 40
0.0503138816146049
 40
0.0649744754301906
 40
0.0909465346988427
 40
0.1134378486501592
 40
0.1538406482312352
 40
0.1912354900355065
 40
0.2995715948923175
 40
0.399964208916232
 40
0.5012963208094918
 40
0.5949066153688873
 40
0.6784878764957784
 40
0.7336317608373571
 40
0.8075188116897705
 40
0.8952855735385565
 40
0.9453088350413977
 40
0.9999999999999999
 40
0.9999999999999999
 40
0.9999999999999999
 40
0.9999999999999999
 10
224.4198616903521
 20
87.6277232367822
 30
0.0
 10
224.4595736313108
 20
87.6321131946858
 30
0.0
 10
224.537295433317
 20
87.64070495400952
 30
0.0
 10
224.6391563774626
 20
87.68671574684878
 30
0.0
 10
224.7201882046959
 20
87.74567830553693
 30
0.0
 10
224.7963730643381
 20
87.82925632528757
 30
0.0
 10
224.849426079965
 20
87.93290101818943
 30
0.0
 10
224.8736051885029
 20
88.06523906500288
 30
0.0
 10
224.8506956526563
 20
88.19709201179099
 30
0.0
 10
224.679470191709
 20
88.4423253649278
 30
0.0
 10
224.3366744785714
 20
88.52938480837555
 30
0.0
 10
223.8415638404281
 20
88.58794804344869
 30
0.0
 10
223.2283513019386
 20
88.64631183775256
 30
0.0
 10
222.5788829992003
 20
88.695937824051
 30
0.0
 10
222.039175192987
 20
88.73540305561598
 30
0.0
 10
221.5931812759259
 20
88.77458186073417
 30
0.0
 10
221.2044487552619
 20
88.8128055395449
 30
0.0
 10
220.9443139139352
 20
88.84066482404734
 30
0.0
 10
220.8138609623887
 20
88.86315045082885
 30
0.0
 10
220.8052039964893
 20
88.87561026611951
 30
0.0
 10
220.8006825607516
 20
88.88211788724149
 30
0.0
  0
SPLINE
  5
147
330
1F
100
AcDbEntity
  8
0
  6
Continuous
 62
     7
370
    15
100
AcDbSpline
210
0.0
220
0.0
230
1.0
 70
     8
 71
     3
 72
    12
 73
     8
 74
     0
 42
0.00000001
 43
0.00000001
 40
0.0
 40
0.0
 40
0.0
 40
0.0
 40
0.1756439564792897
 40
0.5723118325730558
 40
0.758616553749703
 40
0.9207549960040398
 40
1.0
 40
1.0
 40
1.0
 40
1.0
 10
220.8890017431476
 20
88.06364180634702
 30
0.0
 10
220.8234442958887
 20
88.05446435636286
 30
0.0
 10
220.6098343116251
 20
88.02456088957678
 30
0.0
 10
220.3938893686822
 20
87.95067072586049
 30
0.0
 10
220.2327573821523
 20
87.73569517890436
 30
0.0
 10
220.2015295165218
 20
87.5755153567034
 30
0.0
 10
220.2325085217352
 20
87.49683733421423
 30
0.0
 10
220.2426787775256
 20
87.47100772450648
 30
0.0
  0
LINE
  5
148
330
1F
100
AcDbEntity
  8
0
  6
Continuous
 62
     7
370
    15
100
AcDbLine
 10
220.4001989525
 20
78.7731999357
 30
0.0
 11
219.2817326945
 21
78.7731999357
 31
0.0
  0
LINE
  5
149
330
1F
100
AcDbEntity
  8
0
  6
Continuous
 62
     7
370
    15
100
AcDbLine
 10
219.2817326945
 20
77.9732012946
 30
0.0
 11
221.0404422444
 21
77.9732012946
 31
0.0
  0
LINE
  5
14A
330
1F
100
AcDbEntity
  8
0
  6
Continuous
 62
     7
370
    15
100
AcDbLine
 10
217.8714420956
 20
91.5709430177
 30
0.0
 11
217.8714420956
 21
91.6244083841
 31
0.0
  0
LINE
  5
14B
330
1F
100
AcDbEntity
  8
0
  6
Continuous
 62
     7
370
    15
100
AcDbLine
 10
214.8714509171
 20
91.6244083841
 30
0.0
 11
214.8714509171
 21
91.5709430177
 31
0.0
  0
SPLINE
  5
14C
330
1F
100
AcDbEntity
  8
0
  6
Continuous
 62
     7
370
    15
100
AcDbSpline
210
0.0
220
0.0
230
1.0
 70
     8
 71
     3
 72
    15
 73
    11
 74
     0
 42
0.00000001
 43
0.00000001
 40
0.0
 40
0.0
 40
0.0
 40
0.0
 40
0.10775558395448
 40
0.2352512525116226
 40
0.3627904438124229
 40
0.4902569714009369
 40
0.6176632515021261
 40
0.7450970725045022
 40
0.872496392135661
 40
1.0
 40
1.0
 40
1.0
 40
1.0
 10
214.8874994676806
 20
75.57094039509977
 30
0.0
 10
214.9040385925745
 20
75.25841817027093
 30
0.0
 10
214.9401466967111
 20
74.57612179053277
 30
0.0
 10
215.2763593831503
 20
73.56697361864276
 30
0.0
 10
215.8344395747893
 20
72.60349424506543
 30
0.0
 10
216.5892633831749
 20
71.7825681935886
 30
0.0
 10
217.5044286468879
 20
71.1473019331045
 30
0.0
 10
218.5316819733648
 20
70.72714161122256
 30
0.0
 10
219.6276644009498
 20
70.51333997154342
 30
0.0
 10
220.3634223041969
 20
70.57886454430343
 30
0.0
 10
220.731451765845
 20
70.61164023469175
 30
0.0
  0
SPLINE
  5
14D
330
1F
100
AcDbEntity
  8
0
  6
Continuous
 62
     7
370
    15
100
AcDbSpline
210
0.0
220
0.0
230
1.0
 70
     8
 71
     3
 72
    15
 73
    11
 74
     0
 42
0.00000001
 43
0.00000001
 40
0.0
 40
0.0
 40
0.0
 40
0.0
 40
0.1316509291461834
 40
0.2633118991814027
 40
0.3951919226063761
 40
0.5266715637211037
 40
0.6575475181541965
 40
0.7882152779784374
 40
0.9184602473323468
 40
0.9999999999999999
 40
0.9999999999999999
 40
0.9999999999999999
 40
0.9999999999999999
 10
220.2337678831317
 20
73.56932701657499
 30
0.0
 10
220.0815838671211
 20
73.55751206204278
 30
0.0
 10
219.7772042281723
 20
73.53388125186325
 30
0.0
 10
219.3263420737337
 20
73.63535508345964
 30
0.0
 10
218.9073139479795
 20
73.82222147523751
 30
0.0
 10
218.5369154040415
 20
74.0948091635954
 30
0.0
 10
218.234664132154
 20
74.44072839676402
 30
0.0
 10
218.0154939503565
 20
74.8424305839896
 30
0.0
 10
217.8981369326824
 20
75.22874606397487
 30
0.0
 10
217.8879540957095
 20
75.47581556395927
 30
0.0
 10
217.8840335767962
 20
75.57094039509977
 30
0.0
  0
SPLINE
  5
14E
330
1F
100
AcDbEntity
  8
0
  6
Continuous
 62
     7
370
    15
100
AcDbSpline
210
0.0
220
0.0
230
1.0
 70
     8
 71
     3
 72
    15
 73
    11
 74
     0
 42
0.00000001
 43
0.00000001
 40
0.0
 40
0.0
 40
0.0
 40
0.0
 40
0.1249271744002042
 40
0.2499159491389391
 40
0.3749663957929265
 40
0.4999576941663553
 40
0.6249203967106692
 40
0.749916901807382
 40
0.8748746040201251
 40
1.0
 40
1.0
 40
1.0
 40
1.0
 10
220.9023233812549
 20
96.50146903584684
 30
0.0
 10
220.5359464733136
 20
96.5448015531637
 30
0.0
 10
219.8030120006472
 20
96.63148795462776
 30
0.0
 10
218.6989919789307
 20
96.46628939453069
 30
0.0
 10
217.6581886070203
 20
96.07736609035774
 30
0.0
 10
216.7230001572303
 20
95.47234656170319
 30
0.0
 10
215.9423622710061
 20
94.6761470290926
 30
0.0
 10
215.3543849400662
 20
93.7317926137177
 30
0.0
 10
214.9585663613115
 20
92.68334304007995
 30
0.0
 10
214.9005023767976
 20
91.94422287841387
 30
0.0
 10
214.8714509170749
 20
91.5744149882623
 30
0.0
  0
SPLINE
  5
14F
330
1F
100
AcDbEntity
  8
0
  6
Continuous
 62
     7
370
    15
100
AcDbSpline
210
0.0
220
0.0
230
1.0
 70
     8
 71
     3
 72
    15
 73
    11
 74
     0
 42
0.00000001
 43
0.00000001
 40
0.0
 40
0.0
 40
0.0
 40
0.0
 40
0.124254644348219
 40
0.2486322988689387
 40
0.3735406391492648
 40
0.4985806003485738
 40
0.6236628936600852
 40
0.749069270406247
 40
0.8744363211277142
 40
1.0
 40
1.0
 40
1.0
 40
1.0
 10
217.8714420955874
 20
91.5744149882623
 30
0.0
 10
217.885005183261
 20
91.72637311888118
 30
0.0
 10
217.9121447858548
 20
92.03043981631356
 30
0.0
 10
218.086603442006
 20
92.4577542601192
 30
0.0
 10
218.3399336633437
 20
92.83939318607798
 30
0.0
 10
218.6697528598503
 20
93.15932830878396
 30
0.0
 10
219.0606836998842
 20
93.39989873315571
 30
0.0
 10
219.4933805879654
 20
93.55153004205351
 30
0.0
 10
219.9509105364887
 20
93.60499158675763
 30
0.0
 10
220.2528308788003
 20
93.5642953357671
 30
0.0
 10
220.403909341643
 20
93.54393126557554
 30
0.0
  0
LINE
  5
150
330
1F
100
AcDbEntity
  8
0
  6
Continuous
 62
     7
370
    15
100
AcDbLine
 10
235.7745018166
 20
76.1860752303
 30
0.0
 11
220.2335443657
 21
73.5696697433
 31
0.0
  0
LINE
  5
151
330
1F
100
AcDbEntity
  8
0
  6
Continuous
 62
     7
370
    15
100
AcDbLine
 10
220.7316007775
 20
70.611297508
 30
0.0
 11
236.2725731295
 21
73.2277178962
 31
0.0
  0
LINE
  5
152
330
1F
100
AcDbEntity
  8
0
  6
Continuous
 62
     7
370
    15
100
AcDbLine
 10
220.4041179579
 20
93.5435140331
 30
0.0
 11
235.9450903099
 21
90.9270936448
 31
0.0
  0
LINE
  5
153
330
1F
100
AcDbEntity
  8
0
  6
Continuous
 62
     7
370
    15
100
AcDbLine
 10
236.4431467217
 20
93.885450979
 30
0.0
 11
220.9021892708
 21
96.5018713672
 31
0.0
  0
SPLINE
  5
154
330
1F
100
AcDbEntity
  8
0
  6
Continuous
 62
     7
370
    15
100
AcDbSpline
210
0.0
220
0.0
230
1.0
 70
     8
 71
     3
 72
    12
 73
     8
 74
     0
 42
0.00000001
 43
0.00000001
 40
0.0
 40
0.0
 40
0.0
 40
0.0
 40
0.1526143823602427
 40
0.2973901242399282
 40
0.5623703418308169
 40
0.7966014658115127
 40
1.0
 40
1.0
 40
1.0
 40
1.0
 10
236.2722155016162
 20
73.22801591942991
 30
0.0
 10
236.523434309198
 20
73.28076107948775
 30
0.0
 10
237.012968724256
 20
73.3835422817577
 30
0.0
 10
237.8625017162914
 20
73.81276507101914
 30
0.0
 10
238.6744835279333
 20
74.55717053512161
 30
0.0
 10
239.238935613385
 20
75.62820649941365
 30
0.0
 10
239.3206227296174
 20
76.36313505381497
 30
0.0
 10
239.3585887115695
 20
76.70471014569483
 30
0.0
  0
SPLINE
  5
155
330
1F
100
AcDbEntity
  8
0
  6
Continuous
 62
     7
370
    15
100
AcDbSpline
210
0.0
220
0.0
230
1.0
 70
     8
 71
     3
 72
    11
 73
     7
 74
     0
 42
0.00000001
 43
0.00000001
 40
0.0
 40
0.0
 40
0.0
 40
0.0
 40
0.2003624455425825
 40
0.4328096834642056
 40
0.6990173802634269
 40
1.0
 40
1.0
 40
1.0
 40
1.0
 10
236.3602664631106
 20
76.70471014569486
 30
0.0
 10
236.3470393016731
 20
76.64828125433448
 30
0.0
 10
236.3184668636627
 20
76.52638730089528
 30
0.0
 10
236.2025809720727
 20
76.3606982287072
 30
0.0
 10
236.0178331145792
 20
76.22176877787825
 30
0.0
 10
235.860214337484
 20
76.19839124047425
 30
0.0
 10
235.7765730779864
 20
76.18598582337583
 30
0.0
  0
SPLINE
  5
156
330
1F
100
AcDbEntity
  8
0
  6
Continuous
 62
     7
370
    15
100
AcDbSpline
210
0.0
220
0.0
230
1.0
 70
     8
 71
     3
 72
    12
 73
     8
 74
     0
 42
0.00000001
 43
0.00000001
 40
0.0
 40
0.0
 40
0.0
 40
0.0
 40
0.2034077986152291
 40
0.4376400377344393
 40
0.7026160208210837
 40
0.8473893807424194
 40
1.0
 40
1.0
 40
1.0
 40
1.0
 10
239.3585887115695
 20
90.26333632062162
 30
0.0
 10
239.3371479863241
 20
90.60634694409428
 30
0.0
 10
239.2910174059364
 20
91.34434805920324
 30
0.0
 10
238.778918415101
 20
92.44145654411123
 30
0.0
 10
238.0037194221167
 20
93.2242201981508
 30
0.0
 10
237.1758600292508
 20
93.6939353912512
 30
0.0
 10
236.6918745615062
 20
93.82020518815965
 30
0.0
 10
236.4435043495395
 20
93.88500394414152
 30
0.0
  0
SPLINE
  5
157
330
1F
100
AcDbEntity
  8
0
  6
Continuous
 62
     7
370
    15
100
AcDbSpline
210
0.0
220
0.0
230
1.0
 70
     8
 71
     3
 72
    12
 73
     8
 74
     0
 42
0.00000001
 43
0.00000001
 40
0.0
 40
0.0
 40
0.0
 40
0.0
 40
0.1555610649926968
 40
0.3022033035601834
 40
0.5679682974897053
 40
0.7999333966037685
 40
1.0
 40
1.0
 40
1.0
 40
1.0
 10
235.9431680601336
 20
90.9280026156732
 30
0.0
 10
235.9837146106445
 20
90.91225315828105
 30
0.0
 10
236.0624830448468
 20
90.88165721158059
 30
0.0
 10
236.1921215393095
 20
90.78661105598151
 30
0.0
 10
236.3065472571225
 20
90.64044811943617
 30
0.0
 10
236.3706863972668
 20
90.4461872466372
 30
0.0
 10
236.3635644957342
 20
90.32121080526106
 30
0.0
 10
236.3602664631106
 20
90.26333632062162
 30
0.0
  0
LINE
  5
158
330
1F
100
AcDbEntity
  8
0
  6
Continuous
 62
     7
370
    15
100
AcDbLine
 10
236.3594319981
 20
90.3133446176
 30
0.0
 11
236.3594319981
 21
90.0709474284
 31
0.0
  0
LINE
  5
159
330
1F
100
AcDbEntity
  8
0
  6
Continuous
 62
     7
370
    15
100
AcDbLine
 10
236.3594319981
 20
77.0709508855
 30
0.0
 11
236.3594319981
 21
76.6547018487
 31
0.0
  0
LINE
  5
15A
330
1F
100
AcDbEntity
  8
0
  6
Continuous
 62
     7
370
    15
100
AcDbLine
 10
239.3594231766
 20
76.6547018487
 30
0.0
 11
239.3594231766
 21
77.0736926992
 31
0.0
  0
LINE
  5
15B
330
1F
100
AcDbEntity
  8
0
  6
Continuous
 62
     7
370
    15
100
AcDbLine
 10
239.3594231766
 20
90.0682056148
 30
0.0
 11
239.3594231766
 21
90.3133446176
 31
0.0
  0
LINE
  5
15C
330
1F
100
AcDbEntity
  8
0
  6
Continuous
 62
     7
370
    15
100
AcDbLine
 10
225.6587144297
 20
89.1709470947
 30
0.0
 11
224.0404334229
 21
89.1709470947
 31
0.0
  0
LINE
  5
15D
330
1F
100
AcDbEntity
  8
0
  6
Continuous
 62
     7
370
    15
100
AcDbLine
 10
224.6673550766
 20
88.3709484536
 30
0.0
 11
225.6587144297
 21
88.3709484536
 31
0.0
  0
LINE
  5
15E
330
1F
100
AcDbEntity
  8
0
  6
Continuous
 62
     7
370
    15
100
AcDbLine
 10
225.9969409865
 20
90.4390806157
 30
0.0
 11
225.7304188174
 21
89.2308348615
 31
0.0
  0
LINE
  5
15F
330
1F
100
AcDbEntity
  8
0
  6
Continuous
 62
     7
370
    15
100
AcDbLine
 10
226.4985736769
 20
88.9992857177
 30
0.0
 11
226.7781492632
 21
90.2667486865
 31
0.0
  0
SPLINE
  5
160
330
1F
100
AcDbEntity
  8
0
  6
Continuous
 62
     7
370
    15
100
AcDbSpline
210
0.0
220
0.0
230
1.0
 70
     8
 71
     3
 72
    11
 73
     7
 74
     0
 42
0.00000001
 43
0.00000001
 40
0.0
 40
0.0
 40
0.0
 40
0.0
 40
0.2541311630691059
 40
0.5022676364033828
 40
0.7495179365131207
 40
1.0
 40
1.0
 40
1.0
 40
1.0
 10
225.6587144296863
 20
88.37094845364774
 30
0.0
 10
225.7588028629817
 20
88.38119357790006
 30
0.0
 10
225.9566187475647
 20
88.40144215458275
 30
0.0
 10
226.214770334714
 20
88.55546779148635
 30
0.0
 10
226.4182117519864
 20
88.7745490227342
 30
0.0
 10
226.4799477316157
 20
88.96159904812473
 30
0.0
 10
226.5110161464908
 20
89.05573131631101
 30
0.0
  0
LINE
  5
161
330
1F
100
AcDbEntity
  8
0
  6
Continuous
 62
     7
370
    15
100
AcDbLine
 10
225.2704348725
 20
90.7709443767
 30
0.0
 11
225.2704348725
 21
91.5709430177
 31
0.0
  0
LINE
  5
162
330
1F
100
AcDbEntity
  8
0
  6
Continuous
 62
     7
370
    15
100
AcDbLine
 10
225.2704348725
 20
75.5709403951
 30
0.0
 11
225.2704348725
 21
76.3709390361
 31
0.0
  0
LINE
  5
163
330
1F
100
AcDbEntity
  8
0
  6
Continuous
 62
     7
370
    15
100
AcDbLine
 10
220.3404452961
 20
91.870948096
 30
0.0
 11
220.3404452961
 21
91.5709430177
 31
0.0
  0
LINE
  5
164
330
1F
100
AcDbEntity
  8
0
  6
Continuous
 62
     7
370
    15
100
AcDbLine
 10
224.7404452723
 20
91.5709430177
 30
0.0
 11
224.7404452723
 21
91.870948096
 31
0.0
  0
ARC
  5
165
330
1F
100
AcDbEntity
  8
0
  6
Continuous
 62
     7
370
    15
100
AcDbCircle
 10
222.5404380053
 20
88.7638012335
 30
0.0
 40
3.807142857143293
100
AcDbArc
 50
54.6997515601
 51
125.3002484399
  0
LINE
  5
166
330
1F
100
AcDbEntity
  8
0
  6
Continuous
 62
     7
370
    15
100
AcDbLine
 10
220.4404320877
 20
75.1709485252
 30
0.0
 11
220.4404320877
 21
74.7709417541
 31
0.0
  0
LINE
  5
167
330
1F
100
AcDbEntity
  8
0
  6
Continuous
 62
     7
370
    15
100
AcDbLine
 10
224.6404435795
 20
74.7709417541
 30
0.0
 11
224.6404435795
 21
75.1709485252
 31
0.0
  0
ARC
  5
168
330
1F
100
AcDbEntity
  8
0
  6
Continuous
 62
     7
370
    15
100
AcDbCircle
 10
220.6404380053
 20
75.5709440906
 30
0.0
 40
0.4000000000008015
100
AcDbArc
 50
270.0
 51
0.0
  0
ARC
  5
169
330
1F
100
AcDbEntity
  8
0
  6
Continuous
 62
     7
370
    15
100
AcDbCircle
 10
224.4404380053
 20
75.5709440906
 30
0.0
 40
0.4000000000007731
100
AcDbArc
 50
180.0
 51
270.0
  0
LINE
  5
16A
330
1F
100
AcDbEntity
  8
0
  6
Continuous
 62
     7
370
    15
100
AcDbLine
 10
221.0404422444
 20
90.7709443767
 30
0.0
 11
221.0404422444
 21
90.3209442098
 31
0.0
  0
LINE
  5
16B
330
1F
100
AcDbEntity
  8
0
  6
Continuous
 62
     7
370
    15
100
AcDbLine
 10
221.0404422444
 20
89.3209421832
 30
0.0
 11
221.0404422444
 21
88.8322437007
 31
0.0
  0
LINE
  5
16C
330
1F
100
AcDbEntity
  8
0
  6
Continuous
 62
     7
370
    15
100
AcDbLine
 10
221.0404422444
 20
88.0361193616
 30
0.0
 11
221.0404422444
 21
87.8804320295
 31
0.0
  0
LINE
  5
16D
330
1F
100
AcDbEntity
  8
0
  6
Continuous
 62
     7
370
    15
100
AcDbLine
 10
221.0404422444
 20
78.581317683
 30
0.0
 11
221.0404422444
 21
77.8209412296
 31
0.0
  0
LINE
  5
16E
330
1F
100
AcDbEntity
  8
0
  6
Continuous
 62
     7
370
    15
100
AcDbLine
 10
221.0404422444
 20
76.820939203
 30
0.0
 11
221.0404422444
 21
76.3709390361
 31
0.0
  0
LINE
  5
16F
330
1F
100
AcDbEntity
  8
0
  6
Continuous
 62
     7
370
    15
100
AcDbLine
 10
224.0404334229
 20
76.3709390361
 30
0.0
 11
224.0404334229
 21
76.820939203
 31
0.0
  0
LINE
  5
170
330
1F
100
AcDbEntity
  8
0
  6
Continuous
 62
     7
370
    15
100
AcDbLine
 10
224.0404334229
 20
77.8209412296
 30
0.0
 11
224.0404334229
 21
78.3080899913
 31
0.0
  0
LINE
  5
171
330
1F
100
AcDbEntity
  8
0
  6
Continuous
 62
     7
370
    15
100
AcDbLine
 10
224.0404334229
 20
87.6160109241
 30
0.0
 11
224.0404334229
 21
87.8039443691
 31
0.0
  0
LINE
  5
172
330
1F
100
AcDbEntity
  8
0
  6
Continuous
 62
     7
370
    15
100
AcDbLine
 10
224.0404334229
 20
88.5590160091
 30
0.0
 11
224.0404334229
 21
89.3209421832
 31
0.0
  0
LINE
  5
173
330
1F
100
AcDbEntity
  8
0
  6
Continuous
 62
     7
370
    15
100
AcDbLine
 10
224.0404334229
 20
90.3209442098
 30
0.0
 11
224.0404334229
 21
90.7709443767
 31
0.0
  0
LINE
  5
174
330
1F
100
AcDbEntity
  8
0
  6
Continuous
 62
     7
370
    15
100
AcDbLine
 10
225.2704348725
 20
460.7709491451
 30
0.0
 11
225.2704348725
 21
461.5709477861
 31
0.0
  0
LINE
  5
175
330
1F
100
AcDbEntity
  8
0
  6
Continuous
 62
     7
370
    15
100
AcDbLine
 10
225.2704348725
 20
445.5709451635
 30
0.0
 11
225.2704348725
 21
446.3709438045
 31
0.0
  0
LINE
  5
176
330
1F
100
AcDbEntity
  8
0
  6
Continuous
 62
     7
370
    15
100
AcDbLine
 10
220.3404452961
 20
461.8709379632
 30
0.0
 11
220.3404452961
 21
461.5709477861
 31
0.0
  0
LINE
  5
177
330
1F
100
AcDbEntity
  8
0
  6
Continuous
 62
     7
370
    15
100
AcDbLine
 10
224.7404452723
 20
461.5709477861
 30
0.0
 11
224.7404452723
 21
461.8709379632
 31
0.0
  0
ARC
  5
178
330
1F
100
AcDbEntity
  8
0
  6
Continuous
 62
     7
370
    15
100
AcDbCircle
 10
222.5404380053
 20
458.7638012335
 30
0.0
 40
3.807142857143305
100
AcDbArc
 50
54.6997515601
 51
125.3002484399
  0
LINE
  5
179
330
1F
100
AcDbEntity
  8
0
  6
Continuous
 62
     7
370
    15
100
AcDbLine
 10
220.4404320877
 20
445.1709383924
 30
0.0
 11
220.4404320877
 21
444.7709465225
 31
0.0
  0
LINE
  5
17A
330
1F
100
AcDbEntity
  8
0
  6
Continuous
 62
     7
370
    15
100
AcDbLine
 10
224.6404435795
 20
444.7709465225
 30
0.0
 11
224.6404435795
 21
445.1709383924
 31
0.0
  0
ARC
  5
17B
330
1F
100
AcDbEntity
  8
0
  6
Continuous
 62
     7
370
    15
100
AcDbCircle
 10
220.6404380053
 20
445.5709440906
 30
0.0
 40
0.4000000000008015
100
AcDbArc
 50
270.0
 51
0.0
  0
ARC
  5
17C
330
1F
100
AcDbEntity
  8
0
  6
Continuous
 62
     7
370
    15
100
AcDbCircle
 10
224.4404380053
 20
445.5709440906
 30
0.0
 40
0.4000000000007731
100
AcDbArc
 50
180.0
 51
270.0
  0
LINE
  5
17D
330
1F
100
AcDbEntity
  8
0
  6
Continuous
 62
     7
370
    15
100
AcDbLine
 10
221.0404422444
 20
460.7709491451
 30
0.0
 11
221.0404422444
 21
460.3209489782
 31
0.0
  0
LINE
  5
17E
330
1F
100
AcDbEntity
  8
0
  6
Continuous
 62
     7
370
    15
100
AcDbLine
 10
221.0404422444
 20
459.3209469516
 30
0.0
 11
221.0404422444
 21
458.8322335679
 31
0.0
  0
LINE
  5
17F
330
1F
100
AcDbEntity
  8
0
  6
Continuous
 62
     7
370
    15
100
AcDbLine
 10
221.0404422444
 20
458.03612413
 30
0.0
 11
221.0404422444
 21
457.8804218967
 31
0.0
  0
LINE
  5
180
330
1F
100
AcDbEntity
  8
0
  6
Continuous
 62
     7
370
    15
100
AcDbLine
 10
221.0404422444
 20
448.5813224513
 30
0.0
 11
221.0404422444
 21
447.8209459979
 31
0.0
  0
LINE
  5
181
330
1F
100
AcDbEntity
  8
0
  6
Continuous
 62
     7
370
    15
100
AcDbLine
 10
221.0404422444
 20
446.8209439714
 30
0.0
 11
221.0404422444
 21
446.3709438045
 31
0.0
  0
LINE
  5
182
330
1F
100
AcDbEntity
  8
0
  6
Continuous
 62
     7
370
    15
100
AcDbLine
 10
224.0404334229
 20
446.3709438045
 30
0.0
 11
224.0404334229
 21
446.8209439714
 31
0.0
  0
LINE
  5
183
330
1F
100
AcDbEntity
  8
0
  6
Continuous
 62
     7
370
    15
100
AcDbLine
 10
224.0404334229
 20
447.8209459979
 30
0.0
 11
224.0404334229
 21
448.3080798585
 31
0.0
  0
LINE
  5
184
330
1F
100
AcDbEntity
  8
0
  6
Continuous
 62
     7
370
    15
100
AcDbLine
 10
224.0404334229
 20
457.6160007913
 30
0.0
 11
224.0404334229
 21
457.8039491374
 31
0.0
  0
LINE
  5
185
330
1F
100
AcDbEntity
  8
0
  6
Continuous
 62
     7
370
    15
100
AcDbLine
 10
224.0404334229
 20
458.5590207774
 30
0.0
 11
224.0404334229
 21
459.3209469516
 31
0.0
  0
LINE
  5
186
330
1F
100
AcDbEntity
  8
0
  6
Continuous
 62
     7
370
    15
100
AcDbLine
 10
224.0404334229
 20
460.3209489782
 30
0.0
 11
224.0404334229
 21
460.7709491451
 31
0.0
  0
SPLINE
  5
187
330
1F
100
AcDbEntity
  8
0
  6
Continuous
 62
     7
370
    15
100
AcDbSpline
210
0.0
220
0.0
230
1.0
 70
     8
 71
     3
 72
    15
 73
    11
 74
     0
 42
0.00000001
 43
0.00000001
 40
0.0
 40
0.0
 40
0.0
 40
0.0
 40
0.1356091197087967
 40
0.2953379153886
 40
0.4038138123368445
 40
0.5319707127957541
 40
0.6738448306188487
 40
0.8261134899844814
 40
0.9126194809754825
 40
1.0
 40
1.0
 40
1.0
 40
1.0
 10
224.0404334228732
 20
448.1369847256967
 30
0.0
 10
224.0848146059555
 20
448.1296642334947
 30
0.0
 10
224.1814706872141
 20
448.1137212135031
 30
0.0
 10
224.3883174011642
 20
448.1613859133936
 30
0.0
 10
224.5816029254901
 20
448.2491168520011
 30
0.0
 10
224.7281623708735
 20
448.3687694040718
 30
0.0
 10
224.8268850677901
 20
448.5196669019707
 30
0.0
 10
224.8565386820216
 20
448.6414984735661
 30
0.0
 10
224.8353646496193
 20
448.7707707020611
 30
0.0
 10
224.7891101946194
 20
448.8374394151561
 30
0.0
 10
224.7658666532733
 20
448.8709414202997
 30
0.0
  0
SPLINE
  5
188
330
1F
100
AcDbEntity
  8
0
  6
Continuous
 62
     7
370
    15
100
AcDbSpline
210
0.0
220
0.0
230
1.0
 70
     8
 71
     3
 72
    20
 73
    16
 74
     0
 42
0.00000001
 43
0.00000001
 40
0.0
 40
0.0
 40
0.0
 40
0.0
 40
0.0607082495881198
 40
0.2265318353751299
 40
0.3908031804988947
 40
0.4705947468638401
 40
0.5476201503029052
 40
0.6228569947325449
 40
0.7003370574811197
 40
0.7786473798731697
 40
0.8566580867353221
 40
0.9331038943445225
 40
0.9703735256589812
 40
0.9892323987104926
 40
1.0
 40
1.0
 40
1.0
 40
1.0
 10
220.3042354744174
 20
448.8709414202997
 30
0.0
 10
220.3505098813719
 20
448.8176099879673
 30
0.0
 10
220.5231820702328
 20
448.6186046249168
 30
0.0
 10
220.9401672079545
 20
448.6006704695928
 30
0.0
 10
221.5051075219201
 20
448.5256493220571
 30
0.0
 10
222.0247234129878
 20
448.4827109422183
 30
0.0
 10
222.4186176832094
 20
448.4521499911432
 30
0.0
 10
222.8115292386122
 20
448.4244786612229
 30
0.0
 10
223.1926900963032
 20
448.3931675180821
 30
0.0
 10
223.5484121476169
 20
448.3606949665794
 30
0.0
 10
223.8510503808768
 20
448.3298560581566
 30
0.0
 10
224.0435339184047
 20
448.306958904257
 30
0.0
 10
224.1316745501607
 20
448.2989374259265
 30
0.0
 10
224.1770957380551
 20
448.2911556177558
 30
0.0
 10
224.1765465235308
 20
448.2950984536376
 30
0.0
 10
224.1763469141223
 20
448.2965314585992
 30
0.0
  0
SPLINE
  5
189
330
1F
100
AcDbEntity
  8
0
  6
Continuous
 62
     7
370
    15
100
AcDbSpline
210
0.0
220
0.0
230
1.0
 70
     8
 71
     3
 72
    18
 73
    14
 74
     0
 42
0.00000001
 43
0.00000001
 40
0.0
 40
0.0
 40
0.0
 40
0.0
 40
0.0057558256776612
 40
0.1156405586245694
 40
0.2383946514687826
 40
0.3593096031671252
 40
0.4757056074283119
 40
0.5872117986999811
 40
0.7047314249150657
 40
0.8264989616408728
 40
0.8891457600929906
 40
0.9517929492285079
 40
1.0
 40
1.0
 40
1.0
 40
1.0
 10
224.5470580023028
 20
457.5177723367044
 30
0.0
 10
224.5424109031396
 20
457.5207245395569
 30
0.0
 10
224.4490458199494
 20
457.580037382952
 30
0.0
 10
224.2266225784487
 20
457.5862883162228
 30
0.0
 10
223.8352713514765
 20
457.6454598241729
 30
0.0
 10
223.3233852009324
 20
457.6910046336548
 30
0.0
 10
222.7723488893803
 20
457.7371698757127
 30
0.0
 10
222.2102337944399
 20
457.776049911554
 30
0.0
 10
221.6759561928306
 20
457.8208021787327
 30
0.0
 10
221.2783158992048
 20
457.861845302852
 30
0.0
 10
221.063599111469
 20
457.8829901104271
 30
0.0
 10
220.967530778434
 20
457.8852647375863
 30
0.0
 10
220.9520882916909
 20
457.8691887305141
 30
0.0
 10
220.9453728359439
 20
457.862197776539
 30
0.0
  0
SPLINE
  5
18A
330
1F
100
AcDbEntity
  8
0
  6
Continuous
 62
     7
370
    15
100
AcDbSpline
210
0.0
220
0.0
230
1.0
 70
     8
 71
     3
 72
    12
 73
     8
 74
     0
 42
0.00000001
 43
0.00000001
 40
0.0
 40
0.0
 40
0.0
 40
0.0
 40
0.2236737957458163
 40
0.4523021107951978
 40
0.6822314221296185
 40
0.9102237272738865
 40
1.0
 40
1.0
 40
1.0
 40
1.0
 10
220.2461358469226
 20
458.6727911431619
 30
0.0
 10
220.2334029305873
 20
458.6302404170757
 30
0.0
 10
220.207655055581
 20
458.5441964387881
 30
0.0
 10
220.3287805687974
 20
458.4526077321805
 30
0.0
 10
220.5604625561603
 20
458.3562693455352
 30
0.0
 10
220.8053061489859
 20
458.2938118517737
 30
0.0
 10
220.9886451422865
 20
458.2990154931546
 30
0.0
 10
221.0404422443606
 20
458.3004856307336
 30
0.0
  0
SPLINE
  5
18B
330
1F
100
AcDbEntity
  8
0
  6
Continuous
 62
     7
370
    15
100
AcDbSpline
210
0.0
220
0.0
230
1.0
 70
     8
 71
     3
 72
    19
 73
    15
 74
     0
 42
0.00000001
 43
0.00000001
 40
0.0
 40
0.0
 40
0.0
 40
0.0
 40
0.0979016191857726
 40
0.1753767090334034
 40
0.2884797297953404
 40
0.3734507061666763
 40
0.4570013478552226
 40
0.6168862838847594
 40
0.679664545280869
 40
0.7634255551665973
 40
0.8137510171898065
 40
0.8702945857013725
 40
0.9323961952720439
 40
1.0
 40
1.0
 40
1.0
 40
1.0
 10
220.4223718803622
 20
458.1776702601739
 30
0.0
 10
220.4728841986245
 20
458.1512883922738
 30
0.0
 10
220.5633697719599
 20
458.1040290598036
 30
0.0
 10
220.9379927813701
 20
458.0433888970255
 30
0.0
 10
221.4245198799778
 20
457.9894922770327
 30
0.0
 10
222.0158354681468
 20
457.9362709082855
 30
0.0
 10
222.7699503525428
 20
457.884722671392
 30
0.0
 10
223.4110263211549
 20
457.8177694612107
 30
0.0
 10
224.0603251593751
 20
457.7822459412326
 30
0.0
 10
224.4386253376463
 20
457.8604520952465
 30
0.0
 10
224.6905038697181
 20
457.9686340681934
 30
0.0
 10
224.8240799534569
 20
458.0569801904125
 30
0.0
 10
224.8858569137982
 20
458.1308158889442
 30
0.0
 10
224.8144136193261
 20
458.2113390494893
 30
0.0
 10
224.7771766346194
 20
458.2533085543939
 30
0.0
  0
SPLINE
  5
18C
330
1F
100
AcDbEntity
  8
0
  6
Continuous
 62
     7
370
    15
100
AcDbSpline
210
0.0
220
0.0
230
1.0
 70
     8
 71
     3
 72
    25
 73
    21
 74
     0
 42
0.00000001
 43
0.00000001
 40
0.0
 40
0.0
 40
0.0
 40
0.0
 40
0.0176266604132267
 40
0.0344978305666418
 40
0.0503139129986175
 40
0.0649731684005604
 40
0.0909452438696607
 40
0.1134379469739163
 40
0.153840771756824
 40
0.1912344990785861
 40
0.2995711913486163
 40
0.3999638679938782
 40
0.5012958654425138
 40
0.5949062183926866
 40
0.6784876921018369
 40
0.7336316108402124
 40
0.8075187077807442
 40
0.895285398544903
 40
0.9453088009269912
 40
0.9999999999999999
 40
0.9999999999999999
 40
0.9999999999999999
 40
0.9999999999999999
 10
224.4198616903521
 20
457.6277280051538
 30
0.0
 10
224.4595735823677
 20
457.6321180463622
 30
0.0
 10
224.5372952885853
 20
457.6407099687252
 30
0.0
 10
224.6391569132892
 20
457.6867196032038
 30
0.0
 10
224.7201840837143
 20
457.7456844846249
 30
0.0
 10
224.7963781000962
 20
457.8292427778316
 30
0.0
 10
224.8494264259527
 20
457.9328913768384
 30
0.0
 10
224.8736046692698
 20
458.0652464413397
 30
0.0
 10
224.8506974153633
 20
458.197097918567
 30
0.0
 10
224.6794647883551
 20
458.4423042492368
 30
0.0
 10
224.3366769884521
 20
458.5293969036023
 30
0.0
 10
223.8415640353791
 20
458.5879553152132
 30
0.0
 10
223.2283507987472
 20
458.6462993324647
 30
0.0
 10
222.5788822030057
 20
458.6959221437618
 30
0.0
 10
222.0391757872474
 20
458.7354114878681
 30
0.0
 10
221.593181172069
 20
458.7745843241327
 30
0.0
 10
221.2044491705612
 20
458.8128182037655
 30
0.0
 10
220.9443134716437
 20
458.8406419477962
 30
0.0
 10
220.813861089972
 20
458.8631610505245
 30
0.0
 10
220.8052040371514
 20
458.8756170396617
 30
0.0
 10
220.8006825607516
 20
458.882122655613
 30
0.0
  0
SPLINE
  5
18D
330
1F
100
AcDbEntity
  8
0
  6
Continuous
 62
     7
370
    15
100
AcDbSpline
210
0.0
220
0.0
230
1.0
 70
     8
 71
     3
 72
    12
 73
     8
 74
     0
 42
0.00000001
 43
0.00000001
 40
0.0
 40
0.0
 40
0.0
 40
0.0
 40
0.1756435528008696
 40
0.5723149961088316
 40
0.7586154256977586
 40
0.9207604683868135
 40
1.0
 40
1.0
 40
1.0
 40
1.0
 10
220.8890017431476
 20
458.0636316735574
 30
0.0
 10
220.823444128469
 20
458.0544609036621
 30
0.0
 10
220.6098319269883
 20
458.0245789691803
 30
0.0
 10
220.3938936800552
 20
457.9506450056055
 30
0.0
 10
220.2327550974833
 20
457.7357061327599
 30
0.0
 10
220.2015280719718
 20
457.5755021879333
 30
0.0
 10
220.2325087292558
 20
457.4968362358276
 30
0.0
 10
220.2426787775256
 20
457.4710124928781
 30
0.0
  0
LINE
  5
18E
330
1F
100
AcDbEntity
  8
0
  6
Continuous
 62
     7
370
    15
100
AcDbLine
 10
220.4001989525
 20
448.773204704
 30
0.0
 11
219.2817326945
 21
448.773204704
 31
0.0
  0
LINE
  5
18F
330
1F
100
AcDbEntity
  8
0
  6
Continuous
 62
     7
370
    15
100
AcDbLine
 10
219.2817326945
 20
447.973206063
 30
0.0
 11
221.0404422444
 21
447.973206063
 31
0.0
  0
LINE
  5
190
330
1F
100
AcDbEntity
  8
0
  6
Continuous
 62
     7
370
    15
100
AcDbLine
 10
217.8714420956
 20
461.5709477861
 30
0.0
 11
217.8714420956
 21
461.6244131524
 31
0.0
  0
LINE
  5
191
330
1F
100
AcDbEntity
  8
0
  6
Continuous
 62
     7
370
    15
100
AcDbLine
 10
214.8714509171
 20
461.6244131524
 30
0.0
 11
214.8714509171
 21
461.5709477861
 31
0.0
  0
SPLINE
  5
192
330
1F
100
AcDbEntity
  8
0
  6
Continuous
 62
     7
370
    15
100
AcDbSpline
210
0.0
220
0.0
230
1.0
 70
     8
 71
     3
 72
    15
 73
    11
 74
     0
 42
0.00000001
 43
0.00000001
 40
0.0
 40
0.0
 40
0.0
 40
0.0
 40
0.1077555434559719
 40
0.2352511640955574
 40
0.3627903074624431
 40
0.4902567871443522
 40
0.6176630193615796
 40
0.745096792469643
 40
0.8724963683622238
 40
1.0
 40
1.0
 40
1.0
 40
1.0
 10
214.8874994676807
 20
445.5709451634714
 30
0.0
 10
214.9040385922748
 20
445.2584229365423
 30
0.0
 10
214.9401466957567
 20
444.5761265522189
 30
0.0
 10
215.2763593877979
 20
443.5669784195704
 30
0.0
 10
215.8344395574555
 20
442.603498892018
 30
0.0
 10
216.5892634478064
 20
441.7825734146934
 30
0.0
 10
217.5044284057815
 20
441.1473050125639
 30
0.0
 10
218.5316836906879
 20
440.7271523492916
 30
0.0
 10
219.6276630185892
 20
440.5133209140006
 30
0.0
 10
220.3634220670504
 20
440.5788613884704
 30
0.0
 10
220.731451765845
 20
440.6116450030633
 30
0.0
  0
SPLINE
  5
193
330
1F
100
AcDbEntity
  8
0
  6
Continuous
 62
     7
370
    15
100
AcDbSpline
210
0.0
220
0.0
230
1.0
 70
     8
 71
     3
 72
    15
 73
    11
 74
     0
 42
0.00000001
 43
0.00000001
 40
0.0
 40
0.0
 40
0.0
 40
0.0
 40
0.1316507783681803
 40
0.2633115976138969
 40
0.3951897422381149
 40
0.5266717386805909
 40
0.6575475432232487
 40
0.7882114370884227
 40
0.9184603407187071
 40
1.0
 40
1.0
 40
1.0
 40
1.0
 10
220.2337678831317
 20
443.5693317849465
 30
0.0
 10
220.0815836547914
 20
443.5575163896721
 30
0.0
 10
219.7772035911669
 20
443.5338846979745
 30
0.0
 10
219.326346594885
 20
443.6353647013419
 30
0.0
 10
218.9073053183112
 20
443.8222057473318
 30
0.0
 10
218.5369199170144
 20
444.0948163330032
 30
0.0
 10
218.234668490614
 20
444.4407298117126
 30
0.0
 10
218.0154868816951
 20
444.8424274016327
 30
0.0
 10
217.8981384763014
 20
445.2287465054099
 30
0.0
 10
217.8879544702284
 20
445.4758204537648
 30
0.0
 10
217.8840335767962
 20
445.5709451634713
 30
0.0
  0
SPLINE
  5
194
330
1F
100
AcDbEntity
  8
0
  6
Continuous
 62
     7
370
    15
100
AcDbSpline
210
0.0
220
0.0
230
1.0
 70
     8
 71
     3
 72
    15
 73
    11
 74
     0
 42
0.00000001
 43
0.00000001
 40
0.0
 40
0.0
 40
0.0
 40
0.0
 40
0.1249272439887276
 40
0.2499158554258029
 40
0.3749669609074118
 40
0.4999574156264313
 40
0.6249201877790589
 40
0.7499167625029147
 40
0.8748745343211859
 40
1.0
 40
1.0
 40
1.0
 40
1.0
 10
220.9023233812549
 20
466.5014589030572
 30
0.0
 10
220.5359469008463
 20
466.5447893147193
 30
0.0
 10
219.8030139665581
 20
466.6314714230466
 30
0.0
 10
218.6989864819417
 20
466.4663045909309
 30
0.0
 10
217.6581970277715
 20
466.0773478655663
 30
0.0
 10
216.7229951237353
 20
465.4723550765195
 30
0.0
 10
215.9423631101341
 20
464.6761502741625
 30
0.0
 10
215.3543847163608
 20
463.7317977881905
 30
0.0
 10
214.9585664173183
 20
462.6833477067805
 30
0.0
 10
214.9005023954748
 20
461.94422761288
 30
0.0
 10
214.8714509170749
 20
461.5744197566339
 30
0.0
  0
SPLINE
  5
195
330
1F
100
AcDbEntity
  8
0
  6
Continuous
 62
     7
370
    15
100
AcDbSpline
210
0.0
220
0.0
230
1.0
 70
     8
 71
     3
 72
    15
 73
    11
 74
     0
 42
0.00000001
 43
0.00000001
 40
0.0
 40
0.0
 40
0.0
 40
0.0
 40
0.1242508736842745
 40
0.2486325372495402
 40
0.3735411194818075
 40
0.4985813228880121
 40
0.6236638584884179
 40
0.7490691537669171
 40
0.874436447328864
 40
1.0
 40
1.0
 40
1.0
 40
1.0
 10
217.8714420955874
 20
461.5744197566339
 30
0.0
 10
217.8850063975913
 20
461.7263725548125
 30
0.0
 10
217.9121492797556
 20
462.030438100857
 30
0.0
 10
218.086599374824
 20
462.4577557012638
 30
0.0
 10
218.3399339564262
 20
462.8393981269249
 30
0.0
 10
218.6697532094321
 20
463.15933187
 30
0.0
 10
219.0606806272535
 20
463.3999073155823
 30
0.0
 10
219.4933839089481
 20
463.5515164103241
 30
0.0
 10
219.9509093267488
 20
463.6049786653076
 30
0.0
 10
220.2528306233521
 20
463.5642941845074
 30
0.0
 10
220.403909341643
 20
463.5439360339471
 30
0.0
  0
LINE
  5
196
330
1F
100
AcDbEntity
  8
0
  6
Continuous
 62
     7
370
    15
100
AcDbLine
 10
235.7745018166
 20
446.1860799987
 30
0.0
 11
220.2335443657
 21
443.5696596105
 31
0.0
  0
LINE
  5
197
330
1F
100
AcDbEntity
  8
0
  6
Continuous
 62
     7
370
    15
100
AcDbLine
 10
220.7316007775
 20
440.6113022764
 30
0.0
 11
236.2725731295
 21
443.2277077634
 31
0.0
  0
LINE
  5
198
330
1F
100
AcDbEntity
  8
0
  6
Continuous
 62
     7
370
    15
100
AcDbLine
 10
220.4041179579
 20
463.5435039003
 30
0.0
 11
235.9450903099
 21
460.9270835121
 31
0.0
  0
LINE
  5
199
330
1F
100
AcDbEntity
  8
0
  6
Continuous
 62
     7
370
    15
100
AcDbLine
 10
236.4431467217
 20
463.8854557473
 30
0.0
 11
220.9021892708
 21
466.5018761356
 31
0.0
  0
SPLINE
  5
19A
330
1F
100
AcDbEntity
  8
0
  6
Continuous
 62
     7
370
    15
100
AcDbSpline
210
0.0
220
0.0
230
1.0
 70
     8
 71
     3
 72
    12
 73
     8
 74
     0
 42
0.00000001
 43
0.00000001
 40
0.0
 40
0.0
 40
0.0
 40
0.0
 40
0.1526135604568276
 40
0.2973905261041906
 40
0.5623705921371759
 40
0.7966015821471988
 40
1.0
 40
1.0
 40
1.0
 40
1.0
 10
236.2722155016162
 20
443.2280206878015
 30
0.0
 10
236.5234352501008
 20
443.2807584022597
 30
0.0
 10
237.0129747965601
 20
443.3835257880758
 30
0.0
 10
237.8624954269361
 20
443.8127786183528
 30
0.0
 10
238.6744848730094
 20
444.5571723220118
 30
0.0
 10
239.2389353432233
 20
445.6282118666225
 30
0.0
 10
239.320622643895
 20
446.3631400121979
 30
0.0
 10
239.3585887115695
 20
446.7047149140664
 30
0.0
  0
SPLINE
  5
19B
330
1F
100
AcDbEntity
  8
0
  6
Continuous
 62
     7
370
    15
100
AcDbSpline
210
0.0
220
0.0
230
1.0
 70
     8
 71
     3
 72
    11
 73
     7
 74
     0
 42
0.00000001
 43
0.00000001
 40
0.0
 40
0.0
 40
0.0
 40
0.0
 40
0.2003616796215711
 40
0.4328080289723691
 40
0.6990147081454188
 40
0.9999999999999999
 40
0.9999999999999999
 40
0.9999999999999999
 40
0.9999999999999999
 10
236.3602664631107
 20
446.7047149140665
 30
0.0
 10
236.3470392911335
 20
446.6482860699052
 30
0.0
 10
236.3184668303558
 20
446.5263922184224
 30
0.0
 10
236.2025811402832
 20
446.3607022437951
 30
0.0
 10
236.0178314605827
 20
446.221776333921
 30
0.0
 10
235.8602140897966
 20
446.1983872884746
 30
0.0
 10
235.7765730779864
 20
446.1859756905862
 30
0.0
  0
SPLINE
  5
19C
330
1F
100
AcDbEntity
  8
0
  6
Continuous
 62
     7
370
    15
100
AcDbSpline
210
0.0
220
0.0
230
1.0
 70
     8
 71
     3
 72
    12
 73
     8
 74
     0
 42
0.00000001
 43
0.00000001
 40
0.0
 40
0.0
 40
0.0
 40
0.0
 40
0.2034079759252481
 40
0.4376404192240576
 40
0.7026166332895382
 40
0.8473901194094139
 40
0.9999999999999999
 40
0.9999999999999999
 40
0.9999999999999999
 40
0.9999999999999999
 10
239.3585887115695
 20
460.2633410889932
 30
0.0
 10
239.3371479761573
 20
460.60635167962
 30
0.0
 10
239.2910173738956
 20
461.3443527240599
 30
0.0
 10
238.7789185746158
 20
462.4414618278314
 30
0.0
 10
238.0037188716346
 20
463.2242231880655
 30
0.0
 10
237.1758623835274
 20
463.6939428917622
 30
0.0
 10
236.6918749035129
 20
463.8202011545727
 30
0.0
 10
236.4435043495395
 20
463.8849938113519
 30
0.0
  0
SPLINE
  5
19D
330
1F
100
AcDbEntity
  8
0
  6
Continuous
 62
     7
370
    15
100
AcDbSpline
210
0.0
220
0.0
230
1.0
 70
     8
 71
     3
 72
    12
 73
     8
 74
     0
 42
0.00000001
 43
0.00000001
 40
0.0
 40
0.0
 40
0.0
 40
0.0
 40
0.1555612070081118
 40
0.3022035794488034
 40
0.5679688160015415
 40
0.7999504135698806
 40
1.0
 40
1.0
 40
1.0
 40
1.0
 10
235.9431680601336
 20
460.9280073840447
 30
0.0
 10
235.9837146214887
 20
460.9122579309179
 30
0.0
 10
236.0624830767579
 20
460.8816619925036
 30
0.0
 10
236.1921213800634
 20
460.7866157617175
 30
0.0
 10
236.306551245667
 20
460.6404496247468
 30
0.0
 10
236.370683990468
 20
460.4461861156357
 30
0.0
 10
236.3635635449663
 20
460.321210389361
 30
0.0
 10
236.3602664631106
 20
460.2633410889932
 30
0.0
  0
LINE
  5
19E
330
1F
100
AcDbEntity
  8
0
  6
Continuous
 62
     7
370
    15
100
AcDbLine
 10
236.3594319981
 20
460.3133344848
 30
0.0
 11
236.3594319981
 21
460.0709372957
 31
0.0
  0
LINE
  5
19F
330
1F
100
AcDbEntity
  8
0
  6
Continuous
 62
     7
370
    15
100
AcDbLine
 10
236.3594319981
 20
447.0709407527
 30
0.0
 11
236.3594319981
 21
446.6547066171
 31
0.0
  0
LINE
  5
1A0
330
1F
100
AcDbEntity
  8
0
  6
Continuous
 62
     7
370
    15
100
AcDbLine
 10
239.3594231766
 20
446.6547066171
 30
0.0
 11
239.3594231766
 21
447.0736825664
 31
0.0
  0
LINE
  5
1A1
330
1F
100
AcDbEntity
  8
0
  6
Continuous
 62
     7
370
    15
100
AcDbLine
 10
239.3594231766
 20
460.068195482
 30
0.0
 11
239.3594231766
 21
460.3133344848
 31
0.0
  0
LINE
  5
1A2
330
1F
100
AcDbEntity
  8
0
  6
Continuous
 62
     7
370
    15
100
AcDbLine
 10
225.6587144297
 20
459.1709369619
 30
0.0
 11
224.0404334229
 21
459.1709369619
 31
0.0
  0
LINE
  5
1A3
330
1F
100
AcDbEntity
  8
0
  6
Continuous
 62
     7
370
    15
100
AcDbLine
 10
224.6673550766
 20
458.3709383209
 30
0.0
 11
225.6587144297
 21
458.3709383209
 31
0.0
  0
LINE
  5
1A4
330
1F
100
AcDbEntity
  8
0
  6
Continuous
 62
     7
370
    15
100
AcDbLine
 10
225.9969409865
 20
460.4390853841
 30
0.0
 11
225.7304188174
 21
459.2308396299
 31
0.0
  0
LINE
  5
1A5
330
1F
100
AcDbEntity
  8
0
  6
Continuous
 62
     7
370
    15
100
AcDbLine
 10
226.4985736769
 20
458.9992904861
 30
0.0
 11
226.7781492632
 21
460.2667534549
 31
0.0
  0
SPLINE
  5
1A6
330
1F
100
AcDbEntity
  8
0
  6
Continuous
 62
     7
370
    15
100
AcDbSpline
210
0.0
220
0.0
230
1.0
 70
     8
 71
     3
 72
    11
 73
     7
 74
     0
 42
0.00000001
 43
0.00000001
 40
0.0
 40
0.0
 40
0.0
 40
0.0
 40
0.2541322396080093
 40
0.5022676065307782
 40
0.7495073204938133
 40
1.0
 40
1.0
 40
1.0
 40
1.0
 10
225.6587144296863
 20
458.3709383208581
 30
0.0
 10
225.7588028856999
 20
458.3811894392503
 30
0.0
 10
225.9566179654428
 20
458.4014497757863
 30
0.0
 10
226.2147646314863
 20
458.5554717646617
 30
0.0
 10
226.418219921987
 20
458.7745433461414
 30
0.0
 10
226.4799495921028
 20
458.9615976695467
 30
0.0
 10
226.5110161464908
 20
459.0557360846826
 30
0.0
  0
LINE
  5
1A7
330
1F
100
AcDbEntity
  8
0
  6
Continuous
 62
     7
370
    15
100
AcDbLine
 10
235.6390502613
 20
460.0709372957
 30
0.0
 11
235.6390502613
 21
447.0709407527
 31
0.0
  0
LINE
  5
1A8
330
1F
100
AcDbEntity
  8
0
  6
Continuous
 62
     7
370
    15
100
AcDbLine
 10
235.6390502613
 20
460.0709372957
 30
0.0
 11
238.358035342
 21
460.0709372957
 31
0.0
  0
LWPOLYLINE
  5
1A9
330
1F
100
AcDbEntity
  8
0
  6
Continuous
 62
     7
370
    15
100
AcDbPolyline
 90
        9
 70
   128
 43
0.0
 10
239.0885498684
 20
458.8709467847
 10
239.0745129746
 20
459.1050589282
 10
239.0329387348
 20
459.3301707704
 10
238.9654215735
 20
459.5376247365
 10
238.8745840948
 20
459.7194785077
 10
238.7638833683
 20
459.8687136371
 10
238.637581126
 20
459.9795931775
 10
238.5005500477
 20
460.0478851993
 10
238.358035342
 20
460.0709372957
  0
LINE
  5
1AA
330
1F
100
AcDbEntity
  8
0
  6
Continuous
 62
     7
370
    15
100
AcDbLine
 10
239.0885498684
 20
458.8709467847
 30
0.0
 11
239.0885498684
 21
448.2709461648
 31
0.0
  0
LWPOLYLINE
  5
1AB
330
1F
100
AcDbEntity
  8
0
  6
Continuous
 62
     7
370
    15
100
AcDbPolyline
 90
        9
 70
   128
 43
0.0
 10
238.358035342
 20
447.0709407527
 10
238.5005500477
 20
447.0940077503
 10
238.637581126
 20
447.1622848708
 10
238.7638833683
 20
447.2731793125
 10
238.8745840948
 20
447.4224144418
 10
238.9654215735
 20
447.6042533119
 10
239.0329387348
 20
447.8117221792
 10
239.0745129746
 20
448.0368340213
 10
239.0885498684
 20
448.2709461648
  0
LINE
  5
1AC
330
1F
100
AcDbEntity
  8
0
  6
Continuous
 62
     7
370
    15
100
AcDbLine
 10
238.358035342
 20
447.0709407527
 30
0.0
 11
235.6390502613
 21
447.0709407527
 31
0.0
  0
LINE
  5
1AD
330
1F
100
AcDbEntity
  8
0
  6
Continuous
 62
     7
370
    15
100
AcDbLine
 10
240.0405701559
 20
458.8709467847
 30
0.0
 11
239.0885498684
 21
458.8709467847
 31
0.0
  0
LINE
  5
1AE
330
1F
100
AcDbEntity
  8
0
  6
Continuous
 62
     7
370
    15
100
AcDbLine
 10
240.0405701559
 20
458.8709467847
 30
0.0
 11
240.0405701559
 21
448.2709461648
 31
0.0
  0
LINE
  5
1AF
330
1F
100
AcDbEntity
  8
0
  6
Continuous
 62
     7
370
    15
100
AcDbLine
 10
239.0885498684
 20
448.2709461648
 30
0.0
 11
240.0405701559
 21
448.2709461648
 31
0.0
  0
LINE
  5
1B0
330
1F
100
AcDbEntity
  8
0
  6
Continuous
 62
     7
370
    15
100
AcDbLine
 10
238.358035342
 20
460.0709372957
 30
0.0
 11
239.3100556296
 21
460.0709372957
 31
0.0
  0
LWPOLYLINE
  5
1B1
330
1F
100
AcDbEntity
  8
0
  6
Continuous
 62
     7
370
    15
100
AcDbPolyline
 90
        9
 70
   128
 43
0.0
 10
239.3100556296
 20
460.0709372957
 10
239.4525703352
 20
460.0478851993
 10
239.5896014136
 20
459.9795931775
 10
239.7159036558
 20
459.8687136371
 10
239.8266043823
 20
459.7194785077
 10
239.9174567621
 20
459.5376247365
 10
239.9849590224
 20
459.3301707704
 10
240.0265332621
 20
459.1050589282
 10
240.0405701559
 20
458.8709467847
  0
LINE
  5
1B2
330
1F
100
AcDbEntity
  8
0
  6
Continuous
 62
     7
370
    15
100
AcDbLine
 10
239.3100556296
 20
447.0709407527
 30
0.0
 11
238.358035342
 21
447.0709407527
 31
0.0
  0
LWPOLYLINE
  5
1B3
330
1F
100
AcDbEntity
  8
0
  6
Continuous
 62
     7
370
    15
100
AcDbPolyline
 90
        9
 70
   128
 43
0.0
 10
240.0405701559
 20
448.2709461648
 10
240.0265332621
 20
448.0368340213
 10
239.9849590224
 20
447.8117221792
 10
239.9174567621
 20
447.6042533119
 10
239.8266043823
 20
447.4224144418
 10
239.7159036558
 20
447.2731793125
 10
239.5896014136
 20
447.1622848708
 10
239.4525703352
 20
447.0940077503
 10
239.3100556296
 20
447.0709407527
  0
LINE
  5
1B4
330
1F
100
AcDbEntity
  8
0
  6
Continuous
 62
     7
370
    15
100
AcDbLine
 10
240.0405701559
 20
88.8709420163
 30
0.0
 11
239.0885498684
 21
88.8709420163
 31
0.0
  0
LINE
  5
1B5
330
1F
100
AcDbEntity
  8
0
  6
Continuous
 62
     7
370
    15
100
AcDbLine
 10
240.0405701559
 20
88.8709420163
 30
0.0
 11
240.0405701559
 21
78.2709413965
 31
0.0
  0
LINE
  5
1B6
330
1F
100
AcDbEntity
  8
0
  6
Continuous
 62
     7
370
    15
100
AcDbLine
 10
239.0885498684
 20
78.2709413965
 30
0.0
 11
240.0405701559
 21
78.2709413965
 31
0.0
  0
LINE
  5
1B7
330
1F
100
AcDbEntity
  8
0
  6
Continuous
 62
     7
370
    15
100
AcDbLine
 10
239.0885498684
 20
88.8709420163
 30
0.0
 11
239.0885498684
 21
78.2709413965
 31
0.0
  0
LINE
  5
1B8
330
1F
100
AcDbEntity
  8
0
  6
Continuous
 62
     7
370
    15
100
AcDbLine
 10
239.3100556296
 20
77.0709508855
 30
0.0
 11
238.358035342
 21
77.0709508855
 31
0.0
  0
LWPOLYLINE
  5
1B9
330
1F
100
AcDbEntity
  8
0
  6
Continuous
 62
     7
370
    15
100
AcDbPolyline
 90
        9
 70
   128
 43
0.0
 10
238.358035342
 20
77.0709508855
 10
238.5005500477
 20
77.0940029819
 10
238.637581126
 20
77.1622950036
 10
238.7638833683
 20
77.2731745441
 10
238.8745840948
 20
77.4224096734
 10
238.9654215735
 20
77.6042634446
 10
239.0329387348
 20
77.8117174108
 10
239.0745129746
 20
78.0368292529
 10
239.0885498684
 20
78.2709413965
  0
LWPOLYLINE
  5
1BA
330
1F
100
AcDbEntity
  8
0
  6
Continuous
 62
     7
370
    15
100
AcDbPolyline
 90
        9
 70
   128
 43
0.0
 10
240.0405701559
 20
78.2709413965
 10
240.0265332621
 20
78.0368292529
 10
239.9849590224
 20
77.8117174108
 10
239.9174567621
 20
77.6042634446
 10
239.8266043823
 20
77.4224096734
 10
239.7159036558
 20
77.2731745441
 10
239.5896014136
 20
77.1622950036
 10
239.4525703352
 20
77.0940029819
 10
239.3100556296
 20
77.0709508855
  0
LINE
  5
1BB
330
1F
100
AcDbEntity
  8
0
  6
Continuous
 62
     7
370
    15
100
AcDbLine
 10
235.6390502613
 20
90.0709474284
 30
0.0
 11
235.6390502613
 21
77.0709508855
 31
0.0
  0
LINE
  5
1BC
330
1F
100
AcDbEntity
  8
0
  6
Continuous
 62
     7
370
    15
100
AcDbLine
 10
235.6390502613
 20
90.0709474284
 30
0.0
 11
238.358035342
 21
90.0709474284
 31
0.0
  0
LWPOLYLINE
  5
1BD
330
1F
100
AcDbEntity
  8
0
  6
Continuous
 62
     7
370
    15
100
AcDbPolyline
 90
        9
 70
   128
 43
0.0
 10
239.0885498684
 20
88.8709420163
 10
239.0745129746
 20
89.1050541599
 10
239.0329387348
 20
89.330166002
 10
238.9654215735
 20
89.5376348693
 10
238.8745840948
 20
89.7194737394
 10
238.7638833683
 20
89.8687088687
 10
238.637581126
 20
89.9796033103
 10
238.5005500477
 20
90.0478804309
 10
238.358035342
 20
90.0709474284
  0
LINE
  5
1BE
330
1F
100
AcDbEntity
  8
0
  6
Continuous
 62
     7
370
    15
100
AcDbLine
 10
238.358035342
 20
77.0709508855
 30
0.0
 11
235.6390502613
 21
77.0709508855
 31
0.0
  0
LINE
  5
1BF
330
1F
100
AcDbEntity
  8
0
  6
Continuous
 62
     7
370
    15
100
AcDbLine
 10
238.358035342
 20
90.0709474284
 30
0.0
 11
239.3100556296
 21
90.0709474284
 31
0.0
  0
LWPOLYLINE
  5
1C0
330
1F
100
AcDbEntity
  8
0
  6
Continuous
 62
     7
370
    15
100
AcDbPolyline
 90
        9
 70
   128
 43
0.0
 10
239.3100556296
 20
90.0709474284
 10
239.4525703352
 20
90.0478804309
 10
239.5896014136
 20
89.9796033103
 10
239.7159036558
 20
89.8687088687
 10
239.8266043823
 20
89.7194737394
 10
239.9174567621
 20
89.5376348693
 10
239.9849590224
 20
89.330166002
 10
240.0265332621
 20
89.1050541599
 10
240.0405701559
 20
88.8709420163
  0
LINE
  5
1C1
330
1F
100
AcDbEntity
  8
0
  6
Continuous
 62
     7
370
    15
100
AcDbLine
 10
235.0604381722
 20
460.0709372957
 30
0.0
 11
235.6390502613
 21
460.0709372957
 31
0.0
  0
LINE
  5
1C2
330
1F
100
AcDbEntity
  8
0
  6
Continuous
 62
     7
370
    15
100
AcDbLine
 10
235.6390502613
 20
447.0709407527
 30
0.0
 11
235.0604381722
 21
447.0709407527
 31
0.0
  0
LINE
  5
1C3
330
1F
100
AcDbEntity
  8
0
  6
Continuous
 62
     7
370
    15
100
AcDbLine
 10
235.0604381722
 20
90.0709474284
 30
0.0
 11
235.6390502613
 21
90.0709474284
 31
0.0
  0
LINE
  5
1C4
330
1F
100
AcDbEntity
  8
0
  6
Continuous
 62
     7
370
    15
100
AcDbLine
 10
235.6390502613
 20
77.0709508855
 30
0.0
 11
235.0604381722
 21
77.0709508855
 31
0.0
  0
CIRCLE
  5
1C5
330
1F
100
AcDbEntity
  8
0
  6
Continuous
 62
     7
370
    15
100
AcDbCircle
 10
245.5604380053
 20
458.5709440906
 30
0.0
 40
3.0
  0
LINE
  5
1C6
330
1F
100
AcDbEntity
  8
0
  6
Continuous
 62
     7
370
    15
100
AcDbLine
 10
245.1604452294
 20
458.9709484775
 30
0.0
 11
243.6604347389
 21
458.9709484775
 31
0.0
  0
LINE
  5
1C7
330
1F
100
AcDbEntity
  8
0
  6
Continuous
 62
     7
370
    15
100
AcDbLine
 10
243.6604347389
 20
458.9709484775
 30
0.0
 11
243.6604347389
 21
458.1709498365
 31
0.0
  0
LINE
  5
1C8
330
1F
100
AcDbEntity
  8
0
  6
Continuous
 62
     7
370
    15
100
AcDbLine
 10
243.6604347389
 20
458.1709498365
 30
0.0
 11
245.1604452294
 21
458.1709498365
 31
0.0
  0
LINE
  5
1C9
330
1F
100
AcDbEntity
  8
0
  6
Continuous
 62
     7
370
    15
100
AcDbLine
 10
245.1604452294
 20
458.1709498365
 30
0.0
 11
245.1604452294
 21
456.6709393461
 31
0.0
  0
LINE
  5
1CA
330
1F
100
AcDbEntity
  8
0
  6
Continuous
 62
     7
370
    15
100
AcDbLine
 10
245.1604452294
 20
456.6709393461
 30
0.0
 11
245.9604438704
 21
456.6709393461
 31
0.0
  0
LINE
  5
1CB
330
1F
100
AcDbEntity
  8
0
  6
Continuous
 62
     7
370
    15
100
AcDbLine
 10
245.9604438704
 20
456.6709393461
 30
0.0
 11
245.9604438704
 21
458.1709498365
 31
0.0
  0
LINE
  5
1CC
330
1F
100
AcDbEntity
  8
0
  6
Continuous
 62
     7
370
    15
100
AcDbLine
 10
245.9604438704
 20
458.1709498365
 30
0.0
 11
247.4604394596
 21
458.1709498365
 31
0.0
  0
LINE
  5
1CD
330
1F
100
AcDbEntity
  8
0
  6
Continuous
 62
     7
370
    15
100
AcDbLine
 10
247.4604394596
 20
458.1709498365
 30
0.0
 11
247.4604394596
 21
458.9709484775
 31
0.0
  0
LINE
  5
1CE
330
1F
100
AcDbEntity
  8
0
  6
Continuous
 62
     7
370
    15
100
AcDbLine
 10
247.4604394596
 20
458.9709484775
 30
0.0
 11
245.9604438704
 21
458.9709484775
 31
0.0
  0
LINE
  5
1CF
330
1F
100
AcDbEntity
  8
0
  6
Continuous
 62
     7
370
    15
100
AcDbLine
 10
245.9604438704
 20
458.9709484775
 30
0.0
 11
245.9604438704
 21
460.4709440667
 31
0.0
  0
LINE
  5
1D0
330
1F
100
AcDbEntity
  8
0
  6
Continuous
 62
     7
370
    15
100
AcDbLine
 10
245.9604438704
 20
460.4709440667
 30
0.0
 11
245.1604452294
 21
460.4709440667
 31
0.0
  0
LINE
  5
1D1
330
1F
100
AcDbEntity
  8
0
  6
Continuous
 62
     7
370
    15
100
AcDbLine
 10
245.1604452294
 20
460.4709440667
 30
0.0
 11
245.1604452294
 21
458.9709484775
 31
0.0
  0
CIRCLE
  5
1D2
330
1F
100
AcDbEntity
  8
0
  6
Continuous
 62
     7
370
    15
100
AcDbCircle
 10
245.5604380053
 20
448.5709440906
 30
0.0
 40
3.0
  0
LINE
  5
1D3
330
1F
100
AcDbEntity
  8
0
  6
Continuous
 62
     7
370
    15
100
AcDbLine
 10
245.9604438704
 20
446.6709488828
 30
0.0
 11
245.9604438704
 21
448.1709444721
 31
0.0
  0
LINE
  5
1D4
330
1F
100
AcDbEntity
  8
0
  6
Continuous
 62
     7
370
    15
100
AcDbLine
 10
247.4604394596
 20
448.1709444721
 30
0.0
 11
247.4604394596
 21
448.9709431131
 31
0.0
  0
LINE
  5
1D5
330
1F
100
AcDbEntity
  8
0
  6
Continuous
 62
     7
370
    15
100
AcDbLine
 10
247.4604394596
 20
448.9709431131
 30
0.0
 11
245.9604438704
 21
448.9709431131
 31
0.0
  0
LINE
  5
1D6
330
1F
100
AcDbEntity
  8
0
  6
Continuous
 62
     7
370
    15
100
AcDbLine
 10
245.9604438704
 20
450.4709387023
 30
0.0
 11
245.1604452294
 21
450.4709387023
 31
0.0
  0
LINE
  5
1D7
330
1F
100
AcDbEntity
  8
0
  6
Continuous
 62
     7
370
    15
100
AcDbLine
 10
245.1604452294
 20
446.6709488828
 30
0.0
 11
245.9604438704
 21
446.6709488828
 31
0.0
  0
LINE
  5
1D8
330
1F
100
AcDbEntity
  8
0
  6
Continuous
 62
     7
370
    15
100
AcDbLine
 10
243.6604347389
 20
448.9709431131
 30
0.0
 11
243.6604347389
 21
448.1709444721
 31
0.0
  0
LINE
  5
1D9
330
1F
100
AcDbEntity
  8
0
  6
Continuous
 62
     7
370
    15
100
AcDbLine
 10
245.1604452294
 20
448.9709431131
 30
0.0
 11
243.6604347389
 21
448.9709431131
 31
0.0
  0
LINE
  5
1DA
330
1F
100
AcDbEntity
  8
0
  6
Continuous
 62
     7
370
    15
100
AcDbLine
 10
245.9604438704
 20
448.9709431131
 30
0.0
 11
245.9604438704
 21
450.4709387023
 31
0.0
  0
LINE
  5
1DB
330
1F
100
AcDbEntity
  8
0
  6
Continuous
 62
     7
370
    15
100
AcDbLine
 10
245.1604452294
 20
450.4709387023
 30
0.0
 11
245.1604452294
 21
448.9709431131
 31
0.0
  0
LINE
  5
1DC
330
1F
100
AcDbEntity
  8
0
  6
Continuous
 62
     7
370
    15
100
AcDbLine
 10
243.6604347389
 20
448.1709444721
 30
0.0
 11
245.1604452294
 21
448.1709444721
 31
0.0
  0
LINE
  5
1DD
330
1F
100
AcDbEntity
  8
0
  6
Continuous
 62
     7
370
    15
100
AcDbLine
 10
245.9604438704
 20
448.1709444721
 30
0.0
 11
247.4604394596
 21
448.1709444721
 31
0.0
  0
LINE
  5
1DE
330
1F
100
AcDbEntity
  8
0
  6
Continuous
 62
     7
370
    15
100
AcDbLine
 10
245.1604452294
 20
448.1709444721
 30
0.0
 11
245.1604452294
 21
446.6709488828
 31
0.0
  0
LINE
  5
1DF
330
1F
100
AcDbEntity
  8
0
  6
Continuous
 62
     7
370
    15
100
AcDbLine
 10
245.1604452294
 20
76.6709441144
 30
0.0
 11
245.9604438704
 21
76.6709441144
 31
0.0
  0
LINE
  5
1E0
330
1F
100
AcDbEntity
  8
0
  6
Continuous
 62
     7
370
    15
100
AcDbLine
 10
245.9604438704
 20
78.1709397037
 30
0.0
 11
247.4604394596
 21
78.1709397037
 31
0.0
  0
LINE
  5
1E1
330
1F
100
AcDbEntity
  8
0
  6
Continuous
 62
     7
370
    15
100
AcDbLine
 10
247.4604394596
 20
78.1709397037
 30
0.0
 11
247.4604394596
 21
78.9709383447
 31
0.0
  0
LINE
  5
1E2
330
1F
100
AcDbEntity
  8
0
  6
Continuous
 62
     7
370
    15
100
AcDbLine
 10
247.4604394596
 20
78.9709383447
 30
0.0
 11
245.9604438704
 21
78.9709383447
 31
0.0
  0
LINE
  5
1E3
330
1F
100
AcDbEntity
  8
0
  6
Continuous
 62
     7
370
    15
100
AcDbLine
 10
245.9604438704
 20
78.9709383447
 30
0.0
 11
245.9604438704
 21
80.4709488351
 31
0.0
  0
LINE
  5
1E4
330
1F
100
AcDbEntity
  8
0
  6
Continuous
 62
     7
370
    15
100
AcDbLine
 10
245.9604438704
 20
80.4709488351
 30
0.0
 11
245.1604452294
 21
80.4709488351
 31
0.0
  0
LINE
  5
1E5
330
1F
100
AcDbEntity
  8
0
  6
Continuous
 62
     7
370
    15
100
AcDbLine
 10
245.1604452294
 20
80.4709488351
 30
0.0
 11
245.1604452294
 21
78.9709383447
 31
0.0
  0
LINE
  5
1E6
330
1F
100
AcDbEntity
  8
0
  6
Continuous
 62
     7
370
    15
100
AcDbLine
 10
245.1604452294
 20
78.9709383447
 30
0.0
 11
243.6604347389
 21
78.9709383447
 31
0.0
  0
LINE
  5
1E7
330
1F
100
AcDbEntity
  8
0
  6
Continuous
 62
     7
370
    15
100
AcDbLine
 10
243.6604347389
 20
78.9709383447
 30
0.0
 11
243.6604347389
 21
78.1709397037
 31
0.0
  0
LINE
  5
1E8
330
1F
100
AcDbEntity
  8
0
  6
Continuous
 62
     7
370
    15
100
AcDbLine
 10
243.6604347389
 20
78.1709397037
 30
0.0
 11
245.1604452294
 21
78.1709397037
 31
0.0
  0
LINE
  5
1E9
330
1F
100
AcDbEntity
  8
0
  6
Continuous
 62
     7
370
    15
100
AcDbLine
 10
245.1604452294
 20
78.1709397037
 30
0.0
 11
245.1604452294
 21
76.6709441144
 31
0.0
  0
LINE
  5
1EA
330
1F
100
AcDbEntity
  8
0
  6
Continuous
 62
     7
370
    15
100
AcDbLine
 10
245.9604438704
 20
76.6709441144
 30
0.0
 11
245.9604438704
 21
78.1709397037
 31
0.0
  0
CIRCLE
  5
1EB
330
1F
100
AcDbEntity
  8
0
  6
Continuous
 62
     7
370
    15
100
AcDbCircle
 10
245.5604380053
 20
78.5709440906
 30
0.0
 40
3.0
  0
LINE
  5
1EC
330
1F
100
AcDbEntity
  8
0
  6
Continuous
 62
     7
370
    15
100
AcDbLine
 10
243.6604347389
 20
88.1709450681
 30
0.0
 11
245.1604452294
 21
88.1709450681
 31
0.0
  0
LINE
  5
1ED
330
1F
100
AcDbEntity
  8
0
  6
Continuous
 62
     7
370
    15
100
AcDbLine
 10
245.1604452294
 20
88.1709450681
 30
0.0
 11
245.1604452294
 21
86.6709494788
 31
0.0
  0
LINE
  5
1EE
330
1F
100
AcDbEntity
  8
0
  6
Continuous
 62
     7
370
    15
100
AcDbLine
 10
245.1604452294
 20
86.6709494788
 30
0.0
 11
245.9604438704
 21
86.6709494788
 31
0.0
  0
LINE
  5
1EF
330
1F
100
AcDbEntity
  8
0
  6
Continuous
 62
     7
370
    15
100
AcDbLine
 10
245.9604438704
 20
86.6709494788
 30
0.0
 11
245.9604438704
 21
88.1709450681
 31
0.0
  0
LINE
  5
1F0
330
1F
100
AcDbEntity
  8
0
  6
Continuous
 62
     7
370
    15
100
AcDbLine
 10
245.9604438704
 20
88.1709450681
 30
0.0
 11
247.4604394596
 21
88.1709450681
 31
0.0
  0
LINE
  5
1F1
330
1F
100
AcDbEntity
  8
0
  6
Continuous
 62
     7
370
    15
100
AcDbLine
 10
247.4604394596
 20
88.1709450681
 30
0.0
 11
247.4604394596
 21
88.9709437091
 31
0.0
  0
LINE
  5
1F2
330
1F
100
AcDbEntity
  8
0
  6
Continuous
 62
     7
370
    15
100
AcDbLine
 10
247.4604394596
 20
88.9709437091
 30
0.0
 11
245.9604438704
 21
88.9709437091
 31
0.0
  0
CIRCLE
  5
1F3
330
1F
100
AcDbEntity
  8
0
  6
Continuous
 62
     7
370
    15
100
AcDbCircle
 10
245.5604380053
 20
88.5709440906
 30
0.0
 40
3.0
  0
LINE
  5
1F4
330
1F
100
AcDbEntity
  8
0
  6
Continuous
 62
     7
370
    15
100
AcDbLine
 10
245.1604452294
 20
90.4709392984
 30
0.0
 11
245.1604452294
 21
88.9709437091
 31
0.0
  0
LINE
  5
1F5
330
1F
100
AcDbEntity
  8
0
  6
Continuous
 62
     7
370
    15
100
AcDbLine
 10
245.9604438704
 20
90.4709392984
 30
0.0
 11
245.1604452294
 21
90.4709392984
 31
0.0
  0
LINE
  5
1F6
330
1F
100
AcDbEntity
  8
0
  6
Continuous
 62
     7
370
    15
100
AcDbLine
 10
243.6604347389
 20
88.9709437091
 30
0.0
 11
243.6604347389
 21
88.1709450681
 31
0.0
  0
LINE
  5
1F7
330
1F
100
AcDbEntity
  8
0
  6
Continuous
 62
     7
370
    15
100
AcDbLine
 10
245.9604438704
 20
88.9709437091
 30
0.0
 11
245.9604438704
 21
90.4709392984
 31
0.0
  0
LINE
  5
1F8
330
1F
100
AcDbEntity
  8
0
  6
Continuous
 62
     7
370
    15
100
AcDbLine
 10
245.1604452294
 20
88.9709437091
 30
0.0
 11
243.6604347389
 21
88.9709437091
 31
0.0
  0
LINE
  5
1F9
330
1F
100
AcDbEntity
  8
0
  6
Continuous
 62
     7
370
    15
100
AcDbLine
 10
244.5426728886
 20
442.4690598447
 30
0.0
 11
239.5604398411
 21
447.0709407527
 31
0.0
  0
LINE
  5
1FA
330
1F
100
AcDbEntity
  8
0
  6
Continuous
 62
     7
370
    15
100
AcDbLine
 10
239.5604398411
 20
460.0709372957
 30
0.0
 11
244.5426728886
 21
464.6728331048
 31
0.0
  0
ARC
  5
1FB
330
1F
100
AcDbEntity
  8
0
  6
Continuous
 62
     7
370
    15
100
AcDbCircle
 10
235.0604380053
 20
453.5709440906
 30
0.0
 40
16.00000000000021
100
AcDbArc
 50
316.3971810272
 51
43.6028189726
  0
ARC
  5
1FC
330
1F
100
AcDbEntity
  8
0
  6
Continuous
 62
     7
370
    15
100
AcDbCircle
 10
245.5604380053
 20
443.5709440906
 30
0.0
 40
1.500000000000178
100
AcDbArc
 50
227.2726046868
 51
316.3971810272
  0
ARC
  5
1FD
330
1F
100
AcDbEntity
  8
0
  6
Continuous
 62
     7
370
    15
100
AcDbCircle
 10
245.5604380053
 20
463.5709440906
 30
0.0
 40
1.500000000000009
100
AcDbArc
 50
43.6028189726
 51
132.7273953127
  0
LINE
  5
1FE
330
1F
100
AcDbEntity
  8
0
  6
Continuous
 62
     7
370
    15
100
AcDbLine
 10
239.3594231766
 20
460.0709372957
 30
0.0
 11
239.5604398411
 21
460.0709372957
 31
0.0
  0
LINE
  5
1FF
330
1F
100
AcDbEntity
  8
0
  6
Continuous
 62
     7
370
    15
100
AcDbLine
 10
239.5604398411
 20
447.0709407527
 30
0.0
 11
239.3594231766
 21
447.0709407527
 31
0.0
  0
LINE
  5
200
330
1F
100
AcDbEntity
  8
0
  6
Continuous
 62
     7
370
    15
100
AcDbLine
 10
244.5426728886
 20
72.4690550763
 30
0.0
 11
239.5604398411
 21
77.0709508855
 31
0.0
  0
LINE
  5
201
330
1F
100
AcDbEntity
  8
0
  6
Continuous
 62
     7
370
    15
100
AcDbLine
 10
239.5604398411
 20
90.0709474284
 30
0.0
 11
244.5426728886
 21
94.6728283365
 31
0.0
  0
ARC
  5
202
330
1F
100
AcDbEntity
  8
0
  6
Continuous
 62
     7
370
    15
100
AcDbCircle
 10
245.5604380053
 20
93.5709440906
 30
0.0
 40
1.50000000000001
100
AcDbArc
 50
43.6028189726
 51
132.7273953127
  0
ARC
  5
203
330
1F
100
AcDbEntity
  8
0
  6
Continuous
 62
     7
370
    15
100
AcDbCircle
 10
235.0604380053
 20
83.5709440906
 30
0.0
 40
16.00000000000023
100
AcDbArc
 50
316.3971810272
 51
43.6028189726
  0
ARC
  5
204
330
1F
100
AcDbEntity
  8
0
  6
Continuous
 62
     7
370
    15
100
AcDbCircle
 10
245.5604380053
 20
73.5709440906
 30
0.0
 40
1.499999999999762
100
AcDbArc
 50
227.2726046868
 51
316.3971810272
  0
LINE
  5
205
330
1F
100
AcDbEntity
  8
0
  6
Continuous
 62
     7
370
    15
100
AcDbLine
 10
239.3594231766
 20
90.0709474284
 30
0.0
 11
239.5604398411
 21
90.0709474284
 31
0.0
  0
LINE
  5
206
330
1F
100
AcDbEntity
  8
0
  6
Continuous
 62
     7
370
    15
100
AcDbLine
 10
239.5604398411
 20
77.0709508855
 30
0.0
 11
239.3594231766
 21
77.0709508855
 31
0.0
  0
LINE
  5
207
330
1F
100
AcDbEntity
  8
0
  6
Continuous
 62
     7
370
    15
100
AcDbLine
 10
242.5604310196
 20
503.5709434945
 30
0.0
 11
247.5604411524
 21
503.5709434945
 31
0.0
  0
LINE
  5
208
330
1F
100
AcDbEntity
  8
0
  6
Continuous
 62
     7
370
    15
100
AcDbLine
 10
247.5604411524
 20
463.5584348638
 30
0.0
 11
247.5604411524
 21
503.5709434945
 31
0.0
  0
LINE
  5
209
330
1F
100
AcDbEntity
  8
0
  6
Continuous
 62
     7
370
    15
100
AcDbLine
 10
242.5604310196
 20
462.8419274289
 30
0.0
 11
242.5604310196
 21
503.5709434945
 31
0.0
  0
LINE
  5
20A
330
1F
100
AcDbEntity
  8
0
  6
Continuous
 62
     7
370
    15
100
AcDbLine
 10
242.5604310196
 20
518.5709440906
 30
0.0
 11
247.5604411524
 21
518.5709440906
 31
0.0
  0
LINE
  5
20B
330
1F
100
AcDbEntity
  8
0
  6
Continuous
 62
     7
370
    15
100
AcDbLine
 10
247.5604411524
 20
503.5709434945
 30
0.0
 11
247.5604411524
 21
518.5709440906
 31
0.0
  0
LINE
  5
20C
330
1F
100
AcDbEntity
  8
0
  6
Continuous
 62
     7
370
    15
100
AcDbLine
 10
242.5604310196
 20
503.5709434945
 30
0.0
 11
242.5604310196
 21
518.5709440906
 31
0.0
  0
LINE
  5
20D
330
1F
100
AcDbEntity
  8
0
  6
Continuous
 62
     7
370
    15
100
AcDbLine
 10
247.5604411524
 20
503.5709434945
 30
0.0
 11
262.5604417484
 21
503.5709434945
 31
0.0
  0
ARC
  5
20E
330
1F
100
AcDbEntity
  8
0
  6
Continuous
 62
     7
370
    15
100
AcDbCircle
 10
247.5604380053
 20
503.5709440906
 30
0.0
 40
15.0
100
AcDbArc
 50
0.0
 51
90.0
  0
LINE
  5
20F
330
1F
100
AcDbEntity
  8
0
  6
Continuous
 62
     7
370
    15
100
AcDbLine
 10
247.5604411524
 20
33.5709446866
 30
0.0
 11
262.5604417484
 21
33.5709446866
 31
0.0
  0
LINE
  5
210
330
1F
100
AcDbEntity
  8
0
  6
Continuous
 62
     7
370
    15
100
AcDbLine
 10
247.5604411524
 20
33.5709446866
 30
0.0
 11
247.5604411524
 21
73.5834533174
 31
0.0
  0
LINE
  5
211
330
1F
100
AcDbEntity
  8
0
  6
Continuous
 62
     7
370
    15
100
AcDbLine
 10
247.5604411524
 20
93.5584300954
 30
0.0
 11
247.5604411524
 21
443.5834580858
 31
0.0
  0
LINE
  5
212
330
1F
100
AcDbEntity
  8
0
  6
Continuous
 62
     7
370
    15
100
AcDbLine
 10
262.5604417484
 20
33.5709446866
 30
0.0
 11
262.5604417484
 21
503.5709434945
 31
0.0
  0
LINE
  5
213
330
1F
100
AcDbEntity
  8
0
  6
Continuous
 62
     7
370
    15
100
AcDbLine
 10
242.5604310196
 20
92.8419226606
 30
0.0
 11
242.5604310196
 21
444.2999655206
 31
0.0
  0
LINE
  5
214
330
1F
100
AcDbEntity
  8
0
  6
Continuous
 62
     7
370
    15
100
AcDbLine
 10
242.5604310196
 20
33.5709446866
 30
0.0
 11
247.5604411524
 21
33.5709446866
 31
0.0
  0
LINE
  5
215
330
1F
100
AcDbEntity
  8
0
  6
Continuous
 62
     7
370
    15
100
AcDbLine
 10
242.5604310196
 20
33.5709446866
 30
0.0
 11
242.5604310196
 21
74.2999607522
 31
0.0
  0
LINE
  5
216
330
1F
100
AcDbEntity
  8
0
  6
Continuous
 62
     7
370
    15
100
AcDbLine
 10
242.5604310196
 20
18.5709440906
 30
0.0
 11
247.5604411524
 21
18.5709440906
 31
0.0
  0
LINE
  5
217
330
1F
100
AcDbEntity
  8
0
  6
Continuous
 62
     7
370
    15
100
AcDbLine
 10
247.5604411524
 20
33.5709446866
 30
0.0
 11
247.5604411524
 21
18.5709440906
 31
0.0
  0
LINE
  5
218
330
1F
100
AcDbEntity
  8
0
  6
Continuous
 62
     7
370
    15
100
AcDbLine
 10
242.5604310196
 20
33.5709446866
 30
0.0
 11
242.5604310196
 21
18.5709440906
 31
0.0
  0
ARC
  5
219
330
1F
100
AcDbEntity
  8
0
  6
Continuous
 62
     7
370
    15
100
AcDbCircle
 10
247.5604380053
 20
33.5709440906
 30
0.0
 40
15.00000000000004
100
AcDbArc
 50
270.0
 51
0.0
  0
SPLINE
  5
21A
330
1F
100
AcDbEntity
  8
0
  6
Continuous
 62
     7
370
    15
100
AcDbSpline
210
0.0
220
0.0
230
1.0
 70
     8
 71
     3
 72
    16
 73
    12
 74
     0
 42
0.00000001
 43
0.00000001
 40
0.0
 40
0.0
 40
0.0
 40
0.0
 40
0.120707761424076
 40
0.2414123616241315
 40
0.3621194981493698
 40
0.4828235670171712
 40
0.6035307673899819
 40
0.7242386406640752
 40
0.8449448794074956
 40
0.9656483252743936
 40
1.0
 40
1.0
 40
1.0
 40
1.0
 10
220.7127359073855
 20
70.61856927464689
 30
0.0
 10
220.7321368762919
 20
70.62124346595708
 30
0.0
 10
220.7709383060111
 20
70.62659177854295
 30
0.0
 10
220.7758614799343
 20
70.91754616128637
 30
0.0
 10
220.7386479306258
 20
71.37087553113838
 30
0.0
 10
220.6617467221937
 20
71.93840742471593
 30
0.0
 10
220.557913474387
 20
72.52672740645436
 30
0.0
 10
220.4418258769981
 20
73.0534269321588
 30
0.0
 10
220.3348140368003
 20
73.41671653478113
 30
0.0
 10
220.2622384561984
 20
73.58718082035124
 30
0.0
 10
220.2426886099564
 20
73.55402316234455
 30
0.0
 10
220.2383574407794
 20
73.54667725156034
 30
0.0
  0
SPLINE
  5
21B
330
1F
100
AcDbEntity
  8
0
  6
Continuous
 62
     7
370
    15
100
AcDbSpline
210
0.0
220
0.0
230
1.0
 70
     8
 71
     3
 72
    16
 73
    12
 74
     0
 42
0.00000001
 43
0.00000001
 40
0.0
 40
0.0
 40
0.0
 40
0.0
 40
0.1205835500006272
 40
0.2411639420302155
 40
0.3617468677750422
 40
0.4823271212948927
 40
0.6029095790313884
 40
0.7234904642075044
 40
0.84407714114446
 40
0.9646563800287297
 40
1.0
 40
1.0
 40
1.0
 40
1.0
 10
220.8833244007327
 20
96.49459960053647
 30
0.0
 10
220.9027255193746
 20
96.4919253788678
 30
0.0
 10
220.9415272485611
 20
96.48657700556582
 30
0.0
 10
220.9464481765092
 20
96.19562307818747
 30
0.0
 10
220.9092431216159
 20
95.74229148634305
 30
0.0
 10
220.8323099855415
 20
95.17476609205156
 30
0.0
 10
220.7285089600145
 20
94.58643812929465
 30
0.0
 10
220.6124142899589
 20
94.0597655688487
 30
0.0
 10
220.505381927333
 20
93.69630517576127
 30
0.0
 10
220.4326194872997
 20
93.52576336480925
 30
0.0
 10
220.4129803733296
 20
93.55934213392297
 30
0.0
 10
220.4085287016131
 20
93.56695355962003
 30
0.0
  0
SPLINE
  5
21C
330
1F
100
AcDbEntity
  8
0
  6
Continuous
 62
     7
370
    15
100
AcDbSpline
210
0.0
220
0.0
230
1.0
 70
     8
 71
     3
 72
    16
 73
    12
 74
     0
 42
0.00000001
 43
0.00000001
 40
0.0
 40
0.0
 40
0.0
 40
0.0
 40
0.1205122675012746
 40
0.2410329058832494
 40
0.3615506369968121
 40
0.4820656973301697
 40
0.602582960688436
 40
0.7231014273947975
 40
0.8436163365980531
 40
0.9641370770827385
 40
1.0
 40
1.0
 40
1.0
 40
1.0
 10
236.2537082594134
 20
73.23498966286863
 30
0.0
 10
236.273109336872
 20
73.23766707560809
 30
0.0
 10
236.3119128394038
 20
73.24302208706231
 30
0.0
 10
236.3168320765494
 20
73.53395585231875
 30
0.0
 10
236.2796269396231
 20
73.98729936270232
 30
0.0
 10
236.202694525289
 20
74.5548203410758
 30
0.0
 10
236.0988893383053
 20
75.14316538553479
 30
0.0
 10
235.9828084828569
 20
75.66978585822446
 30
0.0
 10
235.8757432990439
 20
76.0333580240582
 30
0.0
 10
235.8029008706339
 20
76.20395680643269
 30
0.0
 10
235.783205673986
 20
76.1701379459716
 30
0.0
 10
235.778689042876
 20
76.16238238404478
 30
0.0
  0
SPLINE
  5
21D
330
1F
100
AcDbEntity
  8
0
  6
Continuous
 62
     7
370
    15
100
AcDbSpline
210
0.0
220
0.0
230
1.0
 70
     8
 71
     3
 72
    16
 73
    12
 74
     0
 42
0.00000001
 43
0.00000001
 40
0.0
 40
0.0
 40
0.0
 40
0.0
 40
0.1205120525075836
 40
0.2410310559281205
 40
0.3615485720382453
 40
0.482066311146497
 40
0.6025833595021597
 40
0.7231022012127077
 40
0.8436163367159938
 40
0.9641310535375993
 40
1.0
 40
1.0
 40
1.0
 40
1.0
 10
236.4242967527606
 20
93.87817921231473
 30
0.0
 10
236.4436978350307
 20
93.87550057922026
 30
0.0
 10
236.4825011185896
 20
93.8701431585327
 30
0.0
 10
236.4874205781515
 20
93.57923050907819
 30
0.0
 10
236.4502148532201
 20
93.12587988778293
 30
0.0
 10
236.3732826016478
 20
92.55835311782317
 30
0.0
 10
236.269484357243
 20
91.97000165668496
 30
0.0
 10
236.1533712345568
 20
91.44338577902505
 30
0.0
 10
236.0463426728138
 20
91.07981595466994
 30
0.0
 10
235.9734840441189
 20
90.90921364703335
 30
0.0
 10
235.9537937918771
 20
90.9430301640777
 30
0.0
 10
235.9492775362231
 20
90.95078649113859
 30
0.0
  0
SPLINE
  5
21E
330
1F
100
AcDbEntity
  8
0
  6
Continuous
 62
     7
370
    15
100
AcDbSpline
210
0.0
220
0.0
230
1.0
 70
    24
 71
     3
 72
    16
 73
    12
 74
     0
 42
0.00000001
 43
0.00000001
 40
0.0
 40
0.0
 40
0.0
 40
0.0
 40
0.0611102845076972
 40
0.1864723954319963
 40
0.3118322208390296
 40
0.4371944708864321
 40
0.5625589540335474
 40
0.6879198579853077
 40
0.813281951356681
 40
0.9386471442034847
 40
1.0
 40
1.0
 40
1.0
 40
1.0
 10
239.3306192320087
 20
76.70471014569483
 30
0.0
 10
239.3363929898846
 20
76.7047101456948
 30
0.0
 10
239.3540110793834
 20
76.70471014569486
 30
0.0
 10
239.1355796425185
 20
76.70471014569488
 30
0.0
 10
238.7228330805865
 20
76.70471014569478
 30
0.0
 10
238.1663723887004
 20
76.7047101456949
 30
0.0
 10
237.5672679810475
 20
76.70471014569488
 30
0.0
 10
237.0085639965547
 20
76.70471014569486
 30
0.0
 10
236.591604855795
 20
76.70471014569486
 30
0.0
 10
236.3686131380923
 20
76.70471014569488
 30
0.0
 10
236.3834276970636
 20
76.70471014569488
 30
0.0
 10
236.3882955473163
 20
76.70471014569486
 30
0.0
  0
SPLINE
  5
21F
330
1F
100
AcDbEntity
  8
0
  6
Continuous
 62
     7
370
    15
100
AcDbSpline
210
0.0
220
0.0
230
1.0
 70
    24
 71
     3
 72
    16
 73
    12
 74
     0
 42
0.00000001
 43
0.00000001
 40
0.0
 40
0.0
 40
0.0
 40
0.0
 40
0.0610129142997457
 40
0.1861752792253431
 40
0.3113353622753087
 40
0.4364978661023373
 40
0.5616625994709642
 40
0.6868237593471552
 40
0.8119861067477948
 40
0.9371515486853087
 40
1.0
 40
1.0
 40
1.0
 40
1.0
 10
239.3306192320086
 20
90.26333632062162
 30
0.0
 10
239.3363929836836
 20
90.26333632062162
 30
0.0
 10
239.3540110542608
 20
90.26333632062159
 30
0.0
 10
239.1355798754128
 20
90.26333632062166
 30
0.0
 10
238.7228322273048
 20
90.26333632062156
 30
0.0
 10
238.1663755690303
 20
90.26333632062163
 30
0.0
 10
237.5672561129506
 20
90.26333632062162
 30
0.0
 10
237.0086082873312
 20
90.26333632062163
 30
0.0
 10
236.5914395568255
 20
90.26333632062159
 30
0.0
 10
236.3679599210662
 20
90.26333632062169
 30
0.0
 10
236.3831785343616
 20
90.26333632062162
 30
0.0
 10
236.3882657449939
 20
90.26333632062162
 30
0.0
  0
SPLINE
  5
220
330
1F
100
AcDbEntity
  8
0
  6
Continuous
 62
     7
370
    15
100
AcDbSpline
210
0.0
220
0.0
230
1.0
 70
     8
 71
     3
 72
    19
 73
    15
 74
     0
 42
0.00000001
 43
0.00000001
 40
0.0
 40
0.0
 40
0.0
 40
0.0
 40
0.003953721680559
 40
0.1157570360054298
 40
0.2280474720361882
 40
0.3355171326826881
 40
0.437698820219151
 40
0.5348769158738116
 40
0.6282994579906486
 40
0.7302896706601966
 40
0.8413352404290207
 40
0.964130766595963
 40
0.9937687887181259
 40
1.0
 40
1.0
 40
1.0
 40
1.0
 10
225.6587144296863
 20
89.17094709466184
 30
0.0
 10
225.6591066877745
 20
89.17094005703197
 30
0.0
 10
225.6705912173664
 20
89.17073400935371
 30
0.0
 10
225.6939213410695
 20
89.15565397010668
 30
0.0
 10
225.7373764159615
 20
89.08874570207081
 30
0.0
 10
225.7753634397552
 20
88.98404119819888
 30
0.0
 10
225.7988647766603
 20
88.85897654132155
 30
0.0
 10
225.8102068507866
 20
88.73054565281996
 30
0.0
 10
225.81078406302
 20
88.60936132417862
 30
0.0
 10
225.7950206699317
 20
88.50014683308267
 30
0.0
 10
225.7546233623547
 20
88.41070647221633
 30
0.0
 10
225.7028126358335
 20
88.37566841573613
 30
0.0
 10
225.6680504099393
 20
88.37105126037164
 30
0.0
 10
225.660096231373
 20
88.37096366988648
 30
0.0
 10
225.6587144296863
 20
88.37094845364774
 30
0.0
  0
SPLINE
  5
221
330
1F
100
AcDbEntity
  8
0
  6
Continuous
 62
     7
370
    15
100
AcDbSpline
210
0.0
220
0.0
230
1.0
 70
     8
 71
     3
 72
    30
 73
    26
 74
     0
 42
0.00000001
 43
0.00000001
 40
0.0
 40
0.0
 40
0.0
 40
0.0
 40
0.1247000415828477
 40
0.2494041247759927
 40
0.3741264313845801
 40
0.4367790009670069
 40
0.468149418097036
 40
0.4838369840818006
 40
0.4916891840248749
 40
0.4956084813573713
 40
0.49756642036076
 40
0.4985456794127421
 40
0.4990365738999413
 40
0.499282021143541
 40
0.4994151336008519
 40
0.4994758422218921
 40
0.4995024647133543
 40
0.4995143706534823
 40
0.4995409931449445
 40
0.5609160024894105
 40
0.6646253420398469
 40
0.7325807281036797
 40
0.8111526645769015
 40
0.9003087230150575
 40
1.0
 40
1.0
 40
1.0
 40
1.0
 10
225.7304188173511
 20
89.23083486149991
 30
0.0
 10
225.7361832324801
 20
89.2290433984675
 30
0.0
 10
225.7477122495668
 20
89.22546041434012
 30
0.0
 10
225.8375640555043
 20
89.20360375880438
 30
0.0
 10
225.9450268241444
 20
89.17794131842783
 30
0.0
 10
226.0305808201686
 20
89.15752540718083
 30
0.0
 10
226.0746805067082
 20
89.14699797232612
 30
0.0
 10
226.0969065304225
 20
89.14165811161884
 30
0.0
 10
226.1080441805756
 20
89.13901460987805
 30
0.0
 10
226.1136105195678
 20
89.13766793845915
 30
0.0
 10
226.1163933069371
 20
89.13700467187621
 30
0.0
 10
226.117785978551
 20
89.13668052280666
 30
0.0
 10
226.1184796342403
 20
89.13650613874854
 30
0.0
 10
226.1188319477527
 20
89.13641648377637
 30
0.0
 10
226.1190091754614
 20
89.13637478405157
 30
0.0
 10
226.119104659547
 20
89.13637432959129
 30
0.0
 10
226.1191386686954
 20
89.13634412056054
 30
0.0
 10
226.1191670074271
 20
89.13634892951538
 30
0.0
 10
226.1409460758183
 20
89.12010202301823
 30
0.0
 10
226.2140181513977
 20
89.12394248299832
 30
0.0
 10
226.3018621325106
 20
89.09458975997583
 30
0.0
 10
226.3860494498659
 20
89.07934637628892
 30
0.0
 10
226.4494130400549
 20
89.0659723432693
 30
0.0
 10
226.4999890757889
 20
89.05647375605352
 30
0.0
 10
226.5072062482228
 20
89.05598783229476
 30
0.0
 10
226.5110161464908
 20
89.05573131631101
 30
0.0
  0
ELLIPSE
  5
222
330
1F
100
AcDbEntity
  8
0
  6
Continuous
 62
     7
370
    15
100
AcDbEllipse
 10
226.387546399
 20
90.3529192693
 30
0.0
 11
0.3906095144045594
 21
-0.08616383961160068
 31
0.0
210
0.0
220
0.0
230
1.0
 40
0.0142285888
 41
0.0
 42
6.283185307179586
  0
LINE
  5
223
330
1F
100
AcDbEntity
  8
0
  6
Continuous
 62
     7
370
    15
100
AcDbLine
 10
225.7713672083
 20
78.8709366519
 30
0.0
 11
225.7713672083
 21
87.4709481199
 31
0.0
  0
LINE
  5
224
330
1F
100
AcDbEntity
  8
0
  6
Continuous
 62
     7
370
    15
100
AcDbLine
 10
220.2570732992
 20
78.8709366519
 30
0.0
 11
220.2570732992
 21
87.4709481199
 31
0.0
  0
LINE
  5
225
330
1F
100
AcDbEntity
  8
0
  6
Continuous
 62
     7
370
    15
100
AcDbLine
 10
225.7713672083
 20
78.8709366519
 30
0.0
 11
220.2570732992
 21
78.8709366519
 31
0.0
  0
LINE
  5
226
330
1F
100
AcDbEntity
  8
0
  6
Continuous
 62
     7
370
    15
100
AcDbLine
 10
225.7713672083
 20
87.4709481199
 30
0.0
 11
220.2570732992
 21
87.4709481199
 31
0.0
  0
LINE
  5
227
330
1F
100
AcDbEntity
  8
0
  6
Continuous
 62
     7
370
    15
100
AcDbLine
 10
219.1428091686
 20
90.7709443767
 30
0.0
 11
194.3307068508
 21
90.7709443767
 31
0.0
  0
LINE
  5
228
330
1F
100
AcDbEntity
  8
0
  6
Continuous
 62
     7
370
    15
100
AcDbLine
 10
219.1428091686
 20
87.4709481199
 30
0.0
 11
219.1428091686
 21
90.7709443767
 31
0.0
  0
LINE
  5
229
330
1F
100
AcDbEntity
  8
0
  6
Continuous
 62
     7
370
    15
100
AcDbLine
 10
219.1428091686
 20
76.3709390361
 30
0.0
 11
219.1428091686
 21
78.8709366519
 31
0.0
  0
LINE
  5
22A
330
1F
100
AcDbEntity
  8
0
  6
Continuous
 62
     7
370
    15
100
AcDbLine
 10
194.3307068508
 20
76.3709390361
 30
0.0
 11
219.1428091686
 21
76.3709390361
 31
0.0
  0
LINE
  5
22B
330
1F
100
AcDbEntity
  8
0
  6
Continuous
 62
     7
370
    15
100
AcDbLine
 10
194.3307068508
 20
76.3709390361
 30
0.0
 11
194.3307068508
 21
90.7709443767
 31
0.0
  0
LINE
  5
22C
330
1F
100
AcDbEntity
  8
0
  6
Continuous
 62
     7
370
    15
100
AcDbLine
 10
219.1428091686
 20
78.8709366519
 30
0.0
 11
220.2570732992
 21
78.8709366519
 31
0.0
  0
LINE
  5
22D
330
1F
100
AcDbEntity
  8
0
  6
Continuous
 62
     7
370
    15
100
AcDbLine
 10
219.1428091686
 20
87.4709481199
 30
0.0
 11
220.2570732992
 21
87.4709481199
 31
0.0
  0
LINE
  5
22E
330
1F
100
AcDbEntity
  8
0
  6
Continuous
 62
     7
370
    15
100
AcDbLine
 10
219.2704376143
 20
75.5735928018
 30
0.0
 11
221.1626764696
 21
75.5735928018
 31
0.0
  0
LINE
  5
22F
330
1F
100
AcDbEntity
  8
0
  6
Continuous
 62
     7
370
    15
100
AcDbLine
 10
221.1626764696
 20
75.5735928018
 30
0.0
 11
221.8354340952
 21
75.5709403951
 31
0.0
  0
LINE
  5
230
330
1F
100
AcDbEntity
  8
0
  6
Continuous
 62
     7
370
    15
100
AcDbLine
 10
221.8354340952
 20
75.5709403951
 30
0.0
 11
194.4696303766
 21
75.5709403951
 31
0.0
  0
ARC
  5
231
330
1F
100
AcDbEntity
  8
0
  6
Continuous
 62
     7
370
    15
100
AcDbCircle
 10
195.5866296478
 20
76.1769742532
 30
0.0
 40
1.270812499494465
100
AcDbArc
 50
171.2205995842
 51
208.4822784261
  0
ARC
  5
232
330
1F
100
AcDbEntity
  8
0
  6
Continuous
 62
     7
370
    15
100
AcDbCircle
 10
220.6171241572
 20
76.1980398833
 30
0.0
 40
1.484418674970782
100
AcDbArc
 50
173.3112340828
 51
204.8767532576
  0
LINE
  5
233
330
1F
100
AcDbEntity
  8
0
  6
Continuous
 62
     7
370
    15
100
AcDbLine
 10
221.1626764696
 20
91.568290611
 30
0.0
 11
219.2704376143
 21
91.568290611
 31
0.0
  0
ARC
  5
234
330
1F
100
AcDbEntity
  8
0
  6
Continuous
 62
     7
370
    15
100
AcDbCircle
 10
220.6170956148
 20
90.9438480982
 30
0.0
 40
1.484390858944876
100
AcDbArc
 50
155.1229432741
 51
186.6890693855
  0
ARC
  5
235
330
1F
100
AcDbEntity
  8
0
  6
Continuous
 62
     7
370
    15
100
AcDbCircle
 10
195.5866296478
 20
90.9649091596
 30
0.0
 40
1.270812499494463
100
AcDbArc
 50
151.5177215739
 51
188.7794004158
  0
LINE
  5
236
330
1F
100
AcDbEntity
  8
0
  6
Continuous
 62
     7
370
    15
100
AcDbLine
 10
194.4696303766
 20
91.5709430177
 30
0.0
 11
221.8354340952
 21
91.5709430177
 31
0.0
  0
LINE
  5
237
330
1F
100
AcDbEntity
  8
0
  6
Continuous
 62
     7
370
    15
100
AcDbLine
 10
221.8354340952
 20
91.5709430177
 30
0.0
 11
221.1626764696
 21
91.568290611
 31
0.0
  0
LINE
  5
238
330
1F
100
AcDbEntity
  8
0
  6
Continuous
 62
     7
370
    15
100
AcDbLine
 10
219.2704376143
 20
75.5735928018
 30
0.0
 11
219.2704376143
 21
76.3709390361
 31
0.0
  0
LINE
  5
239
330
1F
100
AcDbEntity
  8
0
  6
Continuous
 62
     7
370
    15
100
AcDbLine
 10
219.2817326945
 20
78.8709366519
 30
0.0
 11
219.2817326945
 21
76.3709390361
 31
0.0
  0
LINE
  5
23A
330
1F
100
AcDbEntity
  8
0
  6
Continuous
 62
     7
370
    15
100
AcDbLine
 10
219.2704376143
 20
90.7709443767
 30
0.0
 11
219.2704376143
 21
91.568290611
 31
0.0
  0
LINE
  5
23B
330
1F
100
AcDbEntity
  8
0
  6
Continuous
 62
     7
370
    15
100
AcDbLine
 10
219.2817326945
 20
90.7709443767
 30
0.0
 11
219.2817326945
 21
87.4709481199
 31
0.0
  0
LINE
  5
23C
330
1F
100
AcDbEntity
  8
0
  6
Continuous
 62
     7
370
    15
100
AcDbLine
 10
221.1626764696
 20
90.7709443767
 30
0.0
 11
221.1626764696
 21
91.568290611
 31
0.0
  0
LINE
  5
23D
330
1F
100
AcDbEntity
  8
0
  6
Continuous
 62
     7
370
    15
100
AcDbLine
 10
225.2704348725
 20
91.5709430177
 30
0.0
 11
221.8354340952
 21
91.5709430177
 31
0.0
  0
LINE
  5
23E
330
1F
100
AcDbEntity
  8
0
  6
Continuous
 62
     7
370
    15
100
AcDbLine
 10
225.2704348725
 20
90.7709443767
 30
0.0
 11
221.1626764696
 21
90.7709443767
 31
0.0
  0
LINE
  5
23F
330
1F
100
AcDbEntity
  8
0
  6
Continuous
 62
     7
370
    15
100
AcDbLine
 10
225.2704348725
 20
75.5709403951
 30
0.0
 11
221.8354340952
 21
75.5709403951
 31
0.0
  0
LINE
  5
240
330
1F
100
AcDbEntity
  8
0
  6
Continuous
 62
     7
370
    15
100
AcDbLine
 10
221.1626764696
 20
75.5735928018
 30
0.0
 11
221.1626764696
 21
76.3709390361
 31
0.0
  0
LINE
  5
241
330
1F
100
AcDbEntity
  8
0
  6
Continuous
 62
     7
370
    15
100
AcDbLine
 10
225.2704348725
 20
76.3709390361
 30
0.0
 11
221.1626764696
 21
76.3709390361
 31
0.0
  0
LINE
  5
242
330
1F
100
AcDbEntity
  8
0
  6
Continuous
 62
     7
370
    15
100
AcDbLine
 10
219.2704376143
 20
76.3709390361
 30
0.0
 11
221.1626764696
 21
76.3709390361
 31
0.0
  0
LINE
  5
243
330
1F
100
AcDbEntity
  8
0
  6
Continuous
 62
     7
370
    15
100
AcDbLine
 10
219.2704376143
 20
90.7709443767
 30
0.0
 11
221.1626764696
 21
90.7709443767
 31
0.0
  0
LINE
  5
244
330
1F
100
AcDbEntity
  8
0
  6
Continuous
 62
     7
370
    15
100
AcDbLine
 10
220.3404452961
 20
91.870948096
 30
0.0
 11
224.7404452723
 21
91.870948096
 31
0.0
  0
LINE
  5
245
330
1F
100
AcDbEntity
  8
0
  6
Continuous
 62
     7
370
    15
100
AcDbLine
 10
220.4404320877
 20
75.1709485252
 30
0.0
 11
224.6404435795
 21
75.1709485252
 31
0.0
  0
LINE
  5
246
330
1F
100
AcDbEntity
  8
0
  6
Continuous
 62
     7
370
    15
100
AcDbLine
 10
220.4404320877
 20
74.7709417541
 30
0.0
 11
224.6404435795
 21
74.7709417541
 31
0.0
  0
LINE
  5
247
330
1F
100
AcDbEntity
  8
0
  6
Continuous
 62
     7
370
    15
100
AcDbLine
 10
189.4318607014
 20
90.7709443767
 30
0.0
 11
187.4423768681
 21
90.7709443767
 31
0.0
  0
LINE
  5
248
330
1F
100
AcDbEntity
  8
0
  6
Continuous
 62
     7
370
    15
100
AcDbLine
 10
189.4318607014
 20
76.3709390361
 30
0.0
 11
189.4318607014
 21
90.7709443767
 31
0.0
  0
LINE
  5
249
330
1F
100
AcDbEntity
  8
0
  6
Continuous
 62
     7
370
    15
100
AcDbLine
 10
187.4423768681
 20
76.3709390361
 30
0.0
 11
189.4318607014
 21
76.3709390361
 31
0.0
  0
ARC
  5
24A
330
1F
100
AcDbEntity
  8
0
  6
Continuous
 62
     7
370
    15
100
AcDbCircle
 10
202.7363512908
 20
83.5709417064
 30
0.0
 40
16.90401408232904
100
AcDbArc
 50
154.7901718738
 51
205.2098281262
  0
SPLINE
  5
24B
330
1F
100
AcDbEntity
  8
0
  6
Continuous
 62
     7
370
    15
100
AcDbSpline
210
0.0
220
0.0
230
1.0
 70
     8
 71
     3
 72
    12
 73
     8
 74
     0
 42
0.00000001
 43
0.00000001
 40
0.0
 40
0.0
 40
0.0
 40
0.0
 40
0.1818625204890634
 40
0.3633463119933281
 40
0.5550863729062995
 40
0.7712593806470155
 40
1.0
 40
1.0
 40
1.0
 40
1.0
 10
187.5747587841251
 20
75.57094039509974
 30
0.0
 10
187.5986160499151
 20
75.57826549483643
 30
0.0
 10
187.6462808987016
 20
75.59290043977809
 30
0.0
 10
187.6610243143025
 20
75.7048788838427
 30
0.0
 10
187.6337947117802
 20
75.87427553014398
 30
0.0
 10
187.5621108442718
 20
76.1027029606997
 30
0.0
 10
187.4830327743044
 20
76.27985895111969
 30
0.0
 10
187.4423768680789
 20
76.37093903611387
 30
0.0
  0
LINE
  5
24C
330
1F
100
AcDbEntity
  8
0
  6
Continuous
 62
     7
370
    15
100
AcDbLine
 10
187.1903982323
 20
76.325445791
 30
0.0
 11
187.5448372524
 21
75.5709403951
 31
0.0
  0
ARC
  5
24D
330
1F
100
AcDbEntity
  8
0
  6
Continuous
 62
     7
370
    15
100
AcDbCircle
 10
202.4609338811
 20
83.5709417064
 30
0.0
 40
16.90226227646351
100
AcDbArc
 50
154.6168036234
 51
205.3831963766
  0
LINE
  5
24E
330
1F
100
AcDbEntity
  8
0
  6
Continuous
 62
     7
370
    15
100
AcDbLine
 10
187.5448372524
 20
91.5709430177
 30
0.0
 11
187.1903982323
 21
90.8164376218
 31
0.0
  0
SPLINE
  5
24F
330
1F
100
AcDbEntity
  8
0
  6
Continuous
 62
     7
370
    15
100
AcDbSpline
210
0.0
220
0.0
230
1.0
 70
     8
 71
     3
 72
    12
 73
     8
 74
     0
 42
0.00000001
 43
0.00000001
 40
0.0
 40
0.0
 40
0.0
 40
0.0
 40
0.2510295286370265
 40
0.5023941519552902
 40
0.7402762300294472
 40
0.9473074117170909
 40
1.0
 40
1.0
 40
1.0
 40
1.0
 10
187.4423768680789
 20
90.77094437669004
 30
0.0
 10
187.4866943787056
 20
90.87082788927636
 30
0.0
 10
187.5753885585853
 20
91.07072824710514
 30
0.0
 10
187.6503844647611
 20
91.3294691586596
 30
0.0
 10
187.6618890966134
 20
91.50669669675877
 30
0.0
 10
187.6202410491204
 20
91.56715803251817
 30
0.0
 10
187.5824298877669
 20
91.57030463670782
 30
0.0
 10
187.574758784125
 20
91.57094301770414
 30
0.0
  0
LINE
  5
250
330
1F
100
AcDbEntity
  8
0
  6
Continuous
 62
     7
370
    15
100
AcDbLine
 10
187.5747587841
 20
75.5709403951
 30
0.0
 11
187.5448372524
 21
75.5709403951
 31
0.0
  0
LINE
  5
251
330
1F
100
AcDbEntity
  8
0
  6
Continuous
 62
     7
370
    15
100
AcDbLine
 10
187.5747587841
 20
91.5709430177
 30
0.0
 11
187.5448372524
 21
91.5709430177
 31
0.0
  0
LWPOLYLINE
  5
252
330
1F
100
AcDbEntity
  8
0
  6
Continuous
 62
     7
370
    15
100
AcDbPolyline
 90
        9
 70
   128
 43
0.0
 10
189.4318607014
 20
90.7709443767
 10
189.4266005915
 20
90.927019139
 10
189.411028878
 20
91.0770887334
 10
189.3857416075
 20
91.2154013116
 10
189.3517222565
 20
91.3366222579
 10
189.3102523249
 20
91.4361173112
 10
189.2629411381
 20
91.5100419719
 10
189.2116215389
 20
91.5555650194
 10
189.1582455796
 20
91.5709430177
  0
LINE
  5
253
330
1F
100
AcDbEntity
  8
0
  6
Continuous
 62
     7
370
    15
100
AcDbLine
 10
187.5747587841
 20
91.5709430177
 30
0.0
 11
189.1582455796
 21
91.5709430177
 31
0.0
  0
LWPOLYLINE
  5
254
330
1F
100
AcDbEntity
  8
0
  6
Continuous
 62
     7
370
    15
100
AcDbPolyline
 90
        9
 70
   128
 43
0.0
 10
189.4318607014
 20
76.3709390361
 10
189.4266005915
 20
76.2148791749
 10
189.411028878
 20
76.0647946794
 10
189.3857416075
 20
75.9264821012
 10
189.3517222565
 20
75.8052611549
 10
189.3102523249
 20
75.7057661016
 10
189.2629411381
 20
75.6318414409
 10
189.2116215389
 20
75.5863183935
 10
189.1582455796
 20
75.5709403951
  0
LINE
  5
255
330
1F
100
AcDbEntity
  8
0
  6
Continuous
 62
     7
370
    15
100
AcDbLine
 10
189.1582455796
 20
75.5709403951
 30
0.0
 11
187.5747587841
 21
75.5709403951
 31
0.0
  0
LINE
  5
256
330
1F
100
AcDbEntity
  8
0
  6
Continuous
 62
     7
370
    15
100
AcDbLine
 10
189.4318607014
 20
76.3709390361
 30
0.0
 11
194.3307068508
 21
76.3709390361
 31
0.0
  0
LINE
  5
257
330
1F
100
AcDbEntity
  8
0
  6
Continuous
 62
     7
370
    15
100
AcDbLine
 10
194.4696303766
 20
75.5709403951
 30
0.0
 11
189.1582455796
 21
75.5709403951
 31
0.0
  0
LINE
  5
258
330
1F
100
AcDbEntity
  8
0
  6
Continuous
 62
     7
370
    15
100
AcDbLine
 10
194.3307068508
 20
90.7709443767
 30
0.0
 11
189.4318607014
 21
90.7709443767
 31
0.0
  0
LINE
  5
259
330
1F
100
AcDbEntity
  8
0
  6
Continuous
 62
     7
370
    15
100
AcDbLine
 10
189.1582455796
 20
91.5709430177
 30
0.0
 11
194.4696303766
 21
91.5709430177
 31
0.0
  0
LINE
  5
25A
330
1F
100
AcDbEntity
  8
0
  6
Continuous
 62
     7
370
    15
100
AcDbLine
 10
225.7713672083
 20
448.8709414203
 30
0.0
 11
225.7713672083
 21
457.4709379871
 31
0.0
  0
LINE
  5
25B
330
1F
100
AcDbEntity
  8
0
  6
Continuous
 62
     7
370
    15
100
AcDbLine
 10
220.2570732992
 20
448.8709414203
 30
0.0
 11
220.2570732992
 21
457.4709379871
 31
0.0
  0
LINE
  5
25C
330
1F
100
AcDbEntity
  8
0
  6
Continuous
 62
     7
370
    15
100
AcDbLine
 10
225.7713672083
 20
457.4709379871
 30
0.0
 11
220.2570732992
 21
457.4709379871
 31
0.0
  0
LINE
  5
25D
330
1F
100
AcDbEntity
  8
0
  6
Continuous
 62
     7
370
    15
100
AcDbLine
 10
225.7713672083
 20
448.8709414203
 30
0.0
 11
220.2570732992
 21
448.8709414203
 31
0.0
  0
LINE
  5
25E
330
1F
100
AcDbEntity
  8
0
  6
Continuous
 62
     7
370
    15
100
AcDbLine
 10
219.1428091686
 20
460.7709491451
 30
0.0
 11
194.3307068508
 21
460.7709491451
 31
0.0
  0
LINE
  5
25F
330
1F
100
AcDbEntity
  8
0
  6
Continuous
 62
     7
370
    15
100
AcDbLine
 10
219.1428091686
 20
457.4709379871
 30
0.0
 11
219.1428091686
 21
460.7709491451
 31
0.0
  0
LINE
  5
260
330
1F
100
AcDbEntity
  8
0
  6
Continuous
 62
     7
370
    15
100
AcDbLine
 10
219.1428091686
 20
446.3709438045
 30
0.0
 11
219.1428091686
 21
448.8709414203
 31
0.0
  0
LINE
  5
261
330
1F
100
AcDbEntity
  8
0
  6
Continuous
 62
     7
370
    15
100
AcDbLine
 10
194.3307068508
 20
446.3709438045
 30
0.0
 11
219.1428091686
 21
446.3709438045
 31
0.0
  0
LINE
  5
262
330
1F
100
AcDbEntity
  8
0
  6
Continuous
 62
     7
370
    15
100
AcDbLine
 10
194.3307068508
 20
446.3709438045
 30
0.0
 11
194.3307068508
 21
460.7709491451
 31
0.0
  0
LINE
  5
263
330
1F
100
AcDbEntity
  8
0
  6
Continuous
 62
     7
370
    15
100
AcDbLine
 10
219.1428091686
 20
457.4709379871
 30
0.0
 11
220.2570732992
 21
457.4709379871
 31
0.0
  0
LINE
  5
264
330
1F
100
AcDbEntity
  8
0
  6
Continuous
 62
     7
370
    15
100
AcDbLine
 10
219.1428091686
 20
448.8709414203
 30
0.0
 11
220.2570732992
 21
448.8709414203
 31
0.0
  0
LINE
  5
265
330
1F
100
AcDbEntity
  8
0
  6
Continuous
 62
     7
370
    15
100
AcDbLine
 10
221.1626764696
 20
461.5682953794
 30
0.0
 11
219.2704376143
 21
461.5682953794
 31
0.0
  0
ARC
  5
266
330
1F
100
AcDbEntity
  8
0
  6
Continuous
 62
     7
370
    15
100
AcDbCircle
 10
220.6171241572
 20
460.9438482979
 30
0.0
 40
1.484418674970786
100
AcDbArc
 50
155.1232467424
 51
186.6887659172
  0
ARC
  5
267
330
1F
100
AcDbEntity
  8
0
  6
Continuous
 62
     7
370
    15
100
AcDbCircle
 10
195.5866296478
 20
460.964913928
 30
0.0
 40
1.270812499494467
100
AcDbArc
 50
151.5177215739
 51
188.7794004158
  0
LINE
  5
268
330
1F
100
AcDbEntity
  8
0
  6
Continuous
 62
     7
370
    15
100
AcDbLine
 10
194.4696303766
 20
461.5709477861
 30
0.0
 11
221.8354340952
 21
461.5709477861
 31
0.0
  0
LINE
  5
269
330
1F
100
AcDbEntity
  8
0
  6
Continuous
 62
     7
370
    15
100
AcDbLine
 10
221.8354340952
 20
461.5709477861
 30
0.0
 11
221.1626764696
 21
461.5682953794
 31
0.0
  0
LINE
  5
26A
330
1F
100
AcDbEntity
  8
0
  6
Continuous
 62
     7
370
    15
100
AcDbLine
 10
219.2704376143
 20
445.5735975702
 30
0.0
 11
221.1626764696
 21
445.5735975702
 31
0.0
  0
LINE
  5
26B
330
1F
100
AcDbEntity
  8
0
  6
Continuous
 62
     7
370
    15
100
AcDbLine
 10
221.1626764696
 20
445.5735975702
 30
0.0
 11
221.8354340952
 21
445.5709451635
 31
0.0
  0
LINE
  5
26C
330
1F
100
AcDbEntity
  8
0
  6
Continuous
 62
     7
370
    15
100
AcDbLine
 10
221.8354340952
 20
445.5709451635
 30
0.0
 11
194.4696303766
 21
445.5709451635
 31
0.0
  0
ARC
  5
26D
330
1F
100
AcDbEntity
  8
0
  6
Continuous
 62
     7
370
    15
100
AcDbCircle
 10
195.5866296478
 20
446.1769790216
 30
0.0
 40
1.270812499494467
100
AcDbArc
 50
171.2205995842
 51
208.4822784261
  0
ARC
  5
26E
330
1F
100
AcDbEntity
  8
0
  6
Continuous
 62
     7
370
    15
100
AcDbCircle
 10
220.6170956148
 20
446.198040083
 30
0.0
 40
1.48439085894487
100
AcDbArc
 50
173.3109306145
 51
204.8770567259
  0
LINE
  5
26F
330
1F
100
AcDbEntity
  8
0
  6
Continuous
 62
     7
370
    15
100
AcDbLine
 10
219.2704376143
 20
460.7709491451
 30
0.0
 11
219.2704376143
 21
461.5682953794
 31
0.0
  0
LINE
  5
270
330
1F
100
AcDbEntity
  8
0
  6
Continuous
 62
     7
370
    15
100
AcDbLine
 10
219.2817326945
 20
460.7709491451
 30
0.0
 11
219.2817326945
 21
457.4709379871
 31
0.0
  0
LINE
  5
271
330
1F
100
AcDbEntity
  8
0
  6
Continuous
 62
     7
370
    15
100
AcDbLine
 10
219.2704376143
 20
445.5735975702
 30
0.0
 11
219.2704376143
 21
446.3709438045
 31
0.0
  0
LINE
  5
272
330
1F
100
AcDbEntity
  8
0
  6
Continuous
 62
     7
370
    15
100
AcDbLine
 10
219.2817326945
 20
448.8709414203
 30
0.0
 11
219.2817326945
 21
446.3709438045
 31
0.0
  0
LINE
  5
273
330
1F
100
AcDbEntity
  8
0
  6
Continuous
 62
     7
370
    15
100
AcDbLine
 10
221.1626764696
 20
460.7709491451
 30
0.0
 11
221.1626764696
 21
461.5682953794
 31
0.0
  0
LINE
  5
274
330
1F
100
AcDbEntity
  8
0
  6
Continuous
 62
     7
370
    15
100
AcDbLine
 10
225.2704348725
 20
461.5709477861
 30
0.0
 11
221.8354340952
 21
461.5709477861
 31
0.0
  0
LINE
  5
275
330
1F
100
AcDbEntity
  8
0
  6
Continuous
 62
     7
370
    15
100
AcDbLine
 10
225.2704348725
 20
460.7709491451
 30
0.0
 11
221.1626764696
 21
460.7709491451
 31
0.0
  0
LINE
  5
276
330
1F
100
AcDbEntity
  8
0
  6
Continuous
 62
     7
370
    15
100
AcDbLine
 10
225.2704348725
 20
445.5709451635
 30
0.0
 11
221.8354340952
 21
445.5709451635
 31
0.0
  0
LINE
  5
277
330
1F
100
AcDbEntity
  8
0
  6
Continuous
 62
     7
370
    15
100
AcDbLine
 10
221.1626764696
 20
445.5735975702
 30
0.0
 11
221.1626764696
 21
446.3709438045
 31
0.0
  0
LINE
  5
278
330
1F
100
AcDbEntity
  8
0
  6
Continuous
 62
     7
370
    15
100
AcDbLine
 10
225.2704348725
 20
446.3709438045
 30
0.0
 11
221.1626764696
 21
446.3709438045
 31
0.0
  0
LINE
  5
279
330
1F
100
AcDbEntity
  8
0
  6
Continuous
 62
     7
370
    15
100
AcDbLine
 10
219.2704376143
 20
446.3709438045
 30
0.0
 11
221.1626764696
 21
446.3709438045
 31
0.0
  0
LINE
  5
27A
330
1F
100
AcDbEntity
  8
0
  6
Continuous
 62
     7
370
    15
100
AcDbLine
 10
219.2704376143
 20
460.7709491451
 30
0.0
 11
221.1626764696
 21
460.7709491451
 31
0.0
  0
LINE
  5
27B
330
1F
100
AcDbEntity
  8
0
  6
Continuous
 62
     7
370
    15
100
AcDbLine
 10
220.3404452961
 20
461.8709379632
 30
0.0
 11
224.7404452723
 21
461.8709379632
 31
0.0
  0
LINE
  5
27C
330
1F
100
AcDbEntity
  8
0
  6
Continuous
 62
     7
370
    15
100
AcDbLine
 10
220.4404320877
 20
445.1709383924
 30
0.0
 11
224.6404435795
 21
445.1709383924
 31
0.0
  0
LINE
  5
27D
330
1F
100
AcDbEntity
  8
0
  6
Continuous
 62
     7
370
    15
100
AcDbLine
 10
220.4404320877
 20
444.7709465225
 30
0.0
 11
224.6404435795
 21
444.7709465225
 31
0.0
  0
LINE
  5
27E
330
1F
100
AcDbEntity
  8
0
  6
Continuous
 62
     7
370
    15
100
AcDbLine
 10
189.4318607014
 20
460.7709491451
 30
0.0
 11
187.4423768681
 21
460.7709491451
 31
0.0
  0
LINE
  5
27F
330
1F
100
AcDbEntity
  8
0
  6
Continuous
 62
     7
370
    15
100
AcDbLine
 10
189.4318607014
 20
446.3709438045
 30
0.0
 11
189.4318607014
 21
460.7709491451
 31
0.0
  0
LINE
  5
280
330
1F
100
AcDbEntity
  8
0
  6
Continuous
 62
     7
370
    15
100
AcDbLine
 10
187.4423768681
 20
446.3709438045
 30
0.0
 11
189.4318607014
 21
446.3709438045
 31
0.0
  0
ARC
  5
281
330
1F
100
AcDbEntity
  8
0
  6
Continuous
 62
     7
370
    15
100
AcDbCircle
 10
202.7363512908
 20
453.5709464748
 30
0.0
 40
16.90401408232904
100
AcDbArc
 50
154.7901718738
 51
205.2098281262
  0
SPLINE
  5
282
330
1F
100
AcDbEntity
  8
0
  6
Continuous
 62
     7
370
    15
100
AcDbSpline
210
0.0
220
0.0
230
1.0
 70
     8
 71
     3
 72
    12
 73
     8
 74
     0
 42
0.00000001
 43
0.00000001
 40
0.0
 40
0.0
 40
0.0
 40
0.0
 40
0.181862208170751
 40
0.3633456880071066
 40
0.5550783177625649
 40
0.7712597734705837
 40
1.0
 40
1.0
 40
1.0
 40
1.0
 10
187.574758784125
 20
445.5709451634713
 30
0.0
 10
187.5986159900744
 20
445.578270003616
 30
0.0
 10
187.6462807193044
 20
445.592904429914
 30
0.0
 10
187.6610248583589
 20
445.7048853979779
 30
0.0
 10
187.6337921800532
 20
445.8742650382462
 30
0.0
 10
187.5621133840024
 20
446.1027074753042
 30
0.0
 10
187.4830331044191
 20
446.2798648256953
 30
0.0
 10
187.4423768680789
 20
446.3709438044854
 30
0.0
  0
LINE
  5
283
330
1F
100
AcDbEntity
  8
0
  6
Continuous
 62
     7
370
    15
100
AcDbLine
 10
187.1903982323
 20
446.3254505594
 30
0.0
 11
187.5448372524
 21
445.5709451635
 31
0.0
  0
ARC
  5
284
330
1F
100
AcDbEntity
  8
0
  6
Continuous
 62
     7
370
    15
100
AcDbCircle
 10
202.4609338811
 20
453.5709464748
 30
0.0
 40
16.90226227646351
100
AcDbArc
 50
154.6168036234
 51
205.3831963766
  0
LINE
  5
285
330
1F
100
AcDbEntity
  8
0
  6
Continuous
 62
     7
370
    15
100
AcDbLine
 10
187.5448372524
 20
461.5709477861
 30
0.0
 11
187.1903982323
 21
460.8164423902
 31
0.0
  0
SPLINE
  5
286
330
1F
100
AcDbEntity
  8
0
  6
Continuous
 62
     7
370
    15
100
AcDbSpline
210
0.0
220
0.0
230
1.0
 70
     8
 71
     3
 72
    12
 73
     8
 74
     0
 42
0.00000001
 43
0.00000001
 40
0.0
 40
0.0
 40
0.0
 40
0.0
 40
0.2510214851684107
 40
0.5023964020404518
 40
0.7402739474278963
 40
0.9473065576477647
 40
0.9999999999999999
 40
0.9999999999999999
 40
0.9999999999999999
 40
0.9999999999999999
 10
187.4423768680789
 20
460.7709491450616
 30
0.0
 10
187.4866948522029
 20
460.8708263555629
 30
0.0
 10
187.5753932190165
 20
461.0707214010727
 30
0.0
 10
187.6503822751738
 20
461.3294735515699
 30
0.0
 10
187.6618892973302
 20
461.5066917827899
 30
0.0
 10
187.6202407153143
 20
461.5671302736556
 30
0.0
 10
187.582429878785
 20
461.570303915018
 30
0.0
 10
187.574758784125
 20
461.5709477860757
 30
0.0
  0
LINE
  5
287
330
1F
100
AcDbEntity
  8
0
  6
Continuous
 62
     7
370
    15
100
AcDbLine
 10
187.5747587841
 20
461.5709477861
 30
0.0
 11
187.5448372524
 21
461.5709477861
 31
0.0
  0
LINE
  5
288
330
1F
100
AcDbEntity
  8
0
  6
Continuous
 62
     7
370
    15
100
AcDbLine
 10
187.5747587841
 20
445.5709451635
 30
0.0
 11
187.5448372524
 21
445.5709451635
 31
0.0
  0
LWPOLYLINE
  5
289
330
1F
100
AcDbEntity
  8
0
  6
Continuous
 62
     7
370
    15
100
AcDbPolyline
 90
        9
 70
   128
 43
0.0
 10
189.4318607014
 20
460.7709491451
 10
189.4266005915
 20
460.9270090062
 10
189.411028878
 20
461.0770935018
 10
189.3857416075
 20
461.21540608
 10
189.3517222565
 20
461.3366270263
 10
189.3102523249
 20
461.4361220796
 10
189.2629411381
 20
461.5100467403
 10
189.2116215389
 20
461.5555697877
 10
189.1582455796
 20
461.5709477861
  0
LINE
  5
28A
330
1F
100
AcDbEntity
  8
0
  6
Continuous
 62
     7
370
    15
100
AcDbLine
 10
187.5747587841
 20
461.5709477861
 30
0.0
 11
189.1582455796
 21
461.5709477861
 31
0.0
  0
LWPOLYLINE
  5
28B
330
1F
100
AcDbEntity
  8
0
  6
Continuous
 62
     7
370
    15
100
AcDbPolyline
 90
        9
 70
   128
 43
0.0
 10
189.4318607014
 20
446.3709438045
 10
189.4266005915
 20
446.2148690421
 10
189.411028878
 20
446.0647994478
 10
189.3857416075
 20
445.9264868696
 10
189.3517222565
 20
445.8052659232
 10
189.3102523249
 20
445.70577087
 10
189.2629411381
 20
445.6318462093
 10
189.2116215389
 20
445.5863231618
 10
189.1582455796
 20
445.5709451635
  0
LINE
  5
28C
330
1F
100
AcDbEntity
  8
0
  6
Continuous
 62
     7
370
    15
100
AcDbLine
 10
189.1582455796
 20
445.5709451635
 30
0.0
 11
187.5747587841
 21
445.5709451635
 31
0.0
  0
LINE
  5
28D
330
1F
100
AcDbEntity
  8
0
  6
Continuous
 62
     7
370
    15
100
AcDbLine
 10
189.4318607014
 20
446.3709438045
 30
0.0
 11
194.3307068508
 21
446.3709438045
 31
0.0
  0
LINE
  5
28E
330
1F
100
AcDbEntity
  8
0
  6
Continuous
 62
     7
370
    15
100
AcDbLine
 10
194.4696303766
 20
445.5709451635
 30
0.0
 11
189.1582455796
 21
445.5709451635
 31
0.0
  0
LINE
  5
28F
330
1F
100
AcDbEntity
  8
0
  6
Continuous
 62
     7
370
    15
100
AcDbLine
 10
194.3307068508
 20
460.7709491451
 30
0.0
 11
189.4318607014
 21
460.7709491451
 31
0.0
  0
LINE
  5
290
330
1F
100
AcDbEntity
  8
0
  6
Continuous
 62
     7
370
    15
100
AcDbLine
 10
189.1582455796
 20
461.5709477861
 30
0.0
 11
194.4696303766
 21
461.5709477861
 31
0.0
  0
SPLINE
  5
291
330
1F
100
AcDbEntity
  8
0
  6
Continuous
 62
     7
370
    15
100
AcDbSpline
210
0.0
220
0.0
230
1.0
 70
     8
 71
     3
 72
    16
 73
    12
 74
     0
 42
0.00000001
 43
0.00000001
 40
0.0
 40
0.0
 40
0.0
 40
0.0
 40
0.120707372860847
 40
0.241411874199485
 40
0.3621189118612284
 40
0.4828257802016889
 40
0.6035328817109525
 40
0.7242379795578293
 40
0.8449441194384902
 40
0.9656483534096532
 40
1.0
 40
1.0
 40
1.0
 40
1.0
 10
220.7127359073855
 20
440.6185740430184
 30
0.0
 10
220.7321368612387
 20
440.6212419970797
 30
0.0
 10
220.7709383074134
 20
440.626577841734
 30
0.0
 10
220.7758616510708
 20
440.917537180979
 30
0.0
 10
220.7386469507455
 20
441.3708684536495
 30
0.0
 10
220.661747889317
 20
441.9384079737253
 30
0.0
 10
220.557915000726
 20
442.5267287127357
 30
0.0
 10
220.4418242669035
 20
443.053420107195
 30
0.0
 10
220.3348137752065
 20
443.4167017522506
 30
0.0
 10
220.262238615722
 20
443.5871868143564
 30
0.0
 10
220.242688618606
 20
443.5540281186018
 30
0.0
 10
220.2383574407794
 20
443.5466820199319
 30
0.0
  0
SPLINE
  5
292
330
1F
100
AcDbEntity
  8
0
  6
Continuous
 62
     7
370
    15
100
AcDbSpline
210
0.0
220
0.0
230
1.0
 70
     8
 71
     3
 72
    16
 73
    12
 74
     0
 42
0.00000001
 43
0.00000001
 40
0.0
 40
0.0
 40
0.0
 40
0.0
 40
0.1205832954962446
 40
0.2411637224219714
 40
0.3617466830636698
 40
0.4823269714796187
 40
0.6029094641128507
 40
0.723490384185248
 40
0.8440770960201609
 40
0.9646563698002354
 40
1.0
 40
1.0
 40
1.0
 40
1.0
 10
220.8833244007327
 20
466.4945894677469
 30
0.0
 10
220.902725519546
 20
466.4919214770022
 30
0.0
 10
220.9415272956371
 20
466.4865855589822
 30
0.0
 10
220.9464481649499
 20
466.1956267699746
 30
0.0
 10
220.9092431247131
 20
465.7422965431801
 30
0.0
 10
220.8323099847116
 20
465.1747707831273
 30
0.0
 10
220.7285089602371
 20
464.5864429183809
 30
0.0
 10
220.612414289899
 20
464.0597703316564
 30
0.0
 10
220.5053819273496
 20
463.6963099456727
 30
0.0
 10
220.4326194872986
 20
463.5257681330887
 30
0.0
 10
220.4129803733295
 20
463.5593469022775
 30
0.0
 10
220.4085287016131
 20
463.5669583279916
 30
0.0
  0
SPLINE
  5
293
330
1F
100
AcDbEntity
  8
0
  6
Continuous
 62
     7
370
    15
100
AcDbSpline
210
0.0
220
0.0
230
1.0
 70
     8
 71
     3
 72
    16
 73
    12
 74
     0
 42
0.00000001
 43
0.00000001
 40
0.0
 40
0.0
 40
0.0
 40
0.0
 40
0.1205117543681748
 40
0.2410321688604558
 40
0.3615496760897255
 40
0.4820674063171059
 40
0.602584445791948
 40
0.7231000162521881
 40
0.8436166271100433
 40
0.9641371437048453
 40
1.0
 40
1.0
 40
1.0
 40
1.0
 10
236.2537082594134
 20
443.2349944312402
 30
0.0
 10
236.2731093221052
 20
443.2376656089863
 30
0.0
 10
236.3119128416731
 20
443.2430081564325
 30
0.0
 10
236.3168322442582
 20
443.5339468456898
 30
0.0
 10
236.2796259726967
 20
443.9872923843375
 30
0.0
 10
236.2026956436747
 20
444.5548205198276
 30
0.0
 10
236.0988910462345
 20
445.1431680730869
 30
0.0
 10
235.982805575843
 20
445.6697766836722
 30
0.0
 10
235.8757447152188
 20
446.0333650319039
 30
0.0
 10
235.8029008151748
 20
446.2039613659374
 30
0.0
 10
235.7832056636403
 20
446.1701426753798
 30
0.0
 10
235.778689042876
 20
446.1623871524163
 30
0.0
  0
SPLINE
  5
294
330
1F
100
AcDbEntity
  8
0
  6
Continuous
 62
     7
370
    15
100
AcDbSpline
210
0.0
220
0.0
230
1.0
 70
     8
 71
     3
 72
    16
 73
    12
 74
     0
 42
0.00000001
 43
0.00000001
 40
0.0
 40
0.0
 40
0.0
 40
0.0
 40
0.1205121047917788
 40
0.2410325804529558
 40
0.3615501488496461
 40
0.4820650464697371
 40
0.6025821471117625
 40
0.7231010411094512
 40
0.8436171544413902
 40
0.9641310379758448
 40
1.0
 40
1.0
 40
1.0
 40
1.0
 10
236.4242967527606
 20
463.8781839806863
 30
0.0
 10
236.4436978414375
 20
463.8755065641886
 30
0.0
 10
236.4825013664066
 20
463.8701515452176
 30
0.0
 10
236.4874204352644
 20
463.5792178363394
 30
0.0
 10
236.4502159378216
 20
463.1258741117223
 30
0.0
 10
236.3732811338888
 20
462.5583539338884
 30
0.0
 10
236.2694846965931
 20
461.9700049413332
 30
0.0
 10
236.1533698957607
 20
461.4433929209579
 30
0.0
 10
236.0463443612941
 20
461.0797989466466
 30
0.0
 10
235.973483826415
 20
460.9092199060494
 30
0.0
 10
235.9537937720627
 20
460.9430351748349
 30
0.0
 10
235.9492775362231
 20
460.9507912595101
 30
0.0
  0
SPLINE
  5
295
330
1F
100
AcDbEntity
  8
0
  6
Continuous
 62
     7
370
    15
100
AcDbSpline
210
0.0
220
0.0
230
1.0
 70
    24
 71
     3
 72
    16
 73
    12
 74
     0
 42
0.00000001
 43
0.00000001
 40
0.0
 40
0.0
 40
0.0
 40
0.0
 40
0.0611102845076972
 40
0.1864723954319963
 40
0.3118322208390296
 40
0.4371944708864321
 40
0.5625589540335474
 40
0.6879198579853077
 40
0.813281951356681
 40
0.9386471442034847
 40
1.0
 40
1.0
 40
1.0
 40
1.0
 10
239.3306192320087
 20
446.7047149140665
 30
0.0
 10
239.3363929898846
 20
446.7047149140665
 30
0.0
 10
239.3540110793834
 20
446.7047149140664
 30
0.0
 10
239.1355796425185
 20
446.7047149140664
 30
0.0
 10
238.7228330805865
 20
446.7047149140665
 30
0.0
 10
238.1663723887004
 20
446.7047149140664
 30
0.0
 10
237.5672679810475
 20
446.7047149140664
 30
0.0
 10
237.0085639965547
 20
446.7047149140665
 30
0.0
 10
236.591604855795
 20
446.7047149140664
 30
0.0
 10
236.3686131380923
 20
446.7047149140664
 30
0.0
 10
236.3834276970636
 20
446.7047149140664
 30
0.0
 10
236.3882955473163
 20
446.7047149140664
 30
0.0
  0
SPLINE
  5
296
330
1F
100
AcDbEntity
  8
0
  6
Continuous
 62
     7
370
    15
100
AcDbSpline
210
0.0
220
0.0
230
1.0
 70
    24
 71
     3
 72
    16
 73
    12
 74
     0
 42
0.00000001
 43
0.00000001
 40
0.0
 40
0.0
 40
0.0
 40
0.0
 40
0.0610129142997457
 40
0.1861752792253431
 40
0.3113353622753087
 40
0.4364978661023373
 40
0.5616625994709642
 40
0.6868237593471552
 40
0.8119861067477948
 40
0.9371515486853087
 40
1.0
 40
1.0
 40
1.0
 40
1.0
 10
239.3306192320086
 20
460.2633410889932
 30
0.0
 10
239.3363929836836
 20
460.2633410889932
 30
0.0
 10
239.3540110542608
 20
460.2633410889932
 30
0.0
 10
239.1355798754128
 20
460.2633410889931
 30
0.0
 10
238.7228322273048
 20
460.2633410889932
 30
0.0
 10
238.1663755690303
 20
460.2633410889931
 30
0.0
 10
237.5672561129506
 20
460.2633410889932
 30
0.0
 10
237.0086082873312
 20
460.2633410889931
 30
0.0
 10
236.5914395568255
 20
460.2633410889932
 30
0.0
 10
236.3679599210662
 20
460.2633410889931
 30
0.0
 10
236.3831785343616
 20
460.2633410889932
 30
0.0
 10
236.3882657449939
 20
460.2633410889932
 30
0.0
  0
SPLINE
  5
297
330
1F
100
AcDbEntity
  8
0
  6
Continuous
 62
     7
370
    15
100
AcDbSpline
210
0.0
220
0.0
230
1.0
 70
     8
 71
     3
 72
    19
 73
    15
 74
     0
 42
0.00000001
 43
0.00000001
 40
0.0
 40
0.0
 40
0.0
 40
0.0
 40
0.0039536624335646
 40
0.1157567250076339
 40
0.2280469081907246
 40
0.3355163268446382
 40
0.4377084579191177
 40
0.5348863347550106
 40
0.6282977408668902
 40
0.730297129600498
 40
0.841335480574447
 40
0.9641307302391019
 40
0.9937686856244613
 40
1.0
 40
1.0
 40
1.0
 40
1.0
 10
225.6587144296863
 20
459.1709369618722
 30
0.0
 10
225.6591066878618
 20
459.1709349886401
 30
0.0
 10
225.6705913612547
 20
459.1708772156526
 30
0.0
 10
225.6939213481739
 20
459.1555957456441
 30
0.0
 10
225.7373761877808
 20
459.0887664868006
 30
0.0
 10
225.7753655420912
 20
458.9840389137946
 30
0.0
 10
225.7988632777423
 20
458.8589716795904
 30
0.0
 10
225.810207059744
 20
458.7305386993883
 30
0.0
 10
225.8107827384576
 20
458.6093620824999
 30
0.0
 10
225.7950235346069
 20
458.5001331964048
 30
0.0
 10
225.7546208996624
 20
458.4107285560106
 30
0.0
 10
225.7028129047833
 20
458.3756338880371
 30
0.0
 10
225.668050269597
 20
458.3710777404538
 30
0.0
 10
225.6600962288854
 20
458.3709589563754
 30
0.0
 10
225.6587144296863
 20
458.3709383208581
 30
0.0
  0
SPLINE
  5
298
330
1F
100
AcDbEntity
  8
0
  6
Continuous
 62
     7
370
    15
100
AcDbSpline
210
0.0
220
0.0
230
1.0
 70
     8
 71
     3
 72
    30
 73
    26
 74
     0
 42
0.00000001
 43
0.00000001
 40
0.0
 40
0.0
 40
0.0
 40
0.0
 40
0.1246996546110605
 40
0.2494033508198762
 40
0.3741252703875831
 40
0.436780291474379
 40
0.4681478751117962
 40
0.4838353924145767
 40
0.4916875679905392
 40
0.4956068531605899
 40
0.4975675714318693
 40
0.4985468274449942
 40
0.4990349694754239
 40
0.4992804159573465
 40
0.4994161641395548
 40
0.4994768725722026
 40
0.4995006843785651
 40
0.4995175218683162
 40
0.4995413336746786
 40
0.5609187542543971
 40
0.6646277719718334
 40
0.7325809832126381
 40
0.811154222853093
 40
0.9003090323791212
 40
1.0
 40
1.0
 40
1.0
 40
1.0
 10
225.7304188173511
 20
459.2308396298715
 30
0.0
 10
225.7361833544711
 20
459.2290487027972
 30
0.0
 10
225.7477126155433
 20
459.2254667906035
 30
0.0
 10
225.8375625914542
 20
459.2036020949742
 30
0.0
 10
225.9450320725593
 20
459.1779649248458
 30
0.0
 10
226.0305757754985
 20
459.1575032861183
 30
0.0
 10
226.0746817590182
 20
459.1470029560726
 30
0.0
 10
226.0969070855455
 20
459.1416654900833
 30
0.0
 10
226.1080433290815
 20
459.139015399647
 30
0.0
 10
226.1136128544863
 20
459.1376780649929
 30
0.0
 10
226.1163938652449
 20
459.1370009485836
 30
0.0
 10
226.1177817585759
 20
459.136658992284
 30
0.0
 10
226.1184818447075
 20
459.1365132558079
 30
0.0
 10
226.1188321461956
 20
459.1364202088434
 30
0.0
 10
226.1190125584546
 20
459.1363799119686
 30
0.0
 10
226.1190975706129
 20
459.1363438545808
 30
0.0
 10
226.1191455137231
 20
459.1363587635793
 30
0.0
 10
226.1191602770205
 20
459.1363293213054
 30
0.0
 10
226.1475885038265
 20
459.1431393270175
 30
0.0
 10
226.2086417038809
 20
459.1052853992096
 30
0.0
 10
226.3029492046773
 20
459.098347397224
 30
0.0
 10
226.385771556083
 20
459.0783903167267
 30
0.0
 10
226.4495023601171
 20
459.0662648113446
 30
0.0
 10
226.499962412762
 20
459.0563923811218
 30
0.0
 10
226.5071970231686
 20
459.055962838565
 30
0.0
 10
226.5110161464908
 20
459.0557360846826
 30
0.0
  0
ELLIPSE
  5
299
330
1F
100
AcDbEntity
  8
0
  6
Continuous
 62
     7
370
    15
100
AcDbEllipse
 10
226.387546399
 20
460.3529192693
 30
0.0
 11
0.3906095144045878
 21
-0.0861638396116291
 31
0.0
210
0.0
220
0.0
230
1.0
 40
0.0142285888
 41
0.0
 42
6.283185307179586
  0
LINE
  5
29A
330
1F
100
AcDbEntity
  8
0
  6
Continuous
 62
     7
370
    15
100
AcDbLine
 10
225.5604412716
 20
447.8209459979
 30
0.0
 11
225.5604412716
 21
446.8209439714
 31
0.0
  0
LINE
  5
29B
330
1F
100
AcDbEntity
  8
0
  6
Continuous
 62
     7
370
    15
100
AcDbLine
 10
219.3604406279
 20
447.8209459979
 30
0.0
 11
219.3604406279
 21
446.8209439714
 31
0.0
  0
LINE
  5
29C
330
1F
100
AcDbEntity
  8
0
  6
Continuous
 62
     7
370
    15
100
AcDbLine
 10
225.5604412716
 20
446.8209439714
 30
0.0
 11
219.3604406279
 21
446.8209439714
 31
0.0
  0
LINE
  5
29D
330
1F
100
AcDbEntity
  8
0
  6
Continuous
 62
     7
370
    15
100
AcDbLine
 10
225.5604412716
 20
447.8209459979
 30
0.0
 11
219.3604406279
 21
447.8209459979
 31
0.0
  0
LINE
  5
29E
330
1F
100
AcDbEntity
  8
0
  6
Continuous
 62
     7
370
    15
100
AcDbLine
 10
225.5604412716
 20
460.3209489782
 30
0.0
 11
225.5604412716
 21
459.3209469516
 31
0.0
  0
LINE
  5
29F
330
1F
100
AcDbEntity
  8
0
  6
Continuous
 62
     7
370
    15
100
AcDbLine
 10
219.3604406279
 20
460.3209489782
 30
0.0
 11
219.3604406279
 21
459.3209469516
 31
0.0
  0
LINE
  5
2A0
330
1F
100
AcDbEntity
  8
0
  6
Continuous
 62
     7
370
    15
100
AcDbLine
 10
225.5604412716
 20
460.3209489782
 30
0.0
 11
219.3604406279
 21
460.3209489782
 31
0.0
  0
LINE
  5
2A1
330
1F
100
AcDbEntity
  8
0
  6
Continuous
 62
     7
370
    15
100
AcDbLine
 10
225.5604412716
 20
459.3209469516
 30
0.0
 11
219.3604406279
 21
459.3209469516
 31
0.0
  0
LINE
  5
2A2
330
1F
100
AcDbEntity
  8
0
  6
Continuous
 62
     7
370
    15
100
AcDbLine
 10
225.5604412716
 20
77.8209412296
 30
0.0
 11
225.5604412716
 21
76.820939203
 31
0.0
  0
LINE
  5
2A3
330
1F
100
AcDbEntity
  8
0
  6
Continuous
 62
     7
370
    15
100
AcDbLine
 10
219.3604406279
 20
77.8209412296
 30
0.0
 11
219.3604406279
 21
76.820939203
 31
0.0
  0
LINE
  5
2A4
330
1F
100
AcDbEntity
  8
0
  6
Continuous
 62
     7
370
    15
100
AcDbLine
 10
225.5604412716
 20
77.8209412296
 30
0.0
 11
219.3604406279
 21
77.8209412296
 31
0.0
  0
LINE
  5
2A5
330
1F
100
AcDbEntity
  8
0
  6
Continuous
 62
     7
370
    15
100
AcDbLine
 10
225.5604412716
 20
76.820939203
 30
0.0
 11
219.3604406279
 21
76.820939203
 31
0.0
  0
LINE
  5
2A6
330
1F
100
AcDbEntity
  8
0
  6
Continuous
 62
     7
370
    15
100
AcDbLine
 10
225.5604412716
 20
90.3209442098
 30
0.0
 11
225.5604412716
 21
89.3209421832
 31
0.0
  0
LINE
  5
2A7
330
1F
100
AcDbEntity
  8
0
  6
Continuous
 62
     7
370
    15
100
AcDbLine
 10
219.3604406279
 20
90.3209442098
 30
0.0
 11
219.3604406279
 21
89.3209421832
 31
0.0
  0
LINE
  5
2A8
330
1F
100
AcDbEntity
  8
0
  6
Continuous
 62
     7
370
    15
100
AcDbLine
 10
225.5604412716
 20
90.3209442098
 30
0.0
 11
219.3604406279
 21
90.3209442098
 31
0.0
  0
LINE
  5
2A9
330
1F
100
AcDbEntity
  8
0
  6
Continuous
 62
     7
370
    15
100
AcDbLine
 10
225.5604412716
 20
89.3209421832
 30
0.0
 11
219.3604406279
 21
89.3209421832
 31
0.0
  0
LWPOLYLINE
  5
2AA
330
1F
100
AcDbEntity
  8
0
  6
Continuous
 62
     7
370
    15
100
AcDbPolyline
 90
        3
 70
   128
 43
0.0
 10
219.2817326945
 20
77.2097999055
 10
219.2843105953
 20
77.2036308248
 10
219.3604406279
 20
76.820939203
  0
LWPOLYLINE
  5
2AB
330
1F
100
AcDbEntity
  8
0
  6
Continuous
 62
     7
370
    15
100
AcDbPolyline
 90
        3
 70
   128
 43
0.0
 10
219.3604406279
 20
90.3209442098
 10
219.2843105953
 20
89.9382674892
 10
219.2817326945
 20
89.9320835073
  0
LINE
  5
2AC
330
1F
100
AcDbEntity
  8
0
  6
Continuous
 62
     7
370
    15
100
AcDbLine
 10
225.5604412716
 20
89.3209421832
 30
0.0
 11
225.5604412716
 21
89.1709470947
 31
0.0
  0
LINE
  5
2AD
330
1F
100
AcDbEntity
  8
0
  6
Continuous
 62
     7
370
    15
100
AcDbLine
 10
225.5604412716
 20
88.3709484536
 30
0.0
 11
225.5604412716
 21
87.4709481199
 31
0.0
  0
LINE
  5
2AE
330
1F
100
AcDbEntity
  8
0
  6
Continuous
 62
     7
370
    15
100
AcDbLine
 10
225.5604412716
 20
78.8709366519
 30
0.0
 11
225.5604412716
 21
77.8209412296
 31
0.0
  0
LWPOLYLINE
  5
2AF
330
1F
100
AcDbEntity
  8
0
  6
Continuous
 62
     7
370
    15
100
AcDbPolyline
 90
        3
 70
   128
 43
0.0
 10
219.2817326945
 20
447.2098046739
 10
219.2843105953
 20
447.203620692
 10
219.3604406279
 20
446.8209439714
  0
LWPOLYLINE
  5
2B0
330
1F
100
AcDbEntity
  8
0
  6
Continuous
 62
     7
370
    15
100
AcDbPolyline
 90
        3
 70
   128
 43
0.0
 10
219.3604406279
 20
460.3209489782
 10
219.2843105953
 20
459.9382573564
 10
219.2817326945
 20
459.9320882757
  0
LINE
  5
2B1
330
1F
100
AcDbEntity
  8
0
  6
Continuous
 62
     7
370
    15
100
AcDbLine
 10
225.5604412716
 20
459.3209469516
 30
0.0
 11
225.5604412716
 21
459.1709369619
 31
0.0
  0
LINE
  5
2B2
330
1F
100
AcDbEntity
  8
0
  6
Continuous
 62
     7
370
    15
100
AcDbLine
 10
225.5604412716
 20
458.3709383209
 30
0.0
 11
225.5604412716
 21
457.4709379871
 31
0.0
  0
LINE
  5
2B3
330
1F
100
AcDbEntity
  8
0
  6
Continuous
 62
     7
370
    15
100
AcDbLine
 10
225.5604412716
 20
448.8709414203
 30
0.0
 11
225.5604412716
 21
447.8209459979
 31
0.0
  0
LINE
  5
2B4
330
1F
100
AcDbEntity
  8
0
  6
Continuous
 62
     7
370
    15
100
AcDbLine
 10
27.5604376879
 20
33.5709446866
 30
0.0
 11
12.5604380232
 21
33.5709446866
 31
0.0
  0
LINE
  5
2B5
330
1F
100
AcDbEntity
  8
0
  6
Continuous
 62
     7
370
    15
100
AcDbLine
 10
27.5604376879
 20
33.5709446866
 30
0.0
 11
27.5604376879
 21
18.5709440906
 31
0.0
  0
ARC
  5
2B6
330
1F
100
AcDbEntity
  8
0
  6
Continuous
 62
     7
370
    15
100
AcDbCircle
 10
27.5604380053
 20
33.5709440906
 30
0.0
 40
15.00000000000001
100
AcDbArc
 50
180.0
 51
270.0
  0
LINE
  5
2B7
330
1F
100
AcDbEntity
  8
0
  6
Continuous
 62
     7
370
    15
100
AcDbLine
 10
12.5604380232
 20
503.5709434945
 30
0.0
 11
27.5604376879
 21
503.5709434945
 31
0.0
  0
LINE
  5
2B8
330
1F
100
AcDbEntity
  8
0
  6
Continuous
 62
     7
370
    15
100
AcDbLine
 10
27.5604376879
 20
503.5709434945
 30
0.0
 11
27.5604376879
 21
33.5709446866
 31
0.0
  0
LINE
  5
2B9
330
1F
100
AcDbEntity
  8
0
  6
Continuous
 62
     7
370
    15
100
AcDbLine
 10
12.5604380232
 20
503.5709434945
 30
0.0
 11
12.5604380232
 21
33.5709446866
 31
0.0
  0
ARC
  5
2BA
330
1F
100
AcDbEntity
  8
0
  6
Continuous
 62
     7
370
    15
100
AcDbCircle
 10
27.5604380053
 20
503.5709440906
 30
0.0
 40
14.99999999999997
100
AcDbArc
 50
90.0
 51
180.0
  0
LINE
  5
2BB
330
1F
100
AcDbEntity
  8
0
  6
Continuous
 62
     7
370
    15
100
AcDbLine
 10
27.5604376879
 20
518.5709440906
 30
0.0
 11
27.5604376879
 21
503.5709434945
 31
0.0
  0
LINE
  5
2BC
330
1F
100
AcDbEntity
  8
0
  6
Continuous
 62
     7
370
    15
100
AcDbLine
 10
238.5604378145
 20
518.5709440906
 30
0.0
 11
27.5604376879
 21
518.5709440906
 31
0.0
  0
LINE
  5
2BD
330
1F
100
AcDbEntity
  8
0
  6
Continuous
 62
     7
370
    15
100
AcDbLine
 10
238.5604378145
 20
518.5709440906
 30
0.0
 11
238.5604378145
 21
503.5709434945
 31
0.0
  0
LINE
  5
2BE
330
1F
100
AcDbEntity
  8
0
  6
Continuous
 62
     7
370
    15
100
AcDbLine
 10
238.5604378145
 20
503.5709434945
 30
0.0
 11
27.5604376879
 21
503.5709434945
 31
0.0
  0
LINE
  5
2BF
330
1F
100
AcDbEntity
  8
0
  6
Continuous
 62
     7
370
    15
100
AcDbLine
 10
218.5604419869
 20
38.5709399183
 30
0.0
 11
218.5604419869
 21
70.7584017713
 31
0.0
  0
LINE
  5
2C0
330
1F
100
AcDbEntity
  8
0
  6
Continuous
 62
     7
370
    15
100
AcDbLine
 10
218.5604419869
 20
74.0981841285
 30
0.0
 11
218.5604419869
 21
75.5709403951
 31
0.0
  0
LINE
  5
2C1
330
1F
100
AcDbEntity
  8
0
  6
Continuous
 62
     7
370
    15
100
AcDbLine
 10
218.5604419869
 20
91.5709430177
 30
0.0
 11
218.5604419869
 21
93.0303478439
 31
0.0
  0
LINE
  5
2C2
330
1F
100
AcDbEntity
  8
0
  6
Continuous
 62
     7
370
    15
100
AcDbLine
 10
218.5604419869
 20
96.3730657298
 30
0.0
 11
218.5604419869
 21
440.7583916385
 31
0.0
  0
LINE
  5
2C3
330
1F
100
AcDbEntity
  8
0
  6
Continuous
 62
     7
370
    15
100
AcDbLine
 10
218.5604419869
 20
444.0981888969
 30
0.0
 11
218.5604419869
 21
445.5709451635
 31
0.0
  0
LINE
  5
2C4
330
1F
100
AcDbEntity
  8
0
  6
Continuous
 62
     7
370
    15
100
AcDbLine
 10
218.5604419869
 20
461.5709477861
 30
0.0
 11
218.5604419869
 21
463.0303526122
 31
0.0
  0
LINE
  5
2C5
330
1F
100
AcDbEntity
  8
0
  6
Continuous
 62
     7
370
    15
100
AcDbLine
 10
218.5604419869
 20
466.373055597
 30
0.0
 11
218.5604419869
 21
498.5709482629
 31
0.0
  0
LINE
  5
2C6
330
1F
100
AcDbEntity
  8
0
  6
Continuous
 62
     7
370
    15
100
AcDbLine
 10
218.5604419869
 20
498.5709482629
 30
0.0
 11
32.5604375761
 21
498.5709482629
 31
0.0
  0
LINE
  5
2C7
330
1F
100
AcDbEntity
  8
0
  6
Continuous
 62
     7
370
    15
100
AcDbLine
 10
238.5604378145
 20
33.5709446866
 30
0.0
 11
238.5604378145
 21
74.5630407531
 31
0.0
  0
LINE
  5
2C8
330
1F
100
AcDbEntity
  8
0
  6
Continuous
 62
     7
370
    15
100
AcDbLine
 10
238.5604378145
 20
92.5468796689
 30
0.0
 11
238.5604378145
 21
444.5630306203
 31
0.0
  0
LINE
  5
2C9
330
1F
100
AcDbEntity
  8
0
  6
Continuous
 62
     7
370
    15
100
AcDbLine
 10
238.5604378145
 20
462.5468695361
 30
0.0
 11
238.5604378145
 21
503.5709434945
 31
0.0
  0
LINE
  5
2CA
330
1F
100
AcDbEntity
  8
0
  6
Continuous
 62
     7
370
    15
100
AcDbLine
 10
238.5604378145
 20
33.5709446866
 30
0.0
 11
27.5604376879
 21
33.5709446866
 31
0.0
  0
LINE
  5
2CB
330
1F
100
AcDbEntity
  8
0
  6
Continuous
 62
     7
370
    15
100
AcDbLine
 10
218.5604419869
 20
38.5709399183
 30
0.0
 11
32.5604375761
 21
38.5709399183
 31
0.0
  0
LINE
  5
2CC
330
1F
100
AcDbEntity
  8
0
  6
Continuous
 62
     7
370
    15
100
AcDbLine
 10
32.5604375761
 20
498.5709482629
 30
0.0
 11
32.5604375761
 21
38.5709399183
 31
0.0
  0
LINE
  5
2CD
330
1F
100
AcDbEntity
  8
0
  6
Continuous
 62
     7
370
    15
100
AcDbLine
 10
238.5604378145
 20
33.5709446866
 30
0.0
 11
238.5604378145
 21
18.5709440906
 31
0.0
  0
LINE
  5
2CE
330
1F
100
AcDbEntity
  8
0
  6
Continuous
 62
     7
370
    15
100
AcDbLine
 10
238.5604378145
 20
18.5709440906
 30
0.0
 11
27.5604376879
 21
18.5709440906
 31
0.0
  0
LINE
  5
2CF
330
1F
100
AcDbEntity
  8
0
  6
Continuous
 62
     7
370
    15
100
AcDbLine
 10
242.5604310196
 20
513.570948859
 30
0.0
 11
238.5604378145
 21
513.570948859
 31
0.0
  0
LINE
  5
2D0
330
1F
100
AcDbEntity
  8
0
  6
Continuous
 62
     7
370
    15
100
AcDbLine
 10
242.5604310196
 20
498.5709482629
 30
0.0
 11
238.5604378145
 21
498.5709482629
 31
0.0
  0
LINE
  5
2D1
330
1F
100
AcDbEntity
  8
0
  6
Continuous
 62
     7
370
    15
100
AcDbLine
 10
242.5604310196
 20
38.5709399183
 30
0.0
 11
238.5604378145
 21
38.5709399183
 31
0.0
  0
LINE
  5
2D2
330
1F
100
AcDbEntity
  8
0
  6
Continuous
 62
     7
370
    15
100
AcDbLine
 10
242.5604310196
 20
23.5709393222
 30
0.0
 11
238.5604378145
 21
23.5709393222
 31
0.0
  0
LINE
  5
2D3
330
1F
100
AcDbEntity
  8
0
  6
Continuous
 62
     7
370
    15
100
AcDbLine
 10
298.9955578122
 20
601.9577768267
 30
0.0
 11
300.1955483231
 21
601.9577768267
 31
0.0
  0
LINE
  5
2D4
330
1F
100
AcDbEntity
  8
0
  6
Continuous
 62
     7
370
    15
100
AcDbLine
 10
298.8955710206
 20
604.4577744425
 30
0.0
 11
298.9955578122
 21
604.4577744425
 31
0.0
  0
LINE
  5
2D5
330
1F
100
AcDbEntity
  8
0
  6
Continuous
 62
     7
370
    15
100
AcDbLine
 10
298.9955578122
 20
610.4577866019
 30
0.0
 11
298.8955710206
 21
610.4577866019
 31
0.0
  0
LINE
  5
2D6
330
1F
100
AcDbEntity
  8
0
  6
Continuous
 62
     7
370
    15
100
AcDbLine
 10
294.7473261628
 20
667.4577829064
 30
0.0
 11
293.9955625805
 21
667.1841677846
 31
0.0
  0
SPLINE
  5
2D7
330
1F
100
AcDbEntity
  8
0
  6
Continuous
 62
     7
370
    15
100
AcDbSpline
210
0.0
220
0.0
230
1.0
 70
     8
 71
     3
 72
    15
 73
    11
 74
     0
 42
0.00000001
 43
0.00000001
 40
0.0
 40
0.0
 40
0.0
 40
0.0
 40
0.1250764788484305
 40
0.2501513725693029
 40
0.3752924778539273
 40
0.5003060932994484
 40
0.6252892307038274
 40
0.7502633288589022
 40
0.8750791461413063
 40
1.0
 40
1.0
 40
1.0
 40
1.0
 10
297.8099916252672
 20
632.5156029881167
 30
0.0
 10
297.7838747573171
 20
632.7743698298596
 30
0.0
 10
297.7316413524031
 20
633.291900233924
 30
0.0
 10
297.6527428465915
 20
634.0730127193143
 30
0.0
 10
297.578315979212
 20
634.8101951688361
 30
0.0
 10
297.5113353189162
 20
635.4737728204035
 30
0.0
 10
297.4551860335446
 20
636.0295285310209
 30
0.0
 10
297.4127110951005
 20
636.4506402175326
 30
0.0
 10
297.383839034928
 20
636.7362305500114
 30
0.0
 10
297.3795144920382
 20
636.7792737611238
 30
0.0
 10
297.377351311165
 20
636.8008044184375
 30
0.0
  0
SPLINE
  5
2D8
330
1F
100
AcDbEntity
  8
0
  6
Continuous
 62
     7
370
    15
100
AcDbSpline
210
0.0
220
0.0
230
1.0
 70
     8
 71
     3
 72
    15
 73
    11
 74
     0
 42
0.00000001
 43
0.00000001
 40
0.0
 40
0.0
 40
0.0
 40
0.0
 40
0.1249399134837297
 40
0.2497677702417704
 40
0.374749816434683
 40
0.499737761327681
 40
0.6247475667816148
 40
0.7498801254920721
 40
0.8749433406557672
 40
1.0
 40
1.0
 40
1.0
 40
1.0
 10
294.3930957588731
 20
636.4994135321307
 30
0.0
 10
294.3952723316817
 20
636.4778389617427
 30
0.0
 10
294.3996235251636
 20
636.434709170874
 30
0.0
 10
294.4284715283641
 20
636.1489929137392
 30
0.0
 10
294.4710017329679
 20
635.7278095969743
 30
0.0
 10
294.5271317783778
 20
635.1720295795212
 30
0.0
 10
294.5941275426734
 20
634.5085070881781
 30
0.0
 10
294.6685160269425
 20
633.771458248265
 30
0.0
 10
294.747375468948
 20
632.9905478993227
 30
0.0
 10
294.7996163280562
 20
632.4731947971736
 30
0.0
 10
294.8257360729753
 20
632.214525026195
 30
0.0
  0
LINE
  5
2D9
330
1F
100
AcDbEntity
  8
0
  6
Continuous
 62
     7
370
    15
100
AcDbLine
 10
294.8254380498
 20
632.2143909157
 30
0.0
 11
296.3945303235
 21
616.6734185637
 31
0.0
  0
LINE
  5
2DA
330
1F
100
AcDbEntity
  8
0
  6
Continuous
 62
     7
370
    15
100
AcDbLine
 10
299.3793521199
 20
616.9747796477
 30
0.0
 11
297.8102896485
 21
632.5157370986
 31
0.0
  0
SPLINE
  5
2DB
330
1F
100
AcDbEntity
  8
0
  6
Continuous
 62
     7
370
    15
100
AcDbSpline
210
0.0
220
0.0
230
1.0
 70
     8
 71
     3
 72
     9
 73
     5
 74
     0
 42
0.00000001
 43
0.00000001
 40
0.0
 40
0.0
 40
0.0
 40
0.0
 40
0.4837443706254348
 40
1.0
 40
1.0
 40
1.0
 40
1.0
 10
296.5646121773302
 20
614.9920460404086
 30
0.0
 10
296.5740664847618
 20
614.9278151777604
 30
0.0
 10
296.593610500167
 20
614.7950366555729
 30
0.0
 10
296.6274563339458
 20
614.7588816443213
 30
0.0
 10
296.644929436165
 20
614.7402164162326
 30
0.0
  0
SPLINE
  5
2DC
330
1F
100
AcDbEntity
  8
0
  6
Continuous
 62
     7
370
    15
100
AcDbSpline
210
0.0
220
0.0
230
1.0
 70
     8
 71
     3
 72
    11
 73
     7
 74
     0
 42
0.00000001
 43
0.00000001
 40
0.0
 40
0.0
 40
0.0
 40
0.0
 40
0.2484390909623301
 40
0.4978828836876672
 40
0.7483833401196661
 40
1.0
 40
1.0
 40
1.0
 40
1.0
 10
296.394798544365
 20
616.6735675753283
 30
0.0
 10
296.4128127257973
 20
616.4950953888739
 30
0.0
 10
296.4489139390321
 20
616.1374292643293
 30
0.0
 10
296.4959162927034
 20
615.6726024914065
 30
0.0
 10
296.5347098776574
 20
615.2897189914767
 30
0.0
 10
296.5497658749842
 20
615.1424209491396
 30
0.0
 10
296.5573106083452
 20
615.0686082066226
 30
0.0
  0
SPLINE
  5
2DD
330
1F
100
AcDbEntity
  8
0
  6
Continuous
 62
     7
370
    15
100
AcDbSpline
210
0.0
220
0.0
230
1.0
 70
     8
 71
     3
 72
    19
 73
    15
 74
     0
 42
0.00000001
 43
0.00000001
 40
0.0
 40
0.0
 40
0.0
 40
0.0
 40
0.0802803741273912
 40
0.1534391216407641
 40
0.2193400783638363
 40
0.2779457892271799
 40
0.3728404656160573
 40
0.4421528782495143
 40
0.5315337737893917
 40
0.6554830250230004
 40
0.7303562033253211
 40
0.8130776698617835
 40
0.903142612509281
 40
1.0
 40
1.0
 40
1.0
 40
1.0
 10
296.5802583965836
 20
614.9093892992663
 30
0.0
 10
296.6156177845461
 20
614.7865145910644
 30
0.0
 10
296.68319984915
 20
614.5516653205758
 30
0.0
 10
296.8804375978389
 20
614.2572648742961
 30
0.0
 10
297.1052748781339
 20
614.033133644831
 30
0.0
 10
297.4009374972339
 20
613.8400912365796
 30
0.0
 10
297.7428867091342
 20
613.722193557782
 30
0.0
 10
298.152640267818
 20
613.6923885626346
 30
0.0
 10
298.5917263393567
 20
613.7947073172307
 30
0.0
 10
298.9782763736076
 20
614.0459241666368
 30
0.0
 10
299.2711128815372
 20
614.3866414429557
 30
0.0
 10
299.4518965642476
 20
614.7421051030584
 30
0.0
 10
299.5577574975269
 20
615.1690542744828
 30
0.0
 10
299.5255186071825
 20
615.4641211077833
 30
0.0
 10
299.508813408333
 20
615.6170156420397
 30
0.0
  0
SPLINE
  5
2DE
330
1F
100
AcDbEntity
  8
0
  6
Continuous
 62
     7
370
    15
100
AcDbSpline
210
0.0
220
0.0
230
1.0
 70
     8
 71
     3
 72
    11
 73
     7
 74
     0
 42
0.00000001
 43
0.00000001
 40
0.0
 40
0.0
 40
0.0
 40
0.0
 40
0.2477422503486103
 40
0.4969461198069422
 40
0.7476718296631556
 40
1.0
 40
1.0
 40
1.0
 40
1.0
 10
299.532565859276
 20
615.4493328751254
 30
0.0
 10
299.5261384144146
 20
615.5139583276529
 30
0.0
 10
299.5132456043282
 20
615.6435905071826
 30
0.0
 10
299.4772512612496
 20
616.0014660933613
 30
0.0
 10
299.432299653167
 20
616.4477901799796
 30
0.0
 10
299.3968601141777
 20
616.7986545294693
 30
0.0
 10
299.3790838989793
 20
616.97464553725
 30
0.0
  0
LINE
  5
2DF
330
1F
100
AcDbEntity
  8
0
  6
Continuous
 62
     7
370
    15
100
AcDbLine
 10
299.6628616128
 20
626.6294506015
 30
0.0
 11
299.6628616128
 21
626.9292619647
 31
0.0
  0
LINE
  5
2E0
330
1F
100
AcDbEntity
  8
0
  6
Continuous
 62
     7
370
    15
100
AcDbLine
 10
298.8628480706
 20
626.9292619647
 30
0.0
 11
298.8628480706
 21
626.6318943919
 31
0.0
  0
SPLINE
  5
2E1
330
1F
100
AcDbEntity
  8
0
  6
Continuous
 62
     7
370
    15
100
AcDbSpline
210
0.0
220
0.0
230
1.0
 70
    24
 71
     3
 72
    11
 73
     7
 74
     0
 42
0.00000001
 43
0.00000001
 40
0.0
 40
0.0
 40
0.0
 40
0.0
 40
0.0207850328835332
 40
0.3465561843128634
 40
0.6711381646362238
 40
0.9999999999999999
 40
0.9999999999999999
 40
0.9999999999999999
 40
0.9999999999999999
 10
298.8628480705797
 20
627.2155877770114
 30
0.0
 10
298.8628480705797
 20
627.2122660729706
 30
0.0
 10
298.8628480705794
 20
627.1568821299065
 30
0.0
 10
298.8628480705798
 20
627.0636439647307
 30
0.0
 10
298.8628480705795
 20
626.9509318294441
 30
0.0
 10
298.8628480705797
 20
626.9164043303703
 30
0.0
 10
298.8628480705797
 20
626.8990275086093
 30
0.0
  0
SPLINE
  5
2E2
330
1F
100
AcDbEntity
  8
0
  6
Continuous
 62
     7
370
    15
100
AcDbSpline
210
0.0
220
0.0
230
1.0
 70
    24
 71
     3
 72
    11
 73
     7
 74
     0
 42
0.00000001
 43
0.00000001
 40
0.0
 40
0.0
 40
0.0
 40
0.0
 40
0.2504877331241812
 40
0.4977261212757707
 40
0.7458640449708547
 40
0.9999999999999999
 40
0.9999999999999999
 40
0.9999999999999999
 40
0.9999999999999999
 10
299.662861612755
 20
626.8965837181735
 30
0.0
 10
299.662861612755
 20
626.9128008498847
 30
0.0
 10
299.662861612755
 20
626.9450247435028
 30
0.0
 10
299.6628616127549
 20
627.0538002799035
 30
0.0
 10
299.6628616127551
 20
627.1926307108359
 30
0.0
 10
299.662861612755
 20
627.2996581705606
 30
0.0
 10
299.662861612755
 20
627.3538109482455
 30
0.0
  0
LINE
  5
2E3
330
1F
100
AcDbEntity
  8
0
  6
Continuous
 62
     7
370
    15
100
AcDbLine
 10
299.6628616128
 20
627.3538109482
 30
0.0
 11
299.6628616128
 21
627.4577763499
 31
0.0
  0
LINE
  5
2E4
330
1F
100
AcDbEntity
  8
0
  6
Continuous
 62
     7
370
    15
100
AcDbLine
 10
298.6561093602
 20
627.4577763499
 30
0.0
 11
298.8650534424
 21
627.2105511845
 31
0.0
  0
LINE
  5
2E5
330
1F
100
AcDbEntity
  8
0
  6
Continuous
 62
     7
370
    15
100
AcDbLine
 10
294.3864796433
 20
636.5957942427
 30
0.0
 11
294.3708632264
 21
637.0550331296
 31
0.0
  0
SPLINE
  5
2E6
330
1F
100
AcDbEntity
  8
0
  6
Continuous
 62
     7
370
    15
100
AcDbSpline
210
0.0
220
0.0
230
1.0
 70
     8
 71
     3
 72
    11
 73
     7
 74
     0
 42
0.00000001
 43
0.00000001
 40
0.0
 40
0.0
 40
0.0
 40
0.0
 40
0.1207593671251612
 40
0.4133930757106001
 40
0.706356478972124
 40
1.0
 40
1.0
 40
1.0
 40
1.0
 10
296.4191470417558
 20
616.4323624790835
 30
0.0
 10
296.4290706843763
 20
616.3340618961716
 30
0.0
 10
296.4630420875296
 20
615.9975515178758
 30
0.0
 10
296.5103786483945
 20
615.5286424192548
 30
0.0
 10
296.5532667453241
 20
615.1038995230527
 30
0.0
 10
296.5608274446788
 20
615.0293593421599
 30
0.0
 10
296.5646121773302
 20
614.9920460404086
 30
0.0
  0
LINE
  5
2E7
330
1F
100
AcDbEntity
  8
0
  6
Continuous
 62
     7
370
    15
100
AcDbLine
 10
300.1955483231
 20
666.4577808798
 30
0.0
 11
299.895558146
 21
666.4577808798
 31
0.0
  0
LINE
  5
2E8
330
1F
100
AcDbEntity
  8
0
  6
Continuous
 62
     7
370
    15
100
AcDbLine
 10
299.895558146
 20
665.4577788533
 30
0.0
 11
299.7955713543
 21
665.4577788533
 31
0.0
  0
LINE
  5
2E9
330
1F
100
AcDbEntity
  8
0
  6
Continuous
 62
     7
370
    15
100
AcDbLine
 10
299.7955713543
 20
659.4577815951
 30
0.0
 11
299.895558146
 21
659.4577815951
 31
0.0
  0
LINE
  5
2EA
330
1F
100
AcDbEntity
  8
0
  6
Continuous
 62
     7
370
    15
100
AcDbLine
 10
299.895558146
 20
642.4577769459
 30
0.0
 11
299.7955713543
 21
642.4577769459
 31
0.0
  0
LINE
  5
2EB
330
1F
100
AcDbEntity
  8
0
  6
Continuous
 62
     7
370
    15
100
AcDbLine
 10
299.7955713543
 20
636.4577796878
 30
0.0
 11
299.895558146
 21
636.4577796878
 31
0.0
  0
LINE
  5
2EC
330
1F
100
AcDbEntity
  8
0
  6
Continuous
 62
     7
370
    15
100
AcDbLine
 10
900.195572165
 20
605.4577764691
 30
0.0
 11
885.1955566678
 21
605.4577764691
 31
0.0
  0
ARC
  5
2ED
330
1F
100
AcDbEntity
  8
0
  6
Continuous
 62
     7
370
    15
100
AcDbCircle
 10
885.195560244
 20
605.4577796162
 30
0.0
 40
15.0
100
AcDbArc
 50
270.0
 51
0.0
  0
LINE
  5
2EE
330
1F
100
AcDbEntity
  8
0
  6
Continuous
 62
     7
370
    15
100
AcDbLine
 10
885.1955566678
 20
605.4577764691
 30
0.0
 11
885.1955566678
 21
590.4577758731
 31
0.0
  0
LINE
  5
2EF
330
1F
100
AcDbEntity
  8
0
  6
Continuous
 62
     7
370
    15
100
AcDbLine
 10
885.1955566678
 20
610.4577866019
 30
0.0
 11
885.1955566678
 21
605.4577764691
 31
0.0
  0
LINE
  5
2F0
330
1F
100
AcDbEntity
  8
0
  6
Continuous
 62
     7
370
    15
100
AcDbLine
 10
900.195572165
 20
610.4577866019
 30
0.0
 11
900.195572165
 21
605.4577764691
 31
0.0
  0
LINE
  5
2F1
330
1F
100
AcDbEntity
  8
0
  6
Continuous
 62
     7
370
    15
100
AcDbLine
 10
900.195572165
 20
610.4577866019
 30
0.0
 11
885.1955566678
 21
610.4577866019
 31
0.0
  0
LINE
  5
2F2
330
1F
100
AcDbEntity
  8
0
  6
Continuous
 62
     7
370
    15
100
AcDbLine
 10
315.1955638203
 20
590.4577758731
 30
0.0
 11
885.1955566678
 21
590.4577758731
 31
0.0
  0
LINE
  5
2F3
330
1F
100
AcDbEntity
  8
0
  6
Continuous
 62
     7
370
    15
100
AcDbLine
 10
315.1955638203
 20
590.4577758731
 30
0.0
 11
315.1955638203
 21
605.4577764691
 31
0.0
  0
LINE
  5
2F4
330
1F
100
AcDbEntity
  8
0
  6
Continuous
 62
     7
370
    15
100
AcDbLine
 10
315.1955638203
 20
605.4577764691
 30
0.0
 11
885.1955566678
 21
605.4577764691
 31
0.0
  0
LINE
  5
2F5
330
1F
100
AcDbEntity
  8
0
  6
Continuous
 62
     7
370
    15
100
AcDbLine
 10
315.1955638203
 20
610.4577866019
 30
0.0
 11
315.1955638203
 21
605.4577764691
 31
0.0
  0
LINE
  5
2F6
330
1F
100
AcDbEntity
  8
0
  6
Continuous
 62
     7
370
    15
100
AcDbLine
 10
315.1955638203
 20
610.4577866019
 30
0.0
 11
885.1955566678
 21
610.4577866019
 31
0.0
  0
ARC
  5
2F7
330
1F
100
AcDbEntity
  8
0
  6
Continuous
 62
     7
370
    15
100
AcDbCircle
 10
315.195560244
 20
605.4577796162
 30
0.0
 40
15.00000000000006
100
AcDbArc
 50
180.0
 51
270.0
  0
LINE
  5
2F8
330
1F
100
AcDbEntity
  8
0
  6
Continuous
 62
     7
370
    15
100
AcDbLine
 10
300.1955483231
 20
605.4577764691
 30
0.0
 11
315.1955638203
 21
605.4577764691
 31
0.0
  0
LINE
  5
2F9
330
1F
100
AcDbEntity
  8
0
  6
Continuous
 62
     7
370
    15
100
AcDbLine
 10
300.1955483231
 20
610.4577866019
 30
0.0
 11
300.1955483231
 21
605.4577764691
 31
0.0
  0
LINE
  5
2FA
330
1F
100
AcDbEntity
  8
0
  6
Continuous
 62
     7
370
    15
100
AcDbLine
 10
300.1955483231
 20
610.4577866019
 30
0.0
 11
315.1955638203
 21
610.4577866019
 31
0.0
  0
LINE
  5
2FB
330
1F
100
AcDbEntity
  8
0
  6
Continuous
 62
     7
370
    15
100
AcDbLine
 10
298.9955578122
 20
608.4755447329
 30
0.0
 11
300.1955483231
 21
608.4755447329
 31
0.0
  0
LINE
  5
2FC
330
1F
100
AcDbEntity
  8
0
  6
Continuous
 62
     7
370
    15
100
AcDbLine
 10
298.9955578122
 20
606.3715752782
 30
0.0
 11
300.1955483231
 21
606.3715752782
 31
0.0
  0
LINE
  5
2FD
330
1F
100
AcDbEntity
  8
0
  6
Continuous
 62
     7
370
    15
100
AcDbLine
 10
298.9955578122
 20
606.3715752782
 30
0.0
 11
298.9955578122
 21
608.4755447329
 31
0.0
  0
LINE
  5
2FE
330
1F
100
AcDbEntity
  8
0
  6
Continuous
 62
     7
370
    15
100
AcDbLine
 10
298.9955578122
 20
613.4577777804
 30
0.0
 11
300.1955483231
 21
613.4577777804
 31
0.0
  0
LINE
  5
2FF
330
1F
100
AcDbEntity
  8
0
  6
Continuous
 62
     7
370
    15
100
AcDbLine
 10
300.1955483231
 20
610.4577866019
 30
0.0
 11
300.1955483231
 21
613.4577777804
 31
0.0
  0
LINE
  5
300
330
1F
100
AcDbEntity
  8
0
  6
Continuous
 62
     7
370
    15
100
AcDbLine
 10
298.9955578122
 20
613.4577777804
 30
0.0
 11
298.9955578122
 21
608.4755447329
 31
0.0
  0
LINE
  5
301
330
1F
100
AcDbEntity
  8
0
  6
Continuous
 62
     7
370
    15
100
AcDbLine
 10
300.1955483231
 20
605.4577764691
 30
0.0
 11
300.1955483231
 21
601.9577768267
 31
0.0
  0
LINE
  5
302
330
1F
100
AcDbEntity
  8
0
  6
Continuous
 62
     7
370
    15
100
AcDbLine
 10
298.9955578122
 20
601.9577768267
 30
0.0
 11
298.9955578122
 21
606.3715752782
 31
0.0
  0
LINE
  5
303
330
1F
100
AcDbEntity
  8
0
  6
Continuous
 62
     7
370
    15
100
AcDbLine
 10
298.8955710206
 20
604.4577744425
 30
0.0
 11
298.8955710206
 21
610.4577866019
 31
0.0
  0
LINE
  5
304
330
1F
100
AcDbEntity
  8
0
  6
Continuous
 62
     7
370
    15
100
AcDbLine
 10
292.1475801739
 20
614.6601822795
 30
0.0
 11
292.8780947003
 21
613.7081619919
 31
0.0
  0
LWPOLYLINE
  5
305
330
1F
100
AcDbEntity
  8
0
  6
Continuous
 62
     7
370
    15
100
AcDbPolyline
 90
        9
 70
   128
 43
0.0
 10
292.8780947003
 20
613.7081619919
 10
292.6923666272
 20
613.5656472863
 10
292.5137613091
 20
613.428616208
 10
292.3491928849
 20
613.3023139657
 10
292.2049198422
 20
613.1916132392
 10
292.0865152154
 20
613.1007608594
 10
291.9985387597
 20
613.0332585992
 10
291.9443581376
 20
612.9916843594
 10
291.9260595116
 20
612.9776474656
  0
LINE
  5
306
330
1F
100
AcDbEntity
  8
0
  6
Continuous
 62
     7
370
    15
100
AcDbLine
 10
291.9260595116
 20
612.9776474656
 30
0.0
 11
291.1955747876
 21
613.9296677531
 31
0.0
  0
LWPOLYLINE
  5
307
330
1F
100
AcDbEntity
  8
0
  6
Continuous
 62
     7
370
    15
100
AcDbPolyline
 90
        9
 70
   128
 43
0.0
 10
291.1955747876
 20
613.9296677531
 10
291.2138436112
 20
613.9437046469
 10
291.2680242333
 20
613.9852788867
 10
291.356000689
 20
614.052796048
 10
291.4744053158
 20
614.1436335267
 10
291.6186783585
 20
614.2543342532
 10
291.7832467827
 20
614.3806364955
 10
291.9618521008
 20
614.5176675738
 10
292.1475801739
 20
614.6601822795
  0
LINE
  5
308
330
1F
100
AcDbEntity
  8
0
  6
Continuous
 62
     7
370
    15
100
AcDbLine
 10
292.8780947003
 20
613.7081619919
 30
0.0
 11
296.4215312275
 21
616.4271470727
 31
0.0
  0
LINE
  5
309
330
1F
100
AcDbEntity
  8
0
  6
Continuous
 62
     7
370
    15
100
AcDbLine
 10
295.6910167012
 20
617.3791673602
 30
0.0
 11
292.1475801739
 21
614.6601822795
 31
0.0
  0
ARC
  5
30A
330
1F
100
AcDbEntity
  8
0
  6
Continuous
 62
     7
370
    15
100
AcDbCircle
 10
297.395560244
 20
615.1577796162
 30
0.0
 40
2.800000000000011
100
AcDbArc
 50
0.0
 51
45.7322600129
  0
LINE
  5
30B
330
1F
100
AcDbEntity
  8
0
  6
Continuous
 62
     7
370
    15
100
AcDbLine
 10
296.287897614
 20
617.7293744506
 30
0.0
 11
295.6910167012
 21
617.3791673602
 31
0.0
  0
LINE
  5
30C
330
1F
100
AcDbEntity
  8
0
  6
Continuous
 62
     7
370
    15
100
AcDbLine
 10
300.1955483231
 20
613.4577777804
 30
0.0
 11
300.1955483231
 21
614.457779807
 31
0.0
  0
LINE
  5
30D
330
1F
100
AcDbEntity
  8
0
  6
Continuous
 62
     7
370
    15
100
AcDbLine
 10
298.9955578122
 20
614.0987214268
 30
0.0
 11
298.9955578122
 21
613.4577777804
 31
0.0
  0
ARC
  5
30E
330
1F
100
AcDbEntity
  8
0
  6
Continuous
 62
     7
370
    15
100
AcDbCircle
 10
295.295560244
 20
630.4777796162
 30
0.0
 40
2.200000000000036
100
AcDbArc
 50
103.5934783352
 51
268.1042765976
  0
LINE
  5
30F
330
1F
100
AcDbEntity
  8
0
  6
Continuous
 62
     7
370
    15
100
AcDbLine
 10
291.7487356934
 20
631.8555411519
 30
0.0
 11
292.0823726925
 21
633.7477800072
 31
0.0
  0
LWPOLYLINE
  5
310
330
1F
100
AcDbEntity
  8
0
  6
Continuous
 62
     7
370
    15
100
AcDbPolyline
 90
        9
 70
   128
 43
0.0
 10
292.0823726925
 20
633.7477800072
 10
291.9381294522
 20
633.7732162894
 10
291.8010983738
 20
633.7973710717
 10
291.6759882245
 20
633.8194396914
 10
291.5671501431
 20
633.838632387
 10
291.4783094201
 20
633.8542935074
 10
291.4125952992
 20
633.8658866109
 10
291.3722131524
 20
633.8729944647
 10
291.358593491
 20
633.8754084529
  0
LINE
  5
311
330
1F
100
AcDbEntity
  8
0
  6
Continuous
 62
     7
370
    15
100
AcDbLine
 10
291.358593491
 20
633.8754084529
 30
0.0
 11
295.7336340222
 21
658.6875107707
 31
0.0
  0
LWPOLYLINE
  5
312
330
1F
100
AcDbEntity
  8
0
  6
Continuous
 62
     7
370
    15
100
AcDbPolyline
 90
        9
 70
   128
 43
0.0
 10
295.7336340222
 20
658.6875107707
 10
295.748773602
 20
658.6848434628
 10
295.7936260972
 20
658.6769309462
 10
295.8664331708
 20
658.6641010464
 10
295.9643934044
 20
658.6468306006
 10
296.0837815079
 20
658.6257752598
 10
296.2200079236
 20
658.601754588
 10
296.3677976403
 20
658.5756924571
 10
296.5214882168
 20
658.5485872449
  0
LINE
  5
313
330
1F
100
AcDbEntity
  8
0
  6
Continuous
 62
     7
370
    15
100
AcDbLine
 10
296.5214882168
 20
658.5485872449
 30
0.0
 11
291.6961643967
 21
631.1827835263
 31
0.0
  0
LINE
  5
314
330
1F
100
AcDbEntity
  8
0
  6
Continuous
 62
     7
370
    15
100
AcDbLine
 10
291.6961643967
 20
631.1827835263
 30
0.0
 11
291.7487356934
 21
631.8555411519
 31
0.0
  0
LWPOLYLINE
  5
315
330
1F
100
AcDbEntity
  8
0
  6
Continuous
 62
     7
370
    15
100
AcDbPolyline
 90
        5
 70
   128
 43
0.0
 10
294.5809397969
 20
665.5758407534
 10
294.327471045
 20
666.2722465218
 10
294.1439185414
 20
666.7765614213
 10
294.0327856812
 20
667.0819160165
 10
293.9955625805
 20
667.1841677846
  0
LWPOLYLINE
  5
316
330
1F
100
AcDbEntity
  8
0
  6
Continuous
 62
     7
370
    15
100
AcDbPolyline
 90
        5
 70
   128
 43
0.0
 10
295.3405711922
 20
665.8278193892
 10
295.0837347779
 20
666.5334936799
 10
294.8977086815
 20
667.04461841
 10
294.7850261006
 20
667.3541304291
 10
294.7473261628
 20
667.4577829064
  0
LINE
  5
317
330
1F
100
AcDbEntity
  8
0
  6
Continuous
 62
     7
370
    15
100
AcDbLine
 10
295.5626580987
 20
665.4733803691
 30
0.0
 11
295.3405711922
 21
665.8278193892
 31
0.0
  0
LINE
  5
318
330
1F
100
AcDbEntity
  8
0
  6
Continuous
 62
     7
370
    15
100
AcDbLine
 10
295.4804632935
 20
665.4434588374
 30
0.0
 11
295.5626580987
 21
665.4733803691
 31
0.0
  0
SPLINE
  5
319
330
1F
100
AcDbEntity
  8
0
  6
Continuous
 62
     7
370
    15
100
AcDbSpline
210
0.0
220
0.0
230
1.0
 70
     8
 71
     3
 72
    12
 73
     8
 74
     0
 42
0.00000001
 43
0.00000001
 40
0.0
 40
0.0
 40
0.0
 40
0.0
 40
0.2510214851684107
 40
0.5023964020404518
 40
0.7402739474278963
 40
0.9473065576477647
 40
0.9999999999999999
 40
0.9999999999999999
 40
0.9999999999999999
 40
0.9999999999999999
 10
294.5809397968828
 20
665.5758407534289
 30
0.0
 10
294.6086566515207
 20
665.5315227693048
 30
0.0
 10
294.6641293854053
 20
665.4428244024914
 30
0.0
 10
294.871096588841
 20
665.367835346334
 30
0.0
 10
295.1324953829441
 20
665.3563283241775
 30
0.0
 10
295.3490748181759
 20
665.3979769061935
 30
0.0
 10
295.4583029892938
 20
665.4357877427228
 30
0.0
 10
295.4804632935106
 20
665.4434588373828
 30
0.0
  0
LINE
  5
31A
330
1F
100
AcDbEntity
  8
0
  6
Continuous
 62
     7
370
    15
100
AcDbLine
 10
295.4804632935
 20
665.4434588374
 30
0.0
 11
296.0568104062
 21
663.859972042
 31
0.0
  0
LWPOLYLINE
  5
31B
330
1F
100
AcDbEntity
  8
0
  6
Continuous
 62
     7
370
    15
100
AcDbPolyline
 90
        9
 70
   128
 43
0.0
 10
295.3050468239
 20
663.5863569201
 10
295.3195009503
 20
663.59161703
 10
295.3622672829
 20
663.6071887435
 10
295.4317364964
 20
663.632476014
 10
295.5252263817
 20
663.666495365
 10
295.6391606602
 20
663.7079652966
 10
295.7691285882
 20
663.7552764834
 10
295.9101531777
 20
663.8065960826
 10
296.0568104062
 20
663.859972042
  0
LINE
  5
31C
330
1F
100
AcDbEntity
  8
0
  6
Continuous
 62
     7
370
    15
100
AcDbLine
 10
295.3050468239
 20
663.5863569201
 30
0.0
 11
294.5809397969
 21
665.5758407534
 31
0.0
  0
ARC
  5
31D
330
1F
100
AcDbEntity
  8
0
  6
Continuous
 62
     7
370
    15
100
AcDbCircle
 10
295.8855657502
 20
636.6467705347
 30
0.0
 40
1.600000000000028
100
AcDbArc
 50
347.034367059
 51
204.5705045338
  0
ARC
  5
31E
330
1F
100
AcDbEntity
  8
0
  6
Continuous
 62
     7
370
    15
100
AcDbCircle
 10
289.195560244
 20
659.2734656622
 30
0.0
 40
9.5
100
AcDbArc
 50
0.0
 51
36.8410865502
  0
LINE
  5
31F
330
1F
100
AcDbEntity
  8
0
  6
Continuous
 62
     7
370
    15
100
AcDbLine
 10
298.695567635
 20
659.2734691323
 30
0.0
 11
298.695567635
 21
631.2477823914
 31
0.0
  0
ARC
  5
320
330
1F
100
AcDbEntity
  8
0
  6
Continuous
 62
     7
370
    15
100
AcDbCircle
 10
286.3779732035
 20
660.3371700845
 30
0.0
 40
10.3000000000002
100
AcDbArc
 50
350.0
 51
20.0
  0
ARC
  5
321
330
1F
100
AcDbEntity
  8
0
  6
Continuous
 62
     7
370
    15
100
AcDbCircle
 10
296.2802621698
 20
666.1698444706
 30
0.0
 40
1.0
100
AcDbArc
 50
224.1440002858
 51
270.0
  0
LINE
  5
322
330
1F
100
AcDbEntity
  8
0
  6
Continuous
 62
     7
370
    15
100
AcDbLine
 10
296.2802682194
 20
665.1698437155
 30
0.0
 11
296.3982854161
 21
665.1698437155
 31
0.0
  0
ARC
  5
323
330
1F
100
AcDbEntity
  8
0
  6
Continuous
 62
     7
370
    15
100
AcDbCircle
 10
296.3982747154
 20
664.6698444706
 30
0.0
 40
0.4999999999999449
100
AcDbArc
 50
36.8410865503
 51
90.0
  0
LWPOLYLINE
  5
324
330
1F
100
AcDbEntity
  8
0
  6
Continuous
 62
     7
370
    15
100
AcDbPolyline
 90
        3
 70
   128
 43
0.0
 10
298.695567635
 20
631.2477823914
 10
298.4869513783
 20
630.0574925364
 10
298.1307838234
 20
629.3413427294
  0
ARC
  5
325
330
1F
100
AcDbEntity
  8
0
  6
Continuous
 62
     7
370
    15
100
AcDbCircle
 10
295.195560244
 20
631.2477796162
 30
0.0
 40
3.50000000000001
100
AcDbArc
 50
181.0639402281
 51
271.3221928089
  0
ARC
  5
326
330
1F
100
AcDbEntity
  8
0
  6
Continuous
 62
     7
370
    15
100
AcDbCircle
 10
286.3779732035
 20
660.3371700845
 30
0.0
 40
9.500000000000059
100
AcDbArc
 50
350.0
 51
20.0
  0
ARC
  5
327
330
1F
100
AcDbEntity
  8
0
  6
Continuous
 62
     7
370
    15
100
AcDbCircle
 10
295.7891780374
 20
631.945275143
 30
0.0
 40
4.698428302688314
100
AcDbArc
 50
170.0
 51
264.3261771657
  0
LINE
  5
328
330
1F
100
AcDbEntity
  8
0
  6
Continuous
 62
     7
370
    15
100
AcDbLine
 10
291.358593491
 20
633.8754084529
 30
0.0
 11
291.1621365819
 21
632.7611443223
 31
0.0
  0
SPLINE
  5
329
330
1F
100
AcDbEntity
  8
0
  6
Continuous
 62
     7
370
    15
100
AcDbSpline
210
0.0
220
0.0
230
1.0
 70
     8
 71
     3
 72
    12
 73
     8
 74
     0
 42
0.00000001
 43
0.00000001
 40
0.0
 40
0.0
 40
0.0
 40
0.0
 40
0.2340574344133508
 40
0.468109300806247
 40
0.7021660852523228
 40
0.9362176827917005
 40
1.0
 40
1.0
 40
1.0
 40
1.0
 10
296.4925501617967
 20
632.1348932207751
 30
0.0
 10
296.2961514516837
 20
632.1155145061648
 30
0.0
 10
295.9033587036104
 20
632.0767575379471
 30
0.0
 10
295.3658692454216
 20
632.0715006133606
 30
0.0
 10
294.9923615647082
 20
632.1099826738059
 30
0.0
 10
294.8131906183702
 20
632.1646448897505
 30
0.0
 10
294.8418835127004
 20
632.2085989591623
 30
0.0
 10
294.8480282101213
 20
632.2180118979144
 30
0.0
  0
SPLINE
  5
32A
330
1F
100
AcDbEntity
  8
0
  6
Continuous
 62
     7
370
    15
100
AcDbSpline
210
0.0
220
0.0
230
1.0
 70
     8
 71
     3
 72
    11
 73
     7
 74
     0
 42
0.00000001
 43
0.00000001
 40
0.0
 40
0.0
 40
0.0
 40
0.0
 40
0.1986876275195042
 40
0.4657886907766797
 40
0.7329025834759025
 40
1.0
 40
1.0
 40
1.0
 40
1.0
 10
297.7884445461809
 20
632.5137850464511
 30
0.0
 10
297.7872599218964
 20
632.4892917033546
 30
0.0
 10
297.7844827756724
 20
632.4318713075503
 30
0.0
 10
297.5149858420465
 20
632.3247914338044
 30
0.0
 10
297.0679062000788
 20
632.2139772025034
 30
0.0
 10
296.6843315644805
 20
632.1612540059872
 30
0.0
 10
296.4925501617967
 20
632.1348932207751
 30
0.0
  0
SPLINE
  5
32B
330
1F
100
AcDbEntity
  8
0
  6
Continuous
 62
     7
370
    15
100
AcDbSpline
210
0.0
220
0.0
230
1.0
 70
     8
 71
     3
 72
    12
 73
     8
 74
     0
 42
0.00000001
 43
0.00000001
 40
0.0
 40
0.0
 40
0.0
 40
0.0
 40
0.2339637986787812
 40
0.4679314099192302
 40
0.7018957118169417
 40
0.9358618348788783
 40
1.0
 40
1.0
 40
1.0
 40
1.0
 10
295.8855662617265
 20
638.1467667044329
 30
0.0
 10
295.6894872589467
 20
638.1242625101531
 30
0.0
 10
295.2973260581778
 20
638.079253754876
 30
0.0
 10
294.7943735131867
 20
637.7317760690636
 30
0.0
 10
294.4745995517563
 20
637.2382672926533
 30
0.0
 10
294.3466230643504
 20
636.7846853132613
 30
0.0
 10
294.4044387648865
 20
636.541695046428
 30
0.0
 10
294.4168780121385
 20
636.4894148529696
 30
0.0
  0
SPLINE
  5
32C
330
1F
100
AcDbEntity
  8
0
  6
Continuous
 62
     7
370
    15
100
AcDbSpline
210
0.0
220
0.0
230
1.0
 70
     8
 71
     3
 72
    11
 73
     7
 74
     0
 42
0.00000001
 43
0.00000001
 40
0.0
 40
0.0
 40
0.0
 40
0.0
 40
0.1976861585316498
 40
0.4651230364919047
 40
0.7325636972527094
 40
0.9999999999999999
 40
0.9999999999999999
 40
0.9999999999999999
 40
0.9999999999999999
 10
297.3557744297563
 20
636.7964830816912
 30
0.0
 10
297.3374928381616
 20
636.94123074589
 30
0.0
 10
297.2944792581641
 20
637.2817982069472
 30
0.0
 10
296.9690433240234
 20
637.7315885867272
 30
0.0
 10
296.475735361533
 20
638.0793006248452
 30
0.0
 10
296.0822882264331
 20
638.1242781333914
 30
0.0
 10
295.8855662617265
 20
638.1467667044329
 30
0.0
  0
SPLINE
  5
32D
330
1F
100
AcDbEntity
  8
0
  6
Continuous
 62
     7
370
    15
100
AcDbSpline
210
0.0
220
0.0
230
1.0
 70
     8
 71
     3
 72
    12
 73
     8
 74
     0
 42
0.00000001
 43
0.00000001
 40
0.0
 40
0.0
 40
0.0
 40
0.0
 40
0.2350075899205386
 40
0.4700315036605494
 40
0.7050497480180404
 40
0.9400627841620258
 40
1.0
 40
1.0
 40
1.0
 40
1.0
 10
298.0616126331865
 20
616.5939208687472
 30
0.0
 10
297.8652327439888
 20
616.5745429379974
 30
0.0
 10
297.4724593248856
 20
616.535785730491
 30
0.0
 10
296.9348434407601
 20
616.5305192649566
 30
0.0
 10
296.5617702405988
 20
616.5690438482736
 30
0.0
 10
296.3827465640048
 20
616.6231660281451
 30
0.0
 10
296.4106462836214
 20
616.6664670516464
 30
0.0
 10
296.416315821129
 20
616.6752663077044
 30
0.0
  0
SPLINE
  5
32E
330
1F
100
AcDbEntity
  8
0
  6
Continuous
 62
     7
370
    15
100
AcDbSpline
210
0.0
220
0.0
230
1.0
 70
     8
 71
     3
 72
    11
 73
     7
 74
     0
 42
0.00000001
 43
0.00000001
 40
0.0
 40
0.0
 40
0.0
 40
0.0
 40
0.1989175930605848
 40
0.4659445880293572
 40
0.7329679671294883
 40
0.9999999999999999
 40
0.9999999999999999
 40
0.9999999999999999
 40
0.9999999999999999
 10
299.3575666222154
 20
616.9729170025515
 30
0.0
 10
299.3563983180873
 20
616.9483904856628
 30
0.0
 10
299.3536616823916
 20
616.890939570278
 30
0.0
 10
299.0840502543397
 20
616.7838241287287
 30
0.0
 10
298.6369871243597
 20
616.6729989458152
 30
0.0
 10
298.2534062020775
 20
616.6202805125176
 30
0.0
 10
298.0616126331865
 20
616.5939208687472
 30
0.0
  0
ARC
  5
32F
330
1F
100
AcDbEntity
  8
0
  6
Continuous
 62
     7
370
    15
100
AcDbCircle
 10
299.262847941
 20
626.8955465782
 30
0.0
 40
0.4000150162574163
100
AcDbArc
 50
0.1485539448
 51
179.5014058744
  0
ELLIPSE
  5
330
330
1F
100
AcDbEntity
  8
0
  6
Continuous
 62
     7
370
    15
100
AcDbEllipse
 10
299.2628596444
 20
626.6306712225
 30
0.0
 11
0.3991830274374024
 21
-0.02624604221136906
 31
0.0
210
0.0
220
0.0
230
1.0
 40
0.9763157485
 41
0.0
 42
6.283185307179586
  0
SPLINE
  5
331
330
1F
100
AcDbEntity
  8
0
  6
Continuous
 62
     7
370
    15
100
AcDbSpline
210
0.0
220
0.0
230
1.0
 70
     8
 71
     3
 72
    13
 73
     9
 74
     0
 42
0.00000001
 43
0.00000001
 40
0.0
 40
0.0
 40
0.0
 40
0.0
 40
0.00816763653622
 40
0.2391349469947311
 40
0.4711085710044478
 40
0.693123263728895
 40
0.9042359212972795
 40
1.0
 40
1.0
 40
1.0
 40
1.0
 10
299.2628548416673
 20
627.3595031918215
 30
0.0
 10
299.2611959286359
 20
627.3591109266582
 30
0.0
 10
299.2126256870403
 20
627.347626048673
 30
0.0
 10
299.1165196531997
 20
627.3243310612431
 30
0.0
 10
298.9936721397016
 20
627.2807207693583
 30
0.0
 10
298.9080325155969
 20
627.2432702220693
 30
0.0
 10
298.8640265789991
 20
627.2221085231882
 30
0.0
 10
298.8672396261391
 20
627.2171386710759
 30
0.0
 10
298.8682422909318
 20
627.2155877770114
 30
0.0
  0
SPLINE
  5
332
330
1F
100
AcDbEntity
  8
0
  6
Continuous
 62
     7
370
    15
100
AcDbSpline
210
0.0
220
0.0
230
1.0
 70
     8
 71
     3
 72
    13
 73
     9
 74
     0
 42
0.00000001
 43
0.00000001
 40
0.0
 40
0.0
 40
0.0
 40
0.0
 40
0.1252292631325221
 40
0.2499830421447354
 40
0.4999541678562939
 40
0.750001047023922
 40
0.8747344678672233
 40
1.0
 40
1.0
 40
1.0
 40
1.0
 10
299.662861612755
 20
627.3538109482455
 30
0.0
 10
299.6611550270848
 20
627.3538329467975
 30
0.0
 10
299.6577483354949
 20
627.3538768603751
 30
0.0
 10
299.6233343770596
 20
627.3543887695527
 30
0.0
 10
299.5480954565889
 20
627.3554380556513
 30
0.0
 10
299.4394262090997
 20
627.3569950137479
 30
0.0
 10
299.3407134808081
 20
627.3583914018888
 30
0.0
 10
299.2888445216134
 20
627.3591320696848
 30
0.0
 10
299.2628548416673
 20
627.3595031918215
 30
0.0
  0
SPLINE
  5
333
330
1F
100
AcDbEntity
  8
0
  6
Continuous
 62
     7
370
    15
100
AcDbSpline
210
0.0
220
0.0
230
1.0
 70
     8
 71
     3
 72
    10
 73
     6
 74
     0
 42
0.00000001
 43
0.00000001
 40
0.0
 40
0.0
 40
0.0
 40
0.0
 40
0.0190719798200456
 40
0.5253377121296875
 40
1.0
 40
1.0
 40
1.0
 40
1.0
 10
299.2628548416673
 20
627.3595031918215
 30
0.0
 10
299.2643841532398
 20
627.3602433759311
 30
0.0
 10
299.3065090427486
 20
627.3806317483164
 30
0.0
 10
299.3890392889003
 20
627.419038379242
 30
0.0
 10
299.4591914055161
 20
627.4451440496688
 30
0.0
 10
299.493137386757
 20
627.457776349895
 30
0.0
  0
LINE
  5
334
330
1F
100
AcDbEntity
  8
0
  6
Continuous
 62
     7
370
    15
100
AcDbLine
 10
294.386360434
 20
636.5976270856
 30
0.0
 11
294.3987880024
 21
636.4479747237
 31
0.0
  0
LINE
  5
335
330
1F
100
AcDbEntity
  8
0
  6
Continuous
 62
     7
370
    15
100
AcDbLine
 10
297.3785732064
 20
636.7914762915
 30
0.0
 11
297.3429892335
 21
637.001642269
 31
0.0
  0
LINE
  5
336
330
1F
100
AcDbEntity
  8
0
  6
Continuous
 62
     7
370
    15
100
AcDbLine
 10
885.1955566678
 20
840.4577795983
 30
0.0
 11
315.1955638203
 21
840.4577795983
 31
0.0
  0
LINE
  5
337
330
1F
100
AcDbEntity
  8
0
  6
Continuous
 62
     7
370
    15
100
AcDbLine
 10
885.1955566678
 20
825.4577799336
 30
0.0
 11
885.1955566678
 21
840.4577795983
 31
0.0
  0
LINE
  5
338
330
1F
100
AcDbEntity
  8
0
  6
Continuous
 62
     7
370
    15
100
AcDbLine
 10
885.1955566678
 20
825.4577799336
 30
0.0
 11
315.1955638203
 21
825.4577799336
 31
0.0
  0
LINE
  5
339
330
1F
100
AcDbEntity
  8
0
  6
Continuous
 62
     7
370
    15
100
AcDbLine
 10
315.1955638203
 20
825.4577799336
 30
0.0
 11
315.1955638203
 21
840.4577795983
 31
0.0
  0
LINE
  5
33A
330
1F
100
AcDbEntity
  8
0
  6
Continuous
 62
     7
370
    15
100
AcDbLine
 10
315.1955638203
 20
614.457779807
 30
0.0
 11
315.1955638203
 21
825.4577799336
 31
0.0
  0
LINE
  5
33B
330
1F
100
AcDbEntity
  8
0
  6
Continuous
 62
     7
370
    15
100
AcDbLine
 10
315.1955638203
 20
614.457779807
 30
0.0
 11
300.1955483231
 21
614.457779807
 31
0.0
  0
LINE
  5
33C
330
1F
100
AcDbEntity
  8
0
  6
Continuous
 62
     7
370
    15
100
AcDbLine
 10
300.1955483231
 20
614.457779807
 30
0.0
 11
300.1955483231
 21
825.4577799336
 31
0.0
  0
LINE
  5
33D
330
1F
100
AcDbEntity
  8
0
  6
Continuous
 62
     7
370
    15
100
AcDbLine
 10
315.1955638203
 20
825.4577799336
 30
0.0
 11
300.1955483231
 21
825.4577799336
 31
0.0
  0
LINE
  5
33E
330
1F
100
AcDbEntity
  8
0
  6
Continuous
 62
     7
370
    15
100
AcDbLine
 10
320.1955590519
 20
634.4577756346
 30
0.0
 11
320.1955590519
 21
820.4577800454
 31
0.0
  0
LINE
  5
33F
330
1F
100
AcDbEntity
  8
0
  6
Continuous
 62
     7
370
    15
100
AcDbLine
 10
320.1955590519
 20
634.4577756346
 30
0.0
 11
880.1955614361
 21
634.4577756346
 31
0.0
  0
LINE
  5
340
330
1F
100
AcDbEntity
  8
0
  6
Continuous
 62
     7
370
    15
100
AcDbLine
 10
880.1955614361
 20
820.4577800454
 30
0.0
 11
880.1955614361
 21
634.4577756346
 31
0.0
  0
LINE
  5
341
330
1F
100
AcDbEntity
  8
0
  6
Continuous
 62
     7
370
    15
100
AcDbLine
 10
880.1955614361
 20
820.4577800454
 30
0.0
 11
320.1955590519
 21
820.4577800454
 31
0.0
  0
LINE
  5
342
330
1F
100
AcDbEntity
  8
0
  6
Continuous
 62
     7
370
    15
100
AcDbLine
 10
315.1955638203
 20
614.457779807
 30
0.0
 11
885.1955566678
 21
614.457779807
 31
0.0
  0
LINE
  5
343
330
1F
100
AcDbEntity
  8
0
  6
Continuous
 62
     7
370
    15
100
AcDbLine
 10
885.1955566678
 20
825.4577799336
 30
0.0
 11
885.1955566678
 21
614.457779807
 31
0.0
  0
LINE
  5
344
330
1F
100
AcDbEntity
  8
0
  6
Continuous
 62
     7
370
    15
100
AcDbLine
 10
885.1955566678
 20
825.4577799336
 30
0.0
 11
900.195572165
 21
825.4577799336
 31
0.0
  0
ARC
  5
345
330
1F
100
AcDbEntity
  8
0
  6
Continuous
 62
     7
370
    15
100
AcDbCircle
 10
885.195560244
 20
825.4577796162
 30
0.0
 40
15.0
100
AcDbArc
 50
0.0
 51
90.0
  0
ARC
  5
346
330
1F
100
AcDbEntity
  8
0
  6
Continuous
 62
     7
370
    15
100
AcDbCircle
 10
315.195560244
 20
825.4577796162
 30
0.0
 40
15.0
100
AcDbArc
 50
90.0
 51
180.0
  0
LINE
  5
347
330
1F
100
AcDbEntity
  8
0
  6
Continuous
 62
     7
370
    15
100
AcDbLine
 10
900.195572165
 20
825.4577799336
 30
0.0
 11
900.195572165
 21
614.457779807
 31
0.0
  0
LINE
  5
348
330
1F
100
AcDbEntity
  8
0
  6
Continuous
 62
     7
370
    15
100
AcDbLine
 10
900.195572165
 20
614.457779807
 30
0.0
 11
885.1955566678
 21
614.457779807
 31
0.0
  0
LINE
  5
349
330
1F
100
AcDbEntity
  8
0
  6
Continuous
 62
     7
370
    15
100
AcDbLine
 10
320.1955590519
 20
610.4577866019
 30
0.0
 11
320.1955590519
 21
614.457779807
 31
0.0
  0
LINE
  5
34A
330
1F
100
AcDbEntity
  8
0
  6
Continuous
 62
     7
370
    15
100
AcDbLine
 10
305.1955733571
 20
610.4577866019
 30
0.0
 11
305.1955733571
 21
614.457779807
 31
0.0
  0
LINE
  5
34B
330
1F
100
AcDbEntity
  8
0
  6
Continuous
 62
     7
370
    15
100
AcDbLine
 10
880.1955614361
 20
610.4577866019
 30
0.0
 11
880.1955614361
 21
614.457779807
 31
0.0
  0
LINE
  5
34C
330
1F
100
AcDbEntity
  8
0
  6
Continuous
 62
     7
370
    15
100
AcDbLine
 10
895.195547131
 20
610.4577866019
 30
0.0
 11
895.195547131
 21
614.457779807
 31
0.0
  0
ARC
  5
34D
330
1F
100
AcDbEntity
  8
0
  6
Continuous
 62
     7
370
    15
100
AcDbCircle
 10
900.6334113787
 20
609.9577796162
 30
0.0
 40
0.500000000000081
100
AcDbArc
 50
22.024312837
 51
90.0
  0
LINE
  5
34E
330
1F
100
AcDbEntity
  8
0
  6
Continuous
 62
     7
370
    15
100
AcDbLine
 10
900.195572165
 20
614.457779807
 30
0.0
 11
900.8628759656
 21
614.457779807
 31
0.0
  0
ARC
  5
34F
330
1F
100
AcDbEntity
  8
0
  6
Continuous
 62
     7
370
    15
100
AcDbCircle
 10
906.195560244
 20
612.2077796162
 30
0.0
 40
5.500000000000115
100
AcDbArc
 50
202.024312837
 51
152.720387264
  0
ARC
  5
350
330
1F
100
AcDbEntity
  8
0
  6
Continuous
 62
     7
370
    15
100
AcDbCircle
 10
900.8628779921
 20
614.9577796162
 30
0.0
 40
0.5
100
AcDbArc
 50
270.0
 51
332.720387264
  0
LINE
  5
351
330
1F
100
AcDbEntity
  8
0
  6
Continuous
 62
     7
370
    15
100
AcDbLine
 10
900.6333980832
 20
610.4577866019
 30
0.0
 11
900.195572165
 21
610.4577866019
 31
0.0
  0
LINE
  5
352
330
1F
100
AcDbEntity
  8
0
  6
Continuous
 62
     7
370
    15
100
AcDbLine
 10
299.895558146
 20
633.6577769936
 30
0.0
 11
300.1955483231
 21
633.6588349761
 31
0.0
  0
LINE
  5
353
330
1F
100
AcDbEntity
  8
0
  6
Continuous
 62
     7
370
    15
100
AcDbLine
 10
300.1955483231
 20
635.6577810467
 30
0.0
 11
299.895558146
 21
635.6577810467
 31
0.0
  0
LINE
  5
354
330
1F
100
AcDbEntity
  8
0
  6
Continuous
 62
     7
370
    15
100
AcDbLine
 10
299.895558146
 20
633.6577769936
 30
0.0
 11
299.895558146
 21
635.6577810467
 31
0.0
  0
LINE
  5
355
330
1F
100
AcDbEntity
  8
0
  6
Continuous
 62
     7
370
    15
100
AcDbLine
 10
299.895558146
 20
627.4577763499
 30
0.0
 11
299.895558146
 21
633.6577769936
 31
0.0
  0
LINE
  5
356
330
1F
100
AcDbEntity
  8
0
  6
Continuous
 62
     7
370
    15
100
AcDbLine
 10
300.1955483231
 20
627.4577763499
 30
0.0
 11
299.895558146
 21
627.4577763499
 31
0.0
  0
ARC
  5
357
330
1F
100
AcDbEntity
  8
0
  6
Continuous
 62
     7
370
    15
100
AcDbCircle
 10
294.995560244
 20
630.5577796162
 30
0.0
 40
3.100000000000136
100
AcDbArc
 50
192.314899639
 51
270.0
  0
LINE
  5
358
330
1F
100
AcDbEntity
  8
0
  6
Continuous
 62
     7
370
    15
100
AcDbLine
 10
294.9955497059
 20
627.4577763499
 30
0.0
 11
295.305702475
 21
627.4577763499
 31
0.0
  0
LINE
  5
359
330
1F
100
AcDbEntity
  8
0
  6
Continuous
 62
     7
370
    15
100
AcDbLine
 10
298.3209524426
 20
627.4577763499
 30
0.0
 11
299.895558146
 21
627.4577763499
 31
0.0
  0
LINE
  5
35A
330
1F
100
AcDbEntity
  8
0
  6
Continuous
 62
     7
370
    15
100
AcDbLine
 10
299.895558146
 20
633.6577769936
 30
0.0
 11
298.695567635
 21
633.6577769936
 31
0.0
  0
LINE
  5
35B
330
1F
100
AcDbEntity
  8
0
  6
Continuous
 62
     7
370
    15
100
AcDbLine
 10
299.895558146
 20
666.4577808798
 30
0.0
 11
299.895558146
 21
659.7077783765
 31
0.0
  0
LINE
  5
35C
330
1F
100
AcDbEntity
  8
0
  6
Continuous
 62
     7
370
    15
100
AcDbLine
 10
299.895558146
 20
635.6577810467
 30
0.0
 11
299.895558146
 21
659.7077783765
 31
0.0
  0
LINE
  5
35D
330
1F
100
AcDbEntity
  8
0
  6
Continuous
 62
     7
370
    15
100
AcDbLine
 10
299.7955713543
 20
659.4577815951
 30
0.0
 11
299.7955713543
 21
665.4577788533
 31
0.0
  0
LINE
  5
35E
330
1F
100
AcDbEntity
  8
0
  6
Continuous
 62
     7
370
    15
100
AcDbLine
 10
299.7955713543
 20
636.4577796878
 30
0.0
 11
299.7955713543
 21
642.4577769459
 31
0.0
  0
LINE
  5
35F
330
1F
100
AcDbEntity
  8
0
  6
Continuous
 62
     7
370
    15
100
AcDbLine
 10
299.895558146
 20
650.4577782572
 30
0.0
 11
298.695567635
 21
650.7793155135
 31
0.0
  0
LINE
  5
360
330
1F
100
AcDbEntity
  8
0
  6
Continuous
 62
     7
370
    15
100
AcDbLine
 10
298.695567635
 20
651.8145885886
 30
0.0
 11
299.895558146
 21
651.4930513323
 31
0.0
  0
LINE
  5
361
330
1F
100
AcDbEntity
  8
0
  6
Continuous
 62
     8
370
    15
100
AcDbLine
 10
300.1955483231
 20
659.7077783765
 30
0.0
 11
299.895558146
 21
659.7077783765
 31
0.0
  0
ENDSEC
  0
SECTION
  2
OBJECTS
  0
DICTIONARY
  5
C
330
0
100
AcDbDictionary
281
     1
  3
ACAD_GROUP
350
D
  3
ACAD_LAYOUT
350
1A
  3
ACAD_MLINESTYLE
350
17
  3
ACAD_PLOTSETTINGS
350
19
  3
ACAD_PLOTSTYLENAME
350
E
  0
DICTIONARY
  5
D
102
{ACAD_REACTORS
330
C
102
}
330
C
100
AcDbDictionary
281
     1
  0
DICTIONARY
  5
1A
102
{ACAD_REACTORS
330
C
102
}
330
C
100
AcDbDictionary
281
     1
  3
Layout1
350
1E
  3
Layout2
350
26
  3
Model
350
22
  0
DICTIONARY
  5
17
102
{ACAD_REACTORS
330
C
102
}
330
C
100
AcDbDictionary
281
     1
  3
Standard
350
18
  0
DICTIONARY
  5
19
102
{ACAD_REACTORS
330
C
102
}
330
C
100
AcDbDictionary
281
     1
  0
ACDBDICTIONARYWDFLT
  5
E
102
{ACAD_REACTORS
330
C
102
}
330
C
100
AcDbDictionary
281
     1
  3
Normal
350
F
100
AcDbDictionaryWithDefault
340
F
  0
LAYOUT
  5
1E
102
{ACAD_REACTORS
330
1A
102
}
330
1A
100
AcDbPlotSettings
  1

  2
none_device
  4

  6

 40
0.0
 41
0.0
 42
0.0
 43
0.0
 44
0.0
 45
0.0
 46
0.0
 47
0.0
 48
0.0
 49
0.0
140
0.0
141
0.0
142
1.0
143
1.0
 70
   688
 72
     0
 73
     0
 74
     5
  7

 75
    16
147
1.0
148
0.0
149
0.0
100
AcDbLayout
  1
Layout1
 70
     1
 71
     1
 10
0.0
 20
0.0
 11
420.0
 21
297.0
 12
0.0
 22
0.0
 32
0.0
 14
1.0000000000E+20
 24
1.0000000000E+20
 34
1.0000000000E+20
 15
-1.0000000000E+20
 25
-1.0000000000E+20
 35
-1.0000000000E+20
146
0.0
 13
0.0
 23
0.0
 33
0.0
 16
1.0
 26
0.0
 36
0.0
 17
0.0
 27
1.0
 37
0.0
 76
     0
330
1B
  0
LAYOUT
  5
26
102
{ACAD_REACTORS
330
1A
102
}
330
1A
100
AcDbPlotSettings
  1

  2
none_device
  4

  6

 40
0.0
 41
0.0
 42
0.0
 43
0.0
 44
0.0
 45
0.0
 46
0.0
 47
0.0
 48
0.0
 49
0.0
140
0.0
141
0.0
142
1.0
143
1.0
 70
   688
 72
     0
 73
     0
 74
     5
  7

 75
    16
147
1.0
148
0.0
149
0.0
100
AcDbLayout
  1
Layout2
 70
     1
 71
     2
 10
0.0
 20
0.0
 11
0.0
 21
0.0
 12
0.0
 22
0.0
 32
0.0
 14
0.0
 24
0.0
 34
0.0
 15
0.0
 25
0.0
 35
0.0
146
0.0
 13
0.0
 23
0.0
 33
0.0
 16
1.0
 26
0.0
 36
0.0
 17
0.0
 27
1.0
 37
0.0
 76
     0
330
23
  0
LAYOUT
  5
22
102
{ACAD_REACTORS
330
1A
102
}
330
1A
100
AcDbPlotSettings
  1

  2
none_device
  4

  6

 40
0.0
 41
0.0
 42
0.0
 43
0.0
 44
0.0
 45
0.0
 46
0.0
 47
0.0
 48
0.0
 49
0.0
140
0.0
141
0.0
142
1.0
143
1.0
 70
  1712
 72
     0
 73
     0
 74
     0
  7

 75
     0
147
1.0
148
0.0
149
0.0
100
AcDbLayout
  1
Model
 70
     1
 71
     0
 10
0.0
 20
0.0
 11
840.0
 21
594.0
 12
0.0
 22
0.0
 32
0.0
 14
0.0
 24
0.0
 34
0.0
 15
840.0
 25
594.0
 35
0.0
146
0.0
 13
0.0
 23
0.0
 33
0.0
 16
1.0
 26
0.0
 36
0.0
 17
0.0
 27
1.0
 37
0.0
 76
     0
330
1F
331
29
  0
MLINESTYLE
  5
18
102
{ACAD_REACTORS
330
17
102
}
330
17
100
AcDbMlineStyle
  2
Standard
 70
     0
  3

 62
   256
 51
90.0
 52
90.0
 71
     2
 49
0.5
 62
   256
  6
BYLAYER
 49
-0.5
 62
   256
  6
BYLAYER
  0
ACDBPLACEHOLDER
  5
F
102
{ACAD_REACTORS
330
E
102
}
330
E
  0
ENDSEC
  0
EOF
