  0
SECTION
  2
HEADER
  9
$ACADVER
  1
AC1015
  9
$ACADMAINTVER
 70
     6
  9
$DWGCODEPAGE
  3
DOS932
  9
$INSBASE
 10
0.0
 20
0.0
 30
0.0
  9
$EXTMIN
 10
0.0
 20
0.0
 30
0.0
  9
$EXTMAX
 10
840.0
 20
594.0
 30
0.0
  9
$LIMMIN
 10
0.0
 20
0.0
  9
$LIMMAX
 10
840.0
 20
594.0
  9
$ORTHOMODE
 70
     0
  9
$REGENMODE
 70
     1
  9
$FILLMODE
 70
     1
  9
$QTEXTMODE
 70
     0
  9
$MIRRTEXT
 70
     1
  9
$LTSCALE
 40
2.0
  9
$ATTMODE
 70
     1
  9
$TEXTSIZE
 40
7.0
  9
$TRACEWID
 40
1.0
  9
$TEXTSTYLE
  7
Standard
  9
$CLAYER
  8
0
  9
$CELTYPE
  6
ByLayer
  9
$CECOLOR
 62
   256
  9
$CELTSCALE
 40
1.0
  9
$DISPSILH
 70
     0
  9
$DIMSCALE
 40
1.0
  9
$DIMASZ
 40
6.0
  9
$DIMEXO
 40
2.0
  9
$DIMDLI
 40
3.75
  9
$DIMRND
 40
0.0
  9
$DIMDLE
 40
0.0
  9
$DIMEXE
 40
2.0
  9
$DIMTP
 40
0.0
  9
$DIMTM
 40
0.0
  9
$DIMTXT
 40
7.0
  9
$DIMCEN
 40
2.5
  9
$DIMTSZ
 40
0.0
  9
$DIMTOL
 70
     0
  9
$DIMLIM
 70
     0
  9
$DIMTIH
 70
     1
  9
$DIMTOH
 70
     1
  9
$DIMSE1
 70
     0
  9
$DIMSE2
 70
     0
  9
$DIMTAD
 70
     1
  9
$DIMZIN
 70
     0
  9
$DIMBLK
  1

  9
$DIMASO
 70
     1
  9
$DIMSHO
 70
     1
  9
$DIMPOST
  1

  9
$DIMAPOST
  1

  9
$DIMALT
 70
     0
  9
$DIMALTD
 70
     3
  9
$DIMALTF
 40
0.0393700787
  9
$DIMLFAC
 40
1.0
  9
$DIMTOFL
 70
     1
  9
$DIMTVP
 40
0.0
  9
$DIMTIX
 70
     0
  9
$DIMSOXD
 70
     0
  9
$DIMSAH
 70
     0
  9
$DIMBLK1
  1

  9
$DIMBLK2
  1

  9
$DIMSTYLE
  2
ISO-25
  9
$DIMCLRD
 70
     0
  9
$DIMCLRE
 70
     0
  9
$DIMCLRT
 70
     0
  9
$DIMTFAC
 40
1.0
  9
$DIMGAP
 40
3.048
  9
$DIMJUST
 70
     0
  9
$DIMSD1
 70
     0
  9
$DIMSD2
 70
     0
  9
$DIMTOLJ
 70
     0
  9
$DIMTZIN
 70
     0
  9
$DIMALTZ
 70
     0
  9
$DIMALTTZ
 70
     0
  9
$DIMUPT
 70
     0
  9
$DIMDEC
 70
     1
  9
$DIMTDEC
 70
     1
  9
$DIMALTU
 70
     2
  9
$DIMALTTD
 70
     3
  9
$DIMTXSTY
  7
Standard
  9
$DIMAUNIT
 70
     0
  9
$DIMADEC
 70
     2
  9
$DIMALTRND
 40
0.0
  9
$DIMAZIN
 70
     0
  9
$DIMDSEP
 70
    44
  9
$DIMATFIT
 70
     3
  9
$DIMFRAC
 70
     0
  9
$DIMLDRBLK
  1

  9
$DIMLUNIT
 70
     2
  9
$DIMLWD
 70
    -2
  9
$DIMLWE
 70
    -2
  9
$DIMTMOVE
 70
     0
  9
$LUNITS
 70
     2
  9
$LUPREC
 70
     1
  9
$SKETCHINC
 40
1.0
  9
$FILLETRAD
 40
10.0
  9
$AUNITS
 70
     0
  9
$AUPREC
 70
     2
  9
$MENU
  1
.
  9
$ELEVATION
 40
0.0
  9
$PELEVATION
 40
0.0
  9
$THICKNESS
 40
0.0
  9
$LIMCHECK
 70
     0
  9
$CHAMFERA
 40
10.0
  9
$CHAMFERB
 40
10.0
  9
$CHAMFERC
 40
20.0
  9
$CHAMFERD
 40
0.0
  9
$SKPOLY
 70
     0
  9
$TDCREATE
 40
2460453.560813287
  9
$TDUCREATE
 40
2460453.185813287
  9
$TDUPDATE
 40
2460453.560813298
  9
$TDUUPDATE
 40
2460453.185813298
  9
$TDINDWG
 40
0.0000000116
  9
$TDUSRTIMER
 40
0.0000000116
  9
$USRTIMER
 70
     1
  9
$ANGBASE
 50
0.0
  9
$ANGDIR
 70
     0
  9
$PDMODE
 70
     0
  9
$PDSIZE
 40
-1.0
  9
$PLINEWID
 40
0.0
  9
$SPLFRAME
 70
     0
  9
$SPLINETYPE
 70
     6
  9
$SPLINESEGS
 70
     8
  9
$HANDSEED
  5
365
  9
$SURFTAB1
 70
     6
  9
$SURFTAB2
 70
     6
  9
$SURFTYPE
 70
     6
  9
$SURFU
 70
     6
  9
$SURFV
 70
     6
  9
$UCSBASE
  2

  9
$UCSNAME
  2

  9
$UCSORG
 10
0.0
 20
0.0
 30
0.0
  9
$UCSXDIR
 10
1.0
 20
0.0
 30
0.0
  9
$UCSYDIR
 10
0.0
 20
1.0
 30
0.0
  9
$UCSORTHOREF
  2

  9
$UCSORTHOVIEW
 70
     0
  9
$UCSORGTOP
 10
0.0
 20
0.0
 30
0.0
  9
$UCSORGBOTTOM
 10
0.0
 20
0.0
 30
0.0
  9
$UCSORGLEFT
 10
0.0
 20
0.0
 30
0.0
  9
$UCSORGRIGHT
 10
0.0
 20
0.0
 30
0.0
  9
$UCSORGFRONT
 10
0.0
 20
0.0
 30
0.0
  9
$UCSORGBACK
 10
0.0
 20
0.0
 30
0.0
  9
$PUCSBASE
  2

  9
$PUCSNAME
  2

  9
$PUCSORG
 10
0.0
 20
0.0
 30
0.0
  9
$PUCSXDIR
 10
1.0
 20
0.0
 30
0.0
  9
$PUCSYDIR
 10
0.0
 20
1.0
 30
0.0
  9
$PUCSORTHOREF
  2

  9
$PUCSORTHOVIEW
 70
     0
  9
$PUCSORGTOP
 10
0.0
 20
0.0
 30
0.0
  9
$PUCSORGBOTTOM
 10
0.0
 20
0.0
 30
0.0
  9
$PUCSORGLEFT
 10
0.0
 20
0.0
 30
0.0
  9
$PUCSORGRIGHT
 10
0.0
 20
0.0
 30
0.0
  9
$PUCSORGFRONT
 10
0.0
 20
0.0
 30
0.0
  9
$PUCSORGBACK
 10
0.0
 20
0.0
 30
0.0
  9
$USERI1
 70
     0
  9
$USERI2
 70
     0
  9
$USERI3
 70
     0
  9
$USERI4
 70
     0
  9
$USERI5
 70
     0
  9
$USERR1
 40
0.0
  9
$USERR2
 40
0.0
  9
$USERR3
 40
0.0
  9
$USERR4
 40
0.0
  9
$USERR5
 40
0.0
  9
$WORLDVIEW
 70
     1
  9
$SHADEDGE
 70
     3
  9
$SHADEDIF
 70
    70
  9
$TILEMODE
 70
     1
  9
$MAXACTVP
 70
    64
  9
$PINSBASE
 10
0.0
 20
0.0
 30
0.0
  9
$PLIMCHECK
 70
     0
  9
$PEXTMIN
 10
1.0000000000E+20
 20
1.0000000000E+20
 30
1.0000000000E+20
  9
$PEXTMAX
 10
-1.0000000000E+20
 20
-1.0000000000E+20
 30
-1.0000000000E+20
  9
$PLIMMIN
 10
0.0
 20
0.0
  9
$PLIMMAX
 10
420.0
 20
297.0
  9
$UNITMODE
 70
     0
  9
$VISRETAIN
 70
     1
  9
$PLINEGEN
 70
     0
  9
$PSLTSCALE
 70
     1
  9
$TREEDEPTH
 70
  3020
  9
$CMLSTYLE
  2
Standard
  9
$CMLJUST
 70
     0
  9
$CMLSCALE
 40
20.0
  9
$PROXYGRAPHICS
 70
     1
  9
$MEASUREMENT
 70
     1
  9
$CELWEIGHT
370
    -1
  9
$ENDCAPS
280
     0
  9
$JOINSTYLE
280
     0
  9
$LWDISPLAY
290
     1
  9
$INSUNITS
 70
     4
  9
$HYPERLINKBASE
  1

  9
$STYLESHEET
  1

  9
$XEDIT
290
     1
  9
$CEPSNTYPE
380
     0
  9
$PSTYLEMODE
290
     1
  9
$FINGERPRINTGUID
  2
{93E12250-544F-4025-9CB0-28DA2C542096}
  9
$VERSIONGUID
  2
{FAEB1C32-E019-11D5-929B-00C0DF256EC4}
  9
$EXTNAMES
290
     1
  9
$PSVPSCALE
 40
0.0
  9
$OLESTARTUP
290
     0
  0
ENDSEC
  0
SECTION
  2
CLASSES
  0
CLASS
  1
ACDBDICTIONARYWDFLT
  2
AcDbDictionaryWithDefault
  3
ObjectDBX Classes
 90
        0
280
     0
281
     0
  0
CLASS
  1
VISUALSTYLE
  2
AcDbVisualStyle
  3
ObjectDBX Classes
 90
     4095
280
     0
281
     0
  0
CLASS
  1
MATERIAL
  2
AcDbMaterial
  3
ObjectDBX Classes
 90
     1153
280
     0
281
     0
  0
CLASS
  1
ACDBPLACEHOLDER
  2
AcDbPlaceHolder
  3
ObjectDBX Classes
 90
        0
280
     0
281
     0
  0
CLASS
  1
LAYOUT
  2
AcDbLayout
  3
ObjectDBX Classes
 90
        0
280
     0
281
     0
  0
ENDSEC
  0
SECTION
  2
TABLES
  0
TABLE
  2
VPORT
  5
8
330
0
100
AcDbSymbolTable
 70
     1
  0
VPORT
  5
29
330
8
100
AcDbSymbolTableRecord
100
AcDbViewportTableRecord
  2
*Active
 70
     0
 10
0.0
 20
0.0
 11
1.0
 21
1.0
 12
420.0
 22
297.0
 13
0.0
 23
0.0
 14
10.0
 24
10.0
 15
10.0
 25
10.0
 16
0.0
 26
0.0
 36
1.0
 17
0.0
 27
0.0
 37
0.0
 40
594.0
 41
1.4141414141
 42
50.0
 43
0.0
 44
0.0
 50
0.0
 51
0.0
 71
     0
 72
  2000
 73
     1
 74
     3
 75
     0
 76
     0
 77
     0
 78
     0
281
     0
 65
     1
110
0.0
120
0.0
130
0.0
111
1.0
121
0.0
131
0.0
112
0.0
122
1.0
132
0.0
 79
     0
146
0.0
  0
ENDTAB
  0
TABLE
  2
LTYPE
  5
5
330
0
100
AcDbSymbolTable
 70
     6
  0
LTYPE
  5
14
330
5
100
AcDbSymbolTableRecord
100
AcDbLinetypeTableRecord
  2
ByBlock
 70
     0
  3

 72
    65
 73
     0
 40
0.0
  0
LTYPE
  5
15
330
5
100
AcDbSymbolTableRecord
100
AcDbLinetypeTableRecord
  2
ByLayer
 70
     0
  3

 72
    65
 73
     0
 40
0.0
  0
LTYPE
  5
16
330
5
100
AcDbSymbolTableRecord
100
AcDbLinetypeTableRecord
  2
Continuous
 70
     0
  3
Solid line
 72
    65
 73
     0
 40
0.0
  0
LTYPE
  5
3F
330
5
100
AcDbSymbolTableRecord
100
AcDbLinetypeTableRecord
  2
HIDDEN
 70
     0
  3
Hidden __ __ __ __ __ __ __ __ __ __ __ __ __ __
 72
    65
 73
     2
 40
1.905
 49
1.27
 74
     0
 49
-0.635
 74
     0
  0
LTYPE
  5
40
330
5
100
AcDbSymbolTableRecord
100
AcDbLinetypeTableRecord
  2
PHANTOM
 70
     0
  3
Phantom ______  __  __  ______  __  __  ______
 72
    65
 73
     6
 40
12.7
 49
6.35
 74
     0
 49
-1.27
 74
     0
 49
1.27
 74
     0
 49
-1.27
 74
     0
 49
1.27
 74
     0
 49
-1.27
 74
     0
  0
LTYPE
  5
41
330
5
100
AcDbSymbolTableRecord
100
AcDbLinetypeTableRecord
  2
CENTER
 70
     0
  3
Center ____ _ ____ _ ____ _ ____ _ ____ _ ____
 72
    65
 73
     4
 40
10.16
 49
6.35
 74
     0
 49
-1.27
 74
     0
 49
1.27
 74
     0
 49
-1.27
 74
     0
  0
LTYPE
  5
42
330
5
100
AcDbSymbolTableRecord
100
AcDbLinetypeTableRecord
  2
CENTERX2
 70
     0
  3
Center (2x) ________  __  ________  __  _____
 72
    65
 73
     4
 40
20.32
 49
12.7
 74
     0
 49
-2.54
 74
     0
 49
2.54
 74
     0
 49
-2.54
 74
     0
  0
LTYPE
  5
43
330
5
100
AcDbSymbolTableRecord
100
AcDbLinetypeTableRecord
  2
DOT2
 70
     0
  3
Dot (.5x) ........................................
 72
    65
 73
     2
 40
0.635
 49
0.0
 74
     0
 49
-0.635
 74
     0
  0
ENDTAB
  0
TABLE
  2
LAYER
  5
2
330
0
100
AcDbSymbolTable
 70
     1
  0
LAYER
  5
10
330
2
100
AcDbSymbolTableRecord
100
AcDbLayerTableRecord
  2
0
 70
     0
 62
     7
  6
Continuous
370
    -3
390
F
  0
ENDTAB
  0
TABLE
  2
STYLE
  5
3
330
0
100
AcDbSymbolTable
 70
     2
  0
STYLE
  5
11
330
3
100
AcDbSymbolTableRecord
100
AcDbTextStyleTableRecord
  2
Standard
 70
     0
 40
0.0
 41
1.0
 50
0.0
 71
     0
 42
2.5
  3
txt
  4
bigfont
  0
STYLE
  5
44
330
3
100
AcDbSymbolTableRecord
100
AcDbTextStyleTableRecord
  2
SLDTEXTSTYLE0
 70
     0
 40
0.0
 41
0.7
 50
0.0
 71
     0
 42
0.2
  3
TXT
  4
bigfont
  0
ENDTAB
  0
TABLE
  2
VIEW
  5
6
330
0
100
AcDbSymbolTable
 70
     0
  0
ENDTAB
  0
TABLE
  2
UCS
  5
7
330
0
100
AcDbSymbolTable
 70
     0
  0
ENDTAB
  0
TABLE
  2
APPID
  5
9
330
0
100
AcDbSymbolTable
 70
     1
  0
APPID
  5
12
330
9
100
AcDbSymbolTableRecord
100
AcDbRegAppTableRecord
  2
ACAD
 70
     0
  0
ENDTAB
  0
TABLE
  2
DIMSTYLE
  5
A
330
0
100
AcDbSymbolTable
 70
     1
100
AcDbDimStyleTable
  0
DIMSTYLE
105
27
330
A
100
AcDbSymbolTableRecord
100
AcDbDimStyleTableRecord
  2
ISO-25
 70
     0
 41
2.5
 42
0.625
 43
3.75
 44
1.25
 73
     0
 74
     0
 77
     1
 78
     8
140
2.5
141
2.5
143
0.0393700787
147
0.625
171
     3
172
     1
178
     0
271
     2
272
     2
274
     3
278
    44
283
     0
284
     8
340
11
  0
ENDTAB
  0
TABLE
  2
BLOCK_RECORD
  5
1
330
0
100
AcDbSymbolTable
 70
     1
  0
BLOCK_RECORD
  5
1F
330
1
100
AcDbSymbolTableRecord
100
AcDbBlockTableRecord
  2
*Model_Space
340
22
  0
BLOCK_RECORD
  5
1B
330
1
100
AcDbSymbolTableRecord
100
AcDbBlockTableRecord
  2
*Paper_Space
340
1E
  0
BLOCK_RECORD
  5
23
330
1
100
AcDbSymbolTableRecord
100
AcDbBlockTableRecord
  2
*Paper_Space0
340
26
  0
ENDTAB
  0
ENDSEC
  0
SECTION
  2
BLOCKS
  0
BLOCK
  5
20
330
1F
100
AcDbEntity
  8
0
100
AcDbBlockBegin
  2
*Model_Space
 70
     0
 10
0.0
 20
0.0
 30
0.0
  3
*Model_Space
  1

  0
ENDBLK
  5
21
330
1F
100
AcDbEntity
  8
0
100
AcDbBlockEnd
  0
BLOCK
  5
1C
330
1B
100
AcDbEntity
 67
     1
  8
0
100
AcDbBlockBegin
  2
*Paper_Space
 70
     0
 10
0.0
 20
0.0
 30
0.0
  3
*Paper_Space
  1

  0
ENDBLK
  5
1D
330
1B
100
AcDbEntity
 67
     1
  8
0
100
AcDbBlockEnd
  0
BLOCK
  5
24
330
23
100
AcDbEntity
  8
0
100
AcDbBlockBegin
  2
*Paper_Space0
 70
     0
 10
0.0
 20
0.0
 30
0.0
  3
*Paper_Space0
  1

  0
ENDBLK
  5
25
330
23
100
AcDbEntity
  8
0
100
AcDbBlockEnd
  0
ENDSEC
  0
SECTION
  2
ENTITIES
  0
MTEXT
  5
45
330
1F
100
AcDbEntity
  8
0
  6
Continuous
 62
     7
370
     0
100
AcDbMText
 10
142.9050154215
 20
589.5175385943
 30
0.0
 40
7.0
 41
0.0
 71
     1
 72
     1
  1
CHB-517N
  7
SLDTEXTSTYLE0
 73
     1
 44
1.0
  0
LINE
  5
46
330
1F
100
AcDbEntity
  8
0
  6
Continuous
 62
     7
370
    15
100
AcDbLine
 10
279.2089354933
 20
454.6060463524
 30
0.0
 11
279.3089222849
 21
454.6060463524
 31
0.0
  0
LINE
  5
47
330
1F
100
AcDbEntity
  8
0
  6
Continuous
 62
     7
370
    15
100
AcDbLine
 10
279.3089222849
 20
460.6060436106
 30
0.0
 11
279.2089354933
 21
460.6060436106
 31
0.0
  0
LINE
  5
48
330
1F
100
AcDbEntity
  8
0
  6
Continuous
 62
     7
370
    15
100
AcDbLine
 10
279.2089354933
 20
444.606040988
 30
0.0
 11
279.3089222849
 21
444.606040988
 31
0.0
  0
LINE
  5
49
330
1F
100
AcDbEntity
  8
0
  6
Continuous
 62
     7
370
    15
100
AcDbLine
 10
279.3089222849
 20
450.6060382461
 30
0.0
 11
279.2089354933
 21
450.6060382461
 31
0.0
  0
LINE
  5
4A
330
1F
100
AcDbEntity
  8
0
  6
Continuous
 62
     7
370
    15
100
AcDbLine
 10
279.2089354933
 20
84.606041584
 30
0.0
 11
279.3089222849
 21
84.606041584
 31
0.0
  0
LINE
  5
4B
330
1F
100
AcDbEntity
  8
0
  6
Continuous
 62
     7
370
    15
100
AcDbLine
 10
279.3089222849
 20
90.6060388422
 30
0.0
 11
279.2089354933
 21
90.6060388422
 31
0.0
  0
LINE
  5
4C
330
1F
100
AcDbEntity
  8
0
  6
Continuous
 62
     7
370
    15
100
AcDbLine
 10
279.2089354933
 20
74.6060362196
 30
0.0
 11
279.3089222849
 21
74.6060362196
 31
0.0
  0
LINE
  5
4D
330
1F
100
AcDbEntity
  8
0
  6
Continuous
 62
     7
370
    15
100
AcDbLine
 10
279.3089222849
 20
80.6060334778
 30
0.0
 11
279.2089354933
 21
80.6060334778
 31
0.0
  0
LINE
  5
4E
330
1F
100
AcDbEntity
  8
0
  6
Continuous
 62
     7
370
    15
100
AcDbLine
 10
280.5089127959
 20
464.1060432529
 30
0.0
 11
279.3089222849
 21
464.1060432529
 31
0.0
  0
LINE
  5
4F
330
1F
100
AcDbEntity
  8
0
  6
Continuous
 62
     7
370
    15
100
AcDbLine
 10
280.5089127959
 20
94.1060384846
 30
0.0
 11
279.3089222849
 21
94.1060384846
 31
0.0
  0
LINE
  5
50
330
1F
100
AcDbEntity
  8
0
  6
Continuous
 62
     7
370
    15
100
AcDbLine
 10
279.3089222849
 20
441.1060413456
 30
0.0
 11
280.5089127959
 21
441.1060413456
 31
0.0
  0
LINE
  5
51
330
1F
100
AcDbEntity
  8
0
  6
Continuous
 62
     7
370
    15
100
AcDbLine
 10
279.3089222849
 20
71.1060365772
 30
0.0
 11
280.5089127959
 21
71.1060365772
 31
0.0
  0
LINE
  5
52
330
1F
100
AcDbEntity
  8
0
  6
Continuous
 62
     7
370
    15
100
AcDbLine
 10
892.0089375914
 20
426.6060343122
 30
0.0
 11
892.0089375914
 21
461.6060456371
 31
0.0
  0
LINE
  5
53
330
1F
100
AcDbEntity
  8
0
  6
Continuous
 62
     7
370
    15
100
AcDbLine
 10
892.0089375914
 20
73.606034193
 30
0.0
 11
892.0089375914
 21
108.6060455179
 31
0.0
  0
SPLINE
  5
54
330
1F
100
AcDbEntity
  8
0
  6
Continuous
 62
     7
370
    15
100
AcDbSpline
210
0.0
220
0.0
230
1.0
 70
     8
 71
     3
 72
    11
 73
     7
 74
     0
 42
0.00000001
 43
0.00000001
 40
0.0
 40
0.0
 40
0.0
 40
0.0
 40
0.2262215555257281
 40
0.467943969805146
 40
0.7254849661367999
 40
1.0
 40
1.0
 40
1.0
 40
1.0
 10
276.8294286669138
 20
90.83647039889203
 30
0.0
 10
276.8322465478223
 20
90.81357043252095
 30
0.0
 10
276.8380753928043
 20
90.7662013781124
 30
0.0
 10
276.8548902777688
 20
90.4414244984634
 30
0.0
 10
276.8684801236094
 20
89.94092529243703
 30
0.0
 10
276.8690040509308
 20
89.51710355046247
 30
0.0
 10
276.8692743719461
 20
89.29843214510785
 30
0.0
  0
SPLINE
  5
55
330
1F
100
AcDbEntity
  8
0
  6
Continuous
 62
     7
370
    15
100
AcDbSpline
210
0.0
220
0.0
230
1.0
 70
     8
 71
     3
 72
    12
 73
     8
 74
     0
 42
0.00000001
 43
0.00000001
 40
0.0
 40
0.0
 40
0.0
 40
0.0
 40
0.2489469272997727
 40
0.4822949499668513
 40
0.6998133322848473
 40
0.9035365115921212
 40
1.0
 40
1.0
 40
1.0
 40
1.0
 10
276.8692743719461
 20
75.73980597018107
 30
0.0
 10
276.8678485004435
 20
75.60247004108709
 30
0.0
 10
276.8650861019175
 20
75.33640359162544
 30
0.0
 10
276.854185230245
 20
75.00060306737991
 30
0.0
 10
276.8516747053625
 20
74.7674149698733
 30
0.0
 10
276.8564642353491
 20
74.64733466680254
 30
0.0
 10
276.8828944708179
 20
74.64597584766369
 30
0.0
 10
276.8913876951578
 20
74.64553919791089
 30
0.0
  0
LINE
  5
56
330
1F
100
AcDbEntity
  8
0
  6
Continuous
 62
     7
370
    15
100
AcDbLine
 10
276.8684399069
 20
89.3484404421
 30
0.0
 11
276.8684399069
 21
75.6897976732
 31
0.0
  0
LINE
  5
57
330
1F
100
AcDbEntity
  8
0
  6
Continuous
 62
     7
370
    15
100
AcDbLine
 10
275.3448259772
 20
93.2863256073
 30
0.0
 11
276.8321704806
 21
90.8061763382
 31
0.0
  0
LINE
  5
58
330
1F
100
AcDbEntity
  8
0
  6
Continuous
 62
     7
370
    15
100
AcDbLine
 10
279.3089222849
 20
92.5092896557
 30
0.0
 11
277.9176306666
 21
94.8292514419
 31
0.0
  0
LINE
  5
59
330
1F
100
AcDbEntity
  8
0
  6
Continuous
 62
     7
370
    15
100
AcDbLine
 10
276.8966627062
 20
74.5134553051
 30
0.0
 11
275.3276002348
 21
71.8970349169
 31
0.0
  0
LINE
  5
5A
330
1F
100
AcDbEntity
  8
0
  6
Continuous
 62
     7
370
    15
100
AcDbLine
 10
277.9004049242
 20
70.3541090822
 30
0.0
 11
279.3089222849
 21
72.7028003073
 31
0.0
  0
LINE
  5
5B
330
1F
100
AcDbEntity
  8
0
  6
Continuous
 62
     7
370
    15
100
AcDbLine
 10
277.9375386179
 20
94.7937419748
 30
0.0
 11
277.8475654066
 21
94.9075272417
 31
0.0
  0
SPLINE
  5
5C
330
1F
100
AcDbEntity
  8
0
  6
Continuous
 62
     7
370
    15
100
AcDbSpline
210
0.0
220
0.0
230
1.0
 70
     8
 71
     3
 72
    20
 73
    16
 74
     0
 42
0.00000001
 43
0.00000001
 40
0.0
 40
0.0
 40
0.0
 40
0.0
 40
0.0337801041482552
 40
0.1101061022749897
 40
0.1739293187443561
 40
0.2252732615980574
 40
0.2665377207234436
 40
0.3037722556792077
 40
0.3388598588238929
 40
0.3726408552321278
 40
0.4139174141649223
 40
0.6259829697301459
 40
0.8390273000564822
 40
0.9659476190534879
 40
0.9999999999999999
 40
0.9999999999999999
 40
0.9999999999999999
 40
0.9999999999999999
 10
277.7352702558878
 20
95.04959491251813
 30
0.0
 10
277.6946093596565
 20
95.10577830323261
 30
0.0
 10
277.5620753455698
 20
95.28890782044822
 30
0.0
 10
277.2522147188049
 20
95.46609934759032
 30
0.0
 10
276.8649397745403
 20
95.58904177014225
 30
0.0
 10
276.4950971581355
 20
95.60384158499005
 30
0.0
 10
276.1607820693914
 20
95.55326412621667
 30
0.0
 10
275.8863045564235
 20
95.45218823594922
 30
0.0
 10
275.6587892522032
 20
95.31749261726775
 30
0.0
 10
275.4527488146302
 20
95.14130850637962
 30
0.0
 10
275.1082621323891
 20
94.69880754928792
 30
0.0
 10
274.9271488841293
 20
94.01214418167356
 30
0.0
 10
274.7773417883247
 20
92.83131528901359
 30
0.0
 10
274.7222501585705
 20
91.92666975100957
 30
0.0
 10
274.7156620891395
 20
91.51208304147937
 30
0.0
 10
274.7142684400919
 20
91.4243808126341
 30
0.0
  0
SPLINE
  5
5D
330
1F
100
AcDbEntity
  8
0
  6
Continuous
 62
     7
370
    15
100
AcDbSpline
210
0.0
220
0.0
230
1.0
 70
     8
 71
     3
 72
    19
 73
    15
 74
     0
 42
0.00000001
 43
0.00000001
 40
0.0
 40
0.0
 40
0.0
 40
0.0
 40
0.0102731917439754
 40
0.1295972403015469
 40
0.3268127141214025
 40
0.5525081494245776
 40
0.5858541169709375
 40
0.6186015708813197
 40
0.652906731708035
 40
0.6960073058981332
 40
0.7523113367202262
 40
0.8223147693292134
 40
0.9054620519088806
 40
1.0
 40
1.0
 40
1.0
 40
1.0
 10
274.711437219465
 20
73.8060375785719
 30
0.0
 10
274.7117604295784
 20
73.77884017461986
 30
0.0
 10
274.7158377543055
 20
73.43574247106378
 30
0.0
 10
274.7555966401538
 20
72.615746500824
 30
0.0
 10
274.8906191854081
 20
71.39331545162719
 30
0.0
 10
274.98096231196
 20
70.74996169049209
 30
0.0
 10
275.3319007225535
 20
70.20986413503117
 30
0.0
 10
275.5011232046367
 20
70.02202330176499
 30
0.0
 10
275.7378220284376
 20
69.84552237575755
 30
0.0
 10
276.0514570547886
 20
69.69207102641487
 30
0.0
 10
276.4549317414153
 20
69.59027976998061
 30
0.0
 10
276.9408092786029
 20
69.61344096638783
 30
0.0
 10
277.4705702888532
 20
69.82376283451435
 30
0.0
 10
277.7357834510917
 20
70.14558503182708
 30
0.0
 10
277.8768908918741
 20
70.31681147574292
 30
0.0
  0
LINE
  5
5E
330
1F
100
AcDbEntity
  8
0
  6
Continuous
 62
     7
370
    15
100
AcDbLine
 10
271.4041244925
 20
86.5060439443
 30
0.0
 11
271.4041244925
 21
77.9060324764
 31
0.0
  0
LINE
  5
5F
330
1F
100
AcDbEntity
  8
0
  6
Continuous
 62
     7
370
    15
100
AcDbLine
 10
272.008932823
 20
75.4060348606
 30
0.0
 11
272.008932823
 21
74.6062895393
 31
0.0
  0
LINE
  5
60
330
1F
100
AcDbEntity
  8
0
  6
Continuous
 62
     7
370
    15
100
AcDbLine
 10
272.008932823
 20
90.6057855225
 30
0.0
 11
272.008932823
 21
89.8060402012
 31
0.0
  0
ARC
  5
61
330
1F
100
AcDbEntity
  8
0
  6
Continuous
 62
     7
370
    15
100
AcDbCircle
 10
275.6089247168
 20
87.798897058
 30
0.0
 40
3.807142857143194
100
AcDbArc
 50
77.9663271603
 51
90.0
  0
ARC
  5
62
330
1F
100
AcDbEntity
  8
0
  6
Continuous
 62
     7
370
    15
100
AcDbCircle
 10
275.6089247168
 20
87.798897058
 30
0.0
 40
3.807142857143289
100
AcDbArc
 50
90.0
 51
125.3002484399
  0
LINE
  5
63
330
1F
100
AcDbEntity
  8
0
  6
Continuous
 62
     7
370
    15
100
AcDbLine
 10
273.4089267195
 20
90.9060439205
 30
0.0
 11
273.4089267195
 21
90.6060388422
 31
0.0
  0
LINE
  5
64
330
1F
100
AcDbEntity
  8
0
  6
Continuous
 62
     7
370
    15
100
AcDbLine
 10
273.5089135111
 20
74.2060443497
 30
0.0
 11
273.5089135111
 21
73.8060375786
 31
0.0
  0
ARC
  5
65
330
1F
100
AcDbEntity
  8
0
  6
Continuous
 62
     7
370
    15
100
AcDbCircle
 10
273.7089247168
 20
74.6060399151
 30
0.0
 40
0.4000000000008299
100
AcDbArc
 50
270.0
 51
0.0
  0
LINE
  5
66
330
1F
100
AcDbEntity
  8
0
  6
Continuous
 62
     7
370
    15
100
AcDbLine
 10
274.1089236678
 20
89.8060402012
 30
0.0
 11
274.1089236678
 21
89.3560400343
 31
0.0
  0
LINE
  5
67
330
1F
100
AcDbEntity
  8
0
  6
Continuous
 62
     7
370
    15
100
AcDbLine
 10
274.1089236678
 20
75.8560350275
 30
0.0
 11
274.1089236678
 21
75.4060348606
 31
0.0
  0
LINE
  5
68
330
1F
100
AcDbEntity
  8
0
  6
Continuous
 62
     7
370
    15
100
AcDbLine
 10
271.4041244925
 20
456.5060338116
 30
0.0
 11
271.4041244925
 21
447.9060372448
 31
0.0
  0
LINE
  5
69
330
1F
100
AcDbEntity
  8
0
  6
Continuous
 62
     7
370
    15
100
AcDbLine
 10
272.008932823
 20
445.406039629
 30
0.0
 11
272.008932823
 21
444.6062943077
 31
0.0
  0
LINE
  5
6A
330
1F
100
AcDbEntity
  8
0
  6
Continuous
 62
     7
370
    15
100
AcDbLine
 10
272.008932823
 20
460.6057902908
 30
0.0
 11
272.008932823
 21
459.8060449695
 31
0.0
  0
ARC
  5
6B
330
1F
100
AcDbEntity
  8
0
  6
Continuous
 62
     7
370
    15
100
AcDbCircle
 10
275.6089247168
 20
457.798897058
 30
0.0
 40
3.80714285714318
100
AcDbArc
 50
77.9663271603
 51
90.0
  0
ARC
  5
6C
330
1F
100
AcDbEntity
  8
0
  6
Continuous
 62
     7
370
    15
100
AcDbCircle
 10
275.6089247168
 20
457.798897058
 30
0.0
 40
3.807142857143289
100
AcDbArc
 50
90.0
 51
125.3002484399
  0
LINE
  5
6D
330
1F
100
AcDbEntity
  8
0
  6
Continuous
 62
     7
370
    15
100
AcDbLine
 10
273.4089267195
 20
460.9060337877
 30
0.0
 11
273.4089267195
 21
460.6060436106
 31
0.0
  0
LINE
  5
6E
330
1F
100
AcDbEntity
  8
0
  6
Continuous
 62
     7
370
    15
100
AcDbLine
 10
273.5089135111
 20
444.2060342169
 30
0.0
 11
273.5089135111
 21
443.8060423469
 31
0.0
  0
ARC
  5
6F
330
1F
100
AcDbEntity
  8
0
  6
Continuous
 62
     7
370
    15
100
AcDbCircle
 10
273.7089247168
 20
444.6060399151
 30
0.0
 40
0.4000000000008299
100
AcDbArc
 50
270.0
 51
0.0
  0
LINE
  5
70
330
1F
100
AcDbEntity
  8
0
  6
Continuous
 62
     7
370
    15
100
AcDbLine
 10
274.1089236678
 20
459.8060449695
 30
0.0
 11
274.1089236678
 21
459.3560448027
 31
0.0
  0
LINE
  5
71
330
1F
100
AcDbEntity
  8
0
  6
Continuous
 62
     7
370
    15
100
AcDbLine
 10
274.1089236678
 20
445.8560397959
 30
0.0
 11
274.1089236678
 21
445.406039629
 31
0.0
  0
SPLINE
  5
72
330
1F
100
AcDbEntity
  8
0
  6
Continuous
 62
     7
370
    15
100
AcDbSpline
210
0.0
220
0.0
230
1.0
 70
     8
 71
     3
 72
    11
 73
     7
 74
     0
 42
0.00000001
 43
0.00000001
 40
0.0
 40
0.0
 40
0.0
 40
0.0
 40
0.2262215555257281
 40
0.467943969805146
 40
0.7254849661367999
 40
1.0
 40
1.0
 40
1.0
 40
1.0
 10
276.8294286669138
 20
460.8364751672636
 30
0.0
 10
276.8322465478223
 20
460.8135752008925
 30
0.0
 10
276.8380753928043
 20
460.7662061464839
 30
0.0
 10
276.8548902777688
 20
460.4414292668349
 30
0.0
 10
276.8684801236094
 20
459.9409300608088
 30
0.0
 10
276.8690040509308
 20
459.5171083188341
 30
0.0
 10
276.8692743719461
 20
459.2984369134795
 30
0.0
  0
SPLINE
  5
73
330
1F
100
AcDbEntity
  8
0
  6
Continuous
 62
     7
370
    15
100
AcDbSpline
210
0.0
220
0.0
230
1.0
 70
     8
 71
     3
 72
    12
 73
     8
 74
     0
 42
0.00000001
 43
0.00000001
 40
0.0
 40
0.0
 40
0.0
 40
0.0
 40
0.248946245326258
 40
0.4822936287519815
 40
0.699811415192867
 40
0.9035372363555159
 40
1.0
 40
1.0
 40
1.0
 40
1.0
 10
276.8692743719461
 20
445.7398107385527
 30
0.0
 10
276.8678485048885
 20
445.6024750607309
 30
0.0
 10
276.865086114974
 20
445.3364090980689
 30
0.0
 10
276.8541851831736
 20
445.0006051748531
 30
0.0
 10
276.8516748522807
 20
444.7674275972503
 30
0.0
 10
276.8564638684311
 20
444.6473137587396
 30
0.0
 10
276.8828944709288
 20
444.6459743671173
 30
0.0
 10
276.8913876951578
 20
444.6455439662825
 30
0.0
  0
LINE
  5
74
330
1F
100
AcDbEntity
  8
0
  6
Continuous
 62
     7
370
    15
100
AcDbLine
 10
276.8684399069
 20
459.3484303093
 30
0.0
 11
276.8684399069
 21
445.6898024416
 31
0.0
  0
LINE
  5
75
330
1F
100
AcDbEntity
  8
0
  6
Continuous
 62
     7
370
    15
100
AcDbLine
 10
275.3448259772
 20
463.2863303757
 30
0.0
 11
276.8321704806
 21
460.8061811066
 31
0.0
  0
LINE
  5
76
330
1F
100
AcDbEntity
  8
0
  6
Continuous
 62
     7
370
    15
100
AcDbLine
 10
279.3089222849
 20
462.5092795229
 30
0.0
 11
277.9176306666
 21
464.8292562103
 31
0.0
  0
LINE
  5
77
330
1F
100
AcDbEntity
  8
0
  6
Continuous
 62
     7
370
    15
100
AcDbLine
 10
276.8966627062
 20
444.5134600735
 30
0.0
 11
275.3276002348
 21
441.8970396852
 31
0.0
  0
LINE
  5
78
330
1F
100
AcDbEntity
  8
0
  6
Continuous
 62
     7
370
    15
100
AcDbLine
 10
277.9004049242
 20
440.3541138506
 30
0.0
 11
279.3089222849
 21
442.7027901745
 31
0.0
  0
LINE
  5
79
330
1F
100
AcDbEntity
  8
0
  6
Continuous
 62
     7
370
    15
100
AcDbLine
 10
277.9375386179
 20
464.7937467432
 30
0.0
 11
277.8475654066
 21
464.9075320101
 31
0.0
  0
SPLINE
  5
7A
330
1F
100
AcDbEntity
  8
0
  6
Continuous
 62
     7
370
    15
100
AcDbSpline
210
0.0
220
0.0
230
1.0
 70
     8
 71
     3
 72
    20
 73
    16
 74
     0
 42
0.00000001
 43
0.00000001
 40
0.0
 40
0.0
 40
0.0
 40
0.0
 40
0.0337800597585031
 40
0.1101059575867862
 40
0.1739290901873538
 40
0.2252729655710176
 40
0.2665376739920787
 40
0.3037715041999457
 40
0.3388590612367208
 40
0.3726400132540311
 40
0.4139165179461338
 40
0.625981794840297
 40
0.8390274072615947
 40
0.9659457435662699
 40
1.0
 40
1.0
 40
1.0
 40
1.0
 10
277.7352702558878
 20
465.0495996808897
 30
0.0
 10
277.6946093653913
 20
465.1057830434365
 30
0.0
 10
277.562075369997
 20
465.2889124688394
 30
0.0
 10
277.2522144840256
 20
465.4661052691425
 30
0.0
 10
276.8649404217973
 20
465.5890433593402
 30
0.0
 10
276.4950946914258
 20
465.6038549733016
 30
0.0
 10
276.1607871136687
 20
465.5532445689014
 30
0.0
 10
275.8863013309308
 20
465.4521978272113
 30
0.0
 10
275.6587897036347
 20
465.3174959821573
 30
0.0
 10
275.4527486695023
 20
465.1413137263979
 30
0.0
 10
275.1082624062382
 20
464.6988114599729
 30
0.0
 10
274.9271475238732
 20
464.0121491345362
 30
0.0
 10
274.7773434395248
 20
462.831310460994
 30
0.0
 10
274.722249499036
 20
461.9266654033057
 30
0.0
 10
274.7156620380968
 20
461.5120779539489
 30
0.0
 10
274.7142684400919
 20
461.4243706798445
 30
0.0
  0
SPLINE
  5
7B
330
1F
100
AcDbEntity
  8
0
  6
Continuous
 62
     7
370
    15
100
AcDbSpline
210
0.0
220
0.0
230
1.0
 70
     8
 71
     3
 72
    19
 73
    15
 74
     0
 42
0.00000001
 43
0.00000001
 40
0.0
 40
0.0
 40
0.0
 40
0.0
 40
0.0102731867005115
 40
0.1295971766777946
 40
0.3268125536777763
 40
0.5525090717845487
 40
0.5858537253918906
 40
0.6186024527172128
 40
0.6529064790361263
 40
0.6960070320666668
 40
0.7523114583191286
 40
0.8223148565610179
 40
0.905462098320818
 40
1.0
 40
1.0
 40
1.0
 40
1.0
 10
274.711437219465
 20
443.8060423469435
 30
0.0
 10
274.7117604307157
 20
443.7788449449141
 30
0.0
 10
274.7158377697894
 20
443.4357472656119
 30
0.0
 10
274.7555953226109
 20
442.6157490418098
 30
0.0
 10
274.8906280061846
 20
441.3933319386816
 30
0.0
 10
274.9809396053905
 20
440.7499262583936
 30
0.0
 10
275.3319087447149
 20
440.2098699468382
 30
0.0
 10
275.5011135142976
 20
440.0220106749564
 30
0.0
 10
275.7378285744364
 20
439.8455306787217
 30
0.0
 10
276.0514572612623
 20
439.6920770057087
 30
0.0
 10
276.4549299213801
 20
439.5902637627656
 30
0.0
 10
276.9408095724015
 20
439.6134328752212
 30
0.0
 10
277.470570197625
 20
439.8237520677752
 30
0.0
 10
277.7357834194099
 20
440.1455746788788
 30
0.0
 10
277.8768908918741
 20
440.3168013429533
 30
0.0
  0
LINE
  5
7C
330
1F
100
AcDbEntity
  8
0
  6
Continuous
 62
     7
370
    15
100
AcDbLine
 10
892.0089375914
 20
37.6060357427
 30
0.0
 11
892.0089375914
 21
72.6060470676
 31
0.0
  0
LINE
  5
7D
330
1F
100
AcDbEntity
  8
0
  6
Continuous
 62
     7
370
    15
100
AcDbLine
 10
892.0089375914
 20
462.6060327625
 30
0.0
 11
892.0089375914
 21
497.6060440874
 31
0.0
  0
LINE
  5
7E
330
1F
100
AcDbEntity
  8
0
  6
Continuous
 62
     7
370
    15
100
AcDbLine
 10
889.0089166106
 20
72.6060470676
 30
0.0
 11
889.0089166106
 21
73.606034193
 31
0.0
  0
LINE
  5
7F
330
1F
100
AcDbEntity
  8
0
  6
Continuous
 62
     7
370
    15
100
AcDbLine
 10
889.0089166106
 20
108.6060455179
 30
0.0
 11
889.0089166106
 21
109.6060326433
 31
0.0
  0
LINE
  5
80
330
1F
100
AcDbEntity
  8
0
  6
Continuous
 62
     7
370
    15
100
AcDbLine
 10
884.0089213789
 20
109.6060326433
 30
0.0
 11
884.0089213789
 21
108.6060455179
 31
0.0
  0
LINE
  5
81
330
1F
100
AcDbEntity
  8
0
  6
Continuous
 62
     7
370
    15
100
AcDbLine
 10
884.0089213789
 20
73.606034193
 30
0.0
 11
884.0089213789
 21
72.6060470676
 31
0.0
  0
LINE
  5
82
330
1F
100
AcDbEntity
  8
0
  6
Continuous
 62
     7
370
    15
100
AcDbLine
 10
884.0089213789
 20
462.6060327625
 30
0.0
 11
884.0089213789
 21
461.6060456371
 31
0.0
  0
LINE
  5
83
330
1F
100
AcDbEntity
  8
0
  6
Continuous
 62
     7
370
    15
100
AcDbLine
 10
884.0089213789
 20
426.6060343122
 30
0.0
 11
884.0089213789
 21
425.6060471868
 31
0.0
  0
LINE
  5
84
330
1F
100
AcDbEntity
  8
0
  6
Continuous
 62
     7
370
    15
100
AcDbLine
 10
889.0089166106
 20
425.6060471868
 30
0.0
 11
889.0089166106
 21
426.6060343122
 31
0.0
  0
LINE
  5
85
330
1F
100
AcDbEntity
  8
0
  6
Continuous
 62
     7
370
    15
100
AcDbLine
 10
889.0089166106
 20
461.6060456371
 30
0.0
 11
889.0089166106
 21
462.6060327625
 31
0.0
  0
LINE
  5
86
330
1F
100
AcDbEntity
  8
0
  6
Continuous
 62
     7
370
    15
100
AcDbLine
 10
272.2089362086
 20
76.1488577461
 30
0.0
 11
272.2089362086
 21
75.8560350275
 31
0.0
  0
LINE
  5
87
330
1F
100
AcDbEntity
  8
0
  6
Continuous
 62
     7
370
    15
100
AcDbLine
 10
272.2089362086
 20
89.3560400343
 30
0.0
 11
272.2089362086
 21
89.0632322168
 31
0.0
  0
LINE
  5
88
330
1F
100
AcDbEntity
  8
0
  6
Continuous
 62
     7
370
    15
100
AcDbLine
 10
272.2089362086
 20
446.1488476133
 30
0.0
 11
272.2089362086
 21
445.8560397959
 31
0.0
  0
LINE
  5
89
330
1F
100
AcDbEntity
  8
0
  6
Continuous
 62
     7
370
    15
100
AcDbLine
 10
272.2089362086
 20
459.3560448027
 30
0.0
 11
272.2089362086
 21
459.063222084
 31
0.0
  0
LINE
  5
8A
330
1F
100
AcDbEntity
  8
0
  6
Continuous
 62
     7
370
    15
100
AcDbLine
 10
280.5089127959
 20
502.606039319
 30
0.0
 11
295.5089282931
 21
502.606039319
 31
0.0
  0
ARC
  5
8B
330
1F
100
AcDbEntity
  8
0
  6
Continuous
 62
     7
370
    15
100
AcDbCircle
 10
295.5089247168
 20
502.6060399151
 30
0.0
 40
15.00000000000011
100
AcDbArc
 50
90.0
 51
180.0
  0
LINE
  5
8C
330
1F
100
AcDbEntity
  8
0
  6
Continuous
 62
     7
370
    15
100
AcDbLine
 10
295.5089282931
 20
502.606039319
 30
0.0
 11
295.5089282931
 21
517.6060399151
 31
0.0
  0
LINE
  5
8D
330
1F
100
AcDbEntity
  8
0
  6
Continuous
 62
     7
370
    15
100
AcDbLine
 10
295.5089282931
 20
502.606039319
 30
0.0
 11
865.5089211405
 21
502.606039319
 31
0.0
  0
LINE
  5
8E
330
1F
100
AcDbEntity
  8
0
  6
Continuous
 62
     7
370
    15
100
AcDbLine
 10
295.5089282931
 20
517.6060399151
 30
0.0
 11
865.5089211405
 21
517.6060399151
 31
0.0
  0
LINE
  5
8F
330
1F
100
AcDbEntity
  8
0
  6
Continuous
 62
     7
370
    15
100
AcDbLine
 10
865.5089211405
 20
517.6060399151
 30
0.0
 11
865.5089211405
 21
502.606039319
 31
0.0
  0
LINE
  5
90
330
1F
100
AcDbEntity
  8
0
  6
Continuous
 62
     7
370
    15
100
AcDbLine
 10
280.5089127959
 20
32.6060405111
 30
0.0
 11
295.5089282931
 21
32.6060405111
 31
0.0
  0
LINE
  5
91
330
1F
100
AcDbEntity
  8
0
  6
Continuous
 62
     7
370
    15
100
AcDbLine
 10
280.5089127959
 20
32.6060405111
 30
0.0
 11
280.5089127959
 21
72.6185491419
 31
0.0
  0
LINE
  5
92
330
1F
100
AcDbEntity
  8
0
  6
Continuous
 62
     7
370
    15
100
AcDbLine
 10
280.5089127959
 20
92.5935259199
 30
0.0
 11
280.5089127959
 21
442.6185539102
 31
0.0
  0
LINE
  5
93
330
1F
100
AcDbEntity
  8
0
  6
Continuous
 62
     7
370
    15
100
AcDbLine
 10
280.5089127959
 20
462.5935306883
 30
0.0
 11
280.5089127959
 21
502.606039319
 31
0.0
  0
LINE
  5
94
330
1F
100
AcDbEntity
  8
0
  6
Continuous
 62
     7
370
    15
100
AcDbLine
 10
295.5089282931
 20
32.6060405111
 30
0.0
 11
295.5089282931
 21
502.606039319
 31
0.0
  0
LINE
  5
95
330
1F
100
AcDbEntity
  8
0
  6
Continuous
 62
     7
370
    15
100
AcDbLine
 10
860.5089259089
 20
37.6060357427
 30
0.0
 11
300.5089235247
 21
37.6060357427
 31
0.0
  0
LINE
  5
96
330
1F
100
AcDbEntity
  8
0
  6
Continuous
 62
     7
370
    15
100
AcDbLine
 10
860.5089259089
 20
37.6060357427
 30
0.0
 11
860.5089259089
 21
497.6060440874
 31
0.0
  0
LINE
  5
97
330
1F
100
AcDbEntity
  8
0
  6
Continuous
 62
     7
370
    15
100
AcDbLine
 10
865.5089211405
 20
32.6060405111
 30
0.0
 11
295.5089282931
 21
32.6060405111
 31
0.0
  0
LINE
  5
98
330
1F
100
AcDbEntity
  8
0
  6
Continuous
 62
     7
370
    15
100
AcDbLine
 10
865.5089211405
 20
32.6060405111
 30
0.0
 11
865.5089211405
 21
502.606039319
 31
0.0
  0
LINE
  5
99
330
1F
100
AcDbEntity
  8
0
  6
Continuous
 62
     7
370
    15
100
AcDbLine
 10
300.5089235247
 20
37.6060357427
 30
0.0
 11
300.5089235247
 21
497.6060440874
 31
0.0
  0
LINE
  5
9A
330
1F
100
AcDbEntity
  8
0
  6
Continuous
 62
     7
370
    15
100
AcDbLine
 10
300.5089235247
 20
497.6060440874
 30
0.0
 11
860.5089259089
 21
497.6060440874
 31
0.0
  0
LINE
  5
9B
330
1F
100
AcDbEntity
  8
0
  6
Continuous
 62
     7
370
    15
100
AcDbLine
 10
865.5089211405
 20
32.6060405111
 30
0.0
 11
880.5089366377
 21
32.6060405111
 31
0.0
  0
LINE
  5
9C
330
1F
100
AcDbEntity
  8
0
  6
Continuous
 62
     7
370
    15
100
AcDbLine
 10
880.5089366377
 20
502.606039319
 30
0.0
 11
865.5089211405
 21
502.606039319
 31
0.0
  0
LINE
  5
9D
330
1F
100
AcDbEntity
  8
0
  6
Continuous
 62
     7
370
    15
100
AcDbLine
 10
880.5089366377
 20
32.6060405111
 30
0.0
 11
880.5089366377
 21
502.606039319
 31
0.0
  0
ARC
  5
9E
330
1F
100
AcDbEntity
  8
0
  6
Continuous
 62
     7
370
    15
100
AcDbCircle
 10
865.5089247168
 20
502.6060399151
 30
0.0
 40
15.00000000000011
100
AcDbArc
 50
0.0
 51
90.0
  0
LINE
  5
9F
330
1F
100
AcDbEntity
  8
0
  6
Continuous
 62
     7
370
    15
100
AcDbLine
 10
865.5089211405
 20
17.6060399151
 30
0.0
 11
295.5089282931
 21
17.6060399151
 31
0.0
  0
LINE
  5
A0
330
1F
100
AcDbEntity
  8
0
  6
Continuous
 62
     7
370
    15
100
AcDbLine
 10
295.5089282931
 20
17.6060399151
 30
0.0
 11
295.5089282931
 21
32.6060405111
 31
0.0
  0
LINE
  5
A1
330
1F
100
AcDbEntity
  8
0
  6
Continuous
 62
     7
370
    15
100
AcDbLine
 10
865.5089211405
 20
32.6060405111
 30
0.0
 11
865.5089211405
 21
17.6060399151
 31
0.0
  0
ARC
  5
A2
330
1F
100
AcDbEntity
  8
0
  6
Continuous
 62
     7
370
    15
100
AcDbCircle
 10
295.5089247168
 20
32.6060399151
 30
0.0
 40
15.00000000000004
100
AcDbArc
 50
180.0
 51
270.0
  0
ARC
  5
A3
330
1F
100
AcDbEntity
  8
0
  6
Continuous
 62
     7
370
    15
100
AcDbCircle
 10
865.5089247168
 20
32.6060399151
 30
0.0
 40
15.00000000000011
100
AcDbArc
 50
270.0
 51
0.0
  0
LINE
  5
A4
330
1F
100
AcDbEntity
  8
0
  6
Continuous
 62
     7
370
    15
100
AcDbLine
 10
279.3089222849
 20
463.6405160761
 30
0.0
 11
280.5089127959
 21
463.6405160761
 31
0.0
  0
LINE
  5
A5
330
1F
100
AcDbEntity
  8
0
  6
Continuous
 62
     7
370
    15
100
AcDbLine
 10
279.3089222849
 20
441.5715536213
 30
0.0
 11
280.5089127959
 21
441.5715536213
 31
0.0
  0
LINE
  5
A6
330
1F
100
AcDbEntity
  8
0
  6
Continuous
 62
     7
370
    15
100
AcDbLine
 10
279.3089222849
 20
441.5715536213
 30
0.0
 11
279.3089222849
 21
463.6405160761
 31
0.0
  0
LINE
  5
A7
330
1F
100
AcDbEntity
  8
0
  6
Continuous
 62
     7
370
    15
100
AcDbLine
 10
280.5089127959
 20
462.5935306883
 30
0.0
 11
280.5089127959
 21
442.6185539102
 31
0.0
  0
LINE
  5
A8
330
1F
100
AcDbEntity
  8
0
  6
Continuous
 62
     7
370
    15
100
AcDbLine
 10
279.3089222849
 20
93.6405262089
 30
0.0
 11
280.5089127959
 21
93.6405262089
 31
0.0
  0
LINE
  5
A9
330
1F
100
AcDbEntity
  8
0
  6
Continuous
 62
     7
370
    15
100
AcDbLine
 10
280.5089127959
 20
92.5935259199
 30
0.0
 11
280.5089127959
 21
72.6185491419
 31
0.0
  0
LINE
  5
AA
330
1F
100
AcDbEntity
  8
0
  6
Continuous
 62
     7
370
    15
100
AcDbLine
 10
279.3089222849
 20
71.5715637541
 30
0.0
 11
280.5089127959
 21
71.5715637541
 31
0.0
  0
LINE
  5
AB
330
1F
100
AcDbEntity
  8
0
  6
Continuous
 62
     7
370
    15
100
AcDbLine
 10
279.3089222849
 20
71.5715637541
 30
0.0
 11
279.3089222849
 21
93.6405262089
 31
0.0
  0
LINE
  5
AC
330
1F
100
AcDbEntity
  8
0
  6
Continuous
 62
     7
370
    15
100
AcDbLine
 10
279.2089354933
 20
457.6060375309
 30
0.0
 11
279.2089354933
 21
460.6060436106
 31
0.0
  0
LINE
  5
AD
330
1F
100
AcDbEntity
  8
0
  6
Continuous
 62
     7
370
    15
100
AcDbLine
 10
279.2089354933
 20
454.6060463524
 30
0.0
 11
279.2089354933
 21
457.6060375309
 31
0.0
  0
LINE
  5
AE
330
1F
100
AcDbEntity
  8
0
  6
Continuous
 62
     7
370
    15
100
AcDbLine
 10
279.2089354933
 20
444.606040988
 30
0.0
 11
279.2089354933
 21
450.6060382461
 31
0.0
  0
LINE
  5
AF
330
1F
100
AcDbEntity
  8
0
  6
Continuous
 62
     7
370
    15
100
AcDbLine
 10
279.2089354933
 20
87.6060327625
 30
0.0
 11
279.2089354933
 21
90.6060388422
 31
0.0
  0
LINE
  5
B0
330
1F
100
AcDbEntity
  8
0
  6
Continuous
 62
     7
370
    15
100
AcDbLine
 10
279.2089354933
 20
84.606041584
 30
0.0
 11
279.2089354933
 21
87.6060327625
 31
0.0
  0
LINE
  5
B1
330
1F
100
AcDbEntity
  8
0
  6
Continuous
 62
     7
370
    15
100
AcDbLine
 10
279.2089354933
 20
74.6060362196
 30
0.0
 11
279.2089354933
 21
80.6060334778
 31
0.0
  0
LINE
  5
B2
330
1F
100
AcDbEntity
  8
0
  6
Continuous
 62
     7
370
    15
100
AcDbLine
 10
279.3089222849
 20
463.6405160761
 30
0.0
 11
279.3089222849
 21
464.1060432529
 31
0.0
  0
LINE
  5
B3
330
1F
100
AcDbEntity
  8
0
  6
Continuous
 62
     7
370
    15
100
AcDbLine
 10
279.3089222849
 20
93.6405262089
 30
0.0
 11
279.3089222849
 21
94.1060384846
 31
0.0
  0
LINE
  5
B4
330
1F
100
AcDbEntity
  8
0
  6
Continuous
 62
     7
370
    15
100
AcDbLine
 10
279.3089222849
 20
441.1060413456
 30
0.0
 11
279.3089222849
 21
441.5715536213
 31
0.0
  0
LINE
  5
B5
330
1F
100
AcDbEntity
  8
0
  6
Continuous
 62
     7
370
    15
100
AcDbLine
 10
279.3089222849
 20
71.1060365772
 30
0.0
 11
279.3089222849
 21
71.5715637541
 31
0.0
  0
LINE
  5
B6
330
1F
100
AcDbEntity
  8
0
  6
Continuous
 62
     7
370
    15
100
AcDbLine
 10
881.410278076
 20
426.6060343122
 30
0.0
 11
892.0089375914
 21
426.6060343122
 31
0.0
  0
LINE
  5
B7
330
1F
100
AcDbEntity
  8
0
  6
Continuous
 62
     7
370
    15
100
AcDbLine
 10
881.410278076
 20
461.6060456371
 30
0.0
 11
881.410278076
 21
426.6060343122
 31
0.0
  0
LINE
  5
B8
330
1F
100
AcDbEntity
  8
0
  6
Continuous
 62
     7
370
    15
100
AcDbLine
 10
881.410278076
 20
461.6060456371
 30
0.0
 11
892.0089375914
 21
461.6060456371
 31
0.0
  0
LINE
  5
B9
330
1F
100
AcDbEntity
  8
0
  6
Continuous
 62
     7
370
    15
100
AcDbLine
 10
881.410278076
 20
73.606034193
 30
0.0
 11
892.0089375914
 21
73.606034193
 31
0.0
  0
LINE
  5
BA
330
1F
100
AcDbEntity
  8
0
  6
Continuous
 62
     7
370
    15
100
AcDbLine
 10
881.410278076
 20
108.6060455179
 30
0.0
 11
881.410278076
 21
73.606034193
 31
0.0
  0
LINE
  5
BB
330
1F
100
AcDbEntity
  8
0
  6
Continuous
 62
     7
370
    15
100
AcDbLine
 10
881.410278076
 20
108.6060455179
 30
0.0
 11
892.0089375914
 21
108.6060455179
 31
0.0
  0
LINE
  5
BC
330
1F
100
AcDbEntity
  8
0
  6
Continuous
 62
     7
370
    15
100
AcDbLine
 10
880.9467625559
 20
461.6060456371
 30
0.0
 11
880.9467625559
 21
426.6060343122
 31
0.0
  0
LINE
  5
BD
330
1F
100
AcDbEntity
  8
0
  6
Continuous
 62
     7
370
    15
100
AcDbLine
 10
880.9467625559
 20
426.6060343122
 30
0.0
 11
881.410278076
 21
426.6060343122
 31
0.0
  0
LINE
  5
BE
330
1F
100
AcDbEntity
  8
0
  6
Continuous
 62
     7
370
    15
100
AcDbLine
 10
880.9467625559
 20
461.6060456371
 30
0.0
 11
881.410278076
 21
461.6060456371
 31
0.0
  0
LINE
  5
BF
330
1F
100
AcDbEntity
  8
0
  6
Continuous
 62
     7
370
    15
100
AcDbLine
 10
880.9467625559
 20
108.6060455179
 30
0.0
 11
880.9467625559
 21
73.606034193
 31
0.0
  0
LINE
  5
C0
330
1F
100
AcDbEntity
  8
0
  6
Continuous
 62
     7
370
    15
100
AcDbLine
 10
880.9467625559
 20
73.606034193
 30
0.0
 11
881.410278076
 21
73.606034193
 31
0.0
  0
LINE
  5
C1
330
1F
100
AcDbEntity
  8
0
  6
Continuous
 62
     7
370
    15
100
AcDbLine
 10
880.9467625559
 20
108.6060455179
 30
0.0
 11
881.410278076
 21
108.6060455179
 31
0.0
  0
LINE
  5
C2
330
1F
100
AcDbEntity
  8
0
  6
Continuous
 62
     7
370
    15
100
AcDbLine
 10
880.5089366377
 20
426.6060343122
 30
0.0
 11
880.9467625559
 21
426.6060343122
 31
0.0
  0
LINE
  5
C3
330
1F
100
AcDbEntity
  8
0
  6
Continuous
 62
     7
370
    15
100
AcDbLine
 10
880.5089366377
 20
461.6060456371
 30
0.0
 11
880.9467625559
 21
461.6060456371
 31
0.0
  0
LINE
  5
C4
330
1F
100
AcDbEntity
  8
0
  6
Continuous
 62
     7
370
    15
100
AcDbLine
 10
880.5089366377
 20
73.606034193
 30
0.0
 11
880.9467625559
 21
73.606034193
 31
0.0
  0
LINE
  5
C5
330
1F
100
AcDbEntity
  8
0
  6
Continuous
 62
     7
370
    15
100
AcDbLine
 10
880.5089366377
 20
108.6060455179
 30
0.0
 11
880.9467625559
 21
108.6060455179
 31
0.0
  0
LINE
  5
C6
330
1F
100
AcDbEntity
  8
0
  6
Continuous
 62
     7
370
    15
100
AcDbLine
 10
273.191459173
 20
446.1060365772
 30
0.0
 11
272.4609446467
 21
446.1060365772
 31
0.0
  0
ARC
  5
C7
330
1F
100
AcDbEntity
  8
0
  6
Continuous
 62
     7
370
    15
100
AcDbCircle
 10
272.6010602633
 20
447.1948270367
 30
0.0
 40
1.097769124501719
100
AcDbArc
 50
174.1853908748
 51
262.6669531193
  0
LINE
  5
C8
330
1F
100
AcDbEntity
  8
0
  6
Continuous
 62
     7
370
    15
100
AcDbLine
 10
271.5089392603
 20
447.3060419893
 30
0.0
 11
272.2394239844
 21
447.3060419893
 31
0.0
  0
ARC
  5
C9
330
1F
100
AcDbEntity
  8
0
  6
Continuous
 62
     7
370
    15
100
AcDbCircle
 10
273.3316100229
 20
447.1948821127
 30
0.0
 40
1.097828247438453
100
AcDbArc
 50
174.1885943756
 51
262.665496213
  0
LINE
  5
CA
330
1F
100
AcDbEntity
  8
0
  6
Continuous
 62
     7
370
    15
100
AcDbLine
 10
272.4609446467
 20
459.1060331201
 30
0.0
 11
273.191459173
 21
459.1060331201
 31
0.0
  0
ARC
  5
CB
330
1F
100
AcDbEntity
  8
0
  6
Continuous
 62
     7
370
    15
100
AcDbCircle
 10
273.3315926193
 20
458.0172027724
 30
0.0
 40
1.097810962296555
100
AcDbArc
 50
97.3337041014
 51
185.8115124748
  0
LINE
  5
CC
330
1F
100
AcDbEntity
  8
0
  6
Continuous
 62
     7
370
    15
100
AcDbLine
 10
272.2394239844
 20
457.9060426092
 30
0.0
 11
271.5089392603
 21
457.9060426092
 31
0.0
  0
ARC
  5
CD
330
1F
100
AcDbEntity
  8
0
  6
Continuous
 62
     7
370
    15
100
AcDbCircle
 10
272.6010428613
 20
458.0172578473
 30
0.0
 40
1.097751840989475
100
AcDbArc
 50
97.3322472065
 51
185.8147159692
  0
LINE
  5
CE
330
1F
100
AcDbEntity
  8
0
  6
Continuous
 62
     7
370
    15
100
AcDbLine
 10
273.191459173
 20
459.1060331201
 30
0.0
 11
276.7348957003
 21
459.1060331201
 31
0.0
  0
LINE
  5
CF
330
1F
100
AcDbEntity
  8
0
  6
Continuous
 62
     7
370
    15
100
AcDbLine
 10
276.7348957003
 20
459.1060331201
 30
0.0
 11
276.7348957003
 21
446.1060365772
 31
0.0
  0
LINE
  5
D0
330
1F
100
AcDbEntity
  8
0
  6
Continuous
 62
     7
370
    15
100
AcDbLine
 10
276.7348957003
 20
446.1060365772
 30
0.0
 11
273.191459173
 21
446.1060365772
 31
0.0
  0
LINE
  5
D1
330
1F
100
AcDbEntity
  8
0
  6
Continuous
 62
     7
370
    15
100
AcDbLine
 10
272.2394239844
 20
457.9060426092
 30
0.0
 11
272.2394239844
 21
447.3060419893
 31
0.0
  0
LINE
  5
D2
330
1F
100
AcDbEntity
  8
0
  6
Continuous
 62
     7
370
    15
100
AcDbLine
 10
271.5089392603
 20
457.9060426092
 30
0.0
 11
271.5089392603
 21
447.3060419893
 31
0.0
  0
LINE
  5
D3
330
1F
100
AcDbEntity
  8
0
  6
Continuous
 62
     7
370
    15
100
AcDbLine
 10
273.191459173
 20
76.10604671
 30
0.0
 11
272.4609446467
 21
76.10604671
 31
0.0
  0
ARC
  5
D4
330
1F
100
AcDbEntity
  8
0
  6
Continuous
 62
     7
370
    15
100
AcDbCircle
 10
272.6010428613
 20
77.1948219828
 30
0.0
 40
1.097751840989442
100
AcDbArc
 50
174.1852840308
 51
262.6677527935
  0
LINE
  5
D5
330
1F
100
AcDbEntity
  8
0
  6
Continuous
 62
     7
370
    15
100
AcDbLine
 10
271.5089392603
 20
77.3060372209
 30
0.0
 11
272.2394239844
 21
77.3060372209
 31
0.0
  0
ARC
  5
D6
330
1F
100
AcDbEntity
  8
0
  6
Continuous
 62
     7
370
    15
100
AcDbCircle
 10
273.3315926193
 20
77.1948770578
 30
0.0
 40
1.097810962296578
100
AcDbArc
 50
174.1884875252
 51
262.6662958986
  0
LINE
  5
D7
330
1F
100
AcDbEntity
  8
0
  6
Continuous
 62
     7
370
    15
100
AcDbLine
 10
272.2394239844
 20
87.9060378408
 30
0.0
 11
271.5089392603
 21
87.9060378408
 31
0.0
  0
LINE
  5
D8
330
1F
100
AcDbEntity
  8
0
  6
Continuous
 62
     7
370
    15
100
AcDbLine
 10
272.2394239844
 20
87.9060378408
 30
0.0
 11
272.2394239844
 21
77.3060372209
 31
0.0
  0
LINE
  5
D9
330
1F
100
AcDbEntity
  8
0
  6
Continuous
 62
     7
370
    15
100
AcDbLine
 10
271.5089392603
 20
87.9060378408
 30
0.0
 11
271.5089392603
 21
77.3060372209
 31
0.0
  0
ARC
  5
DA
330
1F
100
AcDbEntity
  8
0
  6
Continuous
 62
     7
370
    15
100
AcDbCircle
 10
273.3316100229
 20
88.0171977174
 30
0.0
 40
1.097828247438467
100
AcDbArc
 50
97.334503787
 51
185.8114056244
  0
LINE
  5
DB
330
1F
100
AcDbEntity
  8
0
  6
Continuous
 62
     7
370
    15
100
AcDbLine
 10
273.191459173
 20
89.1060432529
 30
0.0
 11
276.7348957003
 21
89.1060432529
 31
0.0
  0
LINE
  5
DC
330
1F
100
AcDbEntity
  8
0
  6
Continuous
 62
     7
370
    15
100
AcDbLine
 10
276.7348957003
 20
89.1060432529
 30
0.0
 11
276.7348957003
 21
76.10604671
 31
0.0
  0
LINE
  5
DD
330
1F
100
AcDbEntity
  8
0
  6
Continuous
 62
     7
370
    15
100
AcDbLine
 10
276.7348957003
 20
76.10604671
 30
0.0
 11
273.191459173
 21
76.10604671
 31
0.0
  0
LINE
  5
DE
330
1F
100
AcDbEntity
  8
0
  6
Continuous
 62
     7
370
    15
100
AcDbLine
 10
272.4609446467
 20
89.1060432529
 30
0.0
 11
273.191459173
 21
89.1060432529
 31
0.0
  0
ARC
  5
DF
330
1F
100
AcDbEntity
  8
0
  6
Continuous
 62
     7
370
    15
100
AcDbCircle
 10
272.6010602633
 20
88.0172527934
 30
0.0
 40
1.09776912450172
100
AcDbArc
 50
97.3330468807
 51
185.8146091252
  0
LINE
  5
E0
330
1F
100
AcDbEntity
  8
0
  6
Continuous
 62
     7
370
    15
100
AcDbLine
 10
276.8164348544
 20
459.1060331201
 30
0.0
 11
276.7348957003
 21
459.1060331201
 31
0.0
  0
LINE
  5
E1
330
1F
100
AcDbEntity
  8
0
  6
Continuous
 62
     7
370
    15
100
AcDbLine
 10
276.7348957003
 20
446.1060365772
 30
0.0
 11
276.8684399069
 21
446.1060365772
 31
0.0
  0
LINE
  5
E2
330
1F
100
AcDbEntity
  8
0
  6
Continuous
 62
     7
370
    15
100
AcDbLine
 10
276.8164348544
 20
89.1060432529
 30
0.0
 11
276.7348957003
 21
89.1060432529
 31
0.0
  0
LINE
  5
E3
330
1F
100
AcDbEntity
  8
0
  6
Continuous
 62
     7
370
    15
100
AcDbLine
 10
276.7348957003
 20
76.10604671
 30
0.0
 11
276.8684399069
 21
76.10604671
 31
0.0
  0
SPLINE
  5
E4
330
1F
100
AcDbEntity
  8
0
  6
Continuous
 62
     7
370
    15
100
AcDbSpline
210
0.0
220
0.0
230
1.0
 70
    24
 71
     3
 72
    12
 73
     8
 74
     0
 42
0.00000001
 43
0.00000001
 40
0.0
 40
0.0
 40
0.0
 40
0.0
 40
0.2185057815962484
 40
0.4370129915963154
 40
0.6555162179206331
 40
0.8740236704134351
 40
1.0
 40
1.0
 40
1.0
 40
1.0
 10
278.668261760557
 20
89.29843214510785
 30
0.0
 10
278.4715417580467
 20
89.29843214510785
 30
0.0
 10
278.0781004670389
 20
89.29843214510785
 30
0.0
 10
277.5173535224867
 20
89.29843214510788
 30
0.0
 10
277.0996875342524
 20
89.29843214510788
 30
0.0
 10
276.873134707698
 20
89.29843214510788
 30
0.0
 10
276.8906462397683
 20
89.29843214510785
 30
0.0
 10
276.8970501364115
 20
89.29843214510785
 30
0.0
  0
SPLINE
  5
E5
330
1F
100
AcDbEntity
  8
0
  6
Continuous
 62
     7
370
    15
100
AcDbSpline
210
0.0
220
0.0
230
1.0
 70
    24
 71
     3
 72
     9
 73
     5
 74
     0
 42
0.00000001
 43
0.00000001
 40
0.0
 40
0.0
 40
0.0
 40
0.0
 40
0.002514049757833
 40
1.0
 40
1.0
 40
1.0
 40
1.0
 10
279.2089354933145
 20
89.29843214510785
 30
0.0
 10
279.2085879323774
 20
89.29843214510785
 30
0.0
 10
279.0703404947379
 20
89.29843214510078
 30
0.0
 10
278.869048098097
 20
89.29843214510433
 30
0.0
 10
278.668261760557
 20
89.29843214510785
 30
0.0
  0
SPLINE
  5
E6
330
1F
100
AcDbEntity
  8
0
  6
Continuous
 62
     7
370
    15
100
AcDbSpline
210
0.0
220
0.0
230
1.0
 70
     8
 71
     3
 72
    13
 73
     9
 74
     0
 42
0.00000001
 43
0.00000001
 40
0.0
 40
0.0
 40
0.0
 40
0.0
 40
0.1877294643297671
 40
0.3754697565488462
 40
0.5632077318877364
 40
0.7509460546053167
 40
0.9386833012926509
 40
0.9999999999999999
 40
0.9999999999999999
 40
0.9999999999999999
 40
0.9999999999999999
 10
278.3749771059396
 20
92.91327503680097
 30
0.0
 10
278.178291642356
 20
92.91056895576227
 30
0.0
 10
277.7849093707339
 20
92.90515663760316
 30
0.0
 10
277.2518792261912
 20
92.61465573569814
 30
0.0
 10
276.8613507594618
 20
92.15974047270012
 30
0.0
 10
276.6884167397183
 20
91.59806050296213
 30
0.0
 10
276.6916706104587
 20
91.12485043794504
 30
0.0
 10
276.8190251962094
 20
90.9034269829192
 30
0.0
 10
276.8503796995523
 20
90.8489128684889
 30
0.0
  0
SPLINE
  5
E7
330
1F
100
AcDbEntity
  8
0
  6
Continuous
 62
     7
370
    15
100
AcDbSpline
210
0.0
220
0.0
230
1.0
 70
     8
 71
     3
 72
    10
 73
     6
 74
     0
 42
0.00000001
 43
0.00000001
 40
0.0
 40
0.0
 40
0.0
 40
0.0
 40
0.2093477129028555
 40
0.6046642924802784
 40
1.0
 40
1.0
 40
1.0
 40
1.0
 10
279.5121741236093
 20
92.1071520185362
 30
0.0
 10
279.4704670043517
 20
92.20022058329361
 30
0.0
 10
279.3500032772463
 20
92.46903287209715
 30
0.0
 10
278.9432897800814
 20
92.78568520218472
 30
0.0
 10
278.5644177192883
 20
92.87074440599424
 30
0.0
 10
278.3749771059396
 20
92.91327503680097
 30
0.0
  0
SPLINE
  5
E8
330
1F
100
AcDbEntity
  8
0
  6
Continuous
 62
     7
370
    15
100
AcDbSpline
210
0.0
220
0.0
230
1.0
 70
     8
 71
     3
 72
    13
 73
     9
 74
     0
 42
0.00000001
 43
0.00000001
 40
0.0
 40
0.0
 40
0.0
 40
0.0
 40
0.1768571588297971
 40
0.3537266023025458
 40
0.5305917792284776
 40
0.7074530366646451
 40
0.8843175271386954
 40
1.0
 40
1.0
 40
1.0
 40
1.0
 10
278.3577513635996
 20
72.27008548735486
 30
0.0
 10
278.1610897738574
 20
72.27278089343442
 30
0.0
 10
277.7677529340982
 20
72.27817189281858
 30
0.0
 10
277.2343628959428
 20
72.56883573639716
 30
0.0
 10
276.8452317425942
 20
73.02320493245331
 30
0.0
 10
276.6670706732901
 20
73.58689316588563
 30
0.0
 10
276.6880268110764
 20
74.12005073722707
 30
0.0
 10
276.8541347086738
 20
74.39331355967197
 30
0.0
 10
276.9198191107157
 20
74.50137046336042
 30
0.0
  0
SPLINE
  5
E9
330
1F
100
AcDbEntity
  8
0
  6
Continuous
 62
     7
370
    15
100
AcDbSpline
210
0.0
220
0.0
230
1.0
 70
     8
 71
     3
 72
    10
 73
     6
 74
     0
 42
0.00000001
 43
0.00000001
 40
0.0
 40
0.0
 40
0.0
 40
0.0
 40
0.0588225494660017
 40
0.5293998899635767
 40
1.0
 40
1.0
 40
1.0
 40
1.0
 10
279.3878686369302
 20
72.86999133585797
 30
0.0
 10
279.3772341439463
 20
72.8485103407703
 30
0.0
 10
279.2815242594438
 20
72.65518250069908
 30
0.0
 10
278.9206367745501
 20
72.40102056912617
 30
0.0
 10
278.5453828600403
 20
72.31373121853107
 30
0.0
 10
278.3577513635996
 20
72.27008548735486
 30
0.0
  0
SPLINE
  5
EA
330
1F
100
AcDbEntity
  8
0
  6
Continuous
 62
     7
370
    15
100
AcDbSpline
210
0.0
220
0.0
230
1.0
 70
    24
 71
     3
 72
    12
 73
     8
 74
     0
 42
0.00000001
 43
0.00000001
 40
0.0
 40
0.0
 40
0.0
 40
0.0
 40
0.2193551470434282
 40
0.4387117280430993
 40
0.6580643098818634
 40
0.8774211343168761
 40
1.0
 40
1.0
 40
1.0
 40
1.0
 10
278.668261760557
 20
75.7398059701811
 30
0.0
 10
278.4715464394459
 20
75.73980597018107
 30
0.0
 10
278.0781145112673
 20
75.73980597018107
 30
0.0
 10
277.5172973455709
 20
75.7398059701811
 30
0.0
 10
277.0998981950725
 20
75.73980597018107
 30
0.0
 10
276.8740530484525
 20
75.73980597018115
 30
0.0
 10
276.8910254037831
 20
75.7398059701811
 30
0.0
 10
276.8971097410562
 20
75.7398059701811
 30
0.0
  0
SPLINE
  5
EB
330
1F
100
AcDbEntity
  8
0
  6
Continuous
 62
     7
370
    15
100
AcDbSpline
210
0.0
220
0.0
230
1.0
 70
    24
 71
     3
 72
     9
 73
     5
 74
     0
 42
0.00000001
 43
0.00000001
 40
0.0
 40
0.0
 40
0.0
 40
0.0
 40
0.002514049757833
 40
1.0
 40
1.0
 40
1.0
 40
1.0
 10
279.2089354933145
 20
75.7398059701811
 30
0.0
 10
279.2085879323774
 20
75.7398059701811
 30
0.0
 10
279.0703404947379
 20
75.73980597017311
 30
0.0
 10
278.869048098097
 20
75.7398059701771
 30
0.0
 10
278.668261760557
 20
75.7398059701811
 30
0.0
  0
SPLINE
  5
EC
330
1F
100
AcDbEntity
  8
0
  6
Continuous
 62
     7
370
    15
100
AcDbSpline
210
0.0
220
0.0
230
1.0
 70
     8
 71
     3
 72
    13
 73
     9
 74
     0
 42
0.00000001
 43
0.00000001
 40
0.0
 40
0.0
 40
0.0
 40
0.0
 40
0.1768666446852921
 40
0.3537286573976354
 40
0.5305943864519905
 40
0.7074561960043457
 40
0.8843212386046765
 40
1.0
 40
1.0
 40
1.0
 40
1.0
 10
276.8059146345499
 20
95.52969542502271
 30
0.0
 10
276.6092420189916
 20
95.52700320219235
 30
0.0
 10
276.2159019385476
 20
95.52161882703841
 30
0.0
 10
275.6825217524656
 20
95.23093491001947
 30
0.0
 10
275.2933953654742
 20
94.77657727114853
 30
0.0
 10
275.1152310965088
 20
94.21288601148872
 30
0.0
 10
275.1361993380547
 20
93.67973959823827
 30
0.0
 10
275.302280247203
 20
93.4064683747802
 30
0.0
 10
275.3679525793436
 20
93.29841044901715
 30
0.0
  0
SPLINE
  5
ED
330
1F
100
AcDbEntity
  8
0
  6
Continuous
 62
     7
370
    15
100
AcDbSpline
210
0.0
220
0.0
230
1.0
 70
     8
 71
     3
 72
    10
 73
     6
 74
     0
 42
0.00000001
 43
0.00000001
 40
0.0
 40
0.0
 40
0.0
 40
0.0
 40
0.1474527595633529
 40
0.5737379607484987
 40
1.0
 40
1.0
 40
1.0
 40
1.0
 10
277.8945040644052
 20
94.8171666002165
 30
0.0
 10
277.8664472768232
 20
94.8774588194649
 30
0.0
 10
277.7572784546177
 20
95.11205554741379
 30
0.0
 10
277.3721953990382
 20
95.4008494305596
 30
0.0
 10
276.9946714705329
 20
95.48674753809256
 30
0.0
 10
276.8059146345499
 20
95.52969542502271
 30
0.0
  0
SPLINE
  5
EE
330
1F
100
AcDbEntity
  8
0
  6
Continuous
 62
     7
370
    15
100
AcDbSpline
210
0.0
220
0.0
230
1.0
 70
     8
 71
     3
 72
    13
 73
     9
 74
     0
 42
0.00000001
 43
0.00000001
 40
0.0
 40
0.0
 40
0.0
 40
0.0
 40
0.1768666084924337
 40
0.3537285850128666
 40
0.5305942778745507
 40
0.7074554758623305
 40
0.8843212622764379
 40
0.9999999999999999
 40
0.9999999999999999
 40
0.9999999999999999
 40
0.9999999999999999
 10
276.7886888922098
 20
69.65366509913312
 30
0.0
 10
276.5920162787603
 20
69.65635730085722
 30
0.0
 10
276.198676202534
 20
69.66174163379907
 30
0.0
 10
275.66529598482
 20
69.9524258674043
 30
0.0
 10
275.2761701400009
 20
70.40678181053295
 30
0.0
 10
275.0980050099954
 20
70.97047760525682
 30
0.0
 10
275.1189732360766
 20
71.50361954228926
 30
0.0
 10
275.2850545284342
 20
71.77689196376514
 30
0.0
 10
275.3507268370035
 20
71.88495007513868
 30
0.0
  0
SPLINE
  5
EF
330
1F
100
AcDbEntity
  8
0
  6
Continuous
 62
     7
370
    15
100
AcDbSpline
210
0.0
220
0.0
230
1.0
 70
     8
 71
     3
 72
    10
 73
     6
 74
     0
 42
0.00000001
 43
0.00000001
 40
0.0
 40
0.0
 40
0.0
 40
0.0
 40
0.1474548300881962
 40
0.5737380079964546
 40
1.0
 40
1.0
 40
1.0
 40
1.0
 10
277.8772783220651
 20
70.36619392393933
 30
0.0
 10
277.8492217060301
 20
70.30590181387392
 30
0.0
 10
277.7400550752358
 20
70.07130878558088
 30
0.0
 10
277.3549677296261
 20
69.78250937843974
 30
0.0
 10
276.9774453775152
 20
69.69661248071743
 30
0.0
 10
276.7886888922098
 20
69.65366509913312
 30
0.0
  0
LINE
  5
F0
330
1F
100
AcDbEntity
  8
0
  6
Continuous
 62
     7
370
    15
100
AcDbLine
 10
271.5089392603
 20
77.9060324764
 30
0.0
 11
271.4041244925
 21
77.9060324764
 31
0.0
  0
LINE
  5
F1
330
1F
100
AcDbEntity
  8
0
  6
Continuous
 62
     7
370
    15
100
AcDbLine
 10
271.5089392603
 20
86.5060439443
 30
0.0
 11
271.4041244925
 21
86.5060439443
 31
0.0
  0
LINE
  5
F2
330
1F
100
AcDbEntity
  8
0
  6
Continuous
 62
     7
370
    15
100
AcDbLine
 10
276.8830728472
 20
74.6060362196
 30
0.0
 11
272.0095288695
 21
74.6060362196
 31
0.0
  0
LINE
  5
F3
330
1F
100
AcDbEntity
  8
0
  6
Continuous
 62
     7
370
    15
100
AcDbLine
 10
276.8748176039
 20
75.4060348606
 30
0.0
 11
272.008932823
 21
75.4060348606
 31
0.0
  0
LINE
  5
F4
330
1F
100
AcDbEntity
  8
0
  6
Continuous
 62
     7
370
    15
100
AcDbLine
 10
276.8348526896
 20
89.8060402012
 30
0.0
 11
272.008932823
 21
89.8060402012
 31
0.0
  0
LINE
  5
F5
330
1F
100
AcDbEntity
  8
0
  6
Continuous
 62
     7
370
    15
100
AcDbLine
 10
276.837385887
 20
90.6060388422
 30
0.0
 11
272.0095288695
 21
90.6060388422
 31
0.0
  0
LINE
  5
F6
330
1F
100
AcDbEntity
  8
0
  6
Continuous
 62
     7
370
    15
100
AcDbLine
 10
275.6089341582
 20
90.9060439205
 30
0.0
 11
276.7722976149
 21
90.9060439205
 31
0.0
  0
LINE
  5
F7
330
1F
100
AcDbEntity
  8
0
  6
Continuous
 62
     7
370
    15
100
AcDbLine
 10
276.9354355276
 20
90.9060439205
 30
0.0
 11
276.9977819861
 21
90.9060439205
 31
0.0
  0
LINE
  5
F8
330
1F
100
AcDbEntity
  8
0
  6
Continuous
 62
     7
370
    15
100
AcDbLine
 10
273.4089267195
 20
90.9060439205
 30
0.0
 11
275.6089341582
 21
90.9060439205
 31
0.0
  0
LINE
  5
F9
330
1F
100
AcDbEntity
  8
0
  6
Continuous
 62
     7
370
    15
100
AcDbLine
 10
275.6089341582
 20
74.2060443497
 30
0.0
 11
276.7123055399
 21
74.2060443497
 31
0.0
  0
LINE
  5
FA
330
1F
100
AcDbEntity
  8
0
  6
Continuous
 62
     7
370
    15
100
AcDbLine
 10
273.5089135111
 20
74.2060443497
 30
0.0
 11
275.6089341582
 21
74.2060443497
 31
0.0
  0
LINE
  5
FB
330
1F
100
AcDbEntity
  8
0
  6
Continuous
 62
     7
370
    15
100
AcDbLine
 10
275.6089341582
 20
73.8060375786
 30
0.0
 11
276.472426647
 21
73.8060375786
 31
0.0
  0
LINE
  5
FC
330
1F
100
AcDbEntity
  8
0
  6
Continuous
 62
     7
370
    15
100
AcDbLine
 10
273.5089135111
 20
73.8060375786
 30
0.0
 11
275.6089341582
 21
73.8060375786
 31
0.0
  0
ARC
  5
FD
330
1F
100
AcDbEntity
  8
0
  6
Continuous
 62
     7
370
    15
100
AcDbCircle
 10
272.4744433476
 20
75.4036841455
 30
0.0
 40
0.8024888267358626
100
AcDbArc
 50
179.8321643308
 51
234.5435844458
  0
ARC
  5
FE
330
1F
100
AcDbEntity
  8
0
  6
Continuous
 62
     7
370
    15
100
AcDbCircle
 10
272.474455195
 20
89.8083996785
 30
0.0
 40
0.8025006998318122
100
AcDbArc
 50
125.4568503071
 51
180.1684587762
  0
LINE
  5
FF
330
1F
100
AcDbEntity
  8
0
  6
Continuous
 62
     7
370
    15
100
AcDbLine
 10
272.4598121584
 20
75.8560350275
 30
0.0
 11
272.4598121584
 21
75.4060348606
 31
0.0
  0
LINE
  5
100
330
1F
100
AcDbEntity
  8
0
  6
Continuous
 62
     7
370
    15
100
AcDbLine
 10
272.4598121584
 20
89.8060402012
 30
0.0
 11
272.4598121584
 21
89.3560400343
 31
0.0
  0
LINE
  5
101
330
1F
100
AcDbEntity
  8
0
  6
Continuous
 62
     7
370
    15
100
AcDbLine
 10
271.6719579638
 20
75.4060348606
 30
0.0
 11
271.6719579638
 21
76.6344865894
 31
0.0
  0
LINE
  5
102
330
1F
100
AcDbEntity
  8
0
  6
Continuous
 62
     7
370
    15
100
AcDbLine
 10
271.6719579638
 20
88.5776033735
 30
0.0
 11
271.6719579638
 21
89.8060402012
 31
0.0
  0
LINE
  5
103
330
1F
100
AcDbEntity
  8
0
  6
Continuous
 62
     7
370
    15
100
AcDbLine
 10
271.5089392603
 20
456.5060338116
 30
0.0
 11
271.4041244925
 21
456.5060338116
 31
0.0
  0
LINE
  5
104
330
1F
100
AcDbEntity
  8
0
  6
Continuous
 62
     7
370
    15
100
AcDbLine
 10
271.5089392603
 20
447.9060372448
 30
0.0
 11
271.4041244925
 21
447.9060372448
 31
0.0
  0
LINE
  5
105
330
1F
100
AcDbEntity
  8
0
  6
Continuous
 62
     7
370
    15
100
AcDbLine
 10
276.8748176039
 20
445.406039629
 30
0.0
 11
272.008932823
 21
445.406039629
 31
0.0
  0
LINE
  5
106
330
1F
100
AcDbEntity
  8
0
  6
Continuous
 62
     7
370
    15
100
AcDbLine
 10
276.8830728472
 20
444.606040988
 30
0.0
 11
272.0095288695
 21
444.606040988
 31
0.0
  0
LINE
  5
107
330
1F
100
AcDbEntity
  8
0
  6
Continuous
 62
     7
370
    15
100
AcDbLine
 10
276.8770825804
 20
459.8060449695
 30
0.0
 11
272.008932823
 21
459.8060449695
 31
0.0
  0
LINE
  5
108
330
1F
100
AcDbEntity
  8
0
  6
Continuous
 62
     7
370
    15
100
AcDbLine
 10
276.837385887
 20
460.6060436106
 30
0.0
 11
272.0095288695
 21
460.6060436106
 31
0.0
  0
LINE
  5
109
330
1F
100
AcDbEntity
  8
0
  6
Continuous
 62
     7
370
    15
100
AcDbLine
 10
275.6089341582
 20
460.9060337877
 30
0.0
 11
276.7722976149
 21
460.9060337877
 31
0.0
  0
LINE
  5
10A
330
1F
100
AcDbEntity
  8
0
  6
Continuous
 62
     7
370
    15
100
AcDbLine
 10
276.9354355276
 20
460.9060337877
 30
0.0
 11
276.9977819861
 21
460.9060337877
 31
0.0
  0
LINE
  5
10B
330
1F
100
AcDbEntity
  8
0
  6
Continuous
 62
     7
370
    15
100
AcDbLine
 10
273.4089267195
 20
460.9060337877
 30
0.0
 11
275.6089341582
 21
460.9060337877
 31
0.0
  0
LINE
  5
10C
330
1F
100
AcDbEntity
  8
0
  6
Continuous
 62
     7
370
    15
100
AcDbLine
 10
275.6089341582
 20
443.8060423469
 30
0.0
 11
276.472426647
 21
443.8060423469
 31
0.0
  0
LINE
  5
10D
330
1F
100
AcDbEntity
  8
0
  6
Continuous
 62
     7
370
    15
100
AcDbLine
 10
273.5089135111
 20
443.8060423469
 30
0.0
 11
275.6089341582
 21
443.8060423469
 31
0.0
  0
LINE
  5
10E
330
1F
100
AcDbEntity
  8
0
  6
Continuous
 62
     7
370
    15
100
AcDbLine
 10
275.6089341582
 20
444.2060342169
 30
0.0
 11
276.7123055399
 21
444.2060342169
 31
0.0
  0
LINE
  5
10F
330
1F
100
AcDbEntity
  8
0
  6
Continuous
 62
     7
370
    15
100
AcDbLine
 10
273.5089135111
 20
444.2060342169
 30
0.0
 11
275.6089341582
 21
444.2060342169
 31
0.0
  0
ARC
  5
110
330
1F
100
AcDbEntity
  8
0
  6
Continuous
 62
     7
370
    15
100
AcDbCircle
 10
272.474455195
 20
445.4036801517
 30
0.0
 40
0.8025006998318122
100
AcDbArc
 50
179.8315412238
 51
234.5431496929
  0
ARC
  5
111
330
1F
100
AcDbEntity
  8
0
  6
Continuous
 62
     7
370
    15
100
AcDbCircle
 10
272.4744433476
 20
459.8083956847
 30
0.0
 40
0.8024888267358627
100
AcDbArc
 50
125.4564155542
 51
180.1678356692
  0
LINE
  5
112
330
1F
100
AcDbEntity
  8
0
  6
Continuous
 62
     7
370
    15
100
AcDbLine
 10
272.4598121584
 20
445.8560397959
 30
0.0
 11
272.4598121584
 21
445.406039629
 31
0.0
  0
LINE
  5
113
330
1F
100
AcDbEntity
  8
0
  6
Continuous
 62
     7
370
    15
100
AcDbLine
 10
272.4598121584
 20
459.8060449695
 30
0.0
 11
272.4598121584
 21
459.3560448027
 31
0.0
  0
LINE
  5
114
330
1F
100
AcDbEntity
  8
0
  6
Continuous
 62
     7
370
    15
100
AcDbLine
 10
271.6719579638
 20
445.406039629
 30
0.0
 11
271.6719579638
 21
446.6344764566
 31
0.0
  0
LINE
  5
115
330
1F
100
AcDbEntity
  8
0
  6
Continuous
 62
     7
370
    15
100
AcDbLine
 10
271.6719579638
 20
458.5775932407
 30
0.0
 11
271.6719579638
 21
459.8060449695
 31
0.0
  0
SPLINE
  5
116
330
1F
100
AcDbEntity
  8
0
  6
Continuous
 62
     7
370
    15
100
AcDbSpline
210
0.0
220
0.0
230
1.0
 70
    24
 71
     3
 72
    12
 73
     8
 74
     0
 42
0.00000001
 43
0.00000001
 40
0.0
 40
0.0
 40
0.0
 40
0.0
 40
0.2185057815962484
 40
0.4370129915963154
 40
0.6555162179206331
 40
0.8740236704134351
 40
1.0
 40
1.0
 40
1.0
 40
1.0
 10
278.668261760557
 20
459.2984369134795
 30
0.0
 10
278.4715417580467
 20
459.2984369134794
 30
0.0
 10
278.0781004670389
 20
459.2984369134795
 30
0.0
 10
277.5173535224867
 20
459.2984369134795
 30
0.0
 10
277.0996875342524
 20
459.2984369134794
 30
0.0
 10
276.873134707698
 20
459.2984369134794
 30
0.0
 10
276.8906462397683
 20
459.2984369134795
 30
0.0
 10
276.8970501364115
 20
459.2984369134795
 30
0.0
  0
SPLINE
  5
117
330
1F
100
AcDbEntity
  8
0
  6
Continuous
 62
     7
370
    15
100
AcDbSpline
210
0.0
220
0.0
230
1.0
 70
    24
 71
     3
 72
     9
 73
     5
 74
     0
 42
0.00000001
 43
0.00000001
 40
0.0
 40
0.0
 40
0.0
 40
0.0
 40
0.1969977672690561
 40
1.0
 40
1.0
 40
1.0
 40
1.0
 10
279.3089222849252
 20
459.2984369134795
 30
0.0
 10
279.2762751661331
 20
459.2984369134795
 30
0.0
 10
279.1105518726931
 20
459.2984369134795
 30
0.0
 10
278.8652442939741
 20
459.2984369134795
 30
0.0
 10
278.668261760557
 20
459.2984369134795
 30
0.0
  0
SPLINE
  5
118
330
1F
100
AcDbEntity
  8
0
  6
Continuous
 62
     7
370
    15
100
AcDbSpline
210
0.0
220
0.0
230
1.0
 70
     8
 71
     3
 72
    13
 73
     9
 74
     0
 42
0.00000001
 43
0.00000001
 40
0.0
 40
0.0
 40
0.0
 40
0.0
 40
0.1877298953325393
 40
0.3754728305372036
 40
0.5632112368984064
 40
0.7509454828094013
 40
0.9386831605173751
 40
1.0
 40
1.0
 40
1.0
 40
1.0
 10
278.3749771059396
 20
462.9132798051726
 30
0.0
 10
278.1782910027825
 20
462.9105749428361
 30
0.0
 10
277.7849051344905
 20
462.9051650302815
 30
0.0
 10
277.2518828269554
 20
462.614643041895
 30
0.0
 10
276.8613543200062
 20
462.1597348048865
 30
0.0
 10
276.6884148308476
 20
461.5980608400935
 30
0.0
 10
276.6916707422294
 20
461.1248551756256
 30
0.0
 10
276.8190252222418
 20
460.9034317452275
 30
0.0
 10
276.8503796995523
 20
460.8489176368605
 30
0.0
  0
SPLINE
  5
119
330
1F
100
AcDbEntity
  8
0
  6
Continuous
 62
     7
370
    15
100
AcDbSpline
210
0.0
220
0.0
230
1.0
 70
     8
 71
     3
 72
    10
 73
     6
 74
     0
 42
0.00000001
 43
0.00000001
 40
0.0
 40
0.0
 40
0.0
 40
0.0
 40
0.20933945978085
 40
0.6046633240057445
 40
0.9999999999999999
 40
0.9999999999999999
 40
0.9999999999999999
 40
0.9999999999999999
 10
279.5121741236093
 20
462.1071567869078
 30
0.0
 10
279.4704659467752
 20
462.200219531038
 30
0.0
 10
279.3499946086476
 20
462.4690251745886
 30
0.0
 10
278.9432959536995
 20
462.785692678073
 30
0.0
 10
278.5644187682866
 20
462.8707503033848
 30
0.0
 10
278.3749771059396
 20
462.9132798051726
 30
0.0
  0
SPLINE
  5
11A
330
1F
100
AcDbEntity
  8
0
  6
Continuous
 62
     7
370
    15
100
AcDbSpline
210
0.0
220
0.0
230
1.0
 70
     8
 71
     3
 72
    13
 73
     9
 74
     0
 42
0.00000001
 43
0.00000001
 40
0.0
 40
0.0
 40
0.0
 40
0.0
 40
0.1768560583406532
 40
0.3537248257769643
 40
0.5305893266827663
 40
0.7074541548476563
 40
0.8843179693042006
 40
1.0
 40
1.0
 40
1.0
 40
1.0
 10
278.3577513635996
 20
442.2700902557265
 30
0.0
 10
278.1610896370333
 20
442.2727794227492
 30
0.0
 10
277.7677520515451
 20
442.2781579500415
 30
0.0
 10
277.2343632803416
 20
442.5688267777558
 30
0.0
 10
276.8452275463455
 20
443.0231977822849
 30
0.0
 10
276.6670726082404
 20
443.5868939359061
 30
0.0
 10
276.6880264878935
 20
444.1200553800791
 30
0.0
 10
276.8541346170914
 20
444.3933182924743
 30
0.0
 10
276.9198191107156
 20
444.501375231732
 30
0.0
  0
SPLINE
  5
11B
330
1F
100
AcDbEntity
  8
0
  6
Continuous
 62
     7
370
    15
100
AcDbSpline
210
0.0
220
0.0
230
1.0
 70
     8
 71
     3
 72
    10
 73
     6
 74
     0
 42
0.00000001
 43
0.00000001
 40
0.0
 40
0.0
 40
0.0
 40
0.0
 40
0.0588223105923514
 40
0.5294052587721398
 40
1.0
 40
1.0
 40
1.0
 40
1.0
 10
279.3878686369302
 20
442.8699961042296
 30
0.0
 10
279.3772341124985
 20
442.8485151519735
 30
0.0
 10
279.2815225856646
 20
442.6551849516923
 30
0.0
 10
278.9206449777355
 20
442.4010046326195
 30
0.0
 10
278.5453841356633
 20
442.3137287458826
 30
0.0
 10
278.3577513635996
 20
442.2700902557265
 30
0.0
  0
SPLINE
  5
11C
330
1F
100
AcDbEntity
  8
0
  6
Continuous
 62
     7
370
    15
100
AcDbSpline
210
0.0
220
0.0
230
1.0
 70
    24
 71
     3
 72
    12
 73
     8
 74
     0
 42
0.00000001
 43
0.00000001
 40
0.0
 40
0.0
 40
0.0
 40
0.0
 40
0.2193551470434282
 40
0.4387117280430993
 40
0.6580643098818634
 40
0.8774211343168761
 40
1.0
 40
1.0
 40
1.0
 40
1.0
 10
278.668261760557
 20
445.7398107385527
 30
0.0
 10
278.4715464394459
 20
445.7398107385527
 30
0.0
 10
278.0781145112673
 20
445.7398107385527
 30
0.0
 10
277.5172973455709
 20
445.7398107385527
 30
0.0
 10
277.0998981950725
 20
445.7398107385527
 30
0.0
 10
276.8740530484525
 20
445.7398107385527
 30
0.0
 10
276.8910254037831
 20
445.7398107385527
 30
0.0
 10
276.8971097410562
 20
445.7398107385527
 30
0.0
  0
SPLINE
  5
11D
330
1F
100
AcDbEntity
  8
0
  6
Continuous
 62
     7
370
    15
100
AcDbSpline
210
0.0
220
0.0
230
1.0
 70
    24
 71
     3
 72
     9
 73
     5
 74
     0
 42
0.00000001
 43
0.00000001
 40
0.0
 40
0.0
 40
0.0
 40
0.0
 40
0.1969977672690561
 40
1.0
 40
1.0
 40
1.0
 40
1.0
 10
279.3089222849252
 20
445.7398107385527
 30
0.0
 10
279.2762751661331
 20
445.7398107385527
 30
0.0
 10
279.1105518726931
 20
445.7398107385527
 30
0.0
 10
278.8652442939741
 20
445.7398107385527
 30
0.0
 10
278.668261760557
 20
445.7398107385527
 30
0.0
  0
SPLINE
  5
11E
330
1F
100
AcDbEntity
  8
0
  6
Continuous
 62
     7
370
    15
100
AcDbSpline
210
0.0
220
0.0
230
1.0
 70
     8
 71
     3
 72
    13
 73
     9
 74
     0
 42
0.00000001
 43
0.00000001
 40
0.0
 40
0.0
 40
0.0
 40
0.0
 40
0.1768656016236828
 40
0.3537269957702988
 40
0.530592106245929
 40
0.7074532972332674
 40
0.884317721257274
 40
1.0
 40
1.0
 40
1.0
 40
1.0
 10
276.8059146345499
 20
465.5296852922331
 30
0.0
 10
276.6092419116005
 20
465.526999303782
 30
0.0
 10
276.2159011443726
 20
465.521627390777
 30
0.0
 10
275.6825217836684
 20
465.2309385611237
 30
0.0
 10
275.2933956081384
 20
464.776582480614
 30
0.0
 10
275.1152300946693
 20
464.2128901327445
 30
0.0
 10
275.1362027283874
 20
463.6797417372837
 30
0.0
 10
275.3022802432989
 20
463.4064633067669
 30
0.0
 10
275.3679525793435
 20
463.2984003162276
 30
0.0
  0
SPLINE
  5
11F
330
1F
100
AcDbEntity
  8
0
  6
Continuous
 62
     7
370
    15
100
AcDbSpline
210
0.0
220
0.0
230
1.0
 70
     8
 71
     3
 72
    10
 73
     6
 74
     0
 42
0.00000001
 43
0.00000001
 40
0.0
 40
0.0
 40
0.0
 40
0.0
 40
0.1474532214280553
 40
0.5737397578617798
 40
1.0
 40
1.0
 40
1.0
 40
1.0
 10
277.8945040644052
 20
464.8171713685881
 30
0.0
 10
277.8664472594613
 20
464.8774635296482
 30
0.0
 10
277.7572783697005
 20
465.1120600311869
 30
0.0
 10
277.3721977770047
 20
465.4008572215421
 30
0.0
 10
276.9946718008091
 20
465.4867434849724
 30
0.0
 10
276.8059146345499
 20
465.5296852922331
 30
0.0
  0
SPLINE
  5
120
330
1F
100
AcDbEntity
  8
0
  6
Continuous
 62
     7
370
    15
100
AcDbSpline
210
0.0
220
0.0
230
1.0
 70
     8
 71
     3
 72
    13
 73
     9
 74
     0
 42
0.00000001
 43
0.00000001
 40
0.0
 40
0.0
 40
0.0
 40
0.0
 40
0.176865507979167
 40
0.353726808483495
 40
0.5305918253148695
 40
0.7074565940495948
 40
0.884321704433035
 40
1.0
 40
1.0
 40
1.0
 40
1.0
 10
276.7886888922098
 20
439.6536698675047
 30
0.0
 10
276.5920161419376
 20
439.6563558301195
 30
0.0
 10
276.1986753200648
 20
439.6617276914524
 30
0.0
 10
275.6652963691924
 20
439.9524169086424
 30
0.0
 10
275.2761659437276
 20
440.4067746603987
 30
0.0
 10
275.0980069448985
 20
440.9704783752997
 30
0.0
 10
275.1189729128977
 20
441.5036241851564
 30
0.0
 10
275.2850544368546
 20
441.7768966965724
 30
0.0
 10
275.3507268370035
 20
441.8849548435103
 30
0.0
  0
SPLINE
  5
121
330
1F
100
AcDbEntity
  8
0
  6
Continuous
 62
     7
370
    15
100
AcDbSpline
210
0.0
220
0.0
230
1.0
 70
     8
 71
     3
 72
    10
 73
     6
 74
     0
 42
0.00000001
 43
0.00000001
 40
0.0
 40
0.0
 40
0.0
 40
0.0
 40
0.1474633503720048
 40
0.57374383420109
 40
1.0
 40
1.0
 40
1.0
 40
1.0
 10
277.8772783220651
 20
440.3661986923109
 30
0.0
 10
277.8492222366218
 20
440.3059013365356
 30
0.0
 10
277.7400628692649
 20
440.0712990709051
 30
0.0
 10
277.3549686509238
 20
439.7824971152608
 30
0.0
 10
276.9774452222478
 20
439.6966114668134
 30
0.0
 10
276.7886888922098
 20
439.6536698675047
 30
0.0
  0
LINE
  5
122
330
1F
100
AcDbEntity
  8
0
  6
Continuous
 62
     7
370
    15
100
AcDbLine
 10
881.410278076
 20
72.6060470676
 30
0.0
 11
881.410278076
 21
37.6060357427
 31
0.0
  0
LINE
  5
123
330
1F
100
AcDbEntity
  8
0
  6
Continuous
 62
     7
370
    15
100
AcDbLine
 10
892.0089375914
 20
37.6060357427
 30
0.0
 11
881.410278076
 21
37.6060357427
 31
0.0
  0
LINE
  5
124
330
1F
100
AcDbEntity
  8
0
  6
Continuous
 62
     7
370
    15
100
AcDbLine
 10
892.0089375914
 20
72.6060470676
 30
0.0
 11
881.410278076
 21
72.6060470676
 31
0.0
  0
LINE
  5
125
330
1F
100
AcDbEntity
  8
0
  6
Continuous
 62
     7
370
    15
100
AcDbLine
 10
881.410278076
 20
497.6060440874
 30
0.0
 11
881.410278076
 21
462.6060327625
 31
0.0
  0
LINE
  5
126
330
1F
100
AcDbEntity
  8
0
  6
Continuous
 62
     7
370
    15
100
AcDbLine
 10
892.0089375914
 20
462.6060327625
 30
0.0
 11
881.410278076
 21
462.6060327625
 31
0.0
  0
LINE
  5
127
330
1F
100
AcDbEntity
  8
0
  6
Continuous
 62
     7
370
    15
100
AcDbLine
 10
892.0089375914
 20
497.6060440874
 30
0.0
 11
881.410278076
 21
497.6060440874
 31
0.0
  0
LINE
  5
128
330
1F
100
AcDbEntity
  8
0
  6
Continuous
 62
     7
370
    15
100
AcDbLine
 10
889.0089166106
 20
109.6060326433
 30
0.0
 11
884.0089213789
 21
109.6060326433
 31
0.0
  0
LINE
  5
129
330
1F
100
AcDbEntity
  8
0
  6
Continuous
 62
     7
370
    15
100
AcDbLine
 10
884.0089213789
 20
425.6060471868
 30
0.0
 11
889.0089166106
 21
425.6060471868
 31
0.0
  0
LINE
  5
12A
330
1F
100
AcDbEntity
  8
0
  6
Continuous
 62
     7
370
    15
100
AcDbLine
 10
880.9467625559
 20
37.6060357427
 30
0.0
 11
880.9467625559
 21
72.6060470676
 31
0.0
  0
LINE
  5
12B
330
1F
100
AcDbEntity
  8
0
  6
Continuous
 62
     7
370
    15
100
AcDbLine
 10
881.410278076
 20
37.6060357427
 30
0.0
 11
880.9467625559
 21
37.6060357427
 31
0.0
  0
LINE
  5
12C
330
1F
100
AcDbEntity
  8
0
  6
Continuous
 62
     7
370
    15
100
AcDbLine
 10
880.9467625559
 20
72.6060470676
 30
0.0
 11
881.410278076
 21
72.6060470676
 31
0.0
  0
LINE
  5
12D
330
1F
100
AcDbEntity
  8
0
  6
Continuous
 62
     7
370
    15
100
AcDbLine
 10
880.9467625559
 20
462.6060327625
 30
0.0
 11
880.9467625559
 21
497.6060440874
 31
0.0
  0
LINE
  5
12E
330
1F
100
AcDbEntity
  8
0
  6
Continuous
 62
     7
370
    15
100
AcDbLine
 10
881.410278076
 20
462.6060327625
 30
0.0
 11
880.9467625559
 21
462.6060327625
 31
0.0
  0
LINE
  5
12F
330
1F
100
AcDbEntity
  8
0
  6
Continuous
 62
     7
370
    15
100
AcDbLine
 10
880.9467625559
 20
497.6060440874
 30
0.0
 11
881.410278076
 21
497.6060440874
 31
0.0
  0
LINE
  5
130
330
1F
100
AcDbEntity
  8
0
  6
Continuous
 62
     7
370
    15
100
AcDbLine
 10
880.9467625559
 20
462.6060327625
 30
0.0
 11
880.5089366377
 21
462.6060327625
 31
0.0
  0
LINE
  5
131
330
1F
100
AcDbEntity
  8
0
  6
Continuous
 62
     7
370
    15
100
AcDbLine
 10
880.9467625559
 20
497.6060440874
 30
0.0
 11
880.5089366377
 21
497.6060440874
 31
0.0
  0
LINE
  5
132
330
1F
100
AcDbEntity
  8
0
  6
Continuous
 62
     7
370
    15
100
AcDbLine
 10
880.9467625559
 20
37.6060357427
 30
0.0
 11
880.5089366377
 21
37.6060357427
 31
0.0
  0
LINE
  5
133
330
1F
100
AcDbEntity
  8
0
  6
Continuous
 62
     7
370
    15
100
AcDbLine
 10
880.9467625559
 20
72.6060470676
 30
0.0
 11
880.5089366377
 21
72.6060470676
 31
0.0
  0
LINE
  5
134
330
1F
100
AcDbEntity
  8
0
  6
Continuous
 62
     7
370
    15
100
AcDbLine
 10
275.3089141787
 20
89.3560400343
 30
0.0
 11
276.869006151
 21
89.3560400343
 31
0.0
  0
LINE
  5
135
330
1F
100
AcDbEntity
  8
0
  6
Continuous
 62
     7
370
    15
100
AcDbLine
 10
275.3089141787
 20
75.8560350275
 30
0.0
 11
276.8684399069
 21
75.8560350275
 31
0.0
  0
LINE
  5
136
330
1F
100
AcDbEntity
  8
0
  6
Continuous
 62
     7
370
    15
100
AcDbLine
 10
275.3089141787
 20
75.8560350275
 30
0.0
 11
272.2089362086
 21
75.8560350275
 31
0.0
  0
LINE
  5
137
330
1F
100
AcDbEntity
  8
0
  6
Continuous
 62
     7
370
    15
100
AcDbLine
 10
275.3089141787
 20
89.3560400343
 30
0.0
 11
272.2089362086
 21
89.3560400343
 31
0.0
  0
LINE
  5
138
330
1F
100
AcDbEntity
  8
0
  6
Continuous
 62
     7
370
    15
100
AcDbLine
 10
275.3089141787
 20
445.8560397959
 30
0.0
 11
272.2089362086
 21
445.8560397959
 31
0.0
  0
LINE
  5
139
330
1F
100
AcDbEntity
  8
0
  6
Continuous
 62
     7
370
    15
100
AcDbLine
 10
275.3089141787
 20
445.8560397959
 30
0.0
 11
276.8684399069
 21
445.8560397959
 31
0.0
  0
LINE
  5
13A
330
1F
100
AcDbEntity
  8
0
  6
Continuous
 62
     7
370
    15
100
AcDbLine
 10
275.3089141787
 20
459.3560448027
 30
0.0
 11
276.869006151
 21
459.3560448027
 31
0.0
  0
LINE
  5
13B
330
1F
100
AcDbEntity
  8
0
  6
Continuous
 62
     7
370
    15
100
AcDbLine
 10
275.3089141787
 20
459.3560448027
 30
0.0
 11
272.2089362086
 21
459.3560448027
 31
0.0
  0
LINE
  5
13C
330
1F
100
AcDbEntity
  8
0
  6
Continuous
 62
     8
370
    15
100
AcDbLine
 10
275.3089141787
 20
76.10604671
 30
0.0
 11
275.3089141787
 21
75.8560350275
 31
0.0
  0
LINE
  5
13D
330
1F
100
AcDbEntity
  8
0
  6
Continuous
 62
     8
370
    15
100
AcDbLine
 10
275.3089141787
 20
89.3560400343
 30
0.0
 11
275.3089141787
 21
89.1060432529
 31
0.0
  0
LINE
  5
13E
330
1F
100
AcDbEntity
  8
0
  6
Continuous
 62
     8
370
    15
100
AcDbLine
 10
275.3089141787
 20
446.1060365772
 30
0.0
 11
275.3089141787
 21
445.8560397959
 31
0.0
  0
LINE
  5
13F
330
1F
100
AcDbEntity
  8
0
  6
Continuous
 62
     8
370
    15
100
AcDbLine
 10
275.3089141787
 20
459.3560448027
 30
0.0
 11
275.3089141787
 21
459.1060331201
 31
0.0
  0
LINE
  5
140
330
1F
100
AcDbEntity
  8
0
  6
Continuous
 62
     7
370
    15
100
AcDbLine
 10
215.9164450034
 20
89.1060432529
 30
0.0
 11
215.9164450034
 21
76.10604671
 31
0.0
  0
LINE
  5
141
330
1F
100
AcDbEntity
  8
0
  6
Continuous
 62
     7
370
    15
100
AcDbLine
 10
215.9164450034
 20
459.1060331201
 30
0.0
 11
215.9164450034
 21
446.1060365772
 31
0.0
  0
SPLINE
  5
142
330
1F
100
AcDbEntity
  8
0
  6
Continuous
 62
     7
370
    15
100
AcDbSpline
210
0.0
220
0.0
230
1.0
 70
     8
 71
     3
 72
    15
 73
    11
 74
     0
 42
0.00000001
 43
0.00000001
 40
0.0
 40
0.0
 40
0.0
 40
0.0
 40
0.1356094709088844
 40
0.2953382916724378
 40
0.4038142056556964
 40
0.5319711262403176
 40
0.6738493689946979
 40
0.8261180522725436
 40
0.9126194672532787
 40
1.0
 40
1.0
 40
1.0
 40
1.0
 10
204.8964402541351
 20
77.17209068297254
 30
0.0
 10
204.9408213887043
 20
77.1647639853856
 30
0.0
 10
205.0374772371366
 20
77.1488074719176
 30
0.0
 10
205.2443243179829
 20
77.19647761753409
 30
0.0
 10
205.4376095754131
 20
77.28420830366633
 30
0.0
 10
205.5841716339225
 20
77.40385880527725
 30
0.0
 10
205.6828898517881
 20
77.55477395154998
 30
0.0
 10
205.712546438693
 20
77.67660856061029
 30
0.0
 10
205.691370122989
 20
77.80586057005495
 30
0.0
 10
205.6451169800466
 20
77.87252948536849
 30
0.0
 10
205.6218734845352
 20
77.90603247641431
 30
0.0
  0
SPLINE
  5
143
330
1F
100
AcDbEntity
  8
0
  6
Continuous
 62
     7
370
    15
100
AcDbSpline
210
0.0
220
0.0
230
1.0
 70
     8
 71
     3
 72
    20
 73
    16
 74
     0
 42
0.00000001
 43
0.00000001
 40
0.0
 40
0.0
 40
0.0
 40
0.0
 40
0.0776666135413166
 40
0.24049633621745
 40
0.4018018431704503
 40
0.4801528121320449
 40
0.55578755987601
 40
0.6296660401619265
 40
0.7057472385656588
 40
0.7826437066842188
 40
0.8592457487557023
 40
0.9343113649868418
 40
0.9709082443897369
 40
0.9894266297833939
 40
1.0
 40
1.0
 40
1.0
 40
1.0
 10
201.1167011126709
 20
77.9503932332884
 30
0.0
 10
201.176568516761
 20
77.87975982700162
 30
0.0
 10
201.36194921879
 20
77.66104196804032
 30
0.0
 10
201.7953441887506
 20
77.6334928084399
 30
0.0
 10
202.3612138630741
 20
77.56101243836162
 30
0.0
 10
202.8807125386716
 20
77.51775357367805
 30
0.0
 10
203.2746290671926
 20
77.48725356546127
 30
0.0
 10
203.6675348043393
 20
77.45956599318559
 30
0.0
 10
204.0486973450784
 20
77.42826074057923
 30
0.0
 10
204.4044182623341
 20
77.39578116544479
 30
0.0
 10
204.7070577240674
 20
77.3649643190063
 30
0.0
 10
204.8995410568164
 20
77.34207325959986
 30
0.0
 10
204.9876812642154
 20
77.33403107594685
 30
0.0
 10
205.0331026659321
 20
77.32623958599343
 30
0.0
 10
205.0325533820689
 20
77.33019853846032
 30
0.0
 10
205.0323537453842
 20
77.33163741587506
 30
0.0
  0
SPLINE
  5
144
330
1F
100
AcDbEntity
  8
0
  6
Continuous
 62
     7
370
    15
100
AcDbSpline
210
0.0
220
0.0
230
1.0
 70
     8
 71
     3
 72
    18
 73
    14
 74
     0
 42
0.00000001
 43
0.00000001
 40
0.0
 40
0.0
 40
0.0
 40
0.0
 40
0.0355477517306442
 40
0.1421398801289524
 40
0.2612157487684126
 40
0.3785075845954351
 40
0.4914158794834333
 40
0.5995808805575928
 40
0.7135791290030058
 40
0.831698002856884
 40
0.8924676421440582
 40
0.953237660408129
 40
1.0
 40
1.0
 40
1.0
 40
1.0
 10
205.4781219824982
 20
86.50604394434797
 30
0.0
 10
205.4488147617365
 20
86.52600276797354
 30
0.0
 10
205.3316280299978
 20
86.60580935656311
 30
0.0
 10
205.0835733028409
 20
86.62495678548125
 30
0.0
 10
204.6910175716601
 20
86.67956314966699
 30
0.0
 10
204.1794586234166
 20
86.72634806912575
 30
0.0
 10
203.628339015445
 20
86.77219763744759
 30
0.0
 10
203.0662452872467
 20
86.8111585647019
 30
0.0
 10
202.5319616672899
 20
86.85588837620945
 30
0.0
 10
202.1343229101724
 20
86.89693616686056
 30
0.0
 10
201.9196059030181
 20
86.91808257544201
 30
0.0
 10
201.8235377654564
 20
86.92035051992073
 30
0.0
 10
201.8080951573181
 20
86.90428855997028
 30
0.0
 10
201.8013796672058
 20
86.89730373381482
 30
0.0
  0
SPLINE
  5
145
330
1F
100
AcDbEntity
  8
0
  6
Continuous
 62
     7
370
    15
100
AcDbSpline
210
0.0
220
0.0
230
1.0
 70
     8
 71
     3
 72
    12
 73
     8
 74
     0
 42
0.00000001
 43
0.00000001
 40
0.0
 40
0.0
 40
0.0
 40
0.0
 40
0.2236735179102078
 40
0.4523033260044015
 40
0.6822306951024003
 40
0.9102237881699555
 40
1.0
 40
1.0
 40
1.0
 40
1.0
 10
201.1021426781845
 20
87.70789710043775
 30
0.0
 10
201.0894099627141
 20
87.66534856352715
 30
0.0
 10
201.0636623927282
 20
87.5793086740441
 30
0.0
 10
201.184785451759
 20
87.48768627124167
 30
0.0
 10
201.416471706367
 20
87.39139166636065
 30
0.0
 10
201.66131224571
 20
87.32888945031993
 30
0.0
 10
201.8446519315372
 20
87.33411520682446
 30
0.0
 10
201.8964490756225
 20
87.33559158800946
 30
0.0
  0
SPLINE
  5
146
330
1F
100
AcDbEntity
  8
0
  6
Continuous
 62
     7
370
    15
100
AcDbSpline
210
0.0
220
0.0
230
1.0
 70
     8
 71
     3
 72
    19
 73
    15
 74
     0
 42
0.00000001
 43
0.00000001
 40
0.0
 40
0.0
 40
0.0
 40
0.0
 40
0.0979014274624083
 40
0.1753765650578146
 40
0.2884796555249647
 40
0.3734508642955646
 40
0.4570015574762394
 40
0.6168864159432278
 40
0.6796647160294805
 40
0.7634254508799037
 40
0.8137514698847786
 40
0.8702950732440567
 40
0.9323967210878519
 40
1.0
 40
1.0
 40
1.0
 40
1.0
 10
201.2783787116241
 20
87.21276131628858
 30
0.0
 10
201.3288911415302
 20
87.18638599806764
 30
0.0
 10
201.419377017776
 20
87.13913834466977
 30
0.0
 10
201.7939994822191
 20
87.07849233614346
 30
0.0
 10
202.2805275966146
 20
87.02460570387063
 30
0.0
 10
202.8718415762143
 20
86.97135735893336
 30
0.0
 10
203.6259566711861
 20
86.91981427486891
 30
0.0
 10
204.2670341600947
 20
86.85287316348445
 30
0.0
 10
204.916330529879
 20
86.81735752280193
 30
0.0
 10
205.2946351989631
 20
86.89553158373728
 30
0.0
 10
205.5465092974413
 20
87.00374610342327
 30
0.0
 10
205.6800870267571
 20
87.09208344892983
 30
0.0
 10
205.7418637611247
 20
87.16592554002139
 30
0.0
 10
205.6704203577112
 20
87.24643658763972
 30
0.0
 10
205.6331834658813
 20
87.28839961050855
 30
0.0
  0
SPLINE
  5
147
330
1F
100
AcDbEntity
  8
0
  6
Continuous
 62
     7
370
    15
100
AcDbSpline
210
0.0
220
0.0
230
1.0
 70
     8
 71
     3
 72
    25
 73
    21
 74
     0
 42
0.00000001
 43
0.00000001
 40
0.0
 40
0.0
 40
0.0
 40
0.0
 40
0.0176266494183487
 40
0.0344978090481336
 40
0.0503138816146049
 40
0.0649744754301906
 40
0.0909465346988427
 40
0.1134378486501592
 40
0.1538406482312352
 40
0.1912354900355065
 40
0.2995715948923175
 40
0.399964208916232
 40
0.5012963208094918
 40
0.5949066153688873
 40
0.6784878764957784
 40
0.7336317608373571
 40
0.8075188116897705
 40
0.8952855735385565
 40
0.9453088350413977
 40
0.9999999999999999
 40
0.9999999999999999
 40
0.9999999999999999
 40
0.9999999999999999
 10
205.2758685216141
 20
86.66281906126844
 30
0.0
 10
205.3155804625728
 20
86.66720901917205
 30
0.0
 10
205.3933022645789
 20
86.67580077849577
 30
0.0
 10
205.4951632087245
 20
86.72181157133501
 30
0.0
 10
205.5761950359578
 20
86.78077413002316
 30
0.0
 10
205.6523798956
 20
86.86435214977381
 30
0.0
 10
205.7054329112269
 20
86.96799684267567
 30
0.0
 10
205.7296120197648
 20
87.10033488948912
 30
0.0
 10
205.7067024839182
 20
87.23218783627723
 30
0.0
 10
205.5354770229709
 20
87.47742118941404
 30
0.0
 10
205.1926813098334
 20
87.56448063286179
 30
0.0
 10
204.69757067169
 20
87.62304386793492
 30
0.0
 10
204.0843581332005
 20
87.68140766223881
 30
0.0
 10
203.4348898304622
 20
87.73103364853723
 30
0.0
 10
202.8951820242489
 20
87.77049888010221
 30
0.0
 10
202.4491881071878
 20
87.80967768522041
 30
0.0
 10
202.0604555865238
 20
87.84790136403115
 30
0.0
 10
201.8003207451972
 20
87.87576064853359
 30
0.0
 10
201.6698677936506
 20
87.89824627531509
 30
0.0
 10
201.6612108277512
 20
87.91070609060576
 30
0.0
 10
201.6566893920135
 20
87.91721371172773
 30
0.0
  0
SPLINE
  5
148
330
1F
100
AcDbEntity
  8
0
  6
Continuous
 62
     7
370
    15
100
AcDbSpline
210
0.0
220
0.0
230
1.0
 70
     8
 71
     3
 72
    12
 73
     8
 74
     0
 42
0.00000001
 43
0.00000001
 40
0.0
 40
0.0
 40
0.0
 40
0.0
 40
0.1756318511349319
 40
0.5722723889625145
 40
0.7585642700571542
 40
0.9206915377643191
 40
1.0
 40
1.0
 40
1.0
 40
1.0
 10
201.7450085744095
 20
87.09873763083326
 30
0.0
 10
201.6794511213187
 20
87.08956021089057
 30
0.0
 10
201.4658411180527
 20
87.05965684199028
 30
0.0
 10
201.2498963961404
 20
86.98576553969983
 30
0.0
 10
201.0887639158666
 20
86.7707925361188
 30
0.0
 10
201.0575320807178
 20
86.61058142402739
 30
0.0
 10
201.0885322599172
 20
86.53189229004383
 30
0.0
 10
201.0987154111099
 20
86.50604394434797
 30
0.0
  0
SPLINE
  5
149
330
1F
100
AcDbEntity
  8
0
  6
Continuous
 62
     7
370
    15
100
AcDbSpline
210
0.0
220
0.0
230
1.0
 70
     8
 71
     3
 72
    11
 73
     7
 74
     0
 42
0.00000001
 43
0.00000001
 40
0.0
 40
0.0
 40
0.0
 40
0.0
 40
0.3513064292408388
 40
0.6843352314269895
 40
0.9949605989764689
 40
0.9999999999999999
 40
0.9999999999999999
 40
0.9999999999999999
 40
0.9999999999999999
 10
205.3209594353867
 20
86.69329193590983
 30
0.0
 10
205.3616539706385
 20
86.69497115267092
 30
0.0
 10
205.4409258025249
 20
86.69824222059097
 30
0.0
 10
205.533580990567
 20
86.7451657578764
 30
0.0
 10
205.5847452181546
 20
86.78512178542869
 30
0.0
 10
205.5977495149251
 20
86.80847757955148
 30
0.0
 10
205.5979571208191
 20
86.80885044096814
 30
0.0
  0
LINE
  5
14A
330
1F
100
AcDbEntity
  8
0
  6
Continuous
 62
     7
370
    15
100
AcDbLine
 10
201.2562057838
 20
77.8082957601
 30
0.0
 11
200.1377395257
 21
77.8082957601
 31
0.0
  0
LINE
  5
14B
330
1F
100
AcDbEntity
  8
0
  6
Continuous
 62
     7
370
    15
100
AcDbLine
 10
200.1377395257
 20
77.0082971191
 30
0.0
 11
201.8964490756
 21
77.0082971191
 31
0.0
  0
LINE
  5
14C
330
1F
100
AcDbEntity
  8
0
  6
Continuous
 62
     7
370
    15
100
AcDbLine
 10
198.7274489268
 20
90.6060388422
 30
0.0
 11
198.7274489268
 21
90.6595042086
 31
0.0
  0
LINE
  5
14D
330
1F
100
AcDbEntity
  8
0
  6
Continuous
 62
     7
370
    15
100
AcDbLine
 10
195.7274577483
 20
90.6595042086
 30
0.0
 11
195.7274577483
 21
90.6060388422
 31
0.0
  0
SPLINE
  5
14E
330
1F
100
AcDbEntity
  8
0
  6
Continuous
 62
     7
370
    15
100
AcDbSpline
210
0.0
220
0.0
230
1.0
 70
     8
 71
     3
 72
    15
 73
    11
 74
     0
 42
0.00000001
 43
0.00000001
 40
0.0
 40
0.0
 40
0.0
 40
0.0
 40
0.10775558395448
 40
0.2352512525116226
 40
0.3627904438124229
 40
0.4902569714009369
 40
0.6176632515021261
 40
0.7450970725045022
 40
0.872496392135661
 40
1.0
 40
1.0
 40
1.0
 40
1.0
 10
195.7435062989425
 20
74.606036219586
 30
0.0
 10
195.7600454238364
 20
74.29351399475718
 30
0.0
 10
195.796153527973
 20
73.61121761501902
 30
0.0
 10
196.1323662144122
 20
72.602069443129
 30
0.0
 10
196.6904464060512
 20
71.63859006955167
 30
0.0
 10
197.4452702144368
 20
70.81766401807485
 30
0.0
 10
198.3604354781499
 20
70.18239775759075
 30
0.0
 10
199.3876888046267
 20
69.76223743570881
 30
0.0
 10
200.4836712322117
 20
69.54843579602965
 30
0.0
 10
201.2194291354588
 20
69.61396036878966
 30
0.0
 10
201.5874585971069
 20
69.64673605917798
 30
0.0
  0
SPLINE
  5
14F
330
1F
100
AcDbEntity
  8
0
  6
Continuous
 62
     7
370
    15
100
AcDbSpline
210
0.0
220
0.0
230
1.0
 70
     8
 71
     3
 72
    15
 73
    11
 74
     0
 42
0.00000001
 43
0.00000001
 40
0.0
 40
0.0
 40
0.0
 40
0.0
 40
0.1316509291461834
 40
0.2633118991814027
 40
0.3951919226063761
 40
0.5266715637211037
 40
0.6575475181541965
 40
0.7882152779784374
 40
0.9184602473323468
 40
0.9999999999999999
 40
0.9999999999999999
 40
0.9999999999999999
 40
0.9999999999999999
 10
201.0897747143936
 20
72.60442284106122
 30
0.0
 10
200.937590698383
 20
72.59260788652902
 30
0.0
 10
200.6332110594342
 20
72.56897707634948
 30
0.0
 10
200.1823489049956
 20
72.67045090794588
 30
0.0
 10
199.7633207792414
 20
72.85731729972375
 30
0.0
 10
199.3929222353034
 20
73.12990498808163
 30
0.0
 10
199.0906709634159
 20
73.47582422125026
 30
0.0
 10
198.8715007816184
 20
73.87752640847583
 30
0.0
 10
198.7541437639443
 20
74.2638418884611
 30
0.0
 10
198.7439609269714
 20
74.5109113884455
 30
0.0
 10
198.7400404080581
 20
74.606036219586
 30
0.0
  0
SPLINE
  5
150
330
1F
100
AcDbEntity
  8
0
  6
Continuous
 62
     7
370
    15
100
AcDbSpline
210
0.0
220
0.0
230
1.0
 70
     8
 71
     3
 72
    15
 73
    11
 74
     0
 42
0.00000001
 43
0.00000001
 40
0.0
 40
0.0
 40
0.0
 40
0.0
 40
0.1249271744002042
 40
0.2499159491389391
 40
0.3749663957929265
 40
0.4999576941663553
 40
0.6249203967106692
 40
0.749916901807382
 40
0.8748746040201251
 40
1.0
 40
1.0
 40
1.0
 40
1.0
 10
201.7583302125168
 20
95.53656486033307
 30
0.0
 10
201.3919533045755
 20
95.57989737764994
 30
0.0
 10
200.6590188319091
 20
95.66658377911399
 30
0.0
 10
199.5549988101926
 20
95.50138521901694
 30
0.0
 10
198.5141954382822
 20
95.11246191484399
 30
0.0
 10
197.5790069884922
 20
94.50744238618944
 30
0.0
 10
196.7983691022681
 20
93.71124285357885
 30
0.0
 10
196.2103917713281
 20
92.76688843820394
 30
0.0
 10
195.8145731925734
 20
91.71843886456618
 30
0.0
 10
195.7565092080595
 20
90.9793187029001
 30
0.0
 10
195.7274577483368
 20
90.60951081274854
 30
0.0
  0
SPLINE
  5
151
330
1F
100
AcDbEntity
  8
0
  6
Continuous
 62
     7
370
    15
100
AcDbSpline
210
0.0
220
0.0
230
1.0
 70
     8
 71
     3
 72
    15
 73
    11
 74
     0
 42
0.00000001
 43
0.00000001
 40
0.0
 40
0.0
 40
0.0
 40
0.0
 40
0.124254644348219
 40
0.2486322988689387
 40
0.3735406391492648
 40
0.4985806003485738
 40
0.6236628936600852
 40
0.749069270406247
 40
0.8744363211277142
 40
1.0
 40
1.0
 40
1.0
 40
1.0
 10
198.7274489268493
 20
90.60951081274854
 30
0.0
 10
198.7410120145229
 20
90.76146894336742
 30
0.0
 10
198.7681516171167
 20
91.06553564079981
 30
0.0
 10
198.9426102732679
 20
91.49285008460545
 30
0.0
 10
199.1959404946057
 20
91.87448901056422
 30
0.0
 10
199.5257596911123
 20
92.1944241332702
 30
0.0
 10
199.9166905311461
 20
92.43499455764196
 30
0.0
 10
200.3493874192273
 20
92.58662586653976
 30
0.0
 10
200.8069173677506
 20
92.64008741124388
 30
0.0
 10
201.1088377100622
 20
92.59939116025335
 30
0.0
 10
201.259916172905
 20
92.57902709006177
 30
0.0
  0
LINE
  5
152
330
1F
100
AcDbEntity
  8
0
  6
Continuous
 62
     7
370
    15
100
AcDbLine
 10
216.6305086478
 20
75.2211710548
 30
0.0
 11
201.089551197
 21
72.6047655678
 31
0.0
  0
LINE
  5
153
330
1F
100
AcDbEntity
  8
0
  6
Continuous
 62
     7
370
    15
100
AcDbLine
 10
201.5876076087
 20
69.6463933325
 30
0.0
 11
217.1285799607
 21
72.2628137207
 31
0.0
  0
LINE
  5
154
330
1F
100
AcDbEntity
  8
0
  6
Continuous
 62
     7
370
    15
100
AcDbLine
 10
201.2601247892
 20
92.5786098575
 30
0.0
 11
216.8010971412
 21
89.9621894693
 31
0.0
  0
LINE
  5
155
330
1F
100
AcDbEntity
  8
0
  6
Continuous
 62
     7
370
    15
100
AcDbLine
 10
217.2991535529
 20
92.9205468035
 30
0.0
 11
201.7581961021
 21
95.5369671917
 31
0.0
  0
SPLINE
  5
156
330
1F
100
AcDbEntity
  8
0
  6
Continuous
 62
     7
370
    15
100
AcDbSpline
210
0.0
220
0.0
230
1.0
 70
     8
 71
     3
 72
    12
 73
     8
 74
     0
 42
0.00000001
 43
0.00000001
 40
0.0
 40
0.0
 40
0.0
 40
0.0
 40
0.1526143823602427
 40
0.2973901242399282
 40
0.5623703418308169
 40
0.7966014658115127
 40
1.0
 40
1.0
 40
1.0
 40
1.0
 10
217.1282223328781
 20
72.26311174391614
 30
0.0
 10
217.3794411404599
 20
72.315856903974
 30
0.0
 10
217.8689755555179
 20
72.41863810624393
 30
0.0
 10
218.7185085475534
 20
72.84786089550538
 30
0.0
 10
219.5304903591953
 20
73.59226635960786
 30
0.0
 10
220.0949424446469
 20
74.6633023238999
 30
0.0
 10
220.1766295608793
 20
75.39823087830122
 30
0.0
 10
220.2145955428315
 20
75.73980597018107
 30
0.0
  0
SPLINE
  5
157
330
1F
100
AcDbEntity
  8
0
  6
Continuous
 62
     7
370
    15
100
AcDbSpline
210
0.0
220
0.0
230
1.0
 70
     8
 71
     3
 72
    11
 73
     7
 74
     0
 42
0.00000001
 43
0.00000001
 40
0.0
 40
0.0
 40
0.0
 40
0.0
 40
0.2003624455425825
 40
0.4328096834642056
 40
0.6990173802634269
 40
1.0
 40
1.0
 40
1.0
 40
1.0
 10
217.2162732943725
 20
75.7398059701811
 30
0.0
 10
217.2030461329351
 20
75.68337707882073
 30
0.0
 10
217.1744736949246
 20
75.56148312538153
 30
0.0
 10
217.0585878033346
 20
75.39579405319344
 30
0.0
 10
216.8738399458411
 20
75.2568646023645
 30
0.0
 10
216.7162211687459
 20
75.2334870649605
 30
0.0
 10
216.6325799092483
 20
75.22108164786206
 30
0.0
  0
SPLINE
  5
158
330
1F
100
AcDbEntity
  8
0
  6
Continuous
 62
     7
370
    15
100
AcDbSpline
210
0.0
220
0.0
230
1.0
 70
     8
 71
     3
 72
    12
 73
     8
 74
     0
 42
0.00000001
 43
0.00000001
 40
0.0
 40
0.0
 40
0.0
 40
0.0
 40
0.2034077986152291
 40
0.4376400377344393
 40
0.7026160208210837
 40
0.8473893807424194
 40
1.0
 40
1.0
 40
1.0
 40
1.0
 10
220.2145955428314
 20
89.29843214510785
 30
0.0
 10
220.1931548175859
 20
89.64144276858052
 30
0.0
 10
220.1470242371983
 20
90.37944388368949
 30
0.0
 10
219.634925246363
 20
91.47655236859748
 30
0.0
 10
218.8597262533786
 20
92.25931602263704
 30
0.0
 10
218.0318668605127
 20
92.72903121573745
 30
0.0
 10
217.5478813927681
 20
92.85530101264588
 30
0.0
 10
217.2995111808014
 20
92.92009976862775
 30
0.0
  0
SPLINE
  5
159
330
1F
100
AcDbEntity
  8
0
  6
Continuous
 62
     7
370
    15
100
AcDbSpline
210
0.0
220
0.0
230
1.0
 70
     8
 71
     3
 72
    12
 73
     8
 74
     0
 42
0.00000001
 43
0.00000001
 40
0.0
 40
0.0
 40
0.0
 40
0.0
 40
0.1555610649926968
 40
0.3022033035601834
 40
0.5679682974897053
 40
0.7999333966037685
 40
1.0
 40
1.0
 40
1.0
 40
1.0
 10
216.7991748913956
 20
89.96309844015943
 30
0.0
 10
216.8397214419064
 20
89.9473489827673
 30
0.0
 10
216.9184898761087
 20
89.91675303606684
 30
0.0
 10
217.0481283705715
 20
89.82170688046776
 30
0.0
 10
217.1625540883844
 20
89.6755439439224
 30
0.0
 10
217.2266932285287
 20
89.48128307112343
 30
0.0
 10
217.2195713269961
 20
89.35630662974731
 30
0.0
 10
217.2162732943725
 20
89.29843214510785
 30
0.0
  0
LINE
  5
15A
330
1F
100
AcDbEntity
  8
0
  6
Continuous
 62
     7
370
    15
100
AcDbLine
 10
217.2154388293
 20
89.3484404421
 30
0.0
 11
217.2154388293
 21
89.1060432529
 31
0.0
  0
LINE
  5
15B
330
1F
100
AcDbEntity
  8
0
  6
Continuous
 62
     7
370
    15
100
AcDbLine
 10
217.2154388293
 20
76.10604671
 30
0.0
 11
217.2154388293
 21
75.6897976732
 31
0.0
  0
LINE
  5
15C
330
1F
100
AcDbEntity
  8
0
  6
Continuous
 62
     7
370
    15
100
AcDbLine
 10
220.2154300079
 20
75.6897976732
 30
0.0
 11
220.2154300079
 21
76.1087885237
 31
0.0
  0
LINE
  5
15D
330
1F
100
AcDbEntity
  8
0
  6
Continuous
 62
     7
370
    15
100
AcDbLine
 10
220.2154300079
 20
89.1033014393
 30
0.0
 11
220.2154300079
 21
89.3484404421
 31
0.0
  0
LINE
  5
15E
330
1F
100
AcDbEntity
  8
0
  6
Continuous
 62
     7
370
    15
100
AcDbLine
 10
206.5147212609
 20
88.2060429191
 30
0.0
 11
204.8964402541
 21
88.2060429191
 31
0.0
  0
LINE
  5
15F
330
1F
100
AcDbEntity
  8
0
  6
Continuous
 62
     7
370
    15
100
AcDbLine
 10
205.5233619079
 20
87.4060442781
 30
0.0
 11
206.5147212609
 21
87.4060442781
 31
0.0
  0
LINE
  5
160
330
1F
100
AcDbEntity
  8
0
  6
Continuous
 62
     7
370
    15
100
AcDbLine
 10
206.8529478177
 20
89.4741764402
 30
0.0
 11
206.5864256486
 21
88.265930686
 31
0.0
  0
LINE
  5
161
330
1F
100
AcDbEntity
  8
0
  6
Continuous
 62
     7
370
    15
100
AcDbLine
 10
207.3545805082
 20
88.0343815422
 30
0.0
 11
207.6341560945
 21
89.301844511
 31
0.0
  0
SPLINE
  5
162
330
1F
100
AcDbEntity
  8
0
  6
Continuous
 62
     7
370
    15
100
AcDbSpline
210
0.0
220
0.0
230
1.0
 70
     8
 71
     3
 72
    11
 73
     7
 74
     0
 42
0.00000001
 43
0.00000001
 40
0.0
 40
0.0
 40
0.0
 40
0.0
 40
0.2541311630691059
 40
0.5022676364033828
 40
0.7495179365131207
 40
1.0
 40
1.0
 40
1.0
 40
1.0
 10
206.5147212609482
 20
87.40604427813398
 30
0.0
 10
206.6148096942436
 20
87.4162894023863
 30
0.0
 10
206.8126255788266
 20
87.436537979069
 30
0.0
 10
207.0707771659759
 20
87.59056361597258
 30
0.0
 10
207.2742185832483
 20
87.80964484722045
 30
0.0
 10
207.3359545628776
 20
87.99669487261097
 30
0.0
 10
207.3670229777527
 20
88.09082714079724
 30
0.0
  0
LINE
  5
163
330
1F
100
AcDbEntity
  8
0
  6
Continuous
 62
     7
370
    15
100
AcDbLine
 10
206.1264417037
 20
74.6060362196
 30
0.0
 11
206.1264417037
 21
75.4060348606
 31
0.0
  0
LINE
  5
164
330
1F
100
AcDbEntity
  8
0
  6
Continuous
 62
     7
370
    15
100
AcDbLine
 10
206.1264417037
 20
89.8060402012
 30
0.0
 11
206.1264417037
 21
90.6060388422
 31
0.0
  0
LINE
  5
165
330
1F
100
AcDbEntity
  8
0
  6
Continuous
 62
     7
370
    15
100
AcDbLine
 10
201.1964521274
 20
90.9060439205
 30
0.0
 11
201.1964521274
 21
90.6060388422
 31
0.0
  0
LINE
  5
166
330
1F
100
AcDbEntity
  8
0
  6
Continuous
 62
     7
370
    15
100
AcDbLine
 10
205.5964521035
 20
90.6060388422
 30
0.0
 11
205.5964521035
 21
90.9060439205
 31
0.0
  0
ARC
  5
167
330
1F
100
AcDbEntity
  8
0
  6
Continuous
 62
     7
370
    15
100
AcDbCircle
 10
203.3964448365
 20
87.798897058
 30
0.0
 40
3.807142857143322
100
AcDbArc
 50
54.6997515601
 51
125.3002484399
  0
LINE
  5
168
330
1F
100
AcDbEntity
  8
0
  6
Continuous
 62
     7
370
    15
100
AcDbLine
 10
201.296438919
 20
74.2060443497
 30
0.0
 11
201.296438919
 21
73.8060375786
 31
0.0
  0
LINE
  5
169
330
1F
100
AcDbEntity
  8
0
  6
Continuous
 62
     7
370
    15
100
AcDbLine
 10
205.4964504108
 20
73.8060375786
 30
0.0
 11
205.4964504108
 21
74.2060443497
 31
0.0
  0
ARC
  5
16A
330
1F
100
AcDbEntity
  8
0
  6
Continuous
 62
     7
370
    15
100
AcDbCircle
 10
201.4964448365
 20
74.6060399151
 30
0.0
 40
0.4000000000007731
100
AcDbArc
 50
270.0
 51
0.0
  0
ARC
  5
16B
330
1F
100
AcDbEntity
  8
0
  6
Continuous
 62
     7
370
    15
100
AcDbCircle
 10
205.2964448365
 20
74.6060399151
 30
0.0
 40
0.4000000000008015
100
AcDbArc
 50
180.0
 51
270.0
  0
LINE
  5
16C
330
1F
100
AcDbEntity
  8
0
  6
Continuous
 62
     7
370
    15
100
AcDbLine
 10
201.8964490756
 20
89.8060402012
 30
0.0
 11
201.8964490756
 21
89.3560400343
 31
0.0
  0
LINE
  5
16D
330
1F
100
AcDbEntity
  8
0
  6
Continuous
 62
     7
370
    15
100
AcDbLine
 10
201.8964490756
 20
88.3560380077
 30
0.0
 11
201.8964490756
 21
87.8673395252
 31
0.0
  0
LINE
  5
16E
330
1F
100
AcDbEntity
  8
0
  6
Continuous
 62
     7
370
    15
100
AcDbLine
 10
201.8964490756
 20
87.0712151861
 30
0.0
 11
201.8964490756
 21
86.9015803671
 31
0.0
  0
LINE
  5
16F
330
1F
100
AcDbEntity
  8
0
  6
Continuous
 62
     7
370
    15
100
AcDbLine
 10
201.8964490756
 20
77.6164135075
 30
0.0
 11
201.8964490756
 21
76.8560370541
 31
0.0
  0
LINE
  5
170
330
1F
100
AcDbEntity
  8
0
  6
Continuous
 62
     7
370
    15
100
AcDbLine
 10
201.8964490756
 20
75.8560350275
 30
0.0
 11
201.8964490756
 21
75.4060348606
 31
0.0
  0
LINE
  5
171
330
1F
100
AcDbEntity
  8
0
  6
Continuous
 62
     7
370
    15
100
AcDbLine
 10
204.8964402541
 20
75.4060348606
 30
0.0
 11
204.8964402541
 21
75.8560350275
 31
0.0
  0
LINE
  5
172
330
1F
100
AcDbEntity
  8
0
  6
Continuous
 62
     7
370
    15
100
AcDbLine
 10
204.8964402541
 20
76.8560370541
 30
0.0
 11
204.8964402541
 21
77.3431858158
 31
0.0
  0
LINE
  5
173
330
1F
100
AcDbEntity
  8
0
  6
Continuous
 62
     7
370
    15
100
AcDbLine
 10
204.8964402541
 20
86.6511067486
 30
0.0
 11
204.8964402541
 21
86.8390401935
 31
0.0
  0
LINE
  5
174
330
1F
100
AcDbEntity
  8
0
  6
Continuous
 62
     7
370
    15
100
AcDbLine
 10
204.8964402541
 20
87.5941118336
 30
0.0
 11
204.8964402541
 21
88.3560380077
 31
0.0
  0
LINE
  5
175
330
1F
100
AcDbEntity
  8
0
  6
Continuous
 62
     7
370
    15
100
AcDbLine
 10
204.8964402541
 20
89.3560400343
 30
0.0
 11
204.8964402541
 21
89.8060402012
 31
0.0
  0
LINE
  5
176
330
1F
100
AcDbEntity
  8
0
  6
Continuous
 62
     7
370
    15
100
AcDbLine
 10
206.1264417037
 20
444.606040988
 30
0.0
 11
206.1264417037
 21
445.406039629
 31
0.0
  0
LINE
  5
177
330
1F
100
AcDbEntity
  8
0
  6
Continuous
 62
     7
370
    15
100
AcDbLine
 10
206.1264417037
 20
459.8060449695
 30
0.0
 11
206.1264417037
 21
460.6060436106
 31
0.0
  0
LINE
  5
178
330
1F
100
AcDbEntity
  8
0
  6
Continuous
 62
     7
370
    15
100
AcDbLine
 10
201.1964521274
 20
460.9060337877
 30
0.0
 11
201.1964521274
 21
460.6060436106
 31
0.0
  0
LINE
  5
179
330
1F
100
AcDbEntity
  8
0
  6
Continuous
 62
     7
370
    15
100
AcDbLine
 10
205.5964521035
 20
460.6060436106
 30
0.0
 11
205.5964521035
 21
460.9060337877
 31
0.0
  0
ARC
  5
17A
330
1F
100
AcDbEntity
  8
0
  6
Continuous
 62
     7
370
    15
100
AcDbCircle
 10
203.3964448365
 20
457.798897058
 30
0.0
 40
3.807142857143322
100
AcDbArc
 50
54.6997515601
 51
125.3002484399
  0
LINE
  5
17B
330
1F
100
AcDbEntity
  8
0
  6
Continuous
 62
     7
370
    15
100
AcDbLine
 10
201.296438919
 20
444.2060342169
 30
0.0
 11
201.296438919
 21
443.8060423469
 31
0.0
  0
LINE
  5
17C
330
1F
100
AcDbEntity
  8
0
  6
Continuous
 62
     7
370
    15
100
AcDbLine
 10
205.4964504108
 20
443.8060423469
 30
0.0
 11
205.4964504108
 21
444.2060342169
 31
0.0
  0
ARC
  5
17D
330
1F
100
AcDbEntity
  8
0
  6
Continuous
 62
     7
370
    15
100
AcDbCircle
 10
201.4964448365
 20
444.6060399151
 30
0.0
 40
0.4000000000008299
100
AcDbArc
 50
270.0
 51
0.0
  0
ARC
  5
17E
330
1F
100
AcDbEntity
  8
0
  6
Continuous
 62
     7
370
    15
100
AcDbCircle
 10
205.2964448365
 20
444.6060399151
 30
0.0
 40
0.4000000000008015
100
AcDbArc
 50
180.0
 51
270.0
  0
LINE
  5
17F
330
1F
100
AcDbEntity
  8
0
  6
Continuous
 62
     7
370
    15
100
AcDbLine
 10
201.8964490756
 20
459.8060449695
 30
0.0
 11
201.8964490756
 21
459.3560448027
 31
0.0
  0
LINE
  5
180
330
1F
100
AcDbEntity
  8
0
  6
Continuous
 62
     7
370
    15
100
AcDbLine
 10
201.8964490756
 20
458.3560427761
 30
0.0
 11
201.8964490756
 21
457.8673293924
 31
0.0
  0
LINE
  5
181
330
1F
100
AcDbEntity
  8
0
  6
Continuous
 62
     7
370
    15
100
AcDbLine
 10
201.8964490756
 20
457.0712199545
 30
0.0
 11
201.8964490756
 21
456.9155177212
 31
0.0
  0
LINE
  5
182
330
1F
100
AcDbEntity
  8
0
  6
Continuous
 62
     7
370
    15
100
AcDbLine
 10
201.8964490756
 20
447.6164182758
 30
0.0
 11
201.8964490756
 21
446.8560418224
 31
0.0
  0
LINE
  5
183
330
1F
100
AcDbEntity
  8
0
  6
Continuous
 62
     7
370
    15
100
AcDbLine
 10
201.8964490756
 20
445.8560397959
 30
0.0
 11
201.8964490756
 21
445.406039629
 31
0.0
  0
LINE
  5
184
330
1F
100
AcDbEntity
  8
0
  6
Continuous
 62
     7
370
    15
100
AcDbLine
 10
204.8964402541
 20
445.406039629
 30
0.0
 11
204.8964402541
 21
445.8560397959
 31
0.0
  0
LINE
  5
185
330
1F
100
AcDbEntity
  8
0
  6
Continuous
 62
     7
370
    15
100
AcDbLine
 10
204.8964402541
 20
446.8560418224
 30
0.0
 11
204.8964402541
 21
447.343175683
 31
0.0
  0
LINE
  5
186
330
1F
100
AcDbEntity
  8
0
  6
Continuous
 62
     7
370
    15
100
AcDbLine
 10
204.8964402541
 20
456.6510966158
 30
0.0
 11
204.8964402541
 21
456.8390449619
 31
0.0
  0
LINE
  5
187
330
1F
100
AcDbEntity
  8
0
  6
Continuous
 62
     7
370
    15
100
AcDbLine
 10
204.8964402541
 20
457.5941166019
 30
0.0
 11
204.8964402541
 21
458.3560427761
 31
0.0
  0
LINE
  5
188
330
1F
100
AcDbEntity
  8
0
  6
Continuous
 62
     7
370
    15
100
AcDbLine
 10
204.8964402541
 20
459.3560448027
 30
0.0
 11
204.8964402541
 21
459.8060449695
 31
0.0
  0
SPLINE
  5
189
330
1F
100
AcDbEntity
  8
0
  6
Continuous
 62
     7
370
    15
100
AcDbSpline
210
0.0
220
0.0
230
1.0
 70
     8
 71
     3
 72
    15
 73
    11
 74
     0
 42
0.00000001
 43
0.00000001
 40
0.0
 40
0.0
 40
0.0
 40
0.0
 40
0.1356091197087967
 40
0.2953379153886
 40
0.4038138123368445
 40
0.5319707127957541
 40
0.6738448306188487
 40
0.8261134899844814
 40
0.9126194809754825
 40
1.0
 40
1.0
 40
1.0
 40
1.0
 10
204.8964402541351
 20
447.172080550183
 30
0.0
 10
204.9408214372174
 20
447.164760057981
 30
0.0
 10
205.037477518476
 20
447.1488170379894
 30
0.0
 10
205.2443242324261
 20
447.1964817378798
 30
0.0
 10
205.437609756752
 20
447.2842126764874
 30
0.0
 10
205.5841692021355
 20
447.4038652285581
 30
0.0
 10
205.682891899052
 20
447.5547627264569
 30
0.0
 10
205.7125455132834
 20
447.6765942980523
 30
0.0
 10
205.6913714808812
 20
447.8058665265473
 30
0.0
 10
205.6451170258813
 20
447.8725352396423
 30
0.0
 10
205.6218734845353
 20
447.9060372447859
 30
0.0
  0
SPLINE
  5
18A
330
1F
100
AcDbEntity
  8
0
  6
Continuous
 62
     7
370
    15
100
AcDbSpline
210
0.0
220
0.0
230
1.0
 70
     8
 71
     3
 72
    20
 73
    16
 74
     0
 42
0.00000001
 43
0.00000001
 40
0.0
 40
0.0
 40
0.0
 40
0.0
 40
0.0607082495881198
 40
0.2265318353751299
 40
0.3908031804988947
 40
0.4705947468638401
 40
0.5476201503029052
 40
0.6228569947325449
 40
0.7003370574811197
 40
0.7786473798731697
 40
0.8566580867353221
 40
0.9331038943445225
 40
0.9703735256589812
 40
0.9892323987104926
 40
1.0
 40
1.0
 40
1.0
 40
1.0
 10
201.1602423056794
 20
447.9060372447859
 30
0.0
 10
201.2065167126339
 20
447.8527058124535
 30
0.0
 10
201.3791889014948
 20
447.653700449403
 30
0.0
 10
201.7961740392163
 20
447.6357662940791
 30
0.0
 10
202.3611143531819
 20
447.5607451465433
 30
0.0
 10
202.8807302442497
 20
447.5178067667045
 30
0.0
 10
203.2746245144713
 20
447.4872458156295
 30
0.0
 10
203.6675360698741
 20
447.4595744857091
 30
0.0
 10
204.0486969275651
 20
447.4282633425683
 30
0.0
 10
204.4044189788789
 20
447.3957907910656
 30
0.0
 10
204.7070572121387
 20
447.3649518826428
 30
0.0
 10
204.8995407496666
 20
447.3420547287432
 30
0.0
 10
204.9876813814226
 20
447.3340332504127
 30
0.0
 10
205.0331025693171
 20
447.326251442242
 30
0.0
 10
205.0325533547927
 20
447.3301942781239
 30
0.0
 10
205.0323537453843
 20
447.3316272830855
 30
0.0
  0
SPLINE
  5
18B
330
1F
100
AcDbEntity
  8
0
  6
Continuous
 62
     7
370
    15
100
AcDbSpline
210
0.0
220
0.0
230
1.0
 70
     8
 71
     3
 72
    18
 73
    14
 74
     0
 42
0.00000001
 43
0.00000001
 40
0.0
 40
0.0
 40
0.0
 40
0.0
 40
0.0057558256776612
 40
0.1156405586245694
 40
0.2383946514687826
 40
0.3593096031671252
 40
0.4757056074283119
 40
0.5872117986999811
 40
0.7047314249150657
 40
0.8264989616408728
 40
0.8891457600929906
 40
0.9517929492285079
 40
1.0
 40
1.0
 40
1.0
 40
1.0
 10
205.4030648335647
 20
456.5528681611906
 30
0.0
 10
205.3984177344015
 20
456.5558203640431
 30
0.0
 10
205.3050526512113
 20
456.6151332074382
 30
0.0
 10
205.0826294097106
 20
456.621384140709
 30
0.0
 10
204.6912781827384
 20
456.6805556486592
 30
0.0
 10
204.1793920321944
 20
456.726100458141
 30
0.0
 10
203.6283557206421
 20
456.7722657001989
 30
0.0
 10
203.0662406257018
 20
456.8111457360402
 30
0.0
 10
202.5319630240925
 20
456.8558980032189
 30
0.0
 10
202.1343227304668
 20
456.8969411273382
 30
0.0
 10
201.919605942731
 20
456.9180859349133
 30
0.0
 10
201.8235376096959
 20
456.9203605620725
 30
0.0
 10
201.8080951229528
 20
456.9042845550003
 30
0.0
 10
201.8013796672059
 20
456.8972936010252
 30
0.0
  0
SPLINE
  5
18C
330
1F
100
AcDbEntity
  8
0
  6
Continuous
 62
     7
370
    15
100
AcDbSpline
210
0.0
220
0.0
230
1.0
 70
     8
 71
     3
 72
    12
 73
     8
 74
     0
 42
0.00000001
 43
0.00000001
 40
0.0
 40
0.0
 40
0.0
 40
0.0
 40
0.2236737957458163
 40
0.4523021107951978
 40
0.6822314221296185
 40
0.9102237272738865
 40
1.0
 40
1.0
 40
1.0
 40
1.0
 10
201.1021426781845
 20
457.7078869676482
 30
0.0
 10
201.0894097618492
 20
457.6653362415619
 30
0.0
 10
201.0636618868429
 20
457.5792922632744
 30
0.0
 10
201.1847874000593
 20
457.4877035566668
 30
0.0
 10
201.4164693874222
 20
457.3913651700215
 30
0.0
 10
201.6613129802478
 20
457.3289076762599
 30
0.0
 10
201.8446519735485
 20
457.3341113176408
 30
0.0
 10
201.8964490756225
 20
457.3355814552199
 30
0.0
  0
SPLINE
  5
18D
330
1F
100
AcDbEntity
  8
0
  6
Continuous
 62
     7
370
    15
100
AcDbSpline
210
0.0
220
0.0
230
1.0
 70
     8
 71
     3
 72
    19
 73
    15
 74
     0
 42
0.00000001
 43
0.00000001
 40
0.0
 40
0.0
 40
0.0
 40
0.0
 40
0.0979016191857726
 40
0.1753767090334034
 40
0.2884797297953404
 40
0.3734507061666763
 40
0.4570013478552226
 40
0.6168862838847594
 40
0.679664545280869
 40
0.7634255551665973
 40
0.8137510171898065
 40
0.8702945857013725
 40
0.9323961952720439
 40
1.0
 40
1.0
 40
1.0
 40
1.0
 10
201.2783787116241
 20
457.2127660846602
 30
0.0
 10
201.3288910298864
 20
457.1863842167601
 30
0.0
 10
201.4193766032218
 20
457.1391248842899
 30
0.0
 10
201.793999612632
 20
457.0784847215117
 30
0.0
 10
202.2805267112398
 20
457.0245881015189
 30
0.0
 10
202.8718422994087
 20
456.9713667327717
 30
0.0
 10
203.6259571838047
 20
456.9198184958782
 30
0.0
 10
204.2670331524168
 20
456.8528652856969
 30
0.0
 10
204.916331990637
 20
456.8173417657189
 30
0.0
 10
205.2946321689082
 20
456.8955479197327
 30
0.0
 10
205.54651070098
 20
457.0037298926796
 30
0.0
 10
205.6800867847188
 20
457.0920760148987
 30
0.0
 10
205.7418637450602
 20
457.1659117134305
 30
0.0
 10
205.670420450588
 20
457.2464348739755
 30
0.0
 10
205.6331834658813
 20
457.2884043788802
 30
0.0
  0
SPLINE
  5
18E
330
1F
100
AcDbEntity
  8
0
  6
Continuous
 62
     7
370
    15
100
AcDbSpline
210
0.0
220
0.0
230
1.0
 70
     8
 71
     3
 72
    25
 73
    21
 74
     0
 42
0.00000001
 43
0.00000001
 40
0.0
 40
0.0
 40
0.0
 40
0.0
 40
0.0176266604132267
 40
0.0344978305666418
 40
0.0503139129986175
 40
0.0649731684005604
 40
0.0909452438696607
 40
0.1134379469739163
 40
0.153840771756824
 40
0.1912344990785861
 40
0.2995711913486163
 40
0.3999638679938782
 40
0.5012958654425138
 40
0.5949062183926866
 40
0.6784876921018369
 40
0.7336316108402124
 40
0.8075187077807442
 40
0.895285398544903
 40
0.9453088009269912
 40
0.9999999999999999
 40
0.9999999999999999
 40
0.9999999999999999
 40
0.9999999999999999
 10
205.2758685216141
 20
456.66282382964
 30
0.0
 10
205.3155804136296
 20
456.6672138708484
 30
0.0
 10
205.3933021198472
 20
456.6758057932114
 30
0.0
 10
205.4951637445511
 20
456.7218154276901
 30
0.0
 10
205.5761909149763
 20
456.7807803091112
 30
0.0
 10
205.6523849313581
 20
456.8643386023178
 30
0.0
 10
205.7054332572146
 20
456.9679872013246
 30
0.0
 10
205.7296115005317
 20
457.100342265826
 30
0.0
 10
205.7067042466252
 20
457.2321937430532
 30
0.0
 10
205.5354716196171
 20
457.4774000737231
 30
0.0
 10
205.192683819714
 20
457.5644927280886
 30
0.0
 10
204.697570866641
 20
457.6230511396994
 30
0.0
 10
204.084357630009
 20
457.6813951569509
 30
0.0
 10
203.4348890342676
 20
457.731017968248
 30
0.0
 10
202.8951826185093
 20
457.7705073123544
 30
0.0
 10
202.4491880033309
 20
457.8096801486189
 30
0.0
 10
202.0604560018232
 20
457.8479140282518
 30
0.0
 10
201.8003203029056
 20
457.8757377722825
 30
0.0
 10
201.6698679212339
 20
457.8982568750108
 30
0.0
 10
201.6612108684133
 20
457.910712864148
 30
0.0
 10
201.6566893920135
 20
457.9172184800993
 30
0.0
  0
SPLINE
  5
18F
330
1F
100
AcDbEntity
  8
0
  6
Continuous
 62
     7
370
    15
100
AcDbSpline
210
0.0
220
0.0
230
1.0
 70
     8
 71
     3
 72
    12
 73
     8
 74
     0
 42
0.00000001
 43
0.00000001
 40
0.0
 40
0.0
 40
0.0
 40
0.0
 40
0.1756435528008696
 40
0.5723149961088316
 40
0.7586154256977586
 40
0.9207604683868135
 40
1.0
 40
1.0
 40
1.0
 40
1.0
 10
201.7450085744095
 20
457.0987274980437
 30
0.0
 10
201.6794509597309
 20
457.0895567281484
 30
0.0
 10
201.4658387582502
 20
457.0596747936665
 30
0.0
 10
201.2499005113171
 20
456.9857408300917
 30
0.0
 10
201.0887619287452
 20
456.7708019572461
 30
0.0
 10
201.0575349032337
 20
456.6105980124195
 30
0.0
 10
201.0885155605177
 20
456.5319320603139
 30
0.0
 10
201.0986856087875
 20
456.5061083173644
 30
0.0
  0
SPLINE
  5
190
330
1F
100
AcDbEntity
  8
0
  6
Continuous
 62
     7
370
    15
100
AcDbSpline
210
0.0
220
0.0
230
1.0
 70
     8
 71
     3
 72
    11
 73
     7
 74
     0
 42
0.00000001
 43
0.00000001
 40
0.0
 40
0.0
 40
0.0
 40
0.0
 40
0.3512985448925338
 40
0.6843228634649965
 40
0.9949606668226352
 40
1.0
 40
1.0
 40
1.0
 40
1.0
 10
205.3209594353866
 20
456.6932967042815
 30
0.0
 10
205.3616538995407
 20
456.6949701551021
 30
0.0
 10
205.4409259393539
 20
456.698230005375
 30
0.0
 10
205.5335840898596
 20
456.7451516754749
 30
0.0
 10
205.5847445166251
 20
456.785125369384
 30
0.0
 10
205.5977495146593
 20
456.8084823486324
 30
0.0
 10
205.5979571208191
 20
456.8088552093398
 30
0.0
  0
LINE
  5
191
330
1F
100
AcDbEntity
  8
0
  6
Continuous
 62
     7
370
    15
100
AcDbLine
 10
201.2562057838
 20
447.8083005285
 30
0.0
 11
200.1377395257
 21
447.8083005285
 31
0.0
  0
LINE
  5
192
330
1F
100
AcDbEntity
  8
0
  6
Continuous
 62
     7
370
    15
100
AcDbLine
 10
200.1377395257
 20
447.0083018875
 30
0.0
 11
201.8964490756
 21
447.0083018875
 31
0.0
  0
LINE
  5
193
330
1F
100
AcDbEntity
  8
0
  6
Continuous
 62
     7
370
    15
100
AcDbLine
 10
198.7274489268
 20
460.6060436106
 30
0.0
 11
198.7274489268
 21
460.6595089769
 31
0.0
  0
LINE
  5
194
330
1F
100
AcDbEntity
  8
0
  6
Continuous
 62
     7
370
    15
100
AcDbLine
 10
195.7274577483
 20
460.6595089769
 30
0.0
 11
195.7274577483
 21
460.6060436106
 31
0.0
  0
SPLINE
  5
195
330
1F
100
AcDbEntity
  8
0
  6
Continuous
 62
     7
370
    15
100
AcDbSpline
210
0.0
220
0.0
230
1.0
 70
     8
 71
     3
 72
    15
 73
    11
 74
     0
 42
0.00000001
 43
0.00000001
 40
0.0
 40
0.0
 40
0.0
 40
0.0
 40
0.1077555434559719
 40
0.2352511640955574
 40
0.3627903074624431
 40
0.4902567871443522
 40
0.6176630193615796
 40
0.745096792469643
 40
0.8724963683622238
 40
1.0
 40
1.0
 40
1.0
 40
1.0
 10
195.7435062989426
 20
444.6060409879576
 30
0.0
 10
195.7600454235366
 20
444.2935187610285
 30
0.0
 10
195.7961535270186
 20
443.6112223767051
 30
0.0
 10
196.1323662190598
 20
442.6020742440566
 30
0.0
 10
196.6904463887175
 20
441.6385947165043
 30
0.0
 10
197.4452702790683
 20
440.8176692391796
 30
0.0
 10
198.3604352370434
 20
440.1824008370502
 30
0.0
 10
199.3876905219498
 20
439.7622481737778
 30
0.0
 10
200.4836698498511
 20
439.5484167384869
 30
0.0
 10
201.2194288983123
 20
439.6139572129567
 30
0.0
 10
201.5874585971069
 20
439.6467408275496
 30
0.0
  0
SPLINE
  5
196
330
1F
100
AcDbEntity
  8
0
  6
Continuous
 62
     7
370
    15
100
AcDbSpline
210
0.0
220
0.0
230
1.0
 70
     8
 71
     3
 72
    15
 73
    11
 74
     0
 42
0.00000001
 43
0.00000001
 40
0.0
 40
0.0
 40
0.0
 40
0.0
 40
0.1316507783681803
 40
0.2633115976138969
 40
0.3951897422381149
 40
0.5266717386805909
 40
0.6575475432232487
 40
0.7882114370884227
 40
0.9184603407187071
 40
1.0
 40
1.0
 40
1.0
 40
1.0
 10
201.0897747143936
 20
442.6044276094328
 30
0.0
 10
200.9375904860533
 20
442.5926122141584
 30
0.0
 10
200.6332104224288
 20
442.5689805224607
 30
0.0
 10
200.1823534261469
 20
442.6704605258282
 30
0.0
 10
199.7633121495731
 20
442.857301571818
 30
0.0
 10
199.3929267482763
 20
443.1299121574894
 30
0.0
 10
199.0906753218759
 20
443.4758256361989
 30
0.0
 10
198.871493712957
 20
443.877523226119
 30
0.0
 10
198.7541453075633
 20
444.2638423298961
 30
0.0
 10
198.7439613014903
 20
444.510916278251
 30
0.0
 10
198.7400404080581
 20
444.6060409879576
 30
0.0
  0
SPLINE
  5
197
330
1F
100
AcDbEntity
  8
0
  6
Continuous
 62
     7
370
    15
100
AcDbSpline
210
0.0
220
0.0
230
1.0
 70
     8
 71
     3
 72
    15
 73
    11
 74
     0
 42
0.00000001
 43
0.00000001
 40
0.0
 40
0.0
 40
0.0
 40
0.0
 40
0.1249272439887276
 40
0.2499158554258029
 40
0.3749669609074118
 40
0.4999574156264313
 40
0.6249201877790589
 40
0.7499167625029147
 40
0.8748745343211859
 40
1.0
 40
1.0
 40
1.0
 40
1.0
 10
201.7583302125168
 20
465.5365547275435
 30
0.0
 10
201.3919537321082
 20
465.5798851392055
 30
0.0
 10
200.6590207978201
 20
465.6665672475328
 30
0.0
 10
199.5549933132036
 20
465.5014004154172
 30
0.0
 10
198.5142038590334
 20
465.1124436900525
 30
0.0
 10
197.5790019549972
 20
464.5074509010058
 30
0.0
 10
196.798369941396
 20
463.7112460986488
 30
0.0
 10
196.2103915476227
 20
462.7668936126768
 30
0.0
 10
195.8145732485802
 20
461.7184435312668
 30
0.0
 10
195.7565092267368
 20
460.9793234373662
 30
0.0
 10
195.7274577483368
 20
460.6095155811201
 30
0.0
  0
SPLINE
  5
198
330
1F
100
AcDbEntity
  8
0
  6
Continuous
 62
     7
370
    15
100
AcDbSpline
210
0.0
220
0.0
230
1.0
 70
     8
 71
     3
 72
    15
 73
    11
 74
     0
 42
0.00000001
 43
0.00000001
 40
0.0
 40
0.0
 40
0.0
 40
0.0
 40
0.1242508736842745
 40
0.2486325372495402
 40
0.3735411194818075
 40
0.4985813228880121
 40
0.6236638584884179
 40
0.7490691537669171
 40
0.874436447328864
 40
1.0
 40
1.0
 40
1.0
 40
1.0
 10
198.7274489268493
 20
460.6095155811201
 30
0.0
 10
198.7410132288532
 20
460.7614683792988
 30
0.0
 10
198.7681561110175
 20
461.0655339253432
 30
0.0
 10
198.9426062060859
 20
461.49285152575
 30
0.0
 10
199.1959407876881
 20
461.8744939514111
 30
0.0
 10
199.525760040694
 20
462.1944276944863
 30
0.0
 10
199.9166874585154
 20
462.4350031400685
 30
0.0
 10
200.34939074021
 20
462.5866122348103
 30
0.0
 10
200.8069161580108
 20
462.6400744897938
 30
0.0
 10
201.108837454614
 20
462.5993900089937
 30
0.0
 10
201.259916172905
 20
462.5790318584334
 30
0.0
  0
LINE
  5
199
330
1F
100
AcDbEntity
  8
0
  6
Continuous
 62
     7
370
    15
100
AcDbLine
 10
216.6305086478
 20
445.2211758232
 30
0.0
 11
201.089551197
 21
442.604755435
 31
0.0
  0
LINE
  5
19A
330
1F
100
AcDbEntity
  8
0
  6
Continuous
 62
     7
370
    15
100
AcDbLine
 10
201.5876076087
 20
439.6463981008
 30
0.0
 11
217.1285799607
 21
442.2628035879
 31
0.0
  0
LINE
  5
19B
330
1F
100
AcDbEntity
  8
0
  6
Continuous
 62
     7
370
    15
100
AcDbLine
 10
201.2601247892
 20
462.5785997248
 30
0.0
 11
216.8010971412
 21
459.9621793365
 31
0.0
  0
LINE
  5
19C
330
1F
100
AcDbEntity
  8
0
  6
Continuous
 62
     7
370
    15
100
AcDbLine
 10
217.2991535529
 20
462.9205515718
 30
0.0
 11
201.7581961021
 21
465.5369719601
 31
0.0
  0
SPLINE
  5
19D
330
1F
100
AcDbEntity
  8
0
  6
Continuous
 62
     7
370
    15
100
AcDbSpline
210
0.0
220
0.0
230
1.0
 70
     8
 71
     3
 72
    12
 73
     8
 74
     0
 42
0.00000001
 43
0.00000001
 40
0.0
 40
0.0
 40
0.0
 40
0.0
 40
0.1526135604568276
 40
0.2973905261041906
 40
0.5623705921371759
 40
0.7966015821471988
 40
1.0
 40
1.0
 40
1.0
 40
1.0
 10
217.1282223328781
 20
442.2631165122878
 30
0.0
 10
217.3794420813627
 20
442.3158542267459
 30
0.0
 10
217.868981627822
 20
442.418621612562
 30
0.0
 10
218.718502258198
 20
442.847874442839
 30
0.0
 10
219.5304917042714
 20
443.592268146498
 30
0.0
 10
220.0949421744852
 20
444.6633076911087
 30
0.0
 10
220.1766294751569
 20
445.3982358366841
 30
0.0
 10
220.2145955428314
 20
445.7398107385527
 30
0.0
  0
SPLINE
  5
19E
330
1F
100
AcDbEntity
  8
0
  6
Continuous
 62
     7
370
    15
100
AcDbSpline
210
0.0
220
0.0
230
1.0
 70
     8
 71
     3
 72
    11
 73
     7
 74
     0
 42
0.00000001
 43
0.00000001
 40
0.0
 40
0.0
 40
0.0
 40
0.0
 40
0.2003616796215711
 40
0.4328080289723691
 40
0.6990147081454188
 40
0.9999999999999999
 40
0.9999999999999999
 40
0.9999999999999999
 40
0.9999999999999999
 10
217.2162732943726
 20
445.7398107385527
 30
0.0
 10
217.2030461223954
 20
445.6833818943914
 30
0.0
 10
217.1744736616178
 20
445.5614880429086
 30
0.0
 10
217.0585879715451
 20
445.3957980682814
 30
0.0
 10
216.8738382918446
 20
445.2568721584072
 30
0.0
 10
216.7162209210585
 20
445.2334831129608
 30
0.0
 10
216.6325799092483
 20
445.2210715150725
 30
0.0
  0
SPLINE
  5
19F
330
1F
100
AcDbEntity
  8
0
  6
Continuous
 62
     7
370
    15
100
AcDbSpline
210
0.0
220
0.0
230
1.0
 70
     8
 71
     3
 72
    12
 73
     8
 74
     0
 42
0.00000001
 43
0.00000001
 40
0.0
 40
0.0
 40
0.0
 40
0.0
 40
0.2034079759252481
 40
0.4376404192240576
 40
0.7026166332895382
 40
0.8473901194094139
 40
0.9999999999999999
 40
0.9999999999999999
 40
0.9999999999999999
 40
0.9999999999999999
 10
220.2145955428314
 20
459.2984369134795
 30
0.0
 10
220.1931548074192
 20
459.6414475041063
 30
0.0
 10
220.1470242051575
 20
460.3794485485462
 30
0.0
 10
219.6349254058777
 20
461.4765576523176
 30
0.0
 10
218.8597257028965
 20
462.2593190125518
 30
0.0
 10
218.0318692147893
 20
462.7290387162484
 30
0.0
 10
217.5478817347747
 20
462.8552969790589
 30
0.0
 10
217.2995111808014
 20
462.9200896358382
 30
0.0
  0
SPLINE
  5
1A0
330
1F
100
AcDbEntity
  8
0
  6
Continuous
 62
     7
370
    15
100
AcDbSpline
210
0.0
220
0.0
230
1.0
 70
     8
 71
     3
 72
    12
 73
     8
 74
     0
 42
0.00000001
 43
0.00000001
 40
0.0
 40
0.0
 40
0.0
 40
0.0
 40
0.1555612070081118
 40
0.3022035794488034
 40
0.5679688160015415
 40
0.7999504135698806
 40
1.0
 40
1.0
 40
1.0
 40
1.0
 10
216.7991748913956
 20
459.963103208531
 30
0.0
 10
216.8397214527506
 20
459.9473537554042
 30
0.0
 10
216.9184899080198
 20
459.9167578169899
 30
0.0
 10
217.0481282113253
 20
459.8217115862037
 30
0.0
 10
217.1625580769289
 20
459.6755454492331
 30
0.0
 10
217.2266908217299
 20
459.481281940122
 30
0.0
 10
217.2195703762282
 20
459.3563062138473
 30
0.0
 10
217.2162732943725
 20
459.2984369134795
 30
0.0
  0
LINE
  5
1A1
330
1F
100
AcDbEntity
  8
0
  6
Continuous
 62
     7
370
    15
100
AcDbLine
 10
217.2154388293
 20
459.3484303093
 30
0.0
 11
217.2154388293
 21
459.1060331201
 31
0.0
  0
LINE
  5
1A2
330
1F
100
AcDbEntity
  8
0
  6
Continuous
 62
     7
370
    15
100
AcDbLine
 10
217.2154388293
 20
446.1060365772
 30
0.0
 11
217.2154388293
 21
445.6898024416
 31
0.0
  0
LINE
  5
1A3
330
1F
100
AcDbEntity
  8
0
  6
Continuous
 62
     7
370
    15
100
AcDbLine
 10
220.2154300079
 20
445.6898024416
 30
0.0
 11
220.2154300079
 21
446.1087783909
 31
0.0
  0
LINE
  5
1A4
330
1F
100
AcDbEntity
  8
0
  6
Continuous
 62
     7
370
    15
100
AcDbLine
 10
220.2154300079
 20
459.1032913065
 30
0.0
 11
220.2154300079
 21
459.3484303093
 31
0.0
  0
LINE
  5
1A5
330
1F
100
AcDbEntity
  8
0
  6
Continuous
 62
     7
370
    15
100
AcDbLine
 10
206.5147212609
 20
458.2060327864
 30
0.0
 11
204.8964402541
 21
458.2060327864
 31
0.0
  0
LINE
  5
1A6
330
1F
100
AcDbEntity
  8
0
  6
Continuous
 62
     7
370
    15
100
AcDbLine
 10
205.5233619079
 20
457.4060341453
 30
0.0
 11
206.5147212609
 21
457.4060341453
 31
0.0
  0
LINE
  5
1A7
330
1F
100
AcDbEntity
  8
0
  6
Continuous
 62
     7
370
    15
100
AcDbLine
 10
206.8529478177
 20
459.4741812086
 30
0.0
 11
206.5864256486
 21
458.2659354544
 31
0.0
  0
LINE
  5
1A8
330
1F
100
AcDbEntity
  8
0
  6
Continuous
 62
     7
370
    15
100
AcDbLine
 10
207.3545805082
 20
458.0343863106
 30
0.0
 11
207.6341560945
 21
459.3018492794
 31
0.0
  0
SPLINE
  5
1A9
330
1F
100
AcDbEntity
  8
0
  6
Continuous
 62
     7
370
    15
100
AcDbSpline
210
0.0
220
0.0
230
1.0
 70
     8
 71
     3
 72
    11
 73
     7
 74
     0
 42
0.00000001
 43
0.00000001
 40
0.0
 40
0.0
 40
0.0
 40
0.0
 40
0.2541322396080093
 40
0.5022676065307782
 40
0.7495073204938133
 40
1.0
 40
1.0
 40
1.0
 40
1.0
 10
206.5147212609482
 20
457.4060341453444
 30
0.0
 10
206.6148097169618
 20
457.4162852637365
 30
0.0
 10
206.8126247967047
 20
457.4365456002726
 30
0.0
 10
207.0707714627482
 20
457.5905675891479
 30
0.0
 10
207.2742267532489
 20
457.8096391706277
 30
0.0
 10
207.3359564233647
 20
457.9966934940329
 30
0.0
 10
207.3670229777527
 20
458.0908319091689
 30
0.0
  0
LINE
  5
1AA
330
1F
100
AcDbEntity
  8
0
  6
Continuous
 62
     7
370
    15
100
AcDbLine
 10
216.4950570926
 20
89.1060432529
 30
0.0
 11
216.4950570926
 21
76.10604671
 31
0.0
  0
LINE
  5
1AB
330
1F
100
AcDbEntity
  8
0
  6
Continuous
 62
     7
370
    15
100
AcDbLine
 10
216.4950570926
 20
89.1060432529
 30
0.0
 11
219.2140421733
 21
89.1060432529
 31
0.0
  0
LWPOLYLINE
  5
1AC
330
1F
100
AcDbEntity
  8
0
  6
Continuous
 62
     7
370
    15
100
AcDbPolyline
 90
        9
 70
   128
 43
0.0
 10
219.9445566997
 20
87.9060378408
 10
219.9305198058
 20
88.1401499843
 10
219.8889455661
 20
88.3652618265
 10
219.8214284047
 20
88.5727306938
 10
219.7305909261
 20
88.7545695639
 10
219.6198901996
 20
88.9038046932
 10
219.4935879573
 20
89.0146991348
 10
219.356556879
 20
89.0829762554
 10
219.2140421733
 20
89.1060432529
  0
LINE
  5
1AD
330
1F
100
AcDbEntity
  8
0
  6
Continuous
 62
     7
370
    15
100
AcDbLine
 10
219.9445566997
 20
87.9060378408
 30
0.0
 11
219.9445566997
 21
77.3060372209
 31
0.0
  0
LWPOLYLINE
  5
1AE
330
1F
100
AcDbEntity
  8
0
  6
Continuous
 62
     7
370
    15
100
AcDbPolyline
 90
        9
 70
   128
 43
0.0
 10
219.2140421733
 20
76.10604671
 10
219.356556879
 20
76.1290988064
 10
219.4935879573
 20
76.1973908281
 10
219.6198901996
 20
76.3082703686
 10
219.7305909261
 20
76.4575054979
 10
219.8214284047
 20
76.6393592691
 10
219.8889455661
 20
76.8468132353
 10
219.9305198058
 20
77.0719250774
 10
219.9445566997
 20
77.3060372209
  0
LINE
  5
1AF
330
1F
100
AcDbEntity
  8
0
  6
Continuous
 62
     7
370
    15
100
AcDbLine
 10
219.2140421733
 20
76.10604671
 30
0.0
 11
216.4950570926
 21
76.10604671
 31
0.0
  0
LINE
  5
1B0
330
1F
100
AcDbEntity
  8
0
  6
Continuous
 62
     7
370
    15
100
AcDbLine
 10
220.8965769872
 20
87.9060378408
 30
0.0
 11
219.9445566997
 21
87.9060378408
 31
0.0
  0
LINE
  5
1B1
330
1F
100
AcDbEntity
  8
0
  6
Continuous
 62
     7
370
    15
100
AcDbLine
 10
220.8965769872
 20
87.9060378408
 30
0.0
 11
220.8965769872
 21
77.3060372209
 31
0.0
  0
LINE
  5
1B2
330
1F
100
AcDbEntity
  8
0
  6
Continuous
 62
     7
370
    15
100
AcDbLine
 10
219.9445566997
 20
77.3060372209
 30
0.0
 11
220.8965769872
 21
77.3060372209
 31
0.0
  0
LINE
  5
1B3
330
1F
100
AcDbEntity
  8
0
  6
Continuous
 62
     7
370
    15
100
AcDbLine
 10
220.1660624608
 20
76.10604671
 30
0.0
 11
219.2140421733
 21
76.10604671
 31
0.0
  0
LWPOLYLINE
  5
1B4
330
1F
100
AcDbEntity
  8
0
  6
Continuous
 62
     7
370
    15
100
AcDbPolyline
 90
        9
 70
   128
 43
0.0
 10
220.8965769872
 20
77.3060372209
 10
220.8825400933
 20
77.0719250774
 10
220.8409658536
 20
76.8468132353
 10
220.7734635934
 20
76.6393592691
 10
220.6826112136
 20
76.4575054979
 10
220.5719104871
 20
76.3082703686
 10
220.4456082448
 20
76.1973908281
 10
220.3085771665
 20
76.1290988064
 10
220.1660624608
 20
76.10604671
  0
LINE
  5
1B5
330
1F
100
AcDbEntity
  8
0
  6
Continuous
 62
     7
370
    15
100
AcDbLine
 10
216.4950570926
 20
459.1060331201
 30
0.0
 11
216.4950570926
 21
446.1060365772
 31
0.0
  0
LINE
  5
1B6
330
1F
100
AcDbEntity
  8
0
  6
Continuous
 62
     7
370
    15
100
AcDbLine
 10
216.4950570926
 20
459.1060331201
 30
0.0
 11
219.2140421733
 21
459.1060331201
 31
0.0
  0
LWPOLYLINE
  5
1B7
330
1F
100
AcDbEntity
  8
0
  6
Continuous
 62
     7
370
    15
100
AcDbPolyline
 90
        9
 70
   128
 43
0.0
 10
219.9445566997
 20
457.9060426092
 10
219.9305198058
 20
458.1401547527
 10
219.8889455661
 20
458.3652665949
 10
219.8214284047
 20
458.572720561
 10
219.7305909261
 20
458.7545743322
 10
219.6198901996
 20
458.9038094616
 10
219.4935879573
 20
459.014689002
 10
219.356556879
 20
459.0829810238
 10
219.2140421733
 20
459.1060331201
  0
LINE
  5
1B8
330
1F
100
AcDbEntity
  8
0
  6
Continuous
 62
     7
370
    15
100
AcDbLine
 10
219.9445566997
 20
457.9060426092
 30
0.0
 11
219.9445566997
 21
447.3060419893
 31
0.0
  0
LWPOLYLINE
  5
1B9
330
1F
100
AcDbEntity
  8
0
  6
Continuous
 62
     7
370
    15
100
AcDbPolyline
 90
        9
 70
   128
 43
0.0
 10
219.2140421733
 20
446.1060365772
 10
219.356556879
 20
446.1291035747
 10
219.4935879573
 20
446.1973806953
 10
219.6198901996
 20
446.3082751369
 10
219.7305909261
 20
446.4575102663
 10
219.8214284047
 20
446.6393491363
 10
219.8889455661
 20
446.8468180036
 10
219.9305198058
 20
447.0719298458
 10
219.9445566997
 20
447.3060419893
  0
LINE
  5
1BA
330
1F
100
AcDbEntity
  8
0
  6
Continuous
 62
     7
370
    15
100
AcDbLine
 10
219.2140421733
 20
446.1060365772
 30
0.0
 11
216.4950570926
 21
446.1060365772
 31
0.0
  0
LINE
  5
1BB
330
1F
100
AcDbEntity
  8
0
  6
Continuous
 62
     7
370
    15
100
AcDbLine
 10
220.8965769872
 20
457.9060426092
 30
0.0
 11
219.9445566997
 21
457.9060426092
 31
0.0
  0
LINE
  5
1BC
330
1F
100
AcDbEntity
  8
0
  6
Continuous
 62
     7
370
    15
100
AcDbLine
 10
220.8965769872
 20
457.9060426092
 30
0.0
 11
220.8965769872
 21
447.3060419893
 31
0.0
  0
LINE
  5
1BD
330
1F
100
AcDbEntity
  8
0
  6
Continuous
 62
     7
370
    15
100
AcDbLine
 10
219.9445566997
 20
447.3060419893
 30
0.0
 11
220.8965769872
 21
447.3060419893
 31
0.0
  0
LINE
  5
1BE
330
1F
100
AcDbEntity
  8
0
  6
Continuous
 62
     7
370
    15
100
AcDbLine
 10
220.1660624608
 20
446.1060365772
 30
0.0
 11
219.2140421733
 21
446.1060365772
 31
0.0
  0
LWPOLYLINE
  5
1BF
330
1F
100
AcDbEntity
  8
0
  6
Continuous
 62
     7
370
    15
100
AcDbPolyline
 90
        9
 70
   128
 43
0.0
 10
220.8965769872
 20
447.3060419893
 10
220.8825400933
 20
447.0719298458
 10
220.8409658536
 20
446.8468180036
 10
220.7734635934
 20
446.6393491363
 10
220.6826112136
 20
446.4575102663
 10
220.5719104871
 20
446.3082751369
 10
220.4456082448
 20
446.1973806953
 10
220.3085771665
 20
446.1291035747
 10
220.1660624608
 20
446.1060365772
  0
LINE
  5
1C0
330
1F
100
AcDbEntity
  8
0
  6
Continuous
 62
     7
370
    15
100
AcDbLine
 10
219.2140421733
 20
89.1060432529
 30
0.0
 11
220.1660624608
 21
89.1060432529
 31
0.0
  0
LWPOLYLINE
  5
1C1
330
1F
100
AcDbEntity
  8
0
  6
Continuous
 62
     7
370
    15
100
AcDbPolyline
 90
        9
 70
   128
 43
0.0
 10
220.1660624608
 20
89.1060432529
 10
220.3085771665
 20
89.0829762554
 10
220.4456082448
 20
89.0146991348
 10
220.5719104871
 20
88.9038046932
 10
220.6826112136
 20
88.7545695639
 10
220.7734635934
 20
88.5727306938
 10
220.8409658536
 20
88.3652618265
 10
220.8825400933
 20
88.1401499843
 10
220.8965769872
 20
87.9060378408
  0
LINE
  5
1C2
330
1F
100
AcDbEntity
  8
0
  6
Continuous
 62
     7
370
    15
100
AcDbLine
 10
219.2140421733
 20
459.1060331201
 30
0.0
 11
220.1660624608
 21
459.1060331201
 31
0.0
  0
LWPOLYLINE
  5
1C3
330
1F
100
AcDbEntity
  8
0
  6
Continuous
 62
     7
370
    15
100
AcDbPolyline
 90
        9
 70
   128
 43
0.0
 10
220.1660624608
 20
459.1060331201
 10
220.3085771665
 20
459.0829810238
 10
220.4456082448
 20
459.014689002
 10
220.5719104871
 20
458.9038094616
 10
220.6826112136
 20
458.7545743322
 10
220.7734635934
 20
458.572720561
 10
220.8409658536
 20
458.3652665949
 10
220.8825400933
 20
458.1401547527
 10
220.8965769872
 20
457.9060426092
  0
LINE
  5
1C4
330
1F
100
AcDbEntity
  8
0
  6
Continuous
 62
     7
370
    15
100
AcDbLine
 10
215.9164450034
 20
89.1060432529
 30
0.0
 11
216.4950570926
 21
89.1060432529
 31
0.0
  0
LINE
  5
1C5
330
1F
100
AcDbEntity
  8
0
  6
Continuous
 62
     7
370
    15
100
AcDbLine
 10
216.4950570926
 20
76.10604671
 30
0.0
 11
215.9164450034
 21
76.10604671
 31
0.0
  0
LINE
  5
1C6
330
1F
100
AcDbEntity
  8
0
  6
Continuous
 62
     7
370
    15
100
AcDbLine
 10
215.9164450034
 20
459.1060331201
 30
0.0
 11
216.4950570926
 21
459.1060331201
 31
0.0
  0
LINE
  5
1C7
330
1F
100
AcDbEntity
  8
0
  6
Continuous
 62
     7
370
    15
100
AcDbLine
 10
216.4950570926
 20
446.1060365772
 30
0.0
 11
215.9164450034
 21
446.1060365772
 31
0.0
  0
LINE
  5
1C8
330
1F
100
AcDbEntity
  8
0
  6
Continuous
 62
     7
370
    15
100
AcDbLine
 10
226.0164520606
 20
88.0060395336
 30
0.0
 11
224.5164415702
 21
88.0060395336
 31
0.0
  0
LINE
  5
1C9
330
1F
100
AcDbEntity
  8
0
  6
Continuous
 62
     7
370
    15
100
AcDbLine
 10
224.5164415702
 20
88.0060395336
 30
0.0
 11
224.5164415702
 21
87.2060408926
 31
0.0
  0
LINE
  5
1CA
330
1F
100
AcDbEntity
  8
0
  6
Continuous
 62
     7
370
    15
100
AcDbLine
 10
224.5164415702
 20
87.2060408926
 30
0.0
 11
226.0164520606
 21
87.2060408926
 31
0.0
  0
LINE
  5
1CB
330
1F
100
AcDbEntity
  8
0
  6
Continuous
 62
     7
370
    15
100
AcDbLine
 10
226.0164520606
 20
85.7060453033
 30
0.0
 11
226.8164507016
 21
85.7060453033
 31
0.0
  0
LINE
  5
1CC
330
1F
100
AcDbEntity
  8
0
  6
Continuous
 62
     7
370
    15
100
AcDbLine
 10
226.8164507016
 20
85.7060453033
 30
0.0
 11
226.8164507016
 21
87.2060408926
 31
0.0
  0
LINE
  5
1CD
330
1F
100
AcDbEntity
  8
0
  6
Continuous
 62
     7
370
    15
100
AcDbLine
 10
226.8164507016
 20
87.2060408926
 30
0.0
 11
228.3164462909
 21
87.2060408926
 31
0.0
  0
LINE
  5
1CE
330
1F
100
AcDbEntity
  8
0
  6
Continuous
 62
     7
370
    15
100
AcDbLine
 10
228.3164462909
 20
87.2060408926
 30
0.0
 11
228.3164462909
 21
88.0060395336
 31
0.0
  0
LINE
  5
1CF
330
1F
100
AcDbEntity
  8
0
  6
Continuous
 62
     7
370
    15
100
AcDbLine
 10
228.3164462909
 20
88.0060395336
 30
0.0
 11
226.8164507016
 21
88.0060395336
 31
0.0
  0
LINE
  5
1D0
330
1F
100
AcDbEntity
  8
0
  6
Continuous
 62
     7
370
    15
100
AcDbLine
 10
226.8164507016
 20
88.0060395336
 30
0.0
 11
226.8164507016
 21
89.5060351229
 31
0.0
  0
LINE
  5
1D1
330
1F
100
AcDbEntity
  8
0
  6
Continuous
 62
     7
370
    15
100
AcDbLine
 10
226.8164507016
 20
89.5060351229
 30
0.0
 11
226.0164520606
 21
89.5060351229
 31
0.0
  0
LINE
  5
1D2
330
1F
100
AcDbEntity
  8
0
  6
Continuous
 62
     7
370
    15
100
AcDbLine
 10
226.0164520606
 20
89.5060351229
 30
0.0
 11
226.0164520606
 21
88.0060395336
 31
0.0
  0
LINE
  5
1D3
330
1F
100
AcDbEntity
  8
0
  6
Continuous
 62
     7
370
    15
100
AcDbLine
 10
226.0164520606
 20
87.2060408926
 30
0.0
 11
226.0164520606
 21
85.7060453033
 31
0.0
  0
CIRCLE
  5
1D4
330
1F
100
AcDbEntity
  8
0
  6
Continuous
 62
     7
370
    15
100
AcDbCircle
 10
226.4164448365
 20
87.6060399151
 30
0.0
 40
3.0
  0
LINE
  5
1D5
330
1F
100
AcDbEntity
  8
0
  6
Continuous
 62
     7
370
    15
100
AcDbLine
 10
226.8164507016
 20
75.7060399389
 30
0.0
 11
226.8164507016
 21
77.2060355282
 31
0.0
  0
LINE
  5
1D6
330
1F
100
AcDbEntity
  8
0
  6
Continuous
 62
     7
370
    15
100
AcDbLine
 10
228.3164462909
 20
77.2060355282
 30
0.0
 11
228.3164462909
 21
78.0060341692
 31
0.0
  0
LINE
  5
1D7
330
1F
100
AcDbEntity
  8
0
  6
Continuous
 62
     7
370
    15
100
AcDbLine
 10
228.3164462909
 20
78.0060341692
 30
0.0
 11
226.8164507016
 21
78.0060341692
 31
0.0
  0
LINE
  5
1D8
330
1F
100
AcDbEntity
  8
0
  6
Continuous
 62
     7
370
    15
100
AcDbLine
 10
226.8164507016
 20
79.5060446596
 30
0.0
 11
226.0164520606
 21
79.5060446596
 31
0.0
  0
LINE
  5
1D9
330
1F
100
AcDbEntity
  8
0
  6
Continuous
 62
     7
370
    15
100
AcDbLine
 10
226.0164520606
 20
77.2060355282
 30
0.0
 11
226.0164520606
 21
75.7060399389
 31
0.0
  0
LINE
  5
1DA
330
1F
100
AcDbEntity
  8
0
  6
Continuous
 62
     7
370
    15
100
AcDbLine
 10
226.0164520606
 20
78.0060341692
 30
0.0
 11
224.5164415702
 21
78.0060341692
 31
0.0
  0
LINE
  5
1DB
330
1F
100
AcDbEntity
  8
0
  6
Continuous
 62
     7
370
    15
100
AcDbLine
 10
226.0164520606
 20
79.5060446596
 30
0.0
 11
226.0164520606
 21
78.0060341692
 31
0.0
  0
LINE
  5
1DC
330
1F
100
AcDbEntity
  8
0
  6
Continuous
 62
     7
370
    15
100
AcDbLine
 10
226.0164520606
 20
75.7060399389
 30
0.0
 11
226.8164507016
 21
75.7060399389
 31
0.0
  0
LINE
  5
1DD
330
1F
100
AcDbEntity
  8
0
  6
Continuous
 62
     7
370
    15
100
AcDbLine
 10
226.8164507016
 20
78.0060341692
 30
0.0
 11
226.8164507016
 21
79.5060446596
 31
0.0
  0
LINE
  5
1DE
330
1F
100
AcDbEntity
  8
0
  6
Continuous
 62
     7
370
    15
100
AcDbLine
 10
224.5164415702
 20
78.0060341692
 30
0.0
 11
224.5164415702
 21
77.2060355282
 31
0.0
  0
LINE
  5
1DF
330
1F
100
AcDbEntity
  8
0
  6
Continuous
 62
     7
370
    15
100
AcDbLine
 10
226.8164507016
 20
77.2060355282
 30
0.0
 11
228.3164462909
 21
77.2060355282
 31
0.0
  0
LINE
  5
1E0
330
1F
100
AcDbEntity
  8
0
  6
Continuous
 62
     7
370
    15
100
AcDbLine
 10
224.5164415702
 20
77.2060355282
 30
0.0
 11
226.0164520606
 21
77.2060355282
 31
0.0
  0
CIRCLE
  5
1E1
330
1F
100
AcDbEntity
  8
0
  6
Continuous
 62
     7
370
    15
100
AcDbCircle
 10
226.4164448365
 20
77.6060399151
 30
0.0
 40
3.0
  0
CIRCLE
  5
1E2
330
1F
100
AcDbEntity
  8
0
  6
Continuous
 62
     7
370
    15
100
AcDbCircle
 10
226.4164448365
 20
447.6060399151
 30
0.0
 40
3.000000000000028
  0
LINE
  5
1E3
330
1F
100
AcDbEntity
  8
0
  6
Continuous
 62
     7
370
    15
100
AcDbLine
 10
226.0164520606
 20
445.7060447073
 30
0.0
 11
226.8164507016
 21
445.7060447073
 31
0.0
  0
LINE
  5
1E4
330
1F
100
AcDbEntity
  8
0
  6
Continuous
 62
     7
370
    15
100
AcDbLine
 10
226.8164507016
 20
445.7060447073
 30
0.0
 11
226.8164507016
 21
447.2060402965
 31
0.0
  0
LINE
  5
1E5
330
1F
100
AcDbEntity
  8
0
  6
Continuous
 62
     7
370
    15
100
AcDbLine
 10
226.8164507016
 20
447.2060402965
 30
0.0
 11
228.3164462909
 21
447.2060402965
 31
0.0
  0
LINE
  5
1E6
330
1F
100
AcDbEntity
  8
0
  6
Continuous
 62
     7
370
    15
100
AcDbLine
 10
228.3164462909
 20
447.2060402965
 30
0.0
 11
228.3164462909
 21
448.0060389376
 31
0.0
  0
LINE
  5
1E7
330
1F
100
AcDbEntity
  8
0
  6
Continuous
 62
     7
370
    15
100
AcDbLine
 10
228.3164462909
 20
448.0060389376
 30
0.0
 11
226.8164507016
 21
448.0060389376
 31
0.0
  0
LINE
  5
1E8
330
1F
100
AcDbEntity
  8
0
  6
Continuous
 62
     7
370
    15
100
AcDbLine
 10
226.8164507016
 20
448.0060389376
 30
0.0
 11
226.8164507016
 21
449.5060345268
 31
0.0
  0
LINE
  5
1E9
330
1F
100
AcDbEntity
  8
0
  6
Continuous
 62
     7
370
    15
100
AcDbLine
 10
226.8164507016
 20
449.5060345268
 30
0.0
 11
226.0164520606
 21
449.5060345268
 31
0.0
  0
LINE
  5
1EA
330
1F
100
AcDbEntity
  8
0
  6
Continuous
 62
     7
370
    15
100
AcDbLine
 10
226.0164520606
 20
449.5060345268
 30
0.0
 11
226.0164520606
 21
448.0060389376
 31
0.0
  0
LINE
  5
1EB
330
1F
100
AcDbEntity
  8
0
  6
Continuous
 62
     7
370
    15
100
AcDbLine
 10
226.0164520606
 20
448.0060389376
 30
0.0
 11
224.5164415702
 21
448.0060389376
 31
0.0
  0
LINE
  5
1EC
330
1F
100
AcDbEntity
  8
0
  6
Continuous
 62
     7
370
    15
100
AcDbLine
 10
224.5164415702
 20
448.0060389376
 30
0.0
 11
224.5164415702
 21
447.2060402965
 31
0.0
  0
LINE
  5
1ED
330
1F
100
AcDbEntity
  8
0
  6
Continuous
 62
     7
370
    15
100
AcDbLine
 10
224.5164415702
 20
447.2060402965
 30
0.0
 11
226.0164520606
 21
447.2060402965
 31
0.0
  0
LINE
  5
1EE
330
1F
100
AcDbEntity
  8
0
  6
Continuous
 62
     7
370
    15
100
AcDbLine
 10
226.0164520606
 20
447.2060402965
 30
0.0
 11
226.0164520606
 21
445.7060447073
 31
0.0
  0
CIRCLE
  5
1EF
330
1F
100
AcDbEntity
  8
0
  6
Continuous
 62
     7
370
    15
100
AcDbCircle
 10
226.4164448365
 20
457.6060399151
 30
0.0
 40
3.000000000000028
  0
LINE
  5
1F0
330
1F
100
AcDbEntity
  8
0
  6
Continuous
 62
     7
370
    15
100
AcDbLine
 10
226.0164520606
 20
458.006044302
 30
0.0
 11
224.5164415702
 21
458.006044302
 31
0.0
  0
LINE
  5
1F1
330
1F
100
AcDbEntity
  8
0
  6
Continuous
 62
     7
370
    15
100
AcDbLine
 10
224.5164415702
 20
458.006044302
 30
0.0
 11
224.5164415702
 21
457.206045661
 31
0.0
  0
LINE
  5
1F2
330
1F
100
AcDbEntity
  8
0
  6
Continuous
 62
     7
370
    15
100
AcDbLine
 10
226.0164520606
 20
457.206045661
 30
0.0
 11
226.0164520606
 21
455.7060351705
 31
0.0
  0
LINE
  5
1F3
330
1F
100
AcDbEntity
  8
0
  6
Continuous
 62
     7
370
    15
100
AcDbLine
 10
226.8164507016
 20
457.206045661
 30
0.0
 11
228.3164462909
 21
457.206045661
 31
0.0
  0
LINE
  5
1F4
330
1F
100
AcDbEntity
  8
0
  6
Continuous
 62
     7
370
    15
100
AcDbLine
 10
228.3164462909
 20
457.206045661
 30
0.0
 11
228.3164462909
 21
458.006044302
 31
0.0
  0
LINE
  5
1F5
330
1F
100
AcDbEntity
  8
0
  6
Continuous
 62
     7
370
    15
100
AcDbLine
 10
228.3164462909
 20
458.006044302
 30
0.0
 11
226.8164507016
 21
458.006044302
 31
0.0
  0
LINE
  5
1F6
330
1F
100
AcDbEntity
  8
0
  6
Continuous
 62
     7
370
    15
100
AcDbLine
 10
226.8164507016
 20
458.006044302
 30
0.0
 11
226.8164507016
 21
459.5060398912
 31
0.0
  0
LINE
  5
1F7
330
1F
100
AcDbEntity
  8
0
  6
Continuous
 62
     7
370
    15
100
AcDbLine
 10
226.8164507016
 20
459.5060398912
 30
0.0
 11
226.0164520606
 21
459.5060398912
 31
0.0
  0
LINE
  5
1F8
330
1F
100
AcDbEntity
  8
0
  6
Continuous
 62
     7
370
    15
100
AcDbLine
 10
226.0164520606
 20
459.5060398912
 30
0.0
 11
226.0164520606
 21
458.006044302
 31
0.0
  0
LINE
  5
1F9
330
1F
100
AcDbEntity
  8
0
  6
Continuous
 62
     7
370
    15
100
AcDbLine
 10
224.5164415702
 20
457.206045661
 30
0.0
 11
226.0164520606
 21
457.206045661
 31
0.0
  0
LINE
  5
1FA
330
1F
100
AcDbEntity
  8
0
  6
Continuous
 62
     7
370
    15
100
AcDbLine
 10
226.0164520606
 20
455.7060351705
 30
0.0
 11
226.8164507016
 21
455.7060351705
 31
0.0
  0
LINE
  5
1FB
330
1F
100
AcDbEntity
  8
0
  6
Continuous
 62
     7
370
    15
100
AcDbLine
 10
226.8164507016
 20
455.7060351705
 30
0.0
 11
226.8164507016
 21
457.206045661
 31
0.0
  0
LINE
  5
1FC
330
1F
100
AcDbEntity
  8
0
  6
Continuous
 62
     7
370
    15
100
AcDbLine
 10
220.4164466724
 20
89.1060432529
 30
0.0
 11
225.3986797198
 21
93.7079241609
 31
0.0
  0
ARC
  5
1FD
330
1F
100
AcDbEntity
  8
0
  6
Continuous
 62
     7
370
    15
100
AcDbCircle
 10
226.4164448366
 20
92.6060399151
 30
0.0
 40
1.499999999999969
100
AcDbArc
 50
43.6028189726
 51
132.7273953127
  0
ARC
  5
1FE
330
1F
100
AcDbEntity
  8
0
  6
Continuous
 62
     7
370
    15
100
AcDbCircle
 10
215.9164448365
 20
82.6060399151
 30
0.0
 40
16.00000000000019
100
AcDbArc
 50
316.3971810272
 51
43.6028189726
  0
ARC
  5
1FF
330
1F
100
AcDbEntity
  8
0
  6
Continuous
 62
     7
370
    15
100
AcDbCircle
 10
226.4164448365
 20
72.6060399151
 30
0.0
 40
1.499999999999765
100
AcDbArc
 50
227.2726046868
 51
316.3971810272
  0
LINE
  5
200
330
1F
100
AcDbEntity
  8
0
  6
Continuous
 62
     7
370
    15
100
AcDbLine
 10
225.3986797198
 20
71.5041509008
 30
0.0
 11
220.4164466724
 21
76.10604671
 31
0.0
  0
LINE
  5
201
330
1F
100
AcDbEntity
  8
0
  6
Continuous
 62
     7
370
    15
100
AcDbLine
 10
220.2154300079
 20
89.1060432529
 30
0.0
 11
220.4164466724
 21
89.1060432529
 31
0.0
  0
LINE
  5
202
330
1F
100
AcDbEntity
  8
0
  6
Continuous
 62
     7
370
    15
100
AcDbLine
 10
220.4164466724
 20
76.10604671
 30
0.0
 11
220.2154300079
 21
76.10604671
 31
0.0
  0
LINE
  5
203
330
1F
100
AcDbEntity
  8
0
  6
Continuous
 62
     7
370
    15
100
AcDbLine
 10
225.3986797198
 20
441.5041556692
 30
0.0
 11
220.4164466724
 21
446.1060365772
 31
0.0
  0
LINE
  5
204
330
1F
100
AcDbEntity
  8
0
  6
Continuous
 62
     7
370
    15
100
AcDbLine
 10
220.4164466724
 20
459.1060331201
 30
0.0
 11
225.3986797198
 21
463.7079289293
 31
0.0
  0
ARC
  5
205
330
1F
100
AcDbEntity
  8
0
  6
Continuous
 62
     7
370
    15
100
AcDbCircle
 10
226.4164448366
 20
462.6060399151
 30
0.0
 40
1.500000000000029
100
AcDbArc
 50
43.6028189726
 51
132.7273953127
  0
ARC
  5
206
330
1F
100
AcDbEntity
  8
0
  6
Continuous
 62
     7
370
    15
100
AcDbCircle
 10
215.9164448365
 20
452.6060399151
 30
0.0
 40
16.00000000000025
100
AcDbArc
 50
316.3971810272
 51
43.6028189726
  0
ARC
  5
207
330
1F
100
AcDbEntity
  8
0
  6
Continuous
 62
     7
370
    15
100
AcDbCircle
 10
226.4164448365
 20
442.6060399151
 30
0.0
 40
1.500000000000117
100
AcDbArc
 50
227.2726046868
 51
316.3971810272
  0
LINE
  5
208
330
1F
100
AcDbEntity
  8
0
  6
Continuous
 62
     7
370
    15
100
AcDbLine
 10
220.2154300079
 20
459.1060331201
 30
0.0
 11
220.4164466724
 21
459.1060331201
 31
0.0
  0
LINE
  5
209
330
1F
100
AcDbEntity
  8
0
  6
Continuous
 62
     7
370
    15
100
AcDbLine
 10
220.4164466724
 20
446.1060365772
 30
0.0
 11
220.2154300079
 21
446.1060365772
 31
0.0
  0
LINE
  5
20A
330
1F
100
AcDbEntity
  8
0
  6
Continuous
 62
     7
370
    15
100
AcDbLine
 10
228.4164479837
 20
32.6060405111
 30
0.0
 11
228.4164479837
 21
72.6185491419
 31
0.0
  0
LINE
  5
20B
330
1F
100
AcDbEntity
  8
0
  6
Continuous
 62
     7
370
    15
100
AcDbLine
 10
223.4164378509
 20
32.6060405111
 30
0.0
 11
228.4164479837
 21
32.6060405111
 31
0.0
  0
LINE
  5
20C
330
1F
100
AcDbEntity
  8
0
  6
Continuous
 62
     7
370
    15
100
AcDbLine
 10
223.4164378509
 20
32.6060405111
 30
0.0
 11
223.4164378509
 21
73.3350565767
 31
0.0
  0
LINE
  5
20D
330
1F
100
AcDbEntity
  8
0
  6
Continuous
 62
     7
370
    15
100
AcDbLine
 10
223.4164378509
 20
17.6060399151
 30
0.0
 11
228.4164479837
 21
17.6060399151
 31
0.0
  0
LINE
  5
20E
330
1F
100
AcDbEntity
  8
0
  6
Continuous
 62
     7
370
    15
100
AcDbLine
 10
228.4164479837
 20
32.6060405111
 30
0.0
 11
228.4164479837
 21
17.6060399151
 31
0.0
  0
LINE
  5
20F
330
1F
100
AcDbEntity
  8
0
  6
Continuous
 62
     7
370
    15
100
AcDbLine
 10
223.4164378509
 20
32.6060405111
 30
0.0
 11
223.4164378509
 21
17.6060399151
 31
0.0
  0
LINE
  5
210
330
1F
100
AcDbEntity
  8
0
  6
Continuous
 62
     7
370
    15
100
AcDbLine
 10
228.4164479837
 20
92.5935259199
 30
0.0
 11
228.4164479837
 21
442.6185539102
 31
0.0
  0
LINE
  5
211
330
1F
100
AcDbEntity
  8
0
  6
Continuous
 62
     7
370
    15
100
AcDbLine
 10
223.4164378509
 20
91.8770184851
 30
0.0
 11
223.4164378509
 21
443.3350613451
 31
0.0
  0
LINE
  5
212
330
1F
100
AcDbEntity
  8
0
  6
Continuous
 62
     7
370
    15
100
AcDbLine
 10
228.4164479837
 20
32.6060405111
 30
0.0
 11
243.4164485797
 21
32.6060405111
 31
0.0
  0
ARC
  5
213
330
1F
100
AcDbEntity
  8
0
  6
Continuous
 62
     7
370
    15
100
AcDbCircle
 10
228.4164448365
 20
32.6060399151
 30
0.0
 40
15.00000000000004
100
AcDbArc
 50
270.0
 51
0.0
  0
LINE
  5
214
330
1F
100
AcDbEntity
  8
0
  6
Continuous
 62
     7
370
    15
100
AcDbLine
 10
228.4164479837
 20
462.5935306883
 30
0.0
 11
228.4164479837
 21
502.606039319
 31
0.0
  0
LINE
  5
215
330
1F
100
AcDbEntity
  8
0
  6
Continuous
 62
     7
370
    15
100
AcDbLine
 10
228.4164479837
 20
502.606039319
 30
0.0
 11
243.4164485797
 21
502.606039319
 31
0.0
  0
LINE
  5
216
330
1F
100
AcDbEntity
  8
0
  6
Continuous
 62
     7
370
    15
100
AcDbLine
 10
243.4164485797
 20
32.6060405111
 30
0.0
 11
243.4164485797
 21
502.606039319
 31
0.0
  0
LINE
  5
217
330
1F
100
AcDbEntity
  8
0
  6
Continuous
 62
     7
370
    15
100
AcDbLine
 10
223.4164378509
 20
502.606039319
 30
0.0
 11
228.4164479837
 21
502.606039319
 31
0.0
  0
LINE
  5
218
330
1F
100
AcDbEntity
  8
0
  6
Continuous
 62
     7
370
    15
100
AcDbLine
 10
223.4164378509
 20
517.6060399151
 30
0.0
 11
228.4164479837
 21
517.6060399151
 31
0.0
  0
LINE
  5
219
330
1F
100
AcDbEntity
  8
0
  6
Continuous
 62
     7
370
    15
100
AcDbLine
 10
228.4164479837
 20
502.606039319
 30
0.0
 11
228.4164479837
 21
517.6060399151
 31
0.0
  0
LINE
  5
21A
330
1F
100
AcDbEntity
  8
0
  6
Continuous
 62
     7
370
    15
100
AcDbLine
 10
223.4164378509
 20
502.606039319
 30
0.0
 11
223.4164378509
 21
517.6060399151
 31
0.0
  0
LINE
  5
21B
330
1F
100
AcDbEntity
  8
0
  6
Continuous
 62
     7
370
    15
100
AcDbLine
 10
223.4164378509
 20
461.8770232534
 30
0.0
 11
223.4164378509
 21
502.606039319
 31
0.0
  0
ARC
  5
21C
330
1F
100
AcDbEntity
  8
0
  6
Continuous
 62
     7
370
    15
100
AcDbCircle
 10
228.4164448365
 20
502.6060399151
 30
0.0
 40
15.00000000000011
100
AcDbArc
 50
0.0
 51
90.0
  0
SPLINE
  5
21D
330
1F
100
AcDbEntity
  8
0
  6
Continuous
 62
     7
370
    15
100
AcDbSpline
210
0.0
220
0.0
230
1.0
 70
     8
 71
     3
 72
    16
 73
    12
 74
     0
 42
0.00000001
 43
0.00000001
 40
0.0
 40
0.0
 40
0.0
 40
0.0
 40
0.120707761424076
 40
0.2414123616241315
 40
0.3621194981493698
 40
0.4828235670171712
 40
0.6035307673899819
 40
0.7242386406640752
 40
0.8449448794074956
 40
0.9656483252743936
 40
1.0
 40
1.0
 40
1.0
 40
1.0
 10
201.5687427386474
 20
69.65366509913312
 30
0.0
 10
201.5881437075538
 20
69.65633929044331
 30
0.0
 10
201.626945137273
 20
69.66168760302918
 30
0.0
 10
201.6318683111963
 20
69.95264198577262
 30
0.0
 10
201.5946547618878
 20
70.40597135562463
 30
0.0
 10
201.5177535534556
 20
70.97350324920218
 30
0.0
 10
201.4139203056489
 20
71.56182323094059
 30
0.0
 10
201.29783270826
 20
72.08852275664503
 30
0.0
 10
201.1908208680622
 20
72.45181235926736
 30
0.0
 10
201.1182452874604
 20
72.62227664483747
 30
0.0
 10
201.0986954412183
 20
72.5891189868308
 30
0.0
 10
201.0943642720413
 20
72.58177307604657
 30
0.0
  0
SPLINE
  5
21E
330
1F
100
AcDbEntity
  8
0
  6
Continuous
 62
     7
370
    15
100
AcDbSpline
210
0.0
220
0.0
230
1.0
 70
     8
 71
     3
 72
    16
 73
    12
 74
     0
 42
0.00000001
 43
0.00000001
 40
0.0
 40
0.0
 40
0.0
 40
0.0
 40
0.1205835500006272
 40
0.2411639420302155
 40
0.3617468677750422
 40
0.4823271212948927
 40
0.6029095790313884
 40
0.7234904642075044
 40
0.84407714114446
 40
0.9646563800287297
 40
1.0
 40
1.0
 40
1.0
 40
1.0
 10
201.7393312319946
 20
95.52969542502271
 30
0.0
 10
201.7587323506365
 20
95.52702120335404
 30
0.0
 10
201.797534079823
 20
95.52167283005205
 30
0.0
 10
201.8024550077711
 20
95.2307189026737
 30
0.0
 10
201.7652499528778
 20
94.7773873108293
 30
0.0
 10
201.6883168168035
 20
94.20986191653779
 30
0.0
 10
201.5845157912765
 20
93.6215339537809
 30
0.0
 10
201.4684211212208
 20
93.09486139333495
 30
0.0
 10
201.3613887585949
 20
92.73140100024752
 30
0.0
 10
201.2886263185617
 20
92.56085918929548
 30
0.0
 10
201.2689872045916
 20
92.59443795840922
 30
0.0
 10
201.264535532875
 20
92.60204938410627
 30
0.0
  0
SPLINE
  5
21F
330
1F
100
AcDbEntity
  8
0
  6
Continuous
 62
     7
370
    15
100
AcDbSpline
210
0.0
220
0.0
230
1.0
 70
     8
 71
     3
 72
    16
 73
    12
 74
     0
 42
0.00000001
 43
0.00000001
 40
0.0
 40
0.0
 40
0.0
 40
0.0
 40
0.1205122675012746
 40
0.2410329058832494
 40
0.3615506369968121
 40
0.4820656973301697
 40
0.602582960688436
 40
0.7231014273947975
 40
0.8436163365980531
 40
0.9641370770827385
 40
1.0
 40
1.0
 40
1.0
 40
1.0
 10
217.1097150906753
 20
72.27008548735486
 30
0.0
 10
217.1291161681339
 20
72.27276290009432
 30
0.0
 10
217.1679196706657
 20
72.27811791154856
 30
0.0
 10
217.1728389078113
 20
72.569051676805
 30
0.0
 10
217.135633770885
 20
73.02239518718856
 30
0.0
 10
217.0587013565509
 20
73.58991616556204
 30
0.0
 10
216.9548961695672
 20
74.17826121002102
 30
0.0
 10
216.8388153141188
 20
74.70488168271069
 30
0.0
 10
216.7317501303058
 20
75.06845384854444
 30
0.0
 10
216.6589077018958
 20
75.23905263091893
 30
0.0
 10
216.6392125052479
 20
75.20523377045785
 30
0.0
 10
216.6346958741379
 20
75.19747820853101
 30
0.0
  0
SPLINE
  5
220
330
1F
100
AcDbEntity
  8
0
  6
Continuous
 62
     7
370
    15
100
AcDbSpline
210
0.0
220
0.0
230
1.0
 70
     8
 71
     3
 72
    16
 73
    12
 74
     0
 42
0.00000001
 43
0.00000001
 40
0.0
 40
0.0
 40
0.0
 40
0.0
 40
0.1205120525075836
 40
0.2410310559281205
 40
0.3615485720382453
 40
0.482066311146497
 40
0.6025833595021597
 40
0.7231022012127077
 40
0.8436163367159938
 40
0.9641310535375993
 40
1.0
 40
1.0
 40
1.0
 40
1.0
 10
217.2803035840225
 20
92.91327503680097
 30
0.0
 10
217.2997046662926
 20
92.91059640370649
 30
0.0
 10
217.3385079498515
 20
92.90523898301895
 30
0.0
 10
217.3434274094134
 20
92.61432633356442
 30
0.0
 10
217.306221684482
 20
92.16097571226916
 30
0.0
 10
217.2292894329096
 20
91.59344894230942
 30
0.0
 10
217.1254911885049
 20
91.00509748117119
 30
0.0
 10
217.0093780658187
 20
90.4784816035113
 30
0.0
 10
216.9023495040757
 20
90.11491177915617
 30
0.0
 10
216.8294908753808
 20
89.9443094715196
 30
0.0
 10
216.809800623139
 20
89.97812598856395
 30
0.0
 10
216.805284367485
 20
89.98588231562482
 30
0.0
  0
SPLINE
  5
221
330
1F
100
AcDbEntity
  8
0
  6
Continuous
 62
     7
370
    15
100
AcDbSpline
210
0.0
220
0.0
230
1.0
 70
    24
 71
     3
 72
    16
 73
    12
 74
     0
 42
0.00000001
 43
0.00000001
 40
0.0
 40
0.0
 40
0.0
 40
0.0
 40
0.0611102845076972
 40
0.1864723954319963
 40
0.3118322208390296
 40
0.4371944708864321
 40
0.5625589540335474
 40
0.6879198579853077
 40
0.813281951356681
 40
0.9386471442034847
 40
1.0
 40
1.0
 40
1.0
 40
1.0
 10
220.1866260632706
 20
75.73980597018107
 30
0.0
 10
220.1923998211465
 20
75.73980597018104
 30
0.0
 10
220.2100179106453
 20
75.7398059701811
 30
0.0
 10
219.9915864737804
 20
75.73980597018112
 30
0.0
 10
219.5788399118485
 20
75.73980597018101
 30
0.0
 10
219.0223792199623
 20
75.73980597018115
 30
0.0
 10
218.4232748123093
 20
75.73980597018112
 30
0.0
 10
217.8645708278166
 20
75.7398059701811
 30
0.0
 10
217.4476116870569
 20
75.7398059701811
 30
0.0
 10
217.2246199693542
 20
75.73980597018112
 30
0.0
 10
217.2394345283255
 20
75.73980597018112
 30
0.0
 10
217.2443023785782
 20
75.7398059701811
 30
0.0
  0
SPLINE
  5
222
330
1F
100
AcDbEntity
  8
0
  6
Continuous
 62
     7
370
    15
100
AcDbSpline
210
0.0
220
0.0
230
1.0
 70
    24
 71
     3
 72
    16
 73
    12
 74
     0
 42
0.00000001
 43
0.00000001
 40
0.0
 40
0.0
 40
0.0
 40
0.0
 40
0.0610129142997457
 40
0.1861752792253431
 40
0.3113353622753087
 40
0.4364978661023373
 40
0.5616625994709642
 40
0.6868237593471552
 40
0.8119861067477948
 40
0.9371515486853087
 40
1.0
 40
1.0
 40
1.0
 40
1.0
 10
220.1866260632706
 20
89.29843214510785
 30
0.0
 10
220.1923998149455
 20
89.29843214510785
 30
0.0
 10
220.2100178855227
 20
89.29843214510782
 30
0.0
 10
219.9915867066747
 20
89.29843214510791
 30
0.0
 10
219.5788390585667
 20
89.2984321451078
 30
0.0
 10
219.0223824002921
 20
89.29843214510788
 30
0.0
 10
218.4232629442126
 20
89.29843214510785
 30
0.0
 10
217.8646151185931
 20
89.29843214510788
 30
0.0
 10
217.4474463880874
 20
89.29843214510782
 30
0.0
 10
217.2239667523281
 20
89.29843214510794
 30
0.0
 10
217.2391853656235
 20
89.29843214510785
 30
0.0
 10
217.2442725762558
 20
89.29843214510785
 30
0.0
  0
SPLINE
  5
223
330
1F
100
AcDbEntity
  8
0
  6
Continuous
 62
     7
370
    15
100
AcDbSpline
210
0.0
220
0.0
230
1.0
 70
     8
 71
     3
 72
    19
 73
    15
 74
     0
 42
0.00000001
 43
0.00000001
 40
0.0
 40
0.0
 40
0.0
 40
0.0
 40
0.003953721680559
 40
0.1157570360054298
 40
0.2280474720361882
 40
0.3355171326826881
 40
0.437698820219151
 40
0.5348769158738116
 40
0.6282994579906486
 40
0.7302896706601966
 40
0.8413352404290207
 40
0.964130766595963
 40
0.9937687887181259
 40
1.0
 40
1.0
 40
1.0
 40
1.0
 10
206.5147212609482
 20
88.20604291914808
 30
0.0
 10
206.5151135190363
 20
88.2060358815182
 30
0.0
 10
206.5265980486283
 20
88.20582983383996
 30
0.0
 10
206.5499281723315
 20
88.19074979459293
 30
0.0
 10
206.5933832472234
 20
88.12384152655706
 30
0.0
 10
206.6313702710171
 20
88.01913702268513
 30
0.0
 10
206.6548716079222
 20
87.89407236580779
 30
0.0
 10
206.6662136820485
 20
87.7656414773062
 30
0.0
 10
206.666790894282
 20
87.64445714866487
 30
0.0
 10
206.6510275011936
 20
87.5352426575689
 30
0.0
 10
206.6106301936166
 20
87.44580229670257
 30
0.0
 10
206.5588194670954
 20
87.41076424022238
 30
0.0
 10
206.5240572412011
 20
87.40614708485789
 30
0.0
 10
206.5161030626349
 20
87.40605949437271
 30
0.0
 10
206.5147212609482
 20
87.40604427813398
 30
0.0
  0
SPLINE
  5
224
330
1F
100
AcDbEntity
  8
0
  6
Continuous
 62
     7
370
    15
100
AcDbSpline
210
0.0
220
0.0
230
1.0
 70
     8
 71
     3
 72
    30
 73
    26
 74
     0
 42
0.00000001
 43
0.00000001
 40
0.0
 40
0.0
 40
0.0
 40
0.0
 40
0.1247000415828477
 40
0.2494041247759927
 40
0.3741264313845801
 40
0.4367790009670069
 40
0.468149418097036
 40
0.4838369840818006
 40
0.4916891840248749
 40
0.4956084813573713
 40
0.49756642036076
 40
0.4985456794127421
 40
0.4990365738999413
 40
0.499282021143541
 40
0.4994151336008519
 40
0.4994758422218921
 40
0.4995024647133543
 40
0.4995143706534823
 40
0.4995409931449445
 40
0.5609160024894105
 40
0.6646253420398469
 40
0.7325807281036797
 40
0.8111526645769015
 40
0.9003087230150575
 40
1.0
 40
1.0
 40
1.0
 40
1.0
 10
206.586425648613
 20
88.26593068598615
 30
0.0
 10
206.592190063742
 20
88.26413922295373
 30
0.0
 10
206.6037190808287
 20
88.26055623882637
 30
0.0
 10
206.6935708867662
 20
88.23869958329061
 30
0.0
 10
206.8010336554063
 20
88.21303714291406
 30
0.0
 10
206.8865876514305
 20
88.19262123166708
 30
0.0
 10
206.9306873379701
 20
88.18209379681235
 30
0.0
 10
206.9529133616844
 20
88.17675393610507
 30
0.0
 10
206.9640510118375
 20
88.1741104343643
 30
0.0
 10
206.9696173508297
 20
88.1727637629454
 30
0.0
 10
206.9724001381991
 20
88.17210049636246
 30
0.0
 10
206.9737928098129
 20
88.17177634729289
 30
0.0
 10
206.9744864655021
 20
88.17160196323479
 30
0.0
 10
206.9748387790146
 20
88.17151230826262
 30
0.0
 10
206.9750160067233
 20
88.1714706085378
 30
0.0
 10
206.9751114908089
 20
88.17147015407753
 30
0.0
 10
206.9751454999573
 20
88.17143994504679
 30
0.0
 10
206.975173838689
 20
88.17144475400163
 30
0.0
 10
206.9969529070802
 20
88.15519784750447
 30
0.0
 10
207.0700249826596
 20
88.15903830748456
 30
0.0
 10
207.1578689637725
 20
88.12968558446208
 30
0.0
 10
207.2420562811278
 20
88.11444220077516
 30
0.0
 10
207.3054198713168
 20
88.10106816775554
 30
0.0
 10
207.3559959070508
 20
88.09156958053977
 30
0.0
 10
207.3632130794847
 20
88.09108365678101
 30
0.0
 10
207.3670229777527
 20
88.09082714079724
 30
0.0
  0
ELLIPSE
  5
225
330
1F
100
AcDbEntity
  8
0
  6
Continuous
 62
     7
370
    15
100
AcDbEllipse
 10
207.2435532303
 20
89.3880150938
 30
0.0
 11
0.3906095144045594
 21
-0.08616383961160068
 31
0.0
210
0.0
220
0.0
230
1.0
 40
0.0142285888
 41
0.0
 42
6.283185307179586
  0
LINE
  5
226
330
1F
100
AcDbEntity
  8
0
  6
Continuous
 62
     7
370
    15
100
AcDbLine
 10
206.6273740396
 20
77.9060324764
 30
0.0
 11
206.6273740396
 21
86.5060439443
 31
0.0
  0
LINE
  5
227
330
1F
100
AcDbEntity
  8
0
  6
Continuous
 62
     7
370
    15
100
AcDbLine
 10
201.1130801305
 20
77.9060324764
 30
0.0
 11
201.1130801305
 21
86.5060439443
 31
0.0
  0
LINE
  5
228
330
1F
100
AcDbEntity
  8
0
  6
Continuous
 62
     7
370
    15
100
AcDbLine
 10
206.6273740396
 20
86.5060439443
 30
0.0
 11
201.1130801305
 21
86.5060439443
 31
0.0
  0
LINE
  5
229
330
1F
100
AcDbEntity
  8
0
  6
Continuous
 62
     7
370
    15
100
AcDbLine
 10
206.6273740396
 20
77.9060324764
 30
0.0
 11
201.1130801305
 21
77.9060324764
 31
0.0
  0
LINE
  5
22A
330
1F
100
AcDbEntity
  8
0
  6
Continuous
 62
     7
370
    15
100
AcDbLine
 10
199.9988159999
 20
89.8060402012
 30
0.0
 11
175.1867136821
 21
89.8060402012
 31
0.0
  0
LINE
  5
22B
330
1F
100
AcDbEntity
  8
0
  6
Continuous
 62
     7
370
    15
100
AcDbLine
 10
199.9988159999
 20
86.5060439443
 30
0.0
 11
199.9988159999
 21
89.8060402012
 31
0.0
  0
LINE
  5
22C
330
1F
100
AcDbEntity
  8
0
  6
Continuous
 62
     7
370
    15
100
AcDbLine
 10
199.9988159999
 20
75.4060348606
 30
0.0
 11
199.9988159999
 21
77.9060324764
 31
0.0
  0
LINE
  5
22D
330
1F
100
AcDbEntity
  8
0
  6
Continuous
 62
     7
370
    15
100
AcDbLine
 10
175.1867136821
 20
75.4060348606
 30
0.0
 11
199.9988159999
 21
75.4060348606
 31
0.0
  0
LINE
  5
22E
330
1F
100
AcDbEntity
  8
0
  6
Continuous
 62
     7
370
    15
100
AcDbLine
 10
175.1867136821
 20
75.4060348606
 30
0.0
 11
175.1867136821
 21
89.8060402012
 31
0.0
  0
LINE
  5
22F
330
1F
100
AcDbEntity
  8
0
  6
Continuous
 62
     7
370
    15
100
AcDbLine
 10
199.9988159999
 20
86.5060439443
 30
0.0
 11
201.1130801305
 21
86.5060439443
 31
0.0
  0
LINE
  5
230
330
1F
100
AcDbEntity
  8
0
  6
Continuous
 62
     7
370
    15
100
AcDbLine
 10
199.9988159999
 20
77.9060324764
 30
0.0
 11
201.1130801305
 21
77.9060324764
 31
0.0
  0
LINE
  5
231
330
1F
100
AcDbEntity
  8
0
  6
Continuous
 62
     7
370
    15
100
AcDbLine
 10
202.0186833009
 20
90.6033864355
 30
0.0
 11
200.1264444455
 21
90.6033864355
 31
0.0
  0
ARC
  5
232
330
1F
100
AcDbEntity
  8
0
  6
Continuous
 62
     7
370
    15
100
AcDbCircle
 10
201.473102446
 20
89.9789439227
 30
0.0
 40
1.484390858944844
100
AcDbArc
 50
155.1229432741
 51
186.6890693855
  0
ARC
  5
233
330
1F
100
AcDbEntity
  8
0
  6
Continuous
 62
     7
370
    15
100
AcDbCircle
 10
176.442636479
 20
90.0000049841
 30
0.0
 40
1.270812499494435
100
AcDbArc
 50
151.5177215739
 51
188.7794004158
  0
LINE
  5
234
330
1F
100
AcDbEntity
  8
0
  6
Continuous
 62
     7
370
    15
100
AcDbLine
 10
175.3256372079
 20
90.6060388422
 30
0.0
 11
202.6914409265
 21
90.6060388422
 31
0.0
  0
LINE
  5
235
330
1F
100
AcDbEntity
  8
0
  6
Continuous
 62
     7
370
    15
100
AcDbLine
 10
202.6914409265
 20
90.6060388422
 30
0.0
 11
202.0186833009
 21
90.6033864355
 31
0.0
  0
LINE
  5
236
330
1F
100
AcDbEntity
  8
0
  6
Continuous
 62
     7
370
    15
100
AcDbLine
 10
200.1264444455
 20
74.6086886263
 30
0.0
 11
202.0186833009
 21
74.6086886263
 31
0.0
  0
LINE
  5
237
330
1F
100
AcDbEntity
  8
0
  6
Continuous
 62
     7
370
    15
100
AcDbLine
 10
202.0186833009
 20
74.6086886263
 30
0.0
 11
202.6914409265
 21
74.6060362196
 31
0.0
  0
LINE
  5
238
330
1F
100
AcDbEntity
  8
0
  6
Continuous
 62
     7
370
    15
100
AcDbLine
 10
202.6914409265
 20
74.6060362196
 30
0.0
 11
175.3256372079
 21
74.6060362196
 31
0.0
  0
ARC
  5
239
330
1F
100
AcDbEntity
  8
0
  6
Continuous
 62
     7
370
    15
100
AcDbCircle
 10
176.442636479
 20
75.2120700777
 30
0.0
 40
1.270812499494435
100
AcDbArc
 50
171.2205995842
 51
208.4822784261
  0
ARC
  5
23A
330
1F
100
AcDbEntity
  8
0
  6
Continuous
 62
     7
370
    15
100
AcDbCircle
 10
201.4731309885
 20
75.2331357078
 30
0.0
 40
1.484418674970837
100
AcDbArc
 50
173.3112340828
 51
204.8767532576
  0
LINE
  5
23B
330
1F
100
AcDbEntity
  8
0
  6
Continuous
 62
     7
370
    15
100
AcDbLine
 10
200.1264444455
 20
74.6086886263
 30
0.0
 11
200.1264444455
 21
75.4060348606
 31
0.0
  0
LINE
  5
23C
330
1F
100
AcDbEntity
  8
0
  6
Continuous
 62
     7
370
    15
100
AcDbLine
 10
200.1377395257
 20
77.9060324764
 30
0.0
 11
200.1377395257
 21
75.4060348606
 31
0.0
  0
LINE
  5
23D
330
1F
100
AcDbEntity
  8
0
  6
Continuous
 62
     7
370
    15
100
AcDbLine
 10
200.1264444455
 20
89.8060402012
 30
0.0
 11
200.1264444455
 21
90.6033864355
 31
0.0
  0
LINE
  5
23E
330
1F
100
AcDbEntity
  8
0
  6
Continuous
 62
     7
370
    15
100
AcDbLine
 10
200.1377395257
 20
89.8060402012
 30
0.0
 11
200.1377395257
 21
86.5060439443
 31
0.0
  0
LINE
  5
23F
330
1F
100
AcDbEntity
  8
0
  6
Continuous
 62
     7
370
    15
100
AcDbLine
 10
206.1264417037
 20
74.6060362196
 30
0.0
 11
202.6914409265
 21
74.6060362196
 31
0.0
  0
LINE
  5
240
330
1F
100
AcDbEntity
  8
0
  6
Continuous
 62
     7
370
    15
100
AcDbLine
 10
202.0186833009
 20
74.6086886263
 30
0.0
 11
202.0186833009
 21
75.4060348606
 31
0.0
  0
LINE
  5
241
330
1F
100
AcDbEntity
  8
0
  6
Continuous
 62
     7
370
    15
100
AcDbLine
 10
206.1264417037
 20
75.4060348606
 30
0.0
 11
202.0186833009
 21
75.4060348606
 31
0.0
  0
LINE
  5
242
330
1F
100
AcDbEntity
  8
0
  6
Continuous
 62
     7
370
    15
100
AcDbLine
 10
202.0186833009
 20
89.8060402012
 30
0.0
 11
202.0186833009
 21
90.6033864355
 31
0.0
  0
LINE
  5
243
330
1F
100
AcDbEntity
  8
0
  6
Continuous
 62
     7
370
    15
100
AcDbLine
 10
206.1264417037
 20
90.6060388422
 30
0.0
 11
202.6914409265
 21
90.6060388422
 31
0.0
  0
LINE
  5
244
330
1F
100
AcDbEntity
  8
0
  6
Continuous
 62
     7
370
    15
100
AcDbLine
 10
206.1264417037
 20
89.8060402012
 30
0.0
 11
202.0186833009
 21
89.8060402012
 31
0.0
  0
LINE
  5
245
330
1F
100
AcDbEntity
  8
0
  6
Continuous
 62
     7
370
    15
100
AcDbLine
 10
200.1264444455
 20
89.8060402012
 30
0.0
 11
202.0186833009
 21
89.8060402012
 31
0.0
  0
LINE
  5
246
330
1F
100
AcDbEntity
  8
0
  6
Continuous
 62
     7
370
    15
100
AcDbLine
 10
200.1264444455
 20
75.4060348606
 30
0.0
 11
202.0186833009
 21
75.4060348606
 31
0.0
  0
LINE
  5
247
330
1F
100
AcDbEntity
  8
0
  6
Continuous
 62
     7
370
    15
100
AcDbLine
 10
201.1964521274
 20
90.9060439205
 30
0.0
 11
205.5964521035
 21
90.9060439205
 31
0.0
  0
LINE
  5
248
330
1F
100
AcDbEntity
  8
0
  6
Continuous
 62
     7
370
    15
100
AcDbLine
 10
201.296438919
 20
74.2060443497
 30
0.0
 11
205.4964504108
 21
74.2060443497
 31
0.0
  0
LINE
  5
249
330
1F
100
AcDbEntity
  8
0
  6
Continuous
 62
     7
370
    15
100
AcDbLine
 10
201.296438919
 20
73.8060375786
 30
0.0
 11
205.4964504108
 21
73.8060375786
 31
0.0
  0
ARC
  5
24A
330
1F
100
AcDbEntity
  8
0
  6
Continuous
 62
     7
370
    15
100
AcDbCircle
 10
183.5923581221
 20
82.6060375309
 30
0.0
 40
16.90401408232909
100
AcDbArc
 50
154.7901718738
 51
205.2098281262
  0
SPLINE
  5
24B
330
1F
100
AcDbEntity
  8
0
  6
Continuous
 62
     7
370
    15
100
AcDbSpline
210
0.0
220
0.0
230
1.0
 70
     8
 71
     3
 72
    12
 73
     8
 74
     0
 42
0.00000001
 43
0.00000001
 40
0.0
 40
0.0
 40
0.0
 40
0.0
 40
0.1818625204890634
 40
0.3633463119933281
 40
0.5550863729062995
 40
0.7712593806470155
 40
1.0
 40
1.0
 40
1.0
 40
1.0
 10
168.430765615387
 20
74.60603621958597
 30
0.0
 10
168.454622881177
 20
74.61336131932266
 30
0.0
 10
168.5022877299635
 20
74.62799626426434
 30
0.0
 10
168.5170311455644
 20
74.73997470832894
 30
0.0
 10
168.4898015430421
 20
74.90937135463021
 30
0.0
 10
168.4181176755337
 20
75.13779878518595
 30
0.0
 10
168.3390396055663
 20
75.31495477560593
 30
0.0
 10
168.2983836993408
 20
75.4060348606001
 30
0.0
  0
LINE
  5
24C
330
1F
100
AcDbEntity
  8
0
  6
Continuous
 62
     7
370
    15
100
AcDbLine
 10
168.0464050636
 20
75.3605416155
 30
0.0
 11
168.4008440837
 21
74.6060362196
 31
0.0
  0
ARC
  5
24D
330
1F
100
AcDbEntity
  8
0
  6
Continuous
 62
     7
370
    15
100
AcDbCircle
 10
183.3169407124
 20
82.6060375309
 30
0.0
 40
16.90226227646354
100
AcDbArc
 50
154.6168036234
 51
205.3831963766
  0
LINE
  5
24E
330
1F
100
AcDbEntity
  8
0
  6
Continuous
 62
     7
370
    15
100
AcDbLine
 10
168.4008440837
 20
90.6060388422
 30
0.0
 11
168.0464050636
 21
89.8515334463
 31
0.0
  0
SPLINE
  5
24F
330
1F
100
AcDbEntity
  8
0
  6
Continuous
 62
     7
370
    15
100
AcDbSpline
210
0.0
220
0.0
230
1.0
 70
     8
 71
     3
 72
    12
 73
     8
 74
     0
 42
0.00000001
 43
0.00000001
 40
0.0
 40
0.0
 40
0.0
 40
0.0
 40
0.2510295286370265
 40
0.5023941519552902
 40
0.7402762300294472
 40
0.9473074117170909
 40
1.0
 40
1.0
 40
1.0
 40
1.0
 10
168.2983836993408
 20
89.80604020117627
 30
0.0
 10
168.3427012099675
 20
89.9059237137626
 30
0.0
 10
168.4313953898472
 20
90.10582407159137
 30
0.0
 10
168.506391296023
 20
90.36456498314585
 30
0.0
 10
168.5178959278753
 20
90.541792521245
 30
0.0
 10
168.4762478803823
 20
90.6022538570044
 30
0.0
 10
168.4384367190287
 20
90.60540046119405
 30
0.0
 10
168.4307656153869
 20
90.60603884219037
 30
0.0
  0
LINE
  5
250
330
1F
100
AcDbEntity
  8
0
  6
Continuous
 62
     7
370
    15
100
AcDbLine
 10
168.4307656154
 20
90.6060388422
 30
0.0
 11
168.4008440837
 21
90.6060388422
 31
0.0
  0
LINE
  5
251
330
1F
100
AcDbEntity
  8
0
  6
Continuous
 62
     7
370
    15
100
AcDbLine
 10
168.4307656154
 20
74.6060362196
 30
0.0
 11
168.4008440837
 21
74.6060362196
 31
0.0
  0
LINE
  5
252
330
1F
100
AcDbEntity
  8
0
  6
Continuous
 62
     7
370
    15
100
AcDbLine
 10
170.2878675327
 20
89.8060402012
 30
0.0
 11
168.2983836993
 21
89.8060402012
 31
0.0
  0
LINE
  5
253
330
1F
100
AcDbEntity
  8
0
  6
Continuous
 62
     7
370
    15
100
AcDbLine
 10
170.2878675327
 20
75.4060348606
 30
0.0
 11
170.2878675327
 21
89.8060402012
 31
0.0
  0
LINE
  5
254
330
1F
100
AcDbEntity
  8
0
  6
Continuous
 62
     7
370
    15
100
AcDbLine
 10
168.2983836993
 20
75.4060348606
 30
0.0
 11
170.2878675327
 21
75.4060348606
 31
0.0
  0
LWPOLYLINE
  5
255
330
1F
100
AcDbEntity
  8
0
  6
Continuous
 62
     7
370
    15
100
AcDbPolyline
 90
        9
 70
   128
 43
0.0
 10
170.2878675327
 20
89.8060402012
 10
170.2826074228
 20
89.9621149635
 10
170.2670357093
 20
90.1121845579
 10
170.2417484388
 20
90.2504971361
 10
170.2077290878
 20
90.3717180824
 10
170.1662591562
 20
90.4712131357
 10
170.1189479694
 20
90.5451377964
 10
170.0676283702
 20
90.5906608438
 10
170.0142524108
 20
90.6060388422
  0
LINE
  5
256
330
1F
100
AcDbEntity
  8
0
  6
Continuous
 62
     7
370
    15
100
AcDbLine
 10
168.4307656154
 20
90.6060388422
 30
0.0
 11
170.0142524108
 21
90.6060388422
 31
0.0
  0
LWPOLYLINE
  5
257
330
1F
100
AcDbEntity
  8
0
  6
Continuous
 62
     7
370
    15
100
AcDbPolyline
 90
        9
 70
   128
 43
0.0
 10
170.2878675327
 20
75.4060348606
 10
170.2826074228
 20
75.2499749994
 10
170.2670357093
 20
75.0998905039
 10
170.2417484388
 20
74.9615779257
 10
170.2077290878
 20
74.8403569794
 10
170.1662591562
 20
74.7408619261
 10
170.1189479694
 20
74.6669372654
 10
170.0676283702
 20
74.6214142179
 10
170.0142524108
 20
74.6060362196
  0
LINE
  5
258
330
1F
100
AcDbEntity
  8
0
  6
Continuous
 62
     7
370
    15
100
AcDbLine
 10
170.0142524108
 20
74.6060362196
 30
0.0
 11
168.4307656154
 21
74.6060362196
 31
0.0
  0
LINE
  5
259
330
1F
100
AcDbEntity
  8
0
  6
Continuous
 62
     7
370
    15
100
AcDbLine
 10
170.2878675327
 20
75.4060348606
 30
0.0
 11
175.1867136821
 21
75.4060348606
 31
0.0
  0
LINE
  5
25A
330
1F
100
AcDbEntity
  8
0
  6
Continuous
 62
     7
370
    15
100
AcDbLine
 10
175.3256372079
 20
74.6060362196
 30
0.0
 11
170.0142524108
 21
74.6060362196
 31
0.0
  0
LINE
  5
25B
330
1F
100
AcDbEntity
  8
0
  6
Continuous
 62
     7
370
    15
100
AcDbLine
 10
175.1867136821
 20
89.8060402012
 30
0.0
 11
170.2878675327
 21
89.8060402012
 31
0.0
  0
LINE
  5
25C
330
1F
100
AcDbEntity
  8
0
  6
Continuous
 62
     7
370
    15
100
AcDbLine
 10
170.0142524108
 20
90.6060388422
 30
0.0
 11
175.3256372079
 21
90.6060388422
 31
0.0
  0
LINE
  5
25D
330
1F
100
AcDbEntity
  8
0
  6
Continuous
 62
     7
370
    15
100
AcDbLine
 10
206.6273740396
 20
447.9060372448
 30
0.0
 11
206.6273740396
 21
456.5060338116
 31
0.0
  0
LINE
  5
25E
330
1F
100
AcDbEntity
  8
0
  6
Continuous
 62
     7
370
    15
100
AcDbLine
 10
201.1130801305
 20
447.9060372448
 30
0.0
 11
201.1130801305
 21
456.5060338116
 31
0.0
  0
LINE
  5
25F
330
1F
100
AcDbEntity
  8
0
  6
Continuous
 62
     7
370
    15
100
AcDbLine
 10
206.6273740396
 20
456.5060338116
 30
0.0
 11
201.1130801305
 21
456.5060338116
 31
0.0
  0
LINE
  5
260
330
1F
100
AcDbEntity
  8
0
  6
Continuous
 62
     7
370
    15
100
AcDbLine
 10
206.6273740396
 20
447.9060372448
 30
0.0
 11
201.1130801305
 21
447.9060372448
 31
0.0
  0
LINE
  5
261
330
1F
100
AcDbEntity
  8
0
  6
Continuous
 62
     7
370
    15
100
AcDbLine
 10
199.9988159999
 20
459.8060449695
 30
0.0
 11
175.1867136821
 21
459.8060449695
 31
0.0
  0
LINE
  5
262
330
1F
100
AcDbEntity
  8
0
  6
Continuous
 62
     7
370
    15
100
AcDbLine
 10
199.9988159999
 20
456.5060338116
 30
0.0
 11
199.9988159999
 21
459.8060449695
 31
0.0
  0
LINE
  5
263
330
1F
100
AcDbEntity
  8
0
  6
Continuous
 62
     7
370
    15
100
AcDbLine
 10
199.9988159999
 20
445.406039629
 30
0.0
 11
199.9988159999
 21
447.9060372448
 31
0.0
  0
LINE
  5
264
330
1F
100
AcDbEntity
  8
0
  6
Continuous
 62
     7
370
    15
100
AcDbLine
 10
175.1867136821
 20
445.406039629
 30
0.0
 11
199.9988159999
 21
445.406039629
 31
0.0
  0
LINE
  5
265
330
1F
100
AcDbEntity
  8
0
  6
Continuous
 62
     7
370
    15
100
AcDbLine
 10
175.1867136821
 20
445.406039629
 30
0.0
 11
175.1867136821
 21
459.8060449695
 31
0.0
  0
LINE
  5
266
330
1F
100
AcDbEntity
  8
0
  6
Continuous
 62
     7
370
    15
100
AcDbLine
 10
199.9988159999
 20
456.5060338116
 30
0.0
 11
201.1130801305
 21
456.5060338116
 31
0.0
  0
LINE
  5
267
330
1F
100
AcDbEntity
  8
0
  6
Continuous
 62
     7
370
    15
100
AcDbLine
 10
199.9988159999
 20
447.9060372448
 30
0.0
 11
201.1130801305
 21
447.9060372448
 31
0.0
  0
LINE
  5
268
330
1F
100
AcDbEntity
  8
0
  6
Continuous
 62
     7
370
    15
100
AcDbLine
 10
202.0186833009
 20
460.6033912039
 30
0.0
 11
200.1264444455
 21
460.6033912039
 31
0.0
  0
ARC
  5
269
330
1F
100
AcDbEntity
  8
0
  6
Continuous
 62
     7
370
    15
100
AcDbCircle
 10
201.4731309885
 20
459.9789441224
 30
0.0
 40
1.484418674970813
100
AcDbArc
 50
155.1232467424
 51
186.6887659172
  0
ARC
  5
26A
330
1F
100
AcDbEntity
  8
0
  6
Continuous
 62
     7
370
    15
100
AcDbCircle
 10
176.442636479
 20
460.0000097525
 30
0.0
 40
1.270812499494439
100
AcDbArc
 50
151.5177215739
 51
188.7794004158
  0
LINE
  5
26B
330
1F
100
AcDbEntity
  8
0
  6
Continuous
 62
     7
370
    15
100
AcDbLine
 10
175.3256372079
 20
460.6060436106
 30
0.0
 11
202.6914409265
 21
460.6060436106
 31
0.0
  0
LINE
  5
26C
330
1F
100
AcDbEntity
  8
0
  6
Continuous
 62
     7
370
    15
100
AcDbLine
 10
202.6914409265
 20
460.6060436106
 30
0.0
 11
202.0186833009
 21
460.6033912039
 31
0.0
  0
LINE
  5
26D
330
1F
100
AcDbEntity
  8
0
  6
Continuous
 62
     7
370
    15
100
AcDbLine
 10
200.1264444455
 20
444.6086933947
 30
0.0
 11
202.0186833009
 21
444.6086933947
 31
0.0
  0
LINE
  5
26E
330
1F
100
AcDbEntity
  8
0
  6
Continuous
 62
     7
370
    15
100
AcDbLine
 10
202.0186833009
 20
444.6086933947
 30
0.0
 11
202.6914409265
 21
444.606040988
 31
0.0
  0
LINE
  5
26F
330
1F
100
AcDbEntity
  8
0
  6
Continuous
 62
     7
370
    15
100
AcDbLine
 10
202.6914409265
 20
444.606040988
 30
0.0
 11
175.3256372079
 21
444.606040988
 31
0.0
  0
ARC
  5
270
330
1F
100
AcDbEntity
  8
0
  6
Continuous
 62
     7
370
    15
100
AcDbCircle
 10
176.442636479
 20
445.2120748461
 30
0.0
 40
1.270812499494445
100
AcDbArc
 50
171.2205995842
 51
208.4822784261
  0
ARC
  5
271
330
1F
100
AcDbEntity
  8
0
  6
Continuous
 62
     7
370
    15
100
AcDbCircle
 10
201.473102446
 20
445.2331359075
 30
0.0
 40
1.484390858944842
100
AcDbArc
 50
173.3109306145
 51
204.8770567259
  0
LINE
  5
272
330
1F
100
AcDbEntity
  8
0
  6
Continuous
 62
     7
370
    15
100
AcDbLine
 10
200.1264444455
 20
459.8060449695
 30
0.0
 11
200.1264444455
 21
460.6033912039
 31
0.0
  0
LINE
  5
273
330
1F
100
AcDbEntity
  8
0
  6
Continuous
 62
     7
370
    15
100
AcDbLine
 10
200.1377395257
 20
459.8060449695
 30
0.0
 11
200.1377395257
 21
456.5060338116
 31
0.0
  0
LINE
  5
274
330
1F
100
AcDbEntity
  8
0
  6
Continuous
 62
     7
370
    15
100
AcDbLine
 10
200.1264444455
 20
444.6086933947
 30
0.0
 11
200.1264444455
 21
445.406039629
 31
0.0
  0
LINE
  5
275
330
1F
100
AcDbEntity
  8
0
  6
Continuous
 62
     7
370
    15
100
AcDbLine
 10
200.1377395257
 20
447.9060372448
 30
0.0
 11
200.1377395257
 21
445.406039629
 31
0.0
  0
LINE
  5
276
330
1F
100
AcDbEntity
  8
0
  6
Continuous
 62
     7
370
    15
100
AcDbLine
 10
206.1264417037
 20
444.606040988
 30
0.0
 11
202.6914409265
 21
444.606040988
 31
0.0
  0
LINE
  5
277
330
1F
100
AcDbEntity
  8
0
  6
Continuous
 62
     7
370
    15
100
AcDbLine
 10
202.0186833009
 20
444.6086933947
 30
0.0
 11
202.0186833009
 21
445.406039629
 31
0.0
  0
LINE
  5
278
330
1F
100
AcDbEntity
  8
0
  6
Continuous
 62
     7
370
    15
100
AcDbLine
 10
206.1264417037
 20
445.406039629
 30
0.0
 11
202.0186833009
 21
445.406039629
 31
0.0
  0
LINE
  5
279
330
1F
100
AcDbEntity
  8
0
  6
Continuous
 62
     7
370
    15
100
AcDbLine
 10
202.0186833009
 20
459.8060449695
 30
0.0
 11
202.0186833009
 21
460.6033912039
 31
0.0
  0
LINE
  5
27A
330
1F
100
AcDbEntity
  8
0
  6
Continuous
 62
     7
370
    15
100
AcDbLine
 10
206.1264417037
 20
460.6060436106
 30
0.0
 11
202.6914409265
 21
460.6060436106
 31
0.0
  0
LINE
  5
27B
330
1F
100
AcDbEntity
  8
0
  6
Continuous
 62
     7
370
    15
100
AcDbLine
 10
206.1264417037
 20
459.8060449695
 30
0.0
 11
202.0186833009
 21
459.8060449695
 31
0.0
  0
LINE
  5
27C
330
1F
100
AcDbEntity
  8
0
  6
Continuous
 62
     7
370
    15
100
AcDbLine
 10
200.1264444455
 20
459.8060449695
 30
0.0
 11
202.0186833009
 21
459.8060449695
 31
0.0
  0
LINE
  5
27D
330
1F
100
AcDbEntity
  8
0
  6
Continuous
 62
     7
370
    15
100
AcDbLine
 10
200.1264444455
 20
445.406039629
 30
0.0
 11
202.0186833009
 21
445.406039629
 31
0.0
  0
LINE
  5
27E
330
1F
100
AcDbEntity
  8
0
  6
Continuous
 62
     7
370
    15
100
AcDbLine
 10
201.1964521274
 20
460.9060337877
 30
0.0
 11
205.5964521035
 21
460.9060337877
 31
0.0
  0
LINE
  5
27F
330
1F
100
AcDbEntity
  8
0
  6
Continuous
 62
     7
370
    15
100
AcDbLine
 10
201.296438919
 20
444.2060342169
 30
0.0
 11
205.4964504108
 21
444.2060342169
 31
0.0
  0
LINE
  5
280
330
1F
100
AcDbEntity
  8
0
  6
Continuous
 62
     7
370
    15
100
AcDbLine
 10
201.296438919
 20
443.8060423469
 30
0.0
 11
205.4964504108
 21
443.8060423469
 31
0.0
  0
ARC
  5
281
330
1F
100
AcDbEntity
  8
0
  6
Continuous
 62
     7
370
    15
100
AcDbCircle
 10
183.5923581221
 20
452.6060422993
 30
0.0
 40
16.90401408232909
100
AcDbArc
 50
154.7901718738
 51
205.2098281262
  0
SPLINE
  5
282
330
1F
100
AcDbEntity
  8
0
  6
Continuous
 62
     7
370
    15
100
AcDbSpline
210
0.0
220
0.0
230
1.0
 70
     8
 71
     3
 72
    12
 73
     8
 74
     0
 42
0.00000001
 43
0.00000001
 40
0.0
 40
0.0
 40
0.0
 40
0.0
 40
0.181862208170751
 40
0.3633456880071066
 40
0.5550783177625649
 40
0.7712597734705837
 40
1.0
 40
1.0
 40
1.0
 40
1.0
 10
168.4307656153869
 20
444.6060409879576
 30
0.0
 10
168.4546228213364
 20
444.6133658281022
 30
0.0
 10
168.5022875505663
 20
444.6280002544002
 30
0.0
 10
168.5170316896208
 20
444.7399812224642
 30
0.0
 10
168.4897990113152
 20
444.9093608627325
 30
0.0
 10
168.4181202152644
 20
445.1378032997904
 30
0.0
 10
168.3390399356809
 20
445.3149606501815
 30
0.0
 10
168.2983836993408
 20
445.4060396289717
 30
0.0
  0
LINE
  5
283
330
1F
100
AcDbEntity
  8
0
  6
Continuous
 62
     7
370
    15
100
AcDbLine
 10
168.0464050636
 20
445.3605463838
 30
0.0
 11
168.4008440837
 21
444.606040988
 31
0.0
  0
ARC
  5
284
330
1F
100
AcDbEntity
  8
0
  6
Continuous
 62
     7
370
    15
100
AcDbCircle
 10
183.3169407124
 20
452.6060422993
 30
0.0
 40
16.90226227646354
100
AcDbArc
 50
154.6168036234
 51
205.3831963766
  0
LINE
  5
285
330
1F
100
AcDbEntity
  8
0
  6
Continuous
 62
     7
370
    15
100
AcDbLine
 10
168.4008440837
 20
460.6060436106
 30
0.0
 11
168.0464050636
 21
459.8515382147
 31
0.0
  0
SPLINE
  5
286
330
1F
100
AcDbEntity
  8
0
  6
Continuous
 62
     7
370
    15
100
AcDbSpline
210
0.0
220
0.0
230
1.0
 70
     8
 71
     3
 72
    12
 73
     8
 74
     0
 42
0.00000001
 43
0.00000001
 40
0.0
 40
0.0
 40
0.0
 40
0.0
 40
0.2510214851684107
 40
0.5023964020404518
 40
0.7402739474278963
 40
0.9473065576477647
 40
0.9999999999999999
 40
0.9999999999999999
 40
0.9999999999999999
 40
0.9999999999999999
 10
168.2983836993408
 20
459.8060449695479
 30
0.0
 10
168.3427016834648
 20
459.9059221800491
 30
0.0
 10
168.4314000502784
 20
460.1058172255589
 30
0.0
 10
168.5063891064357
 20
460.3645693760561
 30
0.0
 10
168.5178961285921
 20
460.5417876072761
 30
0.0
 10
168.4762475465762
 20
460.6022260981418
 30
0.0
 10
168.4384367100469
 20
460.6053997395043
 30
0.0
 10
168.4307656153869
 20
460.606043610562
 30
0.0
  0
LINE
  5
287
330
1F
100
AcDbEntity
  8
0
  6
Continuous
 62
     7
370
    15
100
AcDbLine
 10
168.4307656154
 20
444.606040988
 30
0.0
 11
168.4008440837
 21
444.606040988
 31
0.0
  0
LINE
  5
288
330
1F
100
AcDbEntity
  8
0
  6
Continuous
 62
     7
370
    15
100
AcDbLine
 10
168.4307656154
 20
460.6060436106
 30
0.0
 11
168.4008440837
 21
460.6060436106
 31
0.0
  0
LINE
  5
289
330
1F
100
AcDbEntity
  8
0
  6
Continuous
 62
     7
370
    15
100
AcDbLine
 10
170.2878675327
 20
459.8060449695
 30
0.0
 11
168.2983836993
 21
459.8060449695
 31
0.0
  0
LINE
  5
28A
330
1F
100
AcDbEntity
  8
0
  6
Continuous
 62
     7
370
    15
100
AcDbLine
 10
170.2878675327
 20
445.406039629
 30
0.0
 11
170.2878675327
 21
459.8060449695
 31
0.0
  0
LINE
  5
28B
330
1F
100
AcDbEntity
  8
0
  6
Continuous
 62
     7
370
    15
100
AcDbLine
 10
168.2983836993
 20
445.406039629
 30
0.0
 11
170.2878675327
 21
445.406039629
 31
0.0
  0
LWPOLYLINE
  5
28C
330
1F
100
AcDbEntity
  8
0
  6
Continuous
 62
     7
370
    15
100
AcDbPolyline
 90
        9
 70
   128
 43
0.0
 10
170.2878675327
 20
459.8060449695
 10
170.2826074228
 20
459.9621048307
 10
170.2670357093
 20
460.1121893263
 10
170.2417484388
 20
460.2505019045
 10
170.2077290878
 20
460.3717228508
 10
170.1662591562
 20
460.4712179041
 10
170.1189479694
 20
460.5451425648
 10
170.0676283702
 20
460.5906656122
 10
170.0142524108
 20
460.6060436106
  0
LINE
  5
28D
330
1F
100
AcDbEntity
  8
0
  6
Continuous
 62
     7
370
    15
100
AcDbLine
 10
168.4307656154
 20
460.6060436106
 30
0.0
 11
170.0142524108
 21
460.6060436106
 31
0.0
  0
LWPOLYLINE
  5
28E
330
1F
100
AcDbEntity
  8
0
  6
Continuous
 62
     7
370
    15
100
AcDbPolyline
 90
        9
 70
   128
 43
0.0
 10
170.2878675327
 20
445.406039629
 10
170.2826074228
 20
445.2499648666
 10
170.2670357093
 20
445.0998952722
 10
170.2417484388
 20
444.961582694
 10
170.2077290878
 20
444.8403617477
 10
170.1662591562
 20
444.7408666944
 10
170.1189479694
 20
444.6669420338
 10
170.0676283702
 20
444.6214189863
 10
170.0142524108
 20
444.606040988
  0
LINE
  5
28F
330
1F
100
AcDbEntity
  8
0
  6
Continuous
 62
     7
370
    15
100
AcDbLine
 10
170.0142524108
 20
444.606040988
 30
0.0
 11
168.4307656154
 21
444.606040988
 31
0.0
  0
LINE
  5
290
330
1F
100
AcDbEntity
  8
0
  6
Continuous
 62
     7
370
    15
100
AcDbLine
 10
175.1867136821
 20
459.8060449695
 30
0.0
 11
170.2878675327
 21
459.8060449695
 31
0.0
  0
LINE
  5
291
330
1F
100
AcDbEntity
  8
0
  6
Continuous
 62
     7
370
    15
100
AcDbLine
 10
170.0142524108
 20
460.6060436106
 30
0.0
 11
175.3256372079
 21
460.6060436106
 31
0.0
  0
LINE
  5
292
330
1F
100
AcDbEntity
  8
0
  6
Continuous
 62
     7
370
    15
100
AcDbLine
 10
170.2878675327
 20
445.406039629
 30
0.0
 11
175.1867136821
 21
445.406039629
 31
0.0
  0
LINE
  5
293
330
1F
100
AcDbEntity
  8
0
  6
Continuous
 62
     7
370
    15
100
AcDbLine
 10
175.3256372079
 20
444.606040988
 30
0.0
 11
170.0142524108
 21
444.606040988
 31
0.0
  0
SPLINE
  5
294
330
1F
100
AcDbEntity
  8
0
  6
Continuous
 62
     7
370
    15
100
AcDbSpline
210
0.0
220
0.0
230
1.0
 70
     8
 71
     3
 72
    16
 73
    12
 74
     0
 42
0.00000001
 43
0.00000001
 40
0.0
 40
0.0
 40
0.0
 40
0.0
 40
0.120707372860847
 40
0.241411874199485
 40
0.3621189118612284
 40
0.4828257802016889
 40
0.6035328817109525
 40
0.7242379795578293
 40
0.8449441194384902
 40
0.9656483534096532
 40
1.0
 40
1.0
 40
1.0
 40
1.0
 10
201.5687427386474
 20
439.6536698675047
 30
0.0
 10
201.5881436925006
 20
439.656337821566
 30
0.0
 10
201.6269451386754
 20
439.6616736662202
 30
0.0
 10
201.6318684823327
 20
439.9526330054653
 30
0.0
 10
201.5946537820074
 20
440.4059642781357
 30
0.0
 10
201.5177547205789
 20
440.9735037982115
 30
0.0
 10
201.413921831988
 20
441.561824537222
 30
0.0
 10
201.2978310981654
 20
442.0885159316812
 30
0.0
 10
201.1908206064684
 20
442.4517975767369
 30
0.0
 10
201.1182454469839
 20
442.6222826388427
 30
0.0
 10
201.0986954498679
 20
442.5891239430881
 30
0.0
 10
201.0943642720413
 20
442.5817778444182
 30
0.0
  0
SPLINE
  5
295
330
1F
100
AcDbEntity
  8
0
  6
Continuous
 62
     7
370
    15
100
AcDbSpline
210
0.0
220
0.0
230
1.0
 70
     8
 71
     3
 72
    16
 73
    12
 74
     0
 42
0.00000001
 43
0.00000001
 40
0.0
 40
0.0
 40
0.0
 40
0.0
 40
0.1205832954962446
 40
0.2411637224219714
 40
0.3617466830636698
 40
0.4823269714796187
 40
0.6029094641128507
 40
0.723490384185248
 40
0.8440770960201609
 40
0.9646563698002354
 40
1.0
 40
1.0
 40
1.0
 40
1.0
 10
201.7393312319947
 20
465.5296852922331
 30
0.0
 10
201.7587323508079
 20
465.5270173014885
 30
0.0
 10
201.797534126899
 20
465.5216813834684
 30
0.0
 10
201.8024549962118
 20
465.2307225944609
 30
0.0
 10
201.765249955975
 20
464.7773923676664
 30
0.0
 10
201.6883168159735
 20
464.2098666076135
 30
0.0
 10
201.584515791499
 20
463.6215387428671
 30
0.0
 10
201.468421121161
 20
463.0948661561426
 30
0.0
 10
201.3613887586115
 20
462.7314057701589
 30
0.0
 10
201.2886263185605
 20
462.5608639575749
 30
0.0
 10
201.2689872045914
 20
462.5944427267638
 30
0.0
 10
201.264535532875
 20
462.6020541524779
 30
0.0
  0
SPLINE
  5
296
330
1F
100
AcDbEntity
  8
0
  6
Continuous
 62
     7
370
    15
100
AcDbSpline
210
0.0
220
0.0
230
1.0
 70
     8
 71
     3
 72
    16
 73
    12
 74
     0
 42
0.00000001
 43
0.00000001
 40
0.0
 40
0.0
 40
0.0
 40
0.0
 40
0.1205117543681748
 40
0.2410321688604558
 40
0.3615496760897255
 40
0.4820674063171059
 40
0.602584445791948
 40
0.7231000162521881
 40
0.8436166271100433
 40
0.9641371437048453
 40
1.0
 40
1.0
 40
1.0
 40
1.0
 10
217.1097150906753
 20
442.2700902557265
 30
0.0
 10
217.1291161533671
 20
442.2727614334725
 30
0.0
 10
217.167919672935
 20
442.2781039809187
 30
0.0
 10
217.1728390755202
 20
442.569042670176
 30
0.0
 10
217.1356328039587
 20
443.0223882088238
 30
0.0
 10
217.0587024749366
 20
443.5899163443138
 30
0.0
 10
216.9548978774964
 20
444.1782638975732
 30
0.0
 10
216.8388124071049
 20
444.7048725081585
 30
0.0
 10
216.7317515464808
 20
445.0684608563902
 30
0.0
 10
216.6589076464367
 20
445.2390571904237
 30
0.0
 10
216.6392124949023
 20
445.205238499866
 30
0.0
 10
216.6346958741379
 20
445.1974829769026
 30
0.0
  0
SPLINE
  5
297
330
1F
100
AcDbEntity
  8
0
  6
Continuous
 62
     7
370
    15
100
AcDbSpline
210
0.0
220
0.0
230
1.0
 70
     8
 71
     3
 72
    16
 73
    12
 74
     0
 42
0.00000001
 43
0.00000001
 40
0.0
 40
0.0
 40
0.0
 40
0.0
 40
0.1205121047917788
 40
0.2410325804529558
 40
0.3615501488496461
 40
0.4820650464697371
 40
0.6025821471117625
 40
0.7231010411094512
 40
0.8436171544413902
 40
0.9641310379758448
 40
1.0
 40
1.0
 40
1.0
 40
1.0
 10
217.2803035840225
 20
462.9132798051726
 30
0.0
 10
217.2997046726994
 20
462.9106023886748
 30
0.0
 10
217.3385081976685
 20
462.9052473697038
 30
0.0
 10
217.3434272665263
 20
462.6143136608256
 30
0.0
 10
217.3062227690835
 20
462.1609699362086
 30
0.0
 10
217.2292879651507
 20
461.5934497583747
 30
0.0
 10
217.125491527855
 20
461.0051007658195
 30
0.0
 10
217.0093767270226
 20
460.4784887454442
 30
0.0
 10
216.902351192556
 20
460.1148947711329
 30
0.0
 10
216.8294906576769
 20
459.9443157305356
 30
0.0
 10
216.8098006033247
 20
459.9781309993211
 30
0.0
 10
216.805284367485
 20
459.9858870839964
 30
0.0
  0
SPLINE
  5
298
330
1F
100
AcDbEntity
  8
0
  6
Continuous
 62
     7
370
    15
100
AcDbSpline
210
0.0
220
0.0
230
1.0
 70
    24
 71
     3
 72
    16
 73
    12
 74
     0
 42
0.00000001
 43
0.00000001
 40
0.0
 40
0.0
 40
0.0
 40
0.0
 40
0.0611102845076972
 40
0.1864723954319963
 40
0.3118322208390296
 40
0.4371944708864321
 40
0.5625589540335474
 40
0.6879198579853077
 40
0.813281951356681
 40
0.9386471442034847
 40
1.0
 40
1.0
 40
1.0
 40
1.0
 10
220.1866260632706
 20
445.7398107385527
 30
0.0
 10
220.1923998211465
 20
445.7398107385527
 30
0.0
 10
220.2100179106453
 20
445.7398107385526
 30
0.0
 10
219.9915864737804
 20
445.7398107385526
 30
0.0
 10
219.5788399118485
 20
445.7398107385527
 30
0.0
 10
219.0223792199623
 20
445.7398107385526
 30
0.0
 10
218.4232748123093
 20
445.7398107385526
 30
0.0
 10
217.8645708278166
 20
445.7398107385527
 30
0.0
 10
217.4476116870569
 20
445.7398107385526
 30
0.0
 10
217.2246199693542
 20
445.7398107385527
 30
0.0
 10
217.2394345283255
 20
445.7398107385526
 30
0.0
 10
217.2443023785782
 20
445.7398107385527
 30
0.0
  0
SPLINE
  5
299
330
1F
100
AcDbEntity
  8
0
  6
Continuous
 62
     7
370
    15
100
AcDbSpline
210
0.0
220
0.0
230
1.0
 70
    24
 71
     3
 72
    16
 73
    12
 74
     0
 42
0.00000001
 43
0.00000001
 40
0.0
 40
0.0
 40
0.0
 40
0.0
 40
0.0610129142997457
 40
0.1861752792253431
 40
0.3113353622753087
 40
0.4364978661023373
 40
0.5616625994709642
 40
0.6868237593471552
 40
0.8119861067477948
 40
0.9371515486853087
 40
1.0
 40
1.0
 40
1.0
 40
1.0
 10
220.1866260632706
 20
459.2984369134795
 30
0.0
 10
220.1923998149455
 20
459.2984369134795
 30
0.0
 10
220.2100178855227
 20
459.2984369134795
 30
0.0
 10
219.9915867066747
 20
459.2984369134794
 30
0.0
 10
219.5788390585667
 20
459.2984369134795
 30
0.0
 10
219.0223824002921
 20
459.2984369134794
 30
0.0
 10
218.4232629442126
 20
459.2984369134795
 30
0.0
 10
217.8646151185931
 20
459.2984369134794
 30
0.0
 10
217.4474463880874
 20
459.2984369134795
 30
0.0
 10
217.2239667523281
 20
459.2984369134794
 30
0.0
 10
217.2391853656235
 20
459.2984369134795
 30
0.0
 10
217.2442725762558
 20
459.2984369134795
 30
0.0
  0
SPLINE
  5
29A
330
1F
100
AcDbEntity
  8
0
  6
Continuous
 62
     7
370
    15
100
AcDbSpline
210
0.0
220
0.0
230
1.0
 70
     8
 71
     3
 72
    19
 73
    15
 74
     0
 42
0.00000001
 43
0.00000001
 40
0.0
 40
0.0
 40
0.0
 40
0.0
 40
0.0039536624335646
 40
0.1157567250076339
 40
0.2280469081907246
 40
0.3355163268446382
 40
0.4377084579191177
 40
0.5348863347550106
 40
0.6282977408668902
 40
0.730297129600498
 40
0.841335480574447
 40
0.9641307302391019
 40
0.9937686856244613
 40
1.0
 40
1.0
 40
1.0
 40
1.0
 10
206.5147212609482
 20
458.2060327863585
 30
0.0
 10
206.5151135191237
 20
458.2060308131263
 30
0.0
 10
206.5265981925166
 20
458.2059730401389
 30
0.0
 10
206.5499281794358
 20
458.1906915701304
 30
0.0
 10
206.5933830190427
 20
458.1238623112869
 30
0.0
 10
206.6313723733531
 20
458.0191347382809
 30
0.0
 10
206.6548701090042
 20
457.8940675040766
 30
0.0
 10
206.6662138910059
 20
457.7656345238746
 30
0.0
 10
206.6667895697195
 20
457.6444579069861
 30
0.0
 10
206.6510303658688
 20
457.5352290208911
 30
0.0
 10
206.6106277309243
 20
457.4458243804968
 30
0.0
 10
206.5588197360452
 20
457.4107297125233
 30
0.0
 10
206.524057100859
 20
457.40617356494
 30
0.0
 10
206.5161030601473
 20
457.4060547808616
 30
0.0
 10
206.5147212609482
 20
457.4060341453444
 30
0.0
  0
SPLINE
  5
29B
330
1F
100
AcDbEntity
  8
0
  6
Continuous
 62
     7
370
    15
100
AcDbSpline
210
0.0
220
0.0
230
1.0
 70
     8
 71
     3
 72
    30
 73
    26
 74
     0
 42
0.00000001
 43
0.00000001
 40
0.0
 40
0.0
 40
0.0
 40
0.0
 40
0.1246996546110605
 40
0.2494033508198762
 40
0.3741252703875831
 40
0.436780291474379
 40
0.4681478751117962
 40
0.4838353924145767
 40
0.4916875679905392
 40
0.4956068531605899
 40
0.4975675714318693
 40
0.4985468274449942
 40
0.4990349694754239
 40
0.4992804159573465
 40
0.4994161641395548
 40
0.4994768725722026
 40
0.4995006843785651
 40
0.4995175218683162
 40
0.4995413336746786
 40
0.5609187542543971
 40
0.6646277719718334
 40
0.7325809832126381
 40
0.811154222853093
 40
0.9003090323791212
 40
1.0
 40
1.0
 40
1.0
 40
1.0
 10
206.586425648613
 20
458.2659354543578
 30
0.0
 10
206.5921901857329
 20
458.2641445272835
 30
0.0
 10
206.6037194468052
 20
458.2605626150897
 30
0.0
 10
206.6935694227161
 20
458.2386979194604
 30
0.0
 10
206.8010389038212
 20
458.213060749332
 30
0.0
 10
206.8865826067604
 20
458.1925991106045
 30
0.0
 10
206.9306885902801
 20
458.1820987805588
 30
0.0
 10
206.9529139168074
 20
458.1767613145695
 30
0.0
 10
206.9640501603435
 20
458.1741112241332
 30
0.0
 10
206.9696196857482
 20
458.1727738894791
 30
0.0
 10
206.9724006965068
 20
458.1720967730698
 30
0.0
 10
206.9737885898378
 20
458.1717548167702
 30
0.0
 10
206.9744886759694
 20
458.1716090802941
 30
0.0
 10
206.9748389774574
 20
458.1715160333296
 30
0.0
 10
206.9750193897165
 20
458.1714757364548
 30
0.0
 10
206.9751044018748
 20
458.171439679067
 30
0.0
 10
206.975152344985
 20
458.1714545880656
 30
0.0
 10
206.9751671082824
 20
458.1714251457917
 30
0.0
 10
207.0035953350884
 20
458.1782351515038
 30
0.0
 10
207.0646485351429
 20
458.1403812236958
 30
0.0
 10
207.1589560359392
 20
458.1334432217103
 30
0.0
 10
207.2417783873449
 20
458.1134861412129
 30
0.0
 10
207.305509191379
 20
458.1013606358309
 30
0.0
 10
207.355969244024
 20
458.0914882056081
 30
0.0
 10
207.3632038544305
 20
458.0910586630512
 30
0.0
 10
207.3670229777527
 20
458.0908319091689
 30
0.0
  0
ELLIPSE
  5
29C
330
1F
100
AcDbEntity
  8
0
  6
Continuous
 62
     7
370
    15
100
AcDbEllipse
 10
207.2435532303
 20
459.3880150938
 30
0.0
 11
0.3906095144045594
 21
-0.08616383961157226
 31
0.0
210
0.0
220
0.0
230
1.0
 40
0.0142285888
 41
0.0
 42
6.283185307179586
  0
LINE
  5
29D
330
1F
100
AcDbEntity
  8
0
  6
Continuous
 62
     7
370
    15
100
AcDbLine
 10
206.4164481029
 20
446.8560418224
 30
0.0
 11
206.4164481029
 21
445.8560397959
 31
0.0
  0
LINE
  5
29E
330
1F
100
AcDbEntity
  8
0
  6
Continuous
 62
     7
370
    15
100
AcDbLine
 10
206.4164481029
 20
445.8560397959
 30
0.0
 11
200.2164474591
 21
445.8560397959
 31
0.0
  0
LINE
  5
29F
330
1F
100
AcDbEntity
  8
0
  6
Continuous
 62
     7
370
    15
100
AcDbLine
 10
200.2164474591
 20
446.8560418224
 30
0.0
 11
200.2164474591
 21
445.8560397959
 31
0.0
  0
LINE
  5
2A0
330
1F
100
AcDbEntity
  8
0
  6
Continuous
 62
     7
370
    15
100
AcDbLine
 10
206.4164481029
 20
446.8560418224
 30
0.0
 11
200.2164474591
 21
446.8560418224
 31
0.0
  0
LINE
  5
2A1
330
1F
100
AcDbEntity
  8
0
  6
Continuous
 62
     7
370
    15
100
AcDbLine
 10
206.4164481029
 20
459.3560448027
 30
0.0
 11
200.2164474591
 21
459.3560448027
 31
0.0
  0
LINE
  5
2A2
330
1F
100
AcDbEntity
  8
0
  6
Continuous
 62
     7
370
    15
100
AcDbLine
 10
206.4164481029
 20
459.3560448027
 30
0.0
 11
206.4164481029
 21
458.3560427761
 31
0.0
  0
LINE
  5
2A3
330
1F
100
AcDbEntity
  8
0
  6
Continuous
 62
     7
370
    15
100
AcDbLine
 10
200.2164474591
 20
459.3560448027
 30
0.0
 11
200.2164474591
 21
458.3560427761
 31
0.0
  0
LINE
  5
2A4
330
1F
100
AcDbEntity
  8
0
  6
Continuous
 62
     7
370
    15
100
AcDbLine
 10
206.4164481029
 20
458.3560427761
 30
0.0
 11
200.2164474591
 21
458.3560427761
 31
0.0
  0
LINE
  5
2A5
330
1F
100
AcDbEntity
  8
0
  6
Continuous
 62
     7
370
    15
100
AcDbLine
 10
206.4164481029
 20
89.3560400343
 30
0.0
 11
206.4164481029
 21
88.3560380077
 31
0.0
  0
LINE
  5
2A6
330
1F
100
AcDbEntity
  8
0
  6
Continuous
 62
     7
370
    15
100
AcDbLine
 10
200.2164474591
 20
89.3560400343
 30
0.0
 11
200.2164474591
 21
88.3560380077
 31
0.0
  0
LINE
  5
2A7
330
1F
100
AcDbEntity
  8
0
  6
Continuous
 62
     7
370
    15
100
AcDbLine
 10
206.4164481029
 20
88.3560380077
 30
0.0
 11
200.2164474591
 21
88.3560380077
 31
0.0
  0
LINE
  5
2A8
330
1F
100
AcDbEntity
  8
0
  6
Continuous
 62
     7
370
    15
100
AcDbLine
 10
206.4164481029
 20
89.3560400343
 30
0.0
 11
200.2164474591
 21
89.3560400343
 31
0.0
  0
LINE
  5
2A9
330
1F
100
AcDbEntity
  8
0
  6
Continuous
 62
     7
370
    15
100
AcDbLine
 10
206.4164481029
 20
76.8560370541
 30
0.0
 11
206.4164481029
 21
75.8560350275
 31
0.0
  0
LINE
  5
2AA
330
1F
100
AcDbEntity
  8
0
  6
Continuous
 62
     7
370
    15
100
AcDbLine
 10
200.2164474591
 20
76.8560370541
 30
0.0
 11
200.2164474591
 21
75.8560350275
 31
0.0
  0
LINE
  5
2AB
330
1F
100
AcDbEntity
  8
0
  6
Continuous
 62
     7
370
    15
100
AcDbLine
 10
206.4164481029
 20
76.8560370541
 30
0.0
 11
200.2164474591
 21
76.8560370541
 31
0.0
  0
LINE
  5
2AC
330
1F
100
AcDbEntity
  8
0
  6
Continuous
 62
     7
370
    15
100
AcDbLine
 10
206.4164481029
 20
75.8560350275
 30
0.0
 11
200.2164474591
 21
75.8560350275
 31
0.0
  0
LWPOLYLINE
  5
2AD
330
1F
100
AcDbEntity
  8
0
  6
Continuous
 62
     7
370
    15
100
AcDbPolyline
 90
        3
 70
   128
 43
0.0
 10
200.1377395257
 20
76.24489573
 10
200.1403174266
 20
76.2387266493
 10
200.2164474591
 20
75.8560350275
  0
LWPOLYLINE
  5
2AE
330
1F
100
AcDbEntity
  8
0
  6
Continuous
 62
     7
370
    15
100
AcDbPolyline
 90
        3
 70
   128
 43
0.0
 10
200.2164474591
 20
89.3560400343
 10
200.1403174266
 20
88.9733633137
 10
200.1377395257
 20
88.9671793318
  0
LINE
  5
2AF
330
1F
100
AcDbEntity
  8
0
  6
Continuous
 62
     7
370
    15
100
AcDbLine
 10
206.4164481029
 20
88.3560380077
 30
0.0
 11
206.4164481029
 21
88.2060429191
 31
0.0
  0
LINE
  5
2B0
330
1F
100
AcDbEntity
  8
0
  6
Continuous
 62
     7
370
    15
100
AcDbLine
 10
206.4164481029
 20
87.4060442781
 30
0.0
 11
206.4164481029
 21
86.5060439443
 31
0.0
  0
LINE
  5
2B1
330
1F
100
AcDbEntity
  8
0
  6
Continuous
 62
     7
370
    15
100
AcDbLine
 10
206.4164481029
 20
77.9060324764
 30
0.0
 11
206.4164481029
 21
76.8560370541
 31
0.0
  0
LWPOLYLINE
  5
2B2
330
1F
100
AcDbEntity
  8
0
  6
Continuous
 62
     7
370
    15
100
AcDbPolyline
 90
        3
 70
   128
 43
0.0
 10
200.1377395257
 20
446.2449004984
 10
200.1403174266
 20
446.2387165165
 10
200.2164474591
 20
445.8560397959
  0
LWPOLYLINE
  5
2B3
330
1F
100
AcDbEntity
  8
0
  6
Continuous
 62
     7
370
    15
100
AcDbPolyline
 90
        3
 70
   128
 43
0.0
 10
200.2164474591
 20
459.3560448027
 10
200.1403174266
 20
458.9733531809
 10
200.1377395257
 20
458.9671841001
  0
LINE
  5
2B4
330
1F
100
AcDbEntity
  8
0
  6
Continuous
 62
     7
370
    15
100
AcDbLine
 10
206.4164481029
 20
458.3560427761
 30
0.0
 11
206.4164481029
 21
458.2060327864
 31
0.0
  0
LINE
  5
2B5
330
1F
100
AcDbEntity
  8
0
  6
Continuous
 62
     7
370
    15
100
AcDbLine
 10
206.4164481029
 20
457.4060341453
 30
0.0
 11
206.4164481029
 21
456.5060338116
 31
0.0
  0
LINE
  5
2B6
330
1F
100
AcDbEntity
  8
0
  6
Continuous
 62
     7
370
    15
100
AcDbLine
 10
206.4164481029
 20
447.9060372448
 30
0.0
 11
206.4164481029
 21
446.8560418224
 31
0.0
  0
LINE
  5
2B7
330
1F
100
AcDbEntity
  8
0
  6
Continuous
 62
     7
370
    15
100
AcDbLine
 10
8.4164445191
 20
32.6060405111
 30
0.0
 11
-6.5835551456
 21
32.6060405111
 31
0.0
  0
LINE
  5
2B8
330
1F
100
AcDbEntity
  8
0
  6
Continuous
 62
     7
370
    15
100
AcDbLine
 10
8.4164445191
 20
32.6060405111
 30
0.0
 11
8.4164445191
 21
17.6060399151
 31
0.0
  0
ARC
  5
2B9
330
1F
100
AcDbEntity
  8
0
  6
Continuous
 62
     7
370
    15
100
AcDbCircle
 10
8.4164448365
 20
32.6060399151
 30
0.0
 40
15.00000000000001
100
AcDbArc
 50
180.0
 51
270.0
  0
ARC
  5
2BA
330
1F
100
AcDbEntity
  8
0
  6
Continuous
 62
     7
370
    15
100
AcDbCircle
 10
8.4164448365
 20
502.6060399151
 30
0.0
 40
14.99999999999994
100
AcDbArc
 50
90.0
 51
180.0
  0
LINE
  5
2BB
330
1F
100
AcDbEntity
  8
0
  6
Continuous
 62
     7
370
    15
100
AcDbLine
 10
8.4164445191
 20
517.6060399151
 30
0.0
 11
8.4164445191
 21
502.606039319
 31
0.0
  0
LINE
  5
2BC
330
1F
100
AcDbEntity
  8
0
  6
Continuous
 62
     7
370
    15
100
AcDbLine
 10
-6.5835551456
 20
502.606039319
 30
0.0
 11
8.4164445191
 21
502.606039319
 31
0.0
  0
LINE
  5
2BD
330
1F
100
AcDbEntity
  8
0
  6
Continuous
 62
     7
370
    15
100
AcDbLine
 10
8.4164445191
 20
502.606039319
 30
0.0
 11
8.4164445191
 21
32.6060405111
 31
0.0
  0
LINE
  5
2BE
330
1F
100
AcDbEntity
  8
0
  6
Continuous
 62
     7
370
    15
100
AcDbLine
 10
-6.5835551456
 20
502.606039319
 30
0.0
 11
-6.5835551456
 21
32.6060405111
 31
0.0
  0
LINE
  5
2BF
330
1F
100
AcDbEntity
  8
0
  6
Continuous
 62
     7
370
    15
100
AcDbLine
 10
199.4164488181
 20
37.6060357427
 30
0.0
 11
13.4164444074
 21
37.6060357427
 31
0.0
  0
LINE
  5
2C0
330
1F
100
AcDbEntity
  8
0
  6
Continuous
 62
     7
370
    15
100
AcDbLine
 10
199.4164488181
 20
37.6060357427
 30
0.0
 11
199.4164488181
 21
69.7934975958
 31
0.0
  0
LINE
  5
2C1
330
1F
100
AcDbEntity
  8
0
  6
Continuous
 62
     7
370
    15
100
AcDbLine
 10
199.4164488181
 20
73.133279953
 30
0.0
 11
199.4164488181
 21
74.6060362196
 31
0.0
  0
LINE
  5
2C2
330
1F
100
AcDbEntity
  8
0
  6
Continuous
 62
     7
370
    15
100
AcDbLine
 10
199.4164488181
 20
90.6060388422
 30
0.0
 11
199.4164488181
 21
92.0654436684
 31
0.0
  0
LINE
  5
2C3
330
1F
100
AcDbEntity
  8
0
  6
Continuous
 62
     7
370
    15
100
AcDbLine
 10
199.4164488181
 20
95.4081615543
 30
0.0
 11
199.4164488181
 21
439.793487463
 31
0.0
  0
LINE
  5
2C4
330
1F
100
AcDbEntity
  8
0
  6
Continuous
 62
     7
370
    15
100
AcDbLine
 10
199.4164488181
 20
443.1332847214
 30
0.0
 11
199.4164488181
 21
444.606040988
 31
0.0
  0
LINE
  5
2C5
330
1F
100
AcDbEntity
  8
0
  6
Continuous
 62
     7
370
    15
100
AcDbLine
 10
199.4164488181
 20
460.6060436106
 30
0.0
 11
199.4164488181
 21
462.0654484367
 31
0.0
  0
LINE
  5
2C6
330
1F
100
AcDbEntity
  8
0
  6
Continuous
 62
     7
370
    15
100
AcDbLine
 10
199.4164488181
 20
465.4081514215
 30
0.0
 11
199.4164488181
 21
497.6060440874
 31
0.0
  0
LINE
  5
2C7
330
1F
100
AcDbEntity
  8
0
  6
Continuous
 62
     7
370
    15
100
AcDbLine
 10
199.4164488181
 20
497.6060440874
 30
0.0
 11
13.4164444074
 21
497.6060440874
 31
0.0
  0
LINE
  5
2C8
330
1F
100
AcDbEntity
  8
0
  6
Continuous
 62
     7
370
    15
100
AcDbLine
 10
219.4164446458
 20
32.6060405111
 30
0.0
 11
219.4164446458
 21
73.5981365776
 31
0.0
  0
LINE
  5
2C9
330
1F
100
AcDbEntity
  8
0
  6
Continuous
 62
     7
370
    15
100
AcDbLine
 10
219.4164446458
 20
91.5819754934
 30
0.0
 11
219.4164446458
 21
443.5981264448
 31
0.0
  0
LINE
  5
2CA
330
1F
100
AcDbEntity
  8
0
  6
Continuous
 62
     7
370
    15
100
AcDbLine
 10
219.4164446458
 20
461.5819653606
 30
0.0
 11
219.4164446458
 21
502.606039319
 31
0.0
  0
LINE
  5
2CB
330
1F
100
AcDbEntity
  8
0
  6
Continuous
 62
     7
370
    15
100
AcDbLine
 10
219.4164446458
 20
32.6060405111
 30
0.0
 11
8.4164445191
 21
32.6060405111
 31
0.0
  0
LINE
  5
2CC
330
1F
100
AcDbEntity
  8
0
  6
Continuous
 62
     7
370
    15
100
AcDbLine
 10
219.4164446458
 20
502.606039319
 30
0.0
 11
8.4164445191
 21
502.606039319
 31
0.0
  0
LINE
  5
2CD
330
1F
100
AcDbEntity
  8
0
  6
Continuous
 62
     7
370
    15
100
AcDbLine
 10
13.4164444074
 20
497.6060440874
 30
0.0
 11
13.4164444074
 21
37.6060357427
 31
0.0
  0
LINE
  5
2CE
330
1F
100
AcDbEntity
  8
0
  6
Continuous
 62
     7
370
    15
100
AcDbLine
 10
219.4164446458
 20
517.6060399151
 30
0.0
 11
8.4164445191
 21
517.6060399151
 31
0.0
  0
LINE
  5
2CF
330
1F
100
AcDbEntity
  8
0
  6
Continuous
 62
     7
370
    15
100
AcDbLine
 10
219.4164446458
 20
517.6060399151
 30
0.0
 11
219.4164446458
 21
502.606039319
 31
0.0
  0
LINE
  5
2D0
330
1F
100
AcDbEntity
  8
0
  6
Continuous
 62
     7
370
    15
100
AcDbLine
 10
219.4164446458
 20
32.6060405111
 30
0.0
 11
219.4164446458
 21
17.6060399151
 31
0.0
  0
LINE
  5
2D1
330
1F
100
AcDbEntity
  8
0
  6
Continuous
 62
     7
370
    15
100
AcDbLine
 10
219.4164446458
 20
17.6060399151
 30
0.0
 11
8.4164445191
 21
17.6060399151
 31
0.0
  0
LINE
  5
2D2
330
1F
100
AcDbEntity
  8
0
  6
Continuous
 62
     7
370
    15
100
AcDbLine
 10
223.4164378509
 20
37.6060357427
 30
0.0
 11
219.4164446458
 21
37.6060357427
 31
0.0
  0
LINE
  5
2D3
330
1F
100
AcDbEntity
  8
0
  6
Continuous
 62
     7
370
    15
100
AcDbLine
 10
223.4164378509
 20
22.6060351467
 30
0.0
 11
219.4164446458
 21
22.6060351467
 31
0.0
  0
LINE
  5
2D4
330
1F
100
AcDbEntity
  8
0
  6
Continuous
 62
     7
370
    15
100
AcDbLine
 10
223.4164378509
 20
512.6060446834
 30
0.0
 11
219.4164446458
 21
512.6060446834
 31
0.0
  0
LINE
  5
2D5
330
1F
100
AcDbEntity
  8
0
  6
Continuous
 62
     7
370
    15
100
AcDbLine
 10
223.4164378509
 20
497.6060440874
 30
0.0
 11
219.4164446458
 21
497.6060440874
 31
0.0
  0
LINE
  5
2D6
330
1F
100
AcDbEntity
  8
0
  6
Continuous
 62
     7
370
    15
100
AcDbLine
 10
279.3089222849
 20
614.2638866098
 30
0.0
 11
280.5089127959
 21
614.2638866098
 31
0.0
  0
LINE
  5
2D7
330
1F
100
AcDbEntity
  8
0
  6
Continuous
 62
     7
370
    15
100
AcDbLine
 10
279.2089354933
 20
616.7638842256
 30
0.0
 11
279.3089222849
 21
616.7638842256
 31
0.0
  0
LINE
  5
2D8
330
1F
100
AcDbEntity
  8
0
  6
Continuous
 62
     7
370
    15
100
AcDbLine
 10
279.3089222849
 20
622.7638963849
 30
0.0
 11
279.2089354933
 21
622.7638963849
 31
0.0
  0
LINE
  5
2D9
330
1F
100
AcDbEntity
  8
0
  6
Continuous
 62
     7
370
    15
100
AcDbLine
 10
275.0606906355
 20
679.7638926894
 30
0.0
 11
274.3089270533
 21
679.4902775676
 31
0.0
  0
SPLINE
  5
2DA
330
1F
100
AcDbEntity
  8
0
  6
Continuous
 62
     7
370
    15
100
AcDbSpline
210
0.0
220
0.0
230
1.0
 70
     8
 71
     3
 72
    15
 73
    11
 74
     0
 42
0.00000001
 43
0.00000001
 40
0.0
 40
0.0
 40
0.0
 40
0.0
 40
0.1250764788484305
 40
0.2501513725693029
 40
0.3752924778539273
 40
0.5003060932994484
 40
0.6252892307038274
 40
0.7502633288589022
 40
0.8750791461413063
 40
1.0
 40
1.0
 40
1.0
 40
1.0
 10
278.1233560980203
 20
644.8217127711536
 30
0.0
 10
278.0972392300703
 20
645.0804796128964
 30
0.0
 10
278.0450058251563
 20
645.5980100169609
 30
0.0
 10
277.9661073193447
 20
646.379122502351
 30
0.0
 10
277.8916804519652
 20
647.1163049518728
 30
0.0
 10
277.8246997916694
 20
647.7798826034403
 30
0.0
 10
277.7685505062978
 20
648.3356383140577
 30
0.0
 10
277.7260755678537
 20
648.7567500005695
 30
0.0
 10
277.6972035076812
 20
649.0423403330483
 30
0.0
 10
277.6928789647914
 20
649.0853835441607
 30
0.0
 10
277.6907157839182
 20
649.1069142014743
 30
0.0
  0
SPLINE
  5
2DB
330
1F
100
AcDbEntity
  8
0
  6
Continuous
 62
     7
370
    15
100
AcDbSpline
210
0.0
220
0.0
230
1.0
 70
     8
 71
     3
 72
    15
 73
    11
 74
     0
 42
0.00000001
 43
0.00000001
 40
0.0
 40
0.0
 40
0.0
 40
0.0
 40
0.1249399134837297
 40
0.2497677702417704
 40
0.374749816434683
 40
0.499737761327681
 40
0.6247475667816148
 40
0.7498801254920721
 40
0.8749433406557672
 40
1.0
 40
1.0
 40
1.0
 40
1.0
 10
274.7064602316263
 20
648.8055233151675
 30
0.0
 10
274.7086368044349
 20
648.7839487447795
 30
0.0
 10
274.7129879979168
 20
648.7408189539109
 30
0.0
 10
274.7418360011173
 20
648.4551026967761
 30
0.0
 10
274.7843662057211
 20
648.0339193800112
 30
0.0
 10
274.8404962511311
 20
647.4781393625581
 30
0.0
 10
274.9074920154266
 20
646.814616871215
 30
0.0
 10
274.9818804996958
 20
646.0775680313019
 30
0.0
 10
275.0607399417012
 20
645.2966576823594
 30
0.0
 10
275.1129808008094
 20
644.7793045802104
 30
0.0
 10
275.1391005457285
 20
644.5206348092319
 30
0.0
  0
LINE
  5
2DC
330
1F
100
AcDbEntity
  8
0
  6
Continuous
 62
     7
370
    15
100
AcDbLine
 10
275.1388025225
 20
644.5205006988
 30
0.0
 11
276.7078947962
 21
628.9795283468
 31
0.0
  0
LINE
  5
2DD
330
1F
100
AcDbEntity
  8
0
  6
Continuous
 62
     7
370
    15
100
AcDbLine
 10
279.6927165926
 20
629.2808894307
 30
0.0
 11
278.1236541212
 21
644.8218468816
 31
0.0
  0
SPLINE
  5
2DE
330
1F
100
AcDbEntity
  8
0
  6
Continuous
 62
     7
370
    15
100
AcDbSpline
210
0.0
220
0.0
230
1.0
 70
     8
 71
     3
 72
     9
 73
     5
 74
     0
 42
0.00000001
 43
0.00000001
 40
0.0
 40
0.0
 40
0.0
 40
0.0
 40
0.4837443706254348
 40
1.0
 40
1.0
 40
1.0
 40
1.0
 10
276.8779766500833
 20
627.2981558234454
 30
0.0
 10
276.887430957515
 20
627.2339249607973
 30
0.0
 10
276.9069749729202
 20
627.1011464386097
 30
0.0
 10
276.940820806699
 20
627.0649914273581
 30
0.0
 10
276.9582939089182
 20
627.0463261992694
 30
0.0
  0
SPLINE
  5
2DF
330
1F
100
AcDbEntity
  8
0
  6
Continuous
 62
     7
370
    15
100
AcDbSpline
210
0.0
220
0.0
230
1.0
 70
     8
 71
     3
 72
    11
 73
     7
 74
     0
 42
0.00000001
 43
0.00000001
 40
0.0
 40
0.0
 40
0.0
 40
0.0
 40
0.2484390909623301
 40
0.4978828836876672
 40
0.7483833401196661
 40
1.0
 40
1.0
 40
1.0
 40
1.0
 10
276.7081630171182
 20
628.9796773583652
 30
0.0
 10
276.7261771985505
 20
628.8012051719107
 30
0.0
 10
276.7622784117854
 20
628.443539047366
 30
0.0
 10
276.8092807654566
 20
627.9787122744433
 30
0.0
 10
276.8480743504106
 20
627.5958287745135
 30
0.0
 10
276.8631303477374
 20
627.4485307321764
 30
0.0
 10
276.8706750810983
 20
627.3747179896594
 30
0.0
  0
SPLINE
  5
2E0
330
1F
100
AcDbEntity
  8
0
  6
Continuous
 62
     7
370
    15
100
AcDbSpline
210
0.0
220
0.0
230
1.0
 70
     8
 71
     3
 72
    19
 73
    15
 74
     0
 42
0.00000001
 43
0.00000001
 40
0.0
 40
0.0
 40
0.0
 40
0.0
 40
0.0802803741273912
 40
0.1534391216407641
 40
0.2193400783638363
 40
0.2779457892271799
 40
0.3728404656160573
 40
0.4421528782495143
 40
0.5315337737893917
 40
0.6554830250230004
 40
0.7303562033253211
 40
0.8130776698617835
 40
0.903142612509281
 40
1.0
 40
1.0
 40
1.0
 40
1.0
 10
276.8936228693368
 20
627.2154990823032
 30
0.0
 10
276.9289822572993
 20
627.0926243741012
 30
0.0
 10
276.9965643219032
 20
626.8577751036127
 30
0.0
 10
277.1938020705921
 20
626.5633746573329
 30
0.0
 10
277.4186393508871
 20
626.3392434278677
 30
0.0
 10
277.7143019699871
 20
626.1462010196163
 30
0.0
 10
278.0562511818874
 20
626.0283033408189
 30
0.0
 10
278.4660047405712
 20
625.9984983456715
 30
0.0
 10
278.9050908121098
 20
626.1008171002676
 30
0.0
 10
279.2916408463608
 20
626.3520339496737
 30
0.0
 10
279.5844773542904
 20
626.6927512259925
 30
0.0
 10
279.7652610370008
 20
627.0482148860951
 30
0.0
 10
279.8711219702801
 20
627.4751640575197
 30
0.0
 10
279.8388830799357
 20
627.77023089082
 30
0.0
 10
279.8221778810861
 20
627.9231254250766
 30
0.0
  0
SPLINE
  5
2E1
330
1F
100
AcDbEntity
  8
0
  6
Continuous
 62
     7
370
    15
100
AcDbSpline
210
0.0
220
0.0
230
1.0
 70
     8
 71
     3
 72
    11
 73
     7
 74
     0
 42
0.00000001
 43
0.00000001
 40
0.0
 40
0.0
 40
0.0
 40
0.0
 40
0.2477422503486103
 40
0.4969461198069422
 40
0.7476718296631556
 40
1.0
 40
1.0
 40
1.0
 40
1.0
 10
279.8459303320291
 20
627.7554426581622
 30
0.0
 10
279.8395028871678
 20
627.8200681106897
 30
0.0
 10
279.8266100770815
 20
627.9497002902193
 30
0.0
 10
279.7906157340028
 20
628.3075758763981
 30
0.0
 10
279.7456641259201
 20
628.7538999630165
 30
0.0
 10
279.710224586931
 20
629.1047643125062
 30
0.0
 10
279.6924483717325
 20
629.2807553202869
 30
0.0
  0
LINE
  5
2E2
330
1F
100
AcDbEntity
  8
0
  6
Continuous
 62
     7
370
    15
100
AcDbLine
 10
279.9762260855
 20
638.9355603845
 30
0.0
 11
279.9762260855
 21
639.2353717477
 31
0.0
  0
LINE
  5
2E3
330
1F
100
AcDbEntity
  8
0
  6
Continuous
 62
     7
370
    15
100
AcDbLine
 10
279.1762125433
 20
639.2353717477
 30
0.0
 11
279.1762125433
 21
638.9380041749
 31
0.0
  0
SPLINE
  5
2E4
330
1F
100
AcDbEntity
  8
0
  6
Continuous
 62
     7
370
    15
100
AcDbSpline
210
0.0
220
0.0
230
1.0
 70
    24
 71
     3
 72
    11
 73
     7
 74
     0
 42
0.00000001
 43
0.00000001
 40
0.0
 40
0.0
 40
0.0
 40
0.0
 40
0.0207850328835332
 40
0.3465561843128634
 40
0.6711381646362238
 40
0.9999999999999999
 40
0.9999999999999999
 40
0.9999999999999999
 40
0.9999999999999999
 10
279.1762125433328
 20
639.5216975600482
 30
0.0
 10
279.1762125433328
 20
639.5183758560073
 30
0.0
 10
279.1762125433326
 20
639.4629919129433
 30
0.0
 10
279.176212543333
 20
639.3697537477675
 30
0.0
 10
279.1762125433327
 20
639.257041612481
 30
0.0
 10
279.1762125433328
 20
639.222514113407
 30
0.0
 10
279.1762125433328
 20
639.2051372916461
 30
0.0
  0
SPLINE
  5
2E5
330
1F
100
AcDbEntity
  8
0
  6
Continuous
 62
     7
370
    15
100
AcDbSpline
210
0.0
220
0.0
230
1.0
 70
    24
 71
     3
 72
    11
 73
     7
 74
     0
 42
0.00000001
 43
0.00000001
 40
0.0
 40
0.0
 40
0.0
 40
0.0
 40
0.2504877331241812
 40
0.4977261212757707
 40
0.7458640449708547
 40
0.9999999999999999
 40
0.9999999999999999
 40
0.9999999999999999
 40
0.9999999999999999
 10
279.9762260855081
 20
639.2026935012103
 30
0.0
 10
279.9762260855082
 20
639.2189106329215
 30
0.0
 10
279.9762260855082
 20
639.2511345265395
 30
0.0
 10
279.976226085508
 20
639.3599100629403
 30
0.0
 10
279.9762260855082
 20
639.4987404938728
 30
0.0
 10
279.9762260855082
 20
639.6057679535975
 30
0.0
 10
279.9762260855081
 20
639.6599207312823
 30
0.0
  0
LINE
  5
2E6
330
1F
100
AcDbEntity
  8
0
  6
Continuous
 62
     7
370
    15
100
AcDbLine
 10
278.9694738329
 20
639.7638861329
 30
0.0
 11
279.1784179152
 21
639.5166609676
 31
0.0
  0
LINE
  5
2E7
330
1F
100
AcDbEntity
  8
0
  6
Continuous
 62
     7
370
    15
100
AcDbLine
 10
279.9762260855
 20
639.6599207313
 30
0.0
 11
279.9762260855
 21
639.7638861329
 31
0.0
  0
LINE
  5
2E8
330
1F
100
AcDbEntity
  8
0
  6
Continuous
 62
     7
370
    15
100
AcDbLine
 10
274.6998441161
 20
648.9019040258
 30
0.0
 11
274.6842276991
 21
649.3611429126
 31
0.0
  0
SPLINE
  5
2E9
330
1F
100
AcDbEntity
  8
0
  6
Continuous
 62
     7
370
    15
100
AcDbSpline
210
0.0
220
0.0
230
1.0
 70
     8
 71
     3
 72
    11
 73
     7
 74
     0
 42
0.00000001
 43
0.00000001
 40
0.0
 40
0.0
 40
0.0
 40
0.0
 40
0.1207593671251612
 40
0.4133930757106001
 40
0.706356478972124
 40
1.0
 40
1.0
 40
1.0
 40
1.0
 10
276.7325115145089
 20
628.7384722621204
 30
0.0
 10
276.7424351571294
 20
628.6401716792085
 30
0.0
 10
276.7764065602828
 20
628.3036613009125
 30
0.0
 10
276.8237431211477
 20
627.8347522022916
 30
0.0
 10
276.8666312180773
 20
627.4100093060896
 30
0.0
 10
276.874191917432
 20
627.3354691251967
 30
0.0
 10
276.8779766500833
 20
627.2981558234454
 30
0.0
  0
LINE
  5
2EA
330
1F
100
AcDbEntity
  8
0
  6
Continuous
 62
     7
370
    15
100
AcDbLine
 10
280.5089127959
 20
678.7638906629
 30
0.0
 11
280.2089226187
 21
678.7638906629
 31
0.0
  0
LINE
  5
2EB
330
1F
100
AcDbEntity
  8
0
  6
Continuous
 62
     7
370
    15
100
AcDbLine
 10
280.2089226187
 20
677.7638886363
 30
0.0
 11
280.1089358271
 21
677.7638886363
 31
0.0
  0
LINE
  5
2EC
330
1F
100
AcDbEntity
  8
0
  6
Continuous
 62
     7
370
    15
100
AcDbLine
 10
280.1089358271
 20
671.7638913781
 30
0.0
 11
280.2089226187
 21
671.7638913781
 31
0.0
  0
LINE
  5
2ED
330
1F
100
AcDbEntity
  8
0
  6
Continuous
 62
     7
370
    15
100
AcDbLine
 10
280.2089226187
 20
654.763886729
 30
0.0
 11
280.1089358271
 21
654.763886729
 31
0.0
  0
LINE
  5
2EE
330
1F
100
AcDbEntity
  8
0
  6
Continuous
 62
     7
370
    15
100
AcDbLine
 10
280.1089358271
 20
648.7638894708
 30
0.0
 11
280.2089226187
 21
648.7638894708
 31
0.0
  0
ARC
  5
2EF
330
1F
100
AcDbEntity
  8
0
  6
Continuous
 62
     7
370
    15
100
AcDbCircle
 10
295.5089247168
 20
617.7638893993
 30
0.0
 40
15.0
100
AcDbArc
 50
180.0
 51
270.0
  0
LINE
  5
2F0
330
1F
100
AcDbEntity
  8
0
  6
Continuous
 62
     7
370
    15
100
AcDbLine
 10
280.5089127959
 20
617.7638862521
 30
0.0
 11
295.5089282931
 21
617.7638862521
 31
0.0
  0
LINE
  5
2F1
330
1F
100
AcDbEntity
  8
0
  6
Continuous
 62
     7
370
    15
100
AcDbLine
 10
295.5089282931
 20
602.7638856561
 30
0.0
 11
295.5089282931
 21
617.7638862521
 31
0.0
  0
LINE
  5
2F2
330
1F
100
AcDbEntity
  8
0
  6
Continuous
 62
     7
370
    15
100
AcDbLine
 10
295.5089282931
 20
622.7638963849
 30
0.0
 11
295.5089282931
 21
617.7638862521
 31
0.0
  0
LINE
  5
2F3
330
1F
100
AcDbEntity
  8
0
  6
Continuous
 62
     7
370
    15
100
AcDbLine
 10
865.5089211405
 20
622.7638963849
 30
0.0
 11
865.5089211405
 21
617.7638862521
 31
0.0
  0
LINE
  5
2F4
330
1F
100
AcDbEntity
  8
0
  6
Continuous
 62
     7
370
    15
100
AcDbLine
 10
295.5089282931
 20
617.7638862521
 30
0.0
 11
865.5089211405
 21
617.7638862521
 31
0.0
  0
LINE
  5
2F5
330
1F
100
AcDbEntity
  8
0
  6
Continuous
 62
     7
370
    15
100
AcDbLine
 10
295.5089282931
 20
622.7638963849
 30
0.0
 11
865.5089211405
 21
622.7638963849
 31
0.0
  0
LINE
  5
2F6
330
1F
100
AcDbEntity
  8
0
  6
Continuous
 62
     7
370
    15
100
AcDbLine
 10
280.5089127959
 20
622.7638963849
 30
0.0
 11
280.5089127959
 21
617.7638862521
 31
0.0
  0
LINE
  5
2F7
330
1F
100
AcDbEntity
  8
0
  6
Continuous
 62
     7
370
    15
100
AcDbLine
 10
280.5089127959
 20
622.7638963849
 30
0.0
 11
295.5089282931
 21
622.7638963849
 31
0.0
  0
LINE
  5
2F8
330
1F
100
AcDbEntity
  8
0
  6
Continuous
 62
     7
370
    15
100
AcDbLine
 10
295.5089282931
 20
602.7638856561
 30
0.0
 11
865.5089211405
 21
602.7638856561
 31
0.0
  0
LINE
  5
2F9
330
1F
100
AcDbEntity
  8
0
  6
Continuous
 62
     7
370
    15
100
AcDbLine
 10
865.5089211405
 20
617.7638862521
 30
0.0
 11
865.5089211405
 21
602.7638856561
 31
0.0
  0
LINE
  5
2FA
330
1F
100
AcDbEntity
  8
0
  6
Continuous
 62
     7
370
    15
100
AcDbLine
 10
880.5089366377
 20
622.7638963849
 30
0.0
 11
880.5089366377
 21
617.7638862521
 31
0.0
  0
LINE
  5
2FB
330
1F
100
AcDbEntity
  8
0
  6
Continuous
 62
     7
370
    15
100
AcDbLine
 10
880.5089366377
 20
617.7638862521
 30
0.0
 11
865.5089211405
 21
617.7638862521
 31
0.0
  0
LINE
  5
2FC
330
1F
100
AcDbEntity
  8
0
  6
Continuous
 62
     7
370
    15
100
AcDbLine
 10
880.5089366377
 20
622.7638963849
 30
0.0
 11
865.5089211405
 21
622.7638963849
 31
0.0
  0
ARC
  5
2FD
330
1F
100
AcDbEntity
  8
0
  6
Continuous
 62
     7
370
    15
100
AcDbCircle
 10
865.5089247168
 20
617.7638893993
 30
0.0
 40
15.00000000000011
100
AcDbArc
 50
270.0
 51
0.0
  0
LINE
  5
2FE
330
1F
100
AcDbEntity
  8
0
  6
Continuous
 62
     7
370
    15
100
AcDbLine
 10
279.3089222849
 20
620.781654516
 30
0.0
 11
280.5089127959
 21
620.781654516
 31
0.0
  0
LINE
  5
2FF
330
1F
100
AcDbEntity
  8
0
  6
Continuous
 62
     7
370
    15
100
AcDbLine
 10
279.3089222849
 20
618.6776850612
 30
0.0
 11
280.5089127959
 21
618.6776850612
 31
0.0
  0
LINE
  5
300
330
1F
100
AcDbEntity
  8
0
  6
Continuous
 62
     7
370
    15
100
AcDbLine
 10
279.3089222849
 20
618.6776850612
 30
0.0
 11
279.3089222849
 21
620.781654516
 31
0.0
  0
LINE
  5
301
330
1F
100
AcDbEntity
  8
0
  6
Continuous
 62
     7
370
    15
100
AcDbLine
 10
279.3089222849
 20
625.7638875634
 30
0.0
 11
280.5089127959
 21
625.7638875634
 31
0.0
  0
LINE
  5
302
330
1F
100
AcDbEntity
  8
0
  6
Continuous
 62
     7
370
    15
100
AcDbLine
 10
280.5089127959
 20
622.7638963849
 30
0.0
 11
280.5089127959
 21
625.7638875634
 31
0.0
  0
LINE
  5
303
330
1F
100
AcDbEntity
  8
0
  6
Continuous
 62
     7
370
    15
100
AcDbLine
 10
279.3089222849
 20
625.7638875634
 30
0.0
 11
279.3089222849
 21
620.781654516
 31
0.0
  0
LINE
  5
304
330
1F
100
AcDbEntity
  8
0
  6
Continuous
 62
     7
370
    15
100
AcDbLine
 10
280.5089127959
 20
617.7638862521
 30
0.0
 11
280.5089127959
 21
614.2638866098
 31
0.0
  0
LINE
  5
305
330
1F
100
AcDbEntity
  8
0
  6
Continuous
 62
     7
370
    15
100
AcDbLine
 10
279.3089222849
 20
614.2638866098
 30
0.0
 11
279.3089222849
 21
618.6776850612
 31
0.0
  0
LINE
  5
306
330
1F
100
AcDbEntity
  8
0
  6
Continuous
 62
     7
370
    15
100
AcDbLine
 10
279.2089354933
 20
616.7638842256
 30
0.0
 11
279.2089354933
 21
622.7638963849
 31
0.0
  0
LINE
  5
307
330
1F
100
AcDbEntity
  8
0
  6
Continuous
 62
     7
370
    15
100
AcDbLine
 10
272.4609446467
 20
626.9662920625
 30
0.0
 11
273.191459173
 21
626.014271775
 31
0.0
  0
LINE
  5
308
330
1F
100
AcDbEntity
  8
0
  6
Continuous
 62
     7
370
    15
100
AcDbLine
 10
272.2394239844
 20
625.2837572486
 30
0.0
 11
271.5089392603
 21
626.2357775361
 31
0.0
  0
LWPOLYLINE
  5
309
330
1F
100
AcDbEntity
  8
0
  6
Continuous
 62
     7
370
    15
100
AcDbPolyline
 90
        9
 70
   128
 43
0.0
 10
271.5089392603
 20
626.2357775361
 10
271.527208084
 20
626.24981443
 10
271.5813887061
 20
626.2913886697
 10
271.6693651617
 20
626.3589058311
 10
271.7877697886
 20
626.4497433097
 10
271.9320428313
 20
626.5604440362
 10
272.0966112555
 20
626.6867462785
 10
272.2752165736
 20
626.8237773568
 10
272.4609446467
 20
626.9662920625
  0
LWPOLYLINE
  5
30A
330
1F
100
AcDbEntity
  8
0
  6
Continuous
 62
     7
370
    15
100
AcDbPolyline
 90
        9
 70
   128
 43
0.0
 10
273.191459173
 20
626.014271775
 10
273.0057310999
 20
625.8717570693
 10
272.8271257819
 20
625.734725991
 10
272.6625573576
 20
625.6084237487
 10
272.518284315
 20
625.4977230222
 10
272.3998796881
 20
625.4068706424
 10
272.3119032324
 20
625.3393683822
 10
272.2577226103
 20
625.2977941425
 10
272.2394239844
 20
625.2837572486
  0
ARC
  5
30B
330
1F
100
AcDbEntity
  8
0
  6
Continuous
 62
     7
370
    15
100
AcDbCircle
 10
277.7089247168
 20
627.4638893993
 30
0.0
 40
2.800000000000068
100
AcDbArc
 50
0.0
 51
45.4024529621
  0
LINE
  5
30C
330
1F
100
AcDbEntity
  8
0
  6
Continuous
 62
     7
370
    15
100
AcDbLine
 10
276.6012620867
 20
630.0354842336
 30
0.0
 11
276.0043811739
 21
629.6852771432
 31
0.0
  0
LINE
  5
30D
330
1F
100
AcDbEntity
  8
0
  6
Continuous
 62
     7
370
    15
100
AcDbLine
 10
276.0043811739
 20
629.6852771432
 30
0.0
 11
272.4609446467
 21
626.9662920625
 31
0.0
  0
LINE
  5
30E
330
1F
100
AcDbEntity
  8
0
  6
Continuous
 62
     7
370
    15
100
AcDbLine
 10
273.191459173
 20
626.014271775
 30
0.0
 11
276.7348957003
 21
628.7332568557
 31
0.0
  0
LINE
  5
30F
330
1F
100
AcDbEntity
  8
0
  6
Continuous
 62
     7
370
    15
100
AcDbLine
 10
280.5089127959
 20
625.7638875634
 30
0.0
 11
280.5089127959
 21
626.76388959
 31
0.0
  0
LINE
  5
310
330
1F
100
AcDbEntity
  8
0
  6
Continuous
 62
     7
370
    15
100
AcDbLine
 10
279.3089222849
 20
626.4048312099
 30
0.0
 11
279.3089222849
 21
625.7638875634
 31
0.0
  0
ARC
  5
311
330
1F
100
AcDbEntity
  8
0
  6
Continuous
 62
     7
370
    15
100
AcDbCircle
 10
275.6089247168
 20
642.7838893993
 30
0.0
 40
2.200000000000049
100
AcDbArc
 50
103.5934783353
 51
268.1042765976
  0
LINE
  5
312
330
1F
100
AcDbEntity
  8
0
  6
Continuous
 62
     7
370
    15
100
AcDbLine
 10
272.0621001662
 20
644.1616509349
 30
0.0
 11
272.3957371653
 21
646.0538897903
 31
0.0
  0
LWPOLYLINE
  5
313
330
1F
100
AcDbEntity
  8
0
  6
Continuous
 62
     7
370
    15
100
AcDbPolyline
 90
        9
 70
   128
 43
0.0
 10
272.3957371653
 20
646.0538897903
 10
272.2514939249
 20
646.0793260724
 10
272.1144628466
 20
646.1034808547
 10
271.9893526972
 20
646.1255494745
 10
271.8805146159
 20
646.1447421701
 10
271.7916738928
 20
646.1604032905
 10
271.725959772
 20
646.1719963939
 10
271.6855776251
 20
646.1791042478
 10
271.6719579638
 20
646.1815182359
  0
LINE
  5
314
330
1F
100
AcDbEntity
  8
0
  6
Continuous
 62
     7
370
    15
100
AcDbLine
 10
271.6719579638
 20
646.1815182359
 30
0.0
 11
276.0469984949
 21
670.9936205537
 31
0.0
  0
LWPOLYLINE
  5
315
330
1F
100
AcDbEntity
  8
0
  6
Continuous
 62
     7
370
    15
100
AcDbPolyline
 90
        9
 70
   128
 43
0.0
 10
276.0469984949
 20
670.9936205537
 10
276.0621380747
 20
670.9909532459
 10
276.1069905699
 20
670.9830407293
 10
276.1797976435
 20
670.9702108295
 10
276.2777578772
 20
670.9529403836
 10
276.3971459807
 20
670.9318850429
 10
276.5333723963
 20
670.907864371
 10
276.681162113
 20
670.8818022401
 10
276.8348526896
 20
670.8546970279
  0
LINE
  5
316
330
1F
100
AcDbEntity
  8
0
  6
Continuous
 62
     7
370
    15
100
AcDbLine
 10
276.8348526896
 20
670.8546970279
 30
0.0
 11
272.0095288695
 21
643.4888933093
 31
0.0
  0
LINE
  5
317
330
1F
100
AcDbEntity
  8
0
  6
Continuous
 62
     7
370
    15
100
AcDbLine
 10
272.0095288695
 20
643.4888933093
 30
0.0
 11
272.0621001662
 21
644.1616509349
 31
0.0
  0
LWPOLYLINE
  5
318
330
1F
100
AcDbEntity
  8
0
  6
Continuous
 62
     7
370
    15
100
AcDbPolyline
 90
        5
 70
   128
 43
0.0
 10
274.8943042696
 20
677.8819505365
 10
274.6408355177
 20
678.5783563049
 10
274.4572830141
 20
679.0826712043
 10
274.346150154
 20
679.3880257995
 10
274.3089270533
 20
679.4902775676
  0
LWPOLYLINE
  5
319
330
1F
100
AcDbEntity
  8
0
  6
Continuous
 62
     7
370
    15
100
AcDbPolyline
 90
        5
 70
   128
 43
0.0
 10
275.653935665
 20
678.1339291723
 10
275.3970992506
 20
678.8396034629
 10
275.2110731543
 20
679.350728193
 10
275.0983905733
 20
679.6602402122
 10
275.0606906355
 20
679.7638926894
  0
LINE
  5
31A
330
1F
100
AcDbEntity
  8
0
  6
Continuous
 62
     7
370
    15
100
AcDbLine
 10
275.8760225714
 20
677.7794901521
 30
0.0
 11
275.653935665
 21
678.1339291723
 31
0.0
  0
LINE
  5
31B
330
1F
100
AcDbEntity
  8
0
  6
Continuous
 62
     7
370
    15
100
AcDbLine
 10
275.7938277663
 20
677.7495686204
 30
0.0
 11
275.8760225714
 21
677.7794901521
 31
0.0
  0
SPLINE
  5
31C
330
1F
100
AcDbEntity
  8
0
  6
Continuous
 62
     7
370
    15
100
AcDbSpline
210
0.0
220
0.0
230
1.0
 70
     8
 71
     3
 72
    12
 73
     8
 74
     0
 42
0.00000001
 43
0.00000001
 40
0.0
 40
0.0
 40
0.0
 40
0.0
 40
0.2510214851684107
 40
0.5023964020404518
 40
0.7402739474278963
 40
0.9473065576477647
 40
0.9999999999999999
 40
0.9999999999999999
 40
0.9999999999999999
 40
0.9999999999999999
 10
274.8943042696359
 20
677.8819505364658
 30
0.0
 10
274.922021124274
 20
677.8376325523417
 30
0.0
 10
274.9774938581585
 20
677.7489341855281
 30
0.0
 10
275.1844610615942
 20
677.6739451293708
 30
0.0
 10
275.4458598556973
 20
677.6624381072144
 30
0.0
 10
275.6624392909292
 20
677.7040866892303
 30
0.0
 10
275.7716674620469
 20
677.7418975257597
 30
0.0
 10
275.7938277662637
 20
677.7495686204196
 30
0.0
  0
LINE
  5
31D
330
1F
100
AcDbEntity
  8
0
  6
Continuous
 62
     7
370
    15
100
AcDbLine
 10
275.7938277663
 20
677.7495686204
 30
0.0
 11
276.3701748789
 21
676.166081825
 31
0.0
  0
LWPOLYLINE
  5
31E
330
1F
100
AcDbEntity
  8
0
  6
Continuous
 62
     7
370
    15
100
AcDbPolyline
 90
        9
 70
   128
 43
0.0
 10
275.6184112967
 20
675.8924667032
 10
275.632865423
 20
675.8977268131
 10
275.6756317557
 20
675.9132985265
 10
275.7451009692
 20
675.938585797
 10
275.8385908545
 20
675.9726051481
 10
275.952525133
 20
676.0140750797
 10
276.0824930609
 20
676.0613862664
 10
276.2235176504
 20
676.1127058656
 10
276.3701748789
 20
676.166081825
  0
LINE
  5
31F
330
1F
100
AcDbEntity
  8
0
  6
Continuous
 62
     7
370
    15
100
AcDbLine
 10
275.6184112967
 20
675.8924667032
 30
0.0
 11
274.8943042696
 21
677.8819505365
 31
0.0
  0
ARC
  5
320
330
1F
100
AcDbEntity
  8
0
  6
Continuous
 62
     7
370
    15
100
AcDbCircle
 10
266.6913376763
 20
672.6432798676
 30
0.0
 40
9.500000000000059
100
AcDbArc
 50
350.0
 51
20.0
  0
ARC
  5
321
330
1F
100
AcDbEntity
  8
0
  6
Continuous
 62
     7
370
    15
100
AcDbCircle
 10
266.6913376763
 20
672.6432798676
 30
0.0
 40
10.30000000000015
100
AcDbArc
 50
350.0
 51
20.0
  0
ARC
  5
322
330
1F
100
AcDbEntity
  8
0
  6
Continuous
 62
     7
370
    15
100
AcDbCircle
 10
276.198930223
 20
648.9528803177
 30
0.0
 40
1.600000000000037
100
AcDbArc
 50
347.034367059
 51
204.5705045339
  0
ARC
  5
323
330
1F
100
AcDbEntity
  8
0
  6
Continuous
 62
     7
370
    15
100
AcDbCircle
 10
269.5089247168
 20
671.5795754452
 30
0.0
 40
9.500000000000057
100
AcDbArc
 50
0.0
 51
36.8410865502
  0
LINE
  5
324
330
1F
100
AcDbEntity
  8
0
  6
Continuous
 62
     7
370
    15
100
AcDbLine
 10
279.0089321078
 20
671.5795789153
 30
0.0
 11
279.0089321078
 21
643.5538921745
 31
0.0
  0
ARC
  5
325
330
1F
100
AcDbEntity
  8
0
  6
Continuous
 62
     7
370
    15
100
AcDbCircle
 10
276.5936266426
 20
678.4759542536
 30
0.0
 40
1.0
100
AcDbArc
 50
224.1440002858
 51
270.0
  0
LINE
  5
326
330
1F
100
AcDbEntity
  8
0
  6
Continuous
 62
     7
370
    15
100
AcDbLine
 10
276.5936326922
 20
677.4759534986
 30
0.0
 11
276.7116498888
 21
677.4759534986
 31
0.0
  0
ARC
  5
327
330
1F
100
AcDbEntity
  8
0
  6
Continuous
 62
     7
370
    15
100
AcDbCircle
 10
276.7116391882
 20
676.9759542536
 30
0.0
 40
0.5000000000001137
100
AcDbArc
 50
36.8410865503
 51
90.0
  0
LWPOLYLINE
  5
328
330
1F
100
AcDbEntity
  8
0
  6
Continuous
 62
     7
370
    15
100
AcDbPolyline
 90
        3
 70
   128
 43
0.0
 10
279.0089321078
 20
643.5538921745
 10
278.8003158511
 20
642.3636023195
 10
278.4441482962
 20
641.6474525125
  0
ARC
  5
329
330
1F
100
AcDbEntity
  8
0
  6
Continuous
 62
     7
370
    15
100
AcDbCircle
 10
275.5089247168
 20
643.5538893993
 30
0.0
 40
3.50000000000001
100
AcDbArc
 50
181.0639402281
 51
271.3221928089
  0
ARC
  5
32A
330
1F
100
AcDbEntity
  8
0
  6
Continuous
 62
     7
370
    15
100
AcDbCircle
 10
276.1025425102
 20
644.2513849261
 30
0.0
 40
4.698428302688391
100
AcDbArc
 50
170.0
 51
264.3261771657
  0
LINE
  5
32B
330
1F
100
AcDbEntity
  8
0
  6
Continuous
 62
     7
370
    15
100
AcDbLine
 10
271.6719579638
 20
646.1815182359
 30
0.0
 11
271.4755010546
 21
645.0672541053
 31
0.0
  0
SPLINE
  5
32C
330
1F
100
AcDbEntity
  8
0
  6
Continuous
 62
     7
370
    15
100
AcDbSpline
210
0.0
220
0.0
230
1.0
 70
     8
 71
     3
 72
    12
 73
     8
 74
     0
 42
0.00000001
 43
0.00000001
 40
0.0
 40
0.0
 40
0.0
 40
0.0
 40
0.2340574344133508
 40
0.468109300806247
 40
0.7021660852523228
 40
0.9362176827917005
 40
1.0
 40
1.0
 40
1.0
 40
1.0
 10
276.8059146345498
 20
644.4410030038119
 30
0.0
 10
276.6095159244369
 20
644.4216242892015
 30
0.0
 10
276.2167231763635
 20
644.3828673209838
 30
0.0
 10
275.6792337181748
 20
644.3776103963974
 30
0.0
 10
275.3057260374613
 20
644.4160924568428
 30
0.0
 10
275.1265550911234
 20
644.4707546727874
 30
0.0
 10
275.1552479854536
 20
644.5147087421991
 30
0.0
 10
275.1613926828745
 20
644.5241216809512
 30
0.0
  0
SPLINE
  5
32D
330
1F
100
AcDbEntity
  8
0
  6
Continuous
 62
     7
370
    15
100
AcDbSpline
210
0.0
220
0.0
230
1.0
 70
     8
 71
     3
 72
    11
 73
     7
 74
     0
 42
0.00000001
 43
0.00000001
 40
0.0
 40
0.0
 40
0.0
 40
0.0
 40
0.1986876275195042
 40
0.4657886907766797
 40
0.7329025834759025
 40
1.0
 40
1.0
 40
1.0
 40
1.0
 10
278.101809018934
 20
644.8198948294879
 30
0.0
 10
278.1006243946496
 20
644.7954014863915
 30
0.0
 10
278.0978472484256
 20
644.7379810905871
 30
0.0
 10
277.8283503147997
 20
644.6309012168412
 30
0.0
 10
277.381270672832
 20
644.5200869855402
 30
0.0
 10
276.9976960372337
 20
644.467363789024
 30
0.0
 10
276.8059146345499
 20
644.4410030038119
 30
0.0
  0
SPLINE
  5
32E
330
1F
100
AcDbEntity
  8
0
  6
Continuous
 62
     7
370
    15
100
AcDbSpline
210
0.0
220
0.0
230
1.0
 70
     8
 71
     3
 72
    12
 73
     8
 74
     0
 42
0.00000001
 43
0.00000001
 40
0.0
 40
0.0
 40
0.0
 40
0.0
 40
0.2339637986787812
 40
0.4679314099192302
 40
0.7018957118169417
 40
0.9358618348788783
 40
1.0
 40
1.0
 40
1.0
 40
1.0
 10
276.1989307344797
 20
650.4528764874698
 30
0.0
 10
276.0028517316999
 20
650.4303722931899
 30
0.0
 10
275.610690530931
 20
650.3853635379129
 30
0.0
 10
275.1077379859398
 20
650.0378858521004
 30
0.0
 10
274.7879640245095
 20
649.5443770756901
 30
0.0
 10
274.6599875371036
 20
649.090795096298
 30
0.0
 10
274.7178032376397
 20
648.8478048294648
 30
0.0
 10
274.7302424848917
 20
648.7955246360065
 30
0.0
  0
SPLINE
  5
32F
330
1F
100
AcDbEntity
  8
0
  6
Continuous
 62
     7
370
    15
100
AcDbSpline
210
0.0
220
0.0
230
1.0
 70
     8
 71
     3
 72
    11
 73
     7
 74
     0
 42
0.00000001
 43
0.00000001
 40
0.0
 40
0.0
 40
0.0
 40
0.0
 40
0.1976861585316498
 40
0.4651230364919047
 40
0.7325636972527094
 40
0.9999999999999999
 40
0.9999999999999999
 40
0.9999999999999999
 40
0.9999999999999999
 10
277.6691389025094
 20
649.1025928647281
 30
0.0
 10
277.6508573109148
 20
649.2473405289269
 30
0.0
 10
277.6078437309174
 20
649.587907989984
 30
0.0
 10
277.2824077967766
 20
650.037698369764
 30
0.0
 10
276.7890998342862
 20
650.3854104078821
 30
0.0
 10
276.3956526991863
 20
650.4303879164281
 30
0.0
 10
276.1989307344797
 20
650.4528764874698
 30
0.0
  0
SPLINE
  5
330
330
1F
100
AcDbEntity
  8
0
  6
Continuous
 62
     7
370
    15
100
AcDbSpline
210
0.0
220
0.0
230
1.0
 70
     8
 71
     3
 72
    12
 73
     8
 74
     0
 42
0.00000001
 43
0.00000001
 40
0.0
 40
0.0
 40
0.0
 40
0.0
 40
0.2350075899205386
 40
0.4700315036605494
 40
0.7050497480180404
 40
0.9400627841620258
 40
1.0
 40
1.0
 40
1.0
 40
1.0
 10
278.3749771059396
 20
628.900030651784
 30
0.0
 10
278.178597216742
 20
628.8806527210343
 30
0.0
 10
277.7858237976388
 20
628.8418955135279
 30
0.0
 10
277.2482079135132
 20
628.8366290479934
 30
0.0
 10
276.8751347133519
 20
628.8751536313105
 30
0.0
 10
276.696111036758
 20
628.9292758111818
 30
0.0
 10
276.7240107563746
 20
628.9725768346831
 30
0.0
 10
276.7296802938822
 20
628.9813760907413
 30
0.0
  0
SPLINE
  5
331
330
1F
100
AcDbEntity
  8
0
  6
Continuous
 62
     7
370
    15
100
AcDbSpline
210
0.0
220
0.0
230
1.0
 70
     8
 71
     3
 72
    11
 73
     7
 74
     0
 42
0.00000001
 43
0.00000001
 40
0.0
 40
0.0
 40
0.0
 40
0.0
 40
0.1989175930605848
 40
0.4659445880293572
 40
0.7329679671294883
 40
0.9999999999999999
 40
0.9999999999999999
 40
0.9999999999999999
 40
0.9999999999999999
 10
279.6709310949685
 20
629.2790267855884
 30
0.0
 10
279.6697627908404
 20
629.2545002686995
 30
0.0
 10
279.6670261551448
 20
629.1970493533148
 30
0.0
 10
279.3974147270928
 20
629.0899339117655
 30
0.0
 10
278.9503515971128
 20
628.979108728852
 30
0.0
 10
278.5667706748307
 20
628.9263902955544
 30
0.0
 10
278.3749771059396
 20
628.900030651784
 30
0.0
  0
ELLIPSE
  5
332
330
1F
100
AcDbEntity
  8
0
  6
Continuous
 62
     7
370
    15
100
AcDbEllipse
 10
279.5762241171
 20
638.9367810055
 30
0.0
 11
0.3991830274373456
 21
-0.02624604221159644
 31
0.0
210
0.0
220
0.0
230
1.0
 40
0.9763157485
 41
0.0
 42
6.283185307179586
  0
ARC
  5
333
330
1F
100
AcDbEntity
  8
0
  6
Continuous
 62
     7
370
    15
100
AcDbCircle
 10
279.5762124138
 20
639.2016563613
 30
0.0
 40
0.4000150162574163
100
AcDbArc
 50
0.1485539448
 51
179.5014058744
  0
SPLINE
  5
334
330
1F
100
AcDbEntity
  8
0
  6
Continuous
 62
     7
370
    15
100
AcDbSpline
210
0.0
220
0.0
230
1.0
 70
     8
 71
     3
 72
    13
 73
     9
 74
     0
 42
0.00000001
 43
0.00000001
 40
0.0
 40
0.0
 40
0.0
 40
0.0
 40
0.00816763653622
 40
0.2391349469947311
 40
0.4711085710044478
 40
0.693123263728895
 40
0.9042359212972795
 40
1.0
 40
1.0
 40
1.0
 40
1.0
 10
279.5762193144205
 20
639.6656129748584
 30
0.0
 10
279.5745604013891
 20
639.665220709695
 30
0.0
 10
279.5259901597935
 20
639.6537358317098
 30
0.0
 10
279.4298841259529
 20
639.6304408442799
 30
0.0
 10
279.3070366124547
 20
639.5868305523951
 30
0.0
 10
279.22139698835
 20
639.5493800051062
 30
0.0
 10
279.1773910517523
 20
639.5282183062251
 30
0.0
 10
279.1806040988923
 20
639.5232484541127
 30
0.0
 10
279.181606763685
 20
639.5216975600482
 30
0.0
  0
SPLINE
  5
335
330
1F
100
AcDbEntity
  8
0
  6
Continuous
 62
     7
370
    15
100
AcDbSpline
210
0.0
220
0.0
230
1.0
 70
     8
 71
     3
 72
    13
 73
     9
 74
     0
 42
0.00000001
 43
0.00000001
 40
0.0
 40
0.0
 40
0.0
 40
0.0
 40
0.1252292631325221
 40
0.2499830421447354
 40
0.4999541678562939
 40
0.750001047023922
 40
0.8747344678672233
 40
1.0
 40
1.0
 40
1.0
 40
1.0
 10
279.9762260855081
 20
639.6599207312823
 30
0.0
 10
279.9745194998379
 20
639.6599427298343
 30
0.0
 10
279.9711128082481
 20
639.6599866434118
 30
0.0
 10
279.9366988498128
 20
639.6604985525894
 30
0.0
 10
279.8614599293421
 20
639.6615478386881
 30
0.0
 10
279.752790681853
 20
639.6631047967846
 30
0.0
 10
279.6540779535613
 20
639.6645011849256
 30
0.0
 10
279.6022089943665
 20
639.6652418527217
 30
0.0
 10
279.5762193144205
 20
639.6656129748584
 30
0.0
  0
SPLINE
  5
336
330
1F
100
AcDbEntity
  8
0
  6
Continuous
 62
     7
370
    15
100
AcDbSpline
210
0.0
220
0.0
230
1.0
 70
     8
 71
     3
 72
    10
 73
     6
 74
     0
 42
0.00000001
 43
0.00000001
 40
0.0
 40
0.0
 40
0.0
 40
0.0
 40
0.0190719798200456
 40
0.5253377121296875
 40
1.0
 40
1.0
 40
1.0
 40
1.0
 10
279.5762193144205
 20
639.6656129748584
 30
0.0
 10
279.577748625993
 20
639.6663531589679
 30
0.0
 10
279.6198735155018
 20
639.6867415313533
 30
0.0
 10
279.7024037616534
 20
639.7251481622787
 30
0.0
 10
279.7725558782693
 20
639.7512538327056
 30
0.0
 10
279.8065018595102
 20
639.7638861329318
 30
0.0
  0
LINE
  5
337
330
1F
100
AcDbEntity
  8
0
  6
Continuous
 62
     7
370
    15
100
AcDbLine
 10
274.6996951044
 20
648.9048544557
 30
0.0
 11
274.7121524752
 21
648.7540845067
 31
0.0
  0
LINE
  5
338
330
1F
100
AcDbEntity
  8
0
  6
Continuous
 62
     7
370
    15
100
AcDbLine
 10
277.6919376791
 20
649.0975860746
 30
0.0
 11
277.6563537062
 21
649.307752052
 31
0.0
  0
LINE
  5
339
330
1F
100
AcDbEntity
  8
0
  6
Continuous
 62
     7
370
    15
100
AcDbLine
 10
865.5089211405
 20
837.7638897167
 30
0.0
 11
880.5089366377
 21
837.7638897167
 31
0.0
  0
LINE
  5
33A
330
1F
100
AcDbEntity
  8
0
  6
Continuous
 62
     7
370
    15
100
AcDbLine
 10
865.5089211405
 20
837.7638897167
 30
0.0
 11
865.5089211405
 21
852.7638893814
 31
0.0
  0
ARC
  5
33B
330
1F
100
AcDbEntity
  8
0
  6
Continuous
 62
     7
370
    15
100
AcDbCircle
 10
865.5089247168
 20
837.7638893993
 30
0.0
 40
15.00000000000011
100
AcDbArc
 50
0.0
 51
90.0
  0
LINE
  5
33C
330
1F
100
AcDbEntity
  8
0
  6
Continuous
 62
     7
370
    15
100
AcDbLine
 10
295.5089282931
 20
837.7638897167
 30
0.0
 11
295.5089282931
 21
852.7638893814
 31
0.0
  0
LINE
  5
33D
330
1F
100
AcDbEntity
  8
0
  6
Continuous
 62
     7
370
    15
100
AcDbLine
 10
295.5089282931
 20
837.7638897167
 30
0.0
 11
280.5089127959
 21
837.7638897167
 31
0.0
  0
ARC
  5
33E
330
1F
100
AcDbEntity
  8
0
  6
Continuous
 62
     7
370
    15
100
AcDbCircle
 10
295.5089247168
 20
837.7638893993
 30
0.0
 40
15.0
100
AcDbArc
 50
90.0
 51
180.0
  0
LINE
  5
33F
330
1F
100
AcDbEntity
  8
0
  6
Continuous
 62
     7
370
    15
100
AcDbLine
 10
865.5089211405
 20
852.7638893814
 30
0.0
 11
295.5089282931
 21
852.7638893814
 31
0.0
  0
LINE
  5
340
330
1F
100
AcDbEntity
  8
0
  6
Continuous
 62
     7
370
    15
100
AcDbLine
 10
865.5089211405
 20
837.7638897167
 30
0.0
 11
295.5089282931
 21
837.7638897167
 31
0.0
  0
LINE
  5
341
330
1F
100
AcDbEntity
  8
0
  6
Continuous
 62
     7
370
    15
100
AcDbLine
 10
295.5089282931
 20
626.76388959
 30
0.0
 11
295.5089282931
 21
837.7638897167
 31
0.0
  0
LINE
  5
342
330
1F
100
AcDbEntity
  8
0
  6
Continuous
 62
     7
370
    15
100
AcDbLine
 10
295.5089282931
 20
626.76388959
 30
0.0
 11
280.5089127959
 21
626.76388959
 31
0.0
  0
LINE
  5
343
330
1F
100
AcDbEntity
  8
0
  6
Continuous
 62
     7
370
    15
100
AcDbLine
 10
280.5089127959
 20
626.76388959
 30
0.0
 11
280.5089127959
 21
837.7638897167
 31
0.0
  0
LINE
  5
344
330
1F
100
AcDbEntity
  8
0
  6
Continuous
 62
     7
370
    15
100
AcDbLine
 10
880.5089366377
 20
837.7638897167
 30
0.0
 11
880.5089366377
 21
626.76388959
 31
0.0
  0
LINE
  5
345
330
1F
100
AcDbEntity
  8
0
  6
Continuous
 62
     7
370
    15
100
AcDbLine
 10
880.5089366377
 20
626.76388959
 30
0.0
 11
865.5089211405
 21
626.76388959
 31
0.0
  0
LINE
  5
346
330
1F
100
AcDbEntity
  8
0
  6
Continuous
 62
     7
370
    15
100
AcDbLine
 10
865.5089211405
 20
837.7638897167
 30
0.0
 11
865.5089211405
 21
626.76388959
 31
0.0
  0
LINE
  5
347
330
1F
100
AcDbEntity
  8
0
  6
Continuous
 62
     7
370
    15
100
AcDbLine
 10
300.5089235247
 20
646.7638854177
 30
0.0
 11
300.5089235247
 21
832.7638898284
 31
0.0
  0
LINE
  5
348
330
1F
100
AcDbEntity
  8
0
  6
Continuous
 62
     7
370
    15
100
AcDbLine
 10
300.5089235247
 20
646.7638854177
 30
0.0
 11
860.5089259089
 21
646.7638854177
 31
0.0
  0
LINE
  5
349
330
1F
100
AcDbEntity
  8
0
  6
Continuous
 62
     7
370
    15
100
AcDbLine
 10
860.5089259089
 20
832.7638898284
 30
0.0
 11
860.5089259089
 21
646.7638854177
 31
0.0
  0
LINE
  5
34A
330
1F
100
AcDbEntity
  8
0
  6
Continuous
 62
     7
370
    15
100
AcDbLine
 10
860.5089259089
 20
832.7638898284
 30
0.0
 11
300.5089235247
 21
832.7638898284
 31
0.0
  0
LINE
  5
34B
330
1F
100
AcDbEntity
  8
0
  6
Continuous
 62
     7
370
    15
100
AcDbLine
 10
295.5089282931
 20
626.76388959
 30
0.0
 11
865.5089211405
 21
626.76388959
 31
0.0
  0
LINE
  5
34C
330
1F
100
AcDbEntity
  8
0
  6
Continuous
 62
     7
370
    15
100
AcDbLine
 10
875.5089116038
 20
622.7638963849
 30
0.0
 11
875.5089116038
 21
626.76388959
 31
0.0
  0
LINE
  5
34D
330
1F
100
AcDbEntity
  8
0
  6
Continuous
 62
     7
370
    15
100
AcDbLine
 10
860.5089259089
 20
622.7638963849
 30
0.0
 11
860.5089259089
 21
626.76388959
 31
0.0
  0
LINE
  5
34E
330
1F
100
AcDbEntity
  8
0
  6
Continuous
 62
     7
370
    15
100
AcDbLine
 10
300.5089235247
 20
622.7638963849
 30
0.0
 11
300.5089235247
 21
626.76388959
 31
0.0
  0
LINE
  5
34F
330
1F
100
AcDbEntity
  8
0
  6
Continuous
 62
     7
370
    15
100
AcDbLine
 10
285.5089378298
 20
622.7638963849
 30
0.0
 11
285.5089378298
 21
626.76388959
 31
0.0
  0
LINE
  5
350
330
1F
100
AcDbEntity
  8
0
  6
Continuous
 62
     7
370
    15
100
AcDbLine
 10
880.5089366377
 20
626.76388959
 30
0.0
 11
881.1762404383
 21
626.76388959
 31
0.0
  0
ARC
  5
351
330
1F
100
AcDbEntity
  8
0
  6
Continuous
 62
     7
370
    15
100
AcDbCircle
 10
881.1762424649
 20
627.2638893993
 30
0.0
 40
0.5000000000000541
100
AcDbArc
 50
270.0
 51
332.720387264
  0
ARC
  5
352
330
1F
100
AcDbEntity
  8
0
  6
Continuous
 62
     7
370
    15
100
AcDbCircle
 10
880.9467758515
 20
622.2638893993
 30
0.0
 40
0.500000000000081
100
AcDbArc
 50
22.024312837
 51
90.0
  0
ARC
  5
353
330
1F
100
AcDbEntity
  8
0
  6
Continuous
 62
     7
370
    15
100
AcDbCircle
 10
886.5089247168
 20
624.5138893993
 30
0.0
 40
5.500000000000115
100
AcDbArc
 50
202.024312837
 51
152.720387264
  0
LINE
  5
354
330
1F
100
AcDbEntity
  8
0
  6
Continuous
 62
     7
370
    15
100
AcDbLine
 10
880.9467625559
 20
622.7638963849
 30
0.0
 11
880.5089366377
 21
622.7638963849
 31
0.0
  0
LINE
  5
355
330
1F
100
AcDbEntity
  8
0
  6
Continuous
 62
     7
370
    15
100
AcDbLine
 10
280.2089226187
 20
645.9638867767
 30
0.0
 11
280.5089127959
 21
645.9649447591
 31
0.0
  0
LINE
  5
356
330
1F
100
AcDbEntity
  8
0
  6
Continuous
 62
     7
370
    15
100
AcDbLine
 10
280.5089127959
 20
647.9638908298
 30
0.0
 11
280.2089226187
 21
647.9638908298
 31
0.0
  0
LINE
  5
357
330
1F
100
AcDbEntity
  8
0
  6
Continuous
 62
     7
370
    15
100
AcDbLine
 10
280.2089226187
 20
645.9638867767
 30
0.0
 11
280.2089226187
 21
647.9638908298
 31
0.0
  0
LINE
  5
358
330
1F
100
AcDbEntity
  8
0
  6
Continuous
 62
     7
370
    15
100
AcDbLine
 10
280.2089226187
 20
639.7638861329
 30
0.0
 11
280.2089226187
 21
645.9638867767
 31
0.0
  0
LINE
  5
359
330
1F
100
AcDbEntity
  8
0
  6
Continuous
 62
     7
370
    15
100
AcDbLine
 10
280.5089127959
 20
639.7638861329
 30
0.0
 11
280.2089226187
 21
639.7638861329
 31
0.0
  0
ARC
  5
35A
330
1F
100
AcDbEntity
  8
0
  6
Continuous
 62
     7
370
    15
100
AcDbCircle
 10
275.3089247168
 20
642.8638893993
 30
0.0
 40
3.100000000000023
100
AcDbArc
 50
192.3149050699
 51
270.0
  0
LINE
  5
35B
330
1F
100
AcDbEntity
  8
0
  6
Continuous
 62
     7
370
    15
100
AcDbLine
 10
275.3089141787
 20
639.7638861329
 30
0.0
 11
275.6190669478
 21
639.7638861329
 31
0.0
  0
LINE
  5
35C
330
1F
100
AcDbEntity
  8
0
  6
Continuous
 62
     7
370
    15
100
AcDbLine
 10
278.6343169154
 20
639.7638861329
 30
0.0
 11
280.2089226187
 21
639.7638861329
 31
0.0
  0
LINE
  5
35D
330
1F
100
AcDbEntity
  8
0
  6
Continuous
 62
     7
370
    15
100
AcDbLine
 10
280.2089226187
 20
645.9638867767
 30
0.0
 11
279.0089321078
 21
645.9638867767
 31
0.0
  0
LINE
  5
35E
330
1F
100
AcDbEntity
  8
0
  6
Continuous
 62
     7
370
    15
100
AcDbLine
 10
280.2089226187
 20
678.7638906629
 30
0.0
 11
280.2089226187
 21
672.0138881595
 31
0.0
  0
LINE
  5
35F
330
1F
100
AcDbEntity
  8
0
  6
Continuous
 62
     7
370
    15
100
AcDbLine
 10
280.2089226187
 20
647.9638908298
 30
0.0
 11
280.2089226187
 21
672.0138881595
 31
0.0
  0
LINE
  5
360
330
1F
100
AcDbEntity
  8
0
  6
Continuous
 62
     7
370
    15
100
AcDbLine
 10
280.1089358271
 20
671.7638913781
 30
0.0
 11
280.1089358271
 21
677.7638886363
 31
0.0
  0
LINE
  5
361
330
1F
100
AcDbEntity
  8
0
  6
Continuous
 62
     7
370
    15
100
AcDbLine
 10
280.1089358271
 20
648.7638894708
 30
0.0
 11
280.1089358271
 21
654.763886729
 31
0.0
  0
LINE
  5
362
330
1F
100
AcDbEntity
  8
0
  6
Continuous
 62
     7
370
    15
100
AcDbLine
 10
280.2089226187
 20
662.7638880403
 30
0.0
 11
279.0089321078
 21
663.0854252965
 31
0.0
  0
LINE
  5
363
330
1F
100
AcDbEntity
  8
0
  6
Continuous
 62
     7
370
    15
100
AcDbLine
 10
279.0089321078
 20
664.1206983716
 30
0.0
 11
280.2089226187
 21
663.7991611154
 31
0.0
  0
LINE
  5
364
330
1F
100
AcDbEntity
  8
0
  6
Continuous
 62
     8
370
    15
100
AcDbLine
 10
280.5089127959
 20
672.0138881595
 30
0.0
 11
280.2089226187
 21
672.0138881595
 31
0.0
  0
ENDSEC
  0
SECTION
  2
OBJECTS
  0
DICTIONARY
  5
C
330
0
100
AcDbDictionary
281
     1
  3
ACAD_GROUP
350
D
  3
ACAD_LAYOUT
350
1A
  3
ACAD_MLINESTYLE
350
17
  3
ACAD_PLOTSETTINGS
350
19
  3
ACAD_PLOTSTYLENAME
350
E
  0
DICTIONARY
  5
D
102
{ACAD_REACTORS
330
C
102
}
330
C
100
AcDbDictionary
281
     1
  0
DICTIONARY
  5
1A
102
{ACAD_REACTORS
330
C
102
}
330
C
100
AcDbDictionary
281
     1
  3
Layout1
350
1E
  3
Layout2
350
26
  3
Model
350
22
  0
DICTIONARY
  5
17
102
{ACAD_REACTORS
330
C
102
}
330
C
100
AcDbDictionary
281
     1
  3
Standard
350
18
  0
DICTIONARY
  5
19
102
{ACAD_REACTORS
330
C
102
}
330
C
100
AcDbDictionary
281
     1
  0
ACDBDICTIONARYWDFLT
  5
E
102
{ACAD_REACTORS
330
C
102
}
330
C
100
AcDbDictionary
281
     1
  3
Normal
350
F
100
AcDbDictionaryWithDefault
340
F
  0
LAYOUT
  5
1E
102
{ACAD_REACTORS
330
1A
102
}
330
1A
100
AcDbPlotSettings
  1

  2
none_device
  4

  6

 40
0.0
 41
0.0
 42
0.0
 43
0.0
 44
0.0
 45
0.0
 46
0.0
 47
0.0
 48
0.0
 49
0.0
140
0.0
141
0.0
142
1.0
143
1.0
 70
   688
 72
     0
 73
     0
 74
     5
  7

 75
    16
147
1.0
148
0.0
149
0.0
100
AcDbLayout
  1
Layout1
 70
     1
 71
     1
 10
0.0
 20
0.0
 11
420.0
 21
297.0
 12
0.0
 22
0.0
 32
0.0
 14
1.0000000000E+20
 24
1.0000000000E+20
 34
1.0000000000E+20
 15
-1.0000000000E+20
 25
-1.0000000000E+20
 35
-1.0000000000E+20
146
0.0
 13
0.0
 23
0.0
 33
0.0
 16
1.0
 26
0.0
 36
0.0
 17
0.0
 27
1.0
 37
0.0
 76
     0
330
1B
  0
LAYOUT
  5
26
102
{ACAD_REACTORS
330
1A
102
}
330
1A
100
AcDbPlotSettings
  1

  2
none_device
  4

  6

 40
0.0
 41
0.0
 42
0.0
 43
0.0
 44
0.0
 45
0.0
 46
0.0
 47
0.0
 48
0.0
 49
0.0
140
0.0
141
0.0
142
1.0
143
1.0
 70
   688
 72
     0
 73
     0
 74
     5
  7

 75
    16
147
1.0
148
0.0
149
0.0
100
AcDbLayout
  1
Layout2
 70
     1
 71
     2
 10
0.0
 20
0.0
 11
0.0
 21
0.0
 12
0.0
 22
0.0
 32
0.0
 14
0.0
 24
0.0
 34
0.0
 15
0.0
 25
0.0
 35
0.0
146
0.0
 13
0.0
 23
0.0
 33
0.0
 16
1.0
 26
0.0
 36
0.0
 17
0.0
 27
1.0
 37
0.0
 76
     0
330
23
  0
LAYOUT
  5
22
102
{ACAD_REACTORS
330
1A
102
}
330
1A
100
AcDbPlotSettings
  1

  2
none_device
  4

  6

 40
0.0
 41
0.0
 42
0.0
 43
0.0
 44
0.0
 45
0.0
 46
0.0
 47
0.0
 48
0.0
 49
0.0
140
0.0
141
0.0
142
1.0
143
1.0
 70
  1712
 72
     0
 73
     0
 74
     0
  7

 75
     0
147
1.0
148
0.0
149
0.0
100
AcDbLayout
  1
Model
 70
     1
 71
     0
 10
0.0
 20
0.0
 11
840.0
 21
594.0
 12
0.0
 22
0.0
 32
0.0
 14
0.0
 24
0.0
 34
0.0
 15
840.0
 25
594.0
 35
0.0
146
0.0
 13
0.0
 23
0.0
 33
0.0
 16
1.0
 26
0.0
 36
0.0
 17
0.0
 27
1.0
 37
0.0
 76
     0
330
1F
331
29
  0
MLINESTYLE
  5
18
102
{ACAD_REACTORS
330
17
102
}
330
17
100
AcDbMlineStyle
  2
Standard
 70
     0
  3

 62
   256
 51
90.0
 52
90.0
 71
     2
 49
0.5
 62
   256
  6
BYLAYER
 49
-0.5
 62
   256
  6
BYLAYER
  0
ACDBPLACEHOLDER
  5
F
102
{ACAD_REACTORS
330
E
102
}
330
E
  0
ENDSEC
  0
EOF
