  0
SECTION
  2
HEADER
  9
$ACADVER
  1
AC1015
  9
$ACADMAINTVER
 70
     6
  9
$DWGCODEPAGE
  3
DOS932
  9
$INSBASE
 10
0.0
 20
0.0
 30
0.0
  9
$EXTMIN
 10
0.0
 20
0.0
 30
0.0
  9
$EXTMAX
 10
840.0
 20
594.0
 30
0.0
  9
$LIMMIN
 10
0.0
 20
0.0
  9
$LIMMAX
 10
840.0
 20
594.0
  9
$ORTHOMODE
 70
     0
  9
$REGENMODE
 70
     1
  9
$FILLMODE
 70
     1
  9
$QTEXTMODE
 70
     0
  9
$MIRRTEXT
 70
     1
  9
$LTSCALE
 40
2.0
  9
$ATTMODE
 70
     1
  9
$TEXTSIZE
 40
7.0
  9
$TRACEWID
 40
1.0
  9
$TEXTSTYLE
  7
Standard
  9
$CLAYER
  8
0
  9
$CELTYPE
  6
ByLayer
  9
$CECOLOR
 62
   256
  9
$CELTSCALE
 40
1.0
  9
$DISPSILH
 70
     0
  9
$DIMSCALE
 40
1.0
  9
$DIMASZ
 40
6.0
  9
$DIMEXO
 40
2.0
  9
$DIMDLI
 40
3.75
  9
$DIMRND
 40
0.0
  9
$DIMDLE
 40
0.0
  9
$DIMEXE
 40
2.0
  9
$DIMTP
 40
0.0
  9
$DIMTM
 40
0.0
  9
$DIMTXT
 40
7.0
  9
$DIMCEN
 40
2.5
  9
$DIMTSZ
 40
0.0
  9
$DIMTOL
 70
     0
  9
$DIMLIM
 70
     0
  9
$DIMTIH
 70
     1
  9
$DIMTOH
 70
     1
  9
$DIMSE1
 70
     0
  9
$DIMSE2
 70
     0
  9
$DIMTAD
 70
     1
  9
$DIMZIN
 70
     0
  9
$DIMBLK
  1

  9
$DIMASO
 70
     1
  9
$DIMSHO
 70
     1
  9
$DIMPOST
  1

  9
$DIMAPOST
  1

  9
$DIMALT
 70
     0
  9
$DIMALTD
 70
     3
  9
$DIMALTF
 40
0.0393700787
  9
$DIMLFAC
 40
1.0
  9
$DIMTOFL
 70
     1
  9
$DIMTVP
 40
0.0
  9
$DIMTIX
 70
     0
  9
$DIMSOXD
 70
     0
  9
$DIMSAH
 70
     0
  9
$DIMBLK1
  1

  9
$DIMBLK2
  1

  9
$DIMSTYLE
  2
ISO-25
  9
$DIMCLRD
 70
     0
  9
$DIMCLRE
 70
     0
  9
$DIMCLRT
 70
     0
  9
$DIMTFAC
 40
1.0
  9
$DIMGAP
 40
3.048
  9
$DIMJUST
 70
     0
  9
$DIMSD1
 70
     0
  9
$DIMSD2
 70
     0
  9
$DIMTOLJ
 70
     0
  9
$DIMTZIN
 70
     0
  9
$DIMALTZ
 70
     0
  9
$DIMALTTZ
 70
     0
  9
$DIMUPT
 70
     0
  9
$DIMDEC
 70
     1
  9
$DIMTDEC
 70
     1
  9
$DIMALTU
 70
     2
  9
$DIMALTTD
 70
     3
  9
$DIMTXSTY
  7
Standard
  9
$DIMAUNIT
 70
     0
  9
$DIMADEC
 70
     2
  9
$DIMALTRND
 40
0.0
  9
$DIMAZIN
 70
     0
  9
$DIMDSEP
 70
    44
  9
$DIMATFIT
 70
     3
  9
$DIMFRAC
 70
     0
  9
$DIMLDRBLK
  1

  9
$DIMLUNIT
 70
     2
  9
$DIMLWD
 70
    -2
  9
$DIMLWE
 70
    -2
  9
$DIMTMOVE
 70
     0
  9
$LUNITS
 70
     2
  9
$LUPREC
 70
     1
  9
$SKETCHINC
 40
1.0
  9
$FILLETRAD
 40
10.0
  9
$AUNITS
 70
     0
  9
$AUPREC
 70
     2
  9
$MENU
  1
.
  9
$ELEVATION
 40
0.0
  9
$PELEVATION
 40
0.0
  9
$THICKNESS
 40
0.0
  9
$LIMCHECK
 70
     0
  9
$CHAMFERA
 40
10.0
  9
$CHAMFERB
 40
10.0
  9
$CHAMFERC
 40
20.0
  9
$CHAMFERD
 40
0.0
  9
$SKPOLY
 70
     0
  9
$TDCREATE
 40
2460452.722317743
  9
$TDUCREATE
 40
2460452.347317743
  9
$TDUPDATE
 40
2460452.722317755
  9
$TDUUPDATE
 40
2460452.347317755
  9
$TDINDWG
 40
0.0000000116
  9
$TDUSRTIMER
 40
0.0000000116
  9
$USRTIMER
 70
     1
  9
$ANGBASE
 50
0.0
  9
$ANGDIR
 70
     0
  9
$PDMODE
 70
     0
  9
$PDSIZE
 40
-1.0
  9
$PLINEWID
 40
0.0
  9
$SPLFRAME
 70
     0
  9
$SPLINETYPE
 70
     6
  9
$SPLINESEGS
 70
     8
  9
$HANDSEED
  5
363
  9
$SURFTAB1
 70
     6
  9
$SURFTAB2
 70
     6
  9
$SURFTYPE
 70
     6
  9
$SURFU
 70
     6
  9
$SURFV
 70
     6
  9
$UCSBASE
  2

  9
$UCSNAME
  2

  9
$UCSORG
 10
0.0
 20
0.0
 30
0.0
  9
$UCSXDIR
 10
1.0
 20
0.0
 30
0.0
  9
$UCSYDIR
 10
0.0
 20
1.0
 30
0.0
  9
$UCSORTHOREF
  2

  9
$UCSORTHOVIEW
 70
     0
  9
$UCSORGTOP
 10
0.0
 20
0.0
 30
0.0
  9
$UCSORGBOTTOM
 10
0.0
 20
0.0
 30
0.0
  9
$UCSORGLEFT
 10
0.0
 20
0.0
 30
0.0
  9
$UCSORGRIGHT
 10
0.0
 20
0.0
 30
0.0
  9
$UCSORGFRONT
 10
0.0
 20
0.0
 30
0.0
  9
$UCSORGBACK
 10
0.0
 20
0.0
 30
0.0
  9
$PUCSBASE
  2

  9
$PUCSNAME
  2

  9
$PUCSORG
 10
0.0
 20
0.0
 30
0.0
  9
$PUCSXDIR
 10
1.0
 20
0.0
 30
0.0
  9
$PUCSYDIR
 10
0.0
 20
1.0
 30
0.0
  9
$PUCSORTHOREF
  2

  9
$PUCSORTHOVIEW
 70
     0
  9
$PUCSORGTOP
 10
0.0
 20
0.0
 30
0.0
  9
$PUCSORGBOTTOM
 10
0.0
 20
0.0
 30
0.0
  9
$PUCSORGLEFT
 10
0.0
 20
0.0
 30
0.0
  9
$PUCSORGRIGHT
 10
0.0
 20
0.0
 30
0.0
  9
$PUCSORGFRONT
 10
0.0
 20
0.0
 30
0.0
  9
$PUCSORGBACK
 10
0.0
 20
0.0
 30
0.0
  9
$USERI1
 70
     0
  9
$USERI2
 70
     0
  9
$USERI3
 70
     0
  9
$USERI4
 70
     0
  9
$USERI5
 70
     0
  9
$USERR1
 40
0.0
  9
$USERR2
 40
0.0
  9
$USERR3
 40
0.0
  9
$USERR4
 40
0.0
  9
$USERR5
 40
0.0
  9
$WORLDVIEW
 70
     1
  9
$SHADEDGE
 70
     3
  9
$SHADEDIF
 70
    70
  9
$TILEMODE
 70
     1
  9
$MAXACTVP
 70
    64
  9
$PINSBASE
 10
0.0
 20
0.0
 30
0.0
  9
$PLIMCHECK
 70
     0
  9
$PEXTMIN
 10
1.0000000000E+20
 20
1.0000000000E+20
 30
1.0000000000E+20
  9
$PEXTMAX
 10
-1.0000000000E+20
 20
-1.0000000000E+20
 30
-1.0000000000E+20
  9
$PLIMMIN
 10
0.0
 20
0.0
  9
$PLIMMAX
 10
420.0
 20
297.0
  9
$UNITMODE
 70
     0
  9
$VISRETAIN
 70
     1
  9
$PLINEGEN
 70
     0
  9
$PSLTSCALE
 70
     1
  9
$TREEDEPTH
 70
  3020
  9
$CMLSTYLE
  2
Standard
  9
$CMLJUST
 70
     0
  9
$CMLSCALE
 40
20.0
  9
$PROXYGRAPHICS
 70
     1
  9
$MEASUREMENT
 70
     1
  9
$CELWEIGHT
370
    -1
  9
$ENDCAPS
280
     0
  9
$JOINSTYLE
280
     0
  9
$LWDISPLAY
290
     1
  9
$INSUNITS
 70
     4
  9
$HYPERLINKBASE
  1

  9
$STYLESHEET
  1

  9
$XEDIT
290
     1
  9
$CEPSNTYPE
380
     0
  9
$PSTYLEMODE
290
     1
  9
$FINGERPRINTGUID
  2
{0E145D62-9BB6-4CCF-AC86-4D62B8618592}
  9
$VERSIONGUID
  2
{FAEB1C32-E019-11D5-929B-00C0DF256EC4}
  9
$EXTNAMES
290
     1
  9
$PSVPSCALE
 40
0.0
  9
$OLESTARTUP
290
     0
  0
ENDSEC
  0
SECTION
  2
CLASSES
  0
CLASS
  1
ACDBDICTIONARYWDFLT
  2
AcDbDictionaryWithDefault
  3
ObjectDBX Classes
 90
        0
280
     0
281
     0
  0
CLASS
  1
VISUALSTYLE
  2
AcDbVisualStyle
  3
ObjectDBX Classes
 90
     4095
280
     0
281
     0
  0
CLASS
  1
MATERIAL
  2
AcDbMaterial
  3
ObjectDBX Classes
 90
     1153
280
     0
281
     0
  0
CLASS
  1
ACDBPLACEHOLDER
  2
AcDbPlaceHolder
  3
ObjectDBX Classes
 90
        0
280
     0
281
     0
  0
CLASS
  1
LAYOUT
  2
AcDbLayout
  3
ObjectDBX Classes
 90
        0
280
     0
281
     0
  0
ENDSEC
  0
SECTION
  2
TABLES
  0
TABLE
  2
VPORT
  5
8
330
0
100
AcDbSymbolTable
 70
     1
  0
VPORT
  5
29
330
8
100
AcDbSymbolTableRecord
100
AcDbViewportTableRecord
  2
*Active
 70
     0
 10
0.0
 20
0.0
 11
1.0
 21
1.0
 12
420.0
 22
297.0
 13
0.0
 23
0.0
 14
10.0
 24
10.0
 15
10.0
 25
10.0
 16
0.0
 26
0.0
 36
1.0
 17
0.0
 27
0.0
 37
0.0
 40
594.0
 41
1.4141414141
 42
50.0
 43
0.0
 44
0.0
 50
0.0
 51
0.0
 71
     0
 72
  2000
 73
     1
 74
     3
 75
     0
 76
     0
 77
     0
 78
     0
281
     0
 65
     1
110
0.0
120
0.0
130
0.0
111
1.0
121
0.0
131
0.0
112
0.0
122
1.0
132
0.0
 79
     0
146
0.0
  0
ENDTAB
  0
TABLE
  2
LTYPE
  5
5
330
0
100
AcDbSymbolTable
 70
     6
  0
LTYPE
  5
14
330
5
100
AcDbSymbolTableRecord
100
AcDbLinetypeTableRecord
  2
ByBlock
 70
     0
  3

 72
    65
 73
     0
 40
0.0
  0
LTYPE
  5
15
330
5
100
AcDbSymbolTableRecord
100
AcDbLinetypeTableRecord
  2
ByLayer
 70
     0
  3

 72
    65
 73
     0
 40
0.0
  0
LTYPE
  5
16
330
5
100
AcDbSymbolTableRecord
100
AcDbLinetypeTableRecord
  2
Continuous
 70
     0
  3
Solid line
 72
    65
 73
     0
 40
0.0
  0
LTYPE
  5
3F
330
5
100
AcDbSymbolTableRecord
100
AcDbLinetypeTableRecord
  2
HIDDEN
 70
     0
  3
Hidden __ __ __ __ __ __ __ __ __ __ __ __ __ __
 72
    65
 73
     2
 40
1.905
 49
1.27
 74
     0
 49
-0.635
 74
     0
  0
LTYPE
  5
40
330
5
100
AcDbSymbolTableRecord
100
AcDbLinetypeTableRecord
  2
PHANTOM
 70
     0
  3
Phantom ______  __  __  ______  __  __  ______
 72
    65
 73
     6
 40
12.7
 49
6.35
 74
     0
 49
-1.27
 74
     0
 49
1.27
 74
     0
 49
-1.27
 74
     0
 49
1.27
 74
     0
 49
-1.27
 74
     0
  0
LTYPE
  5
41
330
5
100
AcDbSymbolTableRecord
100
AcDbLinetypeTableRecord
  2
CENTER
 70
     0
  3
Center ____ _ ____ _ ____ _ ____ _ ____ _ ____
 72
    65
 73
     4
 40
10.16
 49
6.35
 74
     0
 49
-1.27
 74
     0
 49
1.27
 74
     0
 49
-1.27
 74
     0
  0
LTYPE
  5
42
330
5
100
AcDbSymbolTableRecord
100
AcDbLinetypeTableRecord
  2
CENTERX2
 70
     0
  3
Center (2x) ________  __  ________  __  _____
 72
    65
 73
     4
 40
20.32
 49
12.7
 74
     0
 49
-2.54
 74
     0
 49
2.54
 74
     0
 49
-2.54
 74
     0
  0
LTYPE
  5
43
330
5
100
AcDbSymbolTableRecord
100
AcDbLinetypeTableRecord
  2
DOT2
 70
     0
  3
Dot (.5x) ........................................
 72
    65
 73
     2
 40
0.635
 49
0.0
 74
     0
 49
-0.635
 74
     0
  0
ENDTAB
  0
TABLE
  2
LAYER
  5
2
330
0
100
AcDbSymbolTable
 70
     1
  0
LAYER
  5
10
330
2
100
AcDbSymbolTableRecord
100
AcDbLayerTableRecord
  2
0
 70
     0
 62
     7
  6
Continuous
370
    -3
390
F
  0
ENDTAB
  0
TABLE
  2
STYLE
  5
3
330
0
100
AcDbSymbolTable
 70
     2
  0
STYLE
  5
11
330
3
100
AcDbSymbolTableRecord
100
AcDbTextStyleTableRecord
  2
Standard
 70
     0
 40
0.0
 41
1.0
 50
0.0
 71
     0
 42
2.5
  3
txt
  4
bigfont
  0
STYLE
  5
44
330
3
100
AcDbSymbolTableRecord
100
AcDbTextStyleTableRecord
  2
SLDTEXTSTYLE0
 70
     0
 40
0.0
 41
0.7
 50
0.0
 71
     0
 42
0.2
  3
TXT
  4
bigfont
  0
ENDTAB
  0
TABLE
  2
VIEW
  5
6
330
0
100
AcDbSymbolTable
 70
     0
  0
ENDTAB
  0
TABLE
  2
UCS
  5
7
330
0
100
AcDbSymbolTable
 70
     0
  0
ENDTAB
  0
TABLE
  2
APPID
  5
9
330
0
100
AcDbSymbolTable
 70
     1
  0
APPID
  5
12
330
9
100
AcDbSymbolTableRecord
100
AcDbRegAppTableRecord
  2
ACAD
 70
     0
  0
ENDTAB
  0
TABLE
  2
DIMSTYLE
  5
A
330
0
100
AcDbSymbolTable
 70
     1
100
AcDbDimStyleTable
  0
DIMSTYLE
105
27
330
A
100
AcDbSymbolTableRecord
100
AcDbDimStyleTableRecord
  2
ISO-25
 70
     0
 41
2.5
 42
0.625
 43
3.75
 44
1.25
 73
     0
 74
     0
 77
     1
 78
     8
140
2.5
141
2.5
143
0.0393700787
147
0.625
171
     3
172
     1
178
     0
271
     2
272
     2
274
     3
278
    44
283
     0
284
     8
340
11
  0
ENDTAB
  0
TABLE
  2
BLOCK_RECORD
  5
1
330
0
100
AcDbSymbolTable
 70
     1
  0
BLOCK_RECORD
  5
1F
330
1
100
AcDbSymbolTableRecord
100
AcDbBlockTableRecord
  2
*Model_Space
340
22
  0
BLOCK_RECORD
  5
1B
330
1
100
AcDbSymbolTableRecord
100
AcDbBlockTableRecord
  2
*Paper_Space
340
1E
  0
BLOCK_RECORD
  5
23
330
1
100
AcDbSymbolTableRecord
100
AcDbBlockTableRecord
  2
*Paper_Space0
340
26
  0
ENDTAB
  0
ENDSEC
  0
SECTION
  2
BLOCKS
  0
BLOCK
  5
20
330
1F
100
AcDbEntity
  8
0
100
AcDbBlockBegin
  2
*Model_Space
 70
     0
 10
0.0
 20
0.0
 30
0.0
  3
*Model_Space
  1

  0
ENDBLK
  5
21
330
1F
100
AcDbEntity
  8
0
100
AcDbBlockEnd
  0
BLOCK
  5
1C
330
1B
100
AcDbEntity
 67
     1
  8
0
100
AcDbBlockBegin
  2
*Paper_Space
 70
     0
 10
0.0
 20
0.0
 30
0.0
  3
*Paper_Space
  1

  0
ENDBLK
  5
1D
330
1B
100
AcDbEntity
 67
     1
  8
0
100
AcDbBlockEnd
  0
BLOCK
  5
24
330
23
100
AcDbEntity
  8
0
100
AcDbBlockBegin
  2
*Paper_Space0
 70
     0
 10
0.0
 20
0.0
 30
0.0
  3
*Paper_Space0
  1

  0
ENDBLK
  5
25
330
23
100
AcDbEntity
  8
0
100
AcDbBlockEnd
  0
ENDSEC
  0
SECTION
  2
ENTITIES
  0
MTEXT
  5
45
330
1F
100
AcDbEntity
  8
0
  6
Continuous
 62
     7
370
     0
100
AcDbMText
 10
140.2936717388
 20
604.6973443983
 30
0.0
 40
7.0
 41
0.0
 71
     1
 72
     1
  1
CHB-516P
  7
SLDTEXTSTYLE0
 73
     1
 44
1.0
  0
LINE
  5
46
330
1F
100
AcDbEntity
  8
0
  6
Continuous
 62
     7
370
    15
100
AcDbLine
 10
348.8955531392
 20
25.5709433753
 30
0.0
 11
348.9955697331
 21
25.5709433753
 31
0.0
  0
LINE
  5
47
330
1F
100
AcDbEntity
  8
0
  6
Continuous
 62
     7
370
    15
100
AcDbLine
 10
348.9955697331
 20
31.5709406335
 30
0.0
 11
348.8955531392
 21
31.5709406335
 31
0.0
  0
LINE
  5
48
330
1F
100
AcDbEntity
  8
0
  6
Continuous
 62
     7
370
    15
100
AcDbLine
 10
348.8955531392
 20
35.5709487398
 30
0.0
 11
348.9955697331
 21
35.5709487398
 31
0.0
  0
LINE
  5
49
330
1F
100
AcDbEntity
  8
0
  6
Continuous
 62
     7
370
    15
100
AcDbLine
 10
348.9955697331
 20
41.5709459979
 30
0.0
 11
348.8955531392
 21
41.5709459979
 31
0.0
  0
LINE
  5
4A
330
1F
100
AcDbEntity
  8
0
  6
Continuous
 62
     7
370
    15
100
AcDbLine
 10
348.8955531392
 20
495.5709421832
 30
0.0
 11
348.9955697331
 21
495.5709421832
 31
0.0
  0
LINE
  5
4B
330
1F
100
AcDbEntity
  8
0
  6
Continuous
 62
     7
370
    15
100
AcDbLine
 10
348.9955697331
 20
501.5709394414
 30
0.0
 11
348.8955531392
 21
501.5709394414
 31
0.0
  0
LINE
  5
4C
330
1F
100
AcDbEntity
  8
0
  6
Continuous
 62
     7
370
    15
100
AcDbLine
 10
348.8955531392
 20
505.5709475477
 30
0.0
 11
348.9955697331
 21
505.5709475477
 31
0.0
  0
LINE
  5
4D
330
1F
100
AcDbEntity
  8
0
  6
Continuous
 62
     7
370
    15
100
AcDbLine
 10
348.9955697331
 20
511.5709448058
 30
0.0
 11
348.8955531392
 21
511.5709448058
 31
0.0
  0
LINE
  5
4E
330
1F
100
AcDbEntity
  8
0
  6
Continuous
 62
     7
370
    15
100
AcDbLine
 10
350.195560244
 20
45.0709456403
 30
0.0
 11
348.9955697331
 21
45.0709456403
 31
0.0
  0
LINE
  5
4F
330
1F
100
AcDbEntity
  8
0
  6
Continuous
 62
     7
370
    15
100
AcDbLine
 10
350.195560244
 20
515.0709444482
 30
0.0
 11
348.9955697331
 21
515.0709444482
 31
0.0
  0
LINE
  5
50
330
1F
100
AcDbEntity
  8
0
  6
Continuous
 62
     7
370
    15
100
AcDbLine
 10
348.9955697331
 20
22.070943733
 30
0.0
 11
350.195560244
 21
22.070943733
 31
0.0
  0
LINE
  5
51
330
1F
100
AcDbEntity
  8
0
  6
Continuous
 62
     7
370
    15
100
AcDbLine
 10
348.9955697331
 20
492.0709425409
 30
0.0
 11
350.195560244
 21
492.0709425409
 31
0.0
  0
LINE
  5
52
330
1F
100
AcDbEntity
  8
0
  6
Continuous
 62
     7
370
    15
100
AcDbLine
 10
861.6955611977
 20
24.5709413488
 30
0.0
 11
861.6955611977
 21
59.5709377725
 31
0.0
  0
LINE
  5
53
330
1F
100
AcDbEntity
  8
0
  6
Continuous
 62
     7
370
    15
100
AcDbLine
 10
861.6955611977
 20
477.5709504087
 30
0.0
 11
861.6955611977
 21
512.5709468324
 31
0.0
  0
SPLINE
  5
54
330
1F
100
AcDbEntity
  8
0
  6
Continuous
 62
     7
370
    15
100
AcDbSpline
210
0.0
220
0.0
230
1.0
 70
     8
 71
     3
 72
    11
 73
     7
 74
     0
 42
0.00000001
 43
0.00000001
 40
0.0
 40
0.0
 40
0.0
 40
0.0
 40
0.2262216123131673
 40
0.4679437777915651
 40
0.725484838772645
 40
1.0
 40
1.0
 40
1.0
 40
1.0
 10
346.5160761150896
 20
511.8013763625451
 30
0.0
 10
346.5188968909186
 20
511.7784764441474
 30
0.0
 10
346.5247317202449
 20
511.7311075203008
 30
0.0
 10
346.5414982649626
 20
511.4063301445503
 30
0.0
 10
346.5550934871279
 20
510.9058312170718
 30
0.0
 10
346.5556398984345
 20
510.4820095157033
 30
0.0
 10
346.5559218201219
 20
510.2633381087609
 30
0.0
  0
SPLINE
  5
55
330
1F
100
AcDbEntity
  8
0
  6
Continuous
 62
     7
370
    15
100
AcDbSpline
210
0.0
220
0.0
230
1.0
 70
     8
 71
     3
 72
    12
 73
     8
 74
     0
 42
0.00000001
 43
0.00000001
 40
0.0
 40
0.0
 40
0.0
 40
0.0
 40
0.248946245326258
 40
0.4822936287519815
 40
0.699811415192867
 40
0.9035372363555159
 40
1.0
 40
1.0
 40
1.0
 40
1.0
 10
346.5559218201219
 20
496.7047119338342
 30
0.0
 10
346.5544959530643
 20
496.5673762560123
 30
0.0
 10
346.5517335631497
 20
496.3013102933504
 30
0.0
 10
346.5408326313493
 20
495.9655063701347
 30
0.0
 10
346.5383223004565
 20
495.7323287925319
 30
0.0
 10
346.5431113166069
 20
495.6122149540211
 30
0.0
 10
346.5695419191046
 20
495.6108755623988
 30
0.0
 10
346.5780351433336
 20
495.610445161564
 30
0.0
  0
LINE
  5
56
330
1F
100
AcDbEntity
  8
0
  6
Continuous
 62
     7
370
    15
100
AcDbLine
 10
346.5550873551
 20
510.3133464057
 30
0.0
 11
346.5550873551
 21
496.6547036369
 31
0.0
  0
LINE
  5
57
330
1F
100
AcDbEntity
  8
0
  6
Continuous
 62
     7
370
    15
100
AcDbLine
 10
345.031443623
 20
514.2512315709
 30
0.0
 11
346.5188179287
 21
511.7710823018
 31
0.0
  0
LINE
  5
58
330
1F
100
AcDbEntity
  8
0
  6
Continuous
 62
     7
370
    15
100
AcDbLine
 10
348.9955697331
 20
513.4741956193
 30
0.0
 11
347.6042781148
 21
515.7941574056
 31
0.0
  0
LINE
  5
59
330
1F
100
AcDbEntity
  8
0
  6
Continuous
 62
     7
370
    15
100
AcDbLine
 10
346.5833101544
 20
495.4783612687
 30
0.0
 11
345.0142178807
 21
492.8619408805
 31
0.0
  0
LINE
  5
5A
330
1F
100
AcDbEntity
  8
0
  6
Continuous
 62
     7
370
    15
100
AcDbLine
 10
347.5870523724
 20
491.3190150459
 30
0.0
 11
348.9955697331
 21
493.6676913698
 31
0.0
  0
LINE
  5
5B
330
1F
100
AcDbEntity
  8
0
  6
Continuous
 62
     7
370
    15
100
AcDbLine
 10
347.6241562638
 20
515.7586479385
 30
0.0
 11
347.5342128548
 21
515.8724332053
 31
0.0
  0
SPLINE
  5
5C
330
1F
100
AcDbEntity
  8
0
  6
Continuous
 62
     7
370
    15
100
AcDbSpline
210
0.0
220
0.0
230
1.0
 70
     8
 71
     3
 72
    20
 73
    16
 74
     0
 42
0.00000001
 43
0.00000001
 40
0.0
 40
0.0
 40
0.0
 40
0.0
 40
0.0337781605824872
 40
0.1101040398301224
 40
0.1739271568936944
 40
0.225274542626254
 40
0.2665351699473715
 40
0.3037732333053658
 40
0.3388575743172716
 40
0.372638518111004
 40
0.4139169278269808
 40
0.6259821530963307
 40
0.8390273168422525
 40
0.9659458241574138
 40
1.0
 40
1.0
 40
1.0
 40
1.0
 10
347.4218879017412
 20
516.0145008761712
 30
0.0
 10
347.3812380643397
 20
516.0706845574243
 30
0.0
 10
347.2487349546628
 20
516.2538221283229
 30
0.0
 10
346.9388567606551
 20
516.4310041650832
 30
0.0
 10
346.551583480491
 20
516.5539483064933
 30
0.0
 10
346.1817294937916
 20
516.5687526622327
 30
0.0
 10
345.8474148335926
 20
516.5181586718229
 30
0.0
 10
345.5729329252309
 20
516.4171094948637
 30
0.0
 10
345.3454324735937
 20
516.282389406738
 30
0.0
 10
345.1393973010611
 20
516.1062107642828
 30
0.0
 10
344.7948370550056
 20
515.6637326555096
 30
0.0
 10
344.6137570098854
 20
514.9770453279106
 30
0.0
 10
344.464038622812
 20
513.7962093677157
 30
0.0
 10
344.4088312794543
 20
512.8915680022964
 30
0.0
 10
344.4022980164767
 20
512.4769791823522
 30
0.0
 10
344.4009158882677
 20
512.3892718751259
 30
0.0
  0
SPLINE
  5
5D
330
1F
100
AcDbEntity
  8
0
  6
Continuous
 62
     7
370
    15
100
AcDbSpline
210
0.0
220
0.0
230
1.0
 70
     8
 71
     3
 72
    19
 73
    15
 74
     0
 42
0.00000001
 43
0.00000001
 40
0.0
 40
0.0
 40
0.0
 40
0.0
 40
0.0102731838504031
 40
0.1295972962842691
 40
0.3268126185704388
 40
0.5525090740618257
 40
0.5858519640964671
 40
0.6185993928448157
 40
0.6529074950898438
 40
0.6960080361629214
 40
0.7523124467947462
 40
0.8223126333052648
 40
0.9054598519973782
 40
1.0
 40
1.0
 40
1.0
 40
1.0
 10
344.3980548653184
 20
494.770943542225
 30
0.0
 10
344.3983780281773
 20
494.7437461368573
 30
0.0
 10
344.4024547616778
 20
494.4006480036082
 30
0.0
 10
344.4422690902852
 20
493.5806533566581
 30
0.0
 10
344.5772413988544
 20
492.3582206902795
 30
0.0
 10
344.6676550259193
 20
491.7148624535046
 30
0.0
 10
345.0185185731612
 20
491.1747650113395
 30
0.0
 10
345.1877441283603
 20
490.9869196047852
 30
0.0
 10
345.4244673369676
 20
490.8104378322499
 30
0.0
 10
345.7381040071122
 20
490.6569785473922
 30
0.0
 10
346.1415719725389
 20
490.5551620870282
 30
0.0
 10
346.6274316954461
 20
490.5783572325114
 30
0.0
 10
347.1571889740515
 20
490.7886713232349
 30
0.0
 10
347.4224198743247
 20
491.1104906152236
 30
0.0
 10
347.5635383400498
 20
491.2817174393961
 30
0.0
  0
LINE
  5
5E
330
1F
100
AcDbEntity
  8
0
  6
Continuous
 62
     7
370
    15
100
AcDbLine
 10
341.0907421383
 20
507.470949908
 30
0.0
 11
341.0907421383
 21
498.8709384401
 31
0.0
  0
LINE
  5
5F
330
1F
100
AcDbEntity
  8
0
  6
Continuous
 62
     7
370
    15
100
AcDbLine
 10
341.6955504689
 20
496.3709408243
 30
0.0
 11
341.6955504689
 21
495.571195503
 31
0.0
  0
LINE
  5
60
330
1F
100
AcDbEntity
  8
0
  6
Continuous
 62
     7
370
    15
100
AcDbLine
 10
341.6955504689
 20
511.5706914861
 30
0.0
 11
341.6955504689
 21
510.7709461648
 31
0.0
  0
ARC
  5
61
330
1F
100
AcDbEntity
  8
0
  6
Continuous
 62
     7
370
    15
100
AcDbCircle
 10
345.295560244
 20
508.7638012335
 30
0.0
 40
3.807142857143106
100
AcDbArc
 50
77.9663271603
 51
90.0
  0
ARC
  5
62
330
1F
100
AcDbEntity
  8
0
  6
Continuous
 62
     7
370
    15
100
AcDbCircle
 10
345.295560244
 20
508.7638012335
 30
0.0
 40
3.807142857143229
100
AcDbArc
 50
90.0
 51
125.3002484399
  0
LINE
  5
63
330
1F
100
AcDbEntity
  8
0
  6
Continuous
 62
     7
370
    15
100
AcDbLine
 10
343.0955741677
 20
511.8709498842
 30
0.0
 11
343.0955741677
 21
511.5709448058
 31
0.0
  0
LINE
  5
64
330
1F
100
AcDbEntity
  8
0
  6
Continuous
 62
     7
370
    15
100
AcDbLine
 10
343.1955609593
 20
495.1709503133
 30
0.0
 11
343.1955609593
 21
494.7709435422
 31
0.0
  0
ARC
  5
65
330
1F
100
AcDbEntity
  8
0
  6
Continuous
 62
     7
370
    15
100
AcDbCircle
 10
343.395560244
 20
495.5709440906
 30
0.0
 40
0.4000000000008299
100
AcDbArc
 50
270.0
 51
0.0
  0
LINE
  5
66
330
1F
100
AcDbEntity
  8
0
  6
Continuous
 62
     7
370
    15
100
AcDbLine
 10
343.7955711159
 20
510.7709461648
 30
0.0
 11
343.7955711159
 21
510.3209459979
 31
0.0
  0
LINE
  5
67
330
1F
100
AcDbEntity
  8
0
  6
Continuous
 62
     7
370
    15
100
AcDbLine
 10
343.7955711159
 20
496.8209409911
 30
0.0
 11
343.7955711159
 21
496.3709408243
 31
0.0
  0
LINE
  5
68
330
1F
100
AcDbEntity
  8
0
  6
Continuous
 62
     7
370
    15
100
AcDbLine
 10
341.0907421383
 20
37.4709511001
 30
0.0
 11
341.0907421383
 21
28.8709396322
 31
0.0
  0
LINE
  5
69
330
1F
100
AcDbEntity
  8
0
  6
Continuous
 62
     7
370
    15
100
AcDbLine
 10
341.6955504689
 20
26.3709420163
 30
0.0
 11
341.6955504689
 21
25.5711966951
 31
0.0
  0
LINE
  5
6A
330
1F
100
AcDbEntity
  8
0
  6
Continuous
 62
     7
370
    15
100
AcDbLine
 10
341.6955504689
 20
41.5706926782
 30
0.0
 11
341.6955504689
 21
40.7709473569
 31
0.0
  0
LINE
  5
6B
330
1F
100
AcDbEntity
  8
0
  6
Continuous
 62
     7
370
    15
100
AcDbLine
 10
343.0955741677
 20
41.8709510763
 30
0.0
 11
343.0955741677
 21
41.5709459979
 31
0.0
  0
ARC
  5
6C
330
1F
100
AcDbEntity
  8
0
  6
Continuous
 62
     7
370
    15
100
AcDbCircle
 10
345.295560244
 20
38.7638012335
 30
0.0
 40
3.807142857143182
100
AcDbArc
 50
77.9663271603
 51
90.0
  0
ARC
  5
6D
330
1F
100
AcDbEntity
  8
0
  6
Continuous
 62
     7
370
    15
100
AcDbCircle
 10
345.295560244
 20
38.7638012335
 30
0.0
 40
3.807142857143287
100
AcDbArc
 50
90.0
 51
125.3002484399
  0
LINE
  5
6E
330
1F
100
AcDbEntity
  8
0
  6
Continuous
 62
     7
370
    15
100
AcDbLine
 10
343.1955609593
 20
25.1709515054
 30
0.0
 11
343.1955609593
 21
24.7709447343
 31
0.0
  0
ARC
  5
6F
330
1F
100
AcDbEntity
  8
0
  6
Continuous
 62
     7
370
    15
100
AcDbCircle
 10
343.395560244
 20
25.5709440906
 30
0.0
 40
0.4000000000008299
100
AcDbArc
 50
270.0
 51
0.0
  0
LINE
  5
70
330
1F
100
AcDbEntity
  8
0
  6
Continuous
 62
     7
370
    15
100
AcDbLine
 10
343.7955711159
 20
40.7709473569
 30
0.0
 11
343.7955711159
 21
40.32094719
 31
0.0
  0
LINE
  5
71
330
1F
100
AcDbEntity
  8
0
  6
Continuous
 62
     7
370
    15
100
AcDbLine
 10
343.7955711159
 20
26.8209421832
 30
0.0
 11
343.7955711159
 21
26.3709420163
 31
0.0
  0
SPLINE
  5
72
330
1F
100
AcDbEntity
  8
0
  6
Continuous
 62
     7
370
    15
100
AcDbSpline
210
0.0
220
0.0
230
1.0
 70
     8
 71
     3
 72
    11
 73
     7
 74
     0
 42
0.00000001
 43
0.00000001
 40
0.0
 40
0.0
 40
0.0
 40
0.0
 40
0.2262216123131673
 40
0.4679437777915651
 40
0.725484838772645
 40
1.0
 40
1.0
 40
1.0
 40
1.0
 10
346.5160761150896
 20
41.80137755463803
 30
0.0
 10
346.5188968909186
 20
41.7784776362404
 30
0.0
 10
346.5247317202449
 20
41.7311087123938
 30
0.0
 10
346.5414982649626
 20
41.40633133664304
 30
0.0
 10
346.5550934871279
 20
40.9058324091647
 30
0.0
 10
346.5556398984345
 20
40.48201070779633
 30
0.0
 10
346.5559218201219
 20
40.26333930085385
 30
0.0
  0
SPLINE
  5
73
330
1F
100
AcDbEntity
  8
0
  6
Continuous
 62
     7
370
    15
100
AcDbSpline
210
0.0
220
0.0
230
1.0
 70
     8
 71
     3
 72
    12
 73
     8
 74
     0
 42
0.00000001
 43
0.00000001
 40
0.0
 40
0.0
 40
0.0
 40
0.0
 40
0.248946245326258
 40
0.4822936287519815
 40
0.699811415192867
 40
0.9035372363555159
 40
1.0
 40
1.0
 40
1.0
 40
1.0
 10
346.5559218201219
 20
26.70471312592709
 30
0.0
 10
346.5544959530643
 20
26.56737744810528
 30
0.0
 10
346.5517335631497
 20
26.30131148544337
 30
0.0
 10
346.5408326313493
 20
25.96550756222737
 30
0.0
 10
346.5383223004565
 20
25.73232998462474
 30
0.0
 10
346.5431113166069
 20
25.61221614611422
 30
0.0
 10
346.5695419191046
 20
25.61087675449164
 30
0.0
 10
346.5780351433336
 20
25.61044635365689
 30
0.0
  0
LINE
  5
74
330
1F
100
AcDbEntity
  8
0
  6
Continuous
 62
     7
370
    15
100
AcDbLine
 10
346.5550873551
 20
40.3133326967
 30
0.0
 11
346.5550873551
 21
26.654704829
 31
0.0
  0
LINE
  5
75
330
1F
100
AcDbEntity
  8
0
  6
Continuous
 62
     7
370
    15
100
AcDbLine
 10
345.031443623
 20
44.251232763
 30
0.0
 11
346.5188179287
 21
41.7710834939
 31
0.0
  0
LINE
  5
76
330
1F
100
AcDbEntity
  8
0
  6
Continuous
 62
     7
370
    15
100
AcDbLine
 10
348.9955697331
 20
43.4741968114
 30
0.0
 11
347.6042781148
 21
45.7941585977
 31
0.0
  0
LINE
  5
77
330
1F
100
AcDbEntity
  8
0
  6
Continuous
 62
     7
370
    15
100
AcDbLine
 10
346.5833101544
 20
25.4783624608
 30
0.0
 11
345.0142178807
 21
22.8619420726
 31
0.0
  0
LINE
  5
78
330
1F
100
AcDbEntity
  8
0
  6
Continuous
 62
     7
370
    15
100
AcDbLine
 10
347.5870523724
 20
21.319016238
 30
0.0
 11
348.9955697331
 21
23.6676925618
 31
0.0
  0
LINE
  5
79
330
1F
100
AcDbEntity
  8
0
  6
Continuous
 62
     7
370
    15
100
AcDbLine
 10
347.6241562638
 20
45.7586491306
 30
0.0
 11
347.5342128548
 21
45.8724343974
 31
0.0
  0
SPLINE
  5
7A
330
1F
100
AcDbEntity
  8
0
  6
Continuous
 62
     7
370
    15
100
AcDbSpline
210
0.0
220
0.0
230
1.0
 70
     8
 71
     3
 72
    20
 73
    16
 74
     0
 42
0.00000001
 43
0.00000001
 40
0.0
 40
0.0
 40
0.0
 40
0.0
 40
0.0337781605824872
 40
0.1101040398301224
 40
0.1739271568936944
 40
0.225274542626254
 40
0.2665351699473715
 40
0.3037732333053658
 40
0.3388575743172716
 40
0.372638518111004
 40
0.4139169278269808
 40
0.6259821530963307
 40
0.8390273168422525
 40
0.9659458241574138
 40
1.0
 40
1.0
 40
1.0
 40
1.0
 10
347.4218879017412
 20
46.01450206826413
 30
0.0
 10
347.3812380643397
 20
46.07068574951722
 30
0.0
 10
347.2487349546628
 20
46.25382332041566
 30
0.0
 10
346.9388567606551
 20
46.43100535717612
 30
0.0
 10
346.551583480491
 20
46.55394949858619
 30
0.0
 10
346.1817294937916
 20
46.5687538543256
 30
0.0
 10
345.8474148335926
 20
46.51815986391578
 30
0.0
 10
345.5729329252309
 20
46.41711068695661
 30
0.0
 10
345.3454324735937
 20
46.28239059883102
 30
0.0
 10
345.1393973010611
 20
46.1062119563756
 30
0.0
 10
344.7948370550056
 20
45.66373384760266
 30
0.0
 10
344.6137570098854
 20
44.97704652000328
 30
0.0
 10
344.464038622812
 20
43.79621055980881
 30
0.0
 10
344.4088312794543
 20
42.89156919438927
 30
0.0
 10
344.4022980164767
 20
42.4769803744452
 30
0.0
 10
344.4009158882677
 20
42.3892730672189
 30
0.0
  0
SPLINE
  5
7B
330
1F
100
AcDbEntity
  8
0
  6
Continuous
 62
     7
370
    15
100
AcDbSpline
210
0.0
220
0.0
230
1.0
 70
     8
 71
     3
 72
    19
 73
    15
 74
     0
 42
0.00000001
 43
0.00000001
 40
0.0
 40
0.0
 40
0.0
 40
0.0
 40
0.0102731782214673
 40
0.1295972252746515
 40
0.3268124395015868
 40
0.5525087713282103
 40
0.5858516430934438
 40
0.6185990538986528
 40
0.6529071373454088
 40
0.6960076548026162
 40
0.7523120345838386
 40
0.8223121827394947
 40
0.9054587439764228
 40
1.0
 40
1.0
 40
1.0
 40
1.0
 10
344.3980548653184
 20
24.7709447343179
 30
0.0
 10
344.3983780281773
 20
24.74374732895004
 30
0.0
 10
344.4024547616788
 20
24.40064919569862
 30
0.0
 10
344.4422690902232
 20
23.58065454894931
 30
0.0
 10
344.5772413992556
 20
22.35822188109021
 30
0.0
 10
344.6676550248404
 20
21.71486364904501
 30
0.0
 10
345.0185185736624
 20
21.17476620183034
 30
0.0
 10
345.1877441263944
 20
20.98692080316181
 30
0.0
 10
345.4244673455712
 20
20.81043899684049
 30
0.0
 10
345.7381039603072
 20
20.65697988910362
 30
0.0
 10
346.1415722302243
 20
20.55516245539324
 30
0.0
 10
346.627428965284
 20
20.57836254687331
 30
0.0
 10
347.1571951249231
 20
20.78865230098534
 30
0.0
 10
347.422421164462
 20
21.11048376070013
 30
0.0
 10
347.5635383400498
 20
21.28171863148889
 30
0.0
  0
LINE
  5
7C
330
1F
100
AcDbEntity
  8
0
  6
Continuous
 62
     7
370
    15
100
AcDbLine
 10
861.6955611977
 20
-11.4290571015
 30
0.0
 11
861.6955611977
 21
23.5709393222
 31
0.0
  0
LINE
  5
7D
330
1F
100
AcDbEntity
  8
0
  6
Continuous
 62
     7
370
    15
100
AcDbLine
 10
861.6955611977
 20
513.570948859
 30
0.0
 11
861.6955611977
 21
548.5709452827
 31
0.0
  0
LINE
  5
7E
330
1F
100
AcDbEntity
  8
0
  6
Continuous
 62
     7
370
    15
100
AcDbLine
 10
858.6955700192
 20
23.5709393222
 30
0.0
 11
858.6955700192
 21
24.5709413488
 31
0.0
  0
LINE
  5
7F
330
1F
100
AcDbEntity
  8
0
  6
Continuous
 62
     7
370
    15
100
AcDbLine
 10
858.6955700192
 20
59.5709377725
 30
0.0
 11
858.6955700192
 21
60.5709397991
 31
0.0
  0
LINE
  5
80
330
1F
100
AcDbEntity
  8
0
  6
Continuous
 62
     7
370
    15
100
AcDbLine
 10
853.6955747876
 20
60.5709397991
 30
0.0
 11
853.6955747876
 21
59.5709377725
 31
0.0
  0
LINE
  5
81
330
1F
100
AcDbEntity
  8
0
  6
Continuous
 62
     7
370
    15
100
AcDbLine
 10
853.6955747876
 20
24.5709413488
 30
0.0
 11
853.6955747876
 21
23.5709393222
 31
0.0
  0
LINE
  5
82
330
1F
100
AcDbEntity
  8
0
  6
Continuous
 62
     7
370
    15
100
AcDbLine
 10
853.6955747876
 20
513.570948859
 30
0.0
 11
853.6955747876
 21
512.5709468324
 31
0.0
  0
LINE
  5
83
330
1F
100
AcDbEntity
  8
0
  6
Continuous
 62
     7
370
    15
100
AcDbLine
 10
853.6955747876
 20
477.5709504087
 30
0.0
 11
853.6955747876
 21
476.5709483821
 31
0.0
  0
LINE
  5
84
330
1F
100
AcDbEntity
  8
0
  6
Continuous
 62
     7
370
    15
100
AcDbLine
 10
858.6955700192
 20
476.5709483821
 30
0.0
 11
858.6955700192
 21
477.5709504087
 31
0.0
  0
LINE
  5
85
330
1F
100
AcDbEntity
  8
0
  6
Continuous
 62
     7
370
    15
100
AcDbLine
 10
858.6955700192
 20
512.5709468324
 30
0.0
 11
858.6955700192
 21
513.570948859
 31
0.0
  0
LINE
  5
86
330
1F
100
AcDbEntity
  8
0
  6
Continuous
 62
     7
370
    15
100
AcDbLine
 10
341.8955538544
 20
40.32094719
 30
0.0
 11
341.8955538544
 21
40.0281393726
 31
0.0
  0
LINE
  5
87
330
1F
100
AcDbEntity
  8
0
  6
Continuous
 62
     7
370
    15
100
AcDbLine
 10
341.8955538544
 20
27.1137500007
 30
0.0
 11
341.8955538544
 21
26.8209421832
 31
0.0
  0
LINE
  5
88
330
1F
100
AcDbEntity
  8
0
  6
Continuous
 62
     7
370
    15
100
AcDbLine
 10
341.8955538544
 20
497.1137488086
 30
0.0
 11
341.8955538544
 21
496.8209409911
 31
0.0
  0
LINE
  5
89
330
1F
100
AcDbEntity
  8
0
  6
Continuous
 62
     7
370
    15
100
AcDbLine
 10
341.8955538544
 20
510.3209459979
 30
0.0
 11
341.8955538544
 21
510.0281381805
 31
0.0
  0
LINE
  5
8A
330
1F
100
AcDbEntity
  8
0
  6
Continuous
 62
     7
370
    15
100
AcDbLine
 10
835.195559648
 20
-16.4290523331
 30
0.0
 11
835.195559648
 21
-31.4290678303
 31
0.0
  0
LINE
  5
8B
330
1F
100
AcDbEntity
  8
0
  6
Continuous
 62
     7
370
    15
100
AcDbLine
 10
835.195559648
 20
-16.4290523331
 30
0.0
 11
850.195560244
 21
-16.4290523331
 31
0.0
  0
ARC
  5
8C
330
1F
100
AcDbEntity
  8
0
  6
Continuous
 62
     7
370
    15
100
AcDbCircle
 10
835.195560244
 20
-16.4290559094
 30
0.0
 40
15.00000000000011
100
AcDbArc
 50
270.0
 51
0.0
  0
LINE
  5
8D
330
1F
100
AcDbEntity
  8
0
  6
Continuous
 62
     7
370
    15
100
AcDbLine
 10
365.1955608401
 20
-31.4290678303
 30
0.0
 11
365.1955608401
 21
-16.4290523331
 31
0.0
  0
LINE
  5
8E
330
1F
100
AcDbEntity
  8
0
  6
Continuous
 62
     7
370
    15
100
AcDbLine
 10
365.1955608401
 20
-16.4290523331
 30
0.0
 11
835.195559648
 21
-16.4290523331
 31
0.0
  0
LINE
  5
8F
330
1F
100
AcDbEntity
  8
0
  6
Continuous
 62
     7
370
    15
100
AcDbLine
 10
365.1955608401
 20
-31.4290678303
 30
0.0
 11
835.195559648
 21
-31.4290678303
 31
0.0
  0
LINE
  5
90
330
1F
100
AcDbEntity
  8
0
  6
Continuous
 62
     7
370
    15
100
AcDbLine
 10
835.195559648
 20
-16.4290523331
 30
0.0
 11
835.195559648
 21
553.5709405143
 31
0.0
  0
LINE
  5
91
330
1F
100
AcDbEntity
  8
0
  6
Continuous
 62
     7
370
    15
100
AcDbLine
 10
850.195560244
 20
553.5709405143
 30
0.0
 11
835.195559648
 21
553.5709405143
 31
0.0
  0
LINE
  5
92
330
1F
100
AcDbEntity
  8
0
  6
Continuous
 62
     7
370
    15
100
AcDbLine
 10
850.195560244
 20
-16.4290523331
 30
0.0
 11
850.195560244
 21
553.5709405143
 31
0.0
  0
LINE
  5
93
330
1F
100
AcDbEntity
  8
0
  6
Continuous
 62
     7
370
    15
100
AcDbLine
 10
370.1955560717
 20
548.5709452827
 30
0.0
 11
830.1955644164
 21
548.5709452827
 31
0.0
  0
LINE
  5
94
330
1F
100
AcDbEntity
  8
0
  6
Continuous
 62
     7
370
    15
100
AcDbLine
 10
370.1955560717
 20
-11.4290571015
 30
0.0
 11
370.1955560717
 21
548.5709452827
 31
0.0
  0
LINE
  5
95
330
1F
100
AcDbEntity
  8
0
  6
Continuous
 62
     7
370
    15
100
AcDbLine
 10
830.1955644164
 20
-11.4290571015
 30
0.0
 11
370.1955560717
 21
-11.4290571015
 31
0.0
  0
LINE
  5
96
330
1F
100
AcDbEntity
  8
0
  6
Continuous
 62
     7
370
    15
100
AcDbLine
 10
365.1955608401
 20
553.5709405143
 30
0.0
 11
365.1955608401
 21
-16.4290523331
 31
0.0
  0
LINE
  5
97
330
1F
100
AcDbEntity
  8
0
  6
Continuous
 62
     7
370
    15
100
AcDbLine
 10
365.1955608401
 20
553.5709405143
 30
0.0
 11
835.195559648
 21
553.5709405143
 31
0.0
  0
LINE
  5
98
330
1F
100
AcDbEntity
  8
0
  6
Continuous
 62
     7
370
    15
100
AcDbLine
 10
830.1955644164
 20
-11.4290571015
 30
0.0
 11
830.1955644164
 21
548.5709452827
 31
0.0
  0
ARC
  5
99
330
1F
100
AcDbEntity
  8
0
  6
Continuous
 62
     7
370
    15
100
AcDbCircle
 10
365.195560244
 20
-16.4290559094
 30
0.0
 40
15.00000000000001
100
AcDbArc
 50
180.0
 51
270.0
  0
LINE
  5
9A
330
1F
100
AcDbEntity
  8
0
  6
Continuous
 62
     7
370
    15
100
AcDbLine
 10
350.195560244
 20
-16.4290523331
 30
0.0
 11
365.1955608401
 21
-16.4290523331
 31
0.0
  0
LINE
  5
9B
330
1F
100
AcDbEntity
  8
0
  6
Continuous
 62
     7
370
    15
100
AcDbLine
 10
350.195560244
 20
23.5834562976
 30
0.0
 11
350.195560244
 21
-16.4290523331
 31
0.0
  0
LINE
  5
9C
330
1F
100
AcDbEntity
  8
0
  6
Continuous
 62
     7
370
    15
100
AcDbLine
 10
350.195560244
 20
43.5584330756
 30
0.0
 11
350.195560244
 21
493.5834551055
 31
0.0
  0
LINE
  5
9D
330
1F
100
AcDbEntity
  8
0
  6
Continuous
 62
     7
370
    15
100
AcDbLine
 10
350.195560244
 20
513.5584318836
 30
0.0
 11
350.195560244
 21
553.5709405143
 31
0.0
  0
LINE
  5
9E
330
1F
100
AcDbEntity
  8
0
  6
Continuous
 62
     7
370
    15
100
AcDbLine
 10
350.195560244
 20
553.5709405143
 30
0.0
 11
365.1955608401
 21
553.5709405143
 31
0.0
  0
ARC
  5
9F
330
1F
100
AcDbEntity
  8
0
  6
Continuous
 62
     7
370
    15
100
AcDbCircle
 10
835.195560244
 20
553.5709440906
 30
0.0
 40
15.00000000000023
100
AcDbArc
 50
0.0
 51
90.0
  0
LINE
  5
A0
330
1F
100
AcDbEntity
  8
0
  6
Continuous
 62
     7
370
    15
100
AcDbLine
 10
835.195559648
 20
568.5709560115
 30
0.0
 11
835.195559648
 21
553.5709405143
 31
0.0
  0
LINE
  5
A1
330
1F
100
AcDbEntity
  8
0
  6
Continuous
 62
     7
370
    15
100
AcDbLine
 10
365.1955608401
 20
553.5709405143
 30
0.0
 11
365.1955608401
 21
568.5709560115
 31
0.0
  0
LINE
  5
A2
330
1F
100
AcDbEntity
  8
0
  6
Continuous
 62
     7
370
    15
100
AcDbLine
 10
365.1955608401
 20
568.5709560115
 30
0.0
 11
835.195559648
 21
568.5709560115
 31
0.0
  0
ARC
  5
A3
330
1F
100
AcDbEntity
  8
0
  6
Continuous
 62
     7
370
    15
100
AcDbCircle
 10
365.195560244
 20
553.5709440906
 30
0.0
 40
15.00000000000011
100
AcDbArc
 50
90.0
 51
180.0
  0
LINE
  5
A4
330
1F
100
AcDbEntity
  8
0
  6
Continuous
 62
     7
370
    15
100
AcDbLine
 10
348.9955697331
 20
44.6054333646
 30
0.0
 11
350.195560244
 21
44.6054333646
 31
0.0
  0
LINE
  5
A5
330
1F
100
AcDbEntity
  8
0
  6
Continuous
 62
     7
370
    15
100
AcDbLine
 10
350.195560244
 20
43.5584330756
 30
0.0
 11
350.195560244
 21
23.5834562976
 31
0.0
  0
LINE
  5
A6
330
1F
100
AcDbEntity
  8
0
  6
Continuous
 62
     7
370
    15
100
AcDbLine
 10
348.9955697331
 20
22.5364560087
 30
0.0
 11
350.195560244
 21
22.5364560087
 31
0.0
  0
LINE
  5
A7
330
1F
100
AcDbEntity
  8
0
  6
Continuous
 62
     7
370
    15
100
AcDbLine
 10
348.9955697331
 20
22.5364560087
 30
0.0
 11
348.9955697331
 21
44.6054333646
 31
0.0
  0
LINE
  5
A8
330
1F
100
AcDbEntity
  8
0
  6
Continuous
 62
     7
370
    15
100
AcDbLine
 10
348.9955697331
 20
514.6054321725
 30
0.0
 11
350.195560244
 21
514.6054321725
 31
0.0
  0
LINE
  5
A9
330
1F
100
AcDbEntity
  8
0
  6
Continuous
 62
     7
370
    15
100
AcDbLine
 10
348.9955697331
 20
492.5364548166
 30
0.0
 11
350.195560244
 21
492.5364548166
 31
0.0
  0
LINE
  5
AA
330
1F
100
AcDbEntity
  8
0
  6
Continuous
 62
     7
370
    15
100
AcDbLine
 10
348.9955697331
 20
492.5364548166
 30
0.0
 11
348.9955697331
 21
514.6054321725
 31
0.0
  0
LINE
  5
AB
330
1F
100
AcDbEntity
  8
0
  6
Continuous
 62
     7
370
    15
100
AcDbLine
 10
350.195560244
 20
513.5584318836
 30
0.0
 11
350.195560244
 21
493.5834551055
 31
0.0
  0
LINE
  5
AC
330
1F
100
AcDbEntity
  8
0
  6
Continuous
 62
     7
370
    15
100
AcDbLine
 10
348.8955531392
 20
25.5709433753
 30
0.0
 11
348.8955531392
 21
31.5709406335
 31
0.0
  0
LINE
  5
AD
330
1F
100
AcDbEntity
  8
0
  6
Continuous
 62
     7
370
    15
100
AcDbLine
 10
348.8955531392
 20
38.5709399183
 30
0.0
 11
348.8955531392
 21
41.5709459979
 31
0.0
  0
LINE
  5
AE
330
1F
100
AcDbEntity
  8
0
  6
Continuous
 62
     7
370
    15
100
AcDbLine
 10
348.8955531392
 20
35.5709487398
 30
0.0
 11
348.8955531392
 21
38.5709399183
 31
0.0
  0
LINE
  5
AF
330
1F
100
AcDbEntity
  8
0
  6
Continuous
 62
     7
370
    15
100
AcDbLine
 10
348.8955531392
 20
495.5709421832
 30
0.0
 11
348.8955531392
 21
501.5709394414
 31
0.0
  0
LINE
  5
B0
330
1F
100
AcDbEntity
  8
0
  6
Continuous
 62
     7
370
    15
100
AcDbLine
 10
348.8955531392
 20
508.5709387262
 30
0.0
 11
348.8955531392
 21
511.5709448058
 31
0.0
  0
LINE
  5
B1
330
1F
100
AcDbEntity
  8
0
  6
Continuous
 62
     7
370
    15
100
AcDbLine
 10
348.8955531392
 20
505.5709475477
 30
0.0
 11
348.8955531392
 21
508.5709387262
 31
0.0
  0
LINE
  5
B2
330
1F
100
AcDbEntity
  8
0
  6
Continuous
 62
     7
370
    15
100
AcDbLine
 10
348.9955697331
 20
44.6054333646
 30
0.0
 11
348.9955697331
 21
45.0709456403
 31
0.0
  0
LINE
  5
B3
330
1F
100
AcDbEntity
  8
0
  6
Continuous
 62
     7
370
    15
100
AcDbLine
 10
348.9955697331
 20
514.6054321725
 30
0.0
 11
348.9955697331
 21
515.0709444482
 31
0.0
  0
LINE
  5
B4
330
1F
100
AcDbEntity
  8
0
  6
Continuous
 62
     7
370
    15
100
AcDbLine
 10
348.9955697331
 20
22.070943733
 30
0.0
 11
348.9955697331
 21
22.5364560087
 31
0.0
  0
LINE
  5
B5
330
1F
100
AcDbEntity
  8
0
  6
Continuous
 62
     7
370
    15
100
AcDbLine
 10
348.9955697331
 20
492.0709425409
 30
0.0
 11
348.9955697331
 21
492.5364548166
 31
0.0
  0
LINE
  5
B6
330
1F
100
AcDbEntity
  8
0
  6
Continuous
 62
     7
370
    15
100
AcDbLine
 10
851.0969314847
 20
24.5709413488
 30
0.0
 11
861.6955611977
 21
24.5709413488
 31
0.0
  0
LINE
  5
B7
330
1F
100
AcDbEntity
  8
0
  6
Continuous
 62
     7
370
    15
100
AcDbLine
 10
851.0969314847
 20
59.5709377725
 30
0.0
 11
851.0969314847
 21
24.5709413488
 31
0.0
  0
LINE
  5
B8
330
1F
100
AcDbEntity
  8
0
  6
Continuous
 62
     7
370
    15
100
AcDbLine
 10
851.0969314847
 20
59.5709377725
 30
0.0
 11
861.6955611977
 21
59.5709377725
 31
0.0
  0
LINE
  5
B9
330
1F
100
AcDbEntity
  8
0
  6
Continuous
 62
     7
370
    15
100
AcDbLine
 10
851.0969314847
 20
477.5709504087
 30
0.0
 11
861.6955611977
 21
477.5709504087
 31
0.0
  0
LINE
  5
BA
330
1F
100
AcDbEntity
  8
0
  6
Continuous
 62
     7
370
    15
100
AcDbLine
 10
851.0969314847
 20
512.5709468324
 30
0.0
 11
851.0969314847
 21
477.5709504087
 31
0.0
  0
LINE
  5
BB
330
1F
100
AcDbEntity
  8
0
  6
Continuous
 62
     7
370
    15
100
AcDbLine
 10
851.0969314847
 20
512.5709468324
 30
0.0
 11
861.6955611977
 21
512.5709468324
 31
0.0
  0
LINE
  5
BC
330
1F
100
AcDbEntity
  8
0
  6
Continuous
 62
     7
370
    15
100
AcDbLine
 10
850.6334159646
 20
59.5709377725
 30
0.0
 11
850.6334159646
 21
24.5709413488
 31
0.0
  0
LINE
  5
BD
330
1F
100
AcDbEntity
  8
0
  6
Continuous
 62
     7
370
    15
100
AcDbLine
 10
850.6334159646
 20
59.5709377725
 30
0.0
 11
851.0969314847
 21
59.5709377725
 31
0.0
  0
LINE
  5
BE
330
1F
100
AcDbEntity
  8
0
  6
Continuous
 62
     7
370
    15
100
AcDbLine
 10
850.6334159646
 20
24.5709413488
 30
0.0
 11
851.0969314847
 21
24.5709413488
 31
0.0
  0
LINE
  5
BF
330
1F
100
AcDbEntity
  8
0
  6
Continuous
 62
     7
370
    15
100
AcDbLine
 10
850.6334159646
 20
512.5709468324
 30
0.0
 11
850.6334159646
 21
477.5709504087
 31
0.0
  0
LINE
  5
C0
330
1F
100
AcDbEntity
  8
0
  6
Continuous
 62
     7
370
    15
100
AcDbLine
 10
850.6334159646
 20
512.5709468324
 30
0.0
 11
851.0969314847
 21
512.5709468324
 31
0.0
  0
LINE
  5
C1
330
1F
100
AcDbEntity
  8
0
  6
Continuous
 62
     7
370
    15
100
AcDbLine
 10
850.6334159646
 20
477.5709504087
 30
0.0
 11
851.0969314847
 21
477.5709504087
 31
0.0
  0
LINE
  5
C2
330
1F
100
AcDbEntity
  8
0
  6
Continuous
 62
     7
370
    15
100
AcDbLine
 10
850.195560244
 20
59.5709377725
 30
0.0
 11
850.6334159646
 21
59.5709377725
 31
0.0
  0
LINE
  5
C3
330
1F
100
AcDbEntity
  8
0
  6
Continuous
 62
     7
370
    15
100
AcDbLine
 10
850.195560244
 20
24.5709413488
 30
0.0
 11
850.6334159646
 21
24.5709413488
 31
0.0
  0
LINE
  5
C4
330
1F
100
AcDbEntity
  8
0
  6
Continuous
 62
     7
370
    15
100
AcDbLine
 10
850.195560244
 20
512.5709468324
 30
0.0
 11
850.6334159646
 21
512.5709468324
 31
0.0
  0
LINE
  5
C5
330
1F
100
AcDbEntity
  8
0
  6
Continuous
 62
     7
370
    15
100
AcDbLine
 10
850.195560244
 20
477.5709504087
 30
0.0
 11
850.6334159646
 21
477.5709504087
 31
0.0
  0
ARC
  5
C6
330
1F
100
AcDbEntity
  8
0
  6
Continuous
 62
     7
370
    15
100
AcDbCircle
 10
343.0182369823
 20
38.9821211281
 30
0.0
 40
1.097809509998412
100
AcDbArc
 50
97.3335515103
 51
185.8123579011
  0
LINE
  5
C7
330
1F
100
AcDbEntity
  8
0
  6
Continuous
 62
     7
370
    15
100
AcDbLine
 10
342.8781066212
 20
40.0709504087
 30
0.0
 11
346.4215431485
 21
40.0709504087
 31
0.0
  0
LINE
  5
C8
330
1F
100
AcDbEntity
  8
0
  6
Continuous
 62
     7
370
    15
100
AcDbLine
 10
346.4215431485
 20
40.0709504087
 30
0.0
 11
346.4215431485
 21
27.0709389646
 31
0.0
  0
LINE
  5
C9
330
1F
100
AcDbEntity
  8
0
  6
Continuous
 62
     7
370
    15
100
AcDbLine
 10
346.4215431485
 20
27.0709389646
 30
0.0
 11
342.8781066212
 21
27.0709389646
 31
0.0
  0
ARC
  5
CA
330
1F
100
AcDbEntity
  8
0
  6
Continuous
 62
     7
370
    15
100
AcDbCircle
 10
343.0182369823
 20
28.1597682451
 30
0.0
 40
1.097809509998412
100
AcDbArc
 50
174.1876420989
 51
262.6664484898
  0
LINE
  5
CB
330
1F
100
AcDbEntity
  8
0
  6
Continuous
 62
     7
370
    15
100
AcDbLine
 10
341.9260714325
 20
38.8709449966
 30
0.0
 11
341.9260714325
 21
28.2709443767
 31
0.0
  0
LINE
  5
CC
330
1F
100
AcDbEntity
  8
0
  6
Continuous
 62
     7
370
    15
100
AcDbLine
 10
341.9260714325
 20
38.8709449966
 30
0.0
 11
341.1955569062
 21
38.8709449966
 31
0.0
  0
LINE
  5
CD
330
1F
100
AcDbEntity
  8
0
  6
Continuous
 62
     7
370
    15
100
AcDbLine
 10
341.1955569062
 20
28.2709443767
 30
0.0
 11
341.9260714325
 21
28.2709443767
 31
0.0
  0
LINE
  5
CE
330
1F
100
AcDbEntity
  8
0
  6
Continuous
 62
     7
370
    15
100
AcDbLine
 10
341.1955569062
 20
38.8709449966
 30
0.0
 11
341.1955569062
 21
28.2709443767
 31
0.0
  0
LINE
  5
CF
330
1F
100
AcDbEntity
  8
0
  6
Continuous
 62
     7
370
    15
100
AcDbLine
 10
342.1475920949
 20
40.0709504087
 30
0.0
 11
342.8781066212
 21
40.0709504087
 31
0.0
  0
ARC
  5
D0
330
1F
100
AcDbEntity
  8
0
  6
Continuous
 62
     7
370
    15
100
AcDbCircle
 10
342.2877224559
 20
38.9821211281
 30
0.0
 40
1.097809509998412
100
AcDbArc
 50
97.3335515103
 51
185.8123579011
  0
LINE
  5
D1
330
1F
100
AcDbEntity
  8
0
  6
Continuous
 62
     7
370
    15
100
AcDbLine
 10
342.8781066212
 20
27.0709389646
 30
0.0
 11
342.1475920949
 21
27.0709389646
 31
0.0
  0
ARC
  5
D2
330
1F
100
AcDbEntity
  8
0
  6
Continuous
 62
     7
370
    15
100
AcDbCircle
 10
342.2877224559
 20
28.1597682451
 30
0.0
 40
1.097809509998412
100
AcDbArc
 50
174.1876420989
 51
262.6664484898
  0
LINE
  5
D3
330
1F
100
AcDbEntity
  8
0
  6
Continuous
 62
     7
370
    15
100
AcDbLine
 10
341.9260714325
 20
508.8709438045
 30
0.0
 11
341.1955569062
 21
508.8709438045
 31
0.0
  0
LINE
  5
D4
330
1F
100
AcDbEntity
  8
0
  6
Continuous
 62
     7
370
    15
100
AcDbLine
 10
341.9260714325
 20
508.8709438045
 30
0.0
 11
341.9260714325
 21
498.2709431846
 31
0.0
  0
LINE
  5
D5
330
1F
100
AcDbEntity
  8
0
  6
Continuous
 62
     7
370
    15
100
AcDbLine
 10
341.1955569062
 20
498.2709431846
 30
0.0
 11
341.9260714325
 21
498.2709431846
 31
0.0
  0
LINE
  5
D6
330
1F
100
AcDbEntity
  8
0
  6
Continuous
 62
     7
370
    15
100
AcDbLine
 10
341.1955569062
 20
508.8709438045
 30
0.0
 11
341.1955569062
 21
498.2709431846
 31
0.0
  0
ARC
  5
D7
330
1F
100
AcDbEntity
  8
0
  6
Continuous
 62
     7
370
    15
100
AcDbCircle
 10
343.0182369823
 20
508.9821199361
 30
0.0
 40
1.097809509998417
100
AcDbArc
 50
97.3335515103
 51
185.8123579011
  0
LINE
  5
D8
330
1F
100
AcDbEntity
  8
0
  6
Continuous
 62
     7
370
    15
100
AcDbLine
 10
342.8781066212
 20
510.0709492166
 30
0.0
 11
346.4215431485
 21
510.0709492166
 31
0.0
  0
LINE
  5
D9
330
1F
100
AcDbEntity
  8
0
  6
Continuous
 62
     7
370
    15
100
AcDbLine
 10
346.4215431485
 20
510.0709492166
 30
0.0
 11
346.4215431485
 21
497.0709377725
 31
0.0
  0
LINE
  5
DA
330
1F
100
AcDbEntity
  8
0
  6
Continuous
 62
     7
370
    15
100
AcDbLine
 10
346.4215431485
 20
497.0709377725
 30
0.0
 11
342.8781066212
 21
497.0709377725
 31
0.0
  0
ARC
  5
DB
330
1F
100
AcDbEntity
  8
0
  6
Continuous
 62
     7
370
    15
100
AcDbCircle
 10
343.0182369823
 20
498.159767053
 30
0.0
 40
1.097809509998419
100
AcDbArc
 50
174.1876420989
 51
262.6664484898
  0
LINE
  5
DC
330
1F
100
AcDbEntity
  8
0
  6
Continuous
 62
     7
370
    15
100
AcDbLine
 10
342.1475920949
 20
510.0709492166
 30
0.0
 11
342.8781066212
 21
510.0709492166
 31
0.0
  0
ARC
  5
DD
330
1F
100
AcDbEntity
  8
0
  6
Continuous
 62
     7
370
    15
100
AcDbCircle
 10
342.2877224559
 20
508.9821199361
 30
0.0
 40
1.097809509998417
100
AcDbArc
 50
97.3335515103
 51
185.8123579011
  0
LINE
  5
DE
330
1F
100
AcDbEntity
  8
0
  6
Continuous
 62
     7
370
    15
100
AcDbLine
 10
342.8781066212
 20
497.0709377725
 30
0.0
 11
342.1475920949
 21
497.0709377725
 31
0.0
  0
ARC
  5
DF
330
1F
100
AcDbEntity
  8
0
  6
Continuous
 62
     7
370
    15
100
AcDbCircle
 10
342.2877224559
 20
498.159767053
 30
0.0
 40
1.097809509998419
100
AcDbArc
 50
174.1876420989
 51
262.6664484898
  0
LINE
  5
E0
330
1F
100
AcDbEntity
  8
0
  6
Continuous
 62
     7
370
    15
100
AcDbLine
 10
346.5030823025
 20
40.0709504087
 30
0.0
 11
346.4215431485
 21
40.0709504087
 31
0.0
  0
LINE
  5
E1
330
1F
100
AcDbEntity
  8
0
  6
Continuous
 62
     7
370
    15
100
AcDbLine
 10
346.4215431485
 20
27.0709389646
 30
0.0
 11
346.5550873551
 21
27.0709389646
 31
0.0
  0
LINE
  5
E2
330
1F
100
AcDbEntity
  8
0
  6
Continuous
 62
     7
370
    15
100
AcDbLine
 10
346.5215001378
 20
510.0709492166
 30
0.0
 11
346.4215431485
 21
510.0709492166
 31
0.0
  0
LINE
  5
E3
330
1F
100
AcDbEntity
  8
0
  6
Continuous
 62
     7
370
    15
100
AcDbLine
 10
346.4215431485
 20
497.0709377725
 30
0.0
 11
346.5550873551
 21
497.0709377725
 31
0.0
  0
SPLINE
  5
E4
330
1F
100
AcDbEntity
  8
0
  6
Continuous
 62
     7
370
    15
100
AcDbSpline
210
0.0
220
0.0
230
1.0
 70
    24
 71
     3
 72
    12
 73
     8
 74
     0
 42
0.00000001
 43
0.00000001
 40
0.0
 40
0.0
 40
0.0
 40
0.0
 40
0.2185040659699323
 40
0.4370095603324679
 40
0.6555189772202858
 40
0.8740247140736526
 40
1.0
 40
1.0
 40
1.0
 40
1.0
 10
348.3549092087327
 20
510.2633381087609
 30
0.0
 10
348.1581888175926
 20
510.2633381087609
 30
0.0
 10
347.7647467493226
 20
510.2633381087609
 30
0.0
 10
347.203998871089
 20
510.263338108761
 30
0.0
 10
346.7863082814839
 20
510.2633381087609
 30
0.0
 10
346.5597382976201
 20
510.263338108761
 30
0.0
 10
346.5772819451954
 20
510.263338108761
 30
0.0
 10
346.5836975845872
 20
510.2633381087609
 30
0.0
  0
SPLINE
  5
E5
330
1F
100
AcDbEntity
  8
0
  6
Continuous
 62
     7
370
    15
100
AcDbSpline
210
0.0
220
0.0
230
1.0
 70
    24
 71
     3
 72
     9
 73
     5
 74
     0
 42
0.00000001
 43
0.00000001
 40
0.0
 40
0.0
 40
0.0
 40
0.0
 40
0.002514167495053
 40
1.0
 40
1.0
 40
1.0
 40
1.0
 10
348.8955531391679
 20
510.2633381087609
 30
0.0
 10
348.8952055782324
 20
510.2633381087609
 30
0.0
 10
348.7569646152463
 20
510.263338108766
 30
0.0
 10
348.5556838852551
 20
510.2633381087635
 30
0.0
 10
348.3549092087327
 20
510.263338108761
 30
0.0
  0
SPLINE
  5
E6
330
1F
100
AcDbEntity
  8
0
  6
Continuous
 62
     7
370
    15
100
AcDbSpline
210
0.0
220
0.0
230
1.0
 70
     8
 71
     3
 72
    13
 73
     9
 74
     0
 42
0.00000001
 43
0.00000001
 40
0.0
 40
0.0
 40
0.0
 40
0.0
 40
0.187740000413576
 40
0.3754750840911282
 40
0.5632141125828769
 40
0.7509489806106309
 40
0.9386872804467359
 40
1.0
 40
1.0
 40
1.0
 40
1.0
 10
348.0616245541154
 20
513.878181000454
 30
0.0
 10
347.8649274520276
 20
513.8754793350047
 30
0.0
 10
347.4715383991661
 20
513.8700760748601
 30
0.0
 10
346.9385255014134
 20
513.5795337934197
 30
0.0
 10
346.5480034083499
 20
513.1246379353316
 30
0.0
 10
346.3750546166956
 20
512.5629578943455
 30
0.0
 10
346.3783389360864
 20
512.0897714703011
 30
0.0
 10
346.5056541911168
 20
511.8683335984967
 30
0.0
 10
346.5369973454057
 20
511.8138188321419
 30
0.0
  0
SPLINE
  5
E7
330
1F
100
AcDbEntity
  8
0
  6
Continuous
 62
     7
370
    15
100
AcDbSpline
210
0.0
220
0.0
230
1.0
 70
     8
 71
     3
 72
    10
 73
     6
 74
     0
 42
0.00000001
 43
0.00000001
 40
0.0
 40
0.0
 40
0.0
 40
0.0
 40
0.2093330610731358
 40
0.6046772709239069
 40
0.9999999999999999
 40
0.9999999999999999
 40
0.9999999999999999
 40
0.9999999999999999
 10
349.1987917694627
 20
513.0720579821892
 30
0.0
 10
349.157095076624
 20
513.165121768453
 30
0.0
 10
349.0366504497551
 20
513.4339448392634
 30
0.0
 10
348.6299189351441
 20
513.7505770002628
 30
0.0
 10
348.251052583455
 20
513.8356471041161
 30
0.0
 10
348.0616245541154
 20
513.878181000454
 30
0.0
  0
SPLINE
  5
E8
330
1F
100
AcDbEntity
  8
0
  6
Continuous
 62
     7
370
    15
100
AcDbSpline
210
0.0
220
0.0
230
1.0
 70
     8
 71
     3
 72
    13
 73
     9
 74
     0
 42
0.00000001
 43
0.00000001
 40
0.0
 40
0.0
 40
0.0
 40
0.0
 40
0.1768655441741053
 40
0.3537268808725106
 40
0.5305919338987228
 40
0.7074573141850448
 40
0.8843216807598565
 40
1.0
 40
1.0
 40
1.0
 40
1.0
 10
348.0443988117754
 20
493.2349914510079
 30
0.0
 10
347.8477260593946
 20
493.2376774347281
 30
0.0
 10
347.4543852333048
 20
493.2430493382714
 30
0.0
 10
346.9210063140596
 20
493.5337382388875
 30
0.0
 10
346.5318753464483
 20
493.9880976863357
 30
0.0
 10
346.3537172086088
 20
494.5517968662283
 30
0.0
 10
346.3746831921051
 20
495.0849471522813
 30
0.0
 10
346.5407643328498
 20
495.358218465684
 30
0.0
 10
346.6064367565691
 20
495.4662764270135
 30
0.0
  0
SPLINE
  5
E9
330
1F
100
AcDbEntity
  8
0
  6
Continuous
 62
     7
370
    15
100
AcDbSpline
210
0.0
220
0.0
230
1.0
 70
     8
 71
     3
 72
    10
 73
     6
 74
     0
 42
0.00000001
 43
0.00000001
 40
0.0
 40
0.0
 40
0.0
 40
0.0
 40
0.0588225777550384
 40
0.5294258028009099
 40
1.0
 40
1.0
 40
1.0
 40
1.0
 10
349.074516085106
 20
493.8348972995111
 30
0.0
 10
349.0638815898731
 20
493.8134163083194
 30
0.0
 10
348.9681670463944
 20
493.620079133367
 30
0.0
 10
348.6072720004103
 20
493.3659209826698
 30
0.0
 10
348.2320193501326
 20
493.2786337308558
 30
0.0
 10
348.0443988117754
 20
493.2349914510079
 30
0.0
  0
SPLINE
  5
EA
330
1F
100
AcDbEntity
  8
0
  6
Continuous
 62
     7
370
    15
100
AcDbSpline
210
0.0
220
0.0
230
1.0
 70
    24
 71
     3
 72
    12
 73
     8
 74
     0
 42
0.00000001
 43
0.00000001
 40
0.0
 40
0.0
 40
0.0
 40
0.0
 40
0.2193534179877733
 40
0.4387082699204865
 40
0.6580670596258174
 40
0.8774221549919532
 40
1.0
 40
1.0
 40
1.0
 40
1.0
 10
348.3549092087327
 20
496.7047119338342
 30
0.0
 10
348.1581935036277
 20
496.7047119338342
 30
0.0
 10
347.7647608074589
 20
496.7047119338342
 30
0.0
 10
347.2039426376941
 20
496.7047119338342
 30
0.0
 10
346.7865191593966
 20
496.7047119338342
 30
0.0
 10
346.5606561013273
 20
496.7047119338341
 30
0.0
 10
346.5776611379413
 20
496.7047119338342
 30
0.0
 10
346.583757189232
 20
496.7047119338342
 30
0.0
  0
SPLINE
  5
EB
330
1F
100
AcDbEntity
  8
0
  6
Continuous
 62
     7
370
    15
100
AcDbSpline
210
0.0
220
0.0
230
1.0
 70
    24
 71
     3
 72
     9
 73
     5
 74
     0
 42
0.00000001
 43
0.00000001
 40
0.0
 40
0.0
 40
0.0
 40
0.0
 40
0.002514167495053
 40
1.0
 40
1.0
 40
1.0
 40
1.0
 10
348.8955531391679
 20
496.7047119338342
 30
0.0
 10
348.8952055782324
 20
496.7047119338341
 30
0.0
 10
348.7569646152463
 20
496.7047119338382
 30
0.0
 10
348.5556838852551
 20
496.7047119338362
 30
0.0
 10
348.3549092087327
 20
496.7047119338342
 30
0.0
  0
SPLINE
  5
EC
330
1F
100
AcDbEntity
  8
0
  6
Continuous
 62
     7
370
    15
100
AcDbSpline
210
0.0
220
0.0
230
1.0
 70
     8
 71
     3
 72
    13
 73
     9
 74
     0
 42
0.00000001
 43
0.00000001
 40
0.0
 40
0.0
 40
0.0
 40
0.0
 40
0.1768576985124456
 40
0.3537276817053297
 40
0.5305875817102148
 40
0.7074521439525769
 40
0.8843171741316485
 40
0.9999999999999999
 40
0.9999999999999999
 40
0.9999999999999999
 40
0.9999999999999999
 10
346.4925322804033
 20
516.4946013886757
 30
0.0
 10
346.2958714911717
 20
516.4919054204712
 30
0.0
 10
345.9025362524895
 20
516.4865132967977
 30
0.0
 10
345.3691400531321
 20
516.1958610720783
 30
0.0
 10
344.9800543963513
 20
515.7414651386492
 30
0.0
 10
344.8018402954959
 20
515.1778012857699
 30
0.0
 10
344.8228094272305
 20
514.6446354641536
 30
0.0
 10
344.9889161070327
 20
514.371373125179
 30
0.0
 10
345.0546000275193
 20
514.2633164126703
 30
0.0
  0
SPLINE
  5
ED
330
1F
100
AcDbEntity
  8
0
  6
Continuous
 62
     7
370
    15
100
AcDbSpline
210
0.0
220
0.0
230
1.0
 70
     8
 71
     3
 72
    10
 73
     6
 74
     0
 42
0.00000001
 43
0.00000001
 40
0.0
 40
0.0
 40
0.0
 40
0.0
 40
0.1474521529467936
 40
0.5737191691814364
 40
0.9999999999999999
 40
0.9999999999999999
 40
0.9999999999999999
 40
0.9999999999999999
 10
347.5811217102586
 20
515.7820725638695
 30
0.0
 10
347.5530647269119
 20
515.8423645311184
 30
0.0
 10
347.4438982694971
 20
516.0769535599459
 30
0.0
 10
347.0588333783131
 20
516.3657703105276
 30
0.0
 10
346.6813013522012
 20
516.4516572320593
 30
0.0
 10
346.4925322804033
 20
516.4946013886757
 30
0.0
  0
SPLINE
  5
EE
330
1F
100
AcDbEntity
  8
0
  6
Continuous
 62
     7
370
    15
100
AcDbSpline
210
0.0
220
0.0
230
1.0
 70
     8
 71
     3
 72
    13
 73
     9
 74
     0
 42
0.00000001
 43
0.00000001
 40
0.0
 40
0.0
 40
0.0
 40
0.0
 40
0.1768650160017019
 40
0.3537333829017458
 40
0.5305916667059338
 40
0.7074540373464636
 40
0.8843182312772411
 40
1.0
 40
1.0
 40
1.0
 40
1.0
 10
346.4753363403855
 20
490.6185710627863
 30
0.0
 10
346.2786653440362
 20
490.6212656000044
 30
0.0
 10
345.8853196251934
 20
490.6266547254918
 30
0.0
 10
345.3519142512649
 20
490.9173114911748
 30
0.0
 10
344.9628291800346
 20
491.3717059083193
 30
0.0
 10
344.7846142064217
 20
491.9353742479806
 30
0.0
 10
344.8055833255876
 20
492.4685356052482
 30
0.0
 10
344.9716903883772
 20
492.7417991411044
 30
0.0
 10
345.0373742851793
 20
492.8498560387918
 30
0.0
  0
SPLINE
  5
EF
330
1F
100
AcDbEntity
  8
0
  6
Continuous
 62
     7
370
    15
100
AcDbSpline
210
0.0
220
0.0
230
1.0
 70
     8
 71
     3
 72
    10
 73
     6
 74
     0
 42
0.00000001
 43
0.00000001
 40
0.0
 40
0.0
 40
0.0
 40
0.0
 40
0.1474663158648042
 40
0.5737321298533076
 40
1.0
 40
1.0
 40
1.0
 40
1.0
 10
347.5638959679185
 20
491.3310998875924
 30
0.0
 10
347.5358398862266
 20
491.270802501122
 30
0.0
 10
347.4266849554205
 20
491.0362096196129
 30
0.0
 10
347.0416061021946
 20
490.7474108281358
 30
0.0
 10
346.664093231153
 20
490.661517720289
 30
0.0
 10
346.4753363403855
 20
490.6185710627863
 30
0.0
  0
LINE
  5
F0
330
1F
100
AcDbEntity
  8
0
  6
Continuous
 62
     7
370
    15
100
AcDbLine
 10
341.1955569062
 20
507.470949908
 30
0.0
 11
341.0907421383
 21
507.470949908
 31
0.0
  0
LINE
  5
F1
330
1F
100
AcDbEntity
  8
0
  6
Continuous
 62
     7
370
    15
100
AcDbLine
 10
341.1955569062
 20
498.8709384401
 30
0.0
 11
341.0907421383
 21
498.8709384401
 31
0.0
  0
LINE
  5
F2
330
1F
100
AcDbEntity
  8
0
  6
Continuous
 62
     7
370
    15
100
AcDbLine
 10
346.5774092946
 20
495.5709421832
 30
0.0
 11
341.6961763176
 21
495.5709421832
 31
0.0
  0
LINE
  5
F3
330
1F
100
AcDbEntity
  8
0
  6
Continuous
 62
     7
370
    15
100
AcDbLine
 10
346.5215001378
 20
496.3709408243
 30
0.0
 11
341.6955504689
 21
496.3709408243
 31
0.0
  0
LINE
  5
F4
330
1F
100
AcDbEntity
  8
0
  6
Continuous
 62
     7
370
    15
100
AcDbLine
 10
346.6256294522
 20
511.5709448058
 30
0.0
 11
341.6961763176
 21
511.5709448058
 31
0.0
  0
LINE
  5
F5
330
1F
100
AcDbEntity
  8
0
  6
Continuous
 62
     7
370
    15
100
AcDbLine
 10
346.5215001378
 20
510.7709461648
 30
0.0
 11
341.6955504689
 21
510.7709461648
 31
0.0
  0
LINE
  5
F6
330
1F
100
AcDbEntity
  8
0
  6
Continuous
 62
     7
370
    15
100
AcDbLine
 10
345.295551804
 20
511.8709498842
 30
0.0
 11
346.4589152607
 21
511.8709498842
 31
0.0
  0
LINE
  5
F7
330
1F
100
AcDbEntity
  8
0
  6
Continuous
 62
     7
370
    15
100
AcDbLine
 10
343.0955741677
 20
511.8709498842
 30
0.0
 11
345.295551804
 21
511.8709498842
 31
0.0
  0
LINE
  5
F8
330
1F
100
AcDbEntity
  8
0
  6
Continuous
 62
     7
370
    15
100
AcDbLine
 10
345.295551804
 20
495.1709503133
 30
0.0
 11
346.3989529881
 21
495.1709503133
 31
0.0
  0
LINE
  5
F9
330
1F
100
AcDbEntity
  8
0
  6
Continuous
 62
     7
370
    15
100
AcDbLine
 10
343.1955609593
 20
495.1709503133
 30
0.0
 11
345.295551804
 21
495.1709503133
 31
0.0
  0
LINE
  5
FA
330
1F
100
AcDbEntity
  8
0
  6
Continuous
 62
     7
370
    15
100
AcDbLine
 10
345.295551804
 20
494.7709435422
 30
0.0
 11
346.1590740952
 21
494.7709435422
 31
0.0
  0
LINE
  5
FB
330
1F
100
AcDbEntity
  8
0
  6
Continuous
 62
     7
370
    15
100
AcDbLine
 10
343.1955609593
 20
494.7709435422
 30
0.0
 11
345.295551804
 21
494.7709435422
 31
0.0
  0
ARC
  5
FC
330
1F
100
AcDbEntity
  8
0
  6
Continuous
 62
     7
370
    15
100
AcDbCircle
 10
342.1615059348
 20
510.7731048056
 30
0.0
 40
0.802903424659256
100
AcDbArc
 50
125.4743278821
 51
180.1540423808
  0
ARC
  5
FD
330
1F
100
AcDbEntity
  8
0
  6
Continuous
 62
     7
370
    15
100
AcDbCircle
 10
342.1615059348
 20
496.3687821835
 30
0.0
 40
0.8029034246592697
100
AcDbArc
 50
179.8459576192
 51
234.5256721179
  0
LINE
  5
FE
330
1F
100
AcDbEntity
  8
0
  6
Continuous
 62
     7
370
    15
100
AcDbLine
 10
342.1464596066
 20
496.8209409911
 30
0.0
 11
342.1464596066
 21
496.3709408243
 31
0.0
  0
LINE
  5
FF
330
1F
100
AcDbEntity
  8
0
  6
Continuous
 62
     7
370
    15
100
AcDbLine
 10
342.1464596066
 20
510.7709461648
 30
0.0
 11
342.1464596066
 21
510.3209459979
 31
0.0
  0
LINE
  5
100
330
1F
100
AcDbEntity
  8
0
  6
Continuous
 62
     7
370
    15
100
AcDbLine
 10
341.358605412
 20
496.3709408243
 30
0.0
 11
341.358605412
 21
497.5993925531
 31
0.0
  0
LINE
  5
101
330
1F
100
AcDbEntity
  8
0
  6
Continuous
 62
     7
370
    15
100
AcDbLine
 10
341.358605412
 20
509.542494436
 30
0.0
 11
341.358605412
 21
510.7709461648
 31
0.0
  0
LINE
  5
102
330
1F
100
AcDbEntity
  8
0
  6
Continuous
 62
     7
370
    15
100
AcDbLine
 10
341.1955569062
 20
28.8709396322
 30
0.0
 11
341.0907421383
 21
28.8709396322
 31
0.0
  0
LINE
  5
103
330
1F
100
AcDbEntity
  8
0
  6
Continuous
 62
     7
370
    15
100
AcDbLine
 10
341.1955569062
 20
37.4709511001
 30
0.0
 11
341.0907421383
 21
37.4709511001
 31
0.0
  0
LINE
  5
104
330
1F
100
AcDbEntity
  8
0
  6
Continuous
 62
     7
370
    15
100
AcDbLine
 10
346.5614352498
 20
26.3709420163
 30
0.0
 11
341.6955504689
 21
26.3709420163
 31
0.0
  0
LINE
  5
105
330
1F
100
AcDbEntity
  8
0
  6
Continuous
 62
     7
370
    15
100
AcDbLine
 10
346.5697202954
 20
25.5709433753
 30
0.0
 11
341.6961763176
 21
25.5709433753
 31
0.0
  0
LINE
  5
106
330
1F
100
AcDbEntity
  8
0
  6
Continuous
 62
     7
370
    15
100
AcDbLine
 10
346.5637002263
 20
40.7709473569
 30
0.0
 11
341.6955504689
 21
40.7709473569
 31
0.0
  0
LINE
  5
107
330
1F
100
AcDbEntity
  8
0
  6
Continuous
 62
     7
370
    15
100
AcDbLine
 10
346.5240333352
 20
41.5709459979
 30
0.0
 11
341.6961763176
 21
41.5709459979
 31
0.0
  0
LINE
  5
108
330
1F
100
AcDbEntity
  8
0
  6
Continuous
 62
     7
370
    15
100
AcDbLine
 10
345.295551804
 20
41.8709510763
 30
0.0
 11
346.4589152607
 21
41.8709510763
 31
0.0
  0
LINE
  5
109
330
1F
100
AcDbEntity
  8
0
  6
Continuous
 62
     7
370
    15
100
AcDbLine
 10
346.6220829758
 20
41.8709510763
 30
0.0
 11
346.6843996319
 21
41.8709510763
 31
0.0
  0
LINE
  5
10A
330
1F
100
AcDbEntity
  8
0
  6
Continuous
 62
     7
370
    15
100
AcDbLine
 10
343.0955741677
 20
41.8709510763
 30
0.0
 11
345.295551804
 21
41.8709510763
 31
0.0
  0
LINE
  5
10B
330
1F
100
AcDbEntity
  8
0
  6
Continuous
 62
     7
370
    15
100
AcDbLine
 10
345.295551804
 20
25.1709515054
 30
0.0
 11
346.3989529881
 21
25.1709515054
 31
0.0
  0
LINE
  5
10C
330
1F
100
AcDbEntity
  8
0
  6
Continuous
 62
     7
370
    15
100
AcDbLine
 10
343.1955609593
 20
25.1709515054
 30
0.0
 11
345.295551804
 21
25.1709515054
 31
0.0
  0
LINE
  5
10D
330
1F
100
AcDbEntity
  8
0
  6
Continuous
 62
     7
370
    15
100
AcDbLine
 10
345.295551804
 20
24.7709447343
 30
0.0
 11
346.1590740952
 21
24.7709447343
 31
0.0
  0
LINE
  5
10E
330
1F
100
AcDbEntity
  8
0
  6
Continuous
 62
     7
370
    15
100
AcDbLine
 10
343.1955609593
 20
24.7709447343
 30
0.0
 11
345.295551804
 21
24.7709447343
 31
0.0
  0
ARC
  5
10F
330
1F
100
AcDbEntity
  8
0
  6
Continuous
 62
     7
370
    15
100
AcDbCircle
 10
342.1615059348
 20
40.7731059977
 30
0.0
 40
0.8029034246592639
100
AcDbArc
 50
125.4743278821
 51
180.1540423808
  0
ARC
  5
110
330
1F
100
AcDbEntity
  8
0
  6
Continuous
 62
     7
370
    15
100
AcDbCircle
 10
342.1615059348
 20
26.3687833756
 30
0.0
 40
0.8029034246592639
100
AcDbArc
 50
179.8459576192
 51
234.5256721179
  0
LINE
  5
111
330
1F
100
AcDbEntity
  8
0
  6
Continuous
 62
     7
370
    15
100
AcDbLine
 10
342.1464596066
 20
26.8209421832
 30
0.0
 11
342.1464596066
 21
26.3709420163
 31
0.0
  0
LINE
  5
112
330
1F
100
AcDbEntity
  8
0
  6
Continuous
 62
     7
370
    15
100
AcDbLine
 10
342.1464596066
 20
40.7709473569
 30
0.0
 11
342.1464596066
 21
40.32094719
 31
0.0
  0
LINE
  5
113
330
1F
100
AcDbEntity
  8
0
  6
Continuous
 62
     7
370
    15
100
AcDbLine
 10
341.358605412
 20
39.5424956281
 30
0.0
 11
341.358605412
 21
40.7709473569
 31
0.0
  0
LINE
  5
114
330
1F
100
AcDbEntity
  8
0
  6
Continuous
 62
     7
370
    15
100
AcDbLine
 10
341.358605412
 20
26.3709420163
 30
0.0
 11
341.358605412
 21
27.5993937452
 31
0.0
  0
SPLINE
  5
115
330
1F
100
AcDbEntity
  8
0
  6
Continuous
 62
     7
370
    15
100
AcDbSpline
210
0.0
220
0.0
230
1.0
 70
    24
 71
     3
 72
    12
 73
     8
 74
     0
 42
0.00000001
 43
0.00000001
 40
0.0
 40
0.0
 40
0.0
 40
0.0
 40
0.2185040659699323
 40
0.4370095603324679
 40
0.6555189772202858
 40
0.8740247140736526
 40
1.0
 40
1.0
 40
1.0
 40
1.0
 10
348.3549092087327
 20
40.26333930085385
 30
0.0
 10
348.1581888175926
 20
40.26333930085388
 30
0.0
 10
347.7647467493226
 20
40.26333930085385
 30
0.0
 10
347.203998871089
 20
40.26333930085379
 30
0.0
 10
346.7863082814839
 20
40.26333930085394
 30
0.0
 10
346.5597382976201
 20
40.26333930085382
 30
0.0
 10
346.5772819451954
 20
40.26333930085382
 30
0.0
 10
346.5836975845872
 20
40.26333930085385
 30
0.0
  0
SPLINE
  5
116
330
1F
100
AcDbEntity
  8
0
  6
Continuous
 62
     7
370
    15
100
AcDbSpline
210
0.0
220
0.0
230
1.0
 70
    24
 71
     3
 72
     9
 73
     5
 74
     0
 42
0.00000001
 43
0.00000001
 40
0.0
 40
0.0
 40
0.0
 40
0.0
 40
0.1970282982560592
 40
0.9999999999999999
 40
0.9999999999999999
 40
0.9999999999999999
 40
0.9999999999999999
 10
348.995569733101
 20
40.26333930085385
 30
0.0
 10
348.9629124600395
 20
40.26333930085385
 30
0.0
 10
348.797163309534
 20
40.26333930085394
 30
0.0
 10
348.5518715501716
 20
40.26333930085379
 30
0.0
 10
348.3549092087327
 20
40.26333930085382
 30
0.0
  0
SPLINE
  5
117
330
1F
100
AcDbEntity
  8
0
  6
Continuous
 62
     7
370
    15
100
AcDbSpline
210
0.0
220
0.0
230
1.0
 70
     8
 71
     3
 72
    13
 73
     9
 74
     0
 42
0.00000001
 43
0.00000001
 40
0.0
 40
0.0
 40
0.0
 40
0.0
 40
0.187740000413576
 40
0.3754750840911282
 40
0.5632141125828769
 40
0.7509489806106309
 40
0.9386872804467359
 40
1.0
 40
1.0
 40
1.0
 40
1.0
 10
348.0616245541154
 20
43.87818219254697
 30
0.0
 10
347.8649274520276
 20
43.87548052709758
 30
0.0
 10
347.4715383991661
 20
43.87007726695288
 30
0.0
 10
346.9385255014134
 20
43.57953498551259
 30
0.0
 10
346.5480034083499
 20
43.12463912742445
 30
0.0
 10
346.3750546166956
 20
42.5629590864384
 30
0.0
 10
346.3783389360864
 20
42.08977266239403
 30
0.0
 10
346.5056541911168
 20
41.8683347905896
 30
0.0
 10
346.5369973454057
 20
41.81382002423489
 30
0.0
  0
SPLINE
  5
118
330
1F
100
AcDbEntity
  8
0
  6
Continuous
 62
     7
370
    15
100
AcDbSpline
210
0.0
220
0.0
230
1.0
 70
     8
 71
     3
 72
    10
 73
     6
 74
     0
 42
0.00000001
 43
0.00000001
 40
0.0
 40
0.0
 40
0.0
 40
0.0
 40
0.2093330610731358
 40
0.6046772709239069
 40
0.9999999999999999
 40
0.9999999999999999
 40
0.9999999999999999
 40
0.9999999999999999
 10
349.1987917694627
 20
43.0720591742822
 30
0.0
 10
349.157095076624
 20
43.16512296054595
 30
0.0
 10
349.0366504497551
 20
43.43394603135628
 30
0.0
 10
348.6299189351441
 20
43.7505781923555
 30
0.0
 10
348.251052583455
 20
43.83564829620898
 30
0.0
 10
348.0616245541154
 20
43.87818219254697
 30
0.0
  0
SPLINE
  5
119
330
1F
100
AcDbEntity
  8
0
  6
Continuous
 62
     7
370
    15
100
AcDbSpline
210
0.0
220
0.0
230
1.0
 70
     8
 71
     3
 72
    13
 73
     9
 74
     0
 42
0.00000001
 43
0.00000001
 40
0.0
 40
0.0
 40
0.0
 40
0.0
 40
0.1768655441741053
 40
0.3537268808725106
 40
0.5305919338987228
 40
0.7074573141850448
 40
0.8843216807598565
 40
1.0
 40
1.0
 40
1.0
 40
1.0
 10
348.0443988117754
 20
23.23499264310086
 30
0.0
 10
347.8477260593946
 20
23.23767862682105
 30
0.0
 10
347.4543852333048
 20
23.24305053036427
 30
0.0
 10
346.9210063140596
 20
23.53373943098036
 30
0.0
 10
346.5318753464483
 20
23.98809887842848
 30
0.0
 10
346.3537172086088
 20
24.55179805832122
 30
0.0
 10
346.3746831921051
 20
25.08494834437419
 30
0.0
 10
346.5407643328498
 20
25.35821965777707
 30
0.0
 10
346.6064367565691
 20
25.46627761910641
 30
0.0
  0
SPLINE
  5
11A
330
1F
100
AcDbEntity
  8
0
  6
Continuous
 62
     7
370
    15
100
AcDbSpline
210
0.0
220
0.0
230
1.0
 70
     8
 71
     3
 72
    10
 73
     6
 74
     0
 42
0.00000001
 43
0.00000001
 40
0.0
 40
0.0
 40
0.0
 40
0.0
 40
0.0588225777550384
 40
0.5294258028009099
 40
1.0
 40
1.0
 40
1.0
 40
1.0
 10
349.074516085106
 20
23.83489849160397
 30
0.0
 10
349.0638815898731
 20
23.81341750041235
 30
0.0
 10
348.9681670463944
 20
23.62008032545973
 30
0.0
 10
348.6072720004103
 20
23.36592217476255
 30
0.0
 10
348.2320193501326
 20
23.27863492294865
 30
0.0
 10
348.0443988117754
 20
23.23499264310086
 30
0.0
  0
SPLINE
  5
11B
330
1F
100
AcDbEntity
  8
0
  6
Continuous
 62
     7
370
    15
100
AcDbSpline
210
0.0
220
0.0
230
1.0
 70
    24
 71
     3
 72
    12
 73
     8
 74
     0
 42
0.00000001
 43
0.00000001
 40
0.0
 40
0.0
 40
0.0
 40
0.0
 40
0.2193534179877733
 40
0.4387082699204865
 40
0.6580670596258174
 40
0.8774221549919532
 40
1.0
 40
1.0
 40
1.0
 40
1.0
 10
348.3549092087327
 20
26.70471312592709
 30
0.0
 10
348.1581935036277
 20
26.70471312592709
 30
0.0
 10
347.7647608074589
 20
26.70471312592709
 30
0.0
 10
347.2039426376941
 20
26.70471312592709
 30
0.0
 10
346.7865191593966
 20
26.70471312592706
 30
0.0
 10
346.5606561013273
 20
26.70471312592712
 30
0.0
 10
346.5776611379413
 20
26.70471312592706
 30
0.0
 10
346.583757189232
 20
26.70471312592706
 30
0.0
  0
SPLINE
  5
11C
330
1F
100
AcDbEntity
  8
0
  6
Continuous
 62
     7
370
    15
100
AcDbSpline
210
0.0
220
0.0
230
1.0
 70
    24
 71
     3
 72
     9
 73
     5
 74
     0
 42
0.00000001
 43
0.00000001
 40
0.0
 40
0.0
 40
0.0
 40
0.0
 40
0.1970282982560592
 40
0.9999999999999999
 40
0.9999999999999999
 40
0.9999999999999999
 40
0.9999999999999999
 10
348.995569733101
 20
26.70471312592709
 30
0.0
 10
348.9629124600395
 20
26.70471312592706
 30
0.0
 10
348.797163309534
 20
26.7047131259272
 30
0.0
 10
348.5518715501716
 20
26.70471312592706
 30
0.0
 10
348.3549092087327
 20
26.70471312592706
 30
0.0
  0
SPLINE
  5
11D
330
1F
100
AcDbEntity
  8
0
  6
Continuous
 62
     7
370
    15
100
AcDbSpline
210
0.0
220
0.0
230
1.0
 70
     8
 71
     3
 72
    13
 73
     9
 74
     0
 42
0.00000001
 43
0.00000001
 40
0.0
 40
0.0
 40
0.0
 40
0.0
 40
0.1768576985124456
 40
0.3537276817053297
 40
0.5305875817102148
 40
0.7074521439525769
 40
0.8843171741316485
 40
0.9999999999999999
 40
0.9999999999999999
 40
0.9999999999999999
 40
0.9999999999999999
 10
346.4925322804033
 20
46.49460258076871
 30
0.0
 10
346.2958714911717
 20
46.49190661256408
 30
0.0
 10
345.9025362524895
 20
46.4865144888908
 30
0.0
 10
345.3691400531321
 20
46.19586226417105
 30
0.0
 10
344.9800543963513
 20
45.74146633074219
 30
0.0
 10
344.8018402954959
 20
45.17780247786274
 30
0.0
 10
344.8228094272305
 20
44.64463665624663
 30
0.0
 10
344.9889161070327
 20
44.37137431727192
 30
0.0
 10
345.0546000275193
 20
44.26331760476312
 30
0.0
  0
SPLINE
  5
11E
330
1F
100
AcDbEntity
  8
0
  6
Continuous
 62
     7
370
    15
100
AcDbSpline
210
0.0
220
0.0
230
1.0
 70
     8
 71
     3
 72
    10
 73
     6
 74
     0
 42
0.00000001
 43
0.00000001
 40
0.0
 40
0.0
 40
0.0
 40
0.0
 40
0.1474521529467936
 40
0.5737191691814364
 40
0.9999999999999999
 40
0.9999999999999999
 40
0.9999999999999999
 40
0.9999999999999999
 10
347.5811217102586
 20
45.78207375596249
 30
0.0
 10
347.5530647269119
 20
45.84236572321129
 30
0.0
 10
347.4438982694971
 20
46.07695475203877
 30
0.0
 10
347.0588333783131
 20
46.36577150262061
 30
0.0
 10
346.6813013522012
 20
46.45165842415216
 30
0.0
 10
346.4925322804033
 20
46.49460258076871
 30
0.0
  0
SPLINE
  5
11F
330
1F
100
AcDbEntity
  8
0
  6
Continuous
 62
     7
370
    15
100
AcDbSpline
210
0.0
220
0.0
230
1.0
 70
     8
 71
     3
 72
    13
 73
     9
 74
     0
 42
0.00000001
 43
0.00000001
 40
0.0
 40
0.0
 40
0.0
 40
0.0
 40
0.176864633472472
 40
0.3537305340050581
 40
0.5305884352945769
 40
0.7074546700740902
 40
0.8843184814774159
 40
1.0
 40
1.0
 40
1.0
 40
1.0
 10
346.4753363403856
 20
20.61857225487912
 30
0.0
 10
346.278665983891
 20
20.62126801095493
 30
0.0
 10
345.8853238619532
 20
20.62665954241899
 30
0.0
 10
345.3519106516959
 20
20.91729521920213
 30
0.0
 10
344.962825642376
 20
21.37169666242905
 30
0.0
 10
344.7846159634636
 20
21.93537104150706
 30
0.0
 10
344.8055830294531
 20
22.46853673271085
 30
0.0
 10
344.9716903044599
 20
22.74180031488271
 30
0.0
 10
345.0373742851793
 20
22.84985723088467
 30
0.0
  0
SPLINE
  5
120
330
1F
100
AcDbEntity
  8
0
  6
Continuous
 62
     7
370
    15
100
AcDbSpline
210
0.0
220
0.0
230
1.0
 70
     8
 71
     3
 72
    10
 73
     6
 74
     0
 42
0.00000001
 43
0.00000001
 40
0.0
 40
0.0
 40
0.0
 40
0.0
 40
0.1474663158648042
 40
0.5737321298533076
 40
1.0
 40
1.0
 40
1.0
 40
1.0
 10
347.5638959679185
 20
21.33110107968533
 30
0.0
 10
347.5358398862266
 20
21.27080369321491
 30
0.0
 10
347.4266849554205
 20
21.03621081170587
 30
0.0
 10
347.0416061021946
 20
20.7474120202287
 30
0.0
 10
346.664093231153
 20
20.66151891238191
 30
0.0
 10
346.4753363403855
 20
20.61857225487909
 30
0.0
  0
LINE
  5
121
330
1F
100
AcDbEntity
  8
0
  6
Continuous
 62
     7
370
    15
100
AcDbLine
 10
851.0969314847
 20
23.5709393222
 30
0.0
 11
851.0969314847
 21
-11.4290571015
 31
0.0
  0
LINE
  5
122
330
1F
100
AcDbEntity
  8
0
  6
Continuous
 62
     7
370
    15
100
AcDbLine
 10
861.6955611977
 20
-11.4290571015
 30
0.0
 11
851.0969314847
 21
-11.4290571015
 31
0.0
  0
LINE
  5
123
330
1F
100
AcDbEntity
  8
0
  6
Continuous
 62
     7
370
    15
100
AcDbLine
 10
861.6955611977
 20
23.5709393222
 30
0.0
 11
851.0969314847
 21
23.5709393222
 31
0.0
  0
LINE
  5
124
330
1F
100
AcDbEntity
  8
0
  6
Continuous
 62
     7
370
    15
100
AcDbLine
 10
851.0969314847
 20
548.5709452827
 30
0.0
 11
851.0969314847
 21
513.570948859
 31
0.0
  0
LINE
  5
125
330
1F
100
AcDbEntity
  8
0
  6
Continuous
 62
     7
370
    15
100
AcDbLine
 10
861.6955611977
 20
548.5709452827
 30
0.0
 11
851.0969314847
 21
548.5709452827
 31
0.0
  0
LINE
  5
126
330
1F
100
AcDbEntity
  8
0
  6
Continuous
 62
     7
370
    15
100
AcDbLine
 10
861.6955611977
 20
513.570948859
 30
0.0
 11
851.0969314847
 21
513.570948859
 31
0.0
  0
LINE
  5
127
330
1F
100
AcDbEntity
  8
0
  6
Continuous
 62
     7
370
    15
100
AcDbLine
 10
858.6955700192
 20
60.5709397991
 30
0.0
 11
853.6955747876
 21
60.5709397991
 31
0.0
  0
LINE
  5
128
330
1F
100
AcDbEntity
  8
0
  6
Continuous
 62
     7
370
    15
100
AcDbLine
 10
853.6955747876
 20
476.5709483821
 30
0.0
 11
858.6955700192
 21
476.5709483821
 31
0.0
  0
LINE
  5
129
330
1F
100
AcDbEntity
  8
0
  6
Continuous
 62
     7
370
    15
100
AcDbLine
 10
850.6334159646
 20
-11.4290571015
 30
0.0
 11
850.6334159646
 21
23.5709393222
 31
0.0
  0
LINE
  5
12A
330
1F
100
AcDbEntity
  8
0
  6
Continuous
 62
     7
370
    15
100
AcDbLine
 10
851.0969314847
 20
-11.4290571015
 30
0.0
 11
850.6334159646
 21
-11.4290571015
 31
0.0
  0
LINE
  5
12B
330
1F
100
AcDbEntity
  8
0
  6
Continuous
 62
     7
370
    15
100
AcDbLine
 10
850.6334159646
 20
23.5709393222
 30
0.0
 11
851.0969314847
 21
23.5709393222
 31
0.0
  0
LINE
  5
12C
330
1F
100
AcDbEntity
  8
0
  6
Continuous
 62
     7
370
    15
100
AcDbLine
 10
850.6334159646
 20
513.570948859
 30
0.0
 11
850.6334159646
 21
548.5709452827
 31
0.0
  0
LINE
  5
12D
330
1F
100
AcDbEntity
  8
0
  6
Continuous
 62
     7
370
    15
100
AcDbLine
 10
850.6334159646
 20
548.5709452827
 30
0.0
 11
851.0969314847
 21
548.5709452827
 31
0.0
  0
LINE
  5
12E
330
1F
100
AcDbEntity
  8
0
  6
Continuous
 62
     7
370
    15
100
AcDbLine
 10
851.0969314847
 20
513.570948859
 30
0.0
 11
850.6334159646
 21
513.570948859
 31
0.0
  0
LINE
  5
12F
330
1F
100
AcDbEntity
  8
0
  6
Continuous
 62
     7
370
    15
100
AcDbLine
 10
850.6334159646
 20
548.5709452827
 30
0.0
 11
850.195560244
 21
548.5709452827
 31
0.0
  0
LINE
  5
130
330
1F
100
AcDbEntity
  8
0
  6
Continuous
 62
     7
370
    15
100
AcDbLine
 10
850.6334159646
 20
513.570948859
 30
0.0
 11
850.195560244
 21
513.570948859
 31
0.0
  0
LINE
  5
131
330
1F
100
AcDbEntity
  8
0
  6
Continuous
 62
     7
370
    15
100
AcDbLine
 10
850.6334159646
 20
-11.4290571015
 30
0.0
 11
850.195560244
 21
-11.4290571015
 31
0.0
  0
LINE
  5
132
330
1F
100
AcDbEntity
  8
0
  6
Continuous
 62
     7
370
    15
100
AcDbLine
 10
850.6334159646
 20
23.5709393222
 30
0.0
 11
850.195560244
 21
23.5709393222
 31
0.0
  0
LINE
  5
133
330
1F
100
AcDbEntity
  8
0
  6
Continuous
 62
     7
370
    15
100
AcDbLine
 10
344.9955616269
 20
26.8209421832
 30
0.0
 11
346.5550873551
 21
26.8209421832
 31
0.0
  0
LINE
  5
134
330
1F
100
AcDbEntity
  8
0
  6
Continuous
 62
     7
370
    15
100
AcDbLine
 10
344.9955616269
 20
40.32094719
 30
0.0
 11
346.5556237969
 21
40.32094719
 31
0.0
  0
LINE
  5
135
330
1F
100
AcDbEntity
  8
0
  6
Continuous
 62
     7
370
    15
100
AcDbLine
 10
344.9955616269
 20
40.32094719
 30
0.0
 11
341.8955538544
 21
40.32094719
 31
0.0
  0
LINE
  5
136
330
1F
100
AcDbEntity
  8
0
  6
Continuous
 62
     7
370
    15
100
AcDbLine
 10
344.9955616269
 20
26.8209421832
 30
0.0
 11
341.8955538544
 21
26.8209421832
 31
0.0
  0
LINE
  5
137
330
1F
100
AcDbEntity
  8
0
  6
Continuous
 62
     7
370
    15
100
AcDbLine
 10
344.9955616269
 20
496.8209409911
 30
0.0
 11
346.5550873551
 21
496.8209409911
 31
0.0
  0
LINE
  5
138
330
1F
100
AcDbEntity
  8
0
  6
Continuous
 62
     7
370
    15
100
AcDbLine
 10
344.9955616269
 20
510.3209459979
 30
0.0
 11
346.5556237969
 21
510.3209459979
 31
0.0
  0
LINE
  5
139
330
1F
100
AcDbEntity
  8
0
  6
Continuous
 62
     7
370
    15
100
AcDbLine
 10
344.9955616269
 20
496.8209409911
 30
0.0
 11
341.8955538544
 21
496.8209409911
 31
0.0
  0
LINE
  5
13A
330
1F
100
AcDbEntity
  8
0
  6
Continuous
 62
     7
370
    15
100
AcDbLine
 10
344.9955616269
 20
510.3209459979
 30
0.0
 11
341.8955538544
 21
510.3209459979
 31
0.0
  0
LINE
  5
13B
330
1F
100
AcDbEntity
  8
0
  6
Continuous
 62
     8
370
    15
100
AcDbLine
 10
344.9955616269
 20
27.0709389646
 30
0.0
 11
344.9955616269
 21
26.8209421832
 31
0.0
  0
LINE
  5
13C
330
1F
100
AcDbEntity
  8
0
  6
Continuous
 62
     8
370
    15
100
AcDbLine
 10
344.9955616269
 20
40.32094719
 30
0.0
 11
344.9955616269
 21
40.0709504087
 31
0.0
  0
LINE
  5
13D
330
1F
100
AcDbEntity
  8
0
  6
Continuous
 62
     8
370
    15
100
AcDbLine
 10
344.9955616269
 20
497.0709377725
 30
0.0
 11
344.9955616269
 21
496.8209409911
 31
0.0
  0
LINE
  5
13E
330
1F
100
AcDbEntity
  8
0
  6
Continuous
 62
     8
370
    15
100
AcDbLine
 10
344.9955616269
 20
510.3209459979
 30
0.0
 11
344.9955616269
 21
510.0709492166
 31
0.0
  0
LINE
  5
13F
330
1F
100
AcDbEntity
  8
0
  6
Continuous
 62
     7
370
    15
100
AcDbLine
 10
264.0063101457
 20
40.0709504087
 30
0.0
 11
264.0063101457
 21
27.0709389646
 31
0.0
  0
LINE
  5
140
330
1F
100
AcDbEntity
  8
0
  6
Continuous
 62
     7
370
    15
100
AcDbLine
 10
264.0063101457
 20
510.0709492166
 30
0.0
 11
264.0063101457
 21
497.0709377725
 31
0.0
  0
SPLINE
  5
141
330
1F
100
AcDbEntity
  8
0
  6
Continuous
 62
     7
370
    15
100
AcDbSpline
210
0.0
220
0.0
230
1.0
 70
     8
 71
     3
 72
    15
 73
    11
 74
     0
 42
0.00000001
 43
0.00000001
 40
0.0
 40
0.0
 40
0.0
 40
0.0
 40
0.1355968094159872
 40
0.2953258255326759
 40
0.4038108321524486
 40
0.5319578481223808
 40
0.6738362643981046
 40
0.8261010483111174
 40
0.9126193603842679
 40
1.0
 40
1.0
 40
1.0
 40
1.0
 10
252.9863053963633
 20
498.1369966466256
 30
0.0
 10
253.0306876212159
 20
498.1296700130213
 30
0.0
 10
253.1273507893984
 20
498.1137128225319
 30
0.0
 10
253.3342013102616
 20
498.1613895221224
 30
0.0
 10
253.5274579065398
 20
498.2491041588921
 30
0.0
 10
253.6740458680834
 20
498.3687720481263
 30
0.0
 10
253.7727529445558
 20
498.5196800193827
 30
0.0
 10
253.8024092990559
 20
498.6415079910236
 30
0.0
 10
253.7812399700268
 20
498.7707590685952
 30
0.0
 10
253.7349822019627
 20
498.8374351055289
 30
0.0
 10
253.7117386267634
 20
498.8709384400674
 30
0.0
  0
SPLINE
  5
142
330
1F
100
AcDbEntity
  8
0
  6
Continuous
 62
     7
370
    15
100
AcDbSpline
210
0.0
220
0.0
230
1.0
 70
     8
 71
     3
 72
    20
 73
    16
 74
     0
 42
0.00000001
 43
0.00000001
 40
0.0
 40
0.0
 40
0.0
 40
0.0
 40
0.0607080703525387
 40
0.2265356748708075
 40
0.3908031508966114
 40
0.47059448168422
 40
0.5476204260356007
 40
0.6228574358877381
 40
0.7003372698834802
 40
0.7786473610714315
 40
0.8566576136431394
 40
0.9330986217031314
 40
0.9703734372930525
 40
0.9892322546654578
 40
1.0
 40
1.0
 40
1.0
 40
1.0
 10
249.2501074479075
 20
498.8709384400674
 30
0.0
 10
249.2963823163105
 20
498.8176069944271
 30
0.0
 10
249.4690596635291
 20
498.6185976212121
 30
0.0
 10
249.8860180873728
 20
498.6006707632561
 30
0.0
 10
250.4509870735617
 20
498.5256455119711
 30
0.0
 10
250.9705973889824
 20
498.4827078054241
 30
0.0
 10
251.3644884680374
 20
498.4521472298931
 30
0.0
 10
251.7574002939013
 20
498.4244752318643
 30
0.0
 10
252.1385616714276
 20
498.3931665895113
 30
0.0
 10
252.4942856754286
 20
498.3606842603822
 30
0.0
 10
252.7969087662762
 20
498.3298823194313
 30
0.0
 10
252.9894257969933
 20
498.306946802177
 30
0.0
 10
253.0775408724826
 20
498.2989404607768
 30
0.0
 10
253.1229679925634
 20
498.2911452935937
 30
0.0
 10
253.1224185734527
 20
498.2951044338585
 30
0.0
 10
253.1222188876124
 20
498.2965433795281
 30
0.0
  0
SPLINE
  5
143
330
1F
100
AcDbEntity
  8
0
  6
Continuous
 62
     7
370
    15
100
AcDbSpline
210
0.0
220
0.0
230
1.0
 70
     8
 71
     3
 72
    18
 73
    14
 74
     0
 42
0.00000001
 43
0.00000001
 40
0.0
 40
0.0
 40
0.0
 40
0.0
 40
0.0057509055707785
 40
0.1156365942108736
 40
0.2383917546761024
 40
0.3593077580000205
 40
0.4757061783838784
 40
0.5872136758512743
 40
0.7047343241619957
 40
0.8265029199285094
 40
0.8891450723957606
 40
0.9517986371317534
 40
1.0
 40
1.0
 40
1.0
 40
1.0
 10
253.492929975793
 20
507.5177693564721
 30
0.0
 10
253.4882827427848
 20
507.5207215523237
 30
0.0
 10
253.3948382946096
 20
507.5800829641053
 30
0.0
 10
253.1725319882199
 20
507.5862610237893
 30
0.0
 10
252.7811335959976
 20
507.6454635069722
 30
0.0
 10
252.2692554913649
 20
507.6910003060162
 30
0.0
 10
251.7182233491233
 20
507.7371670740864
 30
0.0
 10
251.1561073318987
 20
507.7760467373802
 30
0.0
 10
250.6218246365966
 20
507.8207993907354
 30
0.0
 10
250.2242054105149
 20
507.8618411208145
 30
0.0
 10
250.0094551503559
 20
507.8829877088988
 30
0.0
 10
249.9134112803987
 20
507.8852633481418
 30
0.0
 10
249.8979622684374
 20
507.8691856272542
 30
0.0
 10
249.891244809434
 20
507.8621947963067
 30
0.0
  0
SPLINE
  5
144
330
1F
100
AcDbEntity
  8
0
  6
Continuous
 62
     7
370
    15
100
AcDbSpline
210
0.0
220
0.0
230
1.0
 70
     8
 71
     3
 72
    12
 73
     8
 74
     0
 42
0.00000001
 43
0.00000001
 40
0.0
 40
0.0
 40
0.0
 40
0.0
 40
0.2236856461433282
 40
0.4523148238296191
 40
0.6822432155678899
 40
0.9102240357126269
 40
1.0
 40
1.0
 40
1.0
 40
1.0
 10
249.1920078204127
 20
508.6727881629296
 30
0.0
 10
249.1792742401112
 20
508.6302458247251
 30
0.0
 10
249.1535256628999
 20
508.5442209476619
 30
0.0
 10
249.2746531342103
 20
508.4525968501088
 30
0.0
 10
249.5063247756204
 20
508.3562747386446
 30
0.0
 10
249.7511858375998
 20
508.2937972256713
 30
0.0
 10
249.9345174551741
 20
508.299021527395
 30
0.0
 10
249.9863142178508
 20
508.3004975516625
 30
0.0
  0
SPLINE
  5
145
330
1F
100
AcDbEntity
  8
0
  6
Continuous
 62
     7
370
    15
100
AcDbSpline
210
0.0
220
0.0
230
1.0
 70
     8
 71
     3
 72
    19
 73
    15
 74
     0
 42
0.00000001
 43
0.00000001
 40
0.0
 40
0.0
 40
0.0
 40
0.0
 40
0.097905977869173
 40
0.1753775654027706
 40
0.2884833862077044
 40
0.3734530538408342
 40
0.457003849334798
 40
0.6168875763003917
 40
0.6796676181815964
 40
0.7634259759140002
 40
0.8137554787824096
 40
0.8702986533489111
 40
0.9324008203992511
 40
1.0
 40
1.0
 40
1.0
 40
1.0
 10
249.3682438538524
 20
508.1776672799416
 30
0.0
 10
249.4187516562894
 20
508.1512865529093
 30
0.0
 10
249.5092255539824
 20
508.1040311372423
 30
0.0
 10
249.8838858834006
 20
508.0433775247011
 30
0.0
 10
250.3703736513241
 20
507.9895176645988
 30
0.0
 10
250.9617158423316
 20
507.9362616668305
 30
0.0
 10
251.7158120892711
 20
507.8847212358089
 30
0.0
 10
252.3569208657348
 20
507.8177791944227
 30
0.0
 10
253.0061767214316
 20
507.7822623146636
 30
0.0
 10
253.3845219651217
 20
507.860441885119
 30
0.0
 10
253.6363640386921
 20
507.9686531096694
 30
0.0
 10
253.7699549097865
 20
508.0569657720869
 30
0.0
 10
253.8317289059572
 20
508.1308344239175
 30
0.0
 10
253.7602846921325
 20
508.2113444631675
 30
0.0
 10
253.7230486081096
 20
508.2533055741616
 30
0.0
  0
SPLINE
  5
146
330
1F
100
AcDbEntity
  8
0
  6
Continuous
 62
     7
370
    15
100
AcDbSpline
210
0.0
220
0.0
230
1.0
 70
     8
 71
     3
 72
    25
 73
    21
 74
     0
 42
0.00000001
 43
0.00000001
 40
0.0
 40
0.0
 40
0.0
 40
0.0
 40
0.0176277400777026
 40
0.0344974471927469
 40
0.0503153382275186
 40
0.0649737135449916
 40
0.0909443018358285
 40
0.1134369782390388
 40
0.1538397550598297
 40
0.1912345757983016
 40
0.2995706196256623
 40
0.3999631770949679
 40
0.5012952319043674
 40
0.5949054737298676
 40
0.6784866877725623
 40
0.7336286859924962
 40
0.8075184565227767
 40
0.8952815302365669
 40
0.9453088658508103
 40
1.0
 40
1.0
 40
1.0
 40
1.0
 10
253.3657336638423
 20
507.6277250249216
 30
0.0
 10
253.4054435845115
 20
507.6321137778821
 30
0.0
 10
253.4831558088395
 20
507.6407025574324
 30
0.0
 10
253.5850423199815
 20
507.6867261657271
 30
0.0
 10
253.6660470164596
 20
507.7456681220639
 30
0.0
 10
253.7422527737986
 20
507.8292691581092
 30
0.0
 10
253.7952989507261
 20
507.9328840890523
 30
0.0
 10
253.8194767348386
 20
508.0652471121239
 30
0.0
 10
253.7965678436939
 20
508.197091442614
 30
0.0
 10
253.6253419773311
 20
508.4423291339816
 30
0.0
 10
253.2825465835782
 20
508.5293859140447
 30
0.0
 10
252.7874355657392
 20
508.5879500311214
 30
0.0
 10
252.1742241258054
 20
508.6463135018696
 30
0.0
 10
251.5247522105961
 20
508.6959398835669
 30
0.0
 10
250.9850592875001
 20
508.7354037880535
 30
0.0
 10
250.5390340590531
 20
508.7745854429351
 30
0.0
 10
250.1503449579782
 20
508.812804744531
 30
0.0
 10
249.8901697076015
 20
508.8406689638288
 30
0.0
 10
249.7597377840108
 20
508.8631511422734
 30
0.0
 10
249.7510775169477
 20
508.8756118454677
 30
0.0
 10
249.7465545342418
 20
508.8821196753809
 30
0.0
  0
SPLINE
  5
147
330
1F
100
AcDbEntity
  8
0
  6
Continuous
 62
     7
370
    15
100
AcDbSpline
210
0.0
220
0.0
230
1.0
 70
     8
 71
     3
 72
    12
 73
     8
 74
     0
 42
0.00000001
 43
0.00000001
 40
0.0
 40
0.0
 40
0.0
 40
0.0
 40
0.1756405672915775
 40
0.5723030121284147
 40
0.7586193462968064
 40
0.9207477118529684
 40
0.9999999999999999
 40
0.9999999999999999
 40
0.9999999999999999
 40
0.9999999999999999
 10
249.8348737166377
 20
508.0636286933251
 30
0.0
 10
249.7693164004185
 20
508.0544577106202
 30
0.0
 10
249.5557060134911
 20
508.0245752005191
 30
0.0
 10
249.3397514031644
 20
507.9506477991692
 30
0.0
 10
249.1786343172363
 20
507.7357236045377
 30
0.0
 10
249.1474033873392
 20
507.5754792423048
 30
0.0
 10
249.1783801718364
 20
507.4968317661853
 30
0.0
 10
249.1885507510158
 20
507.4710095126459
 30
0.0
  0
LINE
  5
148
330
1F
100
AcDbEntity
  8
0
  6
Continuous
 62
     7
370
    15
100
AcDbLine
 10
249.346070926
 20
498.7732017238
 30
0.0
 11
248.2276046679
 21
498.7732017238
 31
0.0
  0
LINE
  5
149
330
1F
100
AcDbEntity
  8
0
  6
Continuous
 62
     7
370
    15
100
AcDbLine
 10
248.2276046679
 20
497.9732030828
 30
0.0
 11
249.9863142179
 21
497.9732030828
 31
0.0
  0
LINE
  5
14A
330
1F
100
AcDbEntity
  8
0
  6
Continuous
 62
     7
370
    15
100
AcDbLine
 10
246.8173140691
 20
511.5709448058
 30
0.0
 11
246.8173140691
 21
511.6244101722
 31
0.0
  0
LINE
  5
14B
330
1F
100
AcDbEntity
  8
0
  6
Continuous
 62
     7
370
    15
100
AcDbLine
 10
243.8173228906
 20
511.6244101722
 30
0.0
 11
243.8173228906
 21
511.5709448058
 31
0.0
  0
SPLINE
  5
14C
330
1F
100
AcDbEntity
  8
0
  6
Continuous
 62
     7
370
    15
100
AcDbSpline
210
0.0
220
0.0
230
1.0
 70
     8
 71
     3
 72
    15
 73
    11
 74
     0
 42
0.00000001
 43
0.00000001
 40
0.0
 40
0.0
 40
0.0
 40
0.0
 40
0.1077555984635169
 40
0.23525132098926
 40
0.3627905294629136
 40
0.4902569079919491
 40
0.6176632052480955
 40
0.745097043409137
 40
0.8724966518631685
 40
1.0
 40
1.0
 40
1.0
 40
1.0
 10
243.8333714411708
 20
495.5709421832391
 30
0.0
 10
243.8499105697919
 20
495.2584199383658
 30
0.0
 10
243.8860186877145
 20
494.5761234081316
 30
0.0
 10
244.2222313825024
 20
493.5669755151232
 30
0.0
 10
244.7803109100991
 20
492.6034967904221
 30
0.0
 10
245.5351361594842
 20
491.7825692959835
 30
0.0
 10
246.450300259295
 20
491.1473038493372
 30
0.0
 10
247.4775557165255
 20
490.7271429979197
 30
0.0
 10
248.5735333652101
 20
490.513341967325
 30
0.0
 10
249.309293802061
 20
490.5788664486731
 30
0.0
 10
249.6773237393352
 20
490.6116420228311
 30
0.0
  0
SPLINE
  5
14D
330
1F
100
AcDbEntity
  8
0
  6
Continuous
 62
     7
370
    15
100
AcDbSpline
210
0.0
220
0.0
230
1.0
 70
     8
 71
     3
 72
    15
 73
    11
 74
     0
 42
0.00000001
 43
0.00000001
 40
0.0
 40
0.0
 40
0.0
 40
0.0
 40
0.1316521354348152
 40
0.2633118201212764
 40
0.3951917953559327
 40
0.526671388426647
 40
0.65754729503632
 40
0.7882158253461952
 40
0.9184607471072531
 40
1.0
 40
1.0
 40
1.0
 40
1.0
 10
249.1796398566218
 20
493.5693288047143
 30
0.0
 10
249.0274566943142
 20
493.5575136188288
 30
0.0
 10
248.7230816431487
 20
493.5338825695465
 30
0.0
 10
248.2722108949222
 20
493.6353576153372
 30
0.0
 10
247.8531863829706
 20
493.8222232810744
 30
0.0
 10
247.4827873669236
 20
494.0948107241569
 30
0.0
 10
247.1805350627085
 20
494.440731792658
 30
0.0
 10
246.9613667544173
 20
494.8424307949368
 30
0.0
 10
246.8440089940642
 20
495.228746706276
 30
0.0
 10
246.8338260835983
 20
495.4758172770281
 30
0.0
 10
246.8299055502864
 20
495.5709421832391
 30
0.0
  0
SPLINE
  5
14E
330
1F
100
AcDbEntity
  8
0
  6
Continuous
 62
     7
370
    15
100
AcDbSpline
210
0.0
220
0.0
230
1.0
 70
     8
 71
     3
 72
    15
 73
    11
 74
     0
 42
0.00000001
 43
0.00000001
 40
0.0
 40
0.0
 40
0.0
 40
0.0
 40
0.1249272078069247
 40
0.2499157485592948
 40
0.3749662286529669
 40
0.4999575604502636
 40
0.6249202964107985
 40
0.7499168349327715
 40
0.8748745705603984
 40
1.0
 40
1.0
 40
1.0
 40
1.0
 10
249.848195354745
 20
516.5014708239862
 30
0.0
 10
249.481818710661
 20
516.5448033979873
 30
0.0
 10
248.7488855500768
 20
516.6314898200931
 30
0.0
 10
247.6448623593759
 20
516.4662908428047
 30
0.0
 10
246.6040608084417
 20
516.077367895252
 30
0.0
 10
245.6688720696764
 20
515.4723483453552
 30
0.0
 10
244.8882342608509
 20
514.6761488184343
 30
0.0
 10
244.3002569091963
 20
513.7317944015365
 30
0.0
 10
243.9044383358932
 20
512.6833448282995
 30
0.0
 10
243.8463743506518
 20
511.9442246665799
 30
0.0
 10
243.817322890565
 20
511.5744167764016
 30
0.0
  0
SPLINE
  5
14F
330
1F
100
AcDbEntity
  8
0
  6
Continuous
 62
     7
370
    15
100
AcDbSpline
210
0.0
220
0.0
230
1.0
 70
     8
 71
     3
 72
    15
 73
    11
 74
     0
 42
0.00000001
 43
0.00000001
 40
0.0
 40
0.0
 40
0.0
 40
0.0
 40
0.1242509140045811
 40
0.2486326179325958
 40
0.3735412406986008
 40
0.4985814846812553
 40
0.6236640608718481
 40
0.7490707212300203
 40
0.8744364065825835
 40
0.9999999999999999
 40
0.9999999999999999
 40
0.9999999999999999
 40
0.9999999999999999
 10
246.8173140690776
 20
511.5744167764016
 30
0.0
 10
246.8308783746716
 20
511.7263695645495
 30
0.0
 10
246.8580212640203
 20
512.030435090522
 30
0.0
 10
247.0324713050872
 20
512.4577528418031
 30
0.0
 10
247.2858060928515
 20
512.8393946914703
 30
0.0
 10
247.6156245739174
 20
513.1593305912581
 30
0.0
 10
248.0065562555738
 20
513.399898824527
 30
0.0
 10
248.4392485887438
 20
513.5515374741262
 30
0.0
 10
248.8967857141191
 20
513.604969529452
 30
0.0
 10
249.1987034072431
 20
513.564289240483
 30
0.0
 10
249.3497813151332
 20
513.5439330537148
 30
0.0
  0
LINE
  5
150
330
1F
100
AcDbEntity
  8
0
  6
Continuous
 62
     7
370
    15
100
AcDbLine
 10
264.7203737901
 20
496.1860770185
 30
0.0
 11
249.1794163392
 21
493.5696566303
 31
0.0
  0
LINE
  5
151
330
1F
100
AcDbEntity
  8
0
  6
Continuous
 62
     7
370
    15
100
AcDbLine
 10
249.6774727509
 20
490.6112992961
 30
0.0
 11
265.218445103
 21
493.2277196843
 31
0.0
  0
LINE
  5
152
330
1F
100
AcDbEntity
  8
0
  6
Continuous
 62
     7
370
    15
100
AcDbLine
 10
249.3499899314
 20
513.54350092
 30
0.0
 11
264.8909622834
 21
510.927095433
 31
0.0
  0
LINE
  5
153
330
1F
100
AcDbEntity
  8
0
  6
Continuous
 62
     7
370
    15
100
AcDbLine
 10
265.3890186952
 20
513.8854527671
 30
0.0
 11
249.8480612443
 21
516.5018731553
 31
0.0
  0
SPLINE
  5
154
330
1F
100
AcDbEntity
  8
0
  6
Continuous
 62
     7
370
    15
100
AcDbSpline
210
0.0
220
0.0
230
1.0
 70
     8
 71
     3
 72
    12
 73
     8
 74
     0
 42
0.00000001
 43
0.00000001
 40
0.0
 40
0.0
 40
0.0
 40
0.0
 40
0.1526135397173891
 40
0.2973904856902686
 40
0.5623705157137553
 40
0.7966016097880517
 40
1.0
 40
1.0
 40
1.0
 40
1.0
 10
265.2180874751064
 20
493.2280177075692
 30
0.0
 10
265.4693072246342
 20
493.2807554246631
 30
0.0
 10
265.9588467731268
 20
493.3835228156155
 30
0.0
 10
266.8083673848711
 20
493.8127755988261
 30
0.0
 10
267.6203571266493
 20
494.5571697737138
 30
0.0
 10
268.1848071810313
 20
495.6282084907674
 30
0.0
 10
268.2664945823818
 20
496.3631369788467
 30
0.0
 10
268.3044606850597
 20
496.7047119338342
 30
0.0
  0
SPLINE
  5
155
330
1F
100
AcDbEntity
  8
0
  6
Continuous
 62
     7
370
    15
100
AcDbSpline
210
0.0
220
0.0
230
1.0
 70
     8
 71
     3
 72
    11
 73
     7
 74
     0
 42
0.00000001
 43
0.00000001
 40
0.0
 40
0.0
 40
0.0
 40
0.0
 40
0.2003641189614822
 40
0.4328060802232906
 40
0.699024866168115
 40
0.9999999999999999
 40
0.9999999999999999
 40
0.9999999999999999
 40
0.9999999999999999
 10
265.3061384366008
 20
496.7047119338342
 30
0.0
 10
265.2929117886967
 20
496.6482835389094
 30
0.0
 10
265.2643409364724
 20
496.5263926906516
 30
0.0
 10
265.1484461162669
 20
496.3606932163414
 30
0.0
 10
264.9637145102002
 20
496.2217755575003
 30
0.0
 10
264.8060878711867
 20
496.1983945059877
 30
0.0
 10
264.7224450514766
 20
496.1859876115151
 30
0.0
  0
SPLINE
  5
156
330
1F
100
AcDbEntity
  8
0
  6
Continuous
 62
     7
370
    15
100
AcDbSpline
210
0.0
220
0.0
230
1.0
 70
     8
 71
     3
 72
    12
 73
     8
 74
     0
 42
0.00000001
 43
0.00000001
 40
0.0
 40
0.0
 40
0.0
 40
0.0
 40
0.2034077395159399
 40
0.4376398100905015
 40
0.7026157371473919
 40
0.8473894130122702
 40
0.9999999999999999
 40
0.9999999999999999
 40
0.9999999999999999
 40
0.9999999999999999
 10
268.3044606850597
 20
510.2633381087609
 30
0.0
 10
268.2830199650371
 20
510.6063487000166
 30
0.0
 10
268.2368894064791
 20
511.3443495763518
 30
0.0
 10
267.7247904757842
 20
512.441458564235
 30
0.0
 10
266.9495899068656
 20
513.2242228885741
 30
0.0
 10
266.1217330535241
 20
513.6939367142002
 30
0.0
 10
265.637746700079
 20
513.8202068684387
 30
0.0
 10
265.3893763230296
 20
513.8850057322808
 30
0.0
  0
SPLINE
  5
157
330
1F
100
AcDbEntity
  8
0
  6
Continuous
 62
     7
370
    15
100
AcDbSpline
210
0.0
220
0.0
230
1.0
 70
     8
 71
     3
 72
    12
 73
     8
 74
     0
 42
0.00000001
 43
0.00000001
 40
0.0
 40
0.0
 40
0.0
 40
0.0
 40
0.1555606298326515
 40
0.3022104918759382
 40
0.5679679576816538
 40
0.7999533683161958
 40
0.9999999999999999
 40
0.9999999999999999
 40
0.9999999999999999
 40
0.9999999999999999
 10
264.8890400336238
 20
510.9280044038125
 30
0.0
 10
264.9295872359941
 20
510.9122543609304
 30
0.0
 10
265.0083590305395
 20
510.8816564634312
 30
0.0
 10
265.1379858298814
 20
510.7866194218449
 30
0.0
 10
265.2524274756643
 20
510.6404396296102
 30
0.0
 10
265.3165549509671
 20
510.4461871958923
 30
0.0
 10
265.309435160092
 20
510.3212080314329
 30
0.0
 10
265.3061384366008
 20
510.2633381087609
 30
0.0
  0
LINE
  5
158
330
1F
100
AcDbEntity
  8
0
  6
Continuous
 62
     7
370
    15
100
AcDbLine
 10
265.3053039716
 20
510.3133464057
 30
0.0
 11
265.3053039716
 21
510.0709492166
 31
0.0
  0
LINE
  5
159
330
1F
100
AcDbEntity
  8
0
  6
Continuous
 62
     7
370
    15
100
AcDbLine
 10
265.3053039716
 20
497.0709377725
 30
0.0
 11
265.3053039716
 21
496.6547036369
 31
0.0
  0
LINE
  5
15A
330
1F
100
AcDbEntity
  8
0
  6
Continuous
 62
     7
370
    15
100
AcDbLine
 10
268.3052951501
 20
496.6547036369
 30
0.0
 11
268.3052951501
 21
497.0736944873
 31
0.0
  0
LINE
  5
15B
330
1F
100
AcDbEntity
  8
0
  6
Continuous
 62
     7
370
    15
100
AcDbLine
 10
268.3052951501
 20
510.0681925018
 30
0.0
 11
268.3052951501
 21
510.3133464057
 31
0.0
  0
LINE
  5
15C
330
1F
100
AcDbEntity
  8
0
  6
Continuous
 62
     7
370
    15
100
AcDbLine
 10
254.6045864032
 20
509.1709488828
 30
0.0
 11
252.9863053964
 21
509.1709488828
 31
0.0
  0
LINE
  5
15D
330
1F
100
AcDbEntity
  8
0
  6
Continuous
 62
     7
370
    15
100
AcDbLine
 10
253.6132270501
 20
508.3709502418
 30
0.0
 11
254.6045864032
 21
508.3709502418
 31
0.0
  0
LINE
  5
15E
330
1F
100
AcDbEntity
  8
0
  6
Continuous
 62
     7
370
    15
100
AcDbLine
 10
254.94281296
 20
510.4390824039
 30
0.0
 11
254.6762907908
 21
509.2308366496
 31
0.0
  0
LINE
  5
15F
330
1F
100
AcDbEntity
  8
0
  6
Continuous
 62
     7
370
    15
100
AcDbLine
 10
255.4444456504
 20
508.9992875058
 30
0.0
 11
255.7240212367
 21
510.2667504747
 31
0.0
  0
SPLINE
  5
160
330
1F
100
AcDbEntity
  8
0
  6
Continuous
 62
     7
370
    15
100
AcDbSpline
210
0.0
220
0.0
230
1.0
 70
     8
 71
     3
 72
    11
 73
     7
 74
     0
 42
0.00000001
 43
0.00000001
 40
0.0
 40
0.0
 40
0.0
 40
0.0
 40
0.2541311630691059
 40
0.5022676364033828
 40
0.7495179365131207
 40
1.0
 40
1.0
 40
1.0
 40
1.0
 10
254.6045864031764
 20
508.370950241787
 30
0.0
 10
254.7046748364719
 20
508.3811953660394
 30
0.0
 10
254.9024907210549
 20
508.4014439427222
 30
0.0
 10
255.1606423082041
 20
508.5554695796256
 30
0.0
 10
255.3640837254765
 20
508.7745508108737
 30
0.0
 10
255.4258197051058
 20
508.9616008362641
 30
0.0
 10
255.4568881199809
 20
509.0557331044503
 30
0.0
  0
LINE
  5
161
330
1F
100
AcDbEntity
  8
0
  6
Continuous
 62
     7
370
    15
100
AcDbLine
 10
254.2163068459
 20
510.7709461648
 30
0.0
 11
254.2163068459
 21
511.5709448058
 31
0.0
  0
LINE
  5
162
330
1F
100
AcDbEntity
  8
0
  6
Continuous
 62
     7
370
    15
100
AcDbLine
 10
254.2163068459
 20
495.5709421832
 30
0.0
 11
254.2163068459
 21
496.3709408243
 31
0.0
  0
LINE
  5
163
330
1F
100
AcDbEntity
  8
0
  6
Continuous
 62
     7
370
    15
100
AcDbLine
 10
249.2863172696
 20
511.8709498842
 30
0.0
 11
249.2863172696
 21
511.5709448058
 31
0.0
  0
LINE
  5
164
330
1F
100
AcDbEntity
  8
0
  6
Continuous
 62
     7
370
    15
100
AcDbLine
 10
253.6863172458
 20
511.5709448058
 30
0.0
 11
253.6863172458
 21
511.8709498842
 31
0.0
  0
ARC
  5
165
330
1F
100
AcDbEntity
  8
0
  6
Continuous
 62
     7
370
    15
100
AcDbCircle
 10
251.4863099788
 20
508.7638012335
 30
0.0
 40
3.807142857143229
100
AcDbArc
 50
54.6997515601
 51
125.3002484399
  0
LINE
  5
166
330
1F
100
AcDbEntity
  8
0
  6
Continuous
 62
     7
370
    15
100
AcDbLine
 10
249.3863040612
 20
495.1709503133
 30
0.0
 11
249.3863040612
 21
494.7709435422
 31
0.0
  0
LINE
  5
167
330
1F
100
AcDbEntity
  8
0
  6
Continuous
 62
     7
370
    15
100
AcDbLine
 10
253.586315553
 20
494.7709435422
 30
0.0
 11
253.586315553
 21
495.1709503133
 31
0.0
  0
ARC
  5
168
330
1F
100
AcDbEntity
  8
0
  6
Continuous
 62
     7
370
    15
100
AcDbCircle
 10
249.5863099788
 20
495.5709440906
 30
0.0
 40
0.4000000000008015
100
AcDbArc
 50
270.0
 51
0.0
  0
ARC
  5
169
330
1F
100
AcDbEntity
  8
0
  6
Continuous
 62
     7
370
    15
100
AcDbCircle
 10
253.3863099788
 20
495.5709440906
 30
0.0
 40
0.4000000000008015
100
AcDbArc
 50
180.0
 51
270.0
  0
LINE
  5
16A
330
1F
100
AcDbEntity
  8
0
  6
Continuous
 62
     7
370
    15
100
AcDbLine
 10
249.9863142179
 20
510.7709461648
 30
0.0
 11
249.9863142179
 21
510.3209459979
 31
0.0
  0
LINE
  5
16B
330
1F
100
AcDbEntity
  8
0
  6
Continuous
 62
     7
370
    15
100
AcDbLine
 10
249.9863142179
 20
509.3209439714
 30
0.0
 11
249.9863142179
 21
508.8322454889
 31
0.0
  0
LINE
  5
16C
330
1F
100
AcDbEntity
  8
0
  6
Continuous
 62
     7
370
    15
100
AcDbLine
 10
249.9863142179
 20
508.0361211498
 30
0.0
 11
249.9863142179
 21
507.8804338176
 31
0.0
  0
LINE
  5
16D
330
1F
100
AcDbEntity
  8
0
  6
Continuous
 62
     7
370
    15
100
AcDbLine
 10
249.9863142179
 20
498.5813194711
 30
0.0
 11
249.9863142179
 21
497.8209430177
 31
0.0
  0
LINE
  5
16E
330
1F
100
AcDbEntity
  8
0
  6
Continuous
 62
     7
370
    15
100
AcDbLine
 10
249.9863142179
 20
496.8209409911
 30
0.0
 11
249.9863142179
 21
496.3709408243
 31
0.0
  0
LINE
  5
16F
330
1F
100
AcDbEntity
  8
0
  6
Continuous
 62
     7
370
    15
100
AcDbLine
 10
252.9863053964
 20
496.3709408243
 30
0.0
 11
252.9863053964
 21
496.8209409911
 31
0.0
  0
LINE
  5
170
330
1F
100
AcDbEntity
  8
0
  6
Continuous
 62
     7
370
    15
100
AcDbLine
 10
252.9863053964
 20
497.8209430177
 30
0.0
 11
252.9863053964
 21
498.3080917795
 31
0.0
  0
LINE
  5
171
330
1F
100
AcDbEntity
  8
0
  6
Continuous
 62
     7
370
    15
100
AcDbLine
 10
252.9863053964
 20
507.6159978111
 30
0.0
 11
252.9863053964
 21
507.8039461572
 31
0.0
  0
LINE
  5
172
330
1F
100
AcDbEntity
  8
0
  6
Continuous
 62
     7
370
    15
100
AcDbLine
 10
252.9863053964
 20
508.5590177972
 30
0.0
 11
252.9863053964
 21
509.3209439714
 31
0.0
  0
LINE
  5
173
330
1F
100
AcDbEntity
  8
0
  6
Continuous
 62
     7
370
    15
100
AcDbLine
 10
252.9863053964
 20
510.3209459979
 30
0.0
 11
252.9863053964
 21
510.7709461648
 31
0.0
  0
LINE
  5
174
330
1F
100
AcDbEntity
  8
0
  6
Continuous
 62
     7
370
    15
100
AcDbLine
 10
254.2163068459
 20
40.7709473569
 30
0.0
 11
254.2163068459
 21
41.5709459979
 31
0.0
  0
LINE
  5
175
330
1F
100
AcDbEntity
  8
0
  6
Continuous
 62
     7
370
    15
100
AcDbLine
 10
254.2163068459
 20
25.5709433753
 30
0.0
 11
254.2163068459
 21
26.3709420163
 31
0.0
  0
ARC
  5
176
330
1F
100
AcDbEntity
  8
0
  6
Continuous
 62
     7
370
    15
100
AcDbCircle
 10
251.4863099788
 20
38.7638012335
 30
0.0
 40
3.807142857143287
100
AcDbArc
 50
54.6997515601
 51
125.3002484399
  0
LINE
  5
177
330
1F
100
AcDbEntity
  8
0
  6
Continuous
 62
     7
370
    15
100
AcDbLine
 10
249.2863172696
 20
41.8709510763
 30
0.0
 11
249.2863172696
 21
41.5709459979
 31
0.0
  0
LINE
  5
178
330
1F
100
AcDbEntity
  8
0
  6
Continuous
 62
     7
370
    15
100
AcDbLine
 10
253.6863172458
 20
41.5709459979
 30
0.0
 11
253.6863172458
 21
41.8709510763
 31
0.0
  0
LINE
  5
179
330
1F
100
AcDbEntity
  8
0
  6
Continuous
 62
     7
370
    15
100
AcDbLine
 10
249.3863040612
 20
25.1709515054
 30
0.0
 11
249.3863040612
 21
24.7709447343
 31
0.0
  0
LINE
  5
17A
330
1F
100
AcDbEntity
  8
0
  6
Continuous
 62
     7
370
    15
100
AcDbLine
 10
253.586315553
 20
24.7709447343
 30
0.0
 11
253.586315553
 21
25.1709515054
 31
0.0
  0
ARC
  5
17B
330
1F
100
AcDbEntity
  8
0
  6
Continuous
 62
     7
370
    15
100
AcDbCircle
 10
249.5863099788
 20
25.5709440906
 30
0.0
 40
0.4000000000008015
100
AcDbArc
 50
270.0
 51
0.0
  0
ARC
  5
17C
330
1F
100
AcDbEntity
  8
0
  6
Continuous
 62
     7
370
    15
100
AcDbCircle
 10
253.3863099788
 20
25.5709440906
 30
0.0
 40
0.4000000000008015
100
AcDbArc
 50
180.0
 51
270.0
  0
LINE
  5
17D
330
1F
100
AcDbEntity
  8
0
  6
Continuous
 62
     7
370
    15
100
AcDbLine
 10
249.9863142179
 20
40.7709473569
 30
0.0
 11
249.9863142179
 21
40.32094719
 31
0.0
  0
LINE
  5
17E
330
1F
100
AcDbEntity
  8
0
  6
Continuous
 62
     7
370
    15
100
AcDbLine
 10
249.9863142179
 20
39.3209451635
 30
0.0
 11
249.9863142179
 21
38.832246681
 31
0.0
  0
LINE
  5
17F
330
1F
100
AcDbEntity
  8
0
  6
Continuous
 62
     7
370
    15
100
AcDbLine
 10
249.9863142179
 20
38.0361223419
 30
0.0
 11
249.9863142179
 21
37.8804350097
 31
0.0
  0
LINE
  5
180
330
1F
100
AcDbEntity
  8
0
  6
Continuous
 62
     7
370
    15
100
AcDbLine
 10
249.9863142179
 20
28.5813206632
 30
0.0
 11
249.9863142179
 21
27.8209442098
 31
0.0
  0
LINE
  5
181
330
1F
100
AcDbEntity
  8
0
  6
Continuous
 62
     7
370
    15
100
AcDbLine
 10
249.9863142179
 20
26.8209421832
 30
0.0
 11
249.9863142179
 21
26.3709420163
 31
0.0
  0
LINE
  5
182
330
1F
100
AcDbEntity
  8
0
  6
Continuous
 62
     7
370
    15
100
AcDbLine
 10
252.9863053964
 20
26.3709420163
 30
0.0
 11
252.9863053964
 21
26.8209421832
 31
0.0
  0
LINE
  5
183
330
1F
100
AcDbEntity
  8
0
  6
Continuous
 62
     7
370
    15
100
AcDbLine
 10
252.9863053964
 20
27.8209442098
 30
0.0
 11
252.9863053964
 21
28.3080929715
 31
0.0
  0
LINE
  5
184
330
1F
100
AcDbEntity
  8
0
  6
Continuous
 62
     7
370
    15
100
AcDbLine
 10
252.9863053964
 20
37.6159990032
 30
0.0
 11
252.9863053964
 21
37.8039473493
 31
0.0
  0
LINE
  5
185
330
1F
100
AcDbEntity
  8
0
  6
Continuous
 62
     7
370
    15
100
AcDbLine
 10
252.9863053964
 20
38.5590189893
 30
0.0
 11
252.9863053964
 21
39.3209451635
 31
0.0
  0
LINE
  5
186
330
1F
100
AcDbEntity
  8
0
  6
Continuous
 62
     7
370
    15
100
AcDbLine
 10
252.9863053964
 20
40.32094719
 30
0.0
 11
252.9863053964
 21
40.7709473569
 31
0.0
  0
SPLINE
  5
187
330
1F
100
AcDbEntity
  8
0
  6
Continuous
 62
     7
370
    15
100
AcDbSpline
210
0.0
220
0.0
230
1.0
 70
     8
 71
     3
 72
    15
 73
    11
 74
     0
 42
0.00000001
 43
0.00000001
 40
0.0
 40
0.0
 40
0.0
 40
0.0
 40
0.135596524218426
 40
0.2953255930354361
 40
0.4038106354482965
 40
0.5319576936985174
 40
0.6738361567850103
 40
0.826100990935627
 40
0.9126193315542663
 40
0.9999999999999999
 40
0.9999999999999999
 40
0.9999999999999999
 40
0.9999999999999999
 10
252.9863053963633
 20
28.13698293755734
 30
0.0
 10
253.0306876646378
 20
28.12966252760868
 30
0.0
 10
253.1273510546027
 20
28.1137188710747
 30
0.0
 10
253.3342012924495
 20
28.1613898221838
 30
0.0
 10
253.5274579113272
 20
28.24910559074148
 30
0.0
 10
253.6740458665497
 20
28.3687731634118
 30
0.0
 10
253.7727529450272
 20
28.51968123508342
 30
0.0
 10
253.8024092989868
 20
28.64150917966174
 30
0.0
 10
253.78123997004
 20
28.77076026135181
 30
0.0
 10
253.7349822019671
 20
28.83743629784385
 30
0.0
 10
253.7117386267634
 20
28.87093963216028
 30
0.0
  0
SPLINE
  5
188
330
1F
100
AcDbEntity
  8
0
  6
Continuous
 62
     7
370
    15
100
AcDbSpline
210
0.0
220
0.0
230
1.0
 70
     8
 71
     3
 72
    20
 73
    16
 74
     0
 42
0.00000001
 43
0.00000001
 40
0.0
 40
0.0
 40
0.0
 40
0.0
 40
0.0607080703525387
 40
0.2265356748708075
 40
0.3908031508966114
 40
0.47059448168422
 40
0.5476204260356007
 40
0.6228574358877381
 40
0.7003372698834802
 40
0.7786473610714315
 40
0.8566576136431394
 40
0.9330986217031314
 40
0.9703734372930525
 40
0.9892322546654578
 40
1.0
 40
1.0
 40
1.0
 40
1.0
 10
249.2501074479075
 20
28.87093963216031
 30
0.0
 10
249.2963823163105
 20
28.81760818652007
 30
0.0
 10
249.4690596635291
 20
28.61859881330506
 30
0.0
 10
249.8860180873728
 20
28.60067195534896
 30
0.0
 10
250.4509870735617
 20
28.52564670406393
 30
0.0
 10
250.9705973889824
 20
28.48270899751712
 30
0.0
 10
251.3644884680374
 20
28.45214842198599
 30
0.0
 10
251.7574002939013
 20
28.42447642395699
 30
0.0
 10
252.1385616714276
 20
28.3931677816043
 30
0.0
 10
252.4942856754286
 20
28.36068545247508
 30
0.0
 10
252.7969087662762
 20
28.32988351152421
 30
0.0
 10
252.9894257969933
 20
28.30694799426983
 30
0.0
 10
253.0775408724826
 20
28.29894165286975
 30
0.0
 10
253.1229679925634
 20
28.29114648568665
 30
0.0
 10
253.1224185734527
 20
28.29510562595133
 30
0.0
 10
253.1222188876124
 20
28.29654457162106
 30
0.0
  0
SPLINE
  5
189
330
1F
100
AcDbEntity
  8
0
  6
Continuous
 62
     7
370
    15
100
AcDbSpline
210
0.0
220
0.0
230
1.0
 70
     8
 71
     3
 72
    18
 73
    14
 74
     0
 42
0.00000001
 43
0.00000001
 40
0.0
 40
0.0
 40
0.0
 40
0.0
 40
0.0057509055707785
 40
0.1156365942108736
 40
0.2383917546761024
 40
0.3593077580000205
 40
0.4757061783838784
 40
0.5872136758512743
 40
0.7047343241619957
 40
0.8265029199285094
 40
0.8891450723957606
 40
0.9517986371317534
 40
1.0
 40
1.0
 40
1.0
 40
1.0
 10
253.492929975793
 20
37.51777054856503
 30
0.0
 10
253.4882827427848
 20
37.52072274441645
 30
0.0
 10
253.3948382946096
 20
37.58008415619823
 30
0.0
 10
253.1725319882199
 20
37.58626221588229
 30
0.0
 10
252.7811335959976
 20
37.64546469906522
 30
0.0
 10
252.2692554913649
 20
37.69100149810917
 30
0.0
 10
251.7182233491233
 20
37.73716826617915
 30
0.0
 10
251.1561073318987
 20
37.77604792947312
 30
0.0
 10
250.6218246365966
 20
37.8208005828286
 30
0.0
 10
250.2242054105149
 20
37.86184231290709
 30
0.0
 10
250.0094551503559
 20
37.8829889009919
 30
0.0
 10
249.9134112803987
 20
37.88526454023449
 30
0.0
 10
249.8979622684374
 20
37.86918681934723
 30
0.0
 10
249.891244809434
 20
37.86219598839963
 30
0.0
  0
SPLINE
  5
18A
330
1F
100
AcDbEntity
  8
0
  6
Continuous
 62
     7
370
    15
100
AcDbSpline
210
0.0
220
0.0
230
1.0
 70
     8
 71
     3
 72
    12
 73
     8
 74
     0
 42
0.00000001
 43
0.00000001
 40
0.0
 40
0.0
 40
0.0
 40
0.0
 40
0.2236856574660879
 40
0.4523148467253754
 40
0.6822432501024078
 40
0.9102240817873222
 40
1.0
 40
1.0
 40
1.0
 40
1.0
 10
249.1920078204127
 20
38.67278935502255
 30
0.0
 10
249.1792742406332
 20
38.63024692991235
 30
0.0
 10
249.1535256644775
 20
38.54422187711723
 30
0.0
 10
249.274653127722
 20
38.4525991224528
 30
0.0
 10
249.5063248
 20
38.35627187164339
 30
0.0
 10
249.7511857479065
 20
38.29380958917466
 30
0.0
 10
249.9345174517533
 20
38.29901356235413
 30
0.0
 10
249.9863142178508
 20
38.30048384259427
 30
0.0
  0
SPLINE
  5
18B
330
1F
100
AcDbEntity
  8
0
  6
Continuous
 62
     7
370
    15
100
AcDbSpline
210
0.0
220
0.0
230
1.0
 70
     8
 71
     3
 72
    19
 73
    15
 74
     0
 42
0.00000001
 43
0.00000001
 40
0.0
 40
0.0
 40
0.0
 40
0.0
 40
0.0979059644884441
 40
0.1753775414340639
 40
0.2884835391288617
 40
0.3734530151137901
 40
0.4570037991889359
 40
0.6168875043033528
 40
0.6796675376044611
 40
0.7634258838896796
 40
0.8137553798795975
 40
0.87029854671839
 40
0.932400262122324
 40
1.0
 40
1.0
 40
1.0
 40
1.0
 10
249.3682438538524
 20
38.17766847203455
 30
0.0
 10
249.4187516183395
 20
38.15128723772659
 30
0.0
 10
249.509225448053
 20
38.10403091338429
 30
0.0
 10
249.8838865163678
 20
38.04338379803243
 30
0.0
 10
250.3703720791434
 20
37.98949243765573
 30
0.0
 10
250.9617166858656
 20
37.93626880397644
 30
0.0
 10
251.7158118501654
 20
37.88471909514546
 30
0.0
 10
252.3569208948111
 20
37.81778086693441
 30
0.0
 10
253.0061767142782
 20
37.78226329322329
 30
0.0
 10
253.3845219688964
 20
37.86044363304933
 30
0.0
 10
253.6363640325343
 20
37.96865310136324
 30
0.0
 10
253.7699545860568
 20
38.05697212525263
 30
0.0
 10
253.8317288022583
 20
38.13081240845287
 30
0.0
 10
253.760284838635
 20
38.21133749870864
 30
0.0
 10
253.7230486081096
 20
38.25330676625455
 30
0.0
  0
SPLINE
  5
18C
330
1F
100
AcDbEntity
  8
0
  6
Continuous
 62
     7
370
    15
100
AcDbSpline
210
0.0
220
0.0
230
1.0
 70
     8
 71
     3
 72
    25
 73
    21
 74
     0
 42
0.00000001
 43
0.00000001
 40
0.0
 40
0.0
 40
0.0
 40
0.0
 40
0.0176277496452752
 40
0.0344974659164648
 40
0.0503153655365016
 40
0.0649724010491646
 40
0.0909444597833625
 40
0.113437148394622
 40
0.1538399471442875
 40
0.1912336503716957
 40
0.2995702728358309
 40
0.3999628847938618
 40
0.5012948169500224
 40
0.594905109583101
 40
0.6784865294371866
 40
0.7336285575858053
 40
0.807518368220248
 40
0.8952813637324751
 40
0.9453088361668351
 40
1.0
 40
1.0
 40
1.0
 40
1.0
 10
253.3657336638423
 20
37.62772621701443
 30
0.0
 10
253.4054435318766
 20
37.63211506576602
 30
0.0
 10
253.483155653198
 20
37.64070403277925
 30
0.0
 10
253.5850428961454
 20
37.6867263092516
 30
0.0
 10
253.6660427589605
 20
37.74567118805219
 30
0.0
 10
253.7422603937699
 20
37.82925208569443
 30
0.0
 10
253.7952960758925
 20
37.93288753860763
 30
0.0
 10
253.8194777655739
 20
38.06524564399174
 30
0.0
 10
253.7965690617052
 20
38.19709584082992
 30
0.0
 10
253.625337031595
 20
38.44230270488361
 30
0.0
 10
253.2825489372722
 20
38.52939502588234
 30
0.0
 10
252.7874358017295
 20
38.58795357081898
 30
0.0
 10
252.1742236124551
 20
38.64629745886835
 30
0.0
 10
251.5247514167472
 20
38.69592061805977
 30
0.0
 10
250.9850598813971
 20
38.73540864530012
 30
0.0
 10
250.5390339553071
 20
38.77458432962977
 30
0.0
 10
250.1503453732399
 20
38.81281383278051
 30
0.0
 10
249.8901692653365
 20
38.84064251208125
 30
0.0
 10
249.7597379115773
 20
38.86315816535635
 30
0.0
 10
249.7510775576021
 20
38.87561504256482
 30
0.0
 10
249.7465545342418
 20
38.88212086747372
 30
0.0
  0
SPLINE
  5
18D
330
1F
100
AcDbEntity
  8
0
  6
Continuous
 62
     7
370
    15
100
AcDbSpline
210
0.0
220
0.0
230
1.0
 70
     8
 71
     3
 72
    12
 73
     8
 74
     0
 42
0.00000001
 43
0.00000001
 40
0.0
 40
0.0
 40
0.0
 40
0.0
 40
0.1756405672915775
 40
0.5723030121284147
 40
0.7586193462968064
 40
0.9207477118529684
 40
0.9999999999999999
 40
0.9999999999999999
 40
0.9999999999999999
 40
0.9999999999999999
 10
249.8348737166377
 20
38.06362988541806
 30
0.0
 10
249.7693164004185
 20
38.05445890271306
 30
0.0
 10
249.5557060134911
 20
38.02457639261203
 30
0.0
 10
249.3397514031644
 20
37.95064899126202
 30
0.0
 10
249.1786343172363
 20
37.73572479663059
 30
0.0
 10
249.1474033873392
 20
37.57548043439763
 30
0.0
 10
249.1783801718364
 20
37.49683295827824
 30
0.0
 10
249.1885507510158
 20
37.47101070473871
 30
0.0
  0
LINE
  5
18E
330
1F
100
AcDbEntity
  8
0
  6
Continuous
 62
     7
370
    15
100
AcDbLine
 10
249.346070926
 20
28.7732029159
 30
0.0
 11
248.2276046679
 21
28.7732029159
 31
0.0
  0
LINE
  5
18F
330
1F
100
AcDbEntity
  8
0
  6
Continuous
 62
     7
370
    15
100
AcDbLine
 10
248.2276046679
 20
27.9732042749
 30
0.0
 11
249.9863142179
 21
27.9732042749
 31
0.0
  0
LINE
  5
190
330
1F
100
AcDbEntity
  8
0
  6
Continuous
 62
     7
370
    15
100
AcDbLine
 10
246.8173140691
 20
41.5709459979
 30
0.0
 11
246.8173140691
 21
41.6244113643
 31
0.0
  0
LINE
  5
191
330
1F
100
AcDbEntity
  8
0
  6
Continuous
 62
     7
370
    15
100
AcDbLine
 10
243.8173228906
 20
41.6244113643
 30
0.0
 11
243.8173228906
 21
41.5709459979
 31
0.0
  0
SPLINE
  5
192
330
1F
100
AcDbEntity
  8
0
  6
Continuous
 62
     7
370
    15
100
AcDbSpline
210
0.0
220
0.0
230
1.0
 70
     8
 71
     3
 72
    15
 73
    11
 74
     0
 42
0.00000001
 43
0.00000001
 40
0.0
 40
0.0
 40
0.0
 40
0.0
 40
0.1077555984635169
 40
0.23525132098926
 40
0.3627905294629136
 40
0.4902569079919491
 40
0.6176632052480955
 40
0.745097043409137
 40
0.8724966518631685
 40
1.0
 40
1.0
 40
1.0
 40
1.0
 10
243.8333714411708
 20
25.570943375332
 30
0.0
 10
243.8499105697919
 20
25.2584211304587
 30
0.0
 10
243.8860186877145
 20
24.57612460022443
 30
0.0
 10
244.2222313825024
 20
23.56697670721616
 30
0.0
 10
244.7803109100991
 20
22.60349798251482
 30
0.0
 10
245.5351361594842
 20
21.78257048807638
 30
0.0
 10
246.450300259295
 20
21.14730504143006
 30
0.0
 10
247.4775557165255
 20
20.72714419001265
 30
0.0
 10
248.5735333652101
 20
20.51334315941783
 30
0.0
 10
249.309293802061
 20
20.57886764076608
 30
0.0
 10
249.6773237393352
 20
20.61164321492398
 30
0.0
  0
SPLINE
  5
193
330
1F
100
AcDbEntity
  8
0
  6
Continuous
 62
     7
370
    15
100
AcDbSpline
210
0.0
220
0.0
230
1.0
 70
     8
 71
     3
 72
    15
 73
    11
 74
     0
 42
0.00000001
 43
0.00000001
 40
0.0
 40
0.0
 40
0.0
 40
0.0
 40
0.1316520870973512
 40
0.2633117234435766
 40
0.3951916502571152
 40
0.5266711950537163
 40
0.6575470536109259
 40
0.788211819659142
 40
0.9184607770452461
 40
1.0
 40
1.0
 40
1.0
 40
1.0
 10
249.1796398566218
 20
23.56932999680722
 30
0.0
 10
249.027456698117
 20
23.5575148129146
 30
0.0
 10
248.7230816545575
 20
23.53388376761798
 30
0.0
 10
248.2722108492522
 20
23.63535878349732
 30
0.0
 10
247.8531865543329
 20
23.82222456296729
 30
0.0
 10
247.4827867306056
 20
24.09481158279636
 30
0.0
 10
247.1805402820054
 20
24.44073095126442
 30
0.0
 10
246.9613594536461
 20
24.84242368024583
 30
0.0
 10
246.8440105711712
 20
25.22874362277749
 30
0.0
 10
246.8338264674247
 20
25.47581860483622
 30
0.0
 10
246.8299055502864
 20
25.570943375332
 30
0.0
  0
SPLINE
  5
194
330
1F
100
AcDbEntity
  8
0
  6
Continuous
 62
     7
370
    15
100
AcDbSpline
210
0.0
220
0.0
230
1.0
 70
     8
 71
     3
 72
    15
 73
    11
 74
     0
 42
0.00000001
 43
0.00000001
 40
0.0
 40
0.0
 40
0.0
 40
0.0
 40
0.1249272078069247
 40
0.2499157485592948
 40
0.3749662286529669
 40
0.4999575604502636
 40
0.6249202964107985
 40
0.7499168349327715
 40
0.8748745705603984
 40
1.0
 40
1.0
 40
1.0
 40
1.0
 10
249.848195354745
 20
46.50147201607904
 30
0.0
 10
249.481818710661
 20
46.54480459008006
 30
0.0
 10
248.7488855500768
 20
46.63149101218586
 30
0.0
 10
247.6448623593759
 20
46.46629203489761
 30
0.0
 10
246.6040608084417
 20
46.077369087345
 30
0.0
 10
245.6688720696764
 20
45.47234953744805
 30
0.0
 10
244.8882342608509
 20
44.676150010527
 30
0.0
 10
244.3002569091963
 20
43.73179559362953
 30
0.0
 10
243.9044383358932
 20
42.68334602039242
 30
0.0
 10
243.8463743506518
 20
41.9442258586728
 30
0.0
 10
243.817322890565
 20
41.57441796849454
 30
0.0
  0
SPLINE
  5
195
330
1F
100
AcDbEntity
  8
0
  6
Continuous
 62
     7
370
    15
100
AcDbSpline
210
0.0
220
0.0
230
1.0
 70
     8
 71
     3
 72
    15
 73
    11
 74
     0
 42
0.00000001
 43
0.00000001
 40
0.0
 40
0.0
 40
0.0
 40
0.0
 40
0.1242509140045811
 40
0.2486326179325958
 40
0.3735412406986008
 40
0.4985814846812553
 40
0.6236640608718481
 40
0.7490707212300203
 40
0.8744364065825835
 40
0.9999999999999999
 40
0.9999999999999999
 40
0.9999999999999999
 40
0.9999999999999999
 10
246.8173140690776
 20
41.57441796849454
 30
0.0
 10
246.8308783746716
 20
41.72637075664245
 30
0.0
 10
246.8580212640203
 20
42.03043628261496
 30
0.0
 10
247.0324713050872
 20
42.4577540338959
 30
0.0
 10
247.2858060928515
 20
42.83939588356326
 30
0.0
 10
247.6156245739174
 20
43.15933178335102
 30
0.0
 10
248.0065562555738
 20
43.39990001661989
 30
0.0
 10
248.4392485887438
 20
43.55153866621894
 30
0.0
 10
248.8967857141191
 20
43.60497072154498
 30
0.0
 10
249.1987034072431
 20
43.56429043257582
 30
0.0
 10
249.3497813151332
 20
43.54393424580777
 30
0.0
  0
LINE
  5
196
330
1F
100
AcDbEntity
  8
0
  6
Continuous
 62
     7
370
    15
100
AcDbLine
 10
264.7203737901
 20
26.1860782106
 30
0.0
 11
249.1794163392
 21
23.5696578224
 31
0.0
  0
LINE
  5
197
330
1F
100
AcDbEntity
  8
0
  6
Continuous
 62
     7
370
    15
100
AcDbLine
 10
249.6774727509
 20
20.6113004882
 30
0.0
 11
265.218445103
 21
23.2277208764
 31
0.0
  0
LINE
  5
198
330
1F
100
AcDbEntity
  8
0
  6
Continuous
 62
     7
370
    15
100
AcDbLine
 10
249.3499899314
 20
43.5435021121
 30
0.0
 11
264.8909622834
 21
40.9270817239
 31
0.0
  0
LINE
  5
199
330
1F
100
AcDbEntity
  8
0
  6
Continuous
 62
     7
370
    15
100
AcDbLine
 10
265.3890186952
 20
43.8854539592
 30
0.0
 11
249.8480612443
 21
46.5018743474
 31
0.0
  0
SPLINE
  5
19A
330
1F
100
AcDbEntity
  8
0
  6
Continuous
 62
     7
370
    15
100
AcDbSpline
210
0.0
220
0.0
230
1.0
 70
     8
 71
     3
 72
    12
 73
     8
 74
     0
 42
0.00000001
 43
0.00000001
 40
0.0
 40
0.0
 40
0.0
 40
0.0
 40
0.1526135397173891
 40
0.2973904856902686
 40
0.5623705157137553
 40
0.7966016097880517
 40
1.0
 40
1.0
 40
1.0
 40
1.0
 10
265.2180874751064
 20
23.22801889966214
 30
0.0
 10
265.4693072246342
 20
23.28075661675608
 30
0.0
 10
265.9588467731268
 20
23.38352400770832
 30
0.0
 10
266.8083673848711
 20
23.81277679091909
 30
0.0
 10
267.6203571266493
 20
24.55717096580662
 30
0.0
 10
268.1848071810313
 20
25.62820968286023
 30
0.0
 10
268.2664945823818
 20
26.36313817093963
 30
0.0
 10
268.3044606850597
 20
26.70471312592709
 30
0.0
  0
SPLINE
  5
19B
330
1F
100
AcDbEntity
  8
0
  6
Continuous
 62
     7
370
    15
100
AcDbSpline
210
0.0
220
0.0
230
1.0
 70
     8
 71
     3
 72
    11
 73
     7
 74
     0
 42
0.00000001
 43
0.00000001
 40
0.0
 40
0.0
 40
0.0
 40
0.0
 40
0.2003641189614822
 40
0.4328060802232906
 40
0.699024866168115
 40
0.9999999999999999
 40
0.9999999999999999
 40
0.9999999999999999
 40
0.9999999999999999
 10
265.3061384366008
 20
26.70471312592706
 30
0.0
 10
265.2929117886967
 20
26.64828473100236
 30
0.0
 10
265.2643409364724
 20
26.52639388274439
 30
0.0
 10
265.1484461162669
 20
26.36069440843433
 30
0.0
 10
264.9637145102002
 20
26.22177674959311
 30
0.0
 10
264.8060878711867
 20
26.19839569808058
 30
0.0
 10
264.7224450514766
 20
26.18598880360806
 30
0.0
  0
SPLINE
  5
19C
330
1F
100
AcDbEntity
  8
0
  6
Continuous
 62
     7
370
    15
100
AcDbSpline
210
0.0
220
0.0
230
1.0
 70
     8
 71
     3
 72
    12
 73
     8
 74
     0
 42
0.00000001
 43
0.00000001
 40
0.0
 40
0.0
 40
0.0
 40
0.0
 40
0.2034077395159399
 40
0.4376398100905015
 40
0.7026157371473919
 40
0.8473894130122702
 40
0.9999999999999999
 40
0.9999999999999999
 40
0.9999999999999999
 40
0.9999999999999999
 10
268.3044606850597
 20
40.26333930085385
 30
0.0
 10
268.2830199650371
 20
40.6063498921094
 30
0.0
 10
268.2368894064791
 20
41.34435076844456
 30
0.0
 10
267.7247904757842
 20
42.44145975632787
 30
0.0
 10
266.9495899068656
 20
43.22422408066684
 30
0.0
 10
266.1217330535241
 20
43.69393790629319
 30
0.0
 10
265.637746700079
 20
43.82020806053169
 30
0.0
 10
265.3893763230296
 20
43.88500692437375
 30
0.0
  0
SPLINE
  5
19D
330
1F
100
AcDbEntity
  8
0
  6
Continuous
 62
     7
370
    15
100
AcDbSpline
210
0.0
220
0.0
230
1.0
 70
     8
 71
     3
 72
    12
 73
     8
 74
     0
 42
0.00000001
 43
0.00000001
 40
0.0
 40
0.0
 40
0.0
 40
0.0
 40
0.1555606298326515
 40
0.3022104918759382
 40
0.5679679576816538
 40
0.7999533683161958
 40
0.9999999999999999
 40
0.9999999999999999
 40
0.9999999999999999
 40
0.9999999999999999
 10
264.8890400336238
 20
40.92800559590543
 30
0.0
 10
264.9295872359941
 20
40.91225555302317
 30
0.0
 10
265.0083590305395
 20
40.88165765552415
 30
0.0
 10
265.1379858298814
 20
40.78662061393795
 30
0.0
 10
265.2524274756643
 20
40.64044082170312
 30
0.0
 10
265.3165549509671
 20
40.4461883879852
 30
0.0
 10
265.309435160092
 20
40.32120922352581
 30
0.0
 10
265.3061384366008
 20
40.26333930085385
 30
0.0
  0
LINE
  5
19E
330
1F
100
AcDbEntity
  8
0
  6
Continuous
 62
     7
370
    15
100
AcDbLine
 10
265.3053039716
 20
40.3133326967
 30
0.0
 11
265.3053039716
 21
40.0709504087
 31
0.0
  0
LINE
  5
19F
330
1F
100
AcDbEntity
  8
0
  6
Continuous
 62
     7
370
    15
100
AcDbLine
 10
265.3053039716
 20
27.0709389646
 30
0.0
 11
265.3053039716
 21
26.654704829
 31
0.0
  0
LINE
  5
1A0
330
1F
100
AcDbEntity
  8
0
  6
Continuous
 62
     7
370
    15
100
AcDbLine
 10
268.3052951501
 20
26.654704829
 30
0.0
 11
268.3052951501
 21
27.0736956794
 31
0.0
  0
LINE
  5
1A1
330
1F
100
AcDbEntity
  8
0
  6
Continuous
 62
     7
370
    15
100
AcDbLine
 10
268.3052951501
 20
40.0681936939
 30
0.0
 11
268.3052951501
 21
40.3133326967
 31
0.0
  0
LINE
  5
1A2
330
1F
100
AcDbEntity
  8
0
  6
Continuous
 62
     7
370
    15
100
AcDbLine
 10
254.6045864032
 20
39.1709500749
 30
0.0
 11
252.9863053964
 21
39.1709500749
 31
0.0
  0
LINE
  5
1A3
330
1F
100
AcDbEntity
  8
0
  6
Continuous
 62
     7
370
    15
100
AcDbLine
 10
253.6132270501
 20
38.3709514339
 30
0.0
 11
254.6045864032
 21
38.3709514339
 31
0.0
  0
LINE
  5
1A4
330
1F
100
AcDbEntity
  8
0
  6
Continuous
 62
     7
370
    15
100
AcDbLine
 10
254.94281296
 20
40.439083596
 30
0.0
 11
254.6762907908
 21
39.2308378417
 31
0.0
  0
LINE
  5
1A5
330
1F
100
AcDbEntity
  8
0
  6
Continuous
 62
     7
370
    15
100
AcDbLine
 10
255.4444456504
 20
38.9992886979
 30
0.0
 11
255.7240212367
 21
40.2667516668
 31
0.0
  0
SPLINE
  5
1A6
330
1F
100
AcDbEntity
  8
0
  6
Continuous
 62
     7
370
    15
100
AcDbSpline
210
0.0
220
0.0
230
1.0
 70
     8
 71
     3
 72
    11
 73
     7
 74
     0
 42
0.00000001
 43
0.00000001
 40
0.0
 40
0.0
 40
0.0
 40
0.0
 40
0.2541311630691059
 40
0.5022676364033828
 40
0.7495179365131207
 40
1.0
 40
1.0
 40
1.0
 40
1.0
 10
254.6045864031764
 20
38.37095143387997
 30
0.0
 10
254.7046748364719
 20
38.3811965581323
 30
0.0
 10
254.9024907210549
 20
38.40144513481503
 30
0.0
 10
255.1606423082041
 20
38.55547077171853
 30
0.0
 10
255.3640837254765
 20
38.77455200296651
 30
0.0
 10
255.4258197051058
 20
38.96160202835694
 30
0.0
 10
255.4568881199809
 20
39.05573429654324
 30
0.0
  0
LINE
  5
1A7
330
1F
100
AcDbEntity
  8
0
  6
Continuous
 62
     7
370
    15
100
AcDbLine
 10
267.3039073155
 20
40.0709504087
 30
0.0
 11
268.2559276031
 21
40.0709504087
 31
0.0
  0
LWPOLYLINE
  5
1A8
330
1F
100
AcDbEntity
  8
0
  6
Continuous
 62
     7
370
    15
100
AcDbPolyline
 90
        9
 70
   128
 43
0.0
 10
268.2559276031
 20
40.0709504087
 10
268.3984423087
 20
40.0478834112
 10
268.535473387
 20
39.9796062906
 10
268.6617756293
 20
39.868711849
 10
268.7724763558
 20
39.7194767196
 10
268.8633287356
 20
39.5376229484
 10
268.9308309958
 20
39.3301689823
 10
268.9724052356
 20
39.1050571401
 10
268.9864421294
 20
38.8709449966
  0
LINE
  5
1A9
330
1F
100
AcDbEntity
  8
0
  6
Continuous
 62
     7
370
    15
100
AcDbLine
 10
268.9864421294
 20
38.8709449966
 30
0.0
 11
268.0344218419
 21
38.8709449966
 31
0.0
  0
LWPOLYLINE
  5
1AA
330
1F
100
AcDbEntity
  8
0
  6
Continuous
 62
     7
370
    15
100
AcDbPolyline
 90
        9
 70
   128
 43
0.0
 10
268.0344218419
 20
38.8709449966
 10
268.0203849481
 20
39.1050571401
 10
267.9788107083
 20
39.3301689823
 10
267.911293547
 20
39.5376229484
 10
267.8204560683
 20
39.7194767196
 10
267.7097553418
 20
39.868711849
 10
267.5834530995
 20
39.9796062906
 10
267.4464220212
 20
40.0478834112
 10
267.3039073155
 20
40.0709504087
  0
LINE
  5
1AB
330
1F
100
AcDbEntity
  8
0
  6
Continuous
 62
     7
370
    15
100
AcDbLine
 10
264.5849222348
 20
40.0709504087
 30
0.0
 11
264.5849222348
 21
27.0709389646
 31
0.0
  0
LINE
  5
1AC
330
1F
100
AcDbEntity
  8
0
  6
Continuous
 62
     7
370
    15
100
AcDbLine
 10
264.5849222348
 20
40.0709504087
 30
0.0
 11
267.3039073155
 21
40.0709504087
 31
0.0
  0
LINE
  5
1AD
330
1F
100
AcDbEntity
  8
0
  6
Continuous
 62
     7
370
    15
100
AcDbLine
 10
268.0344218419
 20
38.8709449966
 30
0.0
 11
268.0344218419
 21
28.2709443767
 31
0.0
  0
LWPOLYLINE
  5
1AE
330
1F
100
AcDbEntity
  8
0
  6
Continuous
 62
     7
370
    15
100
AcDbPolyline
 90
        9
 70
   128
 43
0.0
 10
267.3039073155
 20
27.0709389646
 10
267.4464220212
 20
27.0940059621
 10
267.5834530995
 20
27.1622830827
 10
267.7097553418
 20
27.2731775243
 10
267.8204560683
 20
27.4224126537
 10
267.911293547
 20
27.6042664249
 10
267.9788107083
 20
27.811720391
 10
268.0203849481
 20
28.0368322332
 10
268.0344218419
 20
28.2709443767
  0
LINE
  5
1AF
330
1F
100
AcDbEntity
  8
0
  6
Continuous
 62
     7
370
    15
100
AcDbLine
 10
267.3039073155
 20
27.0709389646
 30
0.0
 11
264.5849222348
 21
27.0709389646
 31
0.0
  0
LINE
  5
1B0
330
1F
100
AcDbEntity
  8
0
  6
Continuous
 62
     7
370
    15
100
AcDbLine
 10
268.9864421294
 20
38.8709449966
 30
0.0
 11
268.9864421294
 21
28.2709443767
 31
0.0
  0
LINE
  5
1B1
330
1F
100
AcDbEntity
  8
0
  6
Continuous
 62
     7
370
    15
100
AcDbLine
 10
268.0344218419
 20
28.2709443767
 30
0.0
 11
268.9864421294
 21
28.2709443767
 31
0.0
  0
LINE
  5
1B2
330
1F
100
AcDbEntity
  8
0
  6
Continuous
 62
     7
370
    15
100
AcDbLine
 10
268.2559276031
 20
27.0709389646
 30
0.0
 11
267.3039073155
 21
27.0709389646
 31
0.0
  0
LWPOLYLINE
  5
1B3
330
1F
100
AcDbEntity
  8
0
  6
Continuous
 62
     7
370
    15
100
AcDbPolyline
 90
        9
 70
   128
 43
0.0
 10
268.9864421294
 20
28.2709443767
 10
268.9724052356
 20
28.0368322332
 10
268.9308309958
 20
27.811720391
 10
268.8633287356
 20
27.6042664249
 10
268.7724763558
 20
27.4224126537
 10
268.6617756293
 20
27.2731775243
 10
268.535473387
 20
27.1622830827
 10
268.3984423087
 20
27.0940059621
 10
268.2559276031
 20
27.0709389646
  0
LINE
  5
1B4
330
1F
100
AcDbEntity
  8
0
  6
Continuous
 62
     7
370
    15
100
AcDbLine
 10
268.9864421294
 20
508.8709438045
 30
0.0
 11
268.0344218419
 21
508.8709438045
 31
0.0
  0
LINE
  5
1B5
330
1F
100
AcDbEntity
  8
0
  6
Continuous
 62
     7
370
    15
100
AcDbLine
 10
268.9864421294
 20
508.8709438045
 30
0.0
 11
268.9864421294
 21
498.2709431846
 31
0.0
  0
LINE
  5
1B6
330
1F
100
AcDbEntity
  8
0
  6
Continuous
 62
     7
370
    15
100
AcDbLine
 10
268.0344218419
 20
498.2709431846
 30
0.0
 11
268.9864421294
 21
498.2709431846
 31
0.0
  0
LINE
  5
1B7
330
1F
100
AcDbEntity
  8
0
  6
Continuous
 62
     7
370
    15
100
AcDbLine
 10
268.0344218419
 20
508.8709438045
 30
0.0
 11
268.0344218419
 21
498.2709431846
 31
0.0
  0
LINE
  5
1B8
330
1F
100
AcDbEntity
  8
0
  6
Continuous
 62
     7
370
    15
100
AcDbLine
 10
267.3039073155
 20
510.0709492166
 30
0.0
 11
268.2559276031
 21
510.0709492166
 31
0.0
  0
LWPOLYLINE
  5
1B9
330
1F
100
AcDbEntity
  8
0
  6
Continuous
 62
     7
370
    15
100
AcDbPolyline
 90
        9
 70
   128
 43
0.0
 10
268.2559276031
 20
510.0709492166
 10
268.3984423087
 20
510.0478822191
 10
268.535473387
 20
509.9796050985
 10
268.6617756293
 20
509.8687106569
 10
268.7724763558
 20
509.7194755275
 10
268.8633287356
 20
509.5376217563
 10
268.9308309958
 20
509.3301677902
 10
268.9724052356
 20
509.105055948
 10
268.9864421294
 20
508.8709438045
  0
LWPOLYLINE
  5
1BA
330
1F
100
AcDbEntity
  8
0
  6
Continuous
 62
     7
370
    15
100
AcDbPolyline
 90
        9
 70
   128
 43
0.0
 10
268.0344218419
 20
508.8709438045
 10
268.0203849481
 20
509.105055948
 10
267.9788107083
 20
509.3301677902
 10
267.911293547
 20
509.5376217563
 10
267.8204560683
 20
509.7194755275
 10
267.7097553418
 20
509.8687106569
 10
267.5834530995
 20
509.9796050985
 10
267.4464220212
 20
510.0478822191
 10
267.3039073155
 20
510.0709492166
  0
LINE
  5
1BB
330
1F
100
AcDbEntity
  8
0
  6
Continuous
 62
     7
370
    15
100
AcDbLine
 10
268.2559276031
 20
497.0709377725
 30
0.0
 11
267.3039073155
 21
497.0709377725
 31
0.0
  0
LWPOLYLINE
  5
1BC
330
1F
100
AcDbEntity
  8
0
  6
Continuous
 62
     7
370
    15
100
AcDbPolyline
 90
        9
 70
   128
 43
0.0
 10
267.3039073155
 20
497.0709377725
 10
267.4464220212
 20
497.09400477
 10
267.5834530995
 20
497.1622818906
 10
267.7097553418
 20
497.2731763322
 10
267.8204560683
 20
497.4224114616
 10
267.911293547
 20
497.6042652328
 10
267.9788107083
 20
497.8117191989
 10
268.0203849481
 20
498.0368310411
 10
268.0344218419
 20
498.2709431846
  0
LWPOLYLINE
  5
1BD
330
1F
100
AcDbEntity
  8
0
  6
Continuous
 62
     7
370
    15
100
AcDbPolyline
 90
        9
 70
   128
 43
0.0
 10
268.9864421294
 20
498.2709431846
 10
268.9724052356
 20
498.0368310411
 10
268.9308309958
 20
497.8117191989
 10
268.8633287356
 20
497.6042652328
 10
268.7724763558
 20
497.4224114616
 10
268.6617756293
 20
497.2731763322
 10
268.535473387
 20
497.1622818906
 10
268.3984423087
 20
497.09400477
 10
268.2559276031
 20
497.0709377725
  0
LINE
  5
1BE
330
1F
100
AcDbEntity
  8
0
  6
Continuous
 62
     7
370
    15
100
AcDbLine
 10
264.5849222348
 20
510.0709492166
 30
0.0
 11
264.5849222348
 21
497.0709377725
 31
0.0
  0
LINE
  5
1BF
330
1F
100
AcDbEntity
  8
0
  6
Continuous
 62
     7
370
    15
100
AcDbLine
 10
264.5849222348
 20
510.0709492166
 30
0.0
 11
267.3039073155
 21
510.0709492166
 31
0.0
  0
LINE
  5
1C0
330
1F
100
AcDbEntity
  8
0
  6
Continuous
 62
     7
370
    15
100
AcDbLine
 10
267.3039073155
 20
497.0709377725
 30
0.0
 11
264.5849222348
 21
497.0709377725
 31
0.0
  0
LINE
  5
1C1
330
1F
100
AcDbEntity
  8
0
  6
Continuous
 62
     7
370
    15
100
AcDbLine
 10
264.0063101457
 20
40.0709504087
 30
0.0
 11
264.5849222348
 21
40.0709504087
 31
0.0
  0
LINE
  5
1C2
330
1F
100
AcDbEntity
  8
0
  6
Continuous
 62
     7
370
    15
100
AcDbLine
 10
264.5849222348
 20
27.0709389646
 30
0.0
 11
264.0063101457
 21
27.0709389646
 31
0.0
  0
LINE
  5
1C3
330
1F
100
AcDbEntity
  8
0
  6
Continuous
 62
     7
370
    15
100
AcDbLine
 10
264.0063101457
 20
510.0709492166
 30
0.0
 11
264.5849222348
 21
510.0709492166
 31
0.0
  0
LINE
  5
1C4
330
1F
100
AcDbEntity
  8
0
  6
Continuous
 62
     7
370
    15
100
AcDbLine
 10
264.5849222348
 20
497.0709377725
 30
0.0
 11
264.0063101457
 21
497.0709377725
 31
0.0
  0
CIRCLE
  5
1C5
330
1F
100
AcDbEntity
  8
0
  6
Continuous
 62
     7
370
    15
100
AcDbCircle
 10
274.5063099788
 20
38.5709440906
 30
0.0
 40
3.0
  0
LINE
  5
1C6
330
1F
100
AcDbEntity
  8
0
  6
Continuous
 62
     7
370
    15
100
AcDbLine
 10
274.1063172029
 20
38.9709466894
 30
0.0
 11
272.6063067124
 21
38.9709466894
 31
0.0
  0
LINE
  5
1C7
330
1F
100
AcDbEntity
  8
0
  6
Continuous
 62
     7
370
    15
100
AcDbLine
 10
272.6063067124
 20
38.1709480483
 30
0.0
 11
274.1063172029
 21
38.1709480483
 31
0.0
  0
LINE
  5
1C8
330
1F
100
AcDbEntity
  8
0
  6
Continuous
 62
     7
370
    15
100
AcDbLine
 10
274.1063172029
 20
38.1709480483
 30
0.0
 11
274.1063172029
 21
36.6709375579
 31
0.0
  0
LINE
  5
1C9
330
1F
100
AcDbEntity
  8
0
  6
Continuous
 62
     7
370
    15
100
AcDbLine
 10
276.4063114331
 20
38.1709480483
 30
0.0
 11
276.4063114331
 21
38.9709466894
 31
0.0
  0
LINE
  5
1CA
330
1F
100
AcDbEntity
  8
0
  6
Continuous
 62
     7
370
    15
100
AcDbLine
 10
274.9063158439
 20
38.9709466894
 30
0.0
 11
274.9063158439
 21
40.4709422786
 31
0.0
  0
LINE
  5
1CB
330
1F
100
AcDbEntity
  8
0
  6
Continuous
 62
     7
370
    15
100
AcDbLine
 10
274.1063172029
 20
36.6709375579
 30
0.0
 11
274.9063158439
 21
36.6709375579
 31
0.0
  0
LINE
  5
1CC
330
1F
100
AcDbEntity
  8
0
  6
Continuous
 62
     7
370
    15
100
AcDbLine
 10
274.9063158439
 20
38.1709480483
 30
0.0
 11
276.4063114331
 21
38.1709480483
 31
0.0
  0
LINE
  5
1CD
330
1F
100
AcDbEntity
  8
0
  6
Continuous
 62
     7
370
    15
100
AcDbLine
 10
274.9063158439
 20
40.4709422786
 30
0.0
 11
274.1063172029
 21
40.4709422786
 31
0.0
  0
LINE
  5
1CE
330
1F
100
AcDbEntity
  8
0
  6
Continuous
 62
     7
370
    15
100
AcDbLine
 10
274.9063158439
 20
36.6709375579
 30
0.0
 11
274.9063158439
 21
38.1709480483
 31
0.0
  0
LINE
  5
1CF
330
1F
100
AcDbEntity
  8
0
  6
Continuous
 62
     7
370
    15
100
AcDbLine
 10
272.6063067124
 20
38.9709466894
 30
0.0
 11
272.6063067124
 21
38.1709480483
 31
0.0
  0
LINE
  5
1D0
330
1F
100
AcDbEntity
  8
0
  6
Continuous
 62
     7
370
    15
100
AcDbLine
 10
274.1063172029
 20
40.4709422786
 30
0.0
 11
274.1063172029
 21
38.9709466894
 31
0.0
  0
LINE
  5
1D1
330
1F
100
AcDbEntity
  8
0
  6
Continuous
 62
     7
370
    15
100
AcDbLine
 10
276.4063114331
 20
38.9709466894
 30
0.0
 11
274.9063158439
 21
38.9709466894
 31
0.0
  0
LINE
  5
1D2
330
1F
100
AcDbEntity
  8
0
  6
Continuous
 62
     7
370
    15
100
AcDbLine
 10
274.9063158439
 20
26.6709470947
 30
0.0
 11
274.9063158439
 21
28.1709426839
 31
0.0
  0
LINE
  5
1D3
330
1F
100
AcDbEntity
  8
0
  6
Continuous
 62
     7
370
    15
100
AcDbLine
 10
276.4063114331
 20
28.1709426839
 30
0.0
 11
276.4063114331
 21
28.9709413249
 31
0.0
  0
LINE
  5
1D4
330
1F
100
AcDbEntity
  8
0
  6
Continuous
 62
     7
370
    15
100
AcDbLine
 10
274.9063158439
 20
30.4709369142
 30
0.0
 11
274.1063172029
 21
30.4709369142
 31
0.0
  0
LINE
  5
1D5
330
1F
100
AcDbEntity
  8
0
  6
Continuous
 62
     7
370
    15
100
AcDbLine
 10
274.9063158439
 20
28.9709413249
 30
0.0
 11
274.9063158439
 21
30.4709369142
 31
0.0
  0
LINE
  5
1D6
330
1F
100
AcDbEntity
  8
0
  6
Continuous
 62
     7
370
    15
100
AcDbLine
 10
276.4063114331
 20
28.9709413249
 30
0.0
 11
274.9063158439
 21
28.9709413249
 31
0.0
  0
LINE
  5
1D7
330
1F
100
AcDbEntity
  8
0
  6
Continuous
 62
     7
370
    15
100
AcDbLine
 10
274.1063172029
 20
28.1709426839
 30
0.0
 11
274.1063172029
 21
26.6709470947
 31
0.0
  0
CIRCLE
  5
1D8
330
1F
100
AcDbEntity
  8
0
  6
Continuous
 62
     7
370
    15
100
AcDbCircle
 10
274.5063099788
 20
28.5709440906
 30
0.0
 40
3.0
  0
LINE
  5
1D9
330
1F
100
AcDbEntity
  8
0
  6
Continuous
 62
     7
370
    15
100
AcDbLine
 10
272.6063067124
 20
28.9709413249
 30
0.0
 11
272.6063067124
 21
28.1709426839
 31
0.0
  0
LINE
  5
1DA
330
1F
100
AcDbEntity
  8
0
  6
Continuous
 62
     7
370
    15
100
AcDbLine
 10
274.1063172029
 20
28.9709413249
 30
0.0
 11
272.6063067124
 21
28.9709413249
 31
0.0
  0
LINE
  5
1DB
330
1F
100
AcDbEntity
  8
0
  6
Continuous
 62
     7
370
    15
100
AcDbLine
 10
274.9063158439
 20
28.1709426839
 30
0.0
 11
276.4063114331
 21
28.1709426839
 31
0.0
  0
LINE
  5
1DC
330
1F
100
AcDbEntity
  8
0
  6
Continuous
 62
     7
370
    15
100
AcDbLine
 10
274.1063172029
 20
30.4709369142
 30
0.0
 11
274.1063172029
 21
28.9709413249
 31
0.0
  0
LINE
  5
1DD
330
1F
100
AcDbEntity
  8
0
  6
Continuous
 62
     7
370
    15
100
AcDbLine
 10
272.6063067124
 20
28.1709426839
 30
0.0
 11
274.1063172029
 21
28.1709426839
 31
0.0
  0
LINE
  5
1DE
330
1F
100
AcDbEntity
  8
0
  6
Continuous
 62
     7
370
    15
100
AcDbLine
 10
274.1063172029
 20
26.6709470947
 30
0.0
 11
274.9063158439
 21
26.6709470947
 31
0.0
  0
CIRCLE
  5
1DF
330
1F
100
AcDbEntity
  8
0
  6
Continuous
 62
     7
370
    15
100
AcDbCircle
 10
274.5063099788
 20
498.5709440906
 30
0.0
 40
3.0
  0
LINE
  5
1E0
330
1F
100
AcDbEntity
  8
0
  6
Continuous
 62
     7
370
    15
100
AcDbLine
 10
274.1063172029
 20
496.6709459026
 30
0.0
 11
274.9063158439
 21
496.6709459026
 31
0.0
  0
LINE
  5
1E1
330
1F
100
AcDbEntity
  8
0
  6
Continuous
 62
     7
370
    15
100
AcDbLine
 10
274.9063158439
 20
496.6709459026
 30
0.0
 11
274.9063158439
 21
498.1709414918
 31
0.0
  0
LINE
  5
1E2
330
1F
100
AcDbEntity
  8
0
  6
Continuous
 62
     7
370
    15
100
AcDbLine
 10
276.4063114331
 20
498.1709414918
 30
0.0
 11
276.4063114331
 21
498.9709401328
 31
0.0
  0
LINE
  5
1E3
330
1F
100
AcDbEntity
  8
0
  6
Continuous
 62
     7
370
    15
100
AcDbLine
 10
276.4063114331
 20
498.9709401328
 30
0.0
 11
274.9063158439
 21
498.9709401328
 31
0.0
  0
LINE
  5
1E4
330
1F
100
AcDbEntity
  8
0
  6
Continuous
 62
     7
370
    15
100
AcDbLine
 10
274.9063158439
 20
498.9709401328
 30
0.0
 11
274.9063158439
 21
500.4709506233
 31
0.0
  0
LINE
  5
1E5
330
1F
100
AcDbEntity
  8
0
  6
Continuous
 62
     7
370
    15
100
AcDbLine
 10
274.9063158439
 20
500.4709506233
 30
0.0
 11
274.1063172029
 21
500.4709506233
 31
0.0
  0
LINE
  5
1E6
330
1F
100
AcDbEntity
  8
0
  6
Continuous
 62
     7
370
    15
100
AcDbLine
 10
274.1063172029
 20
500.4709506233
 30
0.0
 11
274.1063172029
 21
498.9709401328
 31
0.0
  0
LINE
  5
1E7
330
1F
100
AcDbEntity
  8
0
  6
Continuous
 62
     7
370
    15
100
AcDbLine
 10
274.1063172029
 20
498.9709401328
 30
0.0
 11
272.6063067124
 21
498.9709401328
 31
0.0
  0
LINE
  5
1E8
330
1F
100
AcDbEntity
  8
0
  6
Continuous
 62
     7
370
    15
100
AcDbLine
 10
272.6063067124
 20
498.9709401328
 30
0.0
 11
272.6063067124
 21
498.1709414918
 31
0.0
  0
LINE
  5
1E9
330
1F
100
AcDbEntity
  8
0
  6
Continuous
 62
     7
370
    15
100
AcDbLine
 10
272.6063067124
 20
498.1709414918
 30
0.0
 11
274.1063172029
 21
498.1709414918
 31
0.0
  0
LINE
  5
1EA
330
1F
100
AcDbEntity
  8
0
  6
Continuous
 62
     7
370
    15
100
AcDbLine
 10
274.1063172029
 20
498.1709414918
 30
0.0
 11
274.1063172029
 21
496.6709459026
 31
0.0
  0
LINE
  5
1EB
330
1F
100
AcDbEntity
  8
0
  6
Continuous
 62
     7
370
    15
100
AcDbLine
 10
274.9063158439
 20
498.1709414918
 30
0.0
 11
276.4063114331
 21
498.1709414918
 31
0.0
  0
LINE
  5
1EC
330
1F
100
AcDbEntity
  8
0
  6
Continuous
 62
     7
370
    15
100
AcDbLine
 10
274.1063172029
 20
508.9709454973
 30
0.0
 11
272.6063067124
 21
508.9709454973
 31
0.0
  0
LINE
  5
1ED
330
1F
100
AcDbEntity
  8
0
  6
Continuous
 62
     7
370
    15
100
AcDbLine
 10
276.4063114331
 20
508.1709468562
 30
0.0
 11
276.4063114331
 21
508.9709454973
 31
0.0
  0
LINE
  5
1EE
330
1F
100
AcDbEntity
  8
0
  6
Continuous
 62
     7
370
    15
100
AcDbLine
 10
274.1063172029
 20
510.4709410865
 30
0.0
 11
274.1063172029
 21
508.9709454973
 31
0.0
  0
LINE
  5
1EF
330
1F
100
AcDbEntity
  8
0
  6
Continuous
 62
     7
370
    15
100
AcDbLine
 10
274.9063158439
 20
508.9709454973
 30
0.0
 11
274.9063158439
 21
510.4709410865
 31
0.0
  0
LINE
  5
1F0
330
1F
100
AcDbEntity
  8
0
  6
Continuous
 62
     7
370
    15
100
AcDbLine
 10
276.4063114331
 20
508.9709454973
 30
0.0
 11
274.9063158439
 21
508.9709454973
 31
0.0
  0
LINE
  5
1F1
330
1F
100
AcDbEntity
  8
0
  6
Continuous
 62
     7
370
    15
100
AcDbLine
 10
272.6063067124
 20
508.9709454973
 30
0.0
 11
272.6063067124
 21
508.1709468562
 31
0.0
  0
LINE
  5
1F2
330
1F
100
AcDbEntity
  8
0
  6
Continuous
 62
     7
370
    15
100
AcDbLine
 10
274.9063158439
 20
506.670951267
 30
0.0
 11
274.9063158439
 21
508.1709468562
 31
0.0
  0
LINE
  5
1F3
330
1F
100
AcDbEntity
  8
0
  6
Continuous
 62
     7
370
    15
100
AcDbLine
 10
274.1063172029
 20
506.670951267
 30
0.0
 11
274.9063158439
 21
506.670951267
 31
0.0
  0
LINE
  5
1F4
330
1F
100
AcDbEntity
  8
0
  6
Continuous
 62
     7
370
    15
100
AcDbLine
 10
274.1063172029
 20
508.1709468562
 30
0.0
 11
274.1063172029
 21
506.670951267
 31
0.0
  0
LINE
  5
1F5
330
1F
100
AcDbEntity
  8
0
  6
Continuous
 62
     7
370
    15
100
AcDbLine
 10
274.9063158439
 20
510.4709410865
 30
0.0
 11
274.1063172029
 21
510.4709410865
 31
0.0
  0
CIRCLE
  5
1F6
330
1F
100
AcDbEntity
  8
0
  6
Continuous
 62
     7
370
    15
100
AcDbCircle
 10
274.5063099788
 20
508.5709440906
 30
0.0
 40
2.999999999999943
  0
LINE
  5
1F7
330
1F
100
AcDbEntity
  8
0
  6
Continuous
 62
     7
370
    15
100
AcDbLine
 10
274.9063158439
 20
508.1709468562
 30
0.0
 11
276.4063114331
 21
508.1709468562
 31
0.0
  0
LINE
  5
1F8
330
1F
100
AcDbEntity
  8
0
  6
Continuous
 62
     7
370
    15
100
AcDbLine
 10
272.6063067124
 20
508.1709468562
 30
0.0
 11
274.1063172029
 21
508.1709468562
 31
0.0
  0
LINE
  5
1F9
330
1F
100
AcDbEntity
  8
0
  6
Continuous
 62
     7
370
    15
100
AcDbLine
 10
273.4885448621
 20
22.4690580566
 30
0.0
 11
268.5063118146
 21
27.0709389646
 31
0.0
  0
ARC
  5
1FA
330
1F
100
AcDbEntity
  8
0
  6
Continuous
 62
     7
370
    15
100
AcDbCircle
 10
264.0063099788
 20
33.5709440906
 30
0.0
 40
16.00000000000013
100
AcDbArc
 50
316.3971810272
 51
43.6028189726
  0
ARC
  5
1FB
330
1F
100
AcDbEntity
  8
0
  6
Continuous
 62
     7
370
    15
100
AcDbCircle
 10
274.5063099787
 20
23.5709440906
 30
0.0
 40
1.499999999999787
100
AcDbArc
 50
227.2726046868
 51
316.3971810272
  0
LINE
  5
1FC
330
1F
100
AcDbEntity
  8
0
  6
Continuous
 62
     7
370
    15
100
AcDbLine
 10
268.5063118146
 20
40.0709504087
 30
0.0
 11
273.4885448621
 21
44.6728313167
 31
0.0
  0
ARC
  5
1FD
330
1F
100
AcDbEntity
  8
0
  6
Continuous
 62
     7
370
    15
100
AcDbCircle
 10
274.5063099788
 20
43.5709440906
 30
0.0
 40
1.499999999999974
100
AcDbArc
 50
43.6028189726
 51
132.7273953127
  0
LINE
  5
1FE
330
1F
100
AcDbEntity
  8
0
  6
Continuous
 62
     7
370
    15
100
AcDbLine
 10
268.3052951501
 20
40.0709504087
 30
0.0
 11
268.5063118146
 21
40.0709504087
 31
0.0
  0
LINE
  5
1FF
330
1F
100
AcDbEntity
  8
0
  6
Continuous
 62
     7
370
    15
100
AcDbLine
 10
268.5063118146
 20
27.0709389646
 30
0.0
 11
268.3052951501
 21
27.0709389646
 31
0.0
  0
ARC
  5
200
330
1F
100
AcDbEntity
  8
0
  6
Continuous
 62
     7
370
    15
100
AcDbCircle
 10
264.0063099788
 20
503.5709440906
 30
0.0
 40
16.00000000000017
100
AcDbArc
 50
316.3971810272
 51
43.6028189726
  0
ARC
  5
201
330
1F
100
AcDbEntity
  8
0
  6
Continuous
 62
     7
370
    15
100
AcDbCircle
 10
274.5063099788
 20
513.5709440906
 30
0.0
 40
1.49999999999999
100
AcDbArc
 50
43.6028189726
 51
132.7273953127
  0
LINE
  5
202
330
1F
100
AcDbEntity
  8
0
  6
Continuous
 62
     7
370
    15
100
AcDbLine
 10
268.5063118146
 20
510.0709492166
 30
0.0
 11
273.4885448621
 21
514.6728301246
 31
0.0
  0
ARC
  5
203
330
1F
100
AcDbEntity
  8
0
  6
Continuous
 62
     7
370
    15
100
AcDbCircle
 10
274.5063099787
 20
493.5709440906
 30
0.0
 40
1.49999999999976
100
AcDbArc
 50
227.2726046868
 51
316.3971810272
  0
LINE
  5
204
330
1F
100
AcDbEntity
  8
0
  6
Continuous
 62
     7
370
    15
100
AcDbLine
 10
273.4885448621
 20
492.4690568645
 30
0.0
 11
268.5063118146
 21
497.0709377725
 31
0.0
  0
LINE
  5
205
330
1F
100
AcDbEntity
  8
0
  6
Continuous
 62
     7
370
    15
100
AcDbLine
 10
268.3052951501
 20
510.0709492166
 30
0.0
 11
268.5063118146
 21
510.0709492166
 31
0.0
  0
LINE
  5
206
330
1F
100
AcDbEntity
  8
0
  6
Continuous
 62
     7
370
    15
100
AcDbLine
 10
268.5063118146
 20
497.0709377725
 30
0.0
 11
268.3052951501
 21
497.0709377725
 31
0.0
  0
LINE
  5
207
330
1F
100
AcDbEntity
  8
0
  6
Continuous
 62
     7
370
    15
100
AcDbLine
 10
276.5063131259
 20
-16.4290523331
 30
0.0
 11
276.5063131259
 21
-31.4290678303
 31
0.0
  0
LINE
  5
208
330
1F
100
AcDbEntity
  8
0
  6
Continuous
 62
     7
370
    15
100
AcDbLine
 10
276.5063131259
 20
-16.4290523331
 30
0.0
 11
291.5063137219
 21
-16.4290523331
 31
0.0
  0
ARC
  5
209
330
1F
100
AcDbEntity
  8
0
  6
Continuous
 62
     7
370
    15
100
AcDbCircle
 10
276.5063099788
 20
-16.4290559094
 30
0.0
 40
15.00000000000001
100
AcDbArc
 50
270.0
 51
0.0
  0
LINE
  5
20A
330
1F
100
AcDbEntity
  8
0
  6
Continuous
 62
     7
370
    15
100
AcDbLine
 10
271.5063029931
 20
-31.4290678303
 30
0.0
 11
276.5063131259
 21
-31.4290678303
 31
0.0
  0
LINE
  5
20B
330
1F
100
AcDbEntity
  8
0
  6
Continuous
 62
     7
370
    15
100
AcDbLine
 10
271.5063029931
 20
-16.4290523331
 30
0.0
 11
271.5063029931
 21
-31.4290678303
 31
0.0
  0
LINE
  5
20C
330
1F
100
AcDbEntity
  8
0
  6
Continuous
 62
     7
370
    15
100
AcDbLine
 10
271.5063029931
 20
-16.4290523331
 30
0.0
 11
276.5063131259
 21
-16.4290523331
 31
0.0
  0
LINE
  5
20D
330
1F
100
AcDbEntity
  8
0
  6
Continuous
 62
     7
370
    15
100
AcDbLine
 10
276.5063131259
 20
23.5834562976
 30
0.0
 11
276.5063131259
 21
-16.4290523331
 31
0.0
  0
LINE
  5
20E
330
1F
100
AcDbEntity
  8
0
  6
Continuous
 62
     7
370
    15
100
AcDbLine
 10
276.5063131259
 20
43.5584330756
 30
0.0
 11
276.5063131259
 21
493.5834551055
 31
0.0
  0
LINE
  5
20F
330
1F
100
AcDbEntity
  8
0
  6
Continuous
 62
     7
370
    15
100
AcDbLine
 10
276.5063131259
 20
513.5584318836
 30
0.0
 11
276.5063131259
 21
553.5709405143
 31
0.0
  0
LINE
  5
210
330
1F
100
AcDbEntity
  8
0
  6
Continuous
 62
     7
370
    15
100
AcDbLine
 10
276.5063131259
 20
553.5709405143
 30
0.0
 11
291.5063137219
 21
553.5709405143
 31
0.0
  0
LINE
  5
211
330
1F
100
AcDbEntity
  8
0
  6
Continuous
 62
     7
370
    15
100
AcDbLine
 10
291.5063137219
 20
553.5709405143
 30
0.0
 11
291.5063137219
 21
-16.4290523331
 31
0.0
  0
LINE
  5
212
330
1F
100
AcDbEntity
  8
0
  6
Continuous
 62
     7
370
    15
100
AcDbLine
 10
271.5063029931
 20
24.2999637325
 30
0.0
 11
271.5063029931
 21
-16.4290523331
 31
0.0
  0
LINE
  5
213
330
1F
100
AcDbEntity
  8
0
  6
Continuous
 62
     7
370
    15
100
AcDbLine
 10
271.5063029931
 20
42.8419256408
 30
0.0
 11
271.5063029931
 21
494.2999625404
 31
0.0
  0
LINE
  5
214
330
1F
100
AcDbEntity
  8
0
  6
Continuous
 62
     7
370
    15
100
AcDbLine
 10
271.5063029931
 20
553.5709405143
 30
0.0
 11
276.5063131259
 21
553.5709405143
 31
0.0
  0
LINE
  5
215
330
1F
100
AcDbEntity
  8
0
  6
Continuous
 62
     7
370
    15
100
AcDbLine
 10
271.5063029931
 20
512.8419244487
 30
0.0
 11
271.5063029931
 21
553.5709405143
 31
0.0
  0
LINE
  5
216
330
1F
100
AcDbEntity
  8
0
  6
Continuous
 62
     7
370
    15
100
AcDbLine
 10
276.5063131259
 20
553.5709405143
 30
0.0
 11
276.5063131259
 21
568.5709560115
 31
0.0
  0
ARC
  5
217
330
1F
100
AcDbEntity
  8
0
  6
Continuous
 62
     7
370
    15
100
AcDbCircle
 10
276.5063099788
 20
553.5709440906
 30
0.0
 40
15.00000000000011
100
AcDbArc
 50
0.0
 51
90.0
  0
LINE
  5
218
330
1F
100
AcDbEntity
  8
0
  6
Continuous
 62
     7
370
    15
100
AcDbLine
 10
271.5063029931
 20
568.5709560115
 30
0.0
 11
276.5063131259
 21
568.5709560115
 31
0.0
  0
LINE
  5
219
330
1F
100
AcDbEntity
  8
0
  6
Continuous
 62
     7
370
    15
100
AcDbLine
 10
271.5063029931
 20
553.5709405143
 30
0.0
 11
271.5063029931
 21
568.5709560115
 31
0.0
  0
SPLINE
  5
21A
330
1F
100
AcDbEntity
  8
0
  6
Continuous
 62
     7
370
    15
100
AcDbSpline
210
0.0
220
0.0
230
1.0
 70
     8
 71
     3
 72
    16
 73
    12
 74
     0
 42
0.00000001
 43
0.00000001
 40
0.0
 40
0.0
 40
0.0
 40
0.0
 40
0.1207067786574835
 40
0.2414158442349787
 40
0.3621180283044903
 40
0.4828230015567405
 40
0.6035292191675267
 40
0.7242361096741167
 40
0.8449394371156462
 40
0.9656486049554839
 40
1.0
 40
1.0
 40
1.0
 40
1.0
 10
249.6586078808757
 20
490.6185710627862
 30
0.0
 10
249.6780087492352
 20
490.6212475784886
 30
0.0
 10
249.7168108535247
 20
490.6266006606029
 30
0.0
 10
249.7217343533557
 20
490.9175277503737
 30
0.0
 10
249.6845181420202
 20
491.3708949805502
 30
0.0
 10
249.6076197529044
 20
491.9384018083577
 30
0.0
 10
249.5037850338905
 20
492.5267292476264
 30
0.0
 10
249.3876996085652
 20
493.053430041679
 30
0.0
 10
249.2806809993359
 20
493.4167050563368
 30
0.0
 10
249.2081117819026
 20
493.5871841481042
 30
0.0
 10
249.1885606753691
 20
493.5540249696787
 30
0.0
 10
249.1842294142695
 20
493.5466790396997
 30
0.0
  0
SPLINE
  5
21B
330
1F
100
AcDbEntity
  8
0
  6
Continuous
 62
     7
370
    15
100
AcDbSpline
210
0.0
220
0.0
230
1.0
 70
     8
 71
     3
 72
    16
 73
    12
 74
     0
 42
0.00000001
 43
0.00000001
 40
0.0
 40
0.0
 40
0.0
 40
0.0
 40
0.1205773130808821
 40
0.2411630015605836
 40
0.3617418155659114
 40
0.4823238081722991
 40
0.6029061198066487
 40
0.7234896354385915
 40
0.8440715182238145
 40
0.9646564228523614
 40
1.0
 40
1.0
 40
1.0
 40
1.0
 10
249.8291963742228
 20
516.4946013886757
 30
0.0
 10
249.8485973940361
 20
516.4919234207042
 30
0.0
 10
249.8874007812735
 20
516.4865672987473
 30
0.0
 10
249.8923208292302
 20
516.195645051907
 30
0.0
 10
249.8551133130399
 20
515.7422751698622
 30
0.0
 10
249.7781833154679
 20
515.1747770718463
 30
0.0
 10
249.6743785453704
 20
514.5864286434078
 30
0.0
 10
249.5582914759913
 20
514.0597871836283
 30
0.0
 10
249.4512474811666
 20
513.6962883220014
 30
0.0
 10
249.3784927244525
 20
513.5257655003641
 30
0.0
 10
249.3588524450566
 20
513.5593442175332
 30
0.0
 10
249.3544006751033
 20
513.5669553477593
 30
0.0
  0
SPLINE
  5
21C
330
1F
100
AcDbEntity
  8
0
  6
Continuous
 62
     7
370
    15
100
AcDbSpline
210
0.0
220
0.0
230
1.0
 70
     8
 71
     3
 72
    16
 73
    12
 74
     0
 42
0.00000001
 43
0.00000001
 40
0.0
 40
0.0
 40
0.0
 40
0.0
 40
0.1205176402004448
 40
0.2410324133922535
 40
0.3615497189204739
 40
0.4820672474464318
 40
0.6025840852210076
 40
0.7231021263394293
 40
0.8436166099673077
 40
0.9641311162119002
 40
1.0
 40
1.0
 40
1.0
 40
1.0
 10
265.1995802329036
 20
493.234991451008
 30
0.0
 10
265.2189813310077
 20
493.237659449036
 30
0.0
 10
265.2577830656809
 20
493.2429953816226
 30
0.0
 10
265.2627042456243
 20
493.5339540613818
 30
0.0
 10
265.2254977271886
 20
493.9872883317171
 30
0.0
 10
265.1485679055062
 20
494.5548184537652
 30
0.0
 10
265.0447613180979
 20
495.1431668572708
 30
0.0
 10
264.9286798552395
 20
495.6697878784216
 30
0.0
 10
264.8216193906678
 20
496.0333533592952
 30
0.0
 10
264.7487679456108
 20
496.2039570775851
 30
0.0
 10
264.729077350632
 20
496.1701405106811
 30
0.0
 10
264.7245610163661
 20
496.1623841721841
 30
0.0
  0
SPLINE
  5
21D
330
1F
100
AcDbEntity
  8
0
  6
Continuous
 62
     7
370
    15
100
AcDbSpline
210
0.0
220
0.0
230
1.0
 70
     8
 71
     3
 72
    16
 73
    12
 74
     0
 42
0.00000001
 43
0.00000001
 40
0.0
 40
0.0
 40
0.0
 40
0.0
 40
0.1205178887985882
 40
0.2410326213457433
 40
0.3615498862284561
 40
0.482064480341296
 40
0.6025812774705218
 40
0.7230970929169649
 40
0.8436175482792354
 40
0.9641311283089926
 40
1.0
 40
1.0
 40
1.0
 40
1.0
 10
265.3701687262508
 20
513.878181000454
 30
0.0
 10
265.3895698539901
 20
513.8755067680978
 30
0.0
 10
265.4283716013712
 20
513.870158373421
 30
0.0
 10
265.4332923928615
 20
513.579204606352
 30
0.0
 10
265.3960878565119
 20
513.1258724053278
 30
0.0
 10
265.3191527827418
 20
512.5583492874206
 30
0.0
 10
265.2153588201366
 20
511.9700118680991
 30
0.0
 10
265.0992371181244
 20
511.4433711226133
 30
0.0
 10
264.9922194262404
 20
511.0798060971602
 30
0.0
 10
264.9193556859258
 20
510.9092164825445
 30
0.0
 10
264.8996657242874
 20
510.9430321119
 30
0.0
 10
264.8951495097133
 20
510.9507882792778
 30
0.0
  0
SPLINE
  5
21E
330
1F
100
AcDbEntity
  8
0
  6
Continuous
 62
     7
370
    15
100
AcDbSpline
210
0.0
220
0.0
230
1.0
 70
    24
 71
     3
 72
    16
 73
    12
 74
     0
 42
0.00000001
 43
0.00000001
 40
0.0
 40
0.0
 40
0.0
 40
0.0
 40
0.0611042260699412
 40
0.1864670038060815
 40
0.3118320320058386
 40
0.4371949488658223
 40
0.5625600988373968
 40
0.6879240836221383
 40
0.8132868438052594
 40
0.9386468178623724
 40
1.0
 40
1.0
 40
1.0
 40
1.0
 10
268.2764912054988
 20
496.7047119338342
 30
0.0
 10
268.2822642248199
 20
496.7047119338342
 30
0.0
 10
268.2998812978927
 20
496.7047119338342
 30
0.0
 10
268.0814416601957
 20
496.7047119338342
 30
0.0
 10
267.668716638313
 20
496.7047119338341
 30
0.0
 10
267.1122439162505
 20
496.7047119338342
 30
0.0
 10
266.5131330198857
 20
496.7047119338341
 30
0.0
 10
265.9544417296513
 20
496.7047119338342
 30
0.0
 10
265.5374855831942
 20
496.7047119338341
 30
0.0
 10
265.3144833784264
 20
496.7047119338342
 30
0.0
 10
265.3292991264053
 20
496.7047119338342
 30
0.0
 10
265.3341675208064
 20
496.7047119338342
 30
0.0
  0
SPLINE
  5
21F
330
1F
100
AcDbEntity
  8
0
  6
Continuous
 62
     7
370
    15
100
AcDbSpline
210
0.0
220
0.0
230
1.0
 70
    24
 71
     3
 72
    16
 73
    12
 74
     0
 42
0.00000001
 43
0.00000001
 40
0.0
 40
0.0
 40
0.0
 40
0.0
 40
0.0610064761844534
 40
0.1861687080998494
 40
0.3113331868787419
 40
0.4364955576954215
 40
0.5616601580513301
 40
0.686823595084383
 40
0.8119858094748397
 40
0.9371452421963204
 40
1.0
 40
1.0
 40
1.0
 40
1.0
 10
268.2764912054988
 20
510.2633381087609
 30
0.0
 10
268.2822642185957
 20
510.2633381087609
 30
0.0
 10
268.2998812726743
 20
510.2633381087609
 30
0.0
 10
268.0814418940101
 20
510.2633381087609
 30
0.0
 10
267.6687157816417
 20
510.263338108761
 30
0.0
 10
267.1122471090806
 20
510.2633381087609
 30
0.0
 10
266.5131211050306
 20
510.263338108761
 30
0.0
 10
265.954486195521
 20
510.263338108761
 30
0.0
 10
265.5373196377103
 20
510.2633381087609
 30
0.0
 10
265.3138274247711
 20
510.2633381087609
 30
0.0
 10
265.3290490114091
 20
510.263338108761
 30
0.0
 10
265.334137718484
 20
510.2633381087609
 30
0.0
  0
SPLINE
  5
220
330
1F
100
AcDbEntity
  8
0
  6
Continuous
 62
     7
370
    15
100
AcDbSpline
210
0.0
220
0.0
230
1.0
 70
     8
 71
     3
 72
    19
 73
    15
 74
     0
 42
0.00000001
 43
0.00000001
 40
0.0
 40
0.0
 40
0.0
 40
0.0
 40
0.003953618010488
 40
0.115776033706381
 40
0.2280442264825153
 40
0.3355253341044871
 40
0.4377150157146248
 40
0.5348790905667086
 40
0.6283064862964614
 40
0.7303034301856084
 40
0.8413391196583399
 40
0.964111897829361
 40
0.9937689521059837
 40
1.0
 40
1.0
 40
1.0
 40
1.0
 10
254.6045864031764
 20
509.1709488828011
 30
0.0
 10
254.6049786640583
 20
509.1709418417203
 30
0.0
 10
254.6164654614581
 20
509.1707356537673
 30
0.0
 10
254.6397820039716
 20
509.1556699281471
 30
0.0
 10
254.6832574341208
 20
509.0887286911856
 30
0.0
 10
254.7212338293772
 20
508.9840508134602
 30
0.0
 10
254.7447347888562
 20
508.8589718066186
 30
0.0
 10
254.7560797402986
 20
508.7305359824555
 30
0.0
 10
254.7566559691166
 20
508.6093681278816
 30
0.0
 10
254.7408924848623
 20
508.5001317962939
 30
0.0
 10
254.7005086471455
 20
508.4107202581723
 30
0.0
 10
254.6486509786738
 20
508.3756635673826
 30
0.0
 10
254.6139274038581
 20
508.3710532465684
 30
0.0
 10
254.6059682976955
 20
508.3709654801697
 30
0.0
 10
254.6045864031764
 20
508.370950241787
 30
0.0
  0
SPLINE
  5
221
330
1F
100
AcDbEntity
  8
0
  6
Continuous
 62
     7
370
    15
100
AcDbSpline
210
0.0
220
0.0
230
1.0
 70
     8
 71
     3
 72
    30
 73
    26
 74
     0
 42
0.00000001
 43
0.00000001
 40
0.0
 40
0.0
 40
0.0
 40
0.0
 40
0.1247215464353782
 40
0.2494237815128954
 40
0.3741310122226426
 40
0.4367826532934281
 40
0.4681526055135949
 40
0.4838416918508273
 40
0.4916928727634536
 40
0.4956121120119286
 40
0.4975701667876981
 40
0.4985519412119752
 40
0.4990400775229306
 40
0.4992855211289998
 40
0.499418631613583
 40
0.4994827461131645
 40
0.4995065576405282
 40
0.49951846340421
 40
0.4995450855011267
 40
0.5609217869323919
 40
0.664629589509489
 40
0.7325820045544567
 40
0.8111543235660678
 40
0.9002866824298972
 40
1.0
 40
1.0
 40
1.0
 40
1.0
 10
254.6762907908412
 20
509.2308366496392
 30
0.0
 10
254.682054139308
 20
509.229045543067
 30
0.0
 10
254.6935799438691
 20
509.2254636072502
 30
0.0
 10
254.7834265624161
 20
509.2036066496225
 30
0.0
 10
254.8909081766001
 20
509.1779442812667
 30
0.0
 10
254.9764498747994
 20
509.1575231195091
 30
0.0
 10
255.0205570405718
 20
509.1470054118536
 30
0.0
 10
255.0427741376054
 20
509.1416514233248
 30
0.0
 10
255.0539196108455
 20
509.139029013822
 30
0.0
 10
255.0594784718377
 20
509.1376517511627
 30
0.0
 10
255.0622721581777
 20
509.1370315403083
 30
0.0
 10
255.0636504991269
 20
509.1366463162361
 30
0.0
 10
255.0643561981179
 20
509.1365209479449
 30
0.0
 10
255.0646996720097
 20
509.136402335763
 30
0.0
 10
255.0648889336837
 20
509.136400248855
 30
0.0
 10
255.0649702546577
 20
509.1363457311548
 30
0.0
 10
255.0650123180236
 20
509.1363480050404
 30
0.0
 10
255.0650387746282
 20
509.1363498580661
 30
0.0
 10
255.0870132872551
 20
509.1209128177994
 30
0.0
 10
255.1597295942127
 20
509.1232649739508
 30
0.0
 10
255.2477642489055
 20
509.0947014263658
 30
0.0
 10
255.3319159901159
 20
509.079324372074
 30
0.0
 10
255.3952774208206
 20
509.0659596660498
 30
0.0
 10
255.4458716770178
 20
509.0564784829608
 30
0.0
 10
255.4530813210299
 20
509.0559906745337
 30
0.0
 10
255.4568881199809
 20
509.0557331044503
 30
0.0
  0
ELLIPSE
  5
222
330
1F
100
AcDbEntity
  8
0
  6
Continuous
 62
     7
370
    15
100
AcDbEllipse
 10
255.3334183725
 20
510.3529192693
 30
0.0
 11
0.3906095144046162
 21
-0.08616383961157224
 31
0.0
210
0.0
220
0.0
230
0.9999999999999999
 40
0.0142285888
 41
0.0
 42
6.283185307179586
  0
LINE
  5
223
330
1F
100
AcDbEntity
  8
0
  6
Continuous
 62
     7
370
    15
100
AcDbLine
 10
254.7172391818
 20
498.8709384401
 30
0.0
 11
254.7172391818
 21
507.470949908
 31
0.0
  0
LINE
  5
224
330
1F
100
AcDbEntity
  8
0
  6
Continuous
 62
     7
370
    15
100
AcDbLine
 10
249.2029452727
 20
498.8709384401
 30
0.0
 11
249.2029452727
 21
507.470949908
 31
0.0
  0
LINE
  5
225
330
1F
100
AcDbEntity
  8
0
  6
Continuous
 62
     7
370
    15
100
AcDbLine
 10
254.7172391818
 20
498.8709384401
 30
0.0
 11
249.2029452727
 21
498.8709384401
 31
0.0
  0
LINE
  5
226
330
1F
100
AcDbEntity
  8
0
  6
Continuous
 62
     7
370
    15
100
AcDbLine
 10
254.7172391818
 20
507.470949908
 30
0.0
 11
249.2029452727
 21
507.470949908
 31
0.0
  0
LINE
  5
227
330
1F
100
AcDbEntity
  8
0
  6
Continuous
 62
     7
370
    15
100
AcDbLine
 10
248.0886811421
 20
510.7709461648
 30
0.0
 11
223.2765788243
 21
510.7709461648
 31
0.0
  0
LINE
  5
228
330
1F
100
AcDbEntity
  8
0
  6
Continuous
 62
     7
370
    15
100
AcDbLine
 10
248.0886811421
 20
507.470949908
 30
0.0
 11
248.0886811421
 21
510.7709461648
 31
0.0
  0
LINE
  5
229
330
1F
100
AcDbEntity
  8
0
  6
Continuous
 62
     7
370
    15
100
AcDbLine
 10
248.0886811421
 20
496.3709408243
 30
0.0
 11
248.0886811421
 21
498.8709384401
 31
0.0
  0
LINE
  5
22A
330
1F
100
AcDbEntity
  8
0
  6
Continuous
 62
     7
370
    15
100
AcDbLine
 10
223.2765788243
 20
496.3709408243
 30
0.0
 11
248.0886811421
 21
496.3709408243
 31
0.0
  0
LINE
  5
22B
330
1F
100
AcDbEntity
  8
0
  6
Continuous
 62
     7
370
    15
100
AcDbLine
 10
223.2765788243
 20
496.3709408243
 30
0.0
 11
223.2765788243
 21
510.7709461648
 31
0.0
  0
LINE
  5
22C
330
1F
100
AcDbEntity
  8
0
  6
Continuous
 62
     7
370
    15
100
AcDbLine
 10
248.0886811421
 20
498.8709384401
 30
0.0
 11
249.2029452727
 21
498.8709384401
 31
0.0
  0
LINE
  5
22D
330
1F
100
AcDbEntity
  8
0
  6
Continuous
 62
     7
370
    15
100
AcDbLine
 10
248.0886811421
 20
507.470949908
 30
0.0
 11
249.2029452727
 21
507.470949908
 31
0.0
  0
LINE
  5
22E
330
1F
100
AcDbEntity
  8
0
  6
Continuous
 62
     7
370
    15
100
AcDbLine
 10
248.2163095878
 20
495.5735945899
 30
0.0
 11
250.1085484431
 21
495.5735945899
 31
0.0
  0
LINE
  5
22F
330
1F
100
AcDbEntity
  8
0
  6
Continuous
 62
     7
370
    15
100
AcDbLine
 10
250.1085484431
 20
495.5735945899
 30
0.0
 11
250.7813060687
 21
495.5709421832
 31
0.0
  0
LINE
  5
230
330
1F
100
AcDbEntity
  8
0
  6
Continuous
 62
     7
370
    15
100
AcDbLine
 10
250.7813060687
 20
495.5709421832
 30
0.0
 11
223.4155023501
 21
495.5709421832
 31
0.0
  0
ARC
  5
231
330
1F
100
AcDbEntity
  8
0
  6
Continuous
 62
     7
370
    15
100
AcDbCircle
 10
224.5325016213
 20
496.1769760413
 30
0.0
 40
1.270812499494411
100
AcDbArc
 50
171.2205995842
 51
208.4822784261
  0
ARC
  5
232
330
1F
100
AcDbEntity
  8
0
  6
Continuous
 62
     7
370
    15
100
AcDbCircle
 10
249.5629961307
 20
496.1980416715
 30
0.0
 40
1.484418674970812
100
AcDbArc
 50
173.3112340828
 51
204.8767532576
  0
LINE
  5
233
330
1F
100
AcDbEntity
  8
0
  6
Continuous
 62
     7
370
    15
100
AcDbLine
 10
250.1085484431
 20
511.5682923992
 30
0.0
 11
248.2163095878
 21
511.5682923992
 31
0.0
  0
ARC
  5
234
330
1F
100
AcDbEntity
  8
0
  6
Continuous
 62
     7
370
    15
100
AcDbCircle
 10
249.5629961307
 20
510.9438453176
 30
0.0
 40
1.484418674970812
100
AcDbArc
 50
155.1232467424
 51
186.6887659172
  0
ARC
  5
235
330
1F
100
AcDbEntity
  8
0
  6
Continuous
 62
     7
370
    15
100
AcDbCircle
 10
224.5325016213
 20
510.9649109477
 30
0.0
 40
1.270812499494447
100
AcDbArc
 50
151.5177215739
 51
188.7794004158
  0
LINE
  5
236
330
1F
100
AcDbEntity
  8
0
  6
Continuous
 62
     7
370
    15
100
AcDbLine
 10
223.4155023501
 20
511.5709448058
 30
0.0
 11
250.7813060687
 21
511.5709448058
 31
0.0
  0
LINE
  5
237
330
1F
100
AcDbEntity
  8
0
  6
Continuous
 62
     7
370
    15
100
AcDbLine
 10
250.7813060687
 20
511.5709448058
 30
0.0
 11
250.1085484431
 21
511.5682923992
 31
0.0
  0
LINE
  5
238
330
1F
100
AcDbEntity
  8
0
  6
Continuous
 62
     7
370
    15
100
AcDbLine
 10
248.2163095878
 20
495.5735945899
 30
0.0
 11
248.2163095878
 21
496.3709408243
 31
0.0
  0
LINE
  5
239
330
1F
100
AcDbEntity
  8
0
  6
Continuous
 62
     7
370
    15
100
AcDbLine
 10
248.2276046679
 20
498.8709384401
 30
0.0
 11
248.2276046679
 21
496.3709408243
 31
0.0
  0
LINE
  5
23A
330
1F
100
AcDbEntity
  8
0
  6
Continuous
 62
     7
370
    15
100
AcDbLine
 10
248.2163095878
 20
510.7709461648
 30
0.0
 11
248.2163095878
 21
511.5682923992
 31
0.0
  0
LINE
  5
23B
330
1F
100
AcDbEntity
  8
0
  6
Continuous
 62
     7
370
    15
100
AcDbLine
 10
248.2276046679
 20
510.7709461648
 30
0.0
 11
248.2276046679
 21
507.470949908
 31
0.0
  0
LINE
  5
23C
330
1F
100
AcDbEntity
  8
0
  6
Continuous
 62
     7
370
    15
100
AcDbLine
 10
250.1085484431
 20
510.7709461648
 30
0.0
 11
250.1085484431
 21
511.5682923992
 31
0.0
  0
LINE
  5
23D
330
1F
100
AcDbEntity
  8
0
  6
Continuous
 62
     7
370
    15
100
AcDbLine
 10
254.2163068459
 20
511.5709448058
 30
0.0
 11
250.7813060687
 21
511.5709448058
 31
0.0
  0
LINE
  5
23E
330
1F
100
AcDbEntity
  8
0
  6
Continuous
 62
     7
370
    15
100
AcDbLine
 10
254.2163068459
 20
510.7709461648
 30
0.0
 11
250.1085484431
 21
510.7709461648
 31
0.0
  0
LINE
  5
23F
330
1F
100
AcDbEntity
  8
0
  6
Continuous
 62
     7
370
    15
100
AcDbLine
 10
254.2163068459
 20
495.5709421832
 30
0.0
 11
250.7813060687
 21
495.5709421832
 31
0.0
  0
LINE
  5
240
330
1F
100
AcDbEntity
  8
0
  6
Continuous
 62
     7
370
    15
100
AcDbLine
 10
250.1085484431
 20
495.5735945899
 30
0.0
 11
250.1085484431
 21
496.3709408243
 31
0.0
  0
LINE
  5
241
330
1F
100
AcDbEntity
  8
0
  6
Continuous
 62
     7
370
    15
100
AcDbLine
 10
254.2163068459
 20
496.3709408243
 30
0.0
 11
250.1085484431
 21
496.3709408243
 31
0.0
  0
LINE
  5
242
330
1F
100
AcDbEntity
  8
0
  6
Continuous
 62
     7
370
    15
100
AcDbLine
 10
248.2163095878
 20
496.3709408243
 30
0.0
 11
250.1085484431
 21
496.3709408243
 31
0.0
  0
LINE
  5
243
330
1F
100
AcDbEntity
  8
0
  6
Continuous
 62
     7
370
    15
100
AcDbLine
 10
248.2163095878
 20
510.7709461648
 30
0.0
 11
250.1085484431
 21
510.7709461648
 31
0.0
  0
LINE
  5
244
330
1F
100
AcDbEntity
  8
0
  6
Continuous
 62
     7
370
    15
100
AcDbLine
 10
249.2863172696
 20
511.8709498842
 30
0.0
 11
253.6863172458
 21
511.8709498842
 31
0.0
  0
LINE
  5
245
330
1F
100
AcDbEntity
  8
0
  6
Continuous
 62
     7
370
    15
100
AcDbLine
 10
249.3863040612
 20
495.1709503133
 30
0.0
 11
253.586315553
 21
495.1709503133
 31
0.0
  0
LINE
  5
246
330
1F
100
AcDbEntity
  8
0
  6
Continuous
 62
     7
370
    15
100
AcDbLine
 10
249.3863040612
 20
494.7709435422
 30
0.0
 11
253.586315553
 21
494.7709435422
 31
0.0
  0
LINE
  5
247
330
1F
100
AcDbEntity
  8
0
  6
Continuous
 62
     7
370
    15
100
AcDbLine
 10
218.3777326749
 20
510.7709461648
 30
0.0
 11
216.3882488416
 21
510.7709461648
 31
0.0
  0
LINE
  5
248
330
1F
100
AcDbEntity
  8
0
  6
Continuous
 62
     7
370
    15
100
AcDbLine
 10
218.3777326749
 20
496.3709408243
 30
0.0
 11
218.3777326749
 21
510.7709461648
 31
0.0
  0
LINE
  5
249
330
1F
100
AcDbEntity
  8
0
  6
Continuous
 62
     7
370
    15
100
AcDbLine
 10
216.3882488416
 20
496.3709408243
 30
0.0
 11
218.3777326749
 21
496.3709408243
 31
0.0
  0
ARC
  5
24A
330
1F
100
AcDbEntity
  8
0
  6
Continuous
 62
     7
370
    15
100
AcDbCircle
 10
231.6822232643
 20
503.5709434945
 30
0.0
 40
16.90401408232901
100
AcDbArc
 50
154.7901718738
 51
205.2098281262
  0
SPLINE
  5
24B
330
1F
100
AcDbEntity
  8
0
  6
Continuous
 62
     7
370
    15
100
AcDbSpline
210
0.0
220
0.0
230
1.0
 70
     8
 71
     3
 72
    12
 73
     8
 74
     0
 42
0.00000001
 43
0.00000001
 40
0.0
 40
0.0
 40
0.0
 40
0.0
 40
0.1818825444540627
 40
0.3633449413033811
 40
0.5550836662988128
 40
0.7712676109962568
 40
1.0
 40
1.0
 40
1.0
 40
1.0
 10
216.5206307576152
 20
495.5709421832391
 30
0.0
 10
216.5444878605916
 20
495.5782645809786
 30
0.0
 10
216.5921469567774
 20
495.5928924617617
 30
0.0
 10
216.606897770225
 20
495.7048890021077
 30
0.0
 10
216.5796637237437
 20
495.8742845759338
 30
0.0
 10
216.5079881827204
 20
496.1026910313161
 30
0.0
 10
216.4289054399358
 20
496.2798586119365
 30
0.0
 10
216.3882488415691
 20
496.3709408242532
 30
0.0
  0
LINE
  5
24C
330
1F
100
AcDbEntity
  8
0
  6
Continuous
 62
     7
370
    15
100
AcDbLine
 10
216.1362702058
 20
496.3254475791
 30
0.0
 11
216.4907092259
 21
495.5709421832
 31
0.0
  0
ARC
  5
24D
330
1F
100
AcDbEntity
  8
0
  6
Continuous
 62
     7
370
    15
100
AcDbCircle
 10
231.4068210608
 20
503.5709434945
 30
0.0
 40
16.90227601465683
100
AcDbArc
 50
154.6168257198
 51
205.3831742802
  0
LINE
  5
24E
330
1F
100
AcDbEntity
  8
0
  6
Continuous
 62
     7
370
    15
100
AcDbLine
 10
216.4907092259
 20
511.5709448058
 30
0.0
 11
216.1362702058
 21
510.81643941
 31
0.0
  0
SPLINE
  5
24F
330
1F
100
AcDbEntity
  8
0
  6
Continuous
 62
     7
370
    15
100
AcDbSpline
210
0.0
220
0.0
230
1.0
 70
     8
 71
     3
 72
    12
 73
     8
 74
     0
 42
0.00000001
 43
0.00000001
 40
0.0
 40
0.0
 40
0.0
 40
0.0
 40
0.2510114819641536
 40
0.5023967714756553
 40
0.7402775972796664
 40
0.9473076891039195
 40
1.0
 40
1.0
 40
1.0
 40
1.0
 10
216.388248841569
 20
510.7709461648293
 30
0.0
 10
216.4325673635252
 20
510.8708256738173
 30
0.0
 10
216.5212704068007
 20
511.0707334328546
 30
0.0
 10
216.5962526221631
 20
511.3294617946336
 30
0.0
 10
216.6077618745378
 20
511.5066993131634
 30
0.0
 10
216.5661129842302
 20
511.5671597811403
 30
0.0
 10
216.5283018547838
 20
511.5703064181822
 30
0.0
 10
216.5206307576152
 20
511.5709448058434
 30
0.0
  0
LINE
  5
250
330
1F
100
AcDbEntity
  8
0
  6
Continuous
 62
     7
370
    15
100
AcDbLine
 10
216.5206307576
 20
495.5709421832
 30
0.0
 11
216.4907092259
 21
495.5709421832
 31
0.0
  0
LINE
  5
251
330
1F
100
AcDbEntity
  8
0
  6
Continuous
 62
     7
370
    15
100
AcDbLine
 10
216.5206307576
 20
511.5709448058
 30
0.0
 11
216.4907092259
 21
511.5709448058
 31
0.0
  0
LWPOLYLINE
  5
252
330
1F
100
AcDbEntity
  8
0
  6
Continuous
 62
     7
370
    15
100
AcDbPolyline
 90
        9
 70
   128
 43
0.0
 10
218.3777326749
 20
510.7709461648
 10
218.372472565
 20
510.9270209272
 10
218.3569008515
 20
511.0770905216
 10
218.331613581
 20
511.2154030998
 10
218.29759423
 20
511.3366240461
 10
218.2561242984
 20
511.4361190994
 10
218.2088131116
 20
511.51004376
 10
218.1574935124
 20
511.5555668075
 10
218.104117553
 20
511.5709448058
  0
LINE
  5
253
330
1F
100
AcDbEntity
  8
0
  6
Continuous
 62
     7
370
    15
100
AcDbLine
 10
216.5206307576
 20
511.5709448058
 30
0.0
 11
218.104117553
 21
511.5709448058
 31
0.0
  0
LWPOLYLINE
  5
254
330
1F
100
AcDbEntity
  8
0
  6
Continuous
 62
     7
370
    15
100
AcDbPolyline
 90
        9
 70
   128
 43
0.0
 10
218.3777326749
 20
496.3709408243
 10
218.372472565
 20
496.2148660619
 10
218.3569008515
 20
496.0647964675
 10
218.331613581
 20
495.9264838893
 10
218.29759423
 20
495.805262943
 10
218.2561242984
 20
495.7057678897
 10
218.2088131116
 20
495.631843229
 10
218.1574935124
 20
495.5863201816
 10
218.104117553
 20
495.5709421832
  0
LINE
  5
255
330
1F
100
AcDbEntity
  8
0
  6
Continuous
 62
     7
370
    15
100
AcDbLine
 10
218.104117553
 20
495.5709421832
 30
0.0
 11
216.5206307576
 21
495.5709421832
 31
0.0
  0
LINE
  5
256
330
1F
100
AcDbEntity
  8
0
  6
Continuous
 62
     7
370
    15
100
AcDbLine
 10
218.3777326749
 20
496.3709408243
 30
0.0
 11
223.2765788243
 21
496.3709408243
 31
0.0
  0
LINE
  5
257
330
1F
100
AcDbEntity
  8
0
  6
Continuous
 62
     7
370
    15
100
AcDbLine
 10
223.4155023501
 20
495.5709421832
 30
0.0
 11
218.104117553
 21
495.5709421832
 31
0.0
  0
LINE
  5
258
330
1F
100
AcDbEntity
  8
0
  6
Continuous
 62
     7
370
    15
100
AcDbLine
 10
223.2765788243
 20
510.7709461648
 30
0.0
 11
218.3777326749
 21
510.7709461648
 31
0.0
  0
LINE
  5
259
330
1F
100
AcDbEntity
  8
0
  6
Continuous
 62
     7
370
    15
100
AcDbLine
 10
218.104117553
 20
511.5709448058
 30
0.0
 11
223.4155023501
 21
511.5709448058
 31
0.0
  0
LINE
  5
25A
330
1F
100
AcDbEntity
  8
0
  6
Continuous
 62
     7
370
    15
100
AcDbLine
 10
254.7172391818
 20
28.8709396322
 30
0.0
 11
254.7172391818
 21
37.4709511001
 31
0.0
  0
LINE
  5
25B
330
1F
100
AcDbEntity
  8
0
  6
Continuous
 62
     7
370
    15
100
AcDbLine
 10
249.2029452727
 20
28.8709396322
 30
0.0
 11
249.2029452727
 21
37.4709511001
 31
0.0
  0
LINE
  5
25C
330
1F
100
AcDbEntity
  8
0
  6
Continuous
 62
     7
370
    15
100
AcDbLine
 10
254.7172391818
 20
37.4709511001
 30
0.0
 11
249.2029452727
 21
37.4709511001
 31
0.0
  0
LINE
  5
25D
330
1F
100
AcDbEntity
  8
0
  6
Continuous
 62
     7
370
    15
100
AcDbLine
 10
254.7172391818
 20
28.8709396322
 30
0.0
 11
249.2029452727
 21
28.8709396322
 31
0.0
  0
LINE
  5
25E
330
1F
100
AcDbEntity
  8
0
  6
Continuous
 62
     7
370
    15
100
AcDbLine
 10
248.0886811421
 20
40.7709473569
 30
0.0
 11
223.2765788243
 21
40.7709473569
 31
0.0
  0
LINE
  5
25F
330
1F
100
AcDbEntity
  8
0
  6
Continuous
 62
     7
370
    15
100
AcDbLine
 10
248.0886811421
 20
37.4709511001
 30
0.0
 11
248.0886811421
 21
40.7709473569
 31
0.0
  0
LINE
  5
260
330
1F
100
AcDbEntity
  8
0
  6
Continuous
 62
     7
370
    15
100
AcDbLine
 10
248.0886811421
 20
26.3709420163
 30
0.0
 11
248.0886811421
 21
28.8709396322
 31
0.0
  0
LINE
  5
261
330
1F
100
AcDbEntity
  8
0
  6
Continuous
 62
     7
370
    15
100
AcDbLine
 10
223.2765788243
 20
26.3709420163
 30
0.0
 11
248.0886811421
 21
26.3709420163
 31
0.0
  0
LINE
  5
262
330
1F
100
AcDbEntity
  8
0
  6
Continuous
 62
     7
370
    15
100
AcDbLine
 10
223.2765788243
 20
26.3709420163
 30
0.0
 11
223.2765788243
 21
40.7709473569
 31
0.0
  0
LINE
  5
263
330
1F
100
AcDbEntity
  8
0
  6
Continuous
 62
     7
370
    15
100
AcDbLine
 10
248.0886811421
 20
37.4709511001
 30
0.0
 11
249.2029452727
 21
37.4709511001
 31
0.0
  0
LINE
  5
264
330
1F
100
AcDbEntity
  8
0
  6
Continuous
 62
     7
370
    15
100
AcDbLine
 10
248.0886811421
 20
28.8709396322
 30
0.0
 11
249.2029452727
 21
28.8709396322
 31
0.0
  0
LINE
  5
265
330
1F
100
AcDbEntity
  8
0
  6
Continuous
 62
     7
370
    15
100
AcDbLine
 10
250.1085484431
 20
41.5682935912
 30
0.0
 11
248.2163095878
 21
41.5682935912
 31
0.0
  0
ARC
  5
266
330
1F
100
AcDbEntity
  8
0
  6
Continuous
 62
     7
370
    15
100
AcDbCircle
 10
249.5629961307
 20
40.9438465097
 30
0.0
 40
1.484418674970809
100
AcDbArc
 50
155.1232467424
 51
186.6887659172
  0
ARC
  5
267
330
1F
100
AcDbEntity
  8
0
  6
Continuous
 62
     7
370
    15
100
AcDbCircle
 10
224.5325016213
 20
40.9649121398
 30
0.0
 40
1.270812499494407
100
AcDbArc
 50
151.5177215739
 51
188.7794004158
  0
LINE
  5
268
330
1F
100
AcDbEntity
  8
0
  6
Continuous
 62
     7
370
    15
100
AcDbLine
 10
223.4155023501
 20
41.5709459979
 30
0.0
 11
250.7813060687
 21
41.5709459979
 31
0.0
  0
LINE
  5
269
330
1F
100
AcDbEntity
  8
0
  6
Continuous
 62
     7
370
    15
100
AcDbLine
 10
250.7813060687
 20
41.5709459979
 30
0.0
 11
250.1085484431
 21
41.5682935912
 31
0.0
  0
LINE
  5
26A
330
1F
100
AcDbEntity
  8
0
  6
Continuous
 62
     7
370
    15
100
AcDbLine
 10
248.2163095878
 20
25.573595782
 30
0.0
 11
250.1085484431
 21
25.573595782
 31
0.0
  0
LINE
  5
26B
330
1F
100
AcDbEntity
  8
0
  6
Continuous
 62
     7
370
    15
100
AcDbLine
 10
250.1085484431
 20
25.573595782
 30
0.0
 11
250.7813060687
 21
25.5709433753
 31
0.0
  0
LINE
  5
26C
330
1F
100
AcDbEntity
  8
0
  6
Continuous
 62
     7
370
    15
100
AcDbLine
 10
250.7813060687
 20
25.5709433753
 30
0.0
 11
223.4155023501
 21
25.5709433753
 31
0.0
  0
ARC
  5
26D
330
1F
100
AcDbEntity
  8
0
  6
Continuous
 62
     7
370
    15
100
AcDbCircle
 10
224.5325016213
 20
26.1769772334
 30
0.0
 40
1.27081249949441
100
AcDbArc
 50
171.2205995842
 51
208.4822784261
  0
ARC
  5
26E
330
1F
100
AcDbEntity
  8
0
  6
Continuous
 62
     7
370
    15
100
AcDbCircle
 10
249.5629961307
 20
26.1980428635
 30
0.0
 40
1.484418674970808
100
AcDbArc
 50
173.3112340828
 51
204.8767532576
  0
LINE
  5
26F
330
1F
100
AcDbEntity
  8
0
  6
Continuous
 62
     7
370
    15
100
AcDbLine
 10
248.2163095878
 20
40.7709473569
 30
0.0
 11
248.2163095878
 21
41.5682935912
 31
0.0
  0
LINE
  5
270
330
1F
100
AcDbEntity
  8
0
  6
Continuous
 62
     7
370
    15
100
AcDbLine
 10
248.2276046679
 20
40.7709473569
 30
0.0
 11
248.2276046679
 21
37.4709511001
 31
0.0
  0
LINE
  5
271
330
1F
100
AcDbEntity
  8
0
  6
Continuous
 62
     7
370
    15
100
AcDbLine
 10
248.2163095878
 20
25.573595782
 30
0.0
 11
248.2163095878
 21
26.3709420163
 31
0.0
  0
LINE
  5
272
330
1F
100
AcDbEntity
  8
0
  6
Continuous
 62
     7
370
    15
100
AcDbLine
 10
248.2276046679
 20
28.8709396322
 30
0.0
 11
248.2276046679
 21
26.3709420163
 31
0.0
  0
LINE
  5
273
330
1F
100
AcDbEntity
  8
0
  6
Continuous
 62
     7
370
    15
100
AcDbLine
 10
250.1085484431
 20
40.7709473569
 30
0.0
 11
250.1085484431
 21
41.5682935912
 31
0.0
  0
LINE
  5
274
330
1F
100
AcDbEntity
  8
0
  6
Continuous
 62
     7
370
    15
100
AcDbLine
 10
254.2163068459
 20
41.5709459979
 30
0.0
 11
250.7813060687
 21
41.5709459979
 31
0.0
  0
LINE
  5
275
330
1F
100
AcDbEntity
  8
0
  6
Continuous
 62
     7
370
    15
100
AcDbLine
 10
254.2163068459
 20
40.7709473569
 30
0.0
 11
250.1085484431
 21
40.7709473569
 31
0.0
  0
LINE
  5
276
330
1F
100
AcDbEntity
  8
0
  6
Continuous
 62
     7
370
    15
100
AcDbLine
 10
254.2163068459
 20
25.5709433753
 30
0.0
 11
250.7813060687
 21
25.5709433753
 31
0.0
  0
LINE
  5
277
330
1F
100
AcDbEntity
  8
0
  6
Continuous
 62
     7
370
    15
100
AcDbLine
 10
250.1085484431
 20
25.573595782
 30
0.0
 11
250.1085484431
 21
26.3709420163
 31
0.0
  0
LINE
  5
278
330
1F
100
AcDbEntity
  8
0
  6
Continuous
 62
     7
370
    15
100
AcDbLine
 10
254.2163068459
 20
26.3709420163
 30
0.0
 11
250.1085484431
 21
26.3709420163
 31
0.0
  0
LINE
  5
279
330
1F
100
AcDbEntity
  8
0
  6
Continuous
 62
     7
370
    15
100
AcDbLine
 10
248.2163095878
 20
26.3709420163
 30
0.0
 11
250.1085484431
 21
26.3709420163
 31
0.0
  0
LINE
  5
27A
330
1F
100
AcDbEntity
  8
0
  6
Continuous
 62
     7
370
    15
100
AcDbLine
 10
248.2163095878
 20
40.7709473569
 30
0.0
 11
250.1085484431
 21
40.7709473569
 31
0.0
  0
LINE
  5
27B
330
1F
100
AcDbEntity
  8
0
  6
Continuous
 62
     7
370
    15
100
AcDbLine
 10
249.2863172696
 20
41.8709510763
 30
0.0
 11
253.6863172458
 21
41.8709510763
 31
0.0
  0
LINE
  5
27C
330
1F
100
AcDbEntity
  8
0
  6
Continuous
 62
     7
370
    15
100
AcDbLine
 10
249.3863040612
 20
25.1709515054
 30
0.0
 11
253.586315553
 21
25.1709515054
 31
0.0
  0
LINE
  5
27D
330
1F
100
AcDbEntity
  8
0
  6
Continuous
 62
     7
370
    15
100
AcDbLine
 10
249.3863040612
 20
24.7709447343
 30
0.0
 11
253.586315553
 21
24.7709447343
 31
0.0
  0
ARC
  5
27E
330
1F
100
AcDbEntity
  8
0
  6
Continuous
 62
     7
370
    15
100
AcDbCircle
 10
231.6822232643
 20
33.5709446866
 30
0.0
 40
16.90401408232907
100
AcDbArc
 50
154.7901718738
 51
205.2098281262
  0
SPLINE
  5
27F
330
1F
100
AcDbEntity
  8
0
  6
Continuous
 62
     7
370
    15
100
AcDbSpline
210
0.0
220
0.0
230
1.0
 70
     8
 71
     3
 72
    12
 73
     8
 74
     0
 42
0.00000001
 43
0.00000001
 40
0.0
 40
0.0
 40
0.0
 40
0.0
 40
0.1818822321958606
 40
0.3633443175082915
 40
0.5550756114976005
 40
0.7712680036868516
 40
1.0
 40
1.0
 40
1.0
 40
1.0
 10
216.5206307576152
 20
25.570943375332
 30
0.0
 10
216.544487800743
 20
25.57826551342762
 30
0.0
 10
216.5921467773699
 20
25.59289287552308
 30
0.0
 10
216.6068983140689
 20
25.70489193943165
 30
0.0
 10
216.5796611922142
 20
25.87427050684829
 30
0.0
 10
216.5079907222091
 20
26.10269196992657
 30
0.0
 10
216.4289057699652
 20
26.27986091029313
 30
0.0
 10
216.388248841569
 20
26.3709420163461
 30
0.0
  0
LINE
  5
280
330
1F
100
AcDbEntity
  8
0
  6
Continuous
 62
     7
370
    15
100
AcDbLine
 10
216.1362702058
 20
26.3254487712
 30
0.0
 11
216.4907092259
 21
25.5709433753
 31
0.0
  0
ARC
  5
281
330
1F
100
AcDbEntity
  8
0
  6
Continuous
 62
     7
370
    15
100
AcDbCircle
 10
231.4068210608
 20
33.5709446866
 30
0.0
 40
16.90227601465688
100
AcDbArc
 50
154.6168257198
 51
205.3831742802
  0
LINE
  5
282
330
1F
100
AcDbEntity
  8
0
  6
Continuous
 62
     7
370
    15
100
AcDbLine
 10
216.4907092259
 20
41.5709459979
 30
0.0
 11
216.1362702058
 21
40.816440602
 31
0.0
  0
SPLINE
  5
283
330
1F
100
AcDbEntity
  8
0
  6
Continuous
 62
     7
370
    15
100
AcDbSpline
210
0.0
220
0.0
230
1.0
 70
     8
 71
     3
 72
    12
 73
     8
 74
     0
 42
0.00000001
 43
0.00000001
 40
0.0
 40
0.0
 40
0.0
 40
0.0
 40
0.2510120705003709
 40
0.5023979494245409
 40
0.740279332977864
 40
0.9473070750771365
 40
1.0
 40
1.0
 40
1.0
 40
1.0
 10
216.388248841569
 20
40.77094735692227
 30
0.0
 10
216.4325673776017
 20
40.87082724755739
 30
0.0
 10
216.5212704490512
 20
41.07073577045745
 30
0.0
 10
216.5962524566575
 20
41.32945849947983
 30
0.0
 10
216.6077623794056
 20
41.50671474229953
 30
0.0
 10
216.5661122328475
 20
41.56712735002252
 30
0.0
 10
216.5283018449865
 20
41.57030192951868
 30
0.0
 10
216.5206307576152
 20
41.57094599793637
 30
0.0
  0
LINE
  5
284
330
1F
100
AcDbEntity
  8
0
  6
Continuous
 62
     7
370
    15
100
AcDbLine
 10
216.5206307576
 20
41.5709459979
 30
0.0
 11
216.4907092259
 21
41.5709459979
 31
0.0
  0
LINE
  5
285
330
1F
100
AcDbEntity
  8
0
  6
Continuous
 62
     7
370
    15
100
AcDbLine
 10
216.5206307576
 20
25.5709433753
 30
0.0
 11
216.4907092259
 21
25.5709433753
 31
0.0
  0
LINE
  5
286
330
1F
100
AcDbEntity
  8
0
  6
Continuous
 62
     7
370
    15
100
AcDbLine
 10
218.3777326749
 20
40.7709473569
 30
0.0
 11
216.3882488416
 21
40.7709473569
 31
0.0
  0
LINE
  5
287
330
1F
100
AcDbEntity
  8
0
  6
Continuous
 62
     7
370
    15
100
AcDbLine
 10
218.3777326749
 20
26.3709420163
 30
0.0
 11
218.3777326749
 21
40.7709473569
 31
0.0
  0
LINE
  5
288
330
1F
100
AcDbEntity
  8
0
  6
Continuous
 62
     7
370
    15
100
AcDbLine
 10
216.3882488416
 20
26.3709420163
 30
0.0
 11
218.3777326749
 21
26.3709420163
 31
0.0
  0
LWPOLYLINE
  5
289
330
1F
100
AcDbEntity
  8
0
  6
Continuous
 62
     7
370
    15
100
AcDbPolyline
 90
        9
 70
   128
 43
0.0
 10
218.3777326749
 20
40.7709473569
 10
218.372472565
 20
40.9270221193
 10
218.3569008515
 20
41.0770917136
 10
218.331613581
 20
41.2154042919
 10
218.29759423
 20
41.3366252382
 10
218.2561242984
 20
41.4361202915
 10
218.2088131116
 20
41.5100449521
 10
218.1574935124
 20
41.5555679996
 10
218.104117553
 20
41.5709459979
  0
LINE
  5
28A
330
1F
100
AcDbEntity
  8
0
  6
Continuous
 62
     7
370
    15
100
AcDbLine
 10
216.5206307576
 20
41.5709459979
 30
0.0
 11
218.104117553
 21
41.5709459979
 31
0.0
  0
LWPOLYLINE
  5
28B
330
1F
100
AcDbEntity
  8
0
  6
Continuous
 62
     7
370
    15
100
AcDbPolyline
 90
        9
 70
   128
 43
0.0
 10
218.3777326749
 20
26.3709420163
 10
218.372472565
 20
26.214867254
 10
218.3569008515
 20
26.0647976596
 10
218.331613581
 20
25.9264850814
 10
218.29759423
 20
25.8052641351
 10
218.2561242984
 20
25.7057690818
 10
218.2088131116
 20
25.6318444211
 10
218.1574935124
 20
25.5863213737
 10
218.104117553
 20
25.5709433753
  0
LINE
  5
28C
330
1F
100
AcDbEntity
  8
0
  6
Continuous
 62
     7
370
    15
100
AcDbLine
 10
218.104117553
 20
25.5709433753
 30
0.0
 11
216.5206307576
 21
25.5709433753
 31
0.0
  0
LINE
  5
28D
330
1F
100
AcDbEntity
  8
0
  6
Continuous
 62
     7
370
    15
100
AcDbLine
 10
218.3777326749
 20
26.3709420163
 30
0.0
 11
223.2765788243
 21
26.3709420163
 31
0.0
  0
LINE
  5
28E
330
1F
100
AcDbEntity
  8
0
  6
Continuous
 62
     7
370
    15
100
AcDbLine
 10
223.4155023501
 20
25.5709433753
 30
0.0
 11
218.104117553
 21
25.5709433753
 31
0.0
  0
LINE
  5
28F
330
1F
100
AcDbEntity
  8
0
  6
Continuous
 62
     7
370
    15
100
AcDbLine
 10
223.2765788243
 20
40.7709473569
 30
0.0
 11
218.3777326749
 21
40.7709473569
 31
0.0
  0
LINE
  5
290
330
1F
100
AcDbEntity
  8
0
  6
Continuous
 62
     7
370
    15
100
AcDbLine
 10
218.104117553
 20
41.5709459979
 30
0.0
 11
223.4155023501
 21
41.5709459979
 31
0.0
  0
SPLINE
  5
291
330
1F
100
AcDbEntity
  8
0
  6
Continuous
 62
     7
370
    15
100
AcDbSpline
210
0.0
220
0.0
230
1.0
 70
     8
 71
     3
 72
    16
 73
    12
 74
     0
 42
0.00000001
 43
0.00000001
 40
0.0
 40
0.0
 40
0.0
 40
0.0
 40
0.1207066004834676
 40
0.241414065710304
 40
0.3621160716125817
 40
0.4828237649563091
 40
0.6035298043939075
 40
0.7242365167263165
 40
0.8449396659989244
 40
0.9656486556612195
 40
1.0
 40
1.0
 40
1.0
 40
1.0
 10
249.6586078808757
 20
20.61857225487909
 30
0.0
 10
249.6780087431211
 20
20.6212499894711
 30
0.0
 10
249.7168106065998
 20
20.62660547783846
 30
0.0
 10
249.721734492669
 20
20.91751147525619
 30
0.0
 10
249.684517070602
 20
21.37088572724352
 30
0.0
 10
249.6076211720074
 20
21.93839867869274
 30
0.0
 10
249.5037848762965
 20
22.52673033600205
 30
0.0
 10
249.3876996508932
 20
23.05343126162917
 30
0.0
 10
249.2806809876127
 20
23.41670624071438
 30
0.0
 10
249.208111782582
 20
23.58718534064416
 30
0.0
 10
249.1885606754923
 20
23.55402616185262
 30
0.0
 10
249.1842294142695
 20
23.54668023179257
 30
0.0
  0
SPLINE
  5
292
330
1F
100
AcDbEntity
  8
0
  6
Continuous
 62
     7
370
    15
100
AcDbSpline
210
0.0
220
0.0
230
1.0
 70
     8
 71
     3
 72
    16
 73
    12
 74
     0
 42
0.00000001
 43
0.00000001
 40
0.0
 40
0.0
 40
0.0
 40
0.0
 40
0.1205773130808821
 40
0.2411630015605836
 40
0.3617418155659114
 40
0.4823238081722991
 40
0.6029061198066487
 40
0.7234896354385915
 40
0.8440715182238145
 40
0.9646564228523614
 40
1.0
 40
1.0
 40
1.0
 40
1.0
 10
249.8291963742228
 20
46.49460258076871
 30
0.0
 10
249.8485973940361
 20
46.49192461279719
 30
0.0
 10
249.8874007812735
 20
46.48656849084015
 30
0.0
 10
249.8923208292302
 20
46.19564624399994
 30
0.0
 10
249.8551133130399
 20
45.74227636195511
 30
0.0
 10
249.7781833154679
 20
45.17477826393901
 30
0.0
 10
249.6743785453704
 20
44.58642983550087
 30
0.0
 10
249.5582914759913
 20
44.05978837572106
 30
0.0
 10
249.4512474811666
 20
43.69628951409405
 30
0.0
 10
249.3784927244525
 20
43.525766692457
 30
0.0
 10
249.3588524450566
 20
43.55934540962597
 30
0.0
 10
249.3544006751033
 20
43.56695653985226
 30
0.0
  0
SPLINE
  5
293
330
1F
100
AcDbEntity
  8
0
  6
Continuous
 62
     7
370
    15
100
AcDbSpline
210
0.0
220
0.0
230
1.0
 70
     8
 71
     3
 72
    16
 73
    12
 74
     0
 42
0.00000001
 43
0.00000001
 40
0.0
 40
0.0
 40
0.0
 40
0.0
 40
0.1205177302061663
 40
0.2410325934015554
 40
0.3615499889352475
 40
0.4820676074668435
 40
0.6025845352465417
 40
0.7230999940129991
 40
0.8436164931761072
 40
0.9641310894240808
 40
0.9999999999999999
 40
0.9999999999999999
 40
0.9999999999999999
 40
0.9999999999999999
 10
265.1995802329036
 20
23.23499264310086
 30
0.0
 10
265.2189813327564
 20
23.23766064508076
 30
0.0
 10
265.257783070927
 20
23.24299658557102
 30
0.0
 10
265.2627042246398
 20
23.53395520605359
 30
0.0
 10
265.2254978058828
 20
23.98728970164379
 30
0.0
 10
265.1485676117152
 20
24.55481898194584
 30
0.0
 10
265.0447631818244
 20
25.14316617846826
 30
0.0
 10
264.928676906391
 20
25.66977507119489
 30
0.0
 10
264.8216208184122
 20
26.03335680623578
 30
0.0
 10
264.7487678894376
 20
26.2039580598242
 30
0.0
 10
264.7290773401516
 20
26.17014166362117
 30
0.0
 10
264.7245610163661
 20
26.16238536427701
 30
0.0
  0
SPLINE
  5
294
330
1F
100
AcDbEntity
  8
0
  6
Continuous
 62
     7
370
    15
100
AcDbSpline
210
0.0
220
0.0
230
1.0
 70
     8
 71
     3
 72
    16
 73
    12
 74
     0
 42
0.00000001
 43
0.00000001
 40
0.0
 40
0.0
 40
0.0
 40
0.0
 40
0.1205178887985882
 40
0.2410326213457433
 40
0.3615498862284561
 40
0.482064480341296
 40
0.6025812774705218
 40
0.7230970929169649
 40
0.8436175482792354
 40
0.9641311283089926
 40
1.0
 40
1.0
 40
1.0
 40
1.0
 10
265.3701687262508
 20
43.87818219254697
 30
0.0
 10
265.3895698539901
 20
43.87550796019069
 30
0.0
 10
265.4283716013712
 20
43.87015956551391
 30
0.0
 10
265.4332923928615
 20
43.57920579844476
 30
0.0
 10
265.3960878565119
 20
43.12587359742068
 30
0.0
 10
265.3191527827418
 20
42.55835047951334
 30
0.0
 10
265.2153588201366
 20
41.97001306019213
 30
0.0
 10
265.0992371181244
 20
41.44337231470607
 30
0.0
 10
264.9922194262404
 20
41.07980728925317
 30
0.0
 10
264.9193556859258
 20
40.90921767463745
 30
0.0
 10
264.8996657242874
 20
40.94303330399299
 30
0.0
 10
264.8951495097133
 20
40.95078947137082
 30
0.0
  0
SPLINE
  5
295
330
1F
100
AcDbEntity
  8
0
  6
Continuous
 62
     7
370
    15
100
AcDbSpline
210
0.0
220
0.0
230
1.0
 70
    24
 71
     3
 72
    16
 73
    12
 74
     0
 42
0.00000001
 43
0.00000001
 40
0.0
 40
0.0
 40
0.0
 40
0.0
 40
0.0611042260699412
 40
0.1864670038060815
 40
0.3118320320058386
 40
0.4371949488658223
 40
0.5625600988373968
 40
0.6879240836221383
 40
0.8132868438052594
 40
0.9386468178623724
 40
1.0
 40
1.0
 40
1.0
 40
1.0
 10
268.2764912054988
 20
26.70471312592706
 30
0.0
 10
268.2822642248199
 20
26.70471312592709
 30
0.0
 10
268.2998812978927
 20
26.70471312592709
 30
0.0
 10
268.0814416601957
 20
26.70471312592695
 30
0.0
 10
267.668716638313
 20
26.70471312592718
 30
0.0
 10
267.1122439162505
 20
26.70471312592698
 30
0.0
 10
266.5131330198857
 20
26.70471312592718
 30
0.0
 10
265.9544417296513
 20
26.70471312592704
 30
0.0
 10
265.5374855831942
 20
26.70471312592718
 30
0.0
 10
265.3144833784264
 20
26.70471312592706
 30
0.0
 10
265.3292991264053
 20
26.70471312592704
 30
0.0
 10
265.3341675208064
 20
26.70471312592709
 30
0.0
  0
SPLINE
  5
296
330
1F
100
AcDbEntity
  8
0
  6
Continuous
 62
     7
370
    15
100
AcDbSpline
210
0.0
220
0.0
230
1.0
 70
    24
 71
     3
 72
    16
 73
    12
 74
     0
 42
0.00000001
 43
0.00000001
 40
0.0
 40
0.0
 40
0.0
 40
0.0
 40
0.0610064761844534
 40
0.1861687080998494
 40
0.3113331868787419
 40
0.4364955576954215
 40
0.5616601580513301
 40
0.686823595084383
 40
0.8119858094748397
 40
0.9371452421963204
 40
1.0
 40
1.0
 40
1.0
 40
1.0
 10
268.2764912054988
 20
40.26333930085385
 30
0.0
 10
268.2822642185957
 20
40.26333930085385
 30
0.0
 10
268.2998812726743
 20
40.26333930085388
 30
0.0
 10
268.0814418940101
 20
40.26333930085394
 30
0.0
 10
267.6687157816417
 20
40.26333930085377
 30
0.0
 10
267.1122471090806
 20
40.26333930085391
 30
0.0
 10
266.5131211050306
 20
40.26333930085385
 30
0.0
 10
265.954486195521
 20
40.26333930085382
 30
0.0
 10
265.5373196377103
 20
40.26333930085391
 30
0.0
 10
265.3138274247711
 20
40.26333930085385
 30
0.0
 10
265.3290490114091
 20
40.26333930085385
 30
0.0
 10
265.334137718484
 20
40.26333930085385
 30
0.0
  0
SPLINE
  5
297
330
1F
100
AcDbEntity
  8
0
  6
Continuous
 62
     7
370
    15
100
AcDbSpline
210
0.0
220
0.0
230
1.0
 70
     8
 71
     3
 72
    19
 73
    15
 74
     0
 42
0.00000001
 43
0.00000001
 40
0.0
 40
0.0
 40
0.0
 40
0.0
 40
0.003953618010488
 40
0.115776033706381
 40
0.2280442264825153
 40
0.3355253341044871
 40
0.4377150157146248
 40
0.5348790905667086
 40
0.6283064862964614
 40
0.7303034301856084
 40
0.8413391196583399
 40
0.964111897829361
 40
0.9937689521059837
 40
1.0
 40
1.0
 40
1.0
 40
1.0
 10
254.6045864031764
 20
39.17095007489407
 30
0.0
 10
254.6049786640583
 20
39.17094303381333
 30
0.0
 10
254.6164654614581
 20
39.17073684585937
 30
0.0
 10
254.6397820039716
 20
39.15567112024035
 30
0.0
 10
254.6832574341208
 20
39.0887298832783
 30
0.0
 10
254.7212338293772
 20
38.98405200555325
 30
0.0
 10
254.7447347888562
 20
38.85897299871158
 30
0.0
 10
254.7560797402986
 20
38.73053717454841
 30
0.0
 10
254.7566559691166
 20
38.60936931997441
 30
0.0
 10
254.7408924848623
 20
38.50013298838681
 30
0.0
 10
254.7005086471455
 20
38.41072145026525
 30
0.0
 10
254.6486509786738
 20
38.37566475947568
 30
0.0
 10
254.6139274038581
 20
38.3710544386611
 30
0.0
 10
254.6059682976955
 20
38.37096667226258
 30
0.0
 10
254.6045864031764
 20
38.37095143387997
 30
0.0
  0
SPLINE
  5
298
330
1F
100
AcDbEntity
  8
0
  6
Continuous
 62
     7
370
    15
100
AcDbSpline
210
0.0
220
0.0
230
1.0
 70
     8
 71
     3
 72
    30
 73
    26
 74
     0
 42
0.00000001
 43
0.00000001
 40
0.0
 40
0.0
 40
0.0
 40
0.0
 40
0.1247215464353782
 40
0.2494237815128954
 40
0.3741310122226426
 40
0.4367826532934281
 40
0.4681526055135949
 40
0.4838416918508273
 40
0.4916928727634536
 40
0.4956121120119286
 40
0.4975701667876981
 40
0.4985519412119752
 40
0.4990400775229306
 40
0.4992855211289998
 40
0.499418631613583
 40
0.4994827461131645
 40
0.4995065576405282
 40
0.49951846340421
 40
0.4995450855011267
 40
0.5609217869323919
 40
0.664629589509489
 40
0.7325820045544567
 40
0.8111543235660678
 40
0.9002866824298972
 40
1.0
 40
1.0
 40
1.0
 40
1.0
 10
254.6762907908412
 20
39.23083784173215
 30
0.0
 10
254.682054139308
 20
39.22904673515998
 30
0.0
 10
254.6935799438691
 20
39.22546479934294
 30
0.0
 10
254.7834265624161
 20
39.20360784171545
 30
0.0
 10
254.8909081766001
 20
39.17794547335959
 30
0.0
 10
254.9764498747994
 20
39.15752431160205
 30
0.0
 10
255.0205570405718
 20
39.14700660394649
 30
0.0
 10
255.0427741376054
 20
39.14165261541769
 30
0.0
 10
255.0539196108455
 20
39.13903020591497
 30
0.0
 10
255.0594784718377
 20
39.13765294325555
 30
0.0
 10
255.0622721581777
 20
39.13703273240127
 30
0.0
 10
255.0636504991269
 20
39.13664750832888
 30
0.0
 10
255.0643561981179
 20
39.1365221400379
 30
0.0
 10
255.0646996720097
 20
39.13640352785585
 30
0.0
 10
255.0648889336837
 20
39.13640144094788
 30
0.0
 10
255.0649702546577
 20
39.13634692324764
 30
0.0
 10
255.0650123180236
 20
39.13634919713335
 30
0.0
 10
255.0650387746282
 20
39.13635105015872
 30
0.0
 10
255.0870132872551
 20
39.12091401005113
 30
0.0
 10
255.1597295942127
 20
39.12326616591502
 30
0.0
 10
255.2477642489055
 20
39.09470261848475
 30
0.0
 10
255.3319159901159
 20
39.07932556416027
 30
0.0
 10
255.3952774208206
 20
39.06596085814495
 30
0.0
 10
255.4458716770178
 20
39.0564796750531
 30
0.0
 10
255.4530813210299
 20
39.05599186662634
 30
0.0
 10
255.4568881199809
 20
39.05573429654324
 30
0.0
  0
ELLIPSE
  5
299
330
1F
100
AcDbEntity
  8
0
  6
Continuous
 62
     7
370
    15
100
AcDbEllipse
 10
255.3334183725
 20
40.3529192693
 30
0.0
 11
0.3906095144046162
 21
-0.08616383961160069
 31
0.0
210
0.0
220
0.0
230
0.9999999999999997
 40
0.0142285888
 41
0.0
 42
6.283185307179586
  0
LINE
  5
29A
330
1F
100
AcDbEntity
  8
0
  6
Continuous
 62
     7
370
    15
100
AcDbLine
 10
254.5063132451
 20
497.8209430177
 30
0.0
 11
254.5063132451
 21
496.8209409911
 31
0.0
  0
LINE
  5
29B
330
1F
100
AcDbEntity
  8
0
  6
Continuous
 62
     7
370
    15
100
AcDbLine
 10
254.5063132451
 20
496.8209409911
 30
0.0
 11
248.3063126014
 21
496.8209409911
 31
0.0
  0
LINE
  5
29C
330
1F
100
AcDbEntity
  8
0
  6
Continuous
 62
     7
370
    15
100
AcDbLine
 10
248.3063126014
 20
497.8209430177
 30
0.0
 11
248.3063126014
 21
496.8209409911
 31
0.0
  0
LINE
  5
29D
330
1F
100
AcDbEntity
  8
0
  6
Continuous
 62
     7
370
    15
100
AcDbLine
 10
254.5063132451
 20
497.8209430177
 30
0.0
 11
248.3063126014
 21
497.8209430177
 31
0.0
  0
LINE
  5
29E
330
1F
100
AcDbEntity
  8
0
  6
Continuous
 62
     7
370
    15
100
AcDbLine
 10
254.5063132451
 20
510.3209459979
 30
0.0
 11
254.5063132451
 21
509.3209439714
 31
0.0
  0
LINE
  5
29F
330
1F
100
AcDbEntity
  8
0
  6
Continuous
 62
     7
370
    15
100
AcDbLine
 10
254.5063132451
 20
509.3209439714
 30
0.0
 11
248.3063126014
 21
509.3209439714
 31
0.0
  0
LINE
  5
2A0
330
1F
100
AcDbEntity
  8
0
  6
Continuous
 62
     7
370
    15
100
AcDbLine
 10
248.3063126014
 20
510.3209459979
 30
0.0
 11
248.3063126014
 21
509.3209439714
 31
0.0
  0
LINE
  5
2A1
330
1F
100
AcDbEntity
  8
0
  6
Continuous
 62
     7
370
    15
100
AcDbLine
 10
254.5063132451
 20
510.3209459979
 30
0.0
 11
248.3063126014
 21
510.3209459979
 31
0.0
  0
LINE
  5
2A2
330
1F
100
AcDbEntity
  8
0
  6
Continuous
 62
     7
370
    15
100
AcDbLine
 10
254.5063132451
 20
27.8209442098
 30
0.0
 11
254.5063132451
 21
26.8209421832
 31
0.0
  0
LINE
  5
2A3
330
1F
100
AcDbEntity
  8
0
  6
Continuous
 62
     7
370
    15
100
AcDbLine
 10
254.5063132451
 20
26.8209421832
 30
0.0
 11
248.3063126014
 21
26.8209421832
 31
0.0
  0
LINE
  5
2A4
330
1F
100
AcDbEntity
  8
0
  6
Continuous
 62
     7
370
    15
100
AcDbLine
 10
248.3063126014
 20
27.8209442098
 30
0.0
 11
248.3063126014
 21
26.8209421832
 31
0.0
  0
LINE
  5
2A5
330
1F
100
AcDbEntity
  8
0
  6
Continuous
 62
     7
370
    15
100
AcDbLine
 10
254.5063132451
 20
27.8209442098
 30
0.0
 11
248.3063126014
 21
27.8209442098
 31
0.0
  0
LINE
  5
2A6
330
1F
100
AcDbEntity
  8
0
  6
Continuous
 62
     7
370
    15
100
AcDbLine
 10
254.5063132451
 20
40.32094719
 30
0.0
 11
254.5063132451
 21
39.3209451635
 31
0.0
  0
LINE
  5
2A7
330
1F
100
AcDbEntity
  8
0
  6
Continuous
 62
     7
370
    15
100
AcDbLine
 10
254.5063132451
 20
39.3209451635
 30
0.0
 11
248.3063126014
 21
39.3209451635
 31
0.0
  0
LINE
  5
2A8
330
1F
100
AcDbEntity
  8
0
  6
Continuous
 62
     7
370
    15
100
AcDbLine
 10
248.3063126014
 20
40.32094719
 30
0.0
 11
248.3063126014
 21
39.3209451635
 31
0.0
  0
LINE
  5
2A9
330
1F
100
AcDbEntity
  8
0
  6
Continuous
 62
     7
370
    15
100
AcDbLine
 10
254.5063132451
 20
40.32094719
 30
0.0
 11
248.3063126014
 21
40.32094719
 31
0.0
  0
LWPOLYLINE
  5
2AA
330
1F
100
AcDbEntity
  8
0
  6
Continuous
 62
     7
370
    15
100
AcDbPolyline
 90
        3
 70
   128
 43
0.0
 10
248.2276046679
 20
497.2098016937
 10
248.2301825688
 20
497.2036326129
 10
248.3063126014
 20
496.8209409911
  0
LWPOLYLINE
  5
2AB
330
1F
100
AcDbEntity
  8
0
  6
Continuous
 62
     7
370
    15
100
AcDbPolyline
 90
        3
 70
   128
 43
0.0
 10
248.3063126014
 20
510.3209459979
 10
248.2301825688
 20
509.9382543762
 10
248.2276046679
 20
509.9320852954
  0
LINE
  5
2AC
330
1F
100
AcDbEntity
  8
0
  6
Continuous
 62
     7
370
    15
100
AcDbLine
 10
254.5063132451
 20
509.3209439714
 30
0.0
 11
254.5063132451
 21
509.1709488828
 31
0.0
  0
LINE
  5
2AD
330
1F
100
AcDbEntity
  8
0
  6
Continuous
 62
     7
370
    15
100
AcDbLine
 10
254.5063132451
 20
508.3709502418
 30
0.0
 11
254.5063132451
 21
507.470949908
 31
0.0
  0
LINE
  5
2AE
330
1F
100
AcDbEntity
  8
0
  6
Continuous
 62
     7
370
    15
100
AcDbLine
 10
254.5063132451
 20
498.8709384401
 30
0.0
 11
254.5063132451
 21
497.8209430177
 31
0.0
  0
LWPOLYLINE
  5
2AF
330
1F
100
AcDbEntity
  8
0
  6
Continuous
 62
     7
370
    15
100
AcDbPolyline
 90
        3
 70
   128
 43
0.0
 10
248.2276046679
 20
27.2098028858
 10
248.2301825688
 20
27.203633805
 10
248.3063126014
 20
26.8209421832
  0
LWPOLYLINE
  5
2B0
330
1F
100
AcDbEntity
  8
0
  6
Continuous
 62
     7
370
    15
100
AcDbPolyline
 90
        3
 70
   128
 43
0.0
 10
248.3063126014
 20
40.32094719
 10
248.2301825688
 20
39.9382555682
 10
248.2276046679
 20
39.9320864875
  0
LINE
  5
2B1
330
1F
100
AcDbEntity
  8
0
  6
Continuous
 62
     7
370
    15
100
AcDbLine
 10
254.5063132451
 20
39.3209451635
 30
0.0
 11
254.5063132451
 21
39.1709500749
 31
0.0
  0
LINE
  5
2B2
330
1F
100
AcDbEntity
  8
0
  6
Continuous
 62
     7
370
    15
100
AcDbLine
 10
254.5063132451
 20
38.3709514339
 30
0.0
 11
254.5063132451
 21
37.4709511001
 31
0.0
  0
LINE
  5
2B3
330
1F
100
AcDbEntity
  8
0
  6
Continuous
 62
     7
370
    15
100
AcDbLine
 10
254.5063132451
 20
28.8709396322
 30
0.0
 11
254.5063132451
 21
27.8209442098
 31
0.0
  0
LINE
  5
2B4
330
1F
100
AcDbEntity
  8
0
  6
Continuous
 62
     7
370
    15
100
AcDbLine
 10
267.506309788
 20
-16.4290523331
 30
0.0
 11
56.5063096614
 21
-16.4290523331
 31
0.0
  0
LINE
  5
2B5
330
1F
100
AcDbEntity
  8
0
  6
Continuous
 62
     7
370
    15
100
AcDbLine
 10
267.506309788
 20
-16.4290523331
 30
0.0
 11
267.506309788
 21
-31.4290678303
 31
0.0
  0
LINE
  5
2B6
330
1F
100
AcDbEntity
  8
0
  6
Continuous
 62
     7
370
    15
100
AcDbLine
 10
267.506309788
 20
-31.4290678303
 30
0.0
 11
56.5063096614
 21
-31.4290678303
 31
0.0
  0
LINE
  5
2B7
330
1F
100
AcDbEntity
  8
0
  6
Continuous
 62
     7
370
    15
100
AcDbLine
 10
56.5063096614
 20
-16.4290523331
 30
0.0
 11
56.5063096614
 21
-31.4290678303
 31
0.0
  0
LINE
  5
2B8
330
1F
100
AcDbEntity
  8
0
  6
Continuous
 62
     7
370
    15
100
AcDbLine
 10
267.506309788
 20
553.5709405143
 30
0.0
 11
56.5063096614
 21
553.5709405143
 31
0.0
  0
LINE
  5
2B9
330
1F
100
AcDbEntity
  8
0
  6
Continuous
 62
     7
370
    15
100
AcDbLine
 10
56.5063096614
 20
568.5709560115
 30
0.0
 11
56.5063096614
 21
553.5709405143
 31
0.0
  0
LINE
  5
2BA
330
1F
100
AcDbEntity
  8
0
  6
Continuous
 62
     7
370
    15
100
AcDbLine
 10
267.506309788
 20
568.5709560115
 30
0.0
 11
56.5063096614
 21
568.5709560115
 31
0.0
  0
LINE
  5
2BB
330
1F
100
AcDbEntity
  8
0
  6
Continuous
 62
     7
370
    15
100
AcDbLine
 10
267.506309788
 20
568.5709560115
 30
0.0
 11
267.506309788
 21
553.5709405143
 31
0.0
  0
LINE
  5
2BC
330
1F
100
AcDbEntity
  8
0
  6
Continuous
 62
     7
370
    15
100
AcDbLine
 10
56.5063096614
 20
553.5709405143
 30
0.0
 11
56.5063096614
 21
-16.4290523331
 31
0.0
  0
LINE
  5
2BD
330
1F
100
AcDbEntity
  8
0
  6
Continuous
 62
     7
370
    15
100
AcDbLine
 10
267.506309788
 20
-16.4290523331
 30
0.0
 11
267.506309788
 21
24.5630437333
 31
0.0
  0
LINE
  5
2BE
330
1F
100
AcDbEntity
  8
0
  6
Continuous
 62
     7
370
    15
100
AcDbLine
 10
267.506309788
 20
42.546867748
 30
0.0
 11
267.506309788
 21
494.5630425412
 31
0.0
  0
LINE
  5
2BF
330
1F
100
AcDbEntity
  8
0
  6
Continuous
 62
     7
370
    15
100
AcDbLine
 10
267.506309788
 20
512.5468665559
 30
0.0
 11
267.506309788
 21
553.5709405143
 31
0.0
  0
LINE
  5
2C0
330
1F
100
AcDbEntity
  8
0
  6
Continuous
 62
     7
370
    15
100
AcDbLine
 10
61.5063095496
 20
548.5709452827
 30
0.0
 11
61.5063095496
 21
-11.4290571015
 31
0.0
  0
LINE
  5
2C1
330
1F
100
AcDbEntity
  8
0
  6
Continuous
 62
     7
370
    15
100
AcDbLine
 10
247.5063139604
 20
-11.4290571015
 30
0.0
 11
61.5063095496
 21
-11.4290571015
 31
0.0
  0
LINE
  5
2C2
330
1F
100
AcDbEntity
  8
0
  6
Continuous
 62
     7
370
    15
100
AcDbLine
 10
247.5063139604
 20
-11.4290571015
 30
0.0
 11
247.5063139604
 21
20.7584047515
 31
0.0
  0
LINE
  5
2C3
330
1F
100
AcDbEntity
  8
0
  6
Continuous
 62
     7
370
    15
100
AcDbLine
 10
247.5063139604
 20
24.0981871087
 30
0.0
 11
247.5063139604
 21
25.5709433753
 31
0.0
  0
LINE
  5
2C4
330
1F
100
AcDbEntity
  8
0
  6
Continuous
 62
     7
370
    15
100
AcDbLine
 10
247.5063139604
 20
41.5709459979
 30
0.0
 11
247.5063139604
 21
43.0303508241
 31
0.0
  0
LINE
  5
2C5
330
1F
100
AcDbEntity
  8
0
  6
Continuous
 62
     7
370
    15
100
AcDbLine
 10
247.5063139604
 20
46.3730687101
 30
0.0
 11
247.5063139604
 21
490.7584035594
 31
0.0
  0
LINE
  5
2C6
330
1F
100
AcDbEntity
  8
0
  6
Continuous
 62
     7
370
    15
100
AcDbLine
 10
247.5063139604
 20
494.0981859166
 30
0.0
 11
247.5063139604
 21
495.5709421832
 31
0.0
  0
LINE
  5
2C7
330
1F
100
AcDbEntity
  8
0
  6
Continuous
 62
     7
370
    15
100
AcDbLine
 10
247.5063139604
 20
511.5709448058
 30
0.0
 11
247.5063139604
 21
513.030349632
 31
0.0
  0
LINE
  5
2C8
330
1F
100
AcDbEntity
  8
0
  6
Continuous
 62
     7
370
    15
100
AcDbLine
 10
247.5063139604
 20
516.373067518
 30
0.0
 11
247.5063139604
 21
548.5709452827
 31
0.0
  0
LINE
  5
2C9
330
1F
100
AcDbEntity
  8
0
  6
Continuous
 62
     7
370
    15
100
AcDbLine
 10
247.5063139604
 20
548.5709452827
 30
0.0
 11
61.5063095496
 21
548.5709452827
 31
0.0
  0
LINE
  5
2CA
330
1F
100
AcDbEntity
  8
0
  6
Continuous
 62
     7
370
    15
100
AcDbLine
 10
56.5063096614
 20
-16.4290523331
 30
0.0
 11
41.5063099966
 21
-16.4290523331
 31
0.0
  0
ARC
  5
2CB
330
1F
100
AcDbEntity
  8
0
  6
Continuous
 62
     7
370
    15
100
AcDbCircle
 10
56.5063099788
 20
-16.4290559094
 30
0.0
 40
15.00000000000001
100
AcDbArc
 50
180.0
 51
270.0
  0
LINE
  5
2CC
330
1F
100
AcDbEntity
  8
0
  6
Continuous
 62
     7
370
    15
100
AcDbLine
 10
41.5063099966
 20
553.5709405143
 30
0.0
 11
41.5063099966
 21
-16.4290523331
 31
0.0
  0
LINE
  5
2CD
330
1F
100
AcDbEntity
  8
0
  6
Continuous
 62
     7
370
    15
100
AcDbLine
 10
41.5063099966
 20
553.5709405143
 30
0.0
 11
56.5063096614
 21
553.5709405143
 31
0.0
  0
ARC
  5
2CE
330
1F
100
AcDbEntity
  8
0
  6
Continuous
 62
     7
370
    15
100
AcDbCircle
 10
56.5063099788
 20
553.5709440906
 30
0.0
 40
15.00000000000011
100
AcDbArc
 50
90.0
 51
180.0
  0
LINE
  5
2CF
330
1F
100
AcDbEntity
  8
0
  6
Continuous
 62
     7
370
    15
100
AcDbLine
 10
271.5063029931
 20
-11.4290571015
 30
0.0
 11
267.506309788
 21
-11.4290571015
 31
0.0
  0
LINE
  5
2D0
330
1F
100
AcDbEntity
  8
0
  6
Continuous
 62
     7
370
    15
100
AcDbLine
 10
271.5063029931
 20
-26.4290427964
 30
0.0
 11
267.506309788
 21
-26.4290427964
 31
0.0
  0
LINE
  5
2D1
330
1F
100
AcDbEntity
  8
0
  6
Continuous
 62
     7
370
    15
100
AcDbLine
 10
271.5063029931
 20
563.5709309776
 30
0.0
 11
267.506309788
 21
563.5709309776
 31
0.0
  0
LINE
  5
2D2
330
1F
100
AcDbEntity
  8
0
  6
Continuous
 62
     7
370
    15
100
AcDbLine
 10
271.5063029931
 20
548.5709452827
 30
0.0
 11
267.506309788
 21
548.5709452827
 31
0.0
  0
LINE
  5
2D3
330
1F
100
AcDbEntity
  8
0
  6
Continuous
 62
     7
370
    15
100
AcDbLine
 10
348.9955697331
 20
601.9577768267
 30
0.0
 11
350.195560244
 21
601.9577768267
 31
0.0
  0
LINE
  5
2D4
330
1F
100
AcDbEntity
  8
0
  6
Continuous
 62
     7
370
    15
100
AcDbLine
 10
348.8955531392
 20
604.4577744425
 30
0.0
 11
348.9955697331
 21
604.4577744425
 31
0.0
  0
LINE
  5
2D5
330
1F
100
AcDbEntity
  8
0
  6
Continuous
 62
     7
370
    15
100
AcDbLine
 10
348.9955697331
 20
610.4577866019
 30
0.0
 11
348.8955531392
 21
610.4577866019
 31
0.0
  0
SPLINE
  5
2D6
330
1F
100
AcDbEntity
  8
0
  6
Continuous
 62
     7
370
    15
100
AcDbSpline
210
0.0
220
0.0
230
1.0
 70
     8
 71
     3
 72
    15
 73
    11
 74
     0
 42
0.00000001
 43
0.00000001
 40
0.0
 40
0.0
 40
0.0
 40
0.0
 40
0.1250768563627313
 40
0.2501511772789877
 40
0.3752921836037832
 40
0.500304424939168
 40
0.625287463508637
 40
0.7502634641038671
 40
0.8750791826836756
 40
0.9999999999999999
 40
0.9999999999999999
 40
0.9999999999999999
 40
0.9999999999999999
 10
347.8100035461961
 20
632.5156029881167
 30
0.0
 10
347.7838707734982
 20
632.7743691840067
 30
0.0
 10
347.7316057578425
 20
633.2918963303088
 30
0.0
 10
347.6527673200666
 20
634.0730155171485
 30
0.0
 10
347.5783250130389
 20
634.8101901115169
 30
0.0
 10
347.5113476084991
 20
635.4737767650842
 30
0.0
 10
347.4551978279452
 20
636.0295330236187
 30
0.0
 10
347.4127213473383
 20
636.4506362011527
 30
0.0
 10
347.3838588491161
 20
636.7362312239528
 30
0.0
 10
347.3795091797224
 20
636.7792739822598
 30
0.0
 10
347.3773334297716
 20
636.8008044184375
 30
0.0
  0
SPLINE
  5
2D7
330
1F
100
AcDbEntity
  8
0
  6
Continuous
 62
     7
370
    15
100
AcDbSpline
210
0.0
220
0.0
230
1.0
 70
     8
 71
     3
 72
    15
 73
    11
 74
     0
 42
0.00000001
 43
0.00000001
 40
0.0
 40
0.0
 40
0.0
 40
0.0
 40
0.1249399191163928
 40
0.2497677815020448
 40
0.3747518347200449
 40
0.4997377662097445
 40
0.6247475772994924
 40
0.7498805907133327
 40
0.8749438115152497
 40
1.0
 40
1.0
 40
1.0
 40
1.0
 10
344.393107679802
 20
636.4994135321307
 30
0.0
 10
344.3952844481369
 20
636.4778392610062
 30
0.0
 10
344.399636032496
 20
636.4347100683959
 30
0.0
 10
344.4284812589779
 20
636.1489877996407
 30
0.0
 10
344.4710227195801
 20
635.7278204809319
 30
0.0
 10
344.5271064542569
 20
635.1720225908047
 30
0.0
 10
344.594102352077
 20
634.5085063485174
 30
0.0
 10
344.6685357325904
 20
633.7714596462955
 30
0.0
 10
344.7473926967118
 20
632.990549513542
 30
0.0
 10
344.7996101826713
 20
632.4731950066919
 30
0.0
 10
344.8257181915819
 20
632.214525026195
 30
0.0
  0
LINE
  5
2D8
330
1F
100
AcDbEntity
  8
0
  6
Continuous
 62
     7
370
    15
100
AcDbLine
 10
344.8254499707
 20
632.2143909157
 30
0.0
 11
346.3945124421
 21
616.6734185637
 31
0.0
  0
LINE
  5
2D9
330
1F
100
AcDbEntity
  8
0
  6
Continuous
 62
     7
370
    15
100
AcDbLine
 10
349.3793640408
 20
616.9747796477
 30
0.0
 11
347.8102717671
 21
632.5157370986
 31
0.0
  0
SPLINE
  5
2DA
330
1F
100
AcDbEntity
  8
0
  6
Continuous
 62
     7
370
    15
100
AcDbSpline
210
0.0
220
0.0
230
1.0
 70
     8
 71
     3
 72
     9
 73
     5
 74
     0
 42
0.00000001
 43
0.00000001
 40
0.0
 40
0.0
 40
0.0
 40
0.0
 40
0.4837378382348465
 40
0.9999999999999999
 40
0.9999999999999999
 40
0.9999999999999999
 40
0.9999999999999999
 10
346.5645942959367
 20
614.9920460404086
 30
0.0
 10
346.5740610513429
 20
614.9278151180006
 30
0.0
 10
346.5936310635642
 20
614.7950346792354
 30
0.0
 10
346.6274710516768
 20
614.7588811271748
 30
0.0
 10
346.644941357094
 20
614.7402164162326
 30
0.0
  0
SPLINE
  5
2DB
330
1F
100
AcDbEntity
  8
0
  6
Continuous
 62
     7
370
    15
100
AcDbSpline
210
0.0
220
0.0
230
1.0
 70
     8
 71
     3
 72
    11
 73
     7
 74
     0
 42
0.00000001
 43
0.00000001
 40
0.0
 40
0.0
 40
0.0
 40
0.0
 40
0.2484423088097372
 40
0.4978872186024591
 40
0.748388796833829
 40
1.0
 40
1.0
 40
1.0
 40
1.0
 10
346.394810465294
 20
616.6735675753283
 30
0.0
 10
346.4128247828163
 20
616.4950957638133
 30
0.0
 10
346.4489261155127
 20
616.1374319091349
 30
0.0
 10
346.4959261792422
 20
615.6726017976188
 30
0.0
 10
346.5347292561795
 20
615.2897237842504
 30
0.0
 10
346.5497604974553
 20
615.1424219072147
 30
0.0
 10
346.5572927269517
 20
615.0686082066226
 30
0.0
  0
SPLINE
  5
2DC
330
1F
100
AcDbEntity
  8
0
  6
Continuous
 62
     7
370
    15
100
AcDbSpline
210
0.0
220
0.0
230
1.0
 70
     8
 71
     3
 72
    19
 73
    15
 74
     0
 42
0.00000001
 43
0.00000001
 40
0.0
 40
0.0
 40
0.0
 40
0.0
 40
0.0802802360641124
 40
0.1534388577617218
 40
0.2193397011507162
 40
0.2779505089417532
 40
0.3728450221342042
 40
0.4421511202980472
 40
0.5315378252765655
 40
0.6554823679323597
 40
0.7303549761004801
 40
0.8130763003755613
 40
0.9031424881274012
 40
1.0
 40
1.0
 40
1.0
 40
1.0
 10
346.5802405151903
 20
614.9093892992663
 30
0.0
 10
346.6155998065803
 20
614.7865144389413
 30
0.0
 10
346.6831816866064
 20
614.5516648777011
 30
0.0
 10
346.8804206843399
 20
614.2572663989474
 30
0.0
 10
347.1052598192981
 20
614.0331228842537
 30
0.0
 10
347.4009472401631
 20
613.8401032326797
 30
0.0
 10
347.7428882622854
 20
613.7221937160673
 30
0.0
 10
348.1526406035202
 20
613.6923917294341
 30
0.0
 10
348.5917279874864
 20
613.7946954189741
 30
0.0
 10
348.9782581364481
 20
614.0459308186579
 30
0.0
 10
349.2710989939948
 20
614.3866415993753
 30
0.0
 10
349.4518682600055
 20
614.7421092066472
 30
0.0
 10
349.5577875344785
 20
615.1690504389047
 30
0.0
 10
349.5255170143376
 20
615.464120407178
 30
0.0
 10
349.5087955269395
 20
615.6170156420397
 30
0.0
  0
SPLINE
  5
2DD
330
1F
100
AcDbEntity
  8
0
  6
Continuous
 62
     7
370
    15
100
AcDbSpline
210
0.0
220
0.0
230
1.0
 70
     8
 71
     3
 72
    11
 73
     7
 74
     0
 42
0.00000001
 43
0.00000001
 40
0.0
 40
0.0
 40
0.0
 40
0.0
 40
0.2477418957589046
 40
0.4969492447715336
 40
0.7476751472220932
 40
1.0
 40
1.0
 40
1.0
 40
1.0
 10
349.5325777802049
 20
615.4493328751254
 30
0.0
 10
349.526133478451
 20
615.5139589288493
 30
0.0
 10
349.5132067553388
 20
615.6435933150408
 30
0.0
 10
349.4772869263698
 20
616.0014631543435
 30
0.0
 10
349.4322686997672
 20
616.4477864764249
 30
0.0
 10
349.396837784117
 20
616.7986541052413
 30
0.0
 10
349.3790660175859
 20
616.97464553725
 30
0.0
  0
LINE
  5
2DE
330
1F
100
AcDbEntity
  8
0
  6
Continuous
 62
     7
370
    15
100
AcDbLine
 10
349.6628735337
 20
626.6294506015
 30
0.0
 11
349.6628735337
 21
626.9292619647
 31
0.0
  0
LINE
  5
2DF
330
1F
100
AcDbEntity
  8
0
  6
Continuous
 62
     7
370
    15
100
AcDbLine
 10
348.8628599915
 20
626.9292619647
 30
0.0
 11
348.8628599915
 21
626.6318943919
 31
0.0
  0
SPLINE
  5
2E0
330
1F
100
AcDbEntity
  8
0
  6
Continuous
 62
     7
370
    15
100
AcDbSpline
210
0.0
220
0.0
230
1.0
 70
    24
 71
     3
 72
    11
 73
     7
 74
     0
 42
0.00000001
 43
0.00000001
 40
0.0
 40
0.0
 40
0.0
 40
0.0
 40
0.0207850328835332
 40
0.3465561843128634
 40
0.6711381646362238
 40
0.9999999999999999
 40
0.9999999999999999
 40
0.9999999999999999
 40
0.9999999999999999
 10
348.8628599915086
 20
627.2155877770114
 30
0.0
 10
348.8628599915086
 20
627.2122660729706
 30
0.0
 10
348.8628599915085
 20
627.1568821299065
 30
0.0
 10
348.8628599915087
 20
627.0636439647307
 30
0.0
 10
348.8628599915085
 20
626.9509318294441
 30
0.0
 10
348.8628599915086
 20
626.9164043303703
 30
0.0
 10
348.8628599915086
 20
626.8990275086093
 30
0.0
  0
SPLINE
  5
2E1
330
1F
100
AcDbEntity
  8
0
  6
Continuous
 62
     7
370
    15
100
AcDbSpline
210
0.0
220
0.0
230
1.0
 70
    24
 71
     3
 72
    11
 73
     7
 74
     0
 42
0.00000001
 43
0.00000001
 40
0.0
 40
0.0
 40
0.0
 40
0.0
 40
0.2504877331241812
 40
0.4977261212757707
 40
0.7458640449708547
 40
0.9999999999999999
 40
0.9999999999999999
 40
0.9999999999999999
 40
0.9999999999999999
 10
349.6628735336839
 20
626.8965837181735
 30
0.0
 10
349.662873533684
 20
626.9128008498847
 30
0.0
 10
349.662873533684
 20
626.9450247435028
 30
0.0
 10
349.6628735336838
 20
627.0538002799035
 30
0.0
 10
349.662873533684
 20
627.1926307108359
 30
0.0
 10
349.662873533684
 20
627.2996581705606
 30
0.0
 10
349.6628735336839
 20
627.3538109482455
 30
0.0
  0
LINE
  5
2E2
330
1F
100
AcDbEntity
  8
0
  6
Continuous
 62
     7
370
    15
100
AcDbLine
 10
349.6628735337
 20
627.3538109482
 30
0.0
 11
349.6628735337
 21
627.4577763499
 31
0.0
  0
LINE
  5
2E3
330
1F
100
AcDbEntity
  8
0
  6
Continuous
 62
     7
370
    15
100
AcDbLine
 10
348.6561212811
 20
627.4577763499
 30
0.0
 11
348.865035561
 21
627.2105511845
 31
0.0
  0
LINE
  5
2E4
330
1F
100
AcDbEntity
  8
0
  6
Continuous
 62
     7
370
    15
100
AcDbLine
 10
344.3864915642
 20
636.5957942427
 30
0.0
 11
344.3708751473
 21
637.0550331296
 31
0.0
  0
SPLINE
  5
2E5
330
1F
100
AcDbEntity
  8
0
  6
Continuous
 62
     7
370
    15
100
AcDbSpline
210
0.0
220
0.0
230
1.0
 70
     8
 71
     3
 72
    11
 73
     7
 74
     0
 42
0.00000001
 43
0.00000001
 40
0.0
 40
0.0
 40
0.0
 40
0.0
 40
0.1131880861643225
 40
0.4083417993277147
 40
0.7038280463209484
 40
1.0
 40
1.0
 40
1.0
 40
1.0
 10
346.4212153229295
 20
616.4118882836032
 30
0.0
 10
346.4304333690104
 20
616.3206176752001
 30
0.0
 10
346.4636887552483
 20
615.9913462322061
 30
0.0
 10
346.5103658546922
 20
615.528836452057
 30
0.0
 10
346.5532922813784
 20
615.1038510024393
 30
0.0
 10
346.560824048085
 20
615.029343144898
 30
0.0
 10
346.5645942959367
 20
614.9920460404086
 30
0.0
  0
LINE
  5
2E6
330
1F
100
AcDbEntity
  8
0
  6
Continuous
 62
     7
370
    15
100
AcDbLine
 10
344.7473082814
 20
667.4577829064
 30
0.0
 11
343.9955745015
 21
667.1841677846
 31
0.0
  0
LINE
  5
2E7
330
1F
100
AcDbEntity
  8
0
  6
Continuous
 62
     7
370
    15
100
AcDbLine
 10
350.195560244
 20
666.4577808798
 30
0.0
 11
349.8955700669
 21
666.4577808798
 31
0.0
  0
LINE
  5
2E8
330
1F
100
AcDbEntity
  8
0
  6
Continuous
 62
     7
370
    15
100
AcDbLine
 10
349.8955700669
 20
665.4577788533
 30
0.0
 11
349.795553473
 21
665.4577788533
 31
0.0
  0
LINE
  5
2E9
330
1F
100
AcDbEntity
  8
0
  6
Continuous
 62
     7
370
    15
100
AcDbLine
 10
349.795553473
 20
659.4577815951
 30
0.0
 11
349.8955700669
 21
659.4577815951
 31
0.0
  0
LINE
  5
2EA
330
1F
100
AcDbEntity
  8
0
  6
Continuous
 62
     7
370
    15
100
AcDbLine
 10
349.8955700669
 20
642.4577769459
 30
0.0
 11
349.795553473
 21
642.4577769459
 31
0.0
  0
LINE
  5
2EB
330
1F
100
AcDbEntity
  8
0
  6
Continuous
 62
     7
370
    15
100
AcDbLine
 10
349.795553473
 20
636.4577796878
 30
0.0
 11
349.8955700669
 21
636.4577796878
 31
0.0
  0
ARC
  5
2EC
330
1F
100
AcDbEntity
  8
0
  6
Continuous
 62
     7
370
    15
100
AcDbCircle
 10
365.195560244
 20
605.4577796162
 30
0.0
 40
15.0
100
AcDbArc
 50
180.0
 51
270.0
  0
LINE
  5
2ED
330
1F
100
AcDbEntity
  8
0
  6
Continuous
 62
     7
370
    15
100
AcDbLine
 10
350.195560244
 20
605.4577764691
 30
0.0
 11
365.1955608401
 21
605.4577764691
 31
0.0
  0
LINE
  5
2EE
330
1F
100
AcDbEntity
  8
0
  6
Continuous
 62
     7
370
    15
100
AcDbLine
 10
365.1955608401
 20
590.4577758731
 30
0.0
 11
365.1955608401
 21
605.4577764691
 31
0.0
  0
LINE
  5
2EF
330
1F
100
AcDbEntity
  8
0
  6
Continuous
 62
     7
370
    15
100
AcDbLine
 10
365.1955608401
 20
610.4577866019
 30
0.0
 11
365.1955608401
 21
605.4577764691
 31
0.0
  0
LINE
  5
2F0
330
1F
100
AcDbEntity
  8
0
  6
Continuous
 62
     7
370
    15
100
AcDbLine
 10
835.195559648
 20
610.4577866019
 30
0.0
 11
835.195559648
 21
605.4577764691
 31
0.0
  0
LINE
  5
2F1
330
1F
100
AcDbEntity
  8
0
  6
Continuous
 62
     7
370
    15
100
AcDbLine
 10
365.1955608401
 20
605.4577764691
 30
0.0
 11
835.195559648
 21
605.4577764691
 31
0.0
  0
LINE
  5
2F2
330
1F
100
AcDbEntity
  8
0
  6
Continuous
 62
     7
370
    15
100
AcDbLine
 10
365.1955608401
 20
610.4577866019
 30
0.0
 11
835.195559648
 21
610.4577866019
 31
0.0
  0
LINE
  5
2F3
330
1F
100
AcDbEntity
  8
0
  6
Continuous
 62
     7
370
    15
100
AcDbLine
 10
350.195560244
 20
610.4577866019
 30
0.0
 11
350.195560244
 21
605.4577764691
 31
0.0
  0
LINE
  5
2F4
330
1F
100
AcDbEntity
  8
0
  6
Continuous
 62
     7
370
    15
100
AcDbLine
 10
350.195560244
 20
610.4577866019
 30
0.0
 11
365.1955608401
 21
610.4577866019
 31
0.0
  0
LINE
  5
2F5
330
1F
100
AcDbEntity
  8
0
  6
Continuous
 62
     7
370
    15
100
AcDbLine
 10
365.1955608401
 20
590.4577758731
 30
0.0
 11
835.195559648
 21
590.4577758731
 31
0.0
  0
LINE
  5
2F6
330
1F
100
AcDbEntity
  8
0
  6
Continuous
 62
     7
370
    15
100
AcDbLine
 10
835.195559648
 20
605.4577764691
 30
0.0
 11
835.195559648
 21
590.4577758731
 31
0.0
  0
LINE
  5
2F7
330
1F
100
AcDbEntity
  8
0
  6
Continuous
 62
     7
370
    15
100
AcDbLine
 10
850.195560244
 20
610.4577866019
 30
0.0
 11
850.195560244
 21
605.4577764691
 31
0.0
  0
LINE
  5
2F8
330
1F
100
AcDbEntity
  8
0
  6
Continuous
 62
     7
370
    15
100
AcDbLine
 10
850.195560244
 20
605.4577764691
 30
0.0
 11
835.195559648
 21
605.4577764691
 31
0.0
  0
LINE
  5
2F9
330
1F
100
AcDbEntity
  8
0
  6
Continuous
 62
     7
370
    15
100
AcDbLine
 10
850.195560244
 20
610.4577866019
 30
0.0
 11
835.195559648
 21
610.4577866019
 31
0.0
  0
ARC
  5
2FA
330
1F
100
AcDbEntity
  8
0
  6
Continuous
 62
     7
370
    15
100
AcDbCircle
 10
835.195560244
 20
605.4577796162
 30
0.0
 40
15.0
100
AcDbArc
 50
270.0
 51
0.0
  0
LINE
  5
2FB
330
1F
100
AcDbEntity
  8
0
  6
Continuous
 62
     7
370
    15
100
AcDbLine
 10
348.9955697331
 20
606.3715752782
 30
0.0
 11
348.9955697331
 21
608.4755447329
 31
0.0
  0
LINE
  5
2FC
330
1F
100
AcDbEntity
  8
0
  6
Continuous
 62
     7
370
    15
100
AcDbLine
 10
348.9955697331
 20
608.4755447329
 30
0.0
 11
350.195560244
 21
608.4755447329
 31
0.0
  0
LINE
  5
2FD
330
1F
100
AcDbEntity
  8
0
  6
Continuous
 62
     7
370
    15
100
AcDbLine
 10
348.9955697331
 20
606.3715752782
 30
0.0
 11
350.195560244
 21
606.3715752782
 31
0.0
  0
LINE
  5
2FE
330
1F
100
AcDbEntity
  8
0
  6
Continuous
 62
     7
370
    15
100
AcDbLine
 10
348.9955697331
 20
613.4577777804
 30
0.0
 11
350.195560244
 21
613.4577777804
 31
0.0
  0
LINE
  5
2FF
330
1F
100
AcDbEntity
  8
0
  6
Continuous
 62
     7
370
    15
100
AcDbLine
 10
350.195560244
 20
610.4577866019
 30
0.0
 11
350.195560244
 21
613.4577777804
 31
0.0
  0
LINE
  5
300
330
1F
100
AcDbEntity
  8
0
  6
Continuous
 62
     7
370
    15
100
AcDbLine
 10
348.9955697331
 20
613.4577777804
 30
0.0
 11
348.9955697331
 21
608.4755447329
 31
0.0
  0
LINE
  5
301
330
1F
100
AcDbEntity
  8
0
  6
Continuous
 62
     7
370
    15
100
AcDbLine
 10
350.195560244
 20
605.4577764691
 30
0.0
 11
350.195560244
 21
601.9577768267
 31
0.0
  0
LINE
  5
302
330
1F
100
AcDbEntity
  8
0
  6
Continuous
 62
     7
370
    15
100
AcDbLine
 10
348.9955697331
 20
601.9577768267
 30
0.0
 11
348.9955697331
 21
606.3715752782
 31
0.0
  0
LINE
  5
303
330
1F
100
AcDbEntity
  8
0
  6
Continuous
 62
     7
370
    15
100
AcDbLine
 10
348.8955531392
 20
604.4577744425
 30
0.0
 11
348.8955531392
 21
610.4577866019
 31
0.0
  0
LINE
  5
304
330
1F
100
AcDbEntity
  8
0
  6
Continuous
 62
     7
370
    15
100
AcDbLine
 10
342.1475920949
 20
614.6601822795
 30
0.0
 11
342.8781066212
 21
613.7081619919
 31
0.0
  0
LINE
  5
305
330
1F
100
AcDbEntity
  8
0
  6
Continuous
 62
     7
370
    15
100
AcDbLine
 10
341.9260714325
 20
612.9776474656
 30
0.0
 11
341.1955569062
 21
613.9296677531
 31
0.0
  0
LWPOLYLINE
  5
306
330
1F
100
AcDbEntity
  8
0
  6
Continuous
 62
     7
370
    15
100
AcDbPolyline
 90
        9
 70
   128
 43
0.0
 10
341.1955569062
 20
613.9296677531
 10
341.2138555321
 20
613.9437046469
 10
341.2680361542
 20
613.9852788867
 10
341.3560126099
 20
614.052796048
 10
341.4743874344
 20
614.1436335267
 10
341.6186604771
 20
614.2543342532
 10
341.7832587037
 20
614.3806364955
 10
341.9618640217
 20
614.5176675738
 10
342.1475920949
 20
614.6601822795
  0
LWPOLYLINE
  5
307
330
1F
100
AcDbEntity
  8
0
  6
Continuous
 62
     7
370
    15
100
AcDbPolyline
 90
        9
 70
   128
 43
0.0
 10
342.8781066212
 20
613.7081619919
 10
342.6923785481
 20
613.5656472863
 10
342.51377323
 20
613.428616208
 10
342.3491750035
 20
613.3023139657
 10
342.2049019608
 20
613.1916132392
 10
342.0865271363
 20
613.1007608594
 10
341.9985506806
 20
613.0332585992
 10
341.9443700585
 20
612.9916843594
 10
341.9260714325
 20
612.9776474656
  0
ARC
  5
308
330
1F
100
AcDbEntity
  8
0
  6
Continuous
 62
     7
370
    15
100
AcDbCircle
 10
347.395560244
 20
615.1577796162
 30
0.0
 40
2.800000000000068
100
AcDbArc
 50
0.0
 51
45.7322600129
  0
LINE
  5
309
330
1F
100
AcDbEntity
  8
0
  6
Continuous
 62
     7
370
    15
100
AcDbLine
 10
346.2879095349
 20
617.7293744506
 30
0.0
 11
345.6910286221
 21
617.3791673602
 31
0.0
  0
LINE
  5
30A
330
1F
100
AcDbEntity
  8
0
  6
Continuous
 62
     7
370
    15
100
AcDbLine
 10
345.6910286221
 20
617.3791673602
 30
0.0
 11
342.1475920949
 21
614.6601822795
 31
0.0
  0
LINE
  5
30B
330
1F
100
AcDbEntity
  8
0
  6
Continuous
 62
     7
370
    15
100
AcDbLine
 10
342.8781066212
 20
613.7081619919
 30
0.0
 11
346.4215431485
 21
616.4271470727
 31
0.0
  0
LINE
  5
30C
330
1F
100
AcDbEntity
  8
0
  6
Continuous
 62
     7
370
    15
100
AcDbLine
 10
350.195560244
 20
613.4577777804
 30
0.0
 11
350.195560244
 21
614.457779807
 31
0.0
  0
LINE
  5
30D
330
1F
100
AcDbEntity
  8
0
  6
Continuous
 62
     7
370
    15
100
AcDbLine
 10
348.9955697331
 20
614.0987214268
 30
0.0
 11
348.9955697331
 21
613.4577777804
 31
0.0
  0
SPLINE
  5
30E
330
1F
100
AcDbEntity
  8
0
  6
Continuous
 62
     7
370
    15
100
AcDbSpline
210
0.0
220
0.0
230
1.0
 70
     8
 71
     3
 72
    12
 73
     8
 74
     0
 42
0.00000001
 43
0.00000001
 40
0.0
 40
0.0
 40
0.0
 40
0.0
 40
0.2340470625943748
 40
0.468110382289208
 40
0.7021603582588167
 40
0.9362165040643773
 40
1.0
 40
1.0
 40
1.0
 40
1.0
 10
346.4925322804032
 20
632.1348932207751
 30
0.0
 10
346.2961458243332
 20
632.1155145984271
 30
0.0
 10
345.9033592710291
 20
632.076756007676
 30
0.0
 10
345.3658477903959
 20
632.0714999745653
 30
0.0
 10
344.9923997044913
 20
632.1099841936849
 30
0.0
 10
344.8131368814927
 20
632.1646448340484
 30
0.0
 10
344.8418838566187
 20
632.208598955139
 30
0.0
 10
344.8480401310503
 20
632.2180118979144
 30
0.0
  0
SPLINE
  5
30F
330
1F
100
AcDbEntity
  8
0
  6
Continuous
 62
     7
370
    15
100
AcDbSpline
210
0.0
220
0.0
230
1.0
 70
     8
 71
     3
 72
    11
 73
     7
 74
     0
 42
0.00000001
 43
0.00000001
 40
0.0
 40
0.0
 40
0.0
 40
0.0
 40
0.1986866801470759
 40
0.4657866974251356
 40
0.7328890205481572
 40
1.0
 40
1.0
 40
1.0
 40
1.0
 10
347.7884564671098
 20
632.5137850464511
 30
0.0
 10
347.7872741804698
 20
632.4892916047038
 30
0.0
 10
347.7845025130933
 20
632.4318709495718
 30
0.0
 10
347.5149571310239
 20
632.3247947340245
 30
0.0
 10
347.0679091382144
 20
632.2139715297504
 30
0.0
 10
346.684326638182
 20
632.1612529418487
 30
0.0
 10
346.4925322804033
 20
632.1348932207751
 30
0.0
  0
SPLINE
  5
310
330
1F
100
AcDbEntity
  8
0
  6
Continuous
 62
     7
370
    15
100
AcDbSpline
210
0.0
220
0.0
230
1.0
 70
     8
 71
     3
 72
    12
 73
     8
 74
     0
 42
0.00000001
 43
0.00000001
 40
0.0
 40
0.0
 40
0.0
 40
0.0
 40
0.2339746063686035
 40
0.4679314347940849
 40
0.7019014784153117
 40
0.9358644000539801
 40
1.0
 40
1.0
 40
1.0
 40
1.0
 10
345.8855781826555
 20
638.1467667044329
 30
0.0
 10
345.6894863959071
 20
638.1242665215714
 30
0.0
 10
345.2973177219274
 20
638.0792678654656
 30
0.0
 10
344.7943932855523
 20
637.7317561256501
 30
0.0
 10
344.4745520744496
 20
637.2382806358197
 30
0.0
 10
344.3466699121323
 20
636.7846908978736
 30
0.0
 10
344.4044325555569
 20
636.5416951467464
 30
0.0
 10
344.4168601307451
 20
636.4894148529696
 30
0.0
  0
SPLINE
  5
311
330
1F
100
AcDbEntity
  8
0
  6
Continuous
 62
     7
370
    15
100
AcDbSpline
210
0.0
220
0.0
230
1.0
 70
     8
 71
     3
 72
    11
 73
     7
 74
     0
 42
0.00000001
 43
0.00000001
 40
0.0
 40
0.0
 40
0.0
 40
0.0
 40
0.1976869012946596
 40
0.465132349840553
 40
0.7325626924186095
 40
1.0
 40
1.0
 40
1.0
 40
1.0
 10
347.3557863506853
 20
636.7964830816912
 30
0.0
 10
347.3375062147275
 20
636.9412318843573
 30
0.0
 10
347.2944953599982
 20
637.2818075637766
 30
0.0
 10
346.9690242225336
 20
637.7315686679566
 30
0.0
 10
346.4757445619123
 20
638.0793086850024
 30
0.0
 10
346.0823020168667
 20
638.1242805027496
 30
0.0
 10
345.8855781826555
 20
638.1467667044329
 30
0.0
  0
SPLINE
  5
312
330
1F
100
AcDbEntity
  8
0
  6
Continuous
 62
     7
370
    15
100
AcDbSpline
210
0.0
220
0.0
230
1.0
 70
     8
 71
     3
 72
    12
 73
     8
 74
     0
 42
0.00000001
 43
0.00000001
 40
0.0
 40
0.0
 40
0.0
 40
0.0
 40
0.2350193850730122
 40
0.4700326152068836
 40
0.7050507835947478
 40
0.9400637437707898
 40
1.0
 40
1.0
 40
1.0
 40
1.0
 10
348.0616245541154
 20
616.5939208687472
 30
0.0
 10
347.8652333348923
 20
616.5745429073224
 30
0.0
 10
347.4724560397495
 20
616.5357874919637
 30
0.0
 10
346.9348550190942
 20
616.530519214849
 30
0.0
 10
346.5617679232377
 20
616.5690442064302
 30
0.0
 10
346.3827941148196
 20
616.6231654175384
 30
0.0
 10
346.4106395119055
 20
616.6664670399305
 30
0.0
 10
346.4162979397356
 20
616.6752663077044
 30
0.0
  0
SPLINE
  5
313
330
1F
100
AcDbEntity
  8
0
  6
Continuous
 62
     7
370
    15
100
AcDbSpline
210
0.0
220
0.0
230
1.0
 70
     8
 71
     3
 72
    11
 73
     7
 74
     0
 42
0.00000001
 43
0.00000001
 40
0.0
 40
0.0
 40
0.0
 40
0.0
 40
0.1989267092163891
 40
0.4659434779542677
 40
0.732978993579072
 40
0.9999999999999999
 40
0.9999999999999999
 40
0.9999999999999999
 40
0.9999999999999999
 10
349.3575785431444
 20
616.9729170025515
 30
0.0
 10
349.356397492895
 20
616.9483912246451
 30
0.0
 10
349.3536311340538
 20
616.8909448098208
 30
0.0
 10
349.0840666379049
 20
616.7838170621486
 30
0.0
 10
348.6369759740754
 20
616.6730047435993
 30
0.0
 10
348.2534048871594
 20
616.620281682906
 30
0.0
 10
348.0616245541154
 20
616.5939208687472
 30
0.0
  0
LINE
  5
314
330
1F
100
AcDbEntity
  8
0
  6
Continuous
 62
     7
370
    15
100
AcDbLine
 10
346.5847108635
 20
614.9914946974
 30
0.0
 11
346.5836975846
 21
615.1950296582
 31
0.0
  0
ARC
  5
315
330
1F
100
AcDbEntity
  8
0
  6
Continuous
 62
     7
370
    15
100
AcDbCircle
 10
349.2628598748
 20
626.8955508
 30
0.0
 40
0.400014992437484
100
AcDbArc
 50
0.1479492488
 51
179.5020105704
  0
ELLIPSE
  5
316
330
1F
100
AcDbEntity
  8
0
  6
Continuous
 62
     7
370
    15
100
AcDbEllipse
 10
349.2628596444
 20
626.6306712225
 30
0.0
 11
0.3991830274373456
 21
-0.02624604221148275
 31
0.0
210
0.0
220
0.0
230
1.0
 40
0.9763157485
 41
0.0
 42
6.283185307179586
  0
SPLINE
  5
317
330
1F
100
AcDbEntity
  8
0
  6
Continuous
 62
     7
370
    15
100
AcDbSpline
210
0.0
220
0.0
230
1.0
 70
     8
 71
     3
 72
    13
 73
     9
 74
     0
 42
0.00000001
 43
0.00000001
 40
0.0
 40
0.0
 40
0.0
 40
0.0
 40
0.0081674514163567
 40
0.2391721021016458
 40
0.4710976466709006
 40
0.6931339492044136
 40
0.9042391337694594
 40
0.9999999999999999
 40
0.9999999999999999
 40
0.9999999999999999
 40
0.9999999999999999
 10
349.2628667625963
 20
627.3595031918215
 30
0.0
 10
349.2612078518765
 20
627.35911092395
 30
0.0
 10
349.2126290304289
 20
627.3476239218701
 30
0.0
 10
349.1165113920062
 20
627.3243423940382
 30
0.0
 10
348.9936821865506
 20
627.2807114766347
 30
0.0
 10
348.9080173133998
 20
627.2432741005108
 30
0.0
 10
348.8639902225463
 20
627.222108249882
 30
0.0
 10
348.8672400637921
 20
627.2171386075792
 30
0.0
 10
348.8682542118608
 20
627.2155877770114
 30
0.0
  0
SPLINE
  5
318
330
1F
100
AcDbEntity
  8
0
  6
Continuous
 62
     7
370
    15
100
AcDbSpline
210
0.0
220
0.0
230
1.0
 70
     8
 71
     3
 72
    13
 73
     9
 74
     0
 42
0.00000001
 43
0.00000001
 40
0.0
 40
0.0
 40
0.0
 40
0.0
 40
0.1252364943437314
 40
0.2499770583600235
 40
0.4999990642972859
 40
0.7499967036364231
 40
0.8747775646080594
 40
1.0
 40
1.0
 40
1.0
 40
1.0
 10
349.6628735336839
 20
627.3538109482455
 30
0.0
 10
349.6611516871698
 20
627.353832934642
 30
0.0
 10
349.6577148125687
 20
627.3538768203701
 30
0.0
 10
349.6233684247514
 20
627.3543889533918
 30
0.0
 10
349.5480761992692
 20
627.3554374621589
 30
0.0
 10
349.4394243547538
 20
627.3569957055566
 30
0.0
 10
349.3407119761781
 20
627.3583909067954
 30
0.0
 10
349.2888457038131
 20
627.3591319938253
 30
0.0
 10
349.2628667625963
 20
627.3595031918215
 30
0.0
  0
SPLINE
  5
319
330
1F
100
AcDbEntity
  8
0
  6
Continuous
 62
     7
370
    15
100
AcDbSpline
210
0.0
220
0.0
230
1.0
 70
     8
 71
     3
 72
    10
 73
     6
 74
     0
 42
0.00000001
 43
0.00000001
 40
0.0
 40
0.0
 40
0.0
 40
0.0
 40
0.0189739094627935
 40
0.5253083415553117
 40
1.0
 40
1.0
 40
1.0
 40
1.0
 10
349.2628667625963
 20
627.3595031918215
 30
0.0
 10
349.2643861077771
 20
627.3602434557068
 30
0.0
 10
349.3064504329363
 20
627.3807382722682
 30
0.0
 10
349.3890353525794
 20
627.4189963321433
 30
0.0
 10
349.4591789429589
 20
627.4451306629451
 30
0.0
 10
349.4931195053636
 20
627.457776349895
 30
0.0
  0
LINE
  5
31A
330
1F
100
AcDbEntity
  8
0
  6
Continuous
 62
     7
370
    15
100
AcDbLine
 10
344.3863723549
 20
636.5976270856
 30
0.0
 11
344.3987999234
 21
636.4479747237
 31
0.0
  0
LINE
  5
31B
330
1F
100
AcDbEntity
  8
0
  6
Continuous
 62
     7
370
    15
100
AcDbLine
 10
347.378555325
 20
636.7914762915
 30
0.0
 11
347.3429713521
 21
637.001642269
 31
0.0
  0
ARC
  5
31C
330
1F
100
AcDbEntity
  8
0
  6
Continuous
 62
     7
370
    15
100
AcDbCircle
 10
345.295560244
 20
630.4777796162
 30
0.0
 40
2.200000000000036
100
AcDbArc
 50
103.5934783352
 51
268.1042765975
  0
LINE
  5
31D
330
1F
100
AcDbEntity
  8
0
  6
Continuous
 62
     7
370
    15
100
AcDbLine
 10
341.7487476143
 20
631.8555411519
 30
0.0
 11
342.0823846135
 21
633.7477800072
 31
0.0
  0
LWPOLYLINE
  5
31E
330
1F
100
AcDbEntity
  8
0
  6
Continuous
 62
     7
370
    15
100
AcDbPolyline
 90
        9
 70
   128
 43
0.0
 10
342.0823846135
 20
633.7477800072
 10
341.9381413731
 20
633.7732162894
 10
341.8011102948
 20
633.7973710717
 10
341.6760001454
 20
633.8194396914
 10
341.567162064
 20
633.838632387
 10
341.478321341
 20
633.8542935074
 10
341.4125774178
 20
633.8658866109
 10
341.3722250733
 20
633.8729944647
 10
341.358605412
 20
633.8754084529
  0
LINE
  5
31F
330
1F
100
AcDbEntity
  8
0
  6
Continuous
 62
     7
370
    15
100
AcDbLine
 10
341.358605412
 20
633.8754084529
 30
0.0
 11
345.7336459431
 21
658.6875107707
 31
0.0
  0
LWPOLYLINE
  5
320
330
1F
100
AcDbEntity
  8
0
  6
Continuous
 62
     7
370
    15
100
AcDbPolyline
 90
        9
 70
   128
 43
0.0
 10
345.7336459431
 20
658.6875107707
 10
345.7487855229
 20
658.6848434628
 10
345.7936082158
 20
658.6769309462
 10
345.8664152894
 20
658.6641010464
 10
345.9644053254
 20
658.6468306006
 10
346.0837934289
 20
658.6257752598
 10
346.2199900422
 20
658.601754588
 10
346.3677797589
 20
658.5756924571
 10
346.5215001378
 20
658.5485872449
  0
LINE
  5
321
330
1F
100
AcDbEntity
  8
0
  6
Continuous
 62
     7
370
    15
100
AcDbLine
 10
346.5215001378
 20
658.5485872449
 30
0.0
 11
341.6961763176
 21
631.1827835263
 31
0.0
  0
LINE
  5
322
330
1F
100
AcDbEntity
  8
0
  6
Continuous
 62
     7
370
    15
100
AcDbLine
 10
341.6961763176
 20
631.1827835263
 30
0.0
 11
341.7487476143
 21
631.8555411519
 31
0.0
  0
LWPOLYLINE
  5
323
330
1F
100
AcDbEntity
  8
0
  6
Continuous
 62
     7
370
    15
100
AcDbPolyline
 90
        5
 70
   128
 43
0.0
 10
344.5809517178
 20
665.5758407534
 10
344.3274829659
 20
666.2722465218
 10
344.1439304623
 20
666.7765614213
 10
344.0327677998
 20
667.0819160165
 10
343.9955745015
 20
667.1841677846
  0
LWPOLYLINE
  5
324
330
1F
100
AcDbEntity
  8
0
  6
Continuous
 62
     7
370
    15
100
AcDbPolyline
 90
        5
 70
   128
 43
0.0
 10
345.3405831132
 20
665.8278193892
 10
345.0837168965
 20
666.5334936799
 10
344.8976908001
 20
667.04461841
 10
344.7850380215
 20
667.3541304291
 10
344.7473082814
 20
667.4577829064
  0
LINE
  5
325
330
1F
100
AcDbEntity
  8
0
  6
Continuous
 62
     7
370
    15
100
AcDbLine
 10
345.5626700196
 20
665.4733803691
 30
0.0
 11
345.3405831132
 21
665.8278193892
 31
0.0
  0
LINE
  5
326
330
1F
100
AcDbEntity
  8
0
  6
Continuous
 62
     7
370
    15
100
AcDbLine
 10
345.4804752144
 20
665.4434588374
 30
0.0
 11
345.5626700196
 21
665.4733803691
 31
0.0
  0
SPLINE
  5
327
330
1F
100
AcDbEntity
  8
0
  6
Continuous
 62
     7
370
    15
100
AcDbSpline
210
0.0
220
0.0
230
1.0
 70
     8
 71
     3
 72
    12
 73
     8
 74
     0
 42
0.00000001
 43
0.00000001
 40
0.0
 40
0.0
 40
0.0
 40
0.0
 40
0.2510114819641536
 40
0.5023967714756553
 40
0.7402775972796664
 40
0.9473076891039195
 40
1.0
 40
1.0
 40
1.0
 40
1.0
 10
344.5809517178117
 20
665.5758407534289
 30
0.0
 10
344.6086543114994
 20
665.5315222314729
 30
0.0
 10
344.6641007537152
 20
665.4428191881972
 30
0.0
 10
344.8711168711925
 20
665.3678369728349
 30
0.0
 10
345.1325007741289
 20
665.3563277204602
 30
0.0
 10
345.3490859847159
 20
665.3979766107677
 30
0.0
 10
345.4583149196798
 20
665.4357877402142
 30
0.0
 10
345.4804752144395
 20
665.4434588373828
 30
0.0
  0
LINE
  5
328
330
1F
100
AcDbEntity
  8
0
  6
Continuous
 62
     7
370
    15
100
AcDbLine
 10
345.4804752144
 20
665.4434588374
 30
0.0
 11
346.0567925248
 21
663.859972042
 31
0.0
  0
LWPOLYLINE
  5
329
330
1F
100
AcDbEntity
  8
0
  6
Continuous
 62
     7
370
    15
100
AcDbPolyline
 90
        9
 70
   128
 43
0.0
 10
345.3050587449
 20
663.5863569201
 10
345.3194830689
 20
663.59161703
 10
345.3622792038
 20
663.6071887435
 10
345.4317484173
 20
663.632476014
 10
345.5252383027
 20
663.666495365
 10
345.6391427788
 20
663.7079652966
 10
345.7691107068
 20
663.7552764834
 10
345.9101352963
 20
663.8065960826
 10
346.0567925248
 20
663.859972042
  0
LINE
  5
32A
330
1F
100
AcDbEntity
  8
0
  6
Continuous
 62
     7
370
    15
100
AcDbLine
 10
345.3050587449
 20
663.5863569201
 30
0.0
 11
344.5809517178
 21
665.5758407534
 31
0.0
  0
ARC
  5
32B
330
1F
100
AcDbEntity
  8
0
  6
Continuous
 62
     7
370
    15
100
AcDbCircle
 10
345.8855657502
 20
636.6467705347
 30
0.0
 40
1.600000000000015
100
AcDbArc
 50
348.026450872
 51
204.5705045339
  0
ARC
  5
32C
330
1F
100
AcDbEntity
  8
0
  6
Continuous
 62
     7
370
    15
100
AcDbCircle
 10
336.3779732035
 20
660.3371700845
 30
0.0
 40
10.30000000000016
100
AcDbArc
 50
350.0
 51
20.0
  0
ARC
  5
32D
330
1F
100
AcDbEntity
  8
0
  6
Continuous
 62
     7
370
    15
100
AcDbCircle
 10
339.195560244
 20
659.2734656622
 30
0.0
 40
9.5
100
AcDbArc
 50
0.0
 51
36.8410865502
  0
LINE
  5
32E
330
1F
100
AcDbEntity
  8
0
  6
Continuous
 62
     7
370
    15
100
AcDbLine
 10
348.6955497536
 20
659.2734691323
 30
0.0
 11
348.6955497536
 21
631.2477823914
 31
0.0
  0
ARC
  5
32F
330
1F
100
AcDbEntity
  8
0
  6
Continuous
 62
     7
370
    15
100
AcDbCircle
 10
346.2802621698
 20
666.1698444706
 30
0.0
 40
1.0
100
AcDbArc
 50
224.1440002858
 51
270.0
  0
LINE
  5
330
330
1F
100
AcDbEntity
  8
0
  6
Continuous
 62
     7
370
    15
100
AcDbLine
 10
346.280250338
 20
665.1698437155
 30
0.0
 11
346.3982675347
 21
665.1698437155
 31
0.0
  0
ARC
  5
331
330
1F
100
AcDbEntity
  8
0
  6
Continuous
 62
     7
370
    15
100
AcDbCircle
 10
346.3982747154
 20
664.6698444706
 30
0.0
 40
0.5
100
AcDbArc
 50
36.8410865503
 51
90.0
  0
LWPOLYLINE
  5
332
330
1F
100
AcDbEntity
  8
0
  6
Continuous
 62
     7
370
    15
100
AcDbPolyline
 90
        3
 70
   128
 43
0.0
 10
348.6955497536
 20
631.2477823914
 10
348.4869334969
 20
630.0574925364
 10
348.1307659421
 20
629.3413427294
  0
ARC
  5
333
330
1F
100
AcDbEntity
  8
0
  6
Continuous
 62
     7
370
    15
100
AcDbCircle
 10
345.195560244
 20
631.2477796162
 30
0.0
 40
3.500000000000008
100
AcDbArc
 50
181.0639402281
 51
271.3221928088
  0
ARC
  5
334
330
1F
100
AcDbEntity
  8
0
  6
Continuous
 62
     7
370
    15
100
AcDbCircle
 10
336.3779732035
 20
660.3371700845
 30
0.0
 40
9.500000000000444
100
AcDbArc
 50
350.0
 51
20.0
  0
ARC
  5
335
330
1F
100
AcDbEntity
  8
0
  6
Continuous
 62
     7
370
    15
100
AcDbCircle
 10
345.7891780374
 20
631.945275143
 30
0.0
 40
4.698428302688391
100
AcDbArc
 50
170.0
 51
264.3261771657
  0
LINE
  5
336
330
1F
100
AcDbEntity
  8
0
  6
Continuous
 62
     7
370
    15
100
AcDbLine
 10
341.358605412
 20
633.8754084529
 30
0.0
 11
341.1621187005
 21
632.7611443223
 31
0.0
  0
LINE
  5
337
330
1F
100
AcDbEntity
  8
0
  6
Continuous
 62
     7
370
    15
100
AcDbLine
 10
365.1955608401
 20
825.4577799336
 30
0.0
 11
365.1955608401
 21
840.4577795983
 31
0.0
  0
LINE
  5
338
330
1F
100
AcDbEntity
  8
0
  6
Continuous
 62
     7
370
    15
100
AcDbLine
 10
365.1955608401
 20
825.4577799336
 30
0.0
 11
350.195560244
 21
825.4577799336
 31
0.0
  0
ARC
  5
339
330
1F
100
AcDbEntity
  8
0
  6
Continuous
 62
     7
370
    15
100
AcDbCircle
 10
365.195560244
 20
825.4577796162
 30
0.0
 40
15.0
100
AcDbArc
 50
90.0
 51
180.0
  0
LINE
  5
33A
330
1F
100
AcDbEntity
  8
0
  6
Continuous
 62
     7
370
    15
100
AcDbLine
 10
835.195559648
 20
825.4577799336
 30
0.0
 11
850.195560244
 21
825.4577799336
 31
0.0
  0
LINE
  5
33B
330
1F
100
AcDbEntity
  8
0
  6
Continuous
 62
     7
370
    15
100
AcDbLine
 10
835.195559648
 20
825.4577799336
 30
0.0
 11
835.195559648
 21
840.4577795983
 31
0.0
  0
ARC
  5
33C
330
1F
100
AcDbEntity
  8
0
  6
Continuous
 62
     7
370
    15
100
AcDbCircle
 10
835.195560244
 20
825.4577796162
 30
0.0
 40
15.00000000000011
100
AcDbArc
 50
0.0
 51
90.0
  0
LINE
  5
33D
330
1F
100
AcDbEntity
  8
0
  6
Continuous
 62
     7
370
    15
100
AcDbLine
 10
365.1955608401
 20
825.4577799336
 30
0.0
 11
835.195559648
 21
825.4577799336
 31
0.0
  0
LINE
  5
33E
330
1F
100
AcDbEntity
  8
0
  6
Continuous
 62
     7
370
    15
100
AcDbLine
 10
365.1955608401
 20
840.4577795983
 30
0.0
 11
835.195559648
 21
840.4577795983
 31
0.0
  0
LINE
  5
33F
330
1F
100
AcDbEntity
  8
0
  6
Continuous
 62
     7
370
    15
100
AcDbLine
 10
350.195560244
 20
614.457779807
 30
0.0
 11
350.195560244
 21
825.4577799336
 31
0.0
  0
LINE
  5
340
330
1F
100
AcDbEntity
  8
0
  6
Continuous
 62
     7
370
    15
100
AcDbLine
 10
365.1955608401
 20
614.457779807
 30
0.0
 11
365.1955608401
 21
825.4577799336
 31
0.0
  0
LINE
  5
341
330
1F
100
AcDbEntity
  8
0
  6
Continuous
 62
     7
370
    15
100
AcDbLine
 10
365.1955608401
 20
614.457779807
 30
0.0
 11
350.195560244
 21
614.457779807
 31
0.0
  0
LINE
  5
342
330
1F
100
AcDbEntity
  8
0
  6
Continuous
 62
     7
370
    15
100
AcDbLine
 10
835.195559648
 20
614.457779807
 30
0.0
 11
835.195559648
 21
825.4577799336
 31
0.0
  0
LINE
  5
343
330
1F
100
AcDbEntity
  8
0
  6
Continuous
 62
     7
370
    15
100
AcDbLine
 10
835.195559648
 20
614.457779807
 30
0.0
 11
365.1955608401
 21
614.457779807
 31
0.0
  0
LINE
  5
344
330
1F
100
AcDbEntity
  8
0
  6
Continuous
 62
     7
370
    15
100
AcDbLine
 10
370.1955560717
 20
634.4577756346
 30
0.0
 11
370.1955560717
 21
820.4577800454
 31
0.0
  0
LINE
  5
345
330
1F
100
AcDbEntity
  8
0
  6
Continuous
 62
     7
370
    15
100
AcDbLine
 10
370.1955560717
 20
634.4577756346
 30
0.0
 11
830.1955644164
 21
634.4577756346
 31
0.0
  0
LINE
  5
346
330
1F
100
AcDbEntity
  8
0
  6
Continuous
 62
     7
370
    15
100
AcDbLine
 10
830.1955644164
 20
820.4577800454
 30
0.0
 11
830.1955644164
 21
634.4577756346
 31
0.0
  0
LINE
  5
347
330
1F
100
AcDbEntity
  8
0
  6
Continuous
 62
     7
370
    15
100
AcDbLine
 10
830.1955644164
 20
820.4577800454
 30
0.0
 11
370.1955560717
 21
820.4577800454
 31
0.0
  0
LINE
  5
348
330
1F
100
AcDbEntity
  8
0
  6
Continuous
 62
     7
370
    15
100
AcDbLine
 10
850.195560244
 20
614.457779807
 30
0.0
 11
850.195560244
 21
825.4577799336
 31
0.0
  0
LINE
  5
349
330
1F
100
AcDbEntity
  8
0
  6
Continuous
 62
     7
370
    15
100
AcDbLine
 10
850.195560244
 20
614.457779807
 30
0.0
 11
835.195559648
 21
614.457779807
 31
0.0
  0
LINE
  5
34A
330
1F
100
AcDbEntity
  8
0
  6
Continuous
 62
     7
370
    15
100
AcDbLine
 10
845.1955650124
 20
614.457779807
 30
0.0
 11
845.1955650124
 21
610.4577866019
 31
0.0
  0
LINE
  5
34B
330
1F
100
AcDbEntity
  8
0
  6
Continuous
 62
     7
370
    15
100
AcDbLine
 10
830.1955644164
 20
610.4577866019
 30
0.0
 11
830.1955644164
 21
614.457779807
 31
0.0
  0
LINE
  5
34C
330
1F
100
AcDbEntity
  8
0
  6
Continuous
 62
     7
370
    15
100
AcDbLine
 10
370.1955560717
 20
610.4577866019
 30
0.0
 11
370.1955560717
 21
614.457779807
 31
0.0
  0
LINE
  5
34D
330
1F
100
AcDbEntity
  8
0
  6
Continuous
 62
     7
370
    15
100
AcDbLine
 10
355.1955554757
 20
610.4577866019
 30
0.0
 11
355.1955554757
 21
614.457779807
 31
0.0
  0
LINE
  5
34E
330
1F
100
AcDbEntity
  8
0
  6
Continuous
 62
     7
370
    15
100
AcDbLine
 10
850.195560244
 20
614.457779807
 30
0.0
 11
850.8628640446
 21
614.457779807
 31
0.0
  0
ARC
  5
34F
330
1F
100
AcDbEntity
  8
0
  6
Continuous
 62
     7
370
    15
100
AcDbCircle
 10
850.8628779921
 20
614.9577796162
 30
0.0
 40
0.5
100
AcDbArc
 50
270.0
 51
332.720387264
  0
ARC
  5
350
330
1F
100
AcDbEntity
  8
0
  6
Continuous
 62
     7
370
    15
100
AcDbCircle
 10
850.6334113787
 20
609.9577796162
 30
0.0
 40
0.4999999999999757
100
AcDbArc
 50
22.024312837
 51
90.0
  0
ARC
  5
351
330
1F
100
AcDbEntity
  8
0
  6
Continuous
 62
     7
370
    15
100
AcDbCircle
 10
856.195560244
 20
612.2077796162
 30
0.0
 40
5.500000000000063
100
AcDbArc
 50
202.024312837
 51
152.720387264
  0
LINE
  5
352
330
1F
100
AcDbEntity
  8
0
  6
Continuous
 62
     7
370
    15
100
AcDbLine
 10
850.6334159646
 20
610.4577866019
 30
0.0
 11
850.195560244
 21
610.4577866019
 31
0.0
  0
LINE
  5
353
330
1F
100
AcDbEntity
  8
0
  6
Continuous
 62
     7
370
    15
100
AcDbLine
 10
350.195560244
 20
635.6577810467
 30
0.0
 11
349.8955700669
 21
635.6577810467
 31
0.0
  0
LINE
  5
354
330
1F
100
AcDbEntity
  8
0
  6
Continuous
 62
     7
370
    15
100
AcDbLine
 10
349.8955700669
 20
633.6577769936
 30
0.0
 11
350.195560244
 21
633.6588349761
 31
0.0
  0
LINE
  5
355
330
1F
100
AcDbEntity
  8
0
  6
Continuous
 62
     7
370
    15
100
AcDbLine
 10
349.8955700669
 20
633.6577769936
 30
0.0
 11
349.8955700669
 21
635.6577810467
 31
0.0
  0
ARC
  5
356
330
1F
100
AcDbEntity
  8
0
  6
Continuous
 62
     7
370
    15
100
AcDbCircle
 10
344.995560244
 20
630.5577796162
 30
0.0
 40
3.100000000000023
100
AcDbArc
 50
192.3149452671
 51
270.0
  0
LINE
  5
357
330
1F
100
AcDbEntity
  8
0
  6
Continuous
 62
     7
370
    15
100
AcDbLine
 10
349.8955700669
 20
633.6577769936
 30
0.0
 11
348.6955497536
 21
633.6577769936
 31
0.0
  0
LINE
  5
358
330
1F
100
AcDbEntity
  8
0
  6
Continuous
 62
     7
370
    15
100
AcDbLine
 10
349.8955700669
 20
627.4577763499
 30
0.0
 11
349.8955700669
 21
633.6577769936
 31
0.0
  0
LINE
  5
359
330
1F
100
AcDbEntity
  8
0
  6
Continuous
 62
     7
370
    15
100
AcDbLine
 10
344.9955616269
 20
627.4577763499
 30
0.0
 11
345.3056845936
 21
627.4577763499
 31
0.0
  0
LINE
  5
35A
330
1F
100
AcDbEntity
  8
0
  6
Continuous
 62
     7
370
    15
100
AcDbLine
 10
348.3209345612
 20
627.4577763499
 30
0.0
 11
349.8955700669
 21
627.4577763499
 31
0.0
  0
LINE
  5
35B
330
1F
100
AcDbEntity
  8
0
  6
Continuous
 62
     7
370
    15
100
AcDbLine
 10
350.195560244
 20
627.4577763499
 30
0.0
 11
349.8955700669
 21
627.4577763499
 31
0.0
  0
LINE
  5
35C
330
1F
100
AcDbEntity
  8
0
  6
Continuous
 62
     7
370
    15
100
AcDbLine
 10
349.8955700669
 20
666.4577808798
 30
0.0
 11
349.8955700669
 21
659.7077783765
 31
0.0
  0
LINE
  5
35D
330
1F
100
AcDbEntity
  8
0
  6
Continuous
 62
     7
370
    15
100
AcDbLine
 10
349.8955700669
 20
635.6577810467
 30
0.0
 11
349.8955700669
 21
659.7077783765
 31
0.0
  0
LINE
  5
35E
330
1F
100
AcDbEntity
  8
0
  6
Continuous
 62
     7
370
    15
100
AcDbLine
 10
349.795553473
 20
659.4577815951
 30
0.0
 11
349.795553473
 21
665.4577788533
 31
0.0
  0
LINE
  5
35F
330
1F
100
AcDbEntity
  8
0
  6
Continuous
 62
     7
370
    15
100
AcDbLine
 10
349.795553473
 20
636.4577796878
 30
0.0
 11
349.795553473
 21
642.4577769459
 31
0.0
  0
LINE
  5
360
330
1F
100
AcDbEntity
  8
0
  6
Continuous
 62
     7
370
    15
100
AcDbLine
 10
348.6955497536
 20
651.8145885886
 30
0.0
 11
349.8955700669
 21
651.4930513323
 31
0.0
  0
LINE
  5
361
330
1F
100
AcDbEntity
  8
0
  6
Continuous
 62
     7
370
    15
100
AcDbLine
 10
349.8955700669
 20
650.4577782572
 30
0.0
 11
348.6955497536
 21
650.7793155135
 31
0.0
  0
LINE
  5
362
330
1F
100
AcDbEntity
  8
0
  6
Continuous
 62
     8
370
    15
100
AcDbLine
 10
350.195560244
 20
659.7077783765
 30
0.0
 11
349.8955700669
 21
659.7077783765
 31
0.0
  0
ENDSEC
  0
SECTION
  2
OBJECTS
  0
DICTIONARY
  5
C
330
0
100
AcDbDictionary
281
     1
  3
ACAD_GROUP
350
D
  3
ACAD_LAYOUT
350
1A
  3
ACAD_MLINESTYLE
350
17
  3
ACAD_PLOTSETTINGS
350
19
  3
ACAD_PLOTSTYLENAME
350
E
  0
DICTIONARY
  5
D
102
{ACAD_REACTORS
330
C
102
}
330
C
100
AcDbDictionary
281
     1
  0
DICTIONARY
  5
1A
102
{ACAD_REACTORS
330
C
102
}
330
C
100
AcDbDictionary
281
     1
  3
Layout1
350
1E
  3
Layout2
350
26
  3
Model
350
22
  0
DICTIONARY
  5
17
102
{ACAD_REACTORS
330
C
102
}
330
C
100
AcDbDictionary
281
     1
  3
Standard
350
18
  0
DICTIONARY
  5
19
102
{ACAD_REACTORS
330
C
102
}
330
C
100
AcDbDictionary
281
     1
  0
ACDBDICTIONARYWDFLT
  5
E
102
{ACAD_REACTORS
330
C
102
}
330
C
100
AcDbDictionary
281
     1
  3
Normal
350
F
100
AcDbDictionaryWithDefault
340
F
  0
LAYOUT
  5
1E
102
{ACAD_REACTORS
330
1A
102
}
330
1A
100
AcDbPlotSettings
  1

  2
none_device
  4

  6

 40
0.0
 41
0.0
 42
0.0
 43
0.0
 44
0.0
 45
0.0
 46
0.0
 47
0.0
 48
0.0
 49
0.0
140
0.0
141
0.0
142
1.0
143
1.0
 70
   688
 72
     0
 73
     0
 74
     5
  7

 75
    16
147
1.0
148
0.0
149
0.0
100
AcDbLayout
  1
Layout1
 70
     1
 71
     1
 10
0.0
 20
0.0
 11
420.0
 21
297.0
 12
0.0
 22
0.0
 32
0.0
 14
1.0000000000E+20
 24
1.0000000000E+20
 34
1.0000000000E+20
 15
-1.0000000000E+20
 25
-1.0000000000E+20
 35
-1.0000000000E+20
146
0.0
 13
0.0
 23
0.0
 33
0.0
 16
1.0
 26
0.0
 36
0.0
 17
0.0
 27
1.0
 37
0.0
 76
     0
330
1B
  0
LAYOUT
  5
26
102
{ACAD_REACTORS
330
1A
102
}
330
1A
100
AcDbPlotSettings
  1

  2
none_device
  4

  6

 40
0.0
 41
0.0
 42
0.0
 43
0.0
 44
0.0
 45
0.0
 46
0.0
 47
0.0
 48
0.0
 49
0.0
140
0.0
141
0.0
142
1.0
143
1.0
 70
   688
 72
     0
 73
     0
 74
     5
  7

 75
    16
147
1.0
148
0.0
149
0.0
100
AcDbLayout
  1
Layout2
 70
     1
 71
     2
 10
0.0
 20
0.0
 11
0.0
 21
0.0
 12
0.0
 22
0.0
 32
0.0
 14
0.0
 24
0.0
 34
0.0
 15
0.0
 25
0.0
 35
0.0
146
0.0
 13
0.0
 23
0.0
 33
0.0
 16
1.0
 26
0.0
 36
0.0
 17
0.0
 27
1.0
 37
0.0
 76
     0
330
23
  0
LAYOUT
  5
22
102
{ACAD_REACTORS
330
1A
102
}
330
1A
100
AcDbPlotSettings
  1

  2
none_device
  4

  6

 40
0.0
 41
0.0
 42
0.0
 43
0.0
 44
0.0
 45
0.0
 46
0.0
 47
0.0
 48
0.0
 49
0.0
140
0.0
141
0.0
142
1.0
143
1.0
 70
  1712
 72
     0
 73
     0
 74
     0
  7

 75
     0
147
1.0
148
0.0
149
0.0
100
AcDbLayout
  1
Model
 70
     1
 71
     0
 10
0.0
 20
0.0
 11
840.0
 21
594.0
 12
0.0
 22
0.0
 32
0.0
 14
0.0
 24
0.0
 34
0.0
 15
840.0
 25
594.0
 35
0.0
146
0.0
 13
0.0
 23
0.0
 33
0.0
 16
1.0
 26
0.0
 36
0.0
 17
0.0
 27
1.0
 37
0.0
 76
     0
330
1F
331
29
  0
MLINESTYLE
  5
18
102
{ACAD_REACTORS
330
17
102
}
330
17
100
AcDbMlineStyle
  2
Standard
 70
     0
  3

 62
   256
 51
90.0
 52
90.0
 71
     2
 49
0.5
 62
   256
  6
BYLAYER
 49
-0.5
 62
   256
  6
BYLAYER
  0
ACDBPLACEHOLDER
  5
F
102
{ACAD_REACTORS
330
E
102
}
330
E
  0
ENDSEC
  0
EOF
