  0
SECTION
  2
HEADER
  9
$ACADVER
  1
AC1015
  9
$ACADMAINTVER
 70
     6
  9
$DWGCODEPAGE
  3
DOS932
  9
$INSBASE
 10
0.0
 20
0.0
 30
0.0
  9
$EXTMIN
 10
0.0
 20
0.0
 30
0.0
  9
$EXTMAX
 10
840.0
 20
594.0
 30
0.0
  9
$LIMMIN
 10
0.0
 20
0.0
  9
$LIMMAX
 10
840.0
 20
594.0
  9
$ORTHOMODE
 70
     0
  9
$REGENMODE
 70
     1
  9
$FILLMODE
 70
     1
  9
$QTEXTMODE
 70
     0
  9
$MIRRTEXT
 70
     1
  9
$LTSCALE
 40
2.0
  9
$ATTMODE
 70
     1
  9
$TEXTSIZE
 40
7.0
  9
$TRACEWID
 40
1.0
  9
$TEXTSTYLE
  7
Standard
  9
$CLAYER
  8
0
  9
$CELTYPE
  6
ByLayer
  9
$CECOLOR
 62
   256
  9
$CELTSCALE
 40
1.0
  9
$DISPSILH
 70
     0
  9
$DIMSCALE
 40
1.0
  9
$DIMASZ
 40
6.0
  9
$DIMEXO
 40
2.0
  9
$DIMDLI
 40
3.75
  9
$DIMRND
 40
0.0
  9
$DIMDLE
 40
0.0
  9
$DIMEXE
 40
2.0
  9
$DIMTP
 40
0.0
  9
$DIMTM
 40
0.0
  9
$DIMTXT
 40
7.0
  9
$DIMCEN
 40
2.5
  9
$DIMTSZ
 40
0.0
  9
$DIMTOL
 70
     0
  9
$DIMLIM
 70
     0
  9
$DIMTIH
 70
     1
  9
$DIMTOH
 70
     1
  9
$DIMSE1
 70
     0
  9
$DIMSE2
 70
     0
  9
$DIMTAD
 70
     1
  9
$DIMZIN
 70
     0
  9
$DIMBLK
  1

  9
$DIMASO
 70
     1
  9
$DIMSHO
 70
     1
  9
$DIMPOST
  1

  9
$DIMAPOST
  1

  9
$DIMALT
 70
     0
  9
$DIMALTD
 70
     3
  9
$DIMALTF
 40
0.0393700787
  9
$DIMLFAC
 40
1.0
  9
$DIMTOFL
 70
     1
  9
$DIMTVP
 40
0.0
  9
$DIMTIX
 70
     0
  9
$DIMSOXD
 70
     0
  9
$DIMSAH
 70
     0
  9
$DIMBLK1
  1

  9
$DIMBLK2
  1

  9
$DIMSTYLE
  2
ISO-25
  9
$DIMCLRD
 70
     0
  9
$DIMCLRE
 70
     0
  9
$DIMCLRT
 70
     0
  9
$DIMTFAC
 40
1.0
  9
$DIMGAP
 40
3.048
  9
$DIMJUST
 70
     0
  9
$DIMSD1
 70
     0
  9
$DIMSD2
 70
     0
  9
$DIMTOLJ
 70
     0
  9
$DIMTZIN
 70
     0
  9
$DIMALTZ
 70
     0
  9
$DIMALTTZ
 70
     0
  9
$DIMUPT
 70
     0
  9
$DIMDEC
 70
     1
  9
$DIMTDEC
 70
     1
  9
$DIMALTU
 70
     2
  9
$DIMALTTD
 70
     3
  9
$DIMTXSTY
  7
Standard
  9
$DIMAUNIT
 70
     0
  9
$DIMADEC
 70
     2
  9
$DIMALTRND
 40
0.0
  9
$DIMAZIN
 70
     0
  9
$DIMDSEP
 70
    44
  9
$DIMATFIT
 70
     3
  9
$DIMFRAC
 70
     0
  9
$DIMLDRBLK
  1

  9
$DIMLUNIT
 70
     2
  9
$DIMLWD
 70
    -2
  9
$DIMLWE
 70
    -2
  9
$DIMTMOVE
 70
     0
  9
$LUNITS
 70
     2
  9
$LUPREC
 70
     1
  9
$SKETCHINC
 40
1.0
  9
$FILLETRAD
 40
10.0
  9
$AUNITS
 70
     0
  9
$AUPREC
 70
     2
  9
$MENU
  1
.
  9
$ELEVATION
 40
0.0
  9
$PELEVATION
 40
0.0
  9
$THICKNESS
 40
0.0
  9
$LIMCHECK
 70
     0
  9
$CHAMFERA
 40
10.0
  9
$CHAMFERB
 40
10.0
  9
$CHAMFERC
 40
20.0
  9
$CHAMFERD
 40
0.0
  9
$SKPOLY
 70
     0
  9
$TDCREATE
 40
2460452.717498738
  9
$TDUCREATE
 40
2460452.342498738
  9
$TDUPDATE
 40
2460452.71749875
  9
$TDUUPDATE
 40
2460452.34249875
  9
$TDINDWG
 40
0.0000000116
  9
$TDUSRTIMER
 40
0.0000000116
  9
$USRTIMER
 70
     1
  9
$ANGBASE
 50
0.0
  9
$ANGDIR
 70
     0
  9
$PDMODE
 70
     0
  9
$PDSIZE
 40
-1.0
  9
$PLINEWID
 40
0.0
  9
$SPLFRAME
 70
     0
  9
$SPLINETYPE
 70
     6
  9
$SPLINESEGS
 70
     8
  9
$HANDSEED
  5
363
  9
$SURFTAB1
 70
     6
  9
$SURFTAB2
 70
     6
  9
$SURFTYPE
 70
     6
  9
$SURFU
 70
     6
  9
$SURFV
 70
     6
  9
$UCSBASE
  2

  9
$UCSNAME
  2

  9
$UCSORG
 10
0.0
 20
0.0
 30
0.0
  9
$UCSXDIR
 10
1.0
 20
0.0
 30
0.0
  9
$UCSYDIR
 10
0.0
 20
1.0
 30
0.0
  9
$UCSORTHOREF
  2

  9
$UCSORTHOVIEW
 70
     0
  9
$UCSORGTOP
 10
0.0
 20
0.0
 30
0.0
  9
$UCSORGBOTTOM
 10
0.0
 20
0.0
 30
0.0
  9
$UCSORGLEFT
 10
0.0
 20
0.0
 30
0.0
  9
$UCSORGRIGHT
 10
0.0
 20
0.0
 30
0.0
  9
$UCSORGFRONT
 10
0.0
 20
0.0
 30
0.0
  9
$UCSORGBACK
 10
0.0
 20
0.0
 30
0.0
  9
$PUCSBASE
  2

  9
$PUCSNAME
  2

  9
$PUCSORG
 10
0.0
 20
0.0
 30
0.0
  9
$PUCSXDIR
 10
1.0
 20
0.0
 30
0.0
  9
$PUCSYDIR
 10
0.0
 20
1.0
 30
0.0
  9
$PUCSORTHOREF
  2

  9
$PUCSORTHOVIEW
 70
     0
  9
$PUCSORGTOP
 10
0.0
 20
0.0
 30
0.0
  9
$PUCSORGBOTTOM
 10
0.0
 20
0.0
 30
0.0
  9
$PUCSORGLEFT
 10
0.0
 20
0.0
 30
0.0
  9
$PUCSORGRIGHT
 10
0.0
 20
0.0
 30
0.0
  9
$PUCSORGFRONT
 10
0.0
 20
0.0
 30
0.0
  9
$PUCSORGBACK
 10
0.0
 20
0.0
 30
0.0
  9
$USERI1
 70
     0
  9
$USERI2
 70
     0
  9
$USERI3
 70
     0
  9
$USERI4
 70
     0
  9
$USERI5
 70
     0
  9
$USERR1
 40
0.0
  9
$USERR2
 40
0.0
  9
$USERR3
 40
0.0
  9
$USERR4
 40
0.0
  9
$USERR5
 40
0.0
  9
$WORLDVIEW
 70
     1
  9
$SHADEDGE
 70
     3
  9
$SHADEDIF
 70
    70
  9
$TILEMODE
 70
     1
  9
$MAXACTVP
 70
    64
  9
$PINSBASE
 10
0.0
 20
0.0
 30
0.0
  9
$PLIMCHECK
 70
     0
  9
$PEXTMIN
 10
1.0000000000E+20
 20
1.0000000000E+20
 30
1.0000000000E+20
  9
$PEXTMAX
 10
-1.0000000000E+20
 20
-1.0000000000E+20
 30
-1.0000000000E+20
  9
$PLIMMIN
 10
0.0
 20
0.0
  9
$PLIMMAX
 10
420.0
 20
297.0
  9
$UNITMODE
 70
     0
  9
$VISRETAIN
 70
     1
  9
$PLINEGEN
 70
     0
  9
$PSLTSCALE
 70
     1
  9
$TREEDEPTH
 70
  3020
  9
$CMLSTYLE
  2
Standard
  9
$CMLJUST
 70
     0
  9
$CMLSCALE
 40
20.0
  9
$PROXYGRAPHICS
 70
     1
  9
$MEASUREMENT
 70
     1
  9
$CELWEIGHT
370
    -1
  9
$ENDCAPS
280
     0
  9
$JOINSTYLE
280
     0
  9
$LWDISPLAY
290
     1
  9
$INSUNITS
 70
     4
  9
$HYPERLINKBASE
  1

  9
$STYLESHEET
  1

  9
$XEDIT
290
     1
  9
$CEPSNTYPE
380
     0
  9
$PSTYLEMODE
290
     1
  9
$FINGERPRINTGUID
  2
{5809C48A-3200-44B6-ABCE-A436515096B7}
  9
$VERSIONGUID
  2
{FAEB1C32-E019-11D5-929B-00C0DF256EC4}
  9
$EXTNAMES
290
     1
  9
$PSVPSCALE
 40
0.0
  9
$OLESTARTUP
290
     0
  0
ENDSEC
  0
SECTION
  2
CLASSES
  0
CLASS
  1
ACDBDICTIONARYWDFLT
  2
AcDbDictionaryWithDefault
  3
ObjectDBX Classes
 90
        0
280
     0
281
     0
  0
CLASS
  1
VISUALSTYLE
  2
AcDbVisualStyle
  3
ObjectDBX Classes
 90
     4095
280
     0
281
     0
  0
CLASS
  1
MATERIAL
  2
AcDbMaterial
  3
ObjectDBX Classes
 90
     1153
280
     0
281
     0
  0
CLASS
  1
ACDBPLACEHOLDER
  2
AcDbPlaceHolder
  3
ObjectDBX Classes
 90
        0
280
     0
281
     0
  0
CLASS
  1
LAYOUT
  2
AcDbLayout
  3
ObjectDBX Classes
 90
        0
280
     0
281
     0
  0
ENDSEC
  0
SECTION
  2
TABLES
  0
TABLE
  2
VPORT
  5
8
330
0
100
AcDbSymbolTable
 70
     1
  0
VPORT
  5
29
330
8
100
AcDbSymbolTableRecord
100
AcDbViewportTableRecord
  2
*Active
 70
     0
 10
0.0
 20
0.0
 11
1.0
 21
1.0
 12
420.0
 22
297.0
 13
0.0
 23
0.0
 14
10.0
 24
10.0
 15
10.0
 25
10.0
 16
0.0
 26
0.0
 36
1.0
 17
0.0
 27
0.0
 37
0.0
 40
594.0
 41
1.4141414141
 42
50.0
 43
0.0
 44
0.0
 50
0.0
 51
0.0
 71
     0
 72
  2000
 73
     1
 74
     3
 75
     0
 76
     0
 77
     0
 78
     0
281
     0
 65
     1
110
0.0
120
0.0
130
0.0
111
1.0
121
0.0
131
0.0
112
0.0
122
1.0
132
0.0
 79
     0
146
0.0
  0
ENDTAB
  0
TABLE
  2
LTYPE
  5
5
330
0
100
AcDbSymbolTable
 70
     6
  0
LTYPE
  5
14
330
5
100
AcDbSymbolTableRecord
100
AcDbLinetypeTableRecord
  2
ByBlock
 70
     0
  3

 72
    65
 73
     0
 40
0.0
  0
LTYPE
  5
15
330
5
100
AcDbSymbolTableRecord
100
AcDbLinetypeTableRecord
  2
ByLayer
 70
     0
  3

 72
    65
 73
     0
 40
0.0
  0
LTYPE
  5
16
330
5
100
AcDbSymbolTableRecord
100
AcDbLinetypeTableRecord
  2
Continuous
 70
     0
  3
Solid line
 72
    65
 73
     0
 40
0.0
  0
LTYPE
  5
3F
330
5
100
AcDbSymbolTableRecord
100
AcDbLinetypeTableRecord
  2
HIDDEN
 70
     0
  3
Hidden __ __ __ __ __ __ __ __ __ __ __ __ __ __
 72
    65
 73
     2
 40
1.905
 49
1.27
 74
     0
 49
-0.635
 74
     0
  0
LTYPE
  5
40
330
5
100
AcDbSymbolTableRecord
100
AcDbLinetypeTableRecord
  2
PHANTOM
 70
     0
  3
Phantom ______  __  __  ______  __  __  ______
 72
    65
 73
     6
 40
12.7
 49
6.35
 74
     0
 49
-1.27
 74
     0
 49
1.27
 74
     0
 49
-1.27
 74
     0
 49
1.27
 74
     0
 49
-1.27
 74
     0
  0
LTYPE
  5
41
330
5
100
AcDbSymbolTableRecord
100
AcDbLinetypeTableRecord
  2
CENTER
 70
     0
  3
Center ____ _ ____ _ ____ _ ____ _ ____ _ ____
 72
    65
 73
     4
 40
10.16
 49
6.35
 74
     0
 49
-1.27
 74
     0
 49
1.27
 74
     0
 49
-1.27
 74
     0
  0
LTYPE
  5
42
330
5
100
AcDbSymbolTableRecord
100
AcDbLinetypeTableRecord
  2
CENTERX2
 70
     0
  3
Center (2x) ________  __  ________  __  _____
 72
    65
 73
     4
 40
20.32
 49
12.7
 74
     0
 49
-2.54
 74
     0
 49
2.54
 74
     0
 49
-2.54
 74
     0
  0
LTYPE
  5
43
330
5
100
AcDbSymbolTableRecord
100
AcDbLinetypeTableRecord
  2
DOT2
 70
     0
  3
Dot (.5x) ........................................
 72
    65
 73
     2
 40
0.635
 49
0.0
 74
     0
 49
-0.635
 74
     0
  0
ENDTAB
  0
TABLE
  2
LAYER
  5
2
330
0
100
AcDbSymbolTable
 70
     1
  0
LAYER
  5
10
330
2
100
AcDbSymbolTableRecord
100
AcDbLayerTableRecord
  2
0
 70
     0
 62
     7
  6
Continuous
370
    -3
390
F
  0
ENDTAB
  0
TABLE
  2
STYLE
  5
3
330
0
100
AcDbSymbolTable
 70
     2
  0
STYLE
  5
11
330
3
100
AcDbSymbolTableRecord
100
AcDbTextStyleTableRecord
  2
Standard
 70
     0
 40
0.0
 41
1.0
 50
0.0
 71
     0
 42
2.5
  3
txt
  4
bigfont
  0
STYLE
  5
44
330
3
100
AcDbSymbolTableRecord
100
AcDbTextStyleTableRecord
  2
SLDTEXTSTYLE0
 70
     0
 40
0.0
 41
0.7
 50
0.0
 71
     0
 42
0.2
  3
TXT
  4
bigfont
  0
ENDTAB
  0
TABLE
  2
VIEW
  5
6
330
0
100
AcDbSymbolTable
 70
     0
  0
ENDTAB
  0
TABLE
  2
UCS
  5
7
330
0
100
AcDbSymbolTable
 70
     0
  0
ENDTAB
  0
TABLE
  2
APPID
  5
9
330
0
100
AcDbSymbolTable
 70
     1
  0
APPID
  5
12
330
9
100
AcDbSymbolTableRecord
100
AcDbRegAppTableRecord
  2
ACAD
 70
     0
  0
ENDTAB
  0
TABLE
  2
DIMSTYLE
  5
A
330
0
100
AcDbSymbolTable
 70
     1
100
AcDbDimStyleTable
  0
DIMSTYLE
105
27
330
A
100
AcDbSymbolTableRecord
100
AcDbDimStyleTableRecord
  2
ISO-25
 70
     0
 41
2.5
 42
0.625
 43
3.75
 44
1.25
 73
     0
 74
     0
 77
     1
 78
     8
140
2.5
141
2.5
143
0.0393700787
147
0.625
171
     3
172
     1
178
     0
271
     2
272
     2
274
     3
278
    44
283
     0
284
     8
340
11
  0
ENDTAB
  0
TABLE
  2
BLOCK_RECORD
  5
1
330
0
100
AcDbSymbolTable
 70
     1
  0
BLOCK_RECORD
  5
1F
330
1
100
AcDbSymbolTableRecord
100
AcDbBlockTableRecord
  2
*Model_Space
340
22
  0
BLOCK_RECORD
  5
1B
330
1
100
AcDbSymbolTableRecord
100
AcDbBlockTableRecord
  2
*Paper_Space
340
1E
  0
BLOCK_RECORD
  5
23
330
1
100
AcDbSymbolTableRecord
100
AcDbBlockTableRecord
  2
*Paper_Space0
340
26
  0
ENDTAB
  0
ENDSEC
  0
SECTION
  2
BLOCKS
  0
BLOCK
  5
20
330
1F
100
AcDbEntity
  8
0
100
AcDbBlockBegin
  2
*Model_Space
 70
     0
 10
0.0
 20
0.0
 30
0.0
  3
*Model_Space
  1

  0
ENDBLK
  5
21
330
1F
100
AcDbEntity
  8
0
100
AcDbBlockEnd
  0
BLOCK
  5
1C
330
1B
100
AcDbEntity
 67
     1
  8
0
100
AcDbBlockBegin
  2
*Paper_Space
 70
     0
 10
0.0
 20
0.0
 30
0.0
  3
*Paper_Space
  1

  0
ENDBLK
  5
1D
330
1B
100
AcDbEntity
 67
     1
  8
0
100
AcDbBlockEnd
  0
BLOCK
  5
24
330
23
100
AcDbEntity
  8
0
100
AcDbBlockBegin
  2
*Paper_Space0
 70
     0
 10
0.0
 20
0.0
 30
0.0
  3
*Paper_Space0
  1

  0
ENDBLK
  5
25
330
23
100
AcDbEntity
  8
0
100
AcDbBlockEnd
  0
ENDSEC
  0
SECTION
  2
ENTITIES
  0
MTEXT
  5
45
330
1F
100
AcDbEntity
  8
0
  6
Continuous
 62
     7
370
     0
100
AcDbMText
 10
142.9050154215
 20
589.5175385943
 30
0.0
 40
7.0
 41
0.0
 71
     1
 72
     1
  1
CHB-516N
  7
SLDTEXTSTYLE0
 73
     1
 44
1.0
  0
LINE
  5
46
330
1F
100
AcDbEntity
  8
0
  6
Continuous
 62
     7
370
    15
100
AcDbLine
 10
329.2089176119
 20
24.6060391998
 30
0.0
 11
329.3089342059
 21
24.6060391998
 31
0.0
  0
LINE
  5
47
330
1F
100
AcDbEntity
  8
0
  6
Continuous
 62
     7
370
    15
100
AcDbLine
 10
329.3089342059
 20
30.606036458
 30
0.0
 11
329.2089176119
 21
30.606036458
 31
0.0
  0
LINE
  5
48
330
1F
100
AcDbEntity
  8
0
  6
Continuous
 62
     7
370
    15
100
AcDbLine
 10
329.2089176119
 20
34.6060445642
 30
0.0
 11
329.3089342059
 21
34.6060445642
 31
0.0
  0
LINE
  5
49
330
1F
100
AcDbEntity
  8
0
  6
Continuous
 62
     7
370
    15
100
AcDbLine
 10
329.3089342059
 20
40.6060418224
 30
0.0
 11
329.2089176119
 21
40.6060418224
 31
0.0
  0
LINE
  5
4A
330
1F
100
AcDbEntity
  8
0
  6
Continuous
 62
     7
370
    15
100
AcDbLine
 10
329.2089176119
 20
504.6060433721
 30
0.0
 11
329.3089342059
 21
504.6060433721
 31
0.0
  0
LINE
  5
4B
330
1F
100
AcDbEntity
  8
0
  6
Continuous
 62
     7
370
    15
100
AcDbLine
 10
329.3089342059
 20
510.6060406303
 30
0.0
 11
329.2089176119
 21
510.6060406303
 31
0.0
  0
LINE
  5
4C
330
1F
100
AcDbEntity
  8
0
  6
Continuous
 62
     7
370
    15
100
AcDbLine
 10
329.2089176119
 20
494.6060380077
 30
0.0
 11
329.3089342059
 21
494.6060380077
 31
0.0
  0
LINE
  5
4D
330
1F
100
AcDbEntity
  8
0
  6
Continuous
 62
     7
370
    15
100
AcDbLine
 10
329.3089342059
 20
500.6060352659
 30
0.0
 11
329.2089176119
 21
500.6060352659
 31
0.0
  0
LINE
  5
4E
330
1F
100
AcDbEntity
  8
0
  6
Continuous
 62
     7
370
    15
100
AcDbLine
 10
330.5089247168
 20
44.1060414648
 30
0.0
 11
329.3089342059
 21
44.1060414648
 31
0.0
  0
LINE
  5
4F
330
1F
100
AcDbEntity
  8
0
  6
Continuous
 62
     7
370
    15
100
AcDbLine
 10
330.5089247168
 20
514.1060402727
 30
0.0
 11
329.3089342059
 21
514.1060402727
 31
0.0
  0
LINE
  5
50
330
1F
100
AcDbEntity
  8
0
  6
Continuous
 62
     7
370
    15
100
AcDbLine
 10
329.3089342059
 20
21.1060395574
 30
0.0
 11
330.5089247168
 21
21.1060395574
 31
0.0
  0
LINE
  5
51
330
1F
100
AcDbEntity
  8
0
  6
Continuous
 62
     7
370
    15
100
AcDbLine
 10
329.3089342059
 20
491.1060383654
 30
0.0
 11
330.5089247168
 21
491.1060383654
 31
0.0
  0
LINE
  5
52
330
1F
100
AcDbEntity
  8
0
  6
Continuous
 62
     7
370
    15
100
AcDbLine
 10
842.0089256705
 20
23.6060371733
 30
0.0
 11
842.0089256705
 21
58.606033597
 31
0.0
  0
LINE
  5
53
330
1F
100
AcDbEntity
  8
0
  6
Continuous
 62
     7
370
    15
100
AcDbLine
 10
842.0089256705
 20
476.6060462332
 30
0.0
 11
842.0089256705
 21
511.6060426569
 31
0.0
  0
SPLINE
  5
54
330
1F
100
AcDbEntity
  8
0
  6
Continuous
 62
     7
370
    15
100
AcDbSpline
210
0.0
220
0.0
230
1.0
 70
     8
 71
     3
 72
    11
 73
     7
 74
     0
 42
0.00000001
 43
0.00000001
 40
0.0
 40
0.0
 40
0.0
 40
0.0
 40
0.2262216123131673
 40
0.4679437777915651
 40
0.725484838772645
 40
1.0
 40
1.0
 40
1.0
 40
1.0
 10
326.8294405878427
 20
510.8364721870313
 30
0.0
 10
326.8322613636718
 20
510.8135722686337
 30
0.0
 10
326.838096192998
 20
510.7662033447871
 30
0.0
 10
326.8548627377157
 20
510.4414259690365
 30
0.0
 10
326.8684579598811
 20
509.940927041558
 30
0.0
 10
326.8690043711878
 20
509.5171053401896
 30
0.0
 10
326.8692862928751
 20
509.2984339332472
 30
0.0
  0
SPLINE
  5
55
330
1F
100
AcDbEntity
  8
0
  6
Continuous
 62
     7
370
    15
100
AcDbSpline
210
0.0
220
0.0
230
1.0
 70
     8
 71
     3
 72
    12
 73
     8
 74
     0
 42
0.00000001
 43
0.00000001
 40
0.0
 40
0.0
 40
0.0
 40
0.0
 40
0.248946245326258
 40
0.4822936287519815
 40
0.699811415192867
 40
0.9035372363555159
 40
1.0
 40
1.0
 40
1.0
 40
1.0
 10
326.8692862928751
 20
495.7398077583205
 30
0.0
 10
326.8678604258175
 20
495.6024720804986
 30
0.0
 10
326.8650980359029
 20
495.3364061178366
 30
0.0
 10
326.8541971041025
 20
495.000602194621
 30
0.0
 10
326.8516867732096
 20
494.7674246170181
 30
0.0
 10
326.85647578936
 20
494.6473107785073
 30
0.0
 10
326.8829063918578
 20
494.645971386885
 30
0.0
 10
326.8913996160867
 20
494.6455409860503
 30
0.0
  0
LINE
  5
56
330
1F
100
AcDbEntity
  8
0
  6
Continuous
 62
     7
370
    15
100
AcDbLine
 10
326.8684518278
 20
509.3484422302
 30
0.0
 11
326.8684518278
 21
495.6897994614
 31
0.0
  0
LINE
  5
57
330
1F
100
AcDbEntity
  8
0
  6
Continuous
 62
     7
370
    15
100
AcDbLine
 10
325.3448080958
 20
513.2863273954
 30
0.0
 11
326.8321824015
 21
510.8061781263
 31
0.0
  0
LINE
  5
58
330
1F
100
AcDbEntity
  8
0
  6
Continuous
 62
     7
370
    15
100
AcDbLine
 10
329.3089342059
 20
512.5092914438
 30
0.0
 11
327.9176425875
 21
514.8292532301
 31
0.0
  0
LINE
  5
59
330
1F
100
AcDbEntity
  8
0
  6
Continuous
 62
     7
370
    15
100
AcDbLine
 10
326.8966746271
 20
494.5134570932
 30
0.0
 11
325.3275823534
 21
491.897036705
 31
0.0
  0
LINE
  5
5A
330
1F
100
AcDbEntity
  8
0
  6
Continuous
 62
     7
370
    15
100
AcDbLine
 10
327.9004168452
 20
490.3541108704
 30
0.0
 11
329.3089342059
 21
492.7027871942
 31
0.0
  0
LINE
  5
5B
330
1F
100
AcDbEntity
  8
0
  6
Continuous
 62
     7
370
    15
100
AcDbLine
 10
327.9375207365
 20
514.793743763
 30
0.0
 11
327.8475773276
 21
514.9075290298
 31
0.0
  0
SPLINE
  5
5C
330
1F
100
AcDbEntity
  8
0
  6
Continuous
 62
     7
370
    15
100
AcDbSpline
210
0.0
220
0.0
230
1.0
 70
     8
 71
     3
 72
    20
 73
    16
 74
     0
 42
0.00000001
 43
0.00000001
 40
0.0
 40
0.0
 40
0.0
 40
0.0
 40
0.0337781605824872
 40
0.1101040398301224
 40
0.1739271568936944
 40
0.225274542626254
 40
0.2665351699473715
 40
0.3037732333053658
 40
0.3388575743172716
 40
0.372638518111004
 40
0.4139169278269808
 40
0.6259821530963307
 40
0.8390273168422525
 40
0.9659458241574138
 40
1.0
 40
1.0
 40
1.0
 40
1.0
 10
327.7352523744943
 20
515.0495967006574
 30
0.0
 10
327.6946025370929
 20
515.1057803819106
 30
0.0
 10
327.562099427416
 20
515.2889179528091
 30
0.0
 10
327.2522212334083
 20
515.4660999895694
 30
0.0
 10
326.8649479532442
 20
515.5890441309796
 30
0.0
 10
326.4950939665447
 20
515.6038484867189
 30
0.0
 10
326.1607793063458
 20
515.5532544963091
 30
0.0
 10
325.8862973979842
 20
515.4522053193499
 30
0.0
 10
325.6587969463469
 20
515.3174852312243
 30
0.0
 10
325.4527617738142
 20
515.141306588769
 30
0.0
 10
325.1082015277588
 20
514.6988284799959
 30
0.0
 10
324.9271214826386
 20
514.0121411523968
 30
0.0
 10
324.7774030955652
 20
512.831305192202
 30
0.0
 10
324.7221957522074
 20
511.9266638267827
 30
0.0
 10
324.7156624892298
 20
511.5120750068385
 30
0.0
 10
324.7142803610208
 20
511.4243676996122
 30
0.0
  0
SPLINE
  5
5D
330
1F
100
AcDbEntity
  8
0
  6
Continuous
 62
     7
370
    15
100
AcDbSpline
210
0.0
220
0.0
230
1.0
 70
     8
 71
     3
 72
    19
 73
    15
 74
     0
 42
0.00000001
 43
0.00000001
 40
0.0
 40
0.0
 40
0.0
 40
0.0
 40
0.0102731838504031
 40
0.1295972962842691
 40
0.3268126185704388
 40
0.5525090740618257
 40
0.5858519640964671
 40
0.6185993928448157
 40
0.6529074950898438
 40
0.6960080361629214
 40
0.7523124467947462
 40
0.8223126333052648
 40
0.9054598519973782
 40
1.0
 40
1.0
 40
1.0
 40
1.0
 10
324.7114193380716
 20
493.8060393667113
 30
0.0
 10
324.7117425009304
 20
493.7788419613436
 30
0.0
 10
324.715819234431
 20
493.4357438280944
 30
0.0
 10
324.7556335630383
 20
492.6157491811444
 30
0.0
 10
324.8906058716076
 20
491.3933165147657
 30
0.0
 10
324.9810194986725
 20
490.7499582779909
 30
0.0
 10
325.3318830459144
 20
490.2098608358257
 30
0.0
 10
325.5011086011135
 20
490.0220154292714
 30
0.0
 10
325.7378318097208
 20
489.8455336567362
 30
0.0
 10
326.0514684798653
 20
489.6920743718784
 30
0.0
 10
326.454936445292
 20
489.5902579115144
 30
0.0
 10
326.9407961681993
 20
489.6134530569977
 30
0.0
 10
327.4705534468047
 20
489.8237671477211
 30
0.0
 10
327.7357843470779
 20
490.1455864397099
 30
0.0
 10
327.876902812803
 20
490.3168132638823
 30
0.0
  0
LINE
  5
5E
330
1F
100
AcDbEntity
  8
0
  6
Continuous
 62
     7
370
    15
100
AcDbLine
 10
321.4041066111
 20
506.5060457325
 30
0.0
 11
321.4041066111
 21
497.9060342646
 31
0.0
  0
LINE
  5
5F
330
1F
100
AcDbEntity
  8
0
  6
Continuous
 62
     7
370
    15
100
AcDbLine
 10
322.0089149416
 20
510.6057873106
 30
0.0
 11
322.0089149416
 21
509.8060419893
 31
0.0
  0
LINE
  5
60
330
1F
100
AcDbEntity
  8
0
  6
Continuous
 62
     7
370
    15
100
AcDbLine
 10
322.0089149416
 20
495.4060366487
 30
0.0
 11
322.0089149416
 21
494.6062913275
 31
0.0
  0
LINE
  5
61
330
1F
100
AcDbEntity
  8
0
  6
Continuous
 62
     7
370
    15
100
AcDbLine
 10
323.4089386404
 20
510.9060457086
 30
0.0
 11
323.4089386404
 21
510.6060406303
 31
0.0
  0
ARC
  5
62
330
1F
100
AcDbEntity
  8
0
  6
Continuous
 62
     7
370
    15
100
AcDbCircle
 10
325.6089247168
 20
507.798897058
 30
0.0
 40
3.807142857143106
100
AcDbArc
 50
77.9663271603
 51
90.0
  0
ARC
  5
63
330
1F
100
AcDbEntity
  8
0
  6
Continuous
 62
     7
370
    15
100
AcDbCircle
 10
325.6089247168
 20
507.798897058
 30
0.0
 40
3.807142857143229
100
AcDbArc
 50
90.0
 51
125.3002484399
  0
LINE
  5
64
330
1F
100
AcDbEntity
  8
0
  6
Continuous
 62
     7
370
    15
100
AcDbLine
 10
323.5089254321
 20
494.2060461378
 30
0.0
 11
323.5089254321
 21
493.8060393667
 31
0.0
  0
ARC
  5
65
330
1F
100
AcDbEntity
  8
0
  6
Continuous
 62
     7
370
    15
100
AcDbCircle
 10
323.7089247168
 20
494.6060399151
 30
0.0
 40
0.4000000000007731
100
AcDbArc
 50
270.0
 51
0.0
  0
LINE
  5
66
330
1F
100
AcDbEntity
  8
0
  6
Continuous
 62
     7
370
    15
100
AcDbLine
 10
324.1089355887
 20
509.8060419893
 30
0.0
 11
324.1089355887
 21
509.3560418224
 31
0.0
  0
LINE
  5
67
330
1F
100
AcDbEntity
  8
0
  6
Continuous
 62
     7
370
    15
100
AcDbLine
 10
324.1089355887
 20
495.8560368156
 30
0.0
 11
324.1089355887
 21
495.4060366487
 31
0.0
  0
LINE
  5
68
330
1F
100
AcDbEntity
  8
0
  6
Continuous
 62
     7
370
    15
100
AcDbLine
 10
321.4041066111
 20
36.5060469246
 30
0.0
 11
321.4041066111
 21
27.9060354566
 31
0.0
  0
LINE
  5
69
330
1F
100
AcDbEntity
  8
0
  6
Continuous
 62
     7
370
    15
100
AcDbLine
 10
322.0089149416
 20
25.4060378408
 30
0.0
 11
322.0089149416
 21
24.6062925196
 31
0.0
  0
LINE
  5
6A
330
1F
100
AcDbEntity
  8
0
  6
Continuous
 62
     7
370
    15
100
AcDbLine
 10
322.0089149416
 20
40.6057885027
 30
0.0
 11
322.0089149416
 21
39.8060431814
 31
0.0
  0
LINE
  5
6B
330
1F
100
AcDbEntity
  8
0
  6
Continuous
 62
     7
370
    15
100
AcDbLine
 10
323.4089386404
 20
40.9060469007
 30
0.0
 11
323.4089386404
 21
40.6060418224
 31
0.0
  0
ARC
  5
6C
330
1F
100
AcDbEntity
  8
0
  6
Continuous
 62
     7
370
    15
100
AcDbCircle
 10
325.6089247168
 20
37.798897058
 30
0.0
 40
3.80714285714317
100
AcDbArc
 50
77.9663271603
 51
90.0
  0
ARC
  5
6D
330
1F
100
AcDbEntity
  8
0
  6
Continuous
 62
     7
370
    15
100
AcDbCircle
 10
325.6089247168
 20
37.798897058
 30
0.0
 40
3.807142857143287
100
AcDbArc
 50
90.0
 51
125.3002484399
  0
LINE
  5
6E
330
1F
100
AcDbEntity
  8
0
  6
Continuous
 62
     7
370
    15
100
AcDbLine
 10
323.5089254321
 20
24.2060473299
 30
0.0
 11
323.5089254321
 21
23.8060405588
 31
0.0
  0
ARC
  5
6F
330
1F
100
AcDbEntity
  8
0
  6
Continuous
 62
     7
370
    15
100
AcDbCircle
 10
323.7089247168
 20
24.6060399151
 30
0.0
 40
0.4000000000007731
100
AcDbArc
 50
270.0
 51
0.0
  0
LINE
  5
70
330
1F
100
AcDbEntity
  8
0
  6
Continuous
 62
     7
370
    15
100
AcDbLine
 10
324.1089355887
 20
39.8060431814
 30
0.0
 11
324.1089355887
 21
39.3560430145
 31
0.0
  0
LINE
  5
71
330
1F
100
AcDbEntity
  8
0
  6
Continuous
 62
     7
370
    15
100
AcDbLine
 10
324.1089355887
 20
25.8560380077
 30
0.0
 11
324.1089355887
 21
25.4060378408
 31
0.0
  0
SPLINE
  5
72
330
1F
100
AcDbEntity
  8
0
  6
Continuous
 62
     7
370
    15
100
AcDbSpline
210
0.0
220
0.0
230
1.0
 70
     8
 71
     3
 72
    11
 73
     7
 74
     0
 42
0.00000001
 43
0.00000001
 40
0.0
 40
0.0
 40
0.0
 40
0.0
 40
0.2262216123131673
 40
0.4679437777915651
 40
0.725484838772645
 40
1.0
 40
1.0
 40
1.0
 40
1.0
 10
326.8294405878427
 20
40.83647337912427
 30
0.0
 10
326.8322613636718
 20
40.81357346072664
 30
0.0
 10
326.838096192998
 20
40.76620453688004
 30
0.0
 10
326.8548627377157
 20
40.44142716112928
 30
0.0
 10
326.8684579598811
 20
39.94092823365094
 30
0.0
 10
326.8690043711878
 20
39.51710653228258
 30
0.0
 10
326.8692862928751
 20
39.29843512534009
 30
0.0
  0
SPLINE
  5
73
330
1F
100
AcDbEntity
  8
0
  6
Continuous
 62
     7
370
    15
100
AcDbSpline
210
0.0
220
0.0
230
1.0
 70
     8
 71
     3
 72
    12
 73
     8
 74
     0
 42
0.00000001
 43
0.00000001
 40
0.0
 40
0.0
 40
0.0
 40
0.0
 40
0.248946245326258
 40
0.4822936287519815
 40
0.699811415192867
 40
0.9035372363555159
 40
1.0
 40
1.0
 40
1.0
 40
1.0
 10
326.8692862928751
 20
25.73980895041333
 30
0.0
 10
326.8678604258175
 20
25.60247327259152
 30
0.0
 10
326.8650980359029
 20
25.33640730992962
 30
0.0
 10
326.8541971041025
 20
25.00060338671361
 30
0.0
 10
326.8516867732096
 20
24.76742580911098
 30
0.0
 10
326.85647578936
 20
24.64731197060047
 30
0.0
 10
326.8829063918578
 20
24.64597257897788
 30
0.0
 10
326.8913996160867
 20
24.64554217814313
 30
0.0
  0
LINE
  5
74
330
1F
100
AcDbEntity
  8
0
  6
Continuous
 62
     7
370
    15
100
AcDbLine
 10
326.8684518278
 20
39.3484285211
 30
0.0
 11
326.8684518278
 21
25.6898006534
 31
0.0
  0
LINE
  5
75
330
1F
100
AcDbEntity
  8
0
  6
Continuous
 62
     7
370
    15
100
AcDbLine
 10
325.3448080958
 20
43.2863285875
 30
0.0
 11
326.8321824015
 21
40.8061793184
 31
0.0
  0
LINE
  5
76
330
1F
100
AcDbEntity
  8
0
  6
Continuous
 62
     7
370
    15
100
AcDbLine
 10
329.3089342059
 20
42.5092926359
 30
0.0
 11
327.9176425875
 21
44.8292544222
 31
0.0
  0
LINE
  5
77
330
1F
100
AcDbEntity
  8
0
  6
Continuous
 62
     7
370
    15
100
AcDbLine
 10
326.8966746271
 20
24.5134582853
 30
0.0
 11
325.3275823534
 21
21.8970378971
 31
0.0
  0
LINE
  5
78
330
1F
100
AcDbEntity
  8
0
  6
Continuous
 62
     7
370
    15
100
AcDbLine
 10
327.9004168452
 20
20.3541120624
 30
0.0
 11
329.3089342059
 21
22.7027883863
 31
0.0
  0
LINE
  5
79
330
1F
100
AcDbEntity
  8
0
  6
Continuous
 62
     7
370
    15
100
AcDbLine
 10
327.9375207365
 20
44.7937449551
 30
0.0
 11
327.8475773276
 21
44.9075302219
 31
0.0
  0
SPLINE
  5
7A
330
1F
100
AcDbEntity
  8
0
  6
Continuous
 62
     7
370
    15
100
AcDbSpline
210
0.0
220
0.0
230
1.0
 70
     8
 71
     3
 72
    20
 73
    16
 74
     0
 42
0.00000001
 43
0.00000001
 40
0.0
 40
0.0
 40
0.0
 40
0.0
 40
0.0337781605824872
 40
0.1101040398301224
 40
0.1739271568936944
 40
0.225274542626254
 40
0.2665351699473715
 40
0.3037732333053658
 40
0.3388575743172716
 40
0.372638518111004
 40
0.4139169278269808
 40
0.6259821530963307
 40
0.8390273168422525
 40
0.9659458241574138
 40
1.0
 40
1.0
 40
1.0
 40
1.0
 10
327.7352523744943
 20
45.04959789275037
 30
0.0
 10
327.6946025370929
 20
45.10578157400347
 30
0.0
 10
327.562099427416
 20
45.2889191449019
 30
0.0
 10
327.2522212334083
 20
45.46610118166236
 30
0.0
 10
326.8649479532442
 20
45.58904532307243
 30
0.0
 10
326.4950939665447
 20
45.60384967881184
 30
0.0
 10
326.1607793063458
 20
45.55325568840202
 30
0.0
 10
325.8862973979842
 20
45.45220651144285
 30
0.0
 10
325.6587969463469
 20
45.31748642331726
 30
0.0
 10
325.4527617738142
 20
45.14130778086184
 30
0.0
 10
325.1082015277588
 20
44.69882967208891
 30
0.0
 10
324.9271214826386
 20
44.01214234448953
 30
0.0
 10
324.7774030955652
 20
42.83130638429505
 30
0.0
 10
324.7221957522074
 20
41.92666501887551
 30
0.0
 10
324.7156624892298
 20
41.51207619893144
 30
0.0
 10
324.7142803610208
 20
41.42436889170514
 30
0.0
  0
SPLINE
  5
7B
330
1F
100
AcDbEntity
  8
0
  6
Continuous
 62
     7
370
    15
100
AcDbSpline
210
0.0
220
0.0
230
1.0
 70
     8
 71
     3
 72
    19
 73
    15
 74
     0
 42
0.00000001
 43
0.00000001
 40
0.0
 40
0.0
 40
0.0
 40
0.0
 40
0.0102731782214673
 40
0.1295972252746515
 40
0.3268124395015868
 40
0.5525087713282103
 40
0.5858516430934438
 40
0.6185990538986528
 40
0.6529071373454088
 40
0.6960076548026162
 40
0.7523120345838386
 40
0.8223121827394947
 40
0.9054587439764228
 40
1.0
 40
1.0
 40
1.0
 40
1.0
 10
324.7114193380716
 20
23.80604055880414
 30
0.0
 10
324.7117425009305
 20
23.77884315343628
 30
0.0
 10
324.7158192344319
 20
23.43574502018486
 30
0.0
 10
324.7556335629764
 20
22.61575037343555
 30
0.0
 10
324.8906058720088
 20
21.39331770557645
 30
0.0
 10
324.9810194975935
 20
20.74995947353126
 30
0.0
 10
325.3318830464156
 20
20.20986202631658
 30
0.0
 10
325.5011085991475
 20
20.02201662764805
 30
0.0
 10
325.7378318183244
 20
19.84553482132673
 30
0.0
 10
326.0514684330604
 20
19.69207571358986
 30
0.0
 10
326.4549367029775
 20
19.59025827987948
 30
0.0
 10
326.9407934380372
 20
19.61345837135956
 30
0.0
 10
327.4705595976764
 20
19.82374812547158
 30
0.0
 10
327.7357856372151
 20
20.14557958518637
 30
0.0
 10
327.876902812803
 20
20.31681445597513
 30
0.0
  0
LINE
  5
7C
330
1F
100
AcDbEntity
  8
0
  6
Continuous
 62
     7
370
    15
100
AcDbLine
 10
842.0089256705
 20
-12.393961277
 30
0.0
 11
842.0089256705
 21
22.6060351467
 31
0.0
  0
LINE
  5
7D
330
1F
100
AcDbEntity
  8
0
  6
Continuous
 62
     7
370
    15
100
AcDbLine
 10
842.0089256705
 20
512.6060446834
 30
0.0
 11
842.0089256705
 21
547.6060411072
 31
0.0
  0
LINE
  5
7E
330
1F
100
AcDbEntity
  8
0
  6
Continuous
 62
     7
370
    15
100
AcDbLine
 10
839.008934492
 20
22.6060351467
 30
0.0
 11
839.008934492
 21
23.6060371733
 31
0.0
  0
LINE
  5
7F
330
1F
100
AcDbEntity
  8
0
  6
Continuous
 62
     7
370
    15
100
AcDbLine
 10
839.008934492
 20
58.606033597
 30
0.0
 11
839.008934492
 21
59.6060356235
 31
0.0
  0
LINE
  5
80
330
1F
100
AcDbEntity
  8
0
  6
Continuous
 62
     7
370
    15
100
AcDbLine
 10
834.0089392603
 20
59.6060356235
 30
0.0
 11
834.0089392603
 21
58.606033597
 31
0.0
  0
LINE
  5
81
330
1F
100
AcDbEntity
  8
0
  6
Continuous
 62
     7
370
    15
100
AcDbLine
 10
834.0089392603
 20
23.6060371733
 30
0.0
 11
834.0089392603
 21
22.6060351467
 31
0.0
  0
LINE
  5
82
330
1F
100
AcDbEntity
  8
0
  6
Continuous
 62
     7
370
    15
100
AcDbLine
 10
834.0089392603
 20
512.6060446834
 30
0.0
 11
834.0089392603
 21
511.6060426569
 31
0.0
  0
LINE
  5
83
330
1F
100
AcDbEntity
  8
0
  6
Continuous
 62
     7
370
    15
100
AcDbLine
 10
834.0089392603
 20
476.6060462332
 30
0.0
 11
834.0089392603
 21
475.6060442066
 31
0.0
  0
LINE
  5
84
330
1F
100
AcDbEntity
  8
0
  6
Continuous
 62
     7
370
    15
100
AcDbLine
 10
839.008934492
 20
475.6060442066
 30
0.0
 11
839.008934492
 21
476.6060462332
 31
0.0
  0
LINE
  5
85
330
1F
100
AcDbEntity
  8
0
  6
Continuous
 62
     7
370
    15
100
AcDbLine
 10
839.008934492
 20
511.6060426569
 30
0.0
 11
839.008934492
 21
512.6060446834
 31
0.0
  0
LINE
  5
86
330
1F
100
AcDbEntity
  8
0
  6
Continuous
 62
     7
370
    15
100
AcDbLine
 10
322.2089183272
 20
39.3560430145
 30
0.0
 11
322.2089183272
 21
39.0632351971
 31
0.0
  0
LINE
  5
87
330
1F
100
AcDbEntity
  8
0
  6
Continuous
 62
     7
370
    15
100
AcDbLine
 10
322.2089183272
 20
26.1488458252
 30
0.0
 11
322.2089183272
 21
25.8560380077
 31
0.0
  0
LINE
  5
88
330
1F
100
AcDbEntity
  8
0
  6
Continuous
 62
     7
370
    15
100
AcDbLine
 10
322.2089183272
 20
496.1488446331
 30
0.0
 11
322.2089183272
 21
495.8560368156
 31
0.0
  0
LINE
  5
89
330
1F
100
AcDbEntity
  8
0
  6
Continuous
 62
     7
370
    15
100
AcDbLine
 10
322.2089183272
 20
509.3560418224
 30
0.0
 11
322.2089183272
 21
509.063234005
 31
0.0
  0
LINE
  5
8A
330
1F
100
AcDbEntity
  8
0
  6
Continuous
 62
     7
370
    15
100
AcDbLine
 10
345.5089253128
 20
-32.3939720059
 30
0.0
 11
345.5089253128
 21
-17.3939565086
 31
0.0
  0
LINE
  5
8B
330
1F
100
AcDbEntity
  8
0
  6
Continuous
 62
     7
370
    15
100
AcDbLine
 10
345.5089253128
 20
-17.3939565086
 30
0.0
 11
815.5089241207
 21
-17.3939565086
 31
0.0
  0
LINE
  5
8C
330
1F
100
AcDbEntity
  8
0
  6
Continuous
 62
     7
370
    15
100
AcDbLine
 10
815.5089241207
 20
-17.3939565086
 30
0.0
 11
815.5089241207
 21
-32.3939720059
 31
0.0
  0
LINE
  5
8D
330
1F
100
AcDbEntity
  8
0
  6
Continuous
 62
     7
370
    15
100
AcDbLine
 10
345.5089253128
 20
-32.3939720059
 30
0.0
 11
815.5089241207
 21
-32.3939720059
 31
0.0
  0
LINE
  5
8E
330
1F
100
AcDbEntity
  8
0
  6
Continuous
 62
     7
370
    15
100
AcDbLine
 10
815.5089241207
 20
-17.3939565086
 30
0.0
 11
830.5089247168
 21
-17.3939565086
 31
0.0
  0
ARC
  5
8F
330
1F
100
AcDbEntity
  8
0
  6
Continuous
 62
     7
370
    15
100
AcDbCircle
 10
815.5089247168
 20
-17.3939600849
 30
0.0
 40
15.00000000000011
100
AcDbArc
 50
270.0
 51
0.0
  0
LINE
  5
90
330
1F
100
AcDbEntity
  8
0
  6
Continuous
 62
     7
370
    15
100
AcDbLine
 10
815.5089241207
 20
-17.3939565086
 30
0.0
 11
815.5089241207
 21
552.6060363388
 31
0.0
  0
LINE
  5
91
330
1F
100
AcDbEntity
  8
0
  6
Continuous
 62
     7
370
    15
100
AcDbLine
 10
830.5089247168
 20
552.6060363388
 30
0.0
 11
815.5089241207
 21
552.6060363388
 31
0.0
  0
LINE
  5
92
330
1F
100
AcDbEntity
  8
0
  6
Continuous
 62
     7
370
    15
100
AcDbLine
 10
830.5089247168
 20
-17.3939565086
 30
0.0
 11
830.5089247168
 21
552.6060363388
 31
0.0
  0
LINE
  5
93
330
1F
100
AcDbEntity
  8
0
  6
Continuous
 62
     7
370
    15
100
AcDbLine
 10
350.5089205445
 20
547.6060411072
 30
0.0
 11
810.5089288891
 21
547.6060411072
 31
0.0
  0
LINE
  5
94
330
1F
100
AcDbEntity
  8
0
  6
Continuous
 62
     7
370
    15
100
AcDbLine
 10
350.5089205445
 20
-12.393961277
 30
0.0
 11
350.5089205445
 21
547.6060411072
 31
0.0
  0
LINE
  5
95
330
1F
100
AcDbEntity
  8
0
  6
Continuous
 62
     7
370
    15
100
AcDbLine
 10
810.5089288891
 20
-12.393961277
 30
0.0
 11
350.5089205445
 21
-12.393961277
 31
0.0
  0
LINE
  5
96
330
1F
100
AcDbEntity
  8
0
  6
Continuous
 62
     7
370
    15
100
AcDbLine
 10
345.5089253128
 20
552.6060363388
 30
0.0
 11
345.5089253128
 21
-17.3939565086
 31
0.0
  0
LINE
  5
97
330
1F
100
AcDbEntity
  8
0
  6
Continuous
 62
     7
370
    15
100
AcDbLine
 10
345.5089253128
 20
552.6060363388
 30
0.0
 11
815.5089241207
 21
552.6060363388
 31
0.0
  0
LINE
  5
98
330
1F
100
AcDbEntity
  8
0
  6
Continuous
 62
     7
370
    15
100
AcDbLine
 10
810.5089288891
 20
-12.393961277
 30
0.0
 11
810.5089288891
 21
547.6060411072
 31
0.0
  0
ARC
  5
99
330
1F
100
AcDbEntity
  8
0
  6
Continuous
 62
     7
370
    15
100
AcDbCircle
 10
345.5089247168
 20
-17.3939600849
 30
0.0
 40
15.00000000000006
100
AcDbArc
 50
180.0
 51
270.0
  0
LINE
  5
9A
330
1F
100
AcDbEntity
  8
0
  6
Continuous
 62
     7
370
    15
100
AcDbLine
 10
330.5089247168
 20
-17.3939565086
 30
0.0
 11
345.5089253128
 21
-17.3939565086
 31
0.0
  0
LINE
  5
9B
330
1F
100
AcDbEntity
  8
0
  6
Continuous
 62
     7
370
    15
100
AcDbLine
 10
330.5089247168
 20
22.6185521221
 30
0.0
 11
330.5089247168
 21
-17.3939565086
 31
0.0
  0
LINE
  5
9C
330
1F
100
AcDbEntity
  8
0
  6
Continuous
 62
     7
370
    15
100
AcDbLine
 10
330.5089247168
 20
42.5935289001
 30
0.0
 11
330.5089247168
 21
492.61855093
 31
0.0
  0
LINE
  5
9D
330
1F
100
AcDbEntity
  8
0
  6
Continuous
 62
     7
370
    15
100
AcDbLine
 10
330.5089247168
 20
512.593527708
 30
0.0
 11
330.5089247168
 21
552.6060363388
 31
0.0
  0
LINE
  5
9E
330
1F
100
AcDbEntity
  8
0
  6
Continuous
 62
     7
370
    15
100
AcDbLine
 10
330.5089247168
 20
552.6060363388
 30
0.0
 11
345.5089253128
 21
552.6060363388
 31
0.0
  0
ARC
  5
9F
330
1F
100
AcDbEntity
  8
0
  6
Continuous
 62
     7
370
    15
100
AcDbCircle
 10
815.5089247168
 20
552.6060399151
 30
0.0
 40
15.00000000000011
100
AcDbArc
 50
0.0
 51
90.0
  0
LINE
  5
A0
330
1F
100
AcDbEntity
  8
0
  6
Continuous
 62
     7
370
    15
100
AcDbLine
 10
815.5089241207
 20
567.606051836
 30
0.0
 11
815.5089241207
 21
552.6060363388
 31
0.0
  0
LINE
  5
A1
330
1F
100
AcDbEntity
  8
0
  6
Continuous
 62
     7
370
    15
100
AcDbLine
 10
345.5089253128
 20
552.6060363388
 30
0.0
 11
345.5089253128
 21
567.606051836
 31
0.0
  0
LINE
  5
A2
330
1F
100
AcDbEntity
  8
0
  6
Continuous
 62
     7
370
    15
100
AcDbLine
 10
345.5089253128
 20
567.606051836
 30
0.0
 11
815.5089241207
 21
567.606051836
 31
0.0
  0
ARC
  5
A3
330
1F
100
AcDbEntity
  8
0
  6
Continuous
 62
     7
370
    15
100
AcDbCircle
 10
345.5089247168
 20
552.6060399151
 30
0.0
 40
15.00000000000023
100
AcDbArc
 50
90.0
 51
180.0
  0
LINE
  5
A4
330
1F
100
AcDbEntity
  8
0
  6
Continuous
 62
     7
370
    15
100
AcDbLine
 10
329.3089342059
 20
43.6405291891
 30
0.0
 11
330.5089247168
 21
43.6405291891
 31
0.0
  0
LINE
  5
A5
330
1F
100
AcDbEntity
  8
0
  6
Continuous
 62
     7
370
    15
100
AcDbLine
 10
329.3089342059
 20
21.5715518331
 30
0.0
 11
330.5089247168
 21
21.5715518331
 31
0.0
  0
LINE
  5
A6
330
1F
100
AcDbEntity
  8
0
  6
Continuous
 62
     7
370
    15
100
AcDbLine
 10
329.3089342059
 20
21.5715518331
 30
0.0
 11
329.3089342059
 21
43.6405291891
 31
0.0
  0
LINE
  5
A7
330
1F
100
AcDbEntity
  8
0
  6
Continuous
 62
     7
370
    15
100
AcDbLine
 10
330.5089247168
 20
42.5935289001
 30
0.0
 11
330.5089247168
 21
22.6185521221
 31
0.0
  0
LINE
  5
A8
330
1F
100
AcDbEntity
  8
0
  6
Continuous
 62
     7
370
    15
100
AcDbLine
 10
329.3089342059
 20
513.640527997
 30
0.0
 11
330.5089247168
 21
513.640527997
 31
0.0
  0
LINE
  5
A9
330
1F
100
AcDbEntity
  8
0
  6
Continuous
 62
     7
370
    15
100
AcDbLine
 10
330.5089247168
 20
512.593527708
 30
0.0
 11
330.5089247168
 21
492.61855093
 31
0.0
  0
LINE
  5
AA
330
1F
100
AcDbEntity
  8
0
  6
Continuous
 62
     7
370
    15
100
AcDbLine
 10
329.3089342059
 20
491.571550641
 30
0.0
 11
330.5089247168
 21
491.571550641
 31
0.0
  0
LINE
  5
AB
330
1F
100
AcDbEntity
  8
0
  6
Continuous
 62
     7
370
    15
100
AcDbLine
 10
329.3089342059
 20
491.571550641
 30
0.0
 11
329.3089342059
 21
513.640527997
 31
0.0
  0
LINE
  5
AC
330
1F
100
AcDbEntity
  8
0
  6
Continuous
 62
     7
370
    15
100
AcDbLine
 10
329.2089176119
 20
24.6060391998
 30
0.0
 11
329.2089176119
 21
30.606036458
 31
0.0
  0
LINE
  5
AD
330
1F
100
AcDbEntity
  8
0
  6
Continuous
 62
     7
370
    15
100
AcDbLine
 10
329.2089176119
 20
37.6060357427
 30
0.0
 11
329.2089176119
 21
40.6060418224
 31
0.0
  0
LINE
  5
AE
330
1F
100
AcDbEntity
  8
0
  6
Continuous
 62
     7
370
    15
100
AcDbLine
 10
329.2089176119
 20
34.6060445642
 30
0.0
 11
329.2089176119
 21
37.6060357427
 31
0.0
  0
LINE
  5
AF
330
1F
100
AcDbEntity
  8
0
  6
Continuous
 62
     7
370
    15
100
AcDbLine
 10
329.2089176119
 20
507.6060345507
 30
0.0
 11
329.2089176119
 21
510.6060406303
 31
0.0
  0
LINE
  5
B0
330
1F
100
AcDbEntity
  8
0
  6
Continuous
 62
     7
370
    15
100
AcDbLine
 10
329.2089176119
 20
504.6060433721
 30
0.0
 11
329.2089176119
 21
507.6060345507
 31
0.0
  0
LINE
  5
B1
330
1F
100
AcDbEntity
  8
0
  6
Continuous
 62
     7
370
    15
100
AcDbLine
 10
329.2089176119
 20
494.6060380077
 30
0.0
 11
329.2089176119
 21
500.6060352659
 31
0.0
  0
LINE
  5
B2
330
1F
100
AcDbEntity
  8
0
  6
Continuous
 62
     7
370
    15
100
AcDbLine
 10
329.3089342059
 20
43.6405291891
 30
0.0
 11
329.3089342059
 21
44.1060414648
 31
0.0
  0
LINE
  5
B3
330
1F
100
AcDbEntity
  8
0
  6
Continuous
 62
     7
370
    15
100
AcDbLine
 10
329.3089342059
 20
513.640527997
 30
0.0
 11
329.3089342059
 21
514.1060402727
 31
0.0
  0
LINE
  5
B4
330
1F
100
AcDbEntity
  8
0
  6
Continuous
 62
     7
370
    15
100
AcDbLine
 10
329.3089342059
 20
21.1060395574
 30
0.0
 11
329.3089342059
 21
21.5715518331
 31
0.0
  0
LINE
  5
B5
330
1F
100
AcDbEntity
  8
0
  6
Continuous
 62
     7
370
    15
100
AcDbLine
 10
329.3089342059
 20
491.1060383654
 30
0.0
 11
329.3089342059
 21
491.571550641
 31
0.0
  0
LINE
  5
B6
330
1F
100
AcDbEntity
  8
0
  6
Continuous
 62
     7
370
    15
100
AcDbLine
 10
831.4102959574
 20
58.606033597
 30
0.0
 11
831.4102959574
 21
23.6060371733
 31
0.0
  0
LINE
  5
B7
330
1F
100
AcDbEntity
  8
0
  6
Continuous
 62
     7
370
    15
100
AcDbLine
 10
831.4102959574
 20
58.606033597
 30
0.0
 11
842.0089256705
 21
58.606033597
 31
0.0
  0
LINE
  5
B8
330
1F
100
AcDbEntity
  8
0
  6
Continuous
 62
     7
370
    15
100
AcDbLine
 10
831.4102959574
 20
23.6060371733
 30
0.0
 11
842.0089256705
 21
23.6060371733
 31
0.0
  0
LINE
  5
B9
330
1F
100
AcDbEntity
  8
0
  6
Continuous
 62
     7
370
    15
100
AcDbLine
 10
831.4102959574
 20
511.6060426569
 30
0.0
 11
831.4102959574
 21
476.6060462332
 31
0.0
  0
LINE
  5
BA
330
1F
100
AcDbEntity
  8
0
  6
Continuous
 62
     7
370
    15
100
AcDbLine
 10
831.4102959574
 20
511.6060426569
 30
0.0
 11
842.0089256705
 21
511.6060426569
 31
0.0
  0
LINE
  5
BB
330
1F
100
AcDbEntity
  8
0
  6
Continuous
 62
     7
370
    15
100
AcDbLine
 10
831.4102959574
 20
476.6060462332
 30
0.0
 11
842.0089256705
 21
476.6060462332
 31
0.0
  0
LINE
  5
BC
330
1F
100
AcDbEntity
  8
0
  6
Continuous
 62
     7
370
    15
100
AcDbLine
 10
830.9467804373
 20
58.606033597
 30
0.0
 11
830.9467804373
 21
23.6060371733
 31
0.0
  0
LINE
  5
BD
330
1F
100
AcDbEntity
  8
0
  6
Continuous
 62
     7
370
    15
100
AcDbLine
 10
830.9467804373
 20
58.606033597
 30
0.0
 11
831.4102959574
 21
58.606033597
 31
0.0
  0
LINE
  5
BE
330
1F
100
AcDbEntity
  8
0
  6
Continuous
 62
     7
370
    15
100
AcDbLine
 10
830.9467804373
 20
23.6060371733
 30
0.0
 11
831.4102959574
 21
23.6060371733
 31
0.0
  0
LINE
  5
BF
330
1F
100
AcDbEntity
  8
0
  6
Continuous
 62
     7
370
    15
100
AcDbLine
 10
830.9467804373
 20
511.6060426569
 30
0.0
 11
830.9467804373
 21
476.6060462332
 31
0.0
  0
LINE
  5
C0
330
1F
100
AcDbEntity
  8
0
  6
Continuous
 62
     7
370
    15
100
AcDbLine
 10
830.9467804373
 20
511.6060426569
 30
0.0
 11
831.4102959574
 21
511.6060426569
 31
0.0
  0
LINE
  5
C1
330
1F
100
AcDbEntity
  8
0
  6
Continuous
 62
     7
370
    15
100
AcDbLine
 10
830.9467804373
 20
476.6060462332
 30
0.0
 11
831.4102959574
 21
476.6060462332
 31
0.0
  0
LINE
  5
C2
330
1F
100
AcDbEntity
  8
0
  6
Continuous
 62
     7
370
    15
100
AcDbLine
 10
830.5089247168
 20
58.606033597
 30
0.0
 11
830.9467804373
 21
58.606033597
 31
0.0
  0
LINE
  5
C3
330
1F
100
AcDbEntity
  8
0
  6
Continuous
 62
     7
370
    15
100
AcDbLine
 10
830.5089247168
 20
23.6060371733
 30
0.0
 11
830.9467804373
 21
23.6060371733
 31
0.0
  0
LINE
  5
C4
330
1F
100
AcDbEntity
  8
0
  6
Continuous
 62
     7
370
    15
100
AcDbLine
 10
830.5089247168
 20
511.6060426569
 30
0.0
 11
830.9467804373
 21
511.6060426569
 31
0.0
  0
LINE
  5
C5
330
1F
100
AcDbEntity
  8
0
  6
Continuous
 62
     7
370
    15
100
AcDbLine
 10
830.5089247168
 20
476.6060462332
 30
0.0
 11
830.9467804373
 21
476.6060462332
 31
0.0
  0
ARC
  5
C6
330
1F
100
AcDbEntity
  8
0
  6
Continuous
 62
     7
370
    15
100
AcDbCircle
 10
323.331601455
 20
38.0172169526
 30
0.0
 40
1.097809509998412
100
AcDbArc
 50
97.3335515103
 51
185.8123579011
  0
LINE
  5
C7
330
1F
100
AcDbEntity
  8
0
  6
Continuous
 62
     7
370
    15
100
AcDbLine
 10
323.191471094
 20
39.1060462332
 30
0.0
 11
326.7349076212
 21
39.1060462332
 31
0.0
  0
LINE
  5
C8
330
1F
100
AcDbEntity
  8
0
  6
Continuous
 62
     7
370
    15
100
AcDbLine
 10
326.7349076212
 20
39.1060462332
 30
0.0
 11
326.7349076212
 21
26.1060347891
 31
0.0
  0
LINE
  5
C9
330
1F
100
AcDbEntity
  8
0
  6
Continuous
 62
     7
370
    15
100
AcDbLine
 10
326.7349076212
 20
26.1060347891
 30
0.0
 11
323.191471094
 21
26.1060347891
 31
0.0
  0
ARC
  5
CA
330
1F
100
AcDbEntity
  8
0
  6
Continuous
 62
     7
370
    15
100
AcDbCircle
 10
323.331601455
 20
27.1948640696
 30
0.0
 40
1.097809509998412
100
AcDbArc
 50
174.1876420989
 51
262.6664484898
  0
LINE
  5
CB
330
1F
100
AcDbEntity
  8
0
  6
Continuous
 62
     7
370
    15
100
AcDbLine
 10
322.2394359053
 20
37.9060408211
 30
0.0
 11
322.2394359053
 21
27.3060402012
 31
0.0
  0
LINE
  5
CC
330
1F
100
AcDbEntity
  8
0
  6
Continuous
 62
     7
370
    15
100
AcDbLine
 10
322.2394359053
 20
37.9060408211
 30
0.0
 11
321.5089213789
 21
37.9060408211
 31
0.0
  0
LINE
  5
CD
330
1F
100
AcDbEntity
  8
0
  6
Continuous
 62
     7
370
    15
100
AcDbLine
 10
321.5089213789
 20
27.3060402012
 30
0.0
 11
322.2394359053
 21
27.3060402012
 31
0.0
  0
LINE
  5
CE
330
1F
100
AcDbEntity
  8
0
  6
Continuous
 62
     7
370
    15
100
AcDbLine
 10
321.5089213789
 20
37.9060408211
 30
0.0
 11
321.5089213789
 21
27.3060402012
 31
0.0
  0
LINE
  5
CF
330
1F
100
AcDbEntity
  8
0
  6
Continuous
 62
     7
370
    15
100
AcDbLine
 10
322.4609565676
 20
39.1060462332
 30
0.0
 11
323.191471094
 21
39.1060462332
 31
0.0
  0
ARC
  5
D0
330
1F
100
AcDbEntity
  8
0
  6
Continuous
 62
     7
370
    15
100
AcDbCircle
 10
322.6010869287
 20
38.0172169526
 30
0.0
 40
1.097809509998412
100
AcDbArc
 50
97.3335515103
 51
185.8123579011
  0
LINE
  5
D1
330
1F
100
AcDbEntity
  8
0
  6
Continuous
 62
     7
370
    15
100
AcDbLine
 10
323.191471094
 20
26.1060347891
 30
0.0
 11
322.4609565676
 21
26.1060347891
 31
0.0
  0
ARC
  5
D2
330
1F
100
AcDbEntity
  8
0
  6
Continuous
 62
     7
370
    15
100
AcDbCircle
 10
322.6010869287
 20
27.1948640696
 30
0.0
 40
1.097809509998412
100
AcDbArc
 50
174.1876420989
 51
262.6664484898
  0
LINE
  5
D3
330
1F
100
AcDbEntity
  8
0
  6
Continuous
 62
     7
370
    15
100
AcDbLine
 10
322.2394359053
 20
507.906039629
 30
0.0
 11
321.5089213789
 21
507.906039629
 31
0.0
  0
LINE
  5
D4
330
1F
100
AcDbEntity
  8
0
  6
Continuous
 62
     7
370
    15
100
AcDbLine
 10
322.2394359053
 20
507.906039629
 30
0.0
 11
322.2394359053
 21
497.3060390091
 31
0.0
  0
LINE
  5
D5
330
1F
100
AcDbEntity
  8
0
  6
Continuous
 62
     7
370
    15
100
AcDbLine
 10
321.5089213789
 20
497.3060390091
 30
0.0
 11
322.2394359053
 21
497.3060390091
 31
0.0
  0
LINE
  5
D6
330
1F
100
AcDbEntity
  8
0
  6
Continuous
 62
     7
370
    15
100
AcDbLine
 10
321.5089213789
 20
507.906039629
 30
0.0
 11
321.5089213789
 21
497.3060390091
 31
0.0
  0
ARC
  5
D7
330
1F
100
AcDbEntity
  8
0
  6
Continuous
 62
     7
370
    15
100
AcDbCircle
 10
323.331601455
 20
508.0172157605
 30
0.0
 40
1.097809509998422
100
AcDbArc
 50
97.3335515103
 51
185.8123579012
  0
LINE
  5
D8
330
1F
100
AcDbEntity
  8
0
  6
Continuous
 62
     7
370
    15
100
AcDbLine
 10
323.191471094
 20
509.1060450411
 30
0.0
 11
326.7349076212
 21
509.1060450411
 31
0.0
  0
LINE
  5
D9
330
1F
100
AcDbEntity
  8
0
  6
Continuous
 62
     7
370
    15
100
AcDbLine
 10
326.7349076212
 20
509.1060450411
 30
0.0
 11
326.7349076212
 21
496.106033597
 31
0.0
  0
LINE
  5
DA
330
1F
100
AcDbEntity
  8
0
  6
Continuous
 62
     7
370
    15
100
AcDbLine
 10
326.7349076212
 20
496.106033597
 30
0.0
 11
323.191471094
 21
496.106033597
 31
0.0
  0
ARC
  5
DB
330
1F
100
AcDbEntity
  8
0
  6
Continuous
 62
     7
370
    15
100
AcDbCircle
 10
323.331601455
 20
497.1948628775
 30
0.0
 40
1.097809509998417
100
AcDbArc
 50
174.1876420989
 51
262.6664484898
  0
LINE
  5
DC
330
1F
100
AcDbEntity
  8
0
  6
Continuous
 62
     7
370
    15
100
AcDbLine
 10
322.4609565676
 20
509.1060450411
 30
0.0
 11
323.191471094
 21
509.1060450411
 31
0.0
  0
ARC
  5
DD
330
1F
100
AcDbEntity
  8
0
  6
Continuous
 62
     7
370
    15
100
AcDbCircle
 10
322.6010869287
 20
508.0172157605
 30
0.0
 40
1.097809509998422
100
AcDbArc
 50
97.3335515103
 51
185.8123579012
  0
LINE
  5
DE
330
1F
100
AcDbEntity
  8
0
  6
Continuous
 62
     7
370
    15
100
AcDbLine
 10
323.191471094
 20
496.106033597
 30
0.0
 11
322.4609565676
 21
496.106033597
 31
0.0
  0
ARC
  5
DF
330
1F
100
AcDbEntity
  8
0
  6
Continuous
 62
     7
370
    15
100
AcDbCircle
 10
322.6010869287
 20
497.1948628775
 30
0.0
 40
1.097809509998417
100
AcDbArc
 50
174.1876420989
 51
262.6664484898
  0
LINE
  5
E0
330
1F
100
AcDbEntity
  8
0
  6
Continuous
 62
     7
370
    15
100
AcDbLine
 10
326.8164467753
 20
39.1060462332
 30
0.0
 11
326.7349076212
 21
39.1060462332
 31
0.0
  0
LINE
  5
E1
330
1F
100
AcDbEntity
  8
0
  6
Continuous
 62
     7
370
    15
100
AcDbLine
 10
326.7349076212
 20
26.1060347891
 30
0.0
 11
326.8684518278
 21
26.1060347891
 31
0.0
  0
LINE
  5
E2
330
1F
100
AcDbEntity
  8
0
  6
Continuous
 62
     7
370
    15
100
AcDbLine
 10
326.8164467753
 20
509.1060450411
 30
0.0
 11
326.7349076212
 21
509.1060450411
 31
0.0
  0
LINE
  5
E3
330
1F
100
AcDbEntity
  8
0
  6
Continuous
 62
     7
370
    15
100
AcDbLine
 10
326.7349076212
 20
496.106033597
 30
0.0
 11
326.8684518278
 21
496.106033597
 31
0.0
  0
SPLINE
  5
E4
330
1F
100
AcDbEntity
  8
0
  6
Continuous
 62
     7
370
    15
100
AcDbSpline
210
0.0
220
0.0
230
1.0
 70
    24
 71
     3
 72
    12
 73
     8
 74
     0
 42
0.00000001
 43
0.00000001
 40
0.0
 40
0.0
 40
0.0
 40
0.0
 40
0.2185040659699323
 40
0.4370095603324679
 40
0.6555189772202858
 40
0.8740247140736526
 40
1.0
 40
1.0
 40
1.0
 40
1.0
 10
328.6682736814859
 20
509.2984339332472
 30
0.0
 10
328.4715532903458
 20
509.2984339332472
 30
0.0
 10
328.0781112220757
 20
509.2984339332472
 30
0.0
 10
327.5173633438422
 20
509.2984339332472
 30
0.0
 10
327.0996727542371
 20
509.2984339332472
 30
0.0
 10
326.8731027703733
 20
509.2984339332472
 30
0.0
 10
326.8906464179485
 20
509.2984339332472
 30
0.0
 10
326.8970620573404
 20
509.2984339332472
 30
0.0
  0
SPLINE
  5
E5
330
1F
100
AcDbEntity
  8
0
  6
Continuous
 62
     7
370
    15
100
AcDbSpline
210
0.0
220
0.0
230
1.0
 70
    24
 71
     3
 72
     9
 73
     5
 74
     0
 42
0.00000001
 43
0.00000001
 40
0.0
 40
0.0
 40
0.0
 40
0.0
 40
0.002514167495053
 40
1.0
 40
1.0
 40
1.0
 40
1.0
 10
329.2089176119211
 20
509.2984339332472
 30
0.0
 10
329.2085700509856
 20
509.2984339332472
 30
0.0
 10
329.0703290879994
 20
509.2984339332522
 30
0.0
 10
328.8690483580083
 20
509.2984339332498
 30
0.0
 10
328.6682736814859
 20
509.2984339332472
 30
0.0
  0
SPLINE
  5
E6
330
1F
100
AcDbEntity
  8
0
  6
Continuous
 62
     7
370
    15
100
AcDbSpline
210
0.0
220
0.0
230
1.0
 70
     8
 71
     3
 72
    13
 73
     9
 74
     0
 42
0.00000001
 43
0.00000001
 40
0.0
 40
0.0
 40
0.0
 40
0.0
 40
0.187740000413576
 40
0.3754750840911282
 40
0.5632141125828769
 40
0.7509489806106309
 40
0.9386872804467359
 40
1.0
 40
1.0
 40
1.0
 40
1.0
 10
328.3749890268686
 20
512.9132768249402
 30
0.0
 10
328.1782919247808
 20
512.9105751594909
 30
0.0
 10
327.7849028719194
 20
512.9051718993463
 30
0.0
 10
327.2518899741667
 20
512.614629617906
 30
0.0
 10
326.8613678811031
 20
512.1597337598179
 30
0.0
 10
326.6884190894489
 20
511.5980537188317
 30
0.0
 10
326.6917034088396
 20
511.1248672947874
 30
0.0
 10
326.8190186638701
 20
510.9034294229829
 30
0.0
 10
326.8503618181589
 20
510.8489146566282
 30
0.0
  0
SPLINE
  5
E7
330
1F
100
AcDbEntity
  8
0
  6
Continuous
 62
     7
370
    15
100
AcDbSpline
210
0.0
220
0.0
230
1.0
 70
     8
 71
     3
 72
    10
 73
     6
 74
     0
 42
0.00000001
 43
0.00000001
 40
0.0
 40
0.0
 40
0.0
 40
0.0
 40
0.2093330610731358
 40
0.6046772709239069
 40
0.9999999999999999
 40
0.9999999999999999
 40
0.9999999999999999
 40
0.9999999999999999
 10
329.5121562422159
 20
512.1071538066755
 30
0.0
 10
329.4704595493772
 20
512.2002175929392
 30
0.0
 10
329.3500149225083
 20
512.4690406637496
 30
0.0
 10
328.9432834078973
 20
512.785672824749
 30
0.0
 10
328.5644170562081
 20
512.8707429286023
 30
0.0
 10
328.3749890268686
 20
512.9132768249402
 30
0.0
  0
SPLINE
  5
E8
330
1F
100
AcDbEntity
  8
0
  6
Continuous
 62
     7
370
    15
100
AcDbSpline
210
0.0
220
0.0
230
1.0
 70
     8
 71
     3
 72
    13
 73
     9
 74
     0
 42
0.00000001
 43
0.00000001
 40
0.0
 40
0.0
 40
0.0
 40
0.0
 40
0.1768655441741053
 40
0.3537268808725106
 40
0.5305919338987228
 40
0.7074573141850448
 40
0.8843216807598565
 40
1.0
 40
1.0
 40
1.0
 40
1.0
 10
328.3577632845285
 20
492.2700872754942
 30
0.0
 10
328.1610905321478
 20
492.2727732592144
 30
0.0
 10
327.7677497060581
 20
492.2781451627576
 30
0.0
 10
327.2343707868128
 20
492.5688340633737
 30
0.0
 10
326.8452398192015
 20
493.0231935108219
 30
0.0
 10
326.667081681362
 20
493.5868926907145
 30
0.0
 10
326.6880476648583
 20
494.1200429767675
 30
0.0
 10
326.854128805603
 20
494.3933142901703
 30
0.0
 10
326.9198012293222
 20
494.5013722514998
 30
0.0
  0
SPLINE
  5
E9
330
1F
100
AcDbEntity
  8
0
  6
Continuous
 62
     7
370
    15
100
AcDbSpline
210
0.0
220
0.0
230
1.0
 70
     8
 71
     3
 72
    10
 73
     6
 74
     0
 42
0.00000001
 43
0.00000001
 40
0.0
 40
0.0
 40
0.0
 40
0.0
 40
0.0588225777550384
 40
0.5294258028009099
 40
1.0
 40
1.0
 40
1.0
 40
1.0
 10
329.3878805578592
 20
492.8699931239973
 30
0.0
 10
329.3772460626263
 20
492.8485121328057
 30
0.0
 10
329.2815315191476
 20
492.6551749578532
 30
0.0
 10
328.9206364731634
 20
492.4010168071561
 30
0.0
 10
328.5453838228858
 20
492.313729555342
 30
0.0
 10
328.3577632845285
 20
492.2700872754942
 30
0.0
  0
SPLINE
  5
EA
330
1F
100
AcDbEntity
  8
0
  6
Continuous
 62
     7
370
    15
100
AcDbSpline
210
0.0
220
0.0
230
1.0
 70
    24
 71
     3
 72
    12
 73
     8
 74
     0
 42
0.00000001
 43
0.00000001
 40
0.0
 40
0.0
 40
0.0
 40
0.0
 40
0.2193534179877733
 40
0.4387082699204865
 40
0.6580670596258174
 40
0.8774221549919532
 40
1.0
 40
1.0
 40
1.0
 40
1.0
 10
328.6682736814859
 20
495.7398077583205
 30
0.0
 10
328.471557976381
 20
495.7398077583205
 30
0.0
 10
328.0781252802121
 20
495.7398077583205
 30
0.0
 10
327.5173071104472
 20
495.7398077583205
 30
0.0
 10
327.0998836321498
 20
495.7398077583205
 30
0.0
 10
326.8740205740805
 20
495.7398077583204
 30
0.0
 10
326.8910256106946
 20
495.7398077583205
 30
0.0
 10
326.8971216619851
 20
495.7398077583205
 30
0.0
  0
SPLINE
  5
EB
330
1F
100
AcDbEntity
  8
0
  6
Continuous
 62
     7
370
    15
100
AcDbSpline
210
0.0
220
0.0
230
1.0
 70
    24
 71
     3
 72
     9
 73
     5
 74
     0
 42
0.00000001
 43
0.00000001
 40
0.0
 40
0.0
 40
0.0
 40
0.0
 40
0.002514167495053
 40
1.0
 40
1.0
 40
1.0
 40
1.0
 10
329.2089176119211
 20
495.7398077583205
 30
0.0
 10
329.2085700509856
 20
495.7398077583204
 30
0.0
 10
329.0703290879994
 20
495.7398077583244
 30
0.0
 10
328.8690483580083
 20
495.7398077583225
 30
0.0
 10
328.6682736814859
 20
495.7398077583205
 30
0.0
  0
SPLINE
  5
EC
330
1F
100
AcDbEntity
  8
0
  6
Continuous
 62
     7
370
    15
100
AcDbSpline
210
0.0
220
0.0
230
1.0
 70
     8
 71
     3
 72
    13
 73
     9
 74
     0
 42
0.00000001
 43
0.00000001
 40
0.0
 40
0.0
 40
0.0
 40
0.0
 40
0.1768576985124456
 40
0.3537276817053297
 40
0.5305875817102148
 40
0.7074521439525769
 40
0.8843171741316485
 40
0.9999999999999999
 40
0.9999999999999999
 40
0.9999999999999999
 40
0.9999999999999999
 10
326.8058967531564
 20
515.529697213162
 30
0.0
 10
326.609235963925
 20
515.5270012449574
 30
0.0
 10
326.2159007252428
 20
515.521609121284
 30
0.0
 10
325.6825045258853
 20
515.2309568965645
 30
0.0
 10
325.2934188691045
 20
514.7765609631355
 30
0.0
 10
325.115204768249
 20
514.2128971102561
 30
0.0
 10
325.1361738999836
 20
513.6797312886399
 30
0.0
 10
325.3022805797859
 20
513.4064689496653
 30
0.0
 10
325.3679645002725
 20
513.2984122371565
 30
0.0
  0
SPLINE
  5
ED
330
1F
100
AcDbEntity
  8
0
  6
Continuous
 62
     7
370
    15
100
AcDbSpline
210
0.0
220
0.0
230
1.0
 70
     8
 71
     3
 72
    10
 73
     6
 74
     0
 42
0.00000001
 43
0.00000001
 40
0.0
 40
0.0
 40
0.0
 40
0.0
 40
0.1474521529467936
 40
0.5737191691814364
 40
0.9999999999999999
 40
0.9999999999999999
 40
0.9999999999999999
 40
0.9999999999999999
 10
327.8944861830118
 20
514.8171683883558
 30
0.0
 10
327.8664291996651
 20
514.8774603556046
 30
0.0
 10
327.7572627422502
 20
515.1120493844321
 30
0.0
 10
327.3721978510662
 20
515.4008661350139
 30
0.0
 10
326.9946658249543
 20
515.4867530565456
 30
0.0
 10
326.8058967531564
 20
515.529697213162
 30
0.0
  0
SPLINE
  5
EE
330
1F
100
AcDbEntity
  8
0
  6
Continuous
 62
     7
370
    15
100
AcDbSpline
210
0.0
220
0.0
230
1.0
 70
     8
 71
     3
 72
    13
 73
     9
 74
     0
 42
0.00000001
 43
0.00000001
 40
0.0
 40
0.0
 40
0.0
 40
0.0
 40
0.1768650160017019
 40
0.3537333829017458
 40
0.5305916667059338
 40
0.7074540373464636
 40
0.8843182312772411
 40
1.0
 40
1.0
 40
1.0
 40
1.0
 10
326.7887008131387
 20
489.6536668872725
 30
0.0
 10
326.5920298167894
 20
489.6563614244907
 30
0.0
 10
326.1986840979466
 20
489.6617505499781
 30
0.0
 10
325.6652787240181
 20
489.952407315661
 30
0.0
 10
325.2761936527878
 20
490.4068017328055
 30
0.0
 10
325.097978679175
 20
490.9704700724669
 30
0.0
 10
325.1189477983409
 20
491.5036314297344
 30
0.0
 10
325.2850548611303
 20
491.7768949655906
 30
0.0
 10
325.3507387579324
 20
491.884951863278
 30
0.0
  0
SPLINE
  5
EF
330
1F
100
AcDbEntity
  8
0
  6
Continuous
 62
     7
370
    15
100
AcDbSpline
210
0.0
220
0.0
230
1.0
 70
     8
 71
     3
 72
    10
 73
     6
 74
     0
 42
0.00000001
 43
0.00000001
 40
0.0
 40
0.0
 40
0.0
 40
0.0
 40
0.1474663158648042
 40
0.5737321298533076
 40
1.0
 40
1.0
 40
1.0
 40
1.0
 10
327.8772604406717
 20
490.3661957120787
 30
0.0
 10
327.8492043589798
 20
490.3058983256083
 30
0.0
 10
327.7400494281737
 20
490.0713054440992
 30
0.0
 10
327.3549705749478
 20
489.782506652622
 30
0.0
 10
326.9774577039062
 20
489.6966135447752
 30
0.0
 10
326.7887008131387
 20
489.6536668872725
 30
0.0
  0
LINE
  5
F0
330
1F
100
AcDbEntity
  8
0
  6
Continuous
 62
     7
370
    15
100
AcDbLine
 10
321.5089213789
 20
506.5060457325
 30
0.0
 11
321.4041066111
 21
506.5060457325
 31
0.0
  0
LINE
  5
F1
330
1F
100
AcDbEntity
  8
0
  6
Continuous
 62
     7
370
    15
100
AcDbLine
 10
321.5089213789
 20
497.9060342646
 30
0.0
 11
321.4041066111
 21
497.9060342646
 31
0.0
  0
LINE
  5
F2
330
1F
100
AcDbEntity
  8
0
  6
Continuous
 62
     7
370
    15
100
AcDbLine
 10
326.8373978079
 20
510.6060406303
 30
0.0
 11
322.0095407904
 21
510.6060406303
 31
0.0
  0
LINE
  5
F3
330
1F
100
AcDbEntity
  8
0
  6
Continuous
 62
     7
370
    15
100
AcDbLine
 10
326.8348646105
 20
509.8060419893
 30
0.0
 11
322.0089149416
 21
509.8060419893
 31
0.0
  0
LINE
  5
F4
330
1F
100
AcDbEntity
  8
0
  6
Continuous
 62
     7
370
    15
100
AcDbLine
 10
326.8747997225
 20
495.4060366487
 30
0.0
 11
322.0089149416
 21
495.4060366487
 31
0.0
  0
LINE
  5
F5
330
1F
100
AcDbEntity
  8
0
  6
Continuous
 62
     7
370
    15
100
AcDbLine
 10
326.8830847681
 20
494.6060380077
 30
0.0
 11
322.0095407904
 21
494.6060380077
 31
0.0
  0
LINE
  5
F6
330
1F
100
AcDbEntity
  8
0
  6
Continuous
 62
     7
370
    15
100
AcDbLine
 10
325.6089162768
 20
510.9060457086
 30
0.0
 11
326.7722797335
 21
510.9060457086
 31
0.0
  0
LINE
  5
F7
330
1F
100
AcDbEntity
  8
0
  6
Continuous
 62
     7
370
    15
100
AcDbLine
 10
326.9354474486
 20
510.9060457086
 30
0.0
 11
326.9977641047
 21
510.9060457086
 31
0.0
  0
LINE
  5
F8
330
1F
100
AcDbEntity
  8
0
  6
Continuous
 62
     7
370
    15
100
AcDbLine
 10
323.4089386404
 20
510.9060457086
 30
0.0
 11
325.6089162768
 21
510.9060457086
 31
0.0
  0
LINE
  5
F9
330
1F
100
AcDbEntity
  8
0
  6
Continuous
 62
     7
370
    15
100
AcDbLine
 10
325.6089162768
 20
494.2060461378
 30
0.0
 11
326.7123174609
 21
494.2060461378
 31
0.0
  0
LINE
  5
FA
330
1F
100
AcDbEntity
  8
0
  6
Continuous
 62
     7
370
    15
100
AcDbLine
 10
323.5089254321
 20
494.2060461378
 30
0.0
 11
325.6089162768
 21
494.2060461378
 31
0.0
  0
LINE
  5
FB
330
1F
100
AcDbEntity
  8
0
  6
Continuous
 62
     7
370
    15
100
AcDbLine
 10
325.6089162768
 20
493.8060393667
 30
0.0
 11
326.472438568
 21
493.8060393667
 31
0.0
  0
LINE
  5
FC
330
1F
100
AcDbEntity
  8
0
  6
Continuous
 62
     7
370
    15
100
AcDbLine
 10
323.5089254321
 20
493.8060393667
 30
0.0
 11
325.6089162768
 21
493.8060393667
 31
0.0
  0
ARC
  5
FD
330
1F
100
AcDbEntity
  8
0
  6
Continuous
 62
     7
370
    15
100
AcDbCircle
 10
322.4748704076
 20
495.403878008
 30
0.0
 40
0.8029034246592697
100
AcDbArc
 50
179.8459576192
 51
234.5256721179
  0
ARC
  5
FE
330
1F
100
AcDbEntity
  8
0
  6
Continuous
 62
     7
370
    15
100
AcDbCircle
 10
322.4748704076
 20
509.8082006301
 30
0.0
 40
0.8029034246593623
100
AcDbArc
 50
125.4743278821
 51
180.1540423808
  0
LINE
  5
FF
330
1F
100
AcDbEntity
  8
0
  6
Continuous
 62
     7
370
    15
100
AcDbLine
 10
322.4598240794
 20
495.8560368156
 30
0.0
 11
322.4598240794
 21
495.4060366487
 31
0.0
  0
LINE
  5
100
330
1F
100
AcDbEntity
  8
0
  6
Continuous
 62
     7
370
    15
100
AcDbLine
 10
322.4598240794
 20
509.8060419893
 30
0.0
 11
322.4598240794
 21
509.3560418224
 31
0.0
  0
LINE
  5
101
330
1F
100
AcDbEntity
  8
0
  6
Continuous
 62
     7
370
    15
100
AcDbLine
 10
321.6719698847
 20
495.4060366487
 30
0.0
 11
321.6719698847
 21
496.6344883776
 31
0.0
  0
LINE
  5
102
330
1F
100
AcDbEntity
  8
0
  6
Continuous
 62
     7
370
    15
100
AcDbLine
 10
321.6719698847
 20
508.5775902605
 30
0.0
 11
321.6719698847
 21
509.8060419893
 31
0.0
  0
LINE
  5
103
330
1F
100
AcDbEntity
  8
0
  6
Continuous
 62
     7
370
    15
100
AcDbLine
 10
321.5089213789
 20
36.5060469246
 30
0.0
 11
321.4041066111
 21
36.5060469246
 31
0.0
  0
LINE
  5
104
330
1F
100
AcDbEntity
  8
0
  6
Continuous
 62
     7
370
    15
100
AcDbLine
 10
321.5089213789
 20
27.9060354566
 30
0.0
 11
321.4041066111
 21
27.9060354566
 31
0.0
  0
LINE
  5
105
330
1F
100
AcDbEntity
  8
0
  6
Continuous
 62
     7
370
    15
100
AcDbLine
 10
326.8747997225
 20
25.4060378408
 30
0.0
 11
322.0089149416
 21
25.4060378408
 31
0.0
  0
LINE
  5
106
330
1F
100
AcDbEntity
  8
0
  6
Continuous
 62
     7
370
    15
100
AcDbLine
 10
326.8830847681
 20
24.6060391998
 30
0.0
 11
322.0095407904
 21
24.6060391998
 31
0.0
  0
LINE
  5
107
330
1F
100
AcDbEntity
  8
0
  6
Continuous
 62
     7
370
    15
100
AcDbLine
 10
326.877064699
 20
39.8060431814
 30
0.0
 11
322.0089149416
 21
39.8060431814
 31
0.0
  0
LINE
  5
108
330
1F
100
AcDbEntity
  8
0
  6
Continuous
 62
     7
370
    15
100
AcDbLine
 10
326.8373978079
 20
40.6060418224
 30
0.0
 11
322.0095407904
 21
40.6060418224
 31
0.0
  0
LINE
  5
109
330
1F
100
AcDbEntity
  8
0
  6
Continuous
 62
     7
370
    15
100
AcDbLine
 10
325.6089162768
 20
40.9060469007
 30
0.0
 11
326.7722797335
 21
40.9060469007
 31
0.0
  0
LINE
  5
10A
330
1F
100
AcDbEntity
  8
0
  6
Continuous
 62
     7
370
    15
100
AcDbLine
 10
326.9354474486
 20
40.9060469007
 30
0.0
 11
326.9977641047
 21
40.9060469007
 31
0.0
  0
LINE
  5
10B
330
1F
100
AcDbEntity
  8
0
  6
Continuous
 62
     7
370
    15
100
AcDbLine
 10
323.4089386404
 20
40.9060469007
 30
0.0
 11
325.6089162768
 21
40.9060469007
 31
0.0
  0
LINE
  5
10C
330
1F
100
AcDbEntity
  8
0
  6
Continuous
 62
     7
370
    15
100
AcDbLine
 10
325.6089162768
 20
24.2060473299
 30
0.0
 11
326.7123174609
 21
24.2060473299
 31
0.0
  0
LINE
  5
10D
330
1F
100
AcDbEntity
  8
0
  6
Continuous
 62
     7
370
    15
100
AcDbLine
 10
323.5089254321
 20
24.2060473299
 30
0.0
 11
325.6089162768
 21
24.2060473299
 31
0.0
  0
LINE
  5
10E
330
1F
100
AcDbEntity
  8
0
  6
Continuous
 62
     7
370
    15
100
AcDbLine
 10
325.6089162768
 20
23.8060405588
 30
0.0
 11
326.472438568
 21
23.8060405588
 31
0.0
  0
LINE
  5
10F
330
1F
100
AcDbEntity
  8
0
  6
Continuous
 62
     7
370
    15
100
AcDbLine
 10
323.5089254321
 20
23.8060405588
 30
0.0
 11
325.6089162768
 21
23.8060405588
 31
0.0
  0
ARC
  5
110
330
1F
100
AcDbEntity
  8
0
  6
Continuous
 62
     7
370
    15
100
AcDbCircle
 10
322.4748704076
 20
39.8082018222
 30
0.0
 40
0.8029034246592639
100
AcDbArc
 50
125.4743278821
 51
180.1540423808
  0
ARC
  5
111
330
1F
100
AcDbEntity
  8
0
  6
Continuous
 62
     7
370
    15
100
AcDbCircle
 10
322.4748704076
 20
25.4038792001
 30
0.0
 40
0.8029034246592668
100
AcDbArc
 50
179.8459576192
 51
234.5256721179
  0
LINE
  5
112
330
1F
100
AcDbEntity
  8
0
  6
Continuous
 62
     7
370
    15
100
AcDbLine
 10
322.4598240794
 20
25.8560380077
 30
0.0
 11
322.4598240794
 21
25.4060378408
 31
0.0
  0
LINE
  5
113
330
1F
100
AcDbEntity
  8
0
  6
Continuous
 62
     7
370
    15
100
AcDbLine
 10
322.4598240794
 20
39.8060431814
 30
0.0
 11
322.4598240794
 21
39.3560430145
 31
0.0
  0
LINE
  5
114
330
1F
100
AcDbEntity
  8
0
  6
Continuous
 62
     7
370
    15
100
AcDbLine
 10
321.6719698847
 20
25.4060378408
 30
0.0
 11
321.6719698847
 21
26.6344895697
 31
0.0
  0
LINE
  5
115
330
1F
100
AcDbEntity
  8
0
  6
Continuous
 62
     7
370
    15
100
AcDbLine
 10
321.6719698847
 20
38.5775914526
 30
0.0
 11
321.6719698847
 21
39.8060431814
 31
0.0
  0
SPLINE
  5
116
330
1F
100
AcDbEntity
  8
0
  6
Continuous
 62
     7
370
    15
100
AcDbSpline
210
0.0
220
0.0
230
1.0
 70
    24
 71
     3
 72
    12
 73
     8
 74
     0
 42
0.00000001
 43
0.00000001
 40
0.0
 40
0.0
 40
0.0
 40
0.0
 40
0.2185040659699323
 40
0.4370095603324679
 40
0.6555189772202858
 40
0.8740247140736526
 40
1.0
 40
1.0
 40
1.0
 40
1.0
 10
328.6682736814859
 20
39.29843512534009
 30
0.0
 10
328.4715532903458
 20
39.29843512534012
 30
0.0
 10
328.0781112220757
 20
39.29843512534009
 30
0.0
 10
327.5173633438422
 20
39.29843512534003
 30
0.0
 10
327.0996727542371
 20
39.29843512534018
 30
0.0
 10
326.8731027703733
 20
39.29843512534006
 30
0.0
 10
326.8906464179485
 20
39.29843512534006
 30
0.0
 10
326.8970620573404
 20
39.29843512534009
 30
0.0
  0
SPLINE
  5
117
330
1F
100
AcDbEntity
  8
0
  6
Continuous
 62
     7
370
    15
100
AcDbSpline
210
0.0
220
0.0
230
1.0
 70
    24
 71
     3
 72
     9
 73
     5
 74
     0
 42
0.00000001
 43
0.00000001
 40
0.0
 40
0.0
 40
0.0
 40
0.0
 40
0.1970282982560592
 40
0.9999999999999999
 40
0.9999999999999999
 40
0.9999999999999999
 40
0.9999999999999999
 10
329.3089342058542
 20
39.29843512534009
 30
0.0
 10
329.2762769327927
 20
39.29843512534009
 30
0.0
 10
329.1105277822872
 20
39.29843512534018
 30
0.0
 10
328.8652360229248
 20
39.29843512534003
 30
0.0
 10
328.6682736814859
 20
39.29843512534006
 30
0.0
  0
SPLINE
  5
118
330
1F
100
AcDbEntity
  8
0
  6
Continuous
 62
     7
370
    15
100
AcDbSpline
210
0.0
220
0.0
230
1.0
 70
     8
 71
     3
 72
    13
 73
     9
 74
     0
 42
0.00000001
 43
0.00000001
 40
0.0
 40
0.0
 40
0.0
 40
0.0
 40
0.187740000413576
 40
0.3754750840911282
 40
0.5632141125828769
 40
0.7509489806106309
 40
0.9386872804467359
 40
1.0
 40
1.0
 40
1.0
 40
1.0
 10
328.3749890268686
 20
42.91327801703321
 30
0.0
 10
328.1782919247808
 20
42.91057635158382
 30
0.0
 10
327.7849028719194
 20
42.90517309143912
 30
0.0
 10
327.2518899741667
 20
42.61463080999883
 30
0.0
 10
326.8613678811031
 20
42.15973495191069
 30
0.0
 10
326.6884190894489
 20
41.59805491092464
 30
0.0
 10
326.6917034088396
 20
41.12486848688027
 30
0.0
 10
326.8190186638701
 20
40.90343061507584
 30
0.0
 10
326.8503618181589
 20
40.84891584872113
 30
0.0
  0
SPLINE
  5
119
330
1F
100
AcDbEntity
  8
0
  6
Continuous
 62
     7
370
    15
100
AcDbSpline
210
0.0
220
0.0
230
1.0
 70
     8
 71
     3
 72
    10
 73
     6
 74
     0
 42
0.00000001
 43
0.00000001
 40
0.0
 40
0.0
 40
0.0
 40
0.0
 40
0.2093330610731358
 40
0.6046772709239069
 40
0.9999999999999999
 40
0.9999999999999999
 40
0.9999999999999999
 40
0.9999999999999999
 10
329.5121562422159
 20
42.10715499876844
 30
0.0
 10
329.4704595493772
 20
42.20021878503219
 30
0.0
 10
329.3500149225083
 20
42.46904185584252
 30
0.0
 10
328.9432834078973
 20
42.78567401684175
 30
0.0
 10
328.5644170562081
 20
42.87074412069522
 30
0.0
 10
328.3749890268686
 20
42.91327801703321
 30
0.0
  0
SPLINE
  5
11A
330
1F
100
AcDbEntity
  8
0
  6
Continuous
 62
     7
370
    15
100
AcDbSpline
210
0.0
220
0.0
230
1.0
 70
     8
 71
     3
 72
    13
 73
     9
 74
     0
 42
0.00000001
 43
0.00000001
 40
0.0
 40
0.0
 40
0.0
 40
0.0
 40
0.1768655441741053
 40
0.3537268808725106
 40
0.5305919338987228
 40
0.7074573141850448
 40
0.8843216807598565
 40
1.0
 40
1.0
 40
1.0
 40
1.0
 10
328.3577632845285
 20
22.2700884675871
 30
0.0
 10
328.1610905321478
 20
22.27277445130729
 30
0.0
 10
327.7677497060581
 20
22.27814635485051
 30
0.0
 10
327.2343707868128
 20
22.5688352554666
 30
0.0
 10
326.8452398192015
 20
23.02319470291472
 30
0.0
 10
326.667081681362
 20
23.58689388280746
 30
0.0
 10
326.6880476648583
 20
24.12004416886043
 30
0.0
 10
326.854128805603
 20
24.39331548226331
 30
0.0
 10
326.9198012293222
 20
24.50137344359266
 30
0.0
  0
SPLINE
  5
11B
330
1F
100
AcDbEntity
  8
0
  6
Continuous
 62
     7
370
    15
100
AcDbSpline
210
0.0
220
0.0
230
1.0
 70
     8
 71
     3
 72
    10
 73
     6
 74
     0
 42
0.00000001
 43
0.00000001
 40
0.0
 40
0.0
 40
0.0
 40
0.0
 40
0.0588225777550384
 40
0.5294258028009099
 40
1.0
 40
1.0
 40
1.0
 40
1.0
 10
329.3878805578592
 20
22.86999431609021
 30
0.0
 10
329.3772460626263
 20
22.84851332489859
 30
0.0
 10
329.2815315191476
 20
22.65517614994597
 30
0.0
 10
328.9206364731634
 20
22.40101799924879
 30
0.0
 10
328.5453838228858
 20
22.3137307474349
 30
0.0
 10
328.3577632845285
 20
22.2700884675871
 30
0.0
  0
SPLINE
  5
11C
330
1F
100
AcDbEntity
  8
0
  6
Continuous
 62
     7
370
    15
100
AcDbSpline
210
0.0
220
0.0
230
1.0
 70
    24
 71
     3
 72
    12
 73
     8
 74
     0
 42
0.00000001
 43
0.00000001
 40
0.0
 40
0.0
 40
0.0
 40
0.0
 40
0.2193534179877733
 40
0.4387082699204865
 40
0.6580670596258174
 40
0.8774221549919532
 40
1.0
 40
1.0
 40
1.0
 40
1.0
 10
328.6682736814859
 20
25.73980895041333
 30
0.0
 10
328.471557976381
 20
25.73980895041333
 30
0.0
 10
328.0781252802121
 20
25.73980895041333
 30
0.0
 10
327.5173071104472
 20
25.73980895041333
 30
0.0
 10
327.0998836321498
 20
25.73980895041331
 30
0.0
 10
326.8740205740805
 20
25.73980895041336
 30
0.0
 10
326.8910256106946
 20
25.73980895041331
 30
0.0
 10
326.8971216619851
 20
25.73980895041331
 30
0.0
  0
SPLINE
  5
11D
330
1F
100
AcDbEntity
  8
0
  6
Continuous
 62
     7
370
    15
100
AcDbSpline
210
0.0
220
0.0
230
1.0
 70
    24
 71
     3
 72
     9
 73
     5
 74
     0
 42
0.00000001
 43
0.00000001
 40
0.0
 40
0.0
 40
0.0
 40
0.0
 40
0.1970282982560592
 40
0.9999999999999999
 40
0.9999999999999999
 40
0.9999999999999999
 40
0.9999999999999999
 10
329.3089342058542
 20
25.73980895041333
 30
0.0
 10
329.2762769327927
 20
25.73980895041331
 30
0.0
 10
329.1105277822872
 20
25.73980895041344
 30
0.0
 10
328.8652360229248
 20
25.73980895041331
 30
0.0
 10
328.6682736814859
 20
25.73980895041331
 30
0.0
  0
SPLINE
  5
11E
330
1F
100
AcDbEntity
  8
0
  6
Continuous
 62
     7
370
    15
100
AcDbSpline
210
0.0
220
0.0
230
1.0
 70
     8
 71
     3
 72
    13
 73
     9
 74
     0
 42
0.00000001
 43
0.00000001
 40
0.0
 40
0.0
 40
0.0
 40
0.0
 40
0.1768576985124456
 40
0.3537276817053297
 40
0.5305875817102148
 40
0.7074521439525769
 40
0.8843171741316485
 40
0.9999999999999999
 40
0.9999999999999999
 40
0.9999999999999999
 40
0.9999999999999999
 10
326.8058967531564
 20
45.52969840525495
 30
0.0
 10
326.609235963925
 20
45.52700243705032
 30
0.0
 10
326.2159007252428
 20
45.52161031337704
 30
0.0
 10
325.6825045258853
 20
45.23095808865729
 30
0.0
 10
325.2934188691045
 20
44.77656215522843
 30
0.0
 10
325.115204768249
 20
44.21289830234898
 30
0.0
 10
325.1361738999836
 20
43.67973248073287
 30
0.0
 10
325.3022805797859
 20
43.40647014175816
 30
0.0
 10
325.3679645002725
 20
43.29841342924936
 30
0.0
  0
SPLINE
  5
11F
330
1F
100
AcDbEntity
  8
0
  6
Continuous
 62
     7
370
    15
100
AcDbSpline
210
0.0
220
0.0
230
1.0
 70
     8
 71
     3
 72
    10
 73
     6
 74
     0
 42
0.00000001
 43
0.00000001
 40
0.0
 40
0.0
 40
0.0
 40
0.0
 40
0.1474521529467936
 40
0.5737191691814364
 40
0.9999999999999999
 40
0.9999999999999999
 40
0.9999999999999999
 40
0.9999999999999999
 10
327.8944861830118
 20
44.81716958044873
 30
0.0
 10
327.8664291996651
 20
44.87746154769754
 30
0.0
 10
327.7572627422502
 20
45.11205057652501
 30
0.0
 10
327.3721978510662
 20
45.40086732710685
 30
0.0
 10
326.9946658249543
 20
45.48675424863841
 30
0.0
 10
326.8058967531564
 20
45.52969840525495
 30
0.0
  0
SPLINE
  5
120
330
1F
100
AcDbEntity
  8
0
  6
Continuous
 62
     7
370
    15
100
AcDbSpline
210
0.0
220
0.0
230
1.0
 70
     8
 71
     3
 72
    13
 73
     9
 74
     0
 42
0.00000001
 43
0.00000001
 40
0.0
 40
0.0
 40
0.0
 40
0.0
 40
0.176864633472472
 40
0.3537305340050581
 40
0.5305884352945769
 40
0.7074546700740902
 40
0.8843184814774159
 40
1.0
 40
1.0
 40
1.0
 40
1.0
 10
326.7887008131387
 20
19.65366807936536
 30
0.0
 10
326.5920304566441
 20
19.65636383544117
 30
0.0
 10
326.1986883347064
 20
19.66175536690523
 30
0.0
 10
325.6652751244491
 20
19.95239104368837
 30
0.0
 10
325.2761901151292
 20
20.40679248691529
 30
0.0
 10
325.0979804362168
 20
20.9704668659933
 30
0.0
 10
325.1189475022063
 20
21.50363255719709
 30
0.0
 10
325.285054777213
 20
21.77689613936895
 30
0.0
 10
325.3507387579324
 20
21.88495305537091
 30
0.0
  0
SPLINE
  5
121
330
1F
100
AcDbEntity
  8
0
  6
Continuous
 62
     7
370
    15
100
AcDbSpline
210
0.0
220
0.0
230
1.0
 70
     8
 71
     3
 72
    10
 73
     6
 74
     0
 42
0.00000001
 43
0.00000001
 40
0.0
 40
0.0
 40
0.0
 40
0.0
 40
0.1474663158648042
 40
0.5737321298533076
 40
1.0
 40
1.0
 40
1.0
 40
1.0
 10
327.8772604406717
 20
20.36619690417157
 30
0.0
 10
327.8492043589798
 20
20.30589951770115
 30
0.0
 10
327.7400494281737
 20
20.07130663619211
 30
0.0
 10
327.3549705749478
 20
19.78250784471494
 30
0.0
 10
326.9774577039062
 20
19.69661473686815
 30
0.0
 10
326.7887008131387
 20
19.65366807936533
 30
0.0
  0
LINE
  5
122
330
1F
100
AcDbEntity
  8
0
  6
Continuous
 62
     7
370
    15
100
AcDbLine
 10
831.4102959574
 20
22.6060351467
 30
0.0
 11
831.4102959574
 21
-12.393961277
 31
0.0
  0
LINE
  5
123
330
1F
100
AcDbEntity
  8
0
  6
Continuous
 62
     7
370
    15
100
AcDbLine
 10
842.0089256705
 20
-12.393961277
 30
0.0
 11
831.4102959574
 21
-12.393961277
 31
0.0
  0
LINE
  5
124
330
1F
100
AcDbEntity
  8
0
  6
Continuous
 62
     7
370
    15
100
AcDbLine
 10
842.0089256705
 20
22.6060351467
 30
0.0
 11
831.4102959574
 21
22.6060351467
 31
0.0
  0
LINE
  5
125
330
1F
100
AcDbEntity
  8
0
  6
Continuous
 62
     7
370
    15
100
AcDbLine
 10
831.4102959574
 20
547.6060411072
 30
0.0
 11
831.4102959574
 21
512.6060446834
 31
0.0
  0
LINE
  5
126
330
1F
100
AcDbEntity
  8
0
  6
Continuous
 62
     7
370
    15
100
AcDbLine
 10
842.0089256705
 20
512.6060446834
 30
0.0
 11
831.4102959574
 21
512.6060446834
 31
0.0
  0
LINE
  5
127
330
1F
100
AcDbEntity
  8
0
  6
Continuous
 62
     7
370
    15
100
AcDbLine
 10
842.0089256705
 20
547.6060411072
 30
0.0
 11
831.4102959574
 21
547.6060411072
 31
0.0
  0
LINE
  5
128
330
1F
100
AcDbEntity
  8
0
  6
Continuous
 62
     7
370
    15
100
AcDbLine
 10
839.008934492
 20
59.6060356235
 30
0.0
 11
834.0089392603
 21
59.6060356235
 31
0.0
  0
LINE
  5
129
330
1F
100
AcDbEntity
  8
0
  6
Continuous
 62
     7
370
    15
100
AcDbLine
 10
834.0089392603
 20
475.6060442066
 30
0.0
 11
839.008934492
 21
475.6060442066
 31
0.0
  0
LINE
  5
12A
330
1F
100
AcDbEntity
  8
0
  6
Continuous
 62
     7
370
    15
100
AcDbLine
 10
830.9467804373
 20
-12.393961277
 30
0.0
 11
830.9467804373
 21
22.6060351467
 31
0.0
  0
LINE
  5
12B
330
1F
100
AcDbEntity
  8
0
  6
Continuous
 62
     7
370
    15
100
AcDbLine
 10
831.4102959574
 20
-12.393961277
 30
0.0
 11
830.9467804373
 21
-12.393961277
 31
0.0
  0
LINE
  5
12C
330
1F
100
AcDbEntity
  8
0
  6
Continuous
 62
     7
370
    15
100
AcDbLine
 10
830.9467804373
 20
22.6060351467
 30
0.0
 11
831.4102959574
 21
22.6060351467
 31
0.0
  0
LINE
  5
12D
330
1F
100
AcDbEntity
  8
0
  6
Continuous
 62
     7
370
    15
100
AcDbLine
 10
830.9467804373
 20
512.6060446834
 30
0.0
 11
830.9467804373
 21
547.6060411072
 31
0.0
  0
LINE
  5
12E
330
1F
100
AcDbEntity
  8
0
  6
Continuous
 62
     7
370
    15
100
AcDbLine
 10
831.4102959574
 20
512.6060446834
 30
0.0
 11
830.9467804373
 21
512.6060446834
 31
0.0
  0
LINE
  5
12F
330
1F
100
AcDbEntity
  8
0
  6
Continuous
 62
     7
370
    15
100
AcDbLine
 10
830.9467804373
 20
547.6060411072
 30
0.0
 11
831.4102959574
 21
547.6060411072
 31
0.0
  0
LINE
  5
130
330
1F
100
AcDbEntity
  8
0
  6
Continuous
 62
     7
370
    15
100
AcDbLine
 10
830.9467804373
 20
512.6060446834
 30
0.0
 11
830.5089247168
 21
512.6060446834
 31
0.0
  0
LINE
  5
131
330
1F
100
AcDbEntity
  8
0
  6
Continuous
 62
     7
370
    15
100
AcDbLine
 10
830.9467804373
 20
547.6060411072
 30
0.0
 11
830.5089247168
 21
547.6060411072
 31
0.0
  0
LINE
  5
132
330
1F
100
AcDbEntity
  8
0
  6
Continuous
 62
     7
370
    15
100
AcDbLine
 10
830.9467804373
 20
-12.393961277
 30
0.0
 11
830.5089247168
 21
-12.393961277
 31
0.0
  0
LINE
  5
133
330
1F
100
AcDbEntity
  8
0
  6
Continuous
 62
     7
370
    15
100
AcDbLine
 10
830.9467804373
 20
22.6060351467
 30
0.0
 11
830.5089247168
 21
22.6060351467
 31
0.0
  0
LINE
  5
134
330
1F
100
AcDbEntity
  8
0
  6
Continuous
 62
     7
370
    15
100
AcDbLine
 10
325.3089260996
 20
25.8560380077
 30
0.0
 11
326.8684518278
 21
25.8560380077
 31
0.0
  0
LINE
  5
135
330
1F
100
AcDbEntity
  8
0
  6
Continuous
 62
     7
370
    15
100
AcDbLine
 10
325.3089260996
 20
39.3560430145
 30
0.0
 11
326.8689882697
 21
39.3560430145
 31
0.0
  0
LINE
  5
136
330
1F
100
AcDbEntity
  8
0
  6
Continuous
 62
     7
370
    15
100
AcDbLine
 10
325.3089260996
 20
39.3560430145
 30
0.0
 11
322.2089183272
 21
39.3560430145
 31
0.0
  0
LINE
  5
137
330
1F
100
AcDbEntity
  8
0
  6
Continuous
 62
     7
370
    15
100
AcDbLine
 10
325.3089260996
 20
25.8560380077
 30
0.0
 11
322.2089183272
 21
25.8560380077
 31
0.0
  0
LINE
  5
138
330
1F
100
AcDbEntity
  8
0
  6
Continuous
 62
     7
370
    15
100
AcDbLine
 10
325.3089260996
 20
509.3560418224
 30
0.0
 11
326.8689882697
 21
509.3560418224
 31
0.0
  0
LINE
  5
139
330
1F
100
AcDbEntity
  8
0
  6
Continuous
 62
     7
370
    15
100
AcDbLine
 10
325.3089260996
 20
495.8560368156
 30
0.0
 11
326.8684518278
 21
495.8560368156
 31
0.0
  0
LINE
  5
13A
330
1F
100
AcDbEntity
  8
0
  6
Continuous
 62
     7
370
    15
100
AcDbLine
 10
325.3089260996
 20
495.8560368156
 30
0.0
 11
322.2089183272
 21
495.8560368156
 31
0.0
  0
LINE
  5
13B
330
1F
100
AcDbEntity
  8
0
  6
Continuous
 62
     7
370
    15
100
AcDbLine
 10
325.3089260996
 20
509.3560418224
 30
0.0
 11
322.2089183272
 21
509.3560418224
 31
0.0
  0
LINE
  5
13C
330
1F
100
AcDbEntity
  8
0
  6
Continuous
 62
     8
370
    15
100
AcDbLine
 10
325.3089260996
 20
26.1060347891
 30
0.0
 11
325.3089260996
 21
25.8560380077
 31
0.0
  0
LINE
  5
13D
330
1F
100
AcDbEntity
  8
0
  6
Continuous
 62
     8
370
    15
100
AcDbLine
 10
325.3089260996
 20
39.3560430145
 30
0.0
 11
325.3089260996
 21
39.1060462332
 31
0.0
  0
LINE
  5
13E
330
1F
100
AcDbEntity
  8
0
  6
Continuous
 62
     8
370
    15
100
AcDbLine
 10
325.3089260996
 20
496.106033597
 30
0.0
 11
325.3089260996
 21
495.8560368156
 31
0.0
  0
LINE
  5
13F
330
1F
100
AcDbEntity
  8
0
  6
Continuous
 62
     8
370
    15
100
AcDbLine
 10
325.3089260996
 20
509.3560418224
 30
0.0
 11
325.3089260996
 21
509.1060450411
 31
0.0
  0
LINE
  5
140
330
1F
100
AcDbEntity
  8
0
  6
Continuous
 62
     7
370
    15
100
AcDbLine
 10
258.8620653642
 20
39.1060462332
 30
0.0
 11
258.8620653642
 21
26.1060347891
 31
0.0
  0
LINE
  5
141
330
1F
100
AcDbEntity
  8
0
  6
Continuous
 62
     7
370
    15
100
AcDbLine
 10
258.8620653642
 20
509.1060450411
 30
0.0
 11
258.8620653642
 21
496.106033597
 31
0.0
  0
SPLINE
  5
142
330
1F
100
AcDbEntity
  8
0
  6
Continuous
 62
     7
370
    15
100
AcDbSpline
210
0.0
220
0.0
230
1.0
 70
     8
 71
     3
 72
    15
 73
    11
 74
     0
 42
0.00000001
 43
0.00000001
 40
0.0
 40
0.0
 40
0.0
 40
0.0
 40
0.1355968094159872
 40
0.2953258255326759
 40
0.4038108321524486
 40
0.5319578481223808
 40
0.6738362643981046
 40
0.8261010483111174
 40
0.9126193603842679
 40
1.0
 40
1.0
 40
1.0
 40
1.0
 10
247.842060614942
 20
497.1720924711119
 30
0.0
 10
247.8864428397946
 20
497.1647658375075
 30
0.0
 10
247.9831060079771
 20
497.1488086470181
 30
0.0
 10
248.1899565288402
 20
497.1964853466086
 30
0.0
 10
248.3832131251184
 20
497.2841999833784
 30
0.0
 10
248.529801086662
 20
497.4038678726126
 30
0.0
 10
248.6285081631344
 20
497.554775843869
 30
0.0
 10
248.6581645176345
 20
497.6766038155098
 30
0.0
 10
248.6369951886053
 20
497.8058548930815
 30
0.0
 10
248.5907374205412
 20
497.8725309300152
 30
0.0
 10
248.5674938453421
 20
497.9060342645537
 30
0.0
  0
SPLINE
  5
143
330
1F
100
AcDbEntity
  8
0
  6
Continuous
 62
     7
370
    15
100
AcDbSpline
210
0.0
220
0.0
230
1.0
 70
     8
 71
     3
 72
    20
 73
    16
 74
     0
 42
0.00000001
 43
0.00000001
 40
0.0
 40
0.0
 40
0.0
 40
0.0
 40
0.0776624358717231
 40
0.2404968263194433
 40
0.4017992488368021
 40
0.4801503336851711
 40
0.555785947752884
 40
0.6296649178674903
 40
0.7057462288008416
 40
0.7826428106548635
 40
0.8592449660263314
 40
0.9343062019937531
 40
0.9709082013609172
 40
0.9894266141446113
 40
1.0
 40
1.0
 40
1.0
 40
1.0
 10
244.0623214734777
 20
497.9503950214278
 30
0.0
 10
244.1221904406635
 20
497.8797615973588
 30
0.0
 10
244.3075863330482
 20
497.6610314721707
 30
0.0
 10
244.7409416819172
 20
497.6335006354176
 30
0.0
 10
245.3068420139221
 20
497.5610130515519
 30
0.0
 10
245.8263348651515
 20
497.5177552866058
 30
0.0
 10
246.2202482439015
 20
497.4872554717595
 30
0.0
 10
246.6131542636943
 20
497.4595676537449
 30
0.0
 10
246.9943172329039
 20
497.4282633483016
 30
0.0
 10
247.3500408018839
 20
497.3957798338571
 30
0.0
 10
247.6526640095422
 20
497.3649782111841
 30
0.0
 10
247.8451810125166
 20
497.3420426183383
 30
0.0
 10
247.9332960913272
 20
497.3340362859881
 30
0.0
 10
247.978723211118
 20
497.3262411180141
 30
0.0
 10
247.9781737920248
 20
497.3302002583272
 30
0.0
 10
247.9779741061911
 20
497.3316392040144
 30
0.0
  0
SPLINE
  5
144
330
1F
100
AcDbEntity
  8
0
  6
Continuous
 62
     7
370
    15
100
AcDbSpline
210
0.0
220
0.0
230
1.0
 70
     8
 71
     3
 72
    18
 73
    14
 74
     0
 42
0.00000001
 43
0.00000001
 40
0.0
 40
0.0
 40
0.0
 40
0.0
 40
0.0355478721783361
 40
0.1421403617464853
 40
0.2612166338548806
 40
0.3785088671059374
 40
0.4914189062935908
 40
0.5995846001856605
 40
0.7135832348953303
 40
0.8317025089755247
 40
0.8924673188977832
 40
0.9532431990708803
 40
1.0
 40
1.0
 40
1.0
 40
1.0
 10
248.423742343305
 20
506.5060457324873
 30
0.0
 10
248.394435124658
 20
506.5260045559365
 30
0.0
 10
248.2772484013748
 20
506.605811143821
 30
0.0
 10
248.0291935033557
 20
506.624958586987
 30
0.0
 10
247.6366385841007
 20
506.6795648834677
 30
0.0
 10
247.1250746495794
 20
506.7263502348129
 30
0.0
 10
246.5739625278268
 20
506.7721991540525
 30
0.0
 10
246.0118670261019
 20
506.8111603485719
 30
0.0
 10
245.4775785534239
 20
506.8558900418949
 30
0.0
 10
245.0799607985139
 20
506.8969376185992
 30
0.0
 10
244.8652103363571
 20
506.9180834039182
 30
0.0
 10
244.7691665049713
 20
506.9203591964484
 30
0.0
 10
244.7537174888324
 20
506.9042814589592
 30
0.0
 10
244.7470000280126
 20
506.8972906207929
 30
0.0
  0
SPLINE
  5
145
330
1F
100
AcDbEntity
  8
0
  6
Continuous
 62
     7
370
    15
100
AcDbSpline
210
0.0
220
0.0
230
1.0
 70
     8
 71
     3
 72
    12
 73
     8
 74
     0
 42
0.00000001
 43
0.00000001
 40
0.0
 40
0.0
 40
0.0
 40
0.0
 40
0.2236856461433282
 40
0.4523148238296191
 40
0.6822432155678899
 40
0.9102240357126269
 40
1.0
 40
1.0
 40
1.0
 40
1.0
 10
244.0477630389913
 20
507.7078839874159
 30
0.0
 10
244.0350294586898
 20
507.6653416492114
 30
0.0
 10
244.0092808814785
 20
507.5793167721482
 30
0.0
 10
244.1304083527889
 20
507.4876926745951
 30
0.0
 10
244.362079994199
 20
507.3913705631309
 30
0.0
 10
244.6069410561784
 20
507.3288930501575
 30
0.0
 10
244.7902726737528
 20
507.3341173518813
 30
0.0
 10
244.8420694364294
 20
507.3355933761488
 30
0.0
  0
SPLINE
  5
146
330
1F
100
AcDbEntity
  8
0
  6
Continuous
 62
     7
370
    15
100
AcDbSpline
210
0.0
220
0.0
230
1.0
 70
     8
 71
     3
 72
    19
 73
    15
 74
     0
 42
0.00000001
 43
0.00000001
 40
0.0
 40
0.0
 40
0.0
 40
0.0
 40
0.097905977869173
 40
0.1753775654027706
 40
0.2884833862077044
 40
0.3734530538408342
 40
0.457003849334798
 40
0.6168875763003917
 40
0.6796676181815964
 40
0.7634259759140002
 40
0.8137554787824096
 40
0.8702986533489111
 40
0.9324008203992511
 40
1.0
 40
1.0
 40
1.0
 40
1.0
 10
244.223999072431
 20
507.2127631044279
 30
0.0
 10
244.2745068748681
 20
507.1863823773955
 30
0.0
 10
244.364980772561
 20
507.1391269617286
 30
0.0
 10
244.7396411019792
 20
507.0784733491873
 30
0.0
 10
245.2261288699027
 20
507.0246134890851
 30
0.0
 10
245.8174710609102
 20
506.9713574913167
 30
0.0
 10
246.5715673078496
 20
506.9198170602951
 30
0.0
 10
247.2126760843135
 20
506.8528750189089
 30
0.0
 10
247.8619319400102
 20
506.8173581391499
 30
0.0
 10
248.2402771837004
 20
506.8955377096053
 30
0.0
 10
248.4921192572706
 20
507.0037489341557
 30
0.0
 10
248.6257101283651
 20
507.0920615965732
 30
0.0
 10
248.6874841245358
 20
507.1659302484038
 30
0.0
 10
248.6160399107111
 20
507.2464402876537
 30
0.0
 10
248.5788038266882
 20
507.2884013986479
 30
0.0
  0
SPLINE
  5
147
330
1F
100
AcDbEntity
  8
0
  6
Continuous
 62
     7
370
    15
100
AcDbSpline
210
0.0
220
0.0
230
1.0
 70
     8
 71
     3
 72
    25
 73
    21
 74
     0
 42
0.00000001
 43
0.00000001
 40
0.0
 40
0.0
 40
0.0
 40
0.0
 40
0.0176277400777026
 40
0.0344974471927469
 40
0.0503153382275186
 40
0.0649737135449916
 40
0.0909443018358285
 40
0.1134369782390388
 40
0.1538397550598297
 40
0.1912345757983016
 40
0.2995706196256623
 40
0.3999631770949679
 40
0.5012952319043674
 40
0.5949054737298676
 40
0.6784866877725623
 40
0.7336286859924962
 40
0.8075184565227767
 40
0.8952815302365669
 40
0.9453088658508103
 40
1.0
 40
1.0
 40
1.0
 40
1.0
 10
248.2214888824209
 20
506.6628208494078
 30
0.0
 10
248.2611988030901
 20
506.6672096023683
 30
0.0
 10
248.3389110274181
 20
506.6757983819187
 30
0.0
 10
248.4407975385601
 20
506.7218219902133
 30
0.0
 10
248.5218022350382
 20
506.7807639465502
 30
0.0
 10
248.5980079923772
 20
506.8643649825955
 30
0.0
 10
248.6510541693047
 20
506.9679799135386
 30
0.0
 10
248.6752319534172
 20
507.1003429366101
 30
0.0
 10
248.6523230622724
 20
507.2321872671002
 30
0.0
 10
248.4810971959097
 20
507.4774249584678
 30
0.0
 10
248.1383018021568
 20
507.564481738531
 30
0.0
 10
247.6431907843178
 20
507.6230458556076
 30
0.0
 10
247.029979344384
 20
507.6814093263558
 30
0.0
 10
246.3805074291747
 20
507.7310357080531
 30
0.0
 10
245.8408145060787
 20
507.7704996125397
 30
0.0
 10
245.3947892776317
 20
507.8096812674213
 30
0.0
 10
245.0061001765568
 20
507.8479005690173
 30
0.0
 10
244.7459249261801
 20
507.8757647883151
 30
0.0
 10
244.6154930025894
 20
507.8982469667596
 30
0.0
 10
244.6068327355263
 20
507.9107076699539
 30
0.0
 10
244.6023097528204
 20
507.9172154998671
 30
0.0
  0
SPLINE
  5
148
330
1F
100
AcDbEntity
  8
0
  6
Continuous
 62
     7
370
    15
100
AcDbSpline
210
0.0
220
0.0
230
1.0
 70
     8
 71
     3
 72
    12
 73
     8
 74
     0
 42
0.00000001
 43
0.00000001
 40
0.0
 40
0.0
 40
0.0
 40
0.0
 40
0.1756309390576459
 40
0.5722716397218831
 40
0.7585777604340197
 40
0.9206972384657642
 40
0.9999999999999999
 40
0.9999999999999999
 40
0.9999999999999999
 40
0.9999999999999999
 10
244.6906289352163
 20
507.0987245178114
 30
0.0
 10
244.6250716417499
 20
507.089553504128
 30
0.0
 10
244.4114613289598
 20
507.0596708930879
 30
0.0
 10
244.1955058562743
 20
506.9857446658541
 30
0.0
 10
244.0343906967535
 20
506.7708178483863
 30
0.0
 10
244.0031516165523
 20
506.6105585930594
 30
0.0
 10
244.0341525394257
 20
506.5318876794224
 30
0.0
 10
244.0443357719168
 20
506.5060457324873
 30
0.0
  0
LINE
  5
149
330
1F
100
AcDbEntity
  8
0
  6
Continuous
 62
     7
370
    15
100
AcDbLine
 10
244.2018261446
 20
497.8082975483
 30
0.0
 11
243.0833598865
 21
497.8082975483
 31
0.0
  0
LINE
  5
14A
330
1F
100
AcDbEntity
  8
0
  6
Continuous
 62
     7
370
    15
100
AcDbLine
 10
243.0833598865
 20
497.0082989073
 30
0.0
 11
244.8420694364
 21
497.0082989073
 31
0.0
  0
LINE
  5
14B
330
1F
100
AcDbEntity
  8
0
  6
Continuous
 62
     7
370
    15
100
AcDbLine
 10
241.6730692877
 20
510.6060406303
 30
0.0
 11
241.6730692877
 21
510.6595059967
 31
0.0
  0
LINE
  5
14C
330
1F
100
AcDbEntity
  8
0
  6
Continuous
 62
     7
370
    15
100
AcDbLine
 10
238.6730781091
 20
510.6595059967
 30
0.0
 11
238.6730781091
 21
510.6060406303
 31
0.0
  0
SPLINE
  5
14D
330
1F
100
AcDbEntity
  8
0
  6
Continuous
 62
     7
370
    15
100
AcDbSpline
210
0.0
220
0.0
230
1.0
 70
     8
 71
     3
 72
    15
 73
    11
 74
     0
 42
0.00000001
 43
0.00000001
 40
0.0
 40
0.0
 40
0.0
 40
0.0
 40
0.1077555984635169
 40
0.23525132098926
 40
0.3627905294629136
 40
0.4902569079919491
 40
0.6176632052480955
 40
0.745097043409137
 40
0.8724966518631685
 40
1.0
 40
1.0
 40
1.0
 40
1.0
 10
238.6891266597494
 20
494.6060380077254
 30
0.0
 10
238.7056657883705
 20
494.2935157628521
 30
0.0
 10
238.7417739062931
 20
493.6112192326179
 30
0.0
 10
239.077986601081
 20
492.6020713396094
 30
0.0
 10
239.6360661286778
 20
491.6385926149084
 30
0.0
 10
240.3908913780628
 20
490.8176651204698
 30
0.0
 10
241.3060554778737
 20
490.1823996738234
 30
0.0
 10
242.3333109351041
 20
489.7622388224059
 30
0.0
 10
243.4292885837887
 20
489.5484377918112
 30
0.0
 10
244.1650490206397
 20
489.6139622731594
 30
0.0
 10
244.5330789579138
 20
489.6467378473174
 30
0.0
  0
SPLINE
  5
14E
330
1F
100
AcDbEntity
  8
0
  6
Continuous
 62
     7
370
    15
100
AcDbSpline
210
0.0
220
0.0
230
1.0
 70
     8
 71
     3
 72
    15
 73
    11
 74
     0
 42
0.00000001
 43
0.00000001
 40
0.0
 40
0.0
 40
0.0
 40
0.0
 40
0.1316521354348152
 40
0.2633118201212764
 40
0.3951917953559327
 40
0.526671388426647
 40
0.65754729503632
 40
0.7882158253461952
 40
0.9184607471072531
 40
1.0
 40
1.0
 40
1.0
 40
1.0
 10
244.0353950752005
 20
492.6044246292006
 30
0.0
 10
243.8832119128928
 20
492.592609443315
 30
0.0
 10
243.5788368617273
 20
492.5689783940327
 30
0.0
 10
243.1279661135008
 20
492.6704534398234
 30
0.0
 10
242.7089416015492
 20
492.8573191055606
 30
0.0
 10
242.3385425855022
 20
493.1299065486431
 30
0.0
 10
242.0362902812871
 20
493.4758276171443
 30
0.0
 10
241.8171219729959
 20
493.8775266194231
 30
0.0
 10
241.6997642126428
 20
494.2638425307623
 30
0.0
 10
241.6895813021769
 20
494.5109131015143
 30
0.0
 10
241.685660768865
 20
494.6060380077254
 30
0.0
  0
SPLINE
  5
14F
330
1F
100
AcDbEntity
  8
0
  6
Continuous
 62
     7
370
    15
100
AcDbSpline
210
0.0
220
0.0
230
1.0
 70
     8
 71
     3
 72
    15
 73
    11
 74
     0
 42
0.00000001
 43
0.00000001
 40
0.0
 40
0.0
 40
0.0
 40
0.0
 40
0.1249272078069247
 40
0.2499157485592948
 40
0.3749662286529669
 40
0.4999575604502636
 40
0.6249202964107985
 40
0.7499168349327715
 40
0.8748745705603984
 40
1.0
 40
1.0
 40
1.0
 40
1.0
 10
244.7039505733237
 20
515.5365666484724
 30
0.0
 10
244.3375739292396
 20
515.5798992224735
 30
0.0
 10
243.6046407686554
 20
515.6665856445793
 30
0.0
 10
242.5006175779545
 20
515.501386667291
 30
0.0
 10
241.4598160270203
 20
515.1124637197383
 30
0.0
 10
240.524627288255
 20
514.5074441698414
 30
0.0
 10
239.7439894794295
 20
513.7112446429205
 30
0.0
 10
239.1560121277749
 20
512.7668902260227
 30
0.0
 10
238.7601935544718
 20
511.7184406527857
 30
0.0
 10
238.7021295692304
 20
510.9793204910662
 30
0.0
 10
238.6730781091436
 20
510.6095126008879
 30
0.0
  0
SPLINE
  5
150
330
1F
100
AcDbEntity
  8
0
  6
Continuous
 62
     7
370
    15
100
AcDbSpline
210
0.0
220
0.0
230
1.0
 70
     8
 71
     3
 72
    15
 73
    11
 74
     0
 42
0.00000001
 43
0.00000001
 40
0.0
 40
0.0
 40
0.0
 40
0.0
 40
0.1242509140045811
 40
0.2486326179325958
 40
0.3735412406986008
 40
0.4985814846812553
 40
0.6236640608718481
 40
0.7490707212300203
 40
0.8744364065825835
 40
0.9999999999999999
 40
0.9999999999999999
 40
0.9999999999999999
 40
0.9999999999999999
 10
241.6730692876562
 20
510.6095126008879
 30
0.0
 10
241.6866335932502
 20
510.7614653890358
 30
0.0
 10
241.7137764825989
 20
511.0655309150083
 30
0.0
 10
241.8882265236658
 20
511.4928486662893
 30
0.0
 10
242.1415613114301
 20
511.8744905159564
 30
0.0
 10
242.471379792496
 20
512.1944264157444
 30
0.0
 10
242.8623114741524
 20
512.4349946490132
 30
0.0
 10
243.2950038073224
 20
512.5866332986125
 30
0.0
 10
243.7525409326977
 20
512.6400653539382
 30
0.0
 10
244.0544586258217
 20
512.5993850649693
 30
0.0
 10
244.2055365337118
 20
512.579028878201
 30
0.0
  0
LINE
  5
151
330
1F
100
AcDbEntity
  8
0
  6
Continuous
 62
     7
370
    15
100
AcDbLine
 10
259.5761290086
 20
495.221172843
 30
0.0
 11
244.0351715578
 21
492.6047524547
 31
0.0
  0
LINE
  5
152
330
1F
100
AcDbEntity
  8
0
  6
Continuous
 62
     7
370
    15
100
AcDbLine
 10
244.5332279695
 20
489.6463951206
 30
0.0
 11
260.0742003216
 21
492.2628155088
 31
0.0
  0
LINE
  5
153
330
1F
100
AcDbEntity
  8
0
  6
Continuous
 62
     7
370
    15
100
AcDbLine
 10
244.20574515
 20
512.5785967445
 30
0.0
 11
259.746717502
 21
509.9621912575
 31
0.0
  0
LINE
  5
154
330
1F
100
AcDbEntity
  8
0
  6
Continuous
 62
     7
370
    15
100
AcDbLine
 10
260.2447739137
 20
512.9205485916
 30
0.0
 11
244.7038164629
 21
515.5369689798
 31
0.0
  0
SPLINE
  5
155
330
1F
100
AcDbEntity
  8
0
  6
Continuous
 62
     7
370
    15
100
AcDbSpline
210
0.0
220
0.0
230
1.0
 70
     8
 71
     3
 72
    12
 73
     8
 74
     0
 42
0.00000001
 43
0.00000001
 40
0.0
 40
0.0
 40
0.0
 40
0.0
 40
0.1526135397173891
 40
0.2973904856902686
 40
0.5623705157137553
 40
0.7966016097880517
 40
1.0
 40
1.0
 40
1.0
 40
1.0
 10
260.0738426936849
 20
492.2631135320555
 30
0.0
 10
260.3250624432129
 20
492.3158512491494
 30
0.0
 10
260.8146019917054
 20
492.4186186401017
 30
0.0
 10
261.6641226034497
 20
492.8478714233123
 30
0.0
 10
262.4761123452279
 20
493.5922655982
 30
0.0
 10
263.0405623996099
 20
494.6633043152536
 30
0.0
 10
263.1222498009604
 20
495.398232803333
 30
0.0
 10
263.1602159036382
 20
495.7398077583205
 30
0.0
  0
SPLINE
  5
156
330
1F
100
AcDbEntity
  8
0
  6
Continuous
 62
     7
370
    15
100
AcDbSpline
210
0.0
220
0.0
230
1.0
 70
     8
 71
     3
 72
    11
 73
     7
 74
     0
 42
0.00000001
 43
0.00000001
 40
0.0
 40
0.0
 40
0.0
 40
0.0
 40
0.2003641189614822
 40
0.4328060802232906
 40
0.699024866168115
 40
0.9999999999999999
 40
0.9999999999999999
 40
0.9999999999999999
 40
0.9999999999999999
 10
260.1618936551794
 20
495.7398077583205
 30
0.0
 10
260.1486670072753
 20
495.6833793633957
 30
0.0
 10
260.120096155051
 20
495.5614885151378
 30
0.0
 10
260.0042013348454
 20
495.3957890408276
 30
0.0
 10
259.8194697287788
 20
495.2568713819866
 30
0.0
 10
259.6618430897652
 20
495.2334903304739
 30
0.0
 10
259.5782002700552
 20
495.2210834360014
 30
0.0
  0
SPLINE
  5
157
330
1F
100
AcDbEntity
  8
0
  6
Continuous
 62
     7
370
    15
100
AcDbSpline
210
0.0
220
0.0
230
1.0
 70
     8
 71
     3
 72
    12
 73
     8
 74
     0
 42
0.00000001
 43
0.00000001
 40
0.0
 40
0.0
 40
0.0
 40
0.0
 40
0.2034077395159399
 40
0.4376398100905015
 40
0.7026157371473919
 40
0.8473894130122702
 40
0.9999999999999999
 40
0.9999999999999999
 40
0.9999999999999999
 40
0.9999999999999999
 10
263.1602159036382
 20
509.2984339332472
 30
0.0
 10
263.1387751836157
 20
509.6414445245028
 30
0.0
 10
263.0926446250577
 20
510.379445400838
 30
0.0
 10
262.5805456943629
 20
511.4765543887212
 30
0.0
 10
261.8053451254442
 20
512.2593187130603
 30
0.0
 10
260.9774882721027
 20
512.7290325386864
 30
0.0
 10
260.4935019186577
 20
512.855302692925
 30
0.0
 10
260.2451315416082
 20
512.920101556767
 30
0.0
  0
SPLINE
  5
158
330
1F
100
AcDbEntity
  8
0
  6
Continuous
 62
     7
370
    15
100
AcDbSpline
210
0.0
220
0.0
230
1.0
 70
     8
 71
     3
 72
    12
 73
     8
 74
     0
 42
0.00000001
 43
0.00000001
 40
0.0
 40
0.0
 40
0.0
 40
0.0
 40
0.1555606298326515
 40
0.3022104918759382
 40
0.5679679576816538
 40
0.7999533683161958
 40
0.9999999999999999
 40
0.9999999999999999
 40
0.9999999999999999
 40
0.9999999999999999
 10
259.7447952522024
 20
509.9631002282987
 30
0.0
 10
259.7853424545727
 20
509.9473501854166
 30
0.0
 10
259.864114249118
 20
509.9167522879175
 30
0.0
 10
259.99374104846
 20
509.8217152463311
 30
0.0
 10
260.1081826942429
 20
509.6755354540965
 30
0.0
 10
260.1723101695457
 20
509.4812830203786
 30
0.0
 10
260.1651903786706
 20
509.3563038559191
 30
0.0
 10
260.1618936551794
 20
509.2984339332472
 30
0.0
  0
LINE
  5
159
330
1F
100
AcDbEntity
  8
0
  6
Continuous
 62
     7
370
    15
100
AcDbLine
 10
260.1610591902
 20
509.3484422302
 30
0.0
 11
260.1610591902
 21
509.1060450411
 31
0.0
  0
LINE
  5
15A
330
1F
100
AcDbEntity
  8
0
  6
Continuous
 62
     7
370
    15
100
AcDbLine
 10
260.1610591902
 20
496.106033597
 30
0.0
 11
260.1610591902
 21
495.6897994614
 31
0.0
  0
LINE
  5
15B
330
1F
100
AcDbEntity
  8
0
  6
Continuous
 62
     7
370
    15
100
AcDbLine
 10
263.1610503687
 20
495.6897994614
 30
0.0
 11
263.1610503687
 21
496.1087903118
 31
0.0
  0
LINE
  5
15C
330
1F
100
AcDbEntity
  8
0
  6
Continuous
 62
     7
370
    15
100
AcDbLine
 10
263.1610503687
 20
509.1032883263
 30
0.0
 11
263.1610503687
 21
509.3484422302
 31
0.0
  0
LINE
  5
15D
330
1F
100
AcDbEntity
  8
0
  6
Continuous
 62
     7
370
    15
100
AcDbLine
 10
249.4603416218
 20
508.2060447073
 30
0.0
 11
247.8420606149
 21
508.2060447073
 31
0.0
  0
LINE
  5
15E
330
1F
100
AcDbEntity
  8
0
  6
Continuous
 62
     7
370
    15
100
AcDbLine
 10
248.4689822687
 20
507.4060460663
 30
0.0
 11
249.4603416218
 21
507.4060460663
 31
0.0
  0
LINE
  5
15F
330
1F
100
AcDbEntity
  8
0
  6
Continuous
 62
     7
370
    15
100
AcDbLine
 10
249.7985681785
 20
509.4741782284
 30
0.0
 11
249.5320460094
 21
508.2659324741
 31
0.0
  0
LINE
  5
160
330
1F
100
AcDbEntity
  8
0
  6
Continuous
 62
     7
370
    15
100
AcDbLine
 10
250.300200869
 20
508.0343833303
 30
0.0
 11
250.5797764553
 21
509.3018462992
 31
0.0
  0
SPLINE
  5
161
330
1F
100
AcDbEntity
  8
0
  6
Continuous
 62
     7
370
    15
100
AcDbSpline
210
0.0
220
0.0
230
1.0
 70
     8
 71
     3
 72
    11
 73
     7
 74
     0
 42
0.00000001
 43
0.00000001
 40
0.0
 40
0.0
 40
0.0
 40
0.0
 40
0.2541311630691059
 40
0.5022676364033828
 40
0.7495179365131207
 40
1.0
 40
1.0
 40
1.0
 40
1.0
 10
249.460341621755
 20
507.4060460662733
 30
0.0
 10
249.5604300550505
 20
507.4162911905257
 30
0.0
 10
249.7582459396334
 20
507.4365397672084
 30
0.0
 10
250.0163975267827
 20
507.5905654041118
 30
0.0
 10
250.2198389440551
 20
507.80964663536
 30
0.0
 10
250.2815749236844
 20
507.9966966607503
 30
0.0
 10
250.3126433385595
 20
508.0908289289366
 30
0.0
  0
LINE
  5
162
330
1F
100
AcDbEntity
  8
0
  6
Continuous
 62
     7
370
    15
100
AcDbLine
 10
249.0720620645
 20
494.6060380077
 30
0.0
 11
249.0720620645
 21
495.4060366487
 31
0.0
  0
LINE
  5
163
330
1F
100
AcDbEntity
  8
0
  6
Continuous
 62
     7
370
    15
100
AcDbLine
 10
249.0720620645
 20
509.8060419893
 30
0.0
 11
249.0720620645
 21
510.6060406303
 31
0.0
  0
LINE
  5
164
330
1F
100
AcDbEntity
  8
0
  6
Continuous
 62
     7
370
    15
100
AcDbLine
 10
244.1420724882
 20
510.9060457086
 30
0.0
 11
244.1420724882
 21
510.6060406303
 31
0.0
  0
LINE
  5
165
330
1F
100
AcDbEntity
  8
0
  6
Continuous
 62
     7
370
    15
100
AcDbLine
 10
248.5420724643
 20
510.6060406303
 30
0.0
 11
248.5420724643
 21
510.9060457086
 31
0.0
  0
ARC
  5
166
330
1F
100
AcDbEntity
  8
0
  6
Continuous
 62
     7
370
    15
100
AcDbCircle
 10
246.3420651973
 20
507.798897058
 30
0.0
 40
3.807142857143229
100
AcDbArc
 50
54.6997515601
 51
125.3002484399
  0
LINE
  5
167
330
1F
100
AcDbEntity
  8
0
  6
Continuous
 62
     7
370
    15
100
AcDbLine
 10
244.2420592798
 20
494.2060461378
 30
0.0
 11
244.2420592798
 21
493.8060393667
 31
0.0
  0
LINE
  5
168
330
1F
100
AcDbEntity
  8
0
  6
Continuous
 62
     7
370
    15
100
AcDbLine
 10
248.4420707716
 20
493.8060393667
 30
0.0
 11
248.4420707716
 21
494.2060461378
 31
0.0
  0
ARC
  5
169
330
1F
100
AcDbEntity
  8
0
  6
Continuous
 62
     7
370
    15
100
AcDbCircle
 10
244.4420651973
 20
494.6060399151
 30
0.0
 40
0.4000000000007731
100
AcDbArc
 50
270.0
 51
0.0
  0
ARC
  5
16A
330
1F
100
AcDbEntity
  8
0
  6
Continuous
 62
     7
370
    15
100
AcDbCircle
 10
248.2420651973
 20
494.6060399151
 30
0.0
 40
0.4000000000008015
100
AcDbArc
 50
180.0
 51
270.0
  0
LINE
  5
16B
330
1F
100
AcDbEntity
  8
0
  6
Continuous
 62
     7
370
    15
100
AcDbLine
 10
244.8420694364
 20
509.8060419893
 30
0.0
 11
244.8420694364
 21
509.3560418224
 31
0.0
  0
LINE
  5
16C
330
1F
100
AcDbEntity
  8
0
  6
Continuous
 62
     7
370
    15
100
AcDbLine
 10
244.8420694364
 20
508.3560397959
 30
0.0
 11
244.8420694364
 21
507.8673413134
 31
0.0
  0
LINE
  5
16D
330
1F
100
AcDbEntity
  8
0
  6
Continuous
 62
     7
370
    15
100
AcDbLine
 10
244.8420694364
 20
507.0712169742
 30
0.0
 11
244.8420694364
 21
506.9015821552
 31
0.0
  0
LINE
  5
16E
330
1F
100
AcDbEntity
  8
0
  6
Continuous
 62
     7
370
    15
100
AcDbLine
 10
244.8420694364
 20
497.6164152956
 30
0.0
 11
244.8420694364
 21
496.8560388422
 31
0.0
  0
LINE
  5
16F
330
1F
100
AcDbEntity
  8
0
  6
Continuous
 62
     7
370
    15
100
AcDbLine
 10
244.8420694364
 20
495.8560368156
 30
0.0
 11
244.8420694364
 21
495.4060366487
 31
0.0
  0
LINE
  5
170
330
1F
100
AcDbEntity
  8
0
  6
Continuous
 62
     7
370
    15
100
AcDbLine
 10
247.8420606149
 20
495.4060366487
 30
0.0
 11
247.8420606149
 21
495.8560368156
 31
0.0
  0
LINE
  5
171
330
1F
100
AcDbEntity
  8
0
  6
Continuous
 62
     7
370
    15
100
AcDbLine
 10
247.8420606149
 20
496.8560388422
 30
0.0
 11
247.8420606149
 21
497.3431876039
 31
0.0
  0
LINE
  5
172
330
1F
100
AcDbEntity
  8
0
  6
Continuous
 62
     7
370
    15
100
AcDbLine
 10
247.8420606149
 20
506.6510936355
 30
0.0
 11
247.8420606149
 21
506.8390419817
 31
0.0
  0
LINE
  5
173
330
1F
100
AcDbEntity
  8
0
  6
Continuous
 62
     7
370
    15
100
AcDbLine
 10
247.8420606149
 20
507.5941136217
 30
0.0
 11
247.8420606149
 21
508.3560397959
 31
0.0
  0
LINE
  5
174
330
1F
100
AcDbEntity
  8
0
  6
Continuous
 62
     7
370
    15
100
AcDbLine
 10
247.8420606149
 20
509.3560418224
 30
0.0
 11
247.8420606149
 21
509.8060419893
 31
0.0
  0
LINE
  5
175
330
1F
100
AcDbEntity
  8
0
  6
Continuous
 62
     7
370
    15
100
AcDbLine
 10
249.0720620645
 20
24.6060391998
 30
0.0
 11
249.0720620645
 21
25.4060378408
 31
0.0
  0
LINE
  5
176
330
1F
100
AcDbEntity
  8
0
  6
Continuous
 62
     7
370
    15
100
AcDbLine
 10
249.0720620645
 20
39.8060431814
 30
0.0
 11
249.0720620645
 21
40.6060418224
 31
0.0
  0
LINE
  5
177
330
1F
100
AcDbEntity
  8
0
  6
Continuous
 62
     7
370
    15
100
AcDbLine
 10
244.1420724882
 20
40.9060469007
 30
0.0
 11
244.1420724882
 21
40.6060418224
 31
0.0
  0
LINE
  5
178
330
1F
100
AcDbEntity
  8
0
  6
Continuous
 62
     7
370
    15
100
AcDbLine
 10
248.5420724643
 20
40.6060418224
 30
0.0
 11
248.5420724643
 21
40.9060469007
 31
0.0
  0
ARC
  5
179
330
1F
100
AcDbEntity
  8
0
  6
Continuous
 62
     7
370
    15
100
AcDbCircle
 10
246.3420651973
 20
37.798897058
 30
0.0
 40
3.807142857143287
100
AcDbArc
 50
54.6997515601
 51
125.3002484399
  0
LINE
  5
17A
330
1F
100
AcDbEntity
  8
0
  6
Continuous
 62
     7
370
    15
100
AcDbLine
 10
244.2420592798
 20
24.2060473299
 30
0.0
 11
244.2420592798
 21
23.8060405588
 31
0.0
  0
LINE
  5
17B
330
1F
100
AcDbEntity
  8
0
  6
Continuous
 62
     7
370
    15
100
AcDbLine
 10
248.4420707716
 20
23.8060405588
 30
0.0
 11
248.4420707716
 21
24.2060473299
 31
0.0
  0
ARC
  5
17C
330
1F
100
AcDbEntity
  8
0
  6
Continuous
 62
     7
370
    15
100
AcDbCircle
 10
244.4420651973
 20
24.6060399151
 30
0.0
 40
0.4000000000007731
100
AcDbArc
 50
270.0
 51
0.0
  0
ARC
  5
17D
330
1F
100
AcDbEntity
  8
0
  6
Continuous
 62
     7
370
    15
100
AcDbCircle
 10
248.2420651973
 20
24.6060399151
 30
0.0
 40
0.4000000000007731
100
AcDbArc
 50
180.0
 51
270.0
  0
LINE
  5
17E
330
1F
100
AcDbEntity
  8
0
  6
Continuous
 62
     7
370
    15
100
AcDbLine
 10
244.8420694364
 20
39.8060431814
 30
0.0
 11
244.8420694364
 21
39.3560430145
 31
0.0
  0
LINE
  5
17F
330
1F
100
AcDbEntity
  8
0
  6
Continuous
 62
     7
370
    15
100
AcDbLine
 10
244.8420694364
 20
38.356040988
 30
0.0
 11
244.8420694364
 21
37.8673425054
 31
0.0
  0
LINE
  5
180
330
1F
100
AcDbEntity
  8
0
  6
Continuous
 62
     7
370
    15
100
AcDbLine
 10
244.8420694364
 20
37.0712181663
 30
0.0
 11
244.8420694364
 21
36.9155308342
 31
0.0
  0
LINE
  5
181
330
1F
100
AcDbEntity
  8
0
  6
Continuous
 62
     7
370
    15
100
AcDbLine
 10
244.8420694364
 20
27.6164164877
 30
0.0
 11
244.8420694364
 21
26.8560400343
 31
0.0
  0
LINE
  5
182
330
1F
100
AcDbEntity
  8
0
  6
Continuous
 62
     7
370
    15
100
AcDbLine
 10
244.8420694364
 20
25.8560380077
 30
0.0
 11
244.8420694364
 21
25.4060378408
 31
0.0
  0
LINE
  5
183
330
1F
100
AcDbEntity
  8
0
  6
Continuous
 62
     7
370
    15
100
AcDbLine
 10
247.8420606149
 20
25.4060378408
 30
0.0
 11
247.8420606149
 21
25.8560380077
 31
0.0
  0
LINE
  5
184
330
1F
100
AcDbEntity
  8
0
  6
Continuous
 62
     7
370
    15
100
AcDbLine
 10
247.8420606149
 20
26.8560400343
 30
0.0
 11
247.8420606149
 21
27.343188796
 31
0.0
  0
LINE
  5
185
330
1F
100
AcDbEntity
  8
0
  6
Continuous
 62
     7
370
    15
100
AcDbLine
 10
247.8420606149
 20
36.6510948276
 30
0.0
 11
247.8420606149
 21
36.8390431738
 31
0.0
  0
LINE
  5
186
330
1F
100
AcDbEntity
  8
0
  6
Continuous
 62
     7
370
    15
100
AcDbLine
 10
247.8420606149
 20
37.5941148138
 30
0.0
 11
247.8420606149
 21
38.356040988
 31
0.0
  0
LINE
  5
187
330
1F
100
AcDbEntity
  8
0
  6
Continuous
 62
     7
370
    15
100
AcDbLine
 10
247.8420606149
 20
39.3560430145
 30
0.0
 11
247.8420606149
 21
39.8060431814
 31
0.0
  0
SPLINE
  5
188
330
1F
100
AcDbEntity
  8
0
  6
Continuous
 62
     7
370
    15
100
AcDbSpline
210
0.0
220
0.0
230
1.0
 70
     8
 71
     3
 72
    15
 73
    11
 74
     0
 42
0.00000001
 43
0.00000001
 40
0.0
 40
0.0
 40
0.0
 40
0.0
 40
0.135596524218426
 40
0.2953255930354361
 40
0.4038106354482965
 40
0.5319576936985174
 40
0.6738361567850103
 40
0.826100990935627
 40
0.9126193315542663
 40
0.9999999999999999
 40
0.9999999999999999
 40
0.9999999999999999
 40
0.9999999999999999
 10
247.842060614942
 20
27.17207876204358
 30
0.0
 10
247.8864428832164
 20
27.16475835209492
 30
0.0
 10
247.9831062731813
 20
27.14881469556094
 30
0.0
 10
248.1899565110281
 20
27.19648564667004
 30
0.0
 10
248.3832131299059
 20
27.28420141522772
 30
0.0
 10
248.5298010851284
 20
27.40386898789804
 30
0.0
 10
248.6285081636058
 20
27.55477705956966
 30
0.0
 10
248.6581645175654
 20
27.67660500414798
 30
0.0
 10
248.6369951886186
 20
27.80585608583805
 30
0.0
 10
248.5907374205457
 20
27.8725321223301
 30
0.0
 10
248.5674938453421
 20
27.90603545664652
 30
0.0
  0
SPLINE
  5
189
330
1F
100
AcDbEntity
  8
0
  6
Continuous
 62
     7
370
    15
100
AcDbSpline
210
0.0
220
0.0
230
1.0
 70
     8
 71
     3
 72
    20
 73
    16
 74
     0
 42
0.00000001
 43
0.00000001
 40
0.0
 40
0.0
 40
0.0
 40
0.0
 40
0.0607080703525387
 40
0.2265356748708075
 40
0.3908031508966114
 40
0.47059448168422
 40
0.5476204260356007
 40
0.6228574358877381
 40
0.7003372698834802
 40
0.7786473610714315
 40
0.8566576136431394
 40
0.9330986217031314
 40
0.9703734372930525
 40
0.9892322546654578
 40
1.0
 40
1.0
 40
1.0
 40
1.0
 10
244.1058626664862
 20
27.90603545664655
 30
0.0
 10
244.1521375348892
 20
27.85270401100631
 30
0.0
 10
244.3248148821077
 20
27.6536946377913
 30
0.0
 10
244.7417733059515
 20
27.6357677798352
 30
0.0
 10
245.3067422921403
 20
27.56074252855018
 30
0.0
 10
245.826352607561
 20
27.51780482200336
 30
0.0
 10
246.220243686616
 20
27.48724424647223
 30
0.0
 10
246.6131555124799
 20
27.45957224844323
 30
0.0
 10
246.9943168900062
 20
27.42826360609055
 30
0.0
 10
247.3500408940073
 20
27.39578127696132
 30
0.0
 10
247.6526639848548
 20
27.36497933601045
 30
0.0
 10
247.8451810155719
 20
27.34204381875607
 30
0.0
 10
247.9332960910612
 20
27.334037477356
 30
0.0
 10
247.9787232111421
 20
27.32624231017289
 30
0.0
 10
247.9781737920313
 20
27.33020145043757
 30
0.0
 10
247.9779741061911
 20
27.3316403961073
 30
0.0
  0
SPLINE
  5
18A
330
1F
100
AcDbEntity
  8
0
  6
Continuous
 62
     7
370
    15
100
AcDbSpline
210
0.0
220
0.0
230
1.0
 70
     8
 71
     3
 72
    18
 73
    14
 74
     0
 42
0.00000001
 43
0.00000001
 40
0.0
 40
0.0
 40
0.0
 40
0.0
 40
0.0057509055707785
 40
0.1156365942108736
 40
0.2383917546761024
 40
0.3593077580000205
 40
0.4757061783838784
 40
0.5872136758512743
 40
0.7047343241619957
 40
0.8265029199285094
 40
0.8891450723957606
 40
0.9517986371317534
 40
1.0
 40
1.0
 40
1.0
 40
1.0
 10
248.3486851943716
 20
36.55286637305127
 30
0.0
 10
248.3440379613635
 20
36.55581856890269
 30
0.0
 10
248.2505935131882
 20
36.61517998068447
 30
0.0
 10
248.0282872067985
 20
36.62135804036853
 30
0.0
 10
247.6368888145762
 20
36.68056052355146
 30
0.0
 10
247.1250107099436
 20
36.72609732259541
 30
0.0
 10
246.573978567702
 20
36.77226409066539
 30
0.0
 10
246.0118625504774
 20
36.81114375395936
 30
0.0
 10
245.4775798551752
 20
36.85589640731484
 30
0.0
 10
245.0799606290935
 20
36.89693813739333
 30
0.0
 10
244.8652103689345
 20
36.91808472547814
 30
0.0
 10
244.7691664989773
 20
36.92036036472074
 30
0.0
 10
244.753717487016
 20
36.90428264383347
 30
0.0
 10
244.7470000280126
 20
36.89729181288587
 30
0.0
  0
SPLINE
  5
18B
330
1F
100
AcDbEntity
  8
0
  6
Continuous
 62
     7
370
    15
100
AcDbSpline
210
0.0
220
0.0
230
1.0
 70
     8
 71
     3
 72
    12
 73
     8
 74
     0
 42
0.00000001
 43
0.00000001
 40
0.0
 40
0.0
 40
0.0
 40
0.0
 40
0.2236856574660879
 40
0.4523148467253754
 40
0.6822432501024078
 40
0.9102240817873222
 40
1.0
 40
1.0
 40
1.0
 40
1.0
 10
244.0477630389913
 20
37.70788517950879
 30
0.0
 10
244.0350294592118
 20
37.66534275439859
 30
0.0
 10
244.0092808830561
 20
37.57931770160347
 30
0.0
 10
244.1304083463006
 20
37.48769494693904
 30
0.0
 10
244.3620800185786
 20
37.39136769612963
 30
0.0
 10
244.6069409664851
 20
37.32890541366091
 30
0.0
 10
244.7902726703319
 20
37.33410938684037
 30
0.0
 10
244.8420694364294
 20
37.33557966708051
 30
0.0
  0
SPLINE
  5
18C
330
1F
100
AcDbEntity
  8
0
  6
Continuous
 62
     7
370
    15
100
AcDbSpline
210
0.0
220
0.0
230
1.0
 70
     8
 71
     3
 72
    19
 73
    15
 74
     0
 42
0.00000001
 43
0.00000001
 40
0.0
 40
0.0
 40
0.0
 40
0.0
 40
0.0979059644884441
 40
0.1753775414340639
 40
0.2884835391288617
 40
0.3734530151137901
 40
0.4570037991889359
 40
0.6168875043033528
 40
0.6796675376044611
 40
0.7634258838896796
 40
0.8137553798795975
 40
0.87029854671839
 40
0.932400262122324
 40
1.0
 40
1.0
 40
1.0
 40
1.0
 10
244.223999072431
 20
37.21276429652079
 30
0.0
 10
244.2745068369181
 20
37.18638306221283
 30
0.0
 10
244.3649806666317
 20
37.13912673787053
 30
0.0
 10
244.7396417349464
 20
37.07847962251867
 30
0.0
 10
245.226127297722
 20
37.02458826214198
 30
0.0
 10
245.8174719044443
 20
36.97136462846268
 30
0.0
 10
246.5715670687439
 20
36.9198149196317
 30
0.0
 10
247.2126761133896
 20
36.85287669142065
 30
0.0
 10
247.8619319328568
 20
36.81735911770953
 30
0.0
 10
248.240277187475
 20
36.89553945753557
 30
0.0
 10
248.4921192511129
 20
37.00374892584949
 30
0.0
 10
248.6257098046354
 20
37.09206794973888
 30
0.0
 10
248.6874840208369
 20
37.16590823293911
 30
0.0
 10
248.6160400572136
 20
37.24643332319489
 30
0.0
 10
248.5788038266882
 20
37.28840259074079
 30
0.0
  0
SPLINE
  5
18D
330
1F
100
AcDbEntity
  8
0
  6
Continuous
 62
     7
370
    15
100
AcDbSpline
210
0.0
220
0.0
230
1.0
 70
     8
 71
     3
 72
    25
 73
    21
 74
     0
 42
0.00000001
 43
0.00000001
 40
0.0
 40
0.0
 40
0.0
 40
0.0
 40
0.0176277496452752
 40
0.0344974659164648
 40
0.0503153655365016
 40
0.0649724010491646
 40
0.0909444597833625
 40
0.113437148394622
 40
0.1538399471442875
 40
0.1912336503716957
 40
0.2995702728358309
 40
0.3999628847938618
 40
0.5012948169500224
 40
0.594905109583101
 40
0.6784865294371866
 40
0.7336285575858053
 40
0.807518368220248
 40
0.8952813637324751
 40
0.9453088361668351
 40
1.0
 40
1.0
 40
1.0
 40
1.0
 10
248.2214888824209
 20
36.66282204150068
 30
0.0
 10
248.2611987504552
 20
36.66721089025226
 30
0.0
 10
248.3389108717766
 20
36.67579985726549
 30
0.0
 10
248.4407981147239
 20
36.72182213373784
 30
0.0
 10
248.5217979775391
 20
36.78076701253843
 30
0.0
 10
248.5980156123485
 20
36.86434791018067
 30
0.0
 10
248.6510512944711
 20
36.96798336309387
 30
0.0
 10
248.6752329841525
 20
37.10034146847799
 30
0.0
 10
248.6523242802838
 20
37.23219166531616
 30
0.0
 10
248.4810922501736
 20
37.47739852936985
 30
0.0
 10
248.1383041558508
 20
37.56449085036859
 30
0.0
 10
247.6431910203081
 20
37.62304939530522
 30
0.0
 10
247.0299788310337
 20
37.68139328335459
 30
0.0
 10
246.3805066353258
 20
37.73101644254601
 30
0.0
 10
245.8408150999757
 20
37.77050446978636
 30
0.0
 10
245.3947891738857
 20
37.80968015411601
 30
0.0
 10
245.0061005918185
 20
37.84790965726675
 30
0.0
 10
244.7459244839151
 20
37.87573833656749
 30
0.0
 10
244.6154931301559
 20
37.89825398984259
 30
0.0
 10
244.6068327761807
 20
37.91071086705106
 30
0.0
 10
244.6023097528204
 20
37.91721669195996
 30
0.0
  0
SPLINE
  5
18E
330
1F
100
AcDbEntity
  8
0
  6
Continuous
 62
     7
370
    15
100
AcDbSpline
210
0.0
220
0.0
230
1.0
 70
     8
 71
     3
 72
    12
 73
     8
 74
     0
 42
0.00000001
 43
0.00000001
 40
0.0
 40
0.0
 40
0.0
 40
0.0
 40
0.1756405672915775
 40
0.5723030121284147
 40
0.7586193462968064
 40
0.9207477118529684
 40
0.9999999999999999
 40
0.9999999999999999
 40
0.9999999999999999
 40
0.9999999999999999
 10
244.6906289352163
 20
37.0987257099043
 30
0.0
 10
244.6250716189971
 20
37.0895547271993
 30
0.0
 10
244.4114612320697
 20
37.05967221709827
 30
0.0
 10
244.195506621743
 20
36.98574481574826
 30
0.0
 10
244.0343895358149
 20
36.77082062111683
 30
0.0
 10
244.0031586059178
 20
36.61057625888387
 30
0.0
 10
244.0341353904151
 20
36.53192878276448
 30
0.0
 10
244.0443059695944
 20
36.50610652922495
 30
0.0
  0
LINE
  5
18F
330
1F
100
AcDbEntity
  8
0
  6
Continuous
 62
     7
370
    15
100
AcDbLine
 10
244.2018261446
 20
27.8082987404
 30
0.0
 11
243.0833598865
 21
27.8082987404
 31
0.0
  0
LINE
  5
190
330
1F
100
AcDbEntity
  8
0
  6
Continuous
 62
     7
370
    15
100
AcDbLine
 10
243.0833598865
 20
27.0083000994
 30
0.0
 11
244.8420694364
 21
27.0083000994
 31
0.0
  0
LINE
  5
191
330
1F
100
AcDbEntity
  8
0
  6
Continuous
 62
     7
370
    15
100
AcDbLine
 10
241.6730692877
 20
40.6060418224
 30
0.0
 11
241.6730692877
 21
40.6595071888
 31
0.0
  0
LINE
  5
192
330
1F
100
AcDbEntity
  8
0
  6
Continuous
 62
     7
370
    15
100
AcDbLine
 10
238.6730781091
 20
40.6595071888
 30
0.0
 11
238.6730781091
 21
40.6060418224
 31
0.0
  0
SPLINE
  5
193
330
1F
100
AcDbEntity
  8
0
  6
Continuous
 62
     7
370
    15
100
AcDbSpline
210
0.0
220
0.0
230
1.0
 70
     8
 71
     3
 72
    15
 73
    11
 74
     0
 42
0.00000001
 43
0.00000001
 40
0.0
 40
0.0
 40
0.0
 40
0.0
 40
0.1077555984635169
 40
0.23525132098926
 40
0.3627905294629136
 40
0.4902569079919491
 40
0.6176632052480955
 40
0.745097043409137
 40
0.8724966518631685
 40
1.0
 40
1.0
 40
1.0
 40
1.0
 10
238.6891266597494
 20
24.60603919981824
 30
0.0
 10
238.7056657883705
 20
24.29351695494494
 30
0.0
 10
238.7417739062931
 20
23.61122042471067
 30
0.0
 10
239.077986601081
 20
22.6020725317024
 30
0.0
 10
239.6360661286778
 20
21.63859380700106
 30
0.0
 10
240.3908913780628
 20
20.81766631256263
 30
0.0
 10
241.3060554778737
 20
20.1824008659163
 30
0.0
 10
242.3333109351041
 20
19.76224001449889
 30
0.0
 10
243.4292885837887
 20
19.54843898390407
 30
0.0
 10
244.1650490206397
 20
19.61396346525232
 30
0.0
 10
244.5330789579138
 20
19.64673903941022
 30
0.0
  0
SPLINE
  5
194
330
1F
100
AcDbEntity
  8
0
  6
Continuous
 62
     7
370
    15
100
AcDbSpline
210
0.0
220
0.0
230
1.0
 70
     8
 71
     3
 72
    15
 73
    11
 74
     0
 42
0.00000001
 43
0.00000001
 40
0.0
 40
0.0
 40
0.0
 40
0.0
 40
0.1316520870973512
 40
0.2633117234435766
 40
0.3951916502571152
 40
0.5266711950537163
 40
0.6575470536109259
 40
0.788211819659142
 40
0.9184607770452461
 40
1.0
 40
1.0
 40
1.0
 40
1.0
 10
244.0353950752005
 20
22.60442582129346
 30
0.0
 10
243.8832119166956
 20
22.59261063740084
 30
0.0
 10
243.5788368731361
 20
22.56897959210422
 30
0.0
 10
243.1279660678308
 20
22.67045460798356
 30
0.0
 10
242.7089417729115
 20
22.85732038745353
 30
0.0
 10
242.3385419491842
 20
23.1299074072826
 30
0.0
 10
242.0362955005841
 20
23.47582677575066
 30
0.0
 10
241.8171146722247
 20
23.87751950473207
 30
0.0
 10
241.6997657897498
 20
24.26383944726373
 30
0.0
 10
241.6895816860033
 20
24.51091442932246
 30
0.0
 10
241.685660768865
 20
24.60603919981824
 30
0.0
  0
SPLINE
  5
195
330
1F
100
AcDbEntity
  8
0
  6
Continuous
 62
     7
370
    15
100
AcDbSpline
210
0.0
220
0.0
230
1.0
 70
     8
 71
     3
 72
    15
 73
    11
 74
     0
 42
0.00000001
 43
0.00000001
 40
0.0
 40
0.0
 40
0.0
 40
0.0
 40
0.1249272078069247
 40
0.2499157485592948
 40
0.3749662286529669
 40
0.4999575604502636
 40
0.6249202964107985
 40
0.7499168349327715
 40
0.8748745705603984
 40
1.0
 40
1.0
 40
1.0
 40
1.0
 10
244.7039505733237
 20
45.53656784056528
 30
0.0
 10
244.3375739292396
 20
45.5799004145663
 30
0.0
 10
243.6046407686554
 20
45.6665868366721
 30
0.0
 10
242.5006175779545
 20
45.50138785938385
 30
0.0
 10
241.4598160270203
 20
45.11246491183124
 30
0.0
 10
240.524627288255
 20
44.50744536193429
 30
0.0
 10
239.7439894794295
 20
43.71124583501324
 30
0.0
 10
239.1560121277749
 20
42.76689141811577
 30
0.0
 10
238.7601935544718
 20
41.71844184487866
 30
0.0
 10
238.7021295692304
 20
40.97932168315904
 30
0.0
 10
238.6730781091436
 20
40.60951379298078
 30
0.0
  0
SPLINE
  5
196
330
1F
100
AcDbEntity
  8
0
  6
Continuous
 62
     7
370
    15
100
AcDbSpline
210
0.0
220
0.0
230
1.0
 70
     8
 71
     3
 72
    15
 73
    11
 74
     0
 42
0.00000001
 43
0.00000001
 40
0.0
 40
0.0
 40
0.0
 40
0.0
 40
0.1242509140045811
 40
0.2486326179325958
 40
0.3735412406986008
 40
0.4985814846812553
 40
0.6236640608718481
 40
0.7490707212300203
 40
0.8744364065825835
 40
0.9999999999999999
 40
0.9999999999999999
 40
0.9999999999999999
 40
0.9999999999999999
 10
241.6730692876562
 20
40.60951379298078
 30
0.0
 10
241.6866335932502
 20
40.76146658112869
 30
0.0
 10
241.7137764825989
 20
41.06553210710121
 30
0.0
 10
241.8882265236658
 20
41.49284985838214
 30
0.0
 10
242.1415613114301
 20
41.8744917080495
 30
0.0
 10
242.471379792496
 20
42.19442760783726
 30
0.0
 10
242.8623114741524
 20
42.43499584110613
 30
0.0
 10
243.2950038073224
 20
42.58663449070518
 30
0.0
 10
243.7525409326977
 20
42.64006654603122
 30
0.0
 10
244.0544586258217
 20
42.59938625706206
 30
0.0
 10
244.2055365337118
 20
42.57903007029401
 30
0.0
  0
LINE
  5
197
330
1F
100
AcDbEntity
  8
0
  6
Continuous
 62
     7
370
    15
100
AcDbLine
 10
259.5761290086
 20
25.2211740351
 30
0.0
 11
244.0351715578
 21
22.6047536468
 31
0.0
  0
LINE
  5
198
330
1F
100
AcDbEntity
  8
0
  6
Continuous
 62
     7
370
    15
100
AcDbLine
 10
244.5332279695
 20
19.6463963127
 30
0.0
 11
260.0742003216
 21
22.2628167009
 31
0.0
  0
LINE
  5
199
330
1F
100
AcDbEntity
  8
0
  6
Continuous
 62
     7
370
    15
100
AcDbLine
 10
244.20574515
 20
42.5785979366
 30
0.0
 11
259.746717502
 21
39.9621775484
 31
0.0
  0
LINE
  5
19A
330
1F
100
AcDbEntity
  8
0
  6
Continuous
 62
     7
370
    15
100
AcDbLine
 10
260.2447739137
 20
42.9205497837
 30
0.0
 11
244.7038164629
 21
45.5369701719
 31
0.0
  0
SPLINE
  5
19B
330
1F
100
AcDbEntity
  8
0
  6
Continuous
 62
     7
370
    15
100
AcDbSpline
210
0.0
220
0.0
230
1.0
 70
     8
 71
     3
 72
    12
 73
     8
 74
     0
 42
0.00000001
 43
0.00000001
 40
0.0
 40
0.0
 40
0.0
 40
0.0
 40
0.1526135397173891
 40
0.2973904856902686
 40
0.5623705157137553
 40
0.7966016097880517
 40
1.0
 40
1.0
 40
1.0
 40
1.0
 10
260.0738426936849
 20
22.26311472414838
 30
0.0
 10
260.3250624432129
 20
22.31585244124232
 30
0.0
 10
260.8146019917054
 20
22.41861983219457
 30
0.0
 10
261.6641226034497
 20
22.84787261540533
 30
0.0
 10
262.4761123452279
 20
23.59226679029286
 30
0.0
 10
263.0405623996099
 20
24.66330550734647
 30
0.0
 10
263.1222498009604
 20
25.39823399542587
 30
0.0
 10
263.1602159036382
 20
25.73980895041333
 30
0.0
  0
SPLINE
  5
19C
330
1F
100
AcDbEntity
  8
0
  6
Continuous
 62
     7
370
    15
100
AcDbSpline
210
0.0
220
0.0
230
1.0
 70
     8
 71
     3
 72
    11
 73
     7
 74
     0
 42
0.00000001
 43
0.00000001
 40
0.0
 40
0.0
 40
0.0
 40
0.0
 40
0.2003641189614822
 40
0.4328060802232906
 40
0.699024866168115
 40
0.9999999999999999
 40
0.9999999999999999
 40
0.9999999999999999
 40
0.9999999999999999
 10
260.1618936551794
 20
25.73980895041331
 30
0.0
 10
260.1486670072753
 20
25.6833805554886
 30
0.0
 10
260.120096155051
 20
25.56148970723063
 30
0.0
 10
260.0042013348454
 20
25.39579023292057
 30
0.0
 10
259.8194697287788
 20
25.25687257407935
 30
0.0
 10
259.6618430897652
 20
25.23349152256682
 30
0.0
 10
259.5782002700552
 20
25.2210846280943
 30
0.0
  0
SPLINE
  5
19D
330
1F
100
AcDbEntity
  8
0
  6
Continuous
 62
     7
370
    15
100
AcDbSpline
210
0.0
220
0.0
230
1.0
 70
     8
 71
     3
 72
    12
 73
     8
 74
     0
 42
0.00000001
 43
0.00000001
 40
0.0
 40
0.0
 40
0.0
 40
0.0
 40
0.2034077395159399
 40
0.4376398100905015
 40
0.7026157371473919
 40
0.8473894130122702
 40
0.9999999999999999
 40
0.9999999999999999
 40
0.9999999999999999
 40
0.9999999999999999
 10
263.1602159036382
 20
39.29843512534009
 30
0.0
 10
263.1387751836157
 20
39.64144571659564
 30
0.0
 10
263.0926446250577
 20
40.3794465929308
 30
0.0
 10
262.5805456943629
 20
41.47655558081411
 30
0.0
 10
261.8053451254442
 20
42.25931990515308
 30
0.0
 10
260.9774882721027
 20
42.72903373077943
 30
0.0
 10
260.4935019186577
 20
42.85530388501793
 30
0.0
 10
260.2451315416082
 20
42.92010274885999
 30
0.0
  0
SPLINE
  5
19E
330
1F
100
AcDbEntity
  8
0
  6
Continuous
 62
     7
370
    15
100
AcDbSpline
210
0.0
220
0.0
230
1.0
 70
     8
 71
     3
 72
    12
 73
     8
 74
     0
 42
0.00000001
 43
0.00000001
 40
0.0
 40
0.0
 40
0.0
 40
0.0
 40
0.1555606298326515
 40
0.3022104918759382
 40
0.5679679576816538
 40
0.7999533683161958
 40
0.9999999999999999
 40
0.9999999999999999
 40
0.9999999999999999
 40
0.9999999999999999
 10
259.7447952522024
 20
39.96310142039167
 30
0.0
 10
259.7853424545727
 20
39.94735137750941
 30
0.0
 10
259.864114249118
 20
39.91675348001039
 30
0.0
 10
259.99374104846
 20
39.82171643842419
 30
0.0
 10
260.1081826942429
 20
39.67553664618936
 30
0.0
 10
260.1723101695457
 20
39.48128421247144
 30
0.0
 10
260.1651903786706
 20
39.35630504801205
 30
0.0
 10
260.1618936551794
 20
39.29843512534009
 30
0.0
  0
LINE
  5
19F
330
1F
100
AcDbEntity
  8
0
  6
Continuous
 62
     7
370
    15
100
AcDbLine
 10
260.1610591902
 20
39.3484285211
 30
0.0
 11
260.1610591902
 21
39.1060462332
 31
0.0
  0
LINE
  5
1A0
330
1F
100
AcDbEntity
  8
0
  6
Continuous
 62
     7
370
    15
100
AcDbLine
 10
260.1610591902
 20
26.1060347891
 30
0.0
 11
260.1610591902
 21
25.6898006534
 31
0.0
  0
LINE
  5
1A1
330
1F
100
AcDbEntity
  8
0
  6
Continuous
 62
     7
370
    15
100
AcDbLine
 10
263.1610503687
 20
25.6898006534
 30
0.0
 11
263.1610503687
 21
26.1087915039
 31
0.0
  0
LINE
  5
1A2
330
1F
100
AcDbEntity
  8
0
  6
Continuous
 62
     7
370
    15
100
AcDbLine
 10
263.1610503687
 20
39.1032895183
 30
0.0
 11
263.1610503687
 21
39.3484285211
 31
0.0
  0
LINE
  5
1A3
330
1F
100
AcDbEntity
  8
0
  6
Continuous
 62
     7
370
    15
100
AcDbLine
 10
249.4603416218
 20
38.2060458994
 30
0.0
 11
247.8420606149
 21
38.2060458994
 31
0.0
  0
LINE
  5
1A4
330
1F
100
AcDbEntity
  8
0
  6
Continuous
 62
     7
370
    15
100
AcDbLine
 10
248.4689822687
 20
37.4060472584
 30
0.0
 11
249.4603416218
 21
37.4060472584
 31
0.0
  0
LINE
  5
1A5
330
1F
100
AcDbEntity
  8
0
  6
Continuous
 62
     7
370
    15
100
AcDbLine
 10
249.7985681785
 20
39.4741794205
 30
0.0
 11
249.5320460094
 21
38.2659336662
 31
0.0
  0
LINE
  5
1A6
330
1F
100
AcDbEntity
  8
0
  6
Continuous
 62
     7
370
    15
100
AcDbLine
 10
250.300200869
 20
38.0343845224
 30
0.0
 11
250.5797764553
 21
39.3018474913
 31
0.0
  0
SPLINE
  5
1A7
330
1F
100
AcDbEntity
  8
0
  6
Continuous
 62
     7
370
    15
100
AcDbSpline
210
0.0
220
0.0
230
1.0
 70
     8
 71
     3
 72
    11
 73
     7
 74
     0
 42
0.00000001
 43
0.00000001
 40
0.0
 40
0.0
 40
0.0
 40
0.0
 40
0.2541311630691059
 40
0.5022676364033828
 40
0.7495179365131207
 40
1.0
 40
1.0
 40
1.0
 40
1.0
 10
249.460341621755
 20
37.40604725836621
 30
0.0
 10
249.5604300550505
 20
37.41629238261854
 30
0.0
 10
249.7582459396334
 20
37.43654095930127
 30
0.0
 10
250.0163975267827
 20
37.59056659620477
 30
0.0
 10
250.2198389440551
 20
37.80964782745275
 30
0.0
 10
250.2815749236844
 20
37.99669785284318
 30
0.0
 10
250.3126433385595
 20
38.09083012102948
 30
0.0
  0
LINE
  5
1A8
330
1F
100
AcDbEntity
  8
0
  6
Continuous
 62
     7
370
    15
100
AcDbLine
 10
259.4406774534
 20
39.1060462332
 30
0.0
 11
259.4406774534
 21
26.1060347891
 31
0.0
  0
LINE
  5
1A9
330
1F
100
AcDbEntity
  8
0
  6
Continuous
 62
     7
370
    15
100
AcDbLine
 10
259.4406774534
 20
39.1060462332
 30
0.0
 11
262.1596625341
 21
39.1060462332
 31
0.0
  0
LWPOLYLINE
  5
1AA
330
1F
100
AcDbEntity
  8
0
  6
Continuous
 62
     7
370
    15
100
AcDbPolyline
 90
        9
 70
   128
 43
0.0
 10
262.8901770605
 20
37.9060408211
 10
262.8761401666
 20
38.1401529646
 10
262.8345659269
 20
38.3652648067
 10
262.7670487655
 20
38.5727187729
 10
262.6762112869
 20
38.7545725441
 10
262.5655105604
 20
38.9038076734
 10
262.4392083181
 20
39.014702115
 10
262.3021772398
 20
39.0829792356
 10
262.1596625341
 20
39.1060462332
  0
LINE
  5
1AB
330
1F
100
AcDbEntity
  8
0
  6
Continuous
 62
     7
370
    15
100
AcDbLine
 10
262.8901770605
 20
37.9060408211
 30
0.0
 11
262.8901770605
 21
27.3060402012
 31
0.0
  0
LWPOLYLINE
  5
1AC
330
1F
100
AcDbEntity
  8
0
  6
Continuous
 62
     7
370
    15
100
AcDbPolyline
 90
        9
 70
   128
 43
0.0
 10
262.1596625341
 20
26.1060347891
 10
262.3021772398
 20
26.1291017866
 10
262.4392083181
 20
26.1973789072
 10
262.5655105604
 20
26.3082733488
 10
262.6762112869
 20
26.4575084782
 10
262.7670487655
 20
26.6393622494
 10
262.8345659269
 20
26.8468162155
 10
262.8761401666
 20
27.0719280577
 10
262.8901770605
 20
27.3060402012
  0
LINE
  5
1AD
330
1F
100
AcDbEntity
  8
0
  6
Continuous
 62
     7
370
    15
100
AcDbLine
 10
262.1596625341
 20
26.1060347891
 30
0.0
 11
259.4406774534
 21
26.1060347891
 31
0.0
  0
LINE
  5
1AE
330
1F
100
AcDbEntity
  8
0
  6
Continuous
 62
     7
370
    15
100
AcDbLine
 10
262.1596625341
 20
39.1060462332
 30
0.0
 11
263.1116828216
 21
39.1060462332
 31
0.0
  0
LWPOLYLINE
  5
1AF
330
1F
100
AcDbEntity
  8
0
  6
Continuous
 62
     7
370
    15
100
AcDbPolyline
 90
        9
 70
   128
 43
0.0
 10
263.1116828216
 20
39.1060462332
 10
263.2541975273
 20
39.0829792356
 10
263.3912286056
 20
39.014702115
 10
263.5175308479
 20
38.9038076734
 10
263.6282315744
 20
38.7545725441
 10
263.7190839542
 20
38.5727187729
 10
263.7865862144
 20
38.3652648067
 10
263.8281604542
 20
38.1401529646
 10
263.842197348
 20
37.9060408211
  0
LINE
  5
1B0
330
1F
100
AcDbEntity
  8
0
  6
Continuous
 62
     7
370
    15
100
AcDbLine
 10
263.842197348
 20
37.9060408211
 30
0.0
 11
262.8901770605
 21
37.9060408211
 31
0.0
  0
LINE
  5
1B1
330
1F
100
AcDbEntity
  8
0
  6
Continuous
 62
     7
370
    15
100
AcDbLine
 10
263.1116828216
 20
26.1060347891
 30
0.0
 11
262.1596625341
 21
26.1060347891
 31
0.0
  0
LINE
  5
1B2
330
1F
100
AcDbEntity
  8
0
  6
Continuous
 62
     7
370
    15
100
AcDbLine
 10
262.8901770605
 20
27.3060402012
 30
0.0
 11
263.842197348
 21
27.3060402012
 31
0.0
  0
LWPOLYLINE
  5
1B3
330
1F
100
AcDbEntity
  8
0
  6
Continuous
 62
     7
370
    15
100
AcDbPolyline
 90
        9
 70
   128
 43
0.0
 10
263.842197348
 20
27.3060402012
 10
263.8281604542
 20
27.0719280577
 10
263.7865862144
 20
26.8468162155
 10
263.7190839542
 20
26.6393622494
 10
263.6282315744
 20
26.4575084782
 10
263.5175308479
 20
26.3082733488
 10
263.3912286056
 20
26.1973789072
 10
263.2541975273
 20
26.1291017866
 10
263.1116828216
 20
26.1060347891
  0
LINE
  5
1B4
330
1F
100
AcDbEntity
  8
0
  6
Continuous
 62
     7
370
    15
100
AcDbLine
 10
263.842197348
 20
37.9060408211
 30
0.0
 11
263.842197348
 21
27.3060402012
 31
0.0
  0
LINE
  5
1B5
330
1F
100
AcDbEntity
  8
0
  6
Continuous
 62
     7
370
    15
100
AcDbLine
 10
263.842197348
 20
507.906039629
 30
0.0
 11
262.8901770605
 21
507.906039629
 31
0.0
  0
LINE
  5
1B6
330
1F
100
AcDbEntity
  8
0
  6
Continuous
 62
     7
370
    15
100
AcDbLine
 10
263.842197348
 20
507.906039629
 30
0.0
 11
263.842197348
 21
497.3060390091
 31
0.0
  0
LINE
  5
1B7
330
1F
100
AcDbEntity
  8
0
  6
Continuous
 62
     7
370
    15
100
AcDbLine
 10
262.8901770605
 20
497.3060390091
 30
0.0
 11
263.842197348
 21
497.3060390091
 31
0.0
  0
LINE
  5
1B8
330
1F
100
AcDbEntity
  8
0
  6
Continuous
 62
     7
370
    15
100
AcDbLine
 10
262.8901770605
 20
507.906039629
 30
0.0
 11
262.8901770605
 21
497.3060390091
 31
0.0
  0
LINE
  5
1B9
330
1F
100
AcDbEntity
  8
0
  6
Continuous
 62
     7
370
    15
100
AcDbLine
 10
259.4406774534
 20
509.1060450411
 30
0.0
 11
259.4406774534
 21
496.106033597
 31
0.0
  0
LINE
  5
1BA
330
1F
100
AcDbEntity
  8
0
  6
Continuous
 62
     7
370
    15
100
AcDbLine
 10
259.4406774534
 20
509.1060450411
 30
0.0
 11
262.1596625341
 21
509.1060450411
 31
0.0
  0
LWPOLYLINE
  5
1BB
330
1F
100
AcDbEntity
  8
0
  6
Continuous
 62
     7
370
    15
100
AcDbPolyline
 90
        9
 70
   128
 43
0.0
 10
262.8901770605
 20
507.906039629
 10
262.8761401666
 20
508.1401517725
 10
262.8345659269
 20
508.3652636146
 10
262.7670487655
 20
508.5727175808
 10
262.6762112869
 20
508.754571352
 10
262.5655105604
 20
508.9038064814
 10
262.4392083181
 20
509.014700923
 10
262.3021772398
 20
509.0829780435
 10
262.1596625341
 20
509.1060450411
  0
LWPOLYLINE
  5
1BC
330
1F
100
AcDbEntity
  8
0
  6
Continuous
 62
     7
370
    15
100
AcDbPolyline
 90
        9
 70
   128
 43
0.0
 10
262.1596625341
 20
496.106033597
 10
262.3021772398
 20
496.1291005945
 10
262.4392083181
 20
496.1973777151
 10
262.5655105604
 20
496.3082721567
 10
262.6762112869
 20
496.4575072861
 10
262.7670487655
 20
496.6393610573
 10
262.8345659269
 20
496.8468150234
 10
262.8761401666
 20
497.0719268656
 10
262.8901770605
 20
497.3060390091
  0
LINE
  5
1BD
330
1F
100
AcDbEntity
  8
0
  6
Continuous
 62
     7
370
    15
100
AcDbLine
 10
262.1596625341
 20
496.106033597
 30
0.0
 11
259.4406774534
 21
496.106033597
 31
0.0
  0
LINE
  5
1BE
330
1F
100
AcDbEntity
  8
0
  6
Continuous
 62
     7
370
    15
100
AcDbLine
 10
262.1596625341
 20
509.1060450411
 30
0.0
 11
263.1116828216
 21
509.1060450411
 31
0.0
  0
LWPOLYLINE
  5
1BF
330
1F
100
AcDbEntity
  8
0
  6
Continuous
 62
     7
370
    15
100
AcDbPolyline
 90
        9
 70
   128
 43
0.0
 10
263.1116828216
 20
509.1060450411
 10
263.2541975273
 20
509.0829780435
 10
263.3912286056
 20
509.014700923
 10
263.5175308479
 20
508.9038064814
 10
263.6282315744
 20
508.754571352
 10
263.7190839542
 20
508.5727175808
 10
263.7865862144
 20
508.3652636146
 10
263.8281604542
 20
508.1401517725
 10
263.842197348
 20
507.906039629
  0
LINE
  5
1C0
330
1F
100
AcDbEntity
  8
0
  6
Continuous
 62
     7
370
    15
100
AcDbLine
 10
263.1116828216
 20
496.106033597
 30
0.0
 11
262.1596625341
 21
496.106033597
 31
0.0
  0
LWPOLYLINE
  5
1C1
330
1F
100
AcDbEntity
  8
0
  6
Continuous
 62
     7
370
    15
100
AcDbPolyline
 90
        9
 70
   128
 43
0.0
 10
263.842197348
 20
497.3060390091
 10
263.8281604542
 20
497.0719268656
 10
263.7865862144
 20
496.8468150234
 10
263.7190839542
 20
496.6393610573
 10
263.6282315744
 20
496.4575072861
 10
263.5175308479
 20
496.3082721567
 10
263.3912286056
 20
496.1973777151
 10
263.2541975273
 20
496.1291005945
 10
263.1116828216
 20
496.106033597
  0
LINE
  5
1C2
330
1F
100
AcDbEntity
  8
0
  6
Continuous
 62
     7
370
    15
100
AcDbLine
 10
258.8620653642
 20
39.1060462332
 30
0.0
 11
259.4406774534
 21
39.1060462332
 31
0.0
  0
LINE
  5
1C3
330
1F
100
AcDbEntity
  8
0
  6
Continuous
 62
     7
370
    15
100
AcDbLine
 10
259.4406774534
 20
26.1060347891
 30
0.0
 11
258.8620653642
 21
26.1060347891
 31
0.0
  0
LINE
  5
1C4
330
1F
100
AcDbEntity
  8
0
  6
Continuous
 62
     7
370
    15
100
AcDbLine
 10
258.8620653642
 20
509.1060450411
 30
0.0
 11
259.4406774534
 21
509.1060450411
 31
0.0
  0
LINE
  5
1C5
330
1F
100
AcDbEntity
  8
0
  6
Continuous
 62
     7
370
    15
100
AcDbLine
 10
259.4406774534
 20
496.106033597
 30
0.0
 11
258.8620653642
 21
496.106033597
 31
0.0
  0
LINE
  5
1C6
330
1F
100
AcDbEntity
  8
0
  6
Continuous
 62
     7
370
    15
100
AcDbLine
 10
268.9620724214
 20
25.7060429191
 30
0.0
 11
269.7620710624
 21
25.7060429191
 31
0.0
  0
LINE
  5
1C7
330
1F
100
AcDbEntity
  8
0
  6
Continuous
 62
     7
370
    15
100
AcDbLine
 10
269.7620710624
 20
25.7060429191
 30
0.0
 11
269.7620710624
 21
27.2060385084
 31
0.0
  0
LINE
  5
1C8
330
1F
100
AcDbEntity
  8
0
  6
Continuous
 62
     7
370
    15
100
AcDbLine
 10
269.7620710624
 20
27.2060385084
 30
0.0
 11
271.2620666517
 21
27.2060385084
 31
0.0
  0
LINE
  5
1C9
330
1F
100
AcDbEntity
  8
0
  6
Continuous
 62
     7
370
    15
100
AcDbLine
 10
271.2620666517
 20
27.2060385084
 30
0.0
 11
271.2620666517
 21
28.0060371494
 31
0.0
  0
LINE
  5
1CA
330
1F
100
AcDbEntity
  8
0
  6
Continuous
 62
     7
370
    15
100
AcDbLine
 10
271.2620666517
 20
28.0060371494
 30
0.0
 11
269.7620710624
 21
28.0060371494
 31
0.0
  0
LINE
  5
1CB
330
1F
100
AcDbEntity
  8
0
  6
Continuous
 62
     7
370
    15
100
AcDbLine
 10
269.7620710624
 20
28.0060371494
 30
0.0
 11
269.7620710624
 21
29.5060327387
 31
0.0
  0
LINE
  5
1CC
330
1F
100
AcDbEntity
  8
0
  6
Continuous
 62
     7
370
    15
100
AcDbLine
 10
269.7620710624
 20
29.5060327387
 30
0.0
 11
268.9620724214
 21
29.5060327387
 31
0.0
  0
LINE
  5
1CD
330
1F
100
AcDbEntity
  8
0
  6
Continuous
 62
     7
370
    15
100
AcDbLine
 10
268.9620724214
 20
29.5060327387
 30
0.0
 11
268.9620724214
 21
28.0060371494
 31
0.0
  0
LINE
  5
1CE
330
1F
100
AcDbEntity
  8
0
  6
Continuous
 62
     7
370
    15
100
AcDbLine
 10
268.9620724214
 20
28.0060371494
 30
0.0
 11
267.462061931
 21
28.0060371494
 31
0.0
  0
LINE
  5
1CF
330
1F
100
AcDbEntity
  8
0
  6
Continuous
 62
     7
370
    15
100
AcDbLine
 10
267.462061931
 20
28.0060371494
 30
0.0
 11
267.462061931
 21
27.2060385084
 31
0.0
  0
LINE
  5
1D0
330
1F
100
AcDbEntity
  8
0
  6
Continuous
 62
     7
370
    15
100
AcDbLine
 10
267.462061931
 20
27.2060385084
 30
0.0
 11
268.9620724214
 21
27.2060385084
 31
0.0
  0
LINE
  5
1D1
330
1F
100
AcDbEntity
  8
0
  6
Continuous
 62
     7
370
    15
100
AcDbLine
 10
268.9620724214
 20
27.2060385084
 30
0.0
 11
268.9620724214
 21
25.7060429191
 31
0.0
  0
CIRCLE
  5
1D2
330
1F
100
AcDbEntity
  8
0
  6
Continuous
 62
     7
370
    15
100
AcDbCircle
 10
269.3620651973
 20
27.6060399151
 30
0.0
 40
3.0
  0
CIRCLE
  5
1D3
330
1F
100
AcDbEntity
  8
0
  6
Continuous
 62
     7
370
    15
100
AcDbCircle
 10
269.3620651973
 20
37.6060399151
 30
0.0
 40
3.0
  0
LINE
  5
1D4
330
1F
100
AcDbEntity
  8
0
  6
Continuous
 62
     7
370
    15
100
AcDbLine
 10
268.9620724214
 20
38.0060425138
 30
0.0
 11
267.462061931
 21
38.0060425138
 31
0.0
  0
LINE
  5
1D5
330
1F
100
AcDbEntity
  8
0
  6
Continuous
 62
     7
370
    15
100
AcDbLine
 10
267.462061931
 20
38.0060425138
 30
0.0
 11
267.462061931
 21
37.2060438728
 31
0.0
  0
LINE
  5
1D6
330
1F
100
AcDbEntity
  8
0
  6
Continuous
 62
     7
370
    15
100
AcDbLine
 10
268.9620724214
 20
37.2060438728
 30
0.0
 11
268.9620724214
 21
35.7060333824
 31
0.0
  0
LINE
  5
1D7
330
1F
100
AcDbEntity
  8
0
  6
Continuous
 62
     7
370
    15
100
AcDbLine
 10
269.7620710624
 20
37.2060438728
 30
0.0
 11
271.2620666517
 21
37.2060438728
 31
0.0
  0
LINE
  5
1D8
330
1F
100
AcDbEntity
  8
0
  6
Continuous
 62
     7
370
    15
100
AcDbLine
 10
271.2620666517
 20
37.2060438728
 30
0.0
 11
271.2620666517
 21
38.0060425138
 31
0.0
  0
LINE
  5
1D9
330
1F
100
AcDbEntity
  8
0
  6
Continuous
 62
     7
370
    15
100
AcDbLine
 10
271.2620666517
 20
38.0060425138
 30
0.0
 11
269.7620710624
 21
38.0060425138
 31
0.0
  0
LINE
  5
1DA
330
1F
100
AcDbEntity
  8
0
  6
Continuous
 62
     7
370
    15
100
AcDbLine
 10
269.7620710624
 20
38.0060425138
 30
0.0
 11
269.7620710624
 21
39.5060381031
 31
0.0
  0
LINE
  5
1DB
330
1F
100
AcDbEntity
  8
0
  6
Continuous
 62
     7
370
    15
100
AcDbLine
 10
269.7620710624
 20
39.5060381031
 30
0.0
 11
268.9620724214
 21
39.5060381031
 31
0.0
  0
LINE
  5
1DC
330
1F
100
AcDbEntity
  8
0
  6
Continuous
 62
     7
370
    15
100
AcDbLine
 10
268.9620724214
 20
39.5060381031
 30
0.0
 11
268.9620724214
 21
38.0060425138
 31
0.0
  0
LINE
  5
1DD
330
1F
100
AcDbEntity
  8
0
  6
Continuous
 62
     7
370
    15
100
AcDbLine
 10
269.7620710624
 20
35.7060333824
 30
0.0
 11
269.7620710624
 21
37.2060438728
 31
0.0
  0
LINE
  5
1DE
330
1F
100
AcDbEntity
  8
0
  6
Continuous
 62
     7
370
    15
100
AcDbLine
 10
268.9620724214
 20
35.7060333824
 30
0.0
 11
269.7620710624
 21
35.7060333824
 31
0.0
  0
LINE
  5
1DF
330
1F
100
AcDbEntity
  8
0
  6
Continuous
 62
     7
370
    15
100
AcDbLine
 10
267.462061931
 20
37.2060438728
 30
0.0
 11
268.9620724214
 21
37.2060438728
 31
0.0
  0
LINE
  5
1E0
330
1F
100
AcDbEntity
  8
0
  6
Continuous
 62
     7
370
    15
100
AcDbLine
 10
268.9620724214
 20
508.0060413217
 30
0.0
 11
267.462061931
 21
508.0060413217
 31
0.0
  0
LINE
  5
1E1
330
1F
100
AcDbEntity
  8
0
  6
Continuous
 62
     7
370
    15
100
AcDbLine
 10
267.462061931
 20
507.2060426807
 30
0.0
 11
268.9620724214
 21
507.2060426807
 31
0.0
  0
LINE
  5
1E2
330
1F
100
AcDbEntity
  8
0
  6
Continuous
 62
     7
370
    15
100
AcDbLine
 10
268.9620724214
 20
507.2060426807
 30
0.0
 11
268.9620724214
 21
505.7060470915
 31
0.0
  0
LINE
  5
1E3
330
1F
100
AcDbEntity
  8
0
  6
Continuous
 62
     7
370
    15
100
AcDbLine
 10
268.9620724214
 20
505.7060470915
 30
0.0
 11
269.7620710624
 21
505.7060470915
 31
0.0
  0
LINE
  5
1E4
330
1F
100
AcDbEntity
  8
0
  6
Continuous
 62
     7
370
    15
100
AcDbLine
 10
271.2620666517
 20
507.2060426807
 30
0.0
 11
271.2620666517
 21
508.0060413217
 31
0.0
  0
LINE
  5
1E5
330
1F
100
AcDbEntity
  8
0
  6
Continuous
 62
     7
370
    15
100
AcDbLine
 10
271.2620666517
 20
508.0060413217
 30
0.0
 11
269.7620710624
 21
508.0060413217
 31
0.0
  0
LINE
  5
1E6
330
1F
100
AcDbEntity
  8
0
  6
Continuous
 62
     7
370
    15
100
AcDbLine
 10
269.7620710624
 20
509.506036911
 30
0.0
 11
268.9620724214
 21
509.506036911
 31
0.0
  0
LINE
  5
1E7
330
1F
100
AcDbEntity
  8
0
  6
Continuous
 62
     7
370
    15
100
AcDbLine
 10
268.9620724214
 20
509.506036911
 30
0.0
 11
268.9620724214
 21
508.0060413217
 31
0.0
  0
LINE
  5
1E8
330
1F
100
AcDbEntity
  8
0
  6
Continuous
 62
     7
370
    15
100
AcDbLine
 10
269.7620710624
 20
508.0060413217
 30
0.0
 11
269.7620710624
 21
509.506036911
 31
0.0
  0
CIRCLE
  5
1E9
330
1F
100
AcDbEntity
  8
0
  6
Continuous
 62
     7
370
    15
100
AcDbCircle
 10
269.3620651973
 20
507.6060399151
 30
0.0
 40
3.000000000000057
  0
LINE
  5
1EA
330
1F
100
AcDbEntity
  8
0
  6
Continuous
 62
     7
370
    15
100
AcDbLine
 10
267.462061931
 20
508.0060413217
 30
0.0
 11
267.462061931
 21
507.2060426807
 31
0.0
  0
LINE
  5
1EB
330
1F
100
AcDbEntity
  8
0
  6
Continuous
 62
     7
370
    15
100
AcDbLine
 10
269.7620710624
 20
505.7060470915
 30
0.0
 11
269.7620710624
 21
507.2060426807
 31
0.0
  0
LINE
  5
1EC
330
1F
100
AcDbEntity
  8
0
  6
Continuous
 62
     7
370
    15
100
AcDbLine
 10
269.7620710624
 20
507.2060426807
 30
0.0
 11
271.2620666517
 21
507.2060426807
 31
0.0
  0
LINE
  5
1ED
330
1F
100
AcDbEntity
  8
0
  6
Continuous
 62
     7
370
    15
100
AcDbLine
 10
271.2620666517
 20
497.2060373163
 30
0.0
 11
271.2620666517
 21
498.0060359573
 31
0.0
  0
LINE
  5
1EE
330
1F
100
AcDbEntity
  8
0
  6
Continuous
 62
     7
370
    15
100
AcDbLine
 10
269.7620710624
 20
497.2060373163
 30
0.0
 11
271.2620666517
 21
497.2060373163
 31
0.0
  0
LINE
  5
1EF
330
1F
100
AcDbEntity
  8
0
  6
Continuous
 62
     7
370
    15
100
AcDbLine
 10
269.7620710624
 20
499.5060464477
 30
0.0
 11
268.9620724214
 21
499.5060464477
 31
0.0
  0
LINE
  5
1F0
330
1F
100
AcDbEntity
  8
0
  6
Continuous
 62
     7
370
    15
100
AcDbLine
 10
269.7620710624
 20
495.7060417271
 30
0.0
 11
269.7620710624
 21
497.2060373163
 31
0.0
  0
LINE
  5
1F1
330
1F
100
AcDbEntity
  8
0
  6
Continuous
 62
     7
370
    15
100
AcDbLine
 10
268.9620724214
 20
498.0060359573
 30
0.0
 11
267.462061931
 21
498.0060359573
 31
0.0
  0
LINE
  5
1F2
330
1F
100
AcDbEntity
  8
0
  6
Continuous
 62
     7
370
    15
100
AcDbLine
 10
268.9620724214
 20
495.7060417271
 30
0.0
 11
269.7620710624
 21
495.7060417271
 31
0.0
  0
LINE
  5
1F3
330
1F
100
AcDbEntity
  8
0
  6
Continuous
 62
     7
370
    15
100
AcDbLine
 10
267.462061931
 20
497.2060373163
 30
0.0
 11
268.9620724214
 21
497.2060373163
 31
0.0
  0
CIRCLE
  5
1F4
330
1F
100
AcDbEntity
  8
0
  6
Continuous
 62
     7
370
    15
100
AcDbCircle
 10
269.3620651973
 20
497.6060399151
 30
0.0
 40
3.0
  0
LINE
  5
1F5
330
1F
100
AcDbEntity
  8
0
  6
Continuous
 62
     7
370
    15
100
AcDbLine
 10
268.9620724214
 20
497.2060373163
 30
0.0
 11
268.9620724214
 21
495.7060417271
 31
0.0
  0
LINE
  5
1F6
330
1F
100
AcDbEntity
  8
0
  6
Continuous
 62
     7
370
    15
100
AcDbLine
 10
268.9620724214
 20
499.5060464477
 30
0.0
 11
268.9620724214
 21
498.0060359573
 31
0.0
  0
LINE
  5
1F7
330
1F
100
AcDbEntity
  8
0
  6
Continuous
 62
     7
370
    15
100
AcDbLine
 10
269.7620710624
 20
498.0060359573
 30
0.0
 11
269.7620710624
 21
499.5060464477
 31
0.0
  0
LINE
  5
1F8
330
1F
100
AcDbEntity
  8
0
  6
Continuous
 62
     7
370
    15
100
AcDbLine
 10
271.2620666517
 20
498.0060359573
 30
0.0
 11
269.7620710624
 21
498.0060359573
 31
0.0
  0
LINE
  5
1F9
330
1F
100
AcDbEntity
  8
0
  6
Continuous
 62
     7
370
    15
100
AcDbLine
 10
267.462061931
 20
498.0060359573
 30
0.0
 11
267.462061931
 21
497.2060373163
 31
0.0
  0
LINE
  5
1FA
330
1F
100
AcDbEntity
  8
0
  6
Continuous
 62
     7
370
    15
100
AcDbLine
 10
263.3620670332
 20
39.1060462332
 30
0.0
 11
268.3443000807
 21
43.7079271412
 31
0.0
  0
ARC
  5
1FB
330
1F
100
AcDbEntity
  8
0
  6
Continuous
 62
     7
370
    15
100
AcDbCircle
 10
269.3620651974
 20
42.6060399151
 30
0.0
 40
1.5
100
AcDbArc
 50
43.6028189726
 51
132.7273953127
  0
ARC
  5
1FC
330
1F
100
AcDbEntity
  8
0
  6
Continuous
 62
     7
370
    15
100
AcDbCircle
 10
258.8620651973
 20
32.6060399151
 30
0.0
 40
16.00000000000017
100
AcDbArc
 50
316.3971810272
 51
43.6028189726
  0
ARC
  5
1FD
330
1F
100
AcDbEntity
  8
0
  6
Continuous
 62
     7
370
    15
100
AcDbCircle
 10
269.3620651973
 20
22.6060399151
 30
0.0
 40
1.499999999999775
100
AcDbArc
 50
227.2726046868
 51
316.3971810272
  0
LINE
  5
1FE
330
1F
100
AcDbEntity
  8
0
  6
Continuous
 62
     7
370
    15
100
AcDbLine
 10
268.3443000807
 20
21.5041538811
 30
0.0
 11
263.3620670332
 21
26.1060347891
 31
0.0
  0
LINE
  5
1FF
330
1F
100
AcDbEntity
  8
0
  6
Continuous
 62
     7
370
    15
100
AcDbLine
 10
263.1610503687
 20
39.1060462332
 30
0.0
 11
263.3620670332
 21
39.1060462332
 31
0.0
  0
LINE
  5
200
330
1F
100
AcDbEntity
  8
0
  6
Continuous
 62
     7
370
    15
100
AcDbLine
 10
263.3620670332
 20
26.1060347891
 30
0.0
 11
263.1610503687
 21
26.1060347891
 31
0.0
  0
LINE
  5
201
330
1F
100
AcDbEntity
  8
0
  6
Continuous
 62
     7
370
    15
100
AcDbLine
 10
268.3443000807
 20
491.504152689
 30
0.0
 11
263.3620670332
 21
496.106033597
 31
0.0
  0
LINE
  5
202
330
1F
100
AcDbEntity
  8
0
  6
Continuous
 62
     7
370
    15
100
AcDbLine
 10
263.3620670332
 20
509.1060450411
 30
0.0
 11
268.3443000807
 21
513.7079259491
 31
0.0
  0
ARC
  5
203
330
1F
100
AcDbEntity
  8
0
  6
Continuous
 62
     7
370
    15
100
AcDbCircle
 10
269.3620651974
 20
512.6060399151
 30
0.0
 40
1.500000000000028
100
AcDbArc
 50
43.6028189726
 51
132.7273953127
  0
ARC
  5
204
330
1F
100
AcDbEntity
  8
0
  6
Continuous
 62
     7
370
    15
100
AcDbCircle
 10
258.8620651973
 20
502.6060399151
 30
0.0
 40
16.00000000000021
100
AcDbArc
 50
316.3971810272
 51
43.6028189726
  0
ARC
  5
205
330
1F
100
AcDbEntity
  8
0
  6
Continuous
 62
     7
370
    15
100
AcDbCircle
 10
269.3620651973
 20
492.6060399151
 30
0.0
 40
1.49999999999976
100
AcDbArc
 50
227.2726046868
 51
316.3971810272
  0
LINE
  5
206
330
1F
100
AcDbEntity
  8
0
  6
Continuous
 62
     7
370
    15
100
AcDbLine
 10
263.1610503687
 20
509.1060450411
 30
0.0
 11
263.3620670332
 21
509.1060450411
 31
0.0
  0
LINE
  5
207
330
1F
100
AcDbEntity
  8
0
  6
Continuous
 62
     7
370
    15
100
AcDbLine
 10
263.3620670332
 20
496.106033597
 30
0.0
 11
263.1610503687
 21
496.106033597
 31
0.0
  0
LINE
  5
208
330
1F
100
AcDbEntity
  8
0
  6
Continuous
 62
     7
370
    15
100
AcDbLine
 10
271.3620683445
 20
-17.3939565086
 30
0.0
 11
271.3620683445
 21
-32.3939720059
 31
0.0
  0
LINE
  5
209
330
1F
100
AcDbEntity
  8
0
  6
Continuous
 62
     7
370
    15
100
AcDbLine
 10
271.3620683445
 20
-17.3939565086
 30
0.0
 11
286.3620689405
 21
-17.3939565086
 31
0.0
  0
ARC
  5
20A
330
1F
100
AcDbEntity
  8
0
  6
Continuous
 62
     7
370
    15
100
AcDbCircle
 10
271.3620651973
 20
-17.3939600849
 30
0.0
 40
15.00000000000001
100
AcDbArc
 50
270.0
 51
0.0
  0
LINE
  5
20B
330
1F
100
AcDbEntity
  8
0
  6
Continuous
 62
     7
370
    15
100
AcDbLine
 10
266.3620582117
 20
-17.3939565086
 30
0.0
 11
271.3620683445
 21
-17.3939565086
 31
0.0
  0
LINE
  5
20C
330
1F
100
AcDbEntity
  8
0
  6
Continuous
 62
     7
370
    15
100
AcDbLine
 10
266.3620582117
 20
23.335059557
 30
0.0
 11
266.3620582117
 21
-17.3939565086
 31
0.0
  0
LINE
  5
20D
330
1F
100
AcDbEntity
  8
0
  6
Continuous
 62
     7
370
    15
100
AcDbLine
 10
271.3620683445
 20
22.6185521221
 30
0.0
 11
271.3620683445
 21
-17.3939565086
 31
0.0
  0
LINE
  5
20E
330
1F
100
AcDbEntity
  8
0
  6
Continuous
 62
     7
370
    15
100
AcDbLine
 10
266.3620582117
 20
-32.3939720059
 30
0.0
 11
271.3620683445
 21
-32.3939720059
 31
0.0
  0
LINE
  5
20F
330
1F
100
AcDbEntity
  8
0
  6
Continuous
 62
     7
370
    15
100
AcDbLine
 10
266.3620582117
 20
-17.3939565086
 30
0.0
 11
266.3620582117
 21
-32.3939720059
 31
0.0
  0
LINE
  5
210
330
1F
100
AcDbEntity
  8
0
  6
Continuous
 62
     7
370
    15
100
AcDbLine
 10
271.3620683445
 20
42.5935289001
 30
0.0
 11
271.3620683445
 21
492.61855093
 31
0.0
  0
LINE
  5
211
330
1F
100
AcDbEntity
  8
0
  6
Continuous
 62
     7
370
    15
100
AcDbLine
 10
271.3620683445
 20
512.593527708
 30
0.0
 11
271.3620683445
 21
552.6060363388
 31
0.0
  0
LINE
  5
212
330
1F
100
AcDbEntity
  8
0
  6
Continuous
 62
     7
370
    15
100
AcDbLine
 10
271.3620683445
 20
552.6060363388
 30
0.0
 11
286.3620689405
 21
552.6060363388
 31
0.0
  0
LINE
  5
213
330
1F
100
AcDbEntity
  8
0
  6
Continuous
 62
     7
370
    15
100
AcDbLine
 10
286.3620689405
 20
552.6060363388
 30
0.0
 11
286.3620689405
 21
-17.3939565086
 31
0.0
  0
LINE
  5
214
330
1F
100
AcDbEntity
  8
0
  6
Continuous
 62
     7
370
    15
100
AcDbLine
 10
266.3620582117
 20
41.8770214653
 30
0.0
 11
266.3620582117
 21
493.3350583649
 31
0.0
  0
LINE
  5
215
330
1F
100
AcDbEntity
  8
0
  6
Continuous
 62
     7
370
    15
100
AcDbLine
 10
266.3620582117
 20
552.6060363388
 30
0.0
 11
271.3620683445
 21
552.6060363388
 31
0.0
  0
LINE
  5
216
330
1F
100
AcDbEntity
  8
0
  6
Continuous
 62
     7
370
    15
100
AcDbLine
 10
266.3620582117
 20
511.8770202732
 30
0.0
 11
266.3620582117
 21
552.6060363388
 31
0.0
  0
LINE
  5
217
330
1F
100
AcDbEntity
  8
0
  6
Continuous
 62
     7
370
    15
100
AcDbLine
 10
266.3620582117
 20
567.606051836
 30
0.0
 11
271.3620683445
 21
567.606051836
 31
0.0
  0
LINE
  5
218
330
1F
100
AcDbEntity
  8
0
  6
Continuous
 62
     7
370
    15
100
AcDbLine
 10
271.3620683445
 20
552.6060363388
 30
0.0
 11
271.3620683445
 21
567.606051836
 31
0.0
  0
LINE
  5
219
330
1F
100
AcDbEntity
  8
0
  6
Continuous
 62
     7
370
    15
100
AcDbLine
 10
266.3620582117
 20
552.6060363388
 30
0.0
 11
266.3620582117
 21
567.606051836
 31
0.0
  0
ARC
  5
21A
330
1F
100
AcDbEntity
  8
0
  6
Continuous
 62
     7
370
    15
100
AcDbCircle
 10
271.3620651973
 20
552.6060399151
 30
0.0
 40
15.00000000000023
100
AcDbArc
 50
0.0
 51
90.0
  0
SPLINE
  5
21B
330
1F
100
AcDbEntity
  8
0
  6
Continuous
 62
     7
370
    15
100
AcDbSpline
210
0.0
220
0.0
230
1.0
 70
     8
 71
     3
 72
    16
 73
    12
 74
     0
 42
0.00000001
 43
0.00000001
 40
0.0
 40
0.0
 40
0.0
 40
0.0
 40
0.1207067786574835
 40
0.2414158442349787
 40
0.3621180283044903
 40
0.4828230015567405
 40
0.6035292191675267
 40
0.7242361096741167
 40
0.8449394371156462
 40
0.9656486049554839
 40
1.0
 40
1.0
 40
1.0
 40
1.0
 10
244.5143630994543
 20
489.6536668872725
 30
0.0
 10
244.5337639678139
 20
489.6563434029749
 30
0.0
 10
244.5725660721033
 20
489.6616964850892
 30
0.0
 10
244.5774895719343
 20
489.9526235748599
 30
0.0
 10
244.5402733605989
 20
490.4059908050364
 30
0.0
 10
244.463374971483
 20
490.9734976328439
 30
0.0
 10
244.3595402524691
 20
491.5618250721126
 30
0.0
 10
244.2434548271438
 20
492.0885258661652
 30
0.0
 10
244.1364362179145
 20
492.4518008808231
 30
0.0
 10
244.0638670004812
 20
492.6222799725904
 30
0.0
 10
244.0443158939477
 20
492.589120794165
 30
0.0
 10
244.0399846328482
 20
492.5817748641859
 30
0.0
  0
SPLINE
  5
21C
330
1F
100
AcDbEntity
  8
0
  6
Continuous
 62
     7
370
    15
100
AcDbSpline
210
0.0
220
0.0
230
1.0
 70
     8
 71
     3
 72
    16
 73
    12
 74
     0
 42
0.00000001
 43
0.00000001
 40
0.0
 40
0.0
 40
0.0
 40
0.0
 40
0.1205773130808821
 40
0.2411630015605836
 40
0.3617418155659114
 40
0.4823238081722991
 40
0.6029061198066487
 40
0.7234896354385915
 40
0.8440715182238145
 40
0.9646564228523614
 40
1.0
 40
1.0
 40
1.0
 40
1.0
 10
244.6849515928015
 20
515.529697213162
 30
0.0
 10
244.7043526126147
 20
515.5270192451904
 30
0.0
 10
244.7431559998521
 20
515.5216631232336
 30
0.0
 10
244.7480760478088
 20
515.2307408763933
 30
0.0
 10
244.7108685316186
 20
514.7773709943484
 30
0.0
 10
244.6339385340465
 20
514.2098728963325
 30
0.0
 10
244.530133763949
 20
513.621524467894
 30
0.0
 10
244.4140466945699
 20
513.0948830081145
 30
0.0
 10
244.3070026997452
 20
512.7313841464876
 30
0.0
 10
244.2342479430311
 20
512.5608613248503
 30
0.0
 10
244.2146076636352
 20
512.5944400420194
 30
0.0
 10
244.2101558936819
 20
512.6020511722455
 30
0.0
  0
SPLINE
  5
21D
330
1F
100
AcDbEntity
  8
0
  6
Continuous
 62
     7
370
    15
100
AcDbSpline
210
0.0
220
0.0
230
1.0
 70
     8
 71
     3
 72
    16
 73
    12
 74
     0
 42
0.00000001
 43
0.00000001
 40
0.0
 40
0.0
 40
0.0
 40
0.0
 40
0.1205176402004448
 40
0.2410324133922535
 40
0.3615497189204739
 40
0.4820672474464318
 40
0.6025840852210076
 40
0.7231021263394293
 40
0.8436166099673077
 40
0.9641311162119002
 40
1.0
 40
1.0
 40
1.0
 40
1.0
 10
260.0553354514822
 20
492.2700872754942
 30
0.0
 10
260.0747365495864
 20
492.2727552735223
 30
0.0
 10
260.1135382842595
 20
492.2780912061089
 30
0.0
 10
260.1184594642029
 20
492.5690498858681
 30
0.0
 10
260.0812529457672
 20
493.0223841562034
 30
0.0
 10
260.0043231240849
 20
493.5899142782515
 30
0.0
 10
259.9005165366764
 20
494.178262681757
 30
0.0
 10
259.7844350738181
 20
494.7048837029079
 30
0.0
 10
259.6773746092464
 20
495.0684491837815
 30
0.0
 10
259.6045231641895
 20
495.2390529020714
 30
0.0
 10
259.5848325692106
 20
495.2052363351673
 30
0.0
 10
259.5803162349447
 20
495.1974799966704
 30
0.0
  0
SPLINE
  5
21E
330
1F
100
AcDbEntity
  8
0
  6
Continuous
 62
     7
370
    15
100
AcDbSpline
210
0.0
220
0.0
230
1.0
 70
     8
 71
     3
 72
    16
 73
    12
 74
     0
 42
0.00000001
 43
0.00000001
 40
0.0
 40
0.0
 40
0.0
 40
0.0
 40
0.1205178887985882
 40
0.2410326213457433
 40
0.3615498862284561
 40
0.482064480341296
 40
0.6025812774705218
 40
0.7230970929169649
 40
0.8436175482792354
 40
0.9641311283089926
 40
1.0
 40
1.0
 40
1.0
 40
1.0
 10
260.2259239448293
 20
512.9132768249402
 30
0.0
 10
260.2453250725686
 20
512.910602592584
 30
0.0
 10
260.2841268199498
 20
512.9052541979072
 30
0.0
 10
260.2890476114401
 20
512.6143004308383
 30
0.0
 10
260.2518430750905
 20
512.1609682298141
 30
0.0
 10
260.1749080013204
 20
511.5934451119069
 30
0.0
 10
260.0711140387152
 20
511.0051076925853
 30
0.0
 10
259.9549923367031
 20
510.4784669470995
 30
0.0
 10
259.847974644819
 20
510.1149019216464
 30
0.0
 10
259.7751109045045
 20
509.9443123070308
 30
0.0
 10
259.7554209428661
 20
509.9781279363863
 30
0.0
 10
259.7509047282919
 20
509.9858841037641
 30
0.0
  0
SPLINE
  5
21F
330
1F
100
AcDbEntity
  8
0
  6
Continuous
 62
     7
370
    15
100
AcDbSpline
210
0.0
220
0.0
230
1.0
 70
    24
 71
     3
 72
    16
 73
    12
 74
     0
 42
0.00000001
 43
0.00000001
 40
0.0
 40
0.0
 40
0.0
 40
0.0
 40
0.0611042260699412
 40
0.1864670038060815
 40
0.3118320320058386
 40
0.4371949488658223
 40
0.5625600988373968
 40
0.6879240836221383
 40
0.8132868438052594
 40
0.9386468178623724
 40
1.0
 40
1.0
 40
1.0
 40
1.0
 10
263.1322464240774
 20
495.7398077583205
 30
0.0
 10
263.1380194433985
 20
495.7398077583205
 30
0.0
 10
263.1556365164714
 20
495.7398077583205
 30
0.0
 10
262.9371968787743
 20
495.7398077583205
 30
0.0
 10
262.5244718568915
 20
495.7398077583204
 30
0.0
 10
261.9679991348291
 20
495.7398077583205
 30
0.0
 10
261.3688882384643
 20
495.7398077583204
 30
0.0
 10
260.8101969482299
 20
495.7398077583205
 30
0.0
 10
260.3932408017728
 20
495.7398077583204
 30
0.0
 10
260.1702385970049
 20
495.7398077583205
 30
0.0
 10
260.1850543449838
 20
495.7398077583205
 30
0.0
 10
260.189922739385
 20
495.7398077583205
 30
0.0
  0
SPLINE
  5
220
330
1F
100
AcDbEntity
  8
0
  6
Continuous
 62
     7
370
    15
100
AcDbSpline
210
0.0
220
0.0
230
1.0
 70
    24
 71
     3
 72
    16
 73
    12
 74
     0
 42
0.00000001
 43
0.00000001
 40
0.0
 40
0.0
 40
0.0
 40
0.0
 40
0.0610064761844534
 40
0.1861687080998494
 40
0.3113331868787419
 40
0.4364955576954215
 40
0.5616601580513301
 40
0.686823595084383
 40
0.8119858094748397
 40
0.9371452421963204
 40
1.0
 40
1.0
 40
1.0
 40
1.0
 10
263.1322464240774
 20
509.2984339332472
 30
0.0
 10
263.1380194371743
 20
509.2984339332472
 30
0.0
 10
263.1556364912529
 20
509.2984339332472
 30
0.0
 10
262.9371971125886
 20
509.2984339332472
 30
0.0
 10
262.5244710002203
 20
509.2984339332472
 30
0.0
 10
261.9680023276592
 20
509.2984339332472
 30
0.0
 10
261.3688763236092
 20
509.2984339332472
 30
0.0
 10
260.8102414140996
 20
509.2984339332472
 30
0.0
 10
260.3930748562889
 20
509.2984339332472
 30
0.0
 10
260.1695826433497
 20
509.2984339332472
 30
0.0
 10
260.1848042299877
 20
509.2984339332472
 30
0.0
 10
260.1898929370626
 20
509.2984339332472
 30
0.0
  0
SPLINE
  5
221
330
1F
100
AcDbEntity
  8
0
  6
Continuous
 62
     7
370
    15
100
AcDbSpline
210
0.0
220
0.0
230
1.0
 70
     8
 71
     3
 72
    19
 73
    15
 74
     0
 42
0.00000001
 43
0.00000001
 40
0.0
 40
0.0
 40
0.0
 40
0.0
 40
0.003953618010488
 40
0.115776033706381
 40
0.2280442264825153
 40
0.3355253341044871
 40
0.4377150157146248
 40
0.5348790905667086
 40
0.6283064862964614
 40
0.7303034301856084
 40
0.8413391196583399
 40
0.964111897829361
 40
0.9937689521059837
 40
1.0
 40
1.0
 40
1.0
 40
1.0
 10
249.460341621755
 20
508.2060447072874
 30
0.0
 10
249.4607338826369
 20
508.2060376662066
 30
0.0
 10
249.4722206800367
 20
508.2058314782536
 30
0.0
 10
249.4955372225503
 20
508.1907657526334
 30
0.0
 10
249.5390126526994
 20
508.1238245156719
 30
0.0
 10
249.5769890479558
 20
508.0191466379464
 30
0.0
 10
249.6004900074348
 20
507.8940676311049
 30
0.0
 10
249.6118349588772
 20
507.7656318069418
 30
0.0
 10
249.6124111876951
 20
507.6444639523679
 30
0.0
 10
249.5966477034409
 20
507.5352276207802
 30
0.0
 10
249.5562638657241
 20
507.4458160826585
 30
0.0
 10
249.5044061972524
 20
507.4107593918689
 30
0.0
 10
249.4696826224367
 20
507.4061490710546
 30
0.0
 10
249.4617235162742
 20
507.4060613046559
 30
0.0
 10
249.460341621755
 20
507.4060460662733
 30
0.0
  0
SPLINE
  5
222
330
1F
100
AcDbEntity
  8
0
  6
Continuous
 62
     7
370
    15
100
AcDbSpline
210
0.0
220
0.0
230
1.0
 70
     8
 71
     3
 72
    30
 73
    26
 74
     0
 42
0.00000001
 43
0.00000001
 40
0.0
 40
0.0
 40
0.0
 40
0.0
 40
0.1247215464353782
 40
0.2494237815128954
 40
0.3741310122226426
 40
0.4367826532934281
 40
0.4681526055135949
 40
0.4838416918508273
 40
0.4916928727634536
 40
0.4956121120119286
 40
0.4975701667876981
 40
0.4985519412119752
 40
0.4990400775229306
 40
0.4992855211289998
 40
0.499418631613583
 40
0.4994827461131645
 40
0.4995065576405282
 40
0.49951846340421
 40
0.4995450855011267
 40
0.5609217869323919
 40
0.664629589509489
 40
0.7325820045544567
 40
0.8111543235660678
 40
0.9002866824298972
 40
1.0
 40
1.0
 40
1.0
 40
1.0
 10
249.5320460094198
 20
508.2659324741255
 30
0.0
 10
249.5378093578866
 20
508.2641413675533
 30
0.0
 10
249.5493351624478
 20
508.2605594317364
 30
0.0
 10
249.6391817809948
 20
508.2387024741087
 30
0.0
 10
249.7466633951787
 20
508.213040105753
 30
0.0
 10
249.832205093378
 20
508.1926189439953
 30
0.0
 10
249.8763122591504
 20
508.1821012363399
 30
0.0
 10
249.898529356184
 20
508.176747247811
 30
0.0
 10
249.9096748294241
 20
508.1741248383083
 30
0.0
 10
249.9152336904164
 20
508.1727475756489
 30
0.0
 10
249.9180273767563
 20
508.1721273647946
 30
0.0
 10
249.9194057177055
 20
508.1717421407224
 30
0.0
 10
249.9201114166965
 20
508.1716167724312
 30
0.0
 10
249.9204548905883
 20
508.1714981602492
 30
0.0
 10
249.9206441522623
 20
508.1714960733412
 30
0.0
 10
249.9207254732363
 20
508.1714415556411
 30
0.0
 10
249.9207675366023
 20
508.1714438295266
 30
0.0
 10
249.9207939932067
 20
508.1714456825524
 30
0.0
 10
249.9427685058337
 20
508.1560086422856
 30
0.0
 10
250.0154848127913
 20
508.158360798437
 30
0.0
 10
250.1035194674841
 20
508.1297972508521
 30
0.0
 10
250.1876712086945
 20
508.1144201965603
 30
0.0
 10
250.2510326393992
 20
508.1010554905361
 30
0.0
 10
250.3016268955964
 20
508.091574307447
 30
0.0
 10
250.3088365396085
 20
508.0910864990199
 30
0.0
 10
250.3126433385595
 20
508.0908289289366
 30
0.0
  0
ELLIPSE
  5
223
330
1F
100
AcDbEntity
  8
0
  6
Continuous
 62
     7
370
    15
100
AcDbEllipse
 10
250.1891735911
 20
509.3880150938
 30
0.0
 11
0.3906095144046162
 21
-0.08616383961157224
 31
0.0
210
0.0
220
0.0
230
0.9999999999999999
 40
0.0142285888
 41
0.0
 42
6.283185307179586
  0
LINE
  5
224
330
1F
100
AcDbEntity
  8
0
  6
Continuous
 62
     7
370
    15
100
AcDbLine
 10
249.5729944004
 20
497.9060342646
 30
0.0
 11
249.5729944004
 21
506.5060457325
 31
0.0
  0
LINE
  5
225
330
1F
100
AcDbEntity
  8
0
  6
Continuous
 62
     7
370
    15
100
AcDbLine
 10
244.0587004913
 20
497.9060342646
 30
0.0
 11
244.0587004913
 21
506.5060457325
 31
0.0
  0
LINE
  5
226
330
1F
100
AcDbEntity
  8
0
  6
Continuous
 62
     7
370
    15
100
AcDbLine
 10
249.5729944004
 20
506.5060457325
 30
0.0
 11
244.0587004913
 21
506.5060457325
 31
0.0
  0
LINE
  5
227
330
1F
100
AcDbEntity
  8
0
  6
Continuous
 62
     7
370
    15
100
AcDbLine
 10
249.5729944004
 20
497.9060342646
 30
0.0
 11
244.0587004913
 21
497.9060342646
 31
0.0
  0
LINE
  5
228
330
1F
100
AcDbEntity
  8
0
  6
Continuous
 62
     7
370
    15
100
AcDbLine
 10
242.9444363607
 20
509.8060419893
 30
0.0
 11
218.1323340429
 21
509.8060419893
 31
0.0
  0
LINE
  5
229
330
1F
100
AcDbEntity
  8
0
  6
Continuous
 62
     7
370
    15
100
AcDbLine
 10
242.9444363607
 20
506.5060457325
 30
0.0
 11
242.9444363607
 21
509.8060419893
 31
0.0
  0
LINE
  5
22A
330
1F
100
AcDbEntity
  8
0
  6
Continuous
 62
     7
370
    15
100
AcDbLine
 10
242.9444363607
 20
495.4060366487
 30
0.0
 11
242.9444363607
 21
497.9060342646
 31
0.0
  0
LINE
  5
22B
330
1F
100
AcDbEntity
  8
0
  6
Continuous
 62
     7
370
    15
100
AcDbLine
 10
218.1323340429
 20
495.4060366487
 30
0.0
 11
242.9444363607
 21
495.4060366487
 31
0.0
  0
LINE
  5
22C
330
1F
100
AcDbEntity
  8
0
  6
Continuous
 62
     7
370
    15
100
AcDbLine
 10
218.1323340429
 20
495.4060366487
 30
0.0
 11
218.1323340429
 21
509.8060419893
 31
0.0
  0
LINE
  5
22D
330
1F
100
AcDbEntity
  8
0
  6
Continuous
 62
     7
370
    15
100
AcDbLine
 10
242.9444363607
 20
506.5060457325
 30
0.0
 11
244.0587004913
 21
506.5060457325
 31
0.0
  0
LINE
  5
22E
330
1F
100
AcDbEntity
  8
0
  6
Continuous
 62
     7
370
    15
100
AcDbLine
 10
242.9444363607
 20
497.9060342646
 30
0.0
 11
244.0587004913
 21
497.9060342646
 31
0.0
  0
LINE
  5
22F
330
1F
100
AcDbEntity
  8
0
  6
Continuous
 62
     7
370
    15
100
AcDbLine
 10
244.9643036617
 20
510.6033882236
 30
0.0
 11
243.0720648063
 21
510.6033882236
 31
0.0
  0
ARC
  5
230
330
1F
100
AcDbEntity
  8
0
  6
Continuous
 62
     7
370
    15
100
AcDbCircle
 10
244.4187513493
 20
509.9789411421
 30
0.0
 40
1.484418674970813
100
AcDbArc
 50
155.1232467424
 51
186.6887659172
  0
ARC
  5
231
330
1F
100
AcDbEntity
  8
0
  6
Continuous
 62
     7
370
    15
100
AcDbCircle
 10
219.3882568398
 20
510.0000067722
 30
0.0
 40
1.270812499494445
100
AcDbArc
 50
151.5177215739
 51
188.7794004158
  0
LINE
  5
232
330
1F
100
AcDbEntity
  8
0
  6
Continuous
 62
     7
370
    15
100
AcDbLine
 10
218.2712575687
 20
510.6060406303
 30
0.0
 11
245.6370612873
 21
510.6060406303
 31
0.0
  0
LINE
  5
233
330
1F
100
AcDbEntity
  8
0
  6
Continuous
 62
     7
370
    15
100
AcDbLine
 10
245.6370612873
 20
510.6060406303
 30
0.0
 11
244.9643036617
 21
510.6033882236
 31
0.0
  0
LINE
  5
234
330
1F
100
AcDbEntity
  8
0
  6
Continuous
 62
     7
370
    15
100
AcDbLine
 10
243.0720648063
 20
494.6086904144
 30
0.0
 11
244.9643036617
 21
494.6086904144
 31
0.0
  0
LINE
  5
235
330
1F
100
AcDbEntity
  8
0
  6
Continuous
 62
     7
370
    15
100
AcDbLine
 10
244.9643036617
 20
494.6086904144
 30
0.0
 11
245.6370612873
 21
494.6060380077
 31
0.0
  0
LINE
  5
236
330
1F
100
AcDbEntity
  8
0
  6
Continuous
 62
     7
370
    15
100
AcDbLine
 10
245.6370612873
 20
494.6060380077
 30
0.0
 11
218.2712575687
 21
494.6060380077
 31
0.0
  0
ARC
  5
237
330
1F
100
AcDbEntity
  8
0
  6
Continuous
 62
     7
370
    15
100
AcDbCircle
 10
219.3882568398
 20
495.2120718658
 30
0.0
 40
1.270812499494445
100
AcDbArc
 50
171.2205995842
 51
208.4822784261
  0
ARC
  5
238
330
1F
100
AcDbEntity
  8
0
  6
Continuous
 62
     7
370
    15
100
AcDbCircle
 10
244.4187513493
 20
495.2331374959
 30
0.0
 40
1.484418674970813
100
AcDbArc
 50
173.3112340828
 51
204.8767532576
  0
LINE
  5
239
330
1F
100
AcDbEntity
  8
0
  6
Continuous
 62
     7
370
    15
100
AcDbLine
 10
243.0720648063
 20
494.6086904144
 30
0.0
 11
243.0720648063
 21
495.4060366487
 31
0.0
  0
LINE
  5
23A
330
1F
100
AcDbEntity
  8
0
  6
Continuous
 62
     7
370
    15
100
AcDbLine
 10
243.0833598865
 20
497.9060342646
 30
0.0
 11
243.0833598865
 21
495.4060366487
 31
0.0
  0
LINE
  5
23B
330
1F
100
AcDbEntity
  8
0
  6
Continuous
 62
     7
370
    15
100
AcDbLine
 10
243.0720648063
 20
509.8060419893
 30
0.0
 11
243.0720648063
 21
510.6033882236
 31
0.0
  0
LINE
  5
23C
330
1F
100
AcDbEntity
  8
0
  6
Continuous
 62
     7
370
    15
100
AcDbLine
 10
243.0833598865
 20
509.8060419893
 30
0.0
 11
243.0833598865
 21
506.5060457325
 31
0.0
  0
LINE
  5
23D
330
1F
100
AcDbEntity
  8
0
  6
Continuous
 62
     7
370
    15
100
AcDbLine
 10
249.0720620645
 20
494.6060380077
 30
0.0
 11
245.6370612873
 21
494.6060380077
 31
0.0
  0
LINE
  5
23E
330
1F
100
AcDbEntity
  8
0
  6
Continuous
 62
     7
370
    15
100
AcDbLine
 10
244.9643036617
 20
494.6086904144
 30
0.0
 11
244.9643036617
 21
495.4060366487
 31
0.0
  0
LINE
  5
23F
330
1F
100
AcDbEntity
  8
0
  6
Continuous
 62
     7
370
    15
100
AcDbLine
 10
249.0720620645
 20
495.4060366487
 30
0.0
 11
244.9643036617
 21
495.4060366487
 31
0.0
  0
LINE
  5
240
330
1F
100
AcDbEntity
  8
0
  6
Continuous
 62
     7
370
    15
100
AcDbLine
 10
244.9643036617
 20
509.8060419893
 30
0.0
 11
244.9643036617
 21
510.6033882236
 31
0.0
  0
LINE
  5
241
330
1F
100
AcDbEntity
  8
0
  6
Continuous
 62
     7
370
    15
100
AcDbLine
 10
249.0720620645
 20
510.6060406303
 30
0.0
 11
245.6370612873
 21
510.6060406303
 31
0.0
  0
LINE
  5
242
330
1F
100
AcDbEntity
  8
0
  6
Continuous
 62
     7
370
    15
100
AcDbLine
 10
249.0720620645
 20
509.8060419893
 30
0.0
 11
244.9643036617
 21
509.8060419893
 31
0.0
  0
LINE
  5
243
330
1F
100
AcDbEntity
  8
0
  6
Continuous
 62
     7
370
    15
100
AcDbLine
 10
243.0720648063
 20
495.4060366487
 30
0.0
 11
244.9643036617
 21
495.4060366487
 31
0.0
  0
LINE
  5
244
330
1F
100
AcDbEntity
  8
0
  6
Continuous
 62
     7
370
    15
100
AcDbLine
 10
243.0720648063
 20
509.8060419893
 30
0.0
 11
244.9643036617
 21
509.8060419893
 31
0.0
  0
LINE
  5
245
330
1F
100
AcDbEntity
  8
0
  6
Continuous
 62
     7
370
    15
100
AcDbLine
 10
244.1420724882
 20
510.9060457086
 30
0.0
 11
248.5420724643
 21
510.9060457086
 31
0.0
  0
LINE
  5
246
330
1F
100
AcDbEntity
  8
0
  6
Continuous
 62
     7
370
    15
100
AcDbLine
 10
244.2420592798
 20
494.2060461378
 30
0.0
 11
248.4420707716
 21
494.2060461378
 31
0.0
  0
LINE
  5
247
330
1F
100
AcDbEntity
  8
0
  6
Continuous
 62
     7
370
    15
100
AcDbLine
 10
244.2420592798
 20
493.8060393667
 30
0.0
 11
248.4420707716
 21
493.8060393667
 31
0.0
  0
ARC
  5
248
330
1F
100
AcDbEntity
  8
0
  6
Continuous
 62
     7
370
    15
100
AcDbCircle
 10
226.5379784829
 20
502.606039319
 30
0.0
 40
16.90401408232894
100
AcDbArc
 50
154.7901718738
 51
205.2098281262
  0
SPLINE
  5
249
330
1F
100
AcDbEntity
  8
0
  6
Continuous
 62
     7
370
    15
100
AcDbSpline
210
0.0
220
0.0
230
1.0
 70
     8
 71
     3
 72
    12
 73
     8
 74
     0
 42
0.00000001
 43
0.00000001
 40
0.0
 40
0.0
 40
0.0
 40
0.0
 40
0.1818825444540627
 40
0.3633449413033811
 40
0.5550836662988128
 40
0.7712676109962568
 40
1.0
 40
1.0
 40
1.0
 40
1.0
 10
211.3763859761938
 20
494.6060380077254
 30
0.0
 10
211.4002430791703
 20
494.6133604054648
 30
0.0
 10
211.447902175356
 20
494.627988286248
 30
0.0
 10
211.4626529888037
 20
494.739984826594
 30
0.0
 10
211.4354189423223
 20
494.90938040042
 30
0.0
 10
211.363743401299
 20
495.1377868558023
 30
0.0
 10
211.2846606585144
 20
495.3149544364227
 30
0.0
 10
211.2440040601477
 20
495.4060366487395
 30
0.0
  0
LINE
  5
24A
330
1F
100
AcDbEntity
  8
0
  6
Continuous
 62
     7
370
    15
100
AcDbLine
 10
210.9920254244
 20
495.3605434036
 30
0.0
 11
211.3464644445
 21
494.6060380077
 31
0.0
  0
ARC
  5
24B
330
1F
100
AcDbEntity
  8
0
  6
Continuous
 62
     7
370
    15
100
AcDbCircle
 10
226.2625762794
 20
502.606039319
 30
0.0
 40
16.90227601465673
100
AcDbArc
 50
154.6168257198
 51
205.3831742802
  0
LINE
  5
24C
330
1F
100
AcDbEntity
  8
0
  6
Continuous
 62
     7
370
    15
100
AcDbLine
 10
211.3464644445
 20
510.6060406303
 30
0.0
 11
210.9920254244
 21
509.8515352344
 31
0.0
  0
SPLINE
  5
24D
330
1F
100
AcDbEntity
  8
0
  6
Continuous
 62
     7
370
    15
100
AcDbSpline
210
0.0
220
0.0
230
1.0
 70
     8
 71
     3
 72
    12
 73
     8
 74
     0
 42
0.00000001
 43
0.00000001
 40
0.0
 40
0.0
 40
0.0
 40
0.0
 40
0.2510114819641536
 40
0.5023967714756553
 40
0.7402775972796664
 40
0.9473076891039195
 40
1.0
 40
1.0
 40
1.0
 40
1.0
 10
211.2440040601477
 20
509.8060419893156
 30
0.0
 10
211.2883225821038
 20
509.9059214983035
 30
0.0
 10
211.3770256253794
 20
510.1058292573408
 30
0.0
 10
211.4520078407417
 20
510.3645576191198
 30
0.0
 10
211.4635170931164
 20
510.5417951376496
 30
0.0
 10
211.4218682028088
 20
510.6022556056266
 30
0.0
 10
211.3840570733624
 20
510.6054022426684
 30
0.0
 10
211.3763859761938
 20
510.6060406303297
 30
0.0
  0
LINE
  5
24E
330
1F
100
AcDbEntity
  8
0
  6
Continuous
 62
     7
370
    15
100
AcDbLine
 10
211.3763859762
 20
510.6060406303
 30
0.0
 11
211.3464644445
 21
510.6060406303
 31
0.0
  0
LINE
  5
24F
330
1F
100
AcDbEntity
  8
0
  6
Continuous
 62
     7
370
    15
100
AcDbLine
 10
211.3763859762
 20
494.6060380077
 30
0.0
 11
211.3464644445
 21
494.6060380077
 31
0.0
  0
LINE
  5
250
330
1F
100
AcDbEntity
  8
0
  6
Continuous
 62
     7
370
    15
100
AcDbLine
 10
213.2334878935
 20
509.8060419893
 30
0.0
 11
211.2440040601
 21
509.8060419893
 31
0.0
  0
LINE
  5
251
330
1F
100
AcDbEntity
  8
0
  6
Continuous
 62
     7
370
    15
100
AcDbLine
 10
213.2334878935
 20
495.4060366487
 30
0.0
 11
213.2334878935
 21
509.8060419893
 31
0.0
  0
LINE
  5
252
330
1F
100
AcDbEntity
  8
0
  6
Continuous
 62
     7
370
    15
100
AcDbLine
 10
211.2440040601
 20
495.4060366487
 30
0.0
 11
213.2334878935
 21
495.4060366487
 31
0.0
  0
LWPOLYLINE
  5
253
330
1F
100
AcDbEntity
  8
0
  6
Continuous
 62
     7
370
    15
100
AcDbPolyline
 90
        9
 70
   128
 43
0.0
 10
213.2334878935
 20
509.8060419893
 10
213.2282277836
 20
509.9621167517
 10
213.2126560701
 20
510.112186346
 10
213.1873687996
 20
510.2504989242
 10
213.1533494486
 20
510.3717198706
 10
213.111879517
 20
510.4712149238
 10
213.0645683302
 20
510.5451395845
 10
213.013248731
 20
510.590662632
 10
212.9598727716
 20
510.6060406303
  0
LINE
  5
254
330
1F
100
AcDbEntity
  8
0
  6
Continuous
 62
     7
370
    15
100
AcDbLine
 10
211.3763859762
 20
510.6060406303
 30
0.0
 11
212.9598727716
 21
510.6060406303
 31
0.0
  0
LWPOLYLINE
  5
255
330
1F
100
AcDbEntity
  8
0
  6
Continuous
 62
     7
370
    15
100
AcDbPolyline
 90
        9
 70
   128
 43
0.0
 10
213.2334878935
 20
495.4060366487
 10
213.2282277836
 20
495.2499618864
 10
213.2126560701
 20
495.099892292
 10
213.1873687996
 20
494.9615797138
 10
213.1533494486
 20
494.8403587675
 10
213.111879517
 20
494.7408637142
 10
213.0645683302
 20
494.6669390535
 10
213.013248731
 20
494.6214160061
 10
212.9598727716
 20
494.6060380077
  0
LINE
  5
256
330
1F
100
AcDbEntity
  8
0
  6
Continuous
 62
     7
370
    15
100
AcDbLine
 10
212.9598727716
 20
494.6060380077
 30
0.0
 11
211.3763859762
 21
494.6060380077
 31
0.0
  0
LINE
  5
257
330
1F
100
AcDbEntity
  8
0
  6
Continuous
 62
     7
370
    15
100
AcDbLine
 10
213.2334878935
 20
495.4060366487
 30
0.0
 11
218.1323340429
 21
495.4060366487
 31
0.0
  0
LINE
  5
258
330
1F
100
AcDbEntity
  8
0
  6
Continuous
 62
     7
370
    15
100
AcDbLine
 10
218.2712575687
 20
494.6060380077
 30
0.0
 11
212.9598727716
 21
494.6060380077
 31
0.0
  0
LINE
  5
259
330
1F
100
AcDbEntity
  8
0
  6
Continuous
 62
     7
370
    15
100
AcDbLine
 10
218.1323340429
 20
509.8060419893
 30
0.0
 11
213.2334878935
 21
509.8060419893
 31
0.0
  0
LINE
  5
25A
330
1F
100
AcDbEntity
  8
0
  6
Continuous
 62
     7
370
    15
100
AcDbLine
 10
212.9598727716
 20
510.6060406303
 30
0.0
 11
218.2712575687
 21
510.6060406303
 31
0.0
  0
LINE
  5
25B
330
1F
100
AcDbEntity
  8
0
  6
Continuous
 62
     7
370
    15
100
AcDbLine
 10
249.5729944004
 20
27.9060354566
 30
0.0
 11
249.5729944004
 21
36.5060469246
 31
0.0
  0
LINE
  5
25C
330
1F
100
AcDbEntity
  8
0
  6
Continuous
 62
     7
370
    15
100
AcDbLine
 10
244.0587004913
 20
27.9060354566
 30
0.0
 11
244.0587004913
 21
36.5060469246
 31
0.0
  0
LINE
  5
25D
330
1F
100
AcDbEntity
  8
0
  6
Continuous
 62
     7
370
    15
100
AcDbLine
 10
249.5729944004
 20
36.5060469246
 30
0.0
 11
244.0587004913
 21
36.5060469246
 31
0.0
  0
LINE
  5
25E
330
1F
100
AcDbEntity
  8
0
  6
Continuous
 62
     7
370
    15
100
AcDbLine
 10
249.5729944004
 20
27.9060354566
 30
0.0
 11
244.0587004913
 21
27.9060354566
 31
0.0
  0
LINE
  5
25F
330
1F
100
AcDbEntity
  8
0
  6
Continuous
 62
     7
370
    15
100
AcDbLine
 10
242.9444363607
 20
39.8060431814
 30
0.0
 11
218.1323340429
 21
39.8060431814
 31
0.0
  0
LINE
  5
260
330
1F
100
AcDbEntity
  8
0
  6
Continuous
 62
     7
370
    15
100
AcDbLine
 10
242.9444363607
 20
36.5060469246
 30
0.0
 11
242.9444363607
 21
39.8060431814
 31
0.0
  0
LINE
  5
261
330
1F
100
AcDbEntity
  8
0
  6
Continuous
 62
     7
370
    15
100
AcDbLine
 10
242.9444363607
 20
25.4060378408
 30
0.0
 11
242.9444363607
 21
27.9060354566
 31
0.0
  0
LINE
  5
262
330
1F
100
AcDbEntity
  8
0
  6
Continuous
 62
     7
370
    15
100
AcDbLine
 10
218.1323340429
 20
25.4060378408
 30
0.0
 11
242.9444363607
 21
25.4060378408
 31
0.0
  0
LINE
  5
263
330
1F
100
AcDbEntity
  8
0
  6
Continuous
 62
     7
370
    15
100
AcDbLine
 10
218.1323340429
 20
25.4060378408
 30
0.0
 11
218.1323340429
 21
39.8060431814
 31
0.0
  0
LINE
  5
264
330
1F
100
AcDbEntity
  8
0
  6
Continuous
 62
     7
370
    15
100
AcDbLine
 10
242.9444363607
 20
36.5060469246
 30
0.0
 11
244.0587004913
 21
36.5060469246
 31
0.0
  0
LINE
  5
265
330
1F
100
AcDbEntity
  8
0
  6
Continuous
 62
     7
370
    15
100
AcDbLine
 10
242.9444363607
 20
27.9060354566
 30
0.0
 11
244.0587004913
 21
27.9060354566
 31
0.0
  0
LINE
  5
266
330
1F
100
AcDbEntity
  8
0
  6
Continuous
 62
     7
370
    15
100
AcDbLine
 10
243.0720648063
 20
24.6086916065
 30
0.0
 11
244.9643036617
 21
24.6086916065
 31
0.0
  0
LINE
  5
267
330
1F
100
AcDbEntity
  8
0
  6
Continuous
 62
     7
370
    15
100
AcDbLine
 10
244.9643036617
 20
24.6086916065
 30
0.0
 11
245.6370612873
 21
24.6060391998
 31
0.0
  0
LINE
  5
268
330
1F
100
AcDbEntity
  8
0
  6
Continuous
 62
     7
370
    15
100
AcDbLine
 10
245.6370612873
 20
24.6060391998
 30
0.0
 11
218.2712575687
 21
24.6060391998
 31
0.0
  0
ARC
  5
269
330
1F
100
AcDbEntity
  8
0
  6
Continuous
 62
     7
370
    15
100
AcDbCircle
 10
219.3882568398
 20
25.2120730579
 30
0.0
 40
1.270812499494434
100
AcDbArc
 50
171.2205995842
 51
208.4822784261
  0
ARC
  5
26A
330
1F
100
AcDbEntity
  8
0
  6
Continuous
 62
     7
370
    15
100
AcDbCircle
 10
244.4187513493
 20
25.233138688
 30
0.0
 40
1.484418674970808
100
AcDbArc
 50
173.3112340828
 51
204.8767532576
  0
LINE
  5
26B
330
1F
100
AcDbEntity
  8
0
  6
Continuous
 62
     7
370
    15
100
AcDbLine
 10
244.9643036617
 20
40.6033894157
 30
0.0
 11
243.0720648063
 21
40.6033894157
 31
0.0
  0
ARC
  5
26C
330
1F
100
AcDbEntity
  8
0
  6
Continuous
 62
     7
370
    15
100
AcDbCircle
 10
244.4187513493
 20
39.9789423342
 30
0.0
 40
1.484418674970809
100
AcDbArc
 50
155.1232467424
 51
186.6887659172
  0
ARC
  5
26D
330
1F
100
AcDbEntity
  8
0
  6
Continuous
 62
     7
370
    15
100
AcDbCircle
 10
219.3882568398
 20
40.0000079643
 30
0.0
 40
1.270812499494435
100
AcDbArc
 50
151.5177215739
 51
188.7794004158
  0
LINE
  5
26E
330
1F
100
AcDbEntity
  8
0
  6
Continuous
 62
     7
370
    15
100
AcDbLine
 10
218.2712575687
 20
40.6060418224
 30
0.0
 11
245.6370612873
 21
40.6060418224
 31
0.0
  0
LINE
  5
26F
330
1F
100
AcDbEntity
  8
0
  6
Continuous
 62
     7
370
    15
100
AcDbLine
 10
245.6370612873
 20
40.6060418224
 30
0.0
 11
244.9643036617
 21
40.6033894157
 31
0.0
  0
LINE
  5
270
330
1F
100
AcDbEntity
  8
0
  6
Continuous
 62
     7
370
    15
100
AcDbLine
 10
243.0720648063
 20
24.6086916065
 30
0.0
 11
243.0720648063
 21
25.4060378408
 31
0.0
  0
LINE
  5
271
330
1F
100
AcDbEntity
  8
0
  6
Continuous
 62
     7
370
    15
100
AcDbLine
 10
243.0833598865
 20
27.9060354566
 30
0.0
 11
243.0833598865
 21
25.4060378408
 31
0.0
  0
LINE
  5
272
330
1F
100
AcDbEntity
  8
0
  6
Continuous
 62
     7
370
    15
100
AcDbLine
 10
243.0720648063
 20
39.8060431814
 30
0.0
 11
243.0720648063
 21
40.6033894157
 31
0.0
  0
LINE
  5
273
330
1F
100
AcDbEntity
  8
0
  6
Continuous
 62
     7
370
    15
100
AcDbLine
 10
243.0833598865
 20
39.8060431814
 30
0.0
 11
243.0833598865
 21
36.5060469246
 31
0.0
  0
LINE
  5
274
330
1F
100
AcDbEntity
  8
0
  6
Continuous
 62
     7
370
    15
100
AcDbLine
 10
249.0720620645
 20
24.6060391998
 30
0.0
 11
245.6370612873
 21
24.6060391998
 31
0.0
  0
LINE
  5
275
330
1F
100
AcDbEntity
  8
0
  6
Continuous
 62
     7
370
    15
100
AcDbLine
 10
244.9643036617
 20
24.6086916065
 30
0.0
 11
244.9643036617
 21
25.4060378408
 31
0.0
  0
LINE
  5
276
330
1F
100
AcDbEntity
  8
0
  6
Continuous
 62
     7
370
    15
100
AcDbLine
 10
249.0720620645
 20
25.4060378408
 30
0.0
 11
244.9643036617
 21
25.4060378408
 31
0.0
  0
LINE
  5
277
330
1F
100
AcDbEntity
  8
0
  6
Continuous
 62
     7
370
    15
100
AcDbLine
 10
244.9643036617
 20
39.8060431814
 30
0.0
 11
244.9643036617
 21
40.6033894157
 31
0.0
  0
LINE
  5
278
330
1F
100
AcDbEntity
  8
0
  6
Continuous
 62
     7
370
    15
100
AcDbLine
 10
249.0720620645
 20
40.6060418224
 30
0.0
 11
245.6370612873
 21
40.6060418224
 31
0.0
  0
LINE
  5
279
330
1F
100
AcDbEntity
  8
0
  6
Continuous
 62
     7
370
    15
100
AcDbLine
 10
249.0720620645
 20
39.8060431814
 30
0.0
 11
244.9643036617
 21
39.8060431814
 31
0.0
  0
LINE
  5
27A
330
1F
100
AcDbEntity
  8
0
  6
Continuous
 62
     7
370
    15
100
AcDbLine
 10
243.0720648063
 20
25.4060378408
 30
0.0
 11
244.9643036617
 21
25.4060378408
 31
0.0
  0
LINE
  5
27B
330
1F
100
AcDbEntity
  8
0
  6
Continuous
 62
     7
370
    15
100
AcDbLine
 10
243.0720648063
 20
39.8060431814
 30
0.0
 11
244.9643036617
 21
39.8060431814
 31
0.0
  0
LINE
  5
27C
330
1F
100
AcDbEntity
  8
0
  6
Continuous
 62
     7
370
    15
100
AcDbLine
 10
244.1420724882
 20
40.9060469007
 30
0.0
 11
248.5420724643
 21
40.9060469007
 31
0.0
  0
LINE
  5
27D
330
1F
100
AcDbEntity
  8
0
  6
Continuous
 62
     7
370
    15
100
AcDbLine
 10
244.2420592798
 20
23.8060405588
 30
0.0
 11
248.4420707716
 21
23.8060405588
 31
0.0
  0
LINE
  5
27E
330
1F
100
AcDbEntity
  8
0
  6
Continuous
 62
     7
370
    15
100
AcDbLine
 10
244.2420592798
 20
24.2060473299
 30
0.0
 11
248.4420707716
 21
24.2060473299
 31
0.0
  0
ARC
  5
27F
330
1F
100
AcDbEntity
  8
0
  6
Continuous
 62
     7
370
    15
100
AcDbCircle
 10
226.5379784829
 20
32.6060405111
 30
0.0
 40
16.90401408232907
100
AcDbArc
 50
154.7901718738
 51
205.2098281262
  0
SPLINE
  5
280
330
1F
100
AcDbEntity
  8
0
  6
Continuous
 62
     7
370
    15
100
AcDbSpline
210
0.0
220
0.0
230
1.0
 70
     8
 71
     3
 72
    12
 73
     8
 74
     0
 42
0.00000001
 43
0.00000001
 40
0.0
 40
0.0
 40
0.0
 40
0.0
 40
0.1818822321958606
 40
0.3633443175082915
 40
0.5550756114976005
 40
0.7712680036868516
 40
1.0
 40
1.0
 40
1.0
 40
1.0
 10
211.3763859761938
 20
24.60603919981824
 30
0.0
 10
211.4002430193216
 20
24.61336133791387
 30
0.0
 10
211.4479019959485
 20
24.62798870000932
 30
0.0
 10
211.4626535326476
 20
24.73998776391789
 30
0.0
 10
211.4354164107929
 20
24.90936633133453
 30
0.0
 10
211.3637459407877
 20
25.13778779441281
 30
0.0
 10
211.2846609885438
 20
25.31495673477938
 30
0.0
 10
211.2440040601477
 20
25.40603784083234
 30
0.0
  0
LINE
  5
281
330
1F
100
AcDbEntity
  8
0
  6
Continuous
 62
     7
370
    15
100
AcDbLine
 10
210.9920254244
 20
25.3605445957
 30
0.0
 11
211.3464644445
 21
24.6060391998
 31
0.0
  0
ARC
  5
282
330
1F
100
AcDbEntity
  8
0
  6
Continuous
 62
     7
370
    15
100
AcDbCircle
 10
226.2625762794
 20
32.6060405111
 30
0.0
 40
16.90227601465686
100
AcDbArc
 50
154.6168257198
 51
205.3831742802
  0
LINE
  5
283
330
1F
100
AcDbEntity
  8
0
  6
Continuous
 62
     7
370
    15
100
AcDbLine
 10
211.3464644445
 20
40.6060418224
 30
0.0
 11
210.9920254244
 21
39.8515364265
 31
0.0
  0
SPLINE
  5
284
330
1F
100
AcDbEntity
  8
0
  6
Continuous
 62
     7
370
    15
100
AcDbSpline
210
0.0
220
0.0
230
1.0
 70
     8
 71
     3
 72
    12
 73
     8
 74
     0
 42
0.00000001
 43
0.00000001
 40
0.0
 40
0.0
 40
0.0
 40
0.0
 40
0.2510120705003709
 40
0.5023979494245409
 40
0.740279332977864
 40
0.9473070750771365
 40
1.0
 40
1.0
 40
1.0
 40
1.0
 10
211.2440040601477
 20
39.80604318140851
 30
0.0
 10
211.2883225961803
 20
39.90592307204363
 30
0.0
 10
211.3770256676298
 20
40.10583159494369
 30
0.0
 10
211.4520076752361
 20
40.36455432396608
 30
0.0
 10
211.4635175979842
 20
40.54181056678577
 30
0.0
 10
211.4218674514261
 20
40.60222317450876
 30
0.0
 10
211.3840570635651
 20
40.60539775400493
 30
0.0
 10
211.3763859761938
 20
40.60604182242261
 30
0.0
  0
LINE
  5
285
330
1F
100
AcDbEntity
  8
0
  6
Continuous
 62
     7
370
    15
100
AcDbLine
 10
211.3763859762
 20
40.6060418224
 30
0.0
 11
211.3464644445
 21
40.6060418224
 31
0.0
  0
LINE
  5
286
330
1F
100
AcDbEntity
  8
0
  6
Continuous
 62
     7
370
    15
100
AcDbLine
 10
211.3763859762
 20
24.6060391998
 30
0.0
 11
211.3464644445
 21
24.6060391998
 31
0.0
  0
LINE
  5
287
330
1F
100
AcDbEntity
  8
0
  6
Continuous
 62
     7
370
    15
100
AcDbLine
 10
213.2334878935
 20
39.8060431814
 30
0.0
 11
211.2440040601
 21
39.8060431814
 31
0.0
  0
LINE
  5
288
330
1F
100
AcDbEntity
  8
0
  6
Continuous
 62
     7
370
    15
100
AcDbLine
 10
213.2334878935
 20
25.4060378408
 30
0.0
 11
213.2334878935
 21
39.8060431814
 31
0.0
  0
LINE
  5
289
330
1F
100
AcDbEntity
  8
0
  6
Continuous
 62
     7
370
    15
100
AcDbLine
 10
211.2440040601
 20
25.4060378408
 30
0.0
 11
213.2334878935
 21
25.4060378408
 31
0.0
  0
LWPOLYLINE
  5
28A
330
1F
100
AcDbEntity
  8
0
  6
Continuous
 62
     7
370
    15
100
AcDbPolyline
 90
        9
 70
   128
 43
0.0
 10
213.2334878935
 20
39.8060431814
 10
213.2282277836
 20
39.9621179438
 10
213.2126560701
 20
40.1121875381
 10
213.1873687996
 20
40.2505001163
 10
213.1533494486
 20
40.3717210626
 10
213.111879517
 20
40.4712161159
 10
213.0645683302
 20
40.5451407766
 10
213.013248731
 20
40.5906638241
 10
212.9598727716
 20
40.6060418224
  0
LINE
  5
28B
330
1F
100
AcDbEntity
  8
0
  6
Continuous
 62
     7
370
    15
100
AcDbLine
 10
211.3763859762
 20
40.6060418224
 30
0.0
 11
212.9598727716
 21
40.6060418224
 31
0.0
  0
LWPOLYLINE
  5
28C
330
1F
100
AcDbEntity
  8
0
  6
Continuous
 62
     7
370
    15
100
AcDbPolyline
 90
        9
 70
   128
 43
0.0
 10
213.2334878935
 20
25.4060378408
 10
213.2282277836
 20
25.2499630785
 10
213.2126560701
 20
25.0998934841
 10
213.1873687996
 20
24.9615809059
 10
213.1533494486
 20
24.8403599596
 10
213.111879517
 20
24.7408649063
 10
213.0645683302
 20
24.6669402456
 10
213.013248731
 20
24.6214171982
 10
212.9598727716
 20
24.6060391998
  0
LINE
  5
28D
330
1F
100
AcDbEntity
  8
0
  6
Continuous
 62
     7
370
    15
100
AcDbLine
 10
212.9598727716
 20
24.6060391998
 30
0.0
 11
211.3763859762
 21
24.6060391998
 31
0.0
  0
LINE
  5
28E
330
1F
100
AcDbEntity
  8
0
  6
Continuous
 62
     7
370
    15
100
AcDbLine
 10
213.2334878935
 20
25.4060378408
 30
0.0
 11
218.1323340429
 21
25.4060378408
 31
0.0
  0
LINE
  5
28F
330
1F
100
AcDbEntity
  8
0
  6
Continuous
 62
     7
370
    15
100
AcDbLine
 10
218.2712575687
 20
24.6060391998
 30
0.0
 11
212.9598727716
 21
24.6060391998
 31
0.0
  0
LINE
  5
290
330
1F
100
AcDbEntity
  8
0
  6
Continuous
 62
     7
370
    15
100
AcDbLine
 10
218.1323340429
 20
39.8060431814
 30
0.0
 11
213.2334878935
 21
39.8060431814
 31
0.0
  0
LINE
  5
291
330
1F
100
AcDbEntity
  8
0
  6
Continuous
 62
     7
370
    15
100
AcDbLine
 10
212.9598727716
 20
40.6060418224
 30
0.0
 11
218.2712575687
 21
40.6060418224
 31
0.0
  0
SPLINE
  5
292
330
1F
100
AcDbEntity
  8
0
  6
Continuous
 62
     7
370
    15
100
AcDbSpline
210
0.0
220
0.0
230
1.0
 70
     8
 71
     3
 72
    16
 73
    12
 74
     0
 42
0.00000001
 43
0.00000001
 40
0.0
 40
0.0
 40
0.0
 40
0.0
 40
0.1207066004834676
 40
0.241414065710304
 40
0.3621160716125817
 40
0.4828237649563091
 40
0.6035298043939075
 40
0.7242365167263165
 40
0.8449396659989244
 40
0.9656486556612195
 40
1.0
 40
1.0
 40
1.0
 40
1.0
 10
244.5143630994543
 20
19.65366807936533
 30
0.0
 10
244.5337639616997
 20
19.65634581395734
 30
0.0
 10
244.5725658251784
 20
19.6617013023247
 30
0.0
 10
244.5774897112476
 20
19.95260729974244
 30
0.0
 10
244.5402722891806
 20
20.40598155172976
 30
0.0
 10
244.463376390586
 20
20.97349450317898
 30
0.0
 10
244.3595400948751
 20
21.56182616048829
 30
0.0
 10
244.2434548694718
 20
22.08852708611542
 30
0.0
 10
244.1364362061913
 20
22.45180206520062
 30
0.0
 10
244.0638670011606
 20
22.6222811651304
 30
0.0
 10
244.0443158940709
 20
22.58912198633886
 30
0.0
 10
244.0399846328482
 20
22.58177605627881
 30
0.0
  0
SPLINE
  5
293
330
1F
100
AcDbEntity
  8
0
  6
Continuous
 62
     7
370
    15
100
AcDbSpline
210
0.0
220
0.0
230
1.0
 70
     8
 71
     3
 72
    16
 73
    12
 74
     0
 42
0.00000001
 43
0.00000001
 40
0.0
 40
0.0
 40
0.0
 40
0.0
 40
0.1205773130808821
 40
0.2411630015605836
 40
0.3617418155659114
 40
0.4823238081722991
 40
0.6029061198066487
 40
0.7234896354385915
 40
0.8440715182238145
 40
0.9646564228523614
 40
1.0
 40
1.0
 40
1.0
 40
1.0
 10
244.6849515928015
 20
45.52969840525495
 30
0.0
 10
244.7043526126147
 20
45.52702043728343
 30
0.0
 10
244.7431559998521
 20
45.52166431532639
 30
0.0
 10
244.7480760478088
 20
45.23074206848618
 30
0.0
 10
244.7108685316186
 20
44.77737218644135
 30
0.0
 10
244.6339385340465
 20
44.20987408842525
 30
0.0
 10
244.530133763949
 20
43.62152565998711
 30
0.0
 10
244.4140466945699
 20
43.0948842002073
 30
0.0
 10
244.3070026997452
 20
42.73138533858029
 30
0.0
 10
244.2342479430311
 20
42.56086251694325
 30
0.0
 10
244.2146076636352
 20
42.59444123411221
 30
0.0
 10
244.2101558936819
 20
42.6020523643385
 30
0.0
  0
SPLINE
  5
294
330
1F
100
AcDbEntity
  8
0
  6
Continuous
 62
     7
370
    15
100
AcDbSpline
210
0.0
220
0.0
230
1.0
 70
     8
 71
     3
 72
    16
 73
    12
 74
     0
 42
0.00000001
 43
0.00000001
 40
0.0
 40
0.0
 40
0.0
 40
0.0
 40
0.1205177302061663
 40
0.2410325934015554
 40
0.3615499889352475
 40
0.4820676074668435
 40
0.6025845352465417
 40
0.7230999940129991
 40
0.8436164931761072
 40
0.9641310894240808
 40
0.9999999999999999
 40
0.9999999999999999
 40
0.9999999999999999
 40
0.9999999999999999
 10
260.0553354514822
 20
22.2700884675871
 30
0.0
 10
260.0747365513349
 20
22.272756469567
 30
0.0
 10
260.1135382895056
 20
22.27809241005727
 30
0.0
 10
260.1184594432185
 20
22.56905103053983
 30
0.0
 10
260.0812530244613
 20
23.02238552613003
 30
0.0
 10
260.0043228302939
 20
23.58991480643208
 30
0.0
 10
259.900518400403
 20
24.1782620029545
 30
0.0
 10
259.7844321249697
 20
24.70487089568113
 30
0.0
 10
259.6773760369908
 20
25.06845263072202
 30
0.0
 10
259.6045231080162
 20
25.23905388431044
 30
0.0
 10
259.5848325587302
 20
25.20523748810741
 30
0.0
 10
259.5803162349447
 20
25.19748118876325
 30
0.0
  0
SPLINE
  5
295
330
1F
100
AcDbEntity
  8
0
  6
Continuous
 62
     7
370
    15
100
AcDbSpline
210
0.0
220
0.0
230
1.0
 70
     8
 71
     3
 72
    16
 73
    12
 74
     0
 42
0.00000001
 43
0.00000001
 40
0.0
 40
0.0
 40
0.0
 40
0.0
 40
0.1205178887985882
 40
0.2410326213457433
 40
0.3615498862284561
 40
0.482064480341296
 40
0.6025812774705218
 40
0.7230970929169649
 40
0.8436175482792354
 40
0.9641311283089926
 40
1.0
 40
1.0
 40
1.0
 40
1.0
 10
260.2259239448293
 20
42.91327801703321
 30
0.0
 10
260.2453250725686
 20
42.91060378467692
 30
0.0
 10
260.2841268199498
 20
42.90525539000015
 30
0.0
 10
260.2890476114401
 20
42.61430162293101
 30
0.0
 10
260.2518430750905
 20
42.16096942190692
 30
0.0
 10
260.1749080013204
 20
41.59344630399958
 30
0.0
 10
260.0711140387152
 20
41.00510888467837
 30
0.0
 10
259.9549923367031
 20
40.47846813919232
 30
0.0
 10
259.847974644819
 20
40.11490311373942
 30
0.0
 10
259.7751109045045
 20
39.94431349912369
 30
0.0
 10
259.7554209428661
 20
39.97812912847923
 30
0.0
 10
259.7509047282919
 20
39.98588529585706
 30
0.0
  0
SPLINE
  5
296
330
1F
100
AcDbEntity
  8
0
  6
Continuous
 62
     7
370
    15
100
AcDbSpline
210
0.0
220
0.0
230
1.0
 70
    24
 71
     3
 72
    16
 73
    12
 74
     0
 42
0.00000001
 43
0.00000001
 40
0.0
 40
0.0
 40
0.0
 40
0.0
 40
0.0611042260699412
 40
0.1864670038060815
 40
0.3118320320058386
 40
0.4371949488658223
 40
0.5625600988373968
 40
0.6879240836221383
 40
0.8132868438052594
 40
0.9386468178623724
 40
1.0
 40
1.0
 40
1.0
 40
1.0
 10
263.1322464240774
 20
25.73980895041331
 30
0.0
 10
263.1380194433985
 20
25.73980895041333
 30
0.0
 10
263.1556365164714
 20
25.73980895041333
 30
0.0
 10
262.9371968787743
 20
25.7398089504132
 30
0.0
 10
262.5244718568915
 20
25.73980895041342
 30
0.0
 10
261.9679991348291
 20
25.73980895041322
 30
0.0
 10
261.3688882384643
 20
25.73980895041342
 30
0.0
 10
260.8101969482299
 20
25.73980895041328
 30
0.0
 10
260.3932408017728
 20
25.73980895041342
 30
0.0
 10
260.1702385970049
 20
25.73980895041331
 30
0.0
 10
260.1850543449838
 20
25.73980895041328
 30
0.0
 10
260.189922739385
 20
25.73980895041333
 30
0.0
  0
SPLINE
  5
297
330
1F
100
AcDbEntity
  8
0
  6
Continuous
 62
     7
370
    15
100
AcDbSpline
210
0.0
220
0.0
230
1.0
 70
    24
 71
     3
 72
    16
 73
    12
 74
     0
 42
0.00000001
 43
0.00000001
 40
0.0
 40
0.0
 40
0.0
 40
0.0
 40
0.0610064761844534
 40
0.1861687080998494
 40
0.3113331868787419
 40
0.4364955576954215
 40
0.5616601580513301
 40
0.686823595084383
 40
0.8119858094748397
 40
0.9371452421963204
 40
1.0
 40
1.0
 40
1.0
 40
1.0
 10
263.1322464240774
 20
39.29843512534009
 30
0.0
 10
263.1380194371743
 20
39.29843512534009
 30
0.0
 10
263.1556364912529
 20
39.29843512534012
 30
0.0
 10
262.9371971125886
 20
39.29843512534018
 30
0.0
 10
262.5244710002203
 20
39.29843512534001
 30
0.0
 10
261.9680023276592
 20
39.29843512534015
 30
0.0
 10
261.3688763236092
 20
39.29843512534009
 30
0.0
 10
260.8102414140996
 20
39.29843512534006
 30
0.0
 10
260.3930748562889
 20
39.29843512534015
 30
0.0
 10
260.1695826433497
 20
39.29843512534009
 30
0.0
 10
260.1848042299877
 20
39.29843512534009
 30
0.0
 10
260.1898929370626
 20
39.29843512534009
 30
0.0
  0
SPLINE
  5
298
330
1F
100
AcDbEntity
  8
0
  6
Continuous
 62
     7
370
    15
100
AcDbSpline
210
0.0
220
0.0
230
1.0
 70
     8
 71
     3
 72
    19
 73
    15
 74
     0
 42
0.00000001
 43
0.00000001
 40
0.0
 40
0.0
 40
0.0
 40
0.0
 40
0.003953618010488
 40
0.115776033706381
 40
0.2280442264825153
 40
0.3355253341044871
 40
0.4377150157146248
 40
0.5348790905667086
 40
0.6283064862964614
 40
0.7303034301856084
 40
0.8413391196583399
 40
0.964111897829361
 40
0.9937689521059837
 40
1.0
 40
1.0
 40
1.0
 40
1.0
 10
249.460341621755
 20
38.20604589938031
 30
0.0
 10
249.4607338826369
 20
38.20603885829957
 30
0.0
 10
249.4722206800367
 20
38.20583267034561
 30
0.0
 10
249.4955372225503
 20
38.19076694472659
 30
0.0
 10
249.5390126526994
 20
38.12382570776454
 30
0.0
 10
249.5769890479558
 20
38.01914783003949
 30
0.0
 10
249.6004900074348
 20
37.89406882319782
 30
0.0
 10
249.6118349588772
 20
37.76563299903465
 30
0.0
 10
249.6124111876951
 20
37.64446514446065
 30
0.0
 10
249.5966477034409
 20
37.53522881287305
 30
0.0
 10
249.5562638657241
 20
37.44581727475149
 30
0.0
 10
249.5044061972524
 20
37.41076058396192
 30
0.0
 10
249.4696826224367
 20
37.40615026314734
 30
0.0
 10
249.4617235162742
 20
37.40606249674882
 30
0.0
 10
249.460341621755
 20
37.40604725836621
 30
0.0
  0
SPLINE
  5
299
330
1F
100
AcDbEntity
  8
0
  6
Continuous
 62
     7
370
    15
100
AcDbSpline
210
0.0
220
0.0
230
1.0
 70
     8
 71
     3
 72
    30
 73
    26
 74
     0
 42
0.00000001
 43
0.00000001
 40
0.0
 40
0.0
 40
0.0
 40
0.0
 40
0.1247215464353782
 40
0.2494237815128954
 40
0.3741310122226426
 40
0.4367826532934281
 40
0.4681526055135949
 40
0.4838416918508273
 40
0.4916928727634536
 40
0.4956121120119286
 40
0.4975701667876981
 40
0.4985519412119752
 40
0.4990400775229306
 40
0.4992855211289998
 40
0.499418631613583
 40
0.4994827461131645
 40
0.4995065576405282
 40
0.49951846340421
 40
0.4995450855011267
 40
0.5609217869323919
 40
0.664629589509489
 40
0.7325820045544567
 40
0.8111543235660678
 40
0.9002866824298972
 40
1.0
 40
1.0
 40
1.0
 40
1.0
 10
249.5320460094198
 20
38.26593366621839
 30
0.0
 10
249.5378093578866
 20
38.26414255964622
 30
0.0
 10
249.5493351624478
 20
38.26056062382918
 30
0.0
 10
249.6391817809948
 20
38.23870366620169
 30
0.0
 10
249.7466633951787
 20
38.21304129784583
 30
0.0
 10
249.832205093378
 20
38.19262013608829
 30
0.0
 10
249.8763122591504
 20
38.18210242843273
 30
0.0
 10
249.898529356184
 20
38.17674843990393
 30
0.0
 10
249.9096748294241
 20
38.17412603040121
 30
0.0
 10
249.9152336904164
 20
38.17274876774179
 30
0.0
 10
249.9180273767563
 20
38.17212855688751
 30
0.0
 10
249.9194057177055
 20
38.17174333281512
 30
0.0
 10
249.9201114166965
 20
38.17161796452415
 30
0.0
 10
249.9204548905883
 20
38.1714993523421
 30
0.0
 10
249.9206441522623
 20
38.17149726543412
 30
0.0
 10
249.9207254732363
 20
38.17144274773388
 30
0.0
 10
249.9207675366023
 20
38.17144502161959
 30
0.0
 10
249.9207939932067
 20
38.17144687464496
 30
0.0
 10
249.9427685058337
 20
38.15600983453737
 30
0.0
 10
250.0154848127913
 20
38.15836199040126
 30
0.0
 10
250.1035194674841
 20
38.12979844297099
 30
0.0
 10
250.1876712086945
 20
38.11442138864651
 30
0.0
 10
250.2510326393992
 20
38.1010566826312
 30
0.0
 10
250.3016268955964
 20
38.09157549953935
 30
0.0
 10
250.3088365396085
 20
38.09108769111258
 30
0.0
 10
250.3126433385595
 20
38.09083012102948
 30
0.0
  0
ELLIPSE
  5
29A
330
1F
100
AcDbEntity
  8
0
  6
Continuous
 62
     7
370
    15
100
AcDbEllipse
 10
250.1891735911
 20
39.3880150938
 30
0.0
 11
0.3906095144046162
 21
-0.08616383961160069
 31
0.0
210
0.0
220
0.0
230
0.9999999999999997
 40
0.0142285888
 41
0.0
 42
6.283185307179586
  0
LINE
  5
29B
330
1F
100
AcDbEntity
  8
0
  6
Continuous
 62
     7
370
    15
100
AcDbLine
 10
249.3620684637
 20
26.8560400343
 30
0.0
 11
249.3620684637
 21
25.8560380077
 31
0.0
  0
LINE
  5
29C
330
1F
100
AcDbEntity
  8
0
  6
Continuous
 62
     7
370
    15
100
AcDbLine
 10
243.16206782
 20
26.8560400343
 30
0.0
 11
243.16206782
 21
25.8560380077
 31
0.0
  0
LINE
  5
29D
330
1F
100
AcDbEntity
  8
0
  6
Continuous
 62
     7
370
    15
100
AcDbLine
 10
249.3620684637
 20
26.8560400343
 30
0.0
 11
243.16206782
 21
26.8560400343
 31
0.0
  0
LINE
  5
29E
330
1F
100
AcDbEntity
  8
0
  6
Continuous
 62
     7
370
    15
100
AcDbLine
 10
249.3620684637
 20
25.8560380077
 30
0.0
 11
243.16206782
 21
25.8560380077
 31
0.0
  0
LINE
  5
29F
330
1F
100
AcDbEntity
  8
0
  6
Continuous
 62
     7
370
    15
100
AcDbLine
 10
249.3620684637
 20
509.3560418224
 30
0.0
 11
249.3620684637
 21
508.3560397959
 31
0.0
  0
LINE
  5
2A0
330
1F
100
AcDbEntity
  8
0
  6
Continuous
 62
     7
370
    15
100
AcDbLine
 10
243.16206782
 20
509.3560418224
 30
0.0
 11
243.16206782
 21
508.3560397959
 31
0.0
  0
LINE
  5
2A1
330
1F
100
AcDbEntity
  8
0
  6
Continuous
 62
     7
370
    15
100
AcDbLine
 10
249.3620684637
 20
508.3560397959
 30
0.0
 11
243.16206782
 21
508.3560397959
 31
0.0
  0
LINE
  5
2A2
330
1F
100
AcDbEntity
  8
0
  6
Continuous
 62
     7
370
    15
100
AcDbLine
 10
249.3620684637
 20
509.3560418224
 30
0.0
 11
243.16206782
 21
509.3560418224
 31
0.0
  0
LINE
  5
2A3
330
1F
100
AcDbEntity
  8
0
  6
Continuous
 62
     7
370
    15
100
AcDbLine
 10
249.3620684637
 20
39.3560430145
 30
0.0
 11
249.3620684637
 21
38.356040988
 31
0.0
  0
LINE
  5
2A4
330
1F
100
AcDbEntity
  8
0
  6
Continuous
 62
     7
370
    15
100
AcDbLine
 10
243.16206782
 20
39.3560430145
 30
0.0
 11
243.16206782
 21
38.356040988
 31
0.0
  0
LINE
  5
2A5
330
1F
100
AcDbEntity
  8
0
  6
Continuous
 62
     7
370
    15
100
AcDbLine
 10
249.3620684637
 20
38.356040988
 30
0.0
 11
243.16206782
 21
38.356040988
 31
0.0
  0
LINE
  5
2A6
330
1F
100
AcDbEntity
  8
0
  6
Continuous
 62
     7
370
    15
100
AcDbLine
 10
249.3620684637
 20
39.3560430145
 30
0.0
 11
243.16206782
 21
39.3560430145
 31
0.0
  0
LINE
  5
2A7
330
1F
100
AcDbEntity
  8
0
  6
Continuous
 62
     7
370
    15
100
AcDbLine
 10
249.3620684637
 20
496.8560388422
 30
0.0
 11
249.3620684637
 21
495.8560368156
 31
0.0
  0
LINE
  5
2A8
330
1F
100
AcDbEntity
  8
0
  6
Continuous
 62
     7
370
    15
100
AcDbLine
 10
249.3620684637
 20
495.8560368156
 30
0.0
 11
243.16206782
 21
495.8560368156
 31
0.0
  0
LINE
  5
2A9
330
1F
100
AcDbEntity
  8
0
  6
Continuous
 62
     7
370
    15
100
AcDbLine
 10
243.16206782
 20
496.8560388422
 30
0.0
 11
243.16206782
 21
495.8560368156
 31
0.0
  0
LINE
  5
2AA
330
1F
100
AcDbEntity
  8
0
  6
Continuous
 62
     7
370
    15
100
AcDbLine
 10
249.3620684637
 20
496.8560388422
 30
0.0
 11
243.16206782
 21
496.8560388422
 31
0.0
  0
LWPOLYLINE
  5
2AB
330
1F
100
AcDbEntity
  8
0
  6
Continuous
 62
     7
370
    15
100
AcDbPolyline
 90
        3
 70
   128
 43
0.0
 10
243.0833598865
 20
496.2448975181
 10
243.0859377874
 20
496.2387284374
 10
243.16206782
 20
495.8560368156
  0
LWPOLYLINE
  5
2AC
330
1F
100
AcDbEntity
  8
0
  6
Continuous
 62
     7
370
    15
100
AcDbPolyline
 90
        3
 70
   128
 43
0.0
 10
243.16206782
 20
509.3560418224
 10
243.0859377874
 20
508.9733502006
 10
243.0833598865
 20
508.9671811199
  0
LINE
  5
2AD
330
1F
100
AcDbEntity
  8
0
  6
Continuous
 62
     7
370
    15
100
AcDbLine
 10
249.3620684637
 20
508.3560397959
 30
0.0
 11
249.3620684637
 21
508.2060447073
 31
0.0
  0
LINE
  5
2AE
330
1F
100
AcDbEntity
  8
0
  6
Continuous
 62
     7
370
    15
100
AcDbLine
 10
249.3620684637
 20
507.4060460663
 30
0.0
 11
249.3620684637
 21
506.5060457325
 31
0.0
  0
LINE
  5
2AF
330
1F
100
AcDbEntity
  8
0
  6
Continuous
 62
     7
370
    15
100
AcDbLine
 10
249.3620684637
 20
497.9060342646
 30
0.0
 11
249.3620684637
 21
496.8560388422
 31
0.0
  0
LWPOLYLINE
  5
2B0
330
1F
100
AcDbEntity
  8
0
  6
Continuous
 62
     7
370
    15
100
AcDbPolyline
 90
        3
 70
   128
 43
0.0
 10
243.0833598865
 20
26.2448987102
 10
243.0859377874
 20
26.2387296295
 10
243.16206782
 20
25.8560380077
  0
LWPOLYLINE
  5
2B1
330
1F
100
AcDbEntity
  8
0
  6
Continuous
 62
     7
370
    15
100
AcDbPolyline
 90
        3
 70
   128
 43
0.0
 10
243.16206782
 20
39.3560430145
 10
243.0859377874
 20
38.9733513927
 10
243.0833598865
 20
38.967182312
  0
LINE
  5
2B2
330
1F
100
AcDbEntity
  8
0
  6
Continuous
 62
     7
370
    15
100
AcDbLine
 10
249.3620684637
 20
38.356040988
 30
0.0
 11
249.3620684637
 21
38.2060458994
 31
0.0
  0
LINE
  5
2B3
330
1F
100
AcDbEntity
  8
0
  6
Continuous
 62
     7
370
    15
100
AcDbLine
 10
249.3620684637
 20
37.4060472584
 30
0.0
 11
249.3620684637
 21
36.5060469246
 31
0.0
  0
LINE
  5
2B4
330
1F
100
AcDbEntity
  8
0
  6
Continuous
 62
     7
370
    15
100
AcDbLine
 10
249.3620684637
 20
27.9060354566
 30
0.0
 11
249.3620684637
 21
26.8560400343
 31
0.0
  0
LINE
  5
2B5
330
1F
100
AcDbEntity
  8
0
  6
Continuous
 62
     7
370
    15
100
AcDbLine
 10
262.3620650066
 20
552.6060363388
 30
0.0
 11
51.36206488
 21
552.6060363388
 31
0.0
  0
LINE
  5
2B6
330
1F
100
AcDbEntity
  8
0
  6
Continuous
 62
     7
370
    15
100
AcDbLine
 10
51.36206488
 20
567.606051836
 30
0.0
 11
51.36206488
 21
552.6060363388
 31
0.0
  0
LINE
  5
2B7
330
1F
100
AcDbEntity
  8
0
  6
Continuous
 62
     7
370
    15
100
AcDbLine
 10
262.3620650066
 20
567.606051836
 30
0.0
 11
51.36206488
 21
567.606051836
 31
0.0
  0
LINE
  5
2B8
330
1F
100
AcDbEntity
  8
0
  6
Continuous
 62
     7
370
    15
100
AcDbLine
 10
262.3620650066
 20
567.606051836
 30
0.0
 11
262.3620650066
 21
552.6060363388
 31
0.0
  0
LINE
  5
2B9
330
1F
100
AcDbEntity
  8
0
  6
Continuous
 62
     7
370
    15
100
AcDbLine
 10
262.3620650066
 20
-17.3939565086
 30
0.0
 11
51.36206488
 21
-17.3939565086
 31
0.0
  0
LINE
  5
2BA
330
1F
100
AcDbEntity
  8
0
  6
Continuous
 62
     7
370
    15
100
AcDbLine
 10
262.3620650066
 20
-17.3939565086
 30
0.0
 11
262.3620650066
 21
-32.3939720059
 31
0.0
  0
LINE
  5
2BB
330
1F
100
AcDbEntity
  8
0
  6
Continuous
 62
     7
370
    15
100
AcDbLine
 10
262.3620650066
 20
-32.3939720059
 30
0.0
 11
51.36206488
 21
-32.3939720059
 31
0.0
  0
LINE
  5
2BC
330
1F
100
AcDbEntity
  8
0
  6
Continuous
 62
     7
370
    15
100
AcDbLine
 10
51.36206488
 20
-17.3939565086
 30
0.0
 11
51.36206488
 21
-32.3939720059
 31
0.0
  0
LINE
  5
2BD
330
1F
100
AcDbEntity
  8
0
  6
Continuous
 62
     7
370
    15
100
AcDbLine
 10
51.36206488
 20
552.6060363388
 30
0.0
 11
51.36206488
 21
-17.3939565086
 31
0.0
  0
LINE
  5
2BE
330
1F
100
AcDbEntity
  8
0
  6
Continuous
 62
     7
370
    15
100
AcDbLine
 10
262.3620650066
 20
-17.3939565086
 30
0.0
 11
262.3620650066
 21
23.5981395578
 31
0.0
  0
LINE
  5
2BF
330
1F
100
AcDbEntity
  8
0
  6
Continuous
 62
     7
370
    15
100
AcDbLine
 10
262.3620650066
 20
41.5819635725
 30
0.0
 11
262.3620650066
 21
493.5981383657
 31
0.0
  0
LINE
  5
2C0
330
1F
100
AcDbEntity
  8
0
  6
Continuous
 62
     7
370
    15
100
AcDbLine
 10
262.3620650066
 20
511.5819623804
 30
0.0
 11
262.3620650066
 21
552.6060363388
 31
0.0
  0
LINE
  5
2C1
330
1F
100
AcDbEntity
  8
0
  6
Continuous
 62
     7
370
    15
100
AcDbLine
 10
56.3620647682
 20
547.6060411072
 30
0.0
 11
56.3620647682
 21
-12.393961277
 31
0.0
  0
LINE
  5
2C2
330
1F
100
AcDbEntity
  8
0
  6
Continuous
 62
     7
370
    15
100
AcDbLine
 10
242.3620691789
 20
-12.393961277
 30
0.0
 11
56.3620647682
 21
-12.393961277
 31
0.0
  0
LINE
  5
2C3
330
1F
100
AcDbEntity
  8
0
  6
Continuous
 62
     7
370
    15
100
AcDbLine
 10
242.3620691789
 20
-12.393961277
 30
0.0
 11
242.3620691789
 21
19.793500576
 31
0.0
  0
LINE
  5
2C4
330
1F
100
AcDbEntity
  8
0
  6
Continuous
 62
     7
370
    15
100
AcDbLine
 10
242.3620691789
 20
23.1332829332
 30
0.0
 11
242.3620691789
 21
24.6060391998
 31
0.0
  0
LINE
  5
2C5
330
1F
100
AcDbEntity
  8
0
  6
Continuous
 62
     7
370
    15
100
AcDbLine
 10
242.3620691789
 20
40.6060418224
 30
0.0
 11
242.3620691789
 21
42.0654466486
 31
0.0
  0
LINE
  5
2C6
330
1F
100
AcDbEntity
  8
0
  6
Continuous
 62
     7
370
    15
100
AcDbLine
 10
242.3620691789
 20
45.4081645346
 30
0.0
 11
242.3620691789
 21
489.7934993839
 31
0.0
  0
LINE
  5
2C7
330
1F
100
AcDbEntity
  8
0
  6
Continuous
 62
     7
370
    15
100
AcDbLine
 10
242.3620691789
 20
493.1332817411
 30
0.0
 11
242.3620691789
 21
494.6060380077
 31
0.0
  0
LINE
  5
2C8
330
1F
100
AcDbEntity
  8
0
  6
Continuous
 62
     7
370
    15
100
AcDbLine
 10
242.3620691789
 20
510.6060406303
 30
0.0
 11
242.3620691789
 21
512.0654454565
 31
0.0
  0
LINE
  5
2C9
330
1F
100
AcDbEntity
  8
0
  6
Continuous
 62
     7
370
    15
100
AcDbLine
 10
242.3620691789
 20
515.4081633425
 30
0.0
 11
242.3620691789
 21
547.6060411072
 31
0.0
  0
LINE
  5
2CA
330
1F
100
AcDbEntity
  8
0
  6
Continuous
 62
     7
370
    15
100
AcDbLine
 10
242.3620691789
 20
547.6060411072
 30
0.0
 11
56.3620647682
 21
547.6060411072
 31
0.0
  0
LINE
  5
2CB
330
1F
100
AcDbEntity
  8
0
  6
Continuous
 62
     7
370
    15
100
AcDbLine
 10
36.3620652152
 20
552.6060363388
 30
0.0
 11
36.3620652152
 21
-17.3939565086
 31
0.0
  0
LINE
  5
2CC
330
1F
100
AcDbEntity
  8
0
  6
Continuous
 62
     7
370
    15
100
AcDbLine
 10
36.3620652152
 20
552.6060363388
 30
0.0
 11
51.36206488
 21
552.6060363388
 31
0.0
  0
LINE
  5
2CD
330
1F
100
AcDbEntity
  8
0
  6
Continuous
 62
     7
370
    15
100
AcDbLine
 10
51.36206488
 20
-17.3939565086
 30
0.0
 11
36.3620652152
 21
-17.3939565086
 31
0.0
  0
ARC
  5
2CE
330
1F
100
AcDbEntity
  8
0
  6
Continuous
 62
     7
370
    15
100
AcDbCircle
 10
51.3620651973
 20
-17.3939600849
 30
0.0
 40
15.00000000000001
100
AcDbArc
 50
180.0
 51
270.0
  0
ARC
  5
2CF
330
1F
100
AcDbEntity
  8
0
  6
Continuous
 62
     7
370
    15
100
AcDbCircle
 10
51.3620651973
 20
552.6060399151
 30
0.0
 40
15.0
100
AcDbArc
 50
90.0
 51
180.0
  0
LINE
  5
2D0
330
1F
100
AcDbEntity
  8
0
  6
Continuous
 62
     7
370
    15
100
AcDbLine
 10
266.3620582117
 20
547.6060411072
 30
0.0
 11
262.3620650066
 21
547.6060411072
 31
0.0
  0
LINE
  5
2D1
330
1F
100
AcDbEntity
  8
0
  6
Continuous
 62
     7
370
    15
100
AcDbLine
 10
266.3620582117
 20
-12.393961277
 30
0.0
 11
262.3620650066
 21
-12.393961277
 31
0.0
  0
LINE
  5
2D2
330
1F
100
AcDbEntity
  8
0
  6
Continuous
 62
     7
370
    15
100
AcDbLine
 10
266.3620582117
 20
562.6060268021
 30
0.0
 11
262.3620650066
 21
562.6060268021
 31
0.0
  0
LINE
  5
2D3
330
1F
100
AcDbEntity
  8
0
  6
Continuous
 62
     7
370
    15
100
AcDbLine
 10
266.3620582117
 20
-27.3939469719
 30
0.0
 11
262.3620650066
 21
-27.3939469719
 31
0.0
  0
LINE
  5
2D4
330
1F
100
AcDbEntity
  8
0
  6
Continuous
 62
     7
370
    15
100
AcDbLine
 10
329.3089342059
 20
614.2638866098
 30
0.0
 11
330.5089247168
 21
614.2638866098
 31
0.0
  0
LINE
  5
2D5
330
1F
100
AcDbEntity
  8
0
  6
Continuous
 62
     7
370
    15
100
AcDbLine
 10
329.2089176119
 20
616.7638842256
 30
0.0
 11
329.3089342059
 21
616.7638842256
 31
0.0
  0
LINE
  5
2D6
330
1F
100
AcDbEntity
  8
0
  6
Continuous
 62
     7
370
    15
100
AcDbLine
 10
329.3089342059
 20
622.7638963849
 30
0.0
 11
329.2089176119
 21
622.7638963849
 31
0.0
  0
SPLINE
  5
2D7
330
1F
100
AcDbEntity
  8
0
  6
Continuous
 62
     7
370
    15
100
AcDbSpline
210
0.0
220
0.0
230
1.0
 70
     8
 71
     3
 72
    15
 73
    11
 74
     0
 42
0.00000001
 43
0.00000001
 40
0.0
 40
0.0
 40
0.0
 40
0.0
 40
0.1250768563627313
 40
0.2501511772789877
 40
0.3752921836037832
 40
0.500304424939168
 40
0.625287463508637
 40
0.7502634641038671
 40
0.8750791826836756
 40
0.9999999999999999
 40
0.9999999999999999
 40
0.9999999999999999
 40
0.9999999999999999
 10
328.1233680189493
 20
644.8217127711536
 30
0.0
 10
328.0972352462514
 20
645.0804789670434
 30
0.0
 10
328.0449702305957
 20
645.5980061133456
 30
0.0
 10
327.9661317928197
 20
646.3791253001854
 30
0.0
 10
327.8916894857921
 20
647.1162998945538
 30
0.0
 10
327.8247120812522
 20
647.779886548121
 30
0.0
 10
327.7685623006984
 20
648.3356428066554
 30
0.0
 10
327.7260858200915
 20
648.7567459841895
 30
0.0
 10
327.6972233218693
 20
649.0423410069897
 30
0.0
 10
327.6928736524756
 20
649.0853837652967
 30
0.0
 10
327.6906979025247
 20
649.1069142014743
 30
0.0
  0
SPLINE
  5
2D8
330
1F
100
AcDbEntity
  8
0
  6
Continuous
 62
     7
370
    15
100
AcDbSpline
210
0.0
220
0.0
230
1.0
 70
     8
 71
     3
 72
    15
 73
    11
 74
     0
 42
0.00000001
 43
0.00000001
 40
0.0
 40
0.0
 40
0.0
 40
0.0
 40
0.1249399191163928
 40
0.2497677815020448
 40
0.3747518347200449
 40
0.4997377662097445
 40
0.6247475772994924
 40
0.7498805907133327
 40
0.8749438115152497
 40
1.0
 40
1.0
 40
1.0
 40
1.0
 10
324.7064721525552
 20
648.8055233151675
 30
0.0
 10
324.7086489208901
 20
648.783949044043
 30
0.0
 10
324.7130005052492
 20
648.7408198514328
 30
0.0
 10
324.741845731731
 20
648.4550975826775
 30
0.0
 10
324.7843871923333
 20
648.0339302639687
 30
0.0
 10
324.84047092701
 20
647.4781323738414
 30
0.0
 10
324.9074668248302
 20
646.8146161315542
 30
0.0
 10
324.9819002053436
 20
646.0775694293324
 30
0.0
 10
325.0607571694649
 20
645.2966592965788
 30
0.0
 10
325.1129746554245
 20
644.7793047897287
 30
0.0
 10
325.139082664335
 20
644.5206348092319
 30
0.0
  0
LINE
  5
2D9
330
1F
100
AcDbEntity
  8
0
  6
Continuous
 62
     7
370
    15
100
AcDbLine
 10
325.1388144434
 20
644.5205006988
 30
0.0
 11
326.7078769148
 21
628.9795283468
 31
0.0
  0
LINE
  5
2DA
330
1F
100
AcDbEntity
  8
0
  6
Continuous
 62
     7
370
    15
100
AcDbLine
 10
329.6927285136
 20
629.2808894307
 30
0.0
 11
328.1236362399
 21
644.8218468816
 31
0.0
  0
SPLINE
  5
2DB
330
1F
100
AcDbEntity
  8
0
  6
Continuous
 62
     7
370
    15
100
AcDbSpline
210
0.0
220
0.0
230
1.0
 70
     8
 71
     3
 72
     9
 73
     5
 74
     0
 42
0.00000001
 43
0.00000001
 40
0.0
 40
0.0
 40
0.0
 40
0.0
 40
0.4837378382348465
 40
0.9999999999999999
 40
0.9999999999999999
 40
0.9999999999999999
 40
0.9999999999999999
 10
326.8779587686899
 20
627.2981558234454
 30
0.0
 10
326.8874255240961
 20
627.2339249010373
 30
0.0
 10
326.9069955363174
 20
627.1011444622723
 30
0.0
 10
326.94083552443
 20
627.0649909102116
 30
0.0
 10
326.9583058298471
 20
627.0463261992694
 30
0.0
  0
SPLINE
  5
2DC
330
1F
100
AcDbEntity
  8
0
  6
Continuous
 62
     7
370
    15
100
AcDbSpline
210
0.0
220
0.0
230
1.0
 70
     8
 71
     3
 72
    11
 73
     7
 74
     0
 42
0.00000001
 43
0.00000001
 40
0.0
 40
0.0
 40
0.0
 40
0.0
 40
0.2484423088097372
 40
0.4978872186024591
 40
0.748388796833829
 40
1.0
 40
1.0
 40
1.0
 40
1.0
 10
326.7081749380472
 20
628.9796773583652
 30
0.0
 10
326.7261892555695
 20
628.8012055468502
 30
0.0
 10
326.7622905882659
 20
628.4435416921716
 30
0.0
 10
326.8092906519954
 20
627.9787115806555
 30
0.0
 10
326.8480937289327
 20
627.5958335672872
 30
0.0
 10
326.8631249702085
 20
627.4485316902515
 30
0.0
 10
326.8706571997049
 20
627.3747179896594
 30
0.0
  0
SPLINE
  5
2DD
330
1F
100
AcDbEntity
  8
0
  6
Continuous
 62
     7
370
    15
100
AcDbSpline
210
0.0
220
0.0
230
1.0
 70
     8
 71
     3
 72
    19
 73
    15
 74
     0
 42
0.00000001
 43
0.00000001
 40
0.0
 40
0.0
 40
0.0
 40
0.0
 40
0.0802802360641124
 40
0.1534388577617218
 40
0.2193397011507162
 40
0.2779505089417532
 40
0.3728450221342042
 40
0.4421511202980472
 40
0.5315378252765655
 40
0.6554823679323597
 40
0.7303549761004801
 40
0.8130763003755613
 40
0.9031424881274012
 40
1.0
 40
1.0
 40
1.0
 40
1.0
 10
326.8936049879434
 20
627.2154990823032
 30
0.0
 10
326.9289642793335
 20
627.0926242219781
 30
0.0
 10
326.9965461593596
 20
626.8577746607378
 30
0.0
 10
327.1937851570931
 20
626.5633761819843
 30
0.0
 10
327.4186242920513
 20
626.3392326672904
 30
0.0
 10
327.7143117129162
 20
626.1462130157165
 30
0.0
 10
328.0562527350386
 20
626.0283034991041
 30
0.0
 10
328.4660050762735
 20
625.998501512471
 30
0.0
 10
328.9050924602396
 20
626.100805202011
 30
0.0
 10
329.2916226092013
 20
626.3520406016947
 30
0.0
 10
329.584463466748
 20
626.6927513824121
 30
0.0
 10
329.7652327327587
 20
627.048218989684
 30
0.0
 10
329.8711520072317
 20
627.4751602219415
 30
0.0
 10
329.8388814870908
 20
627.7702301902149
 30
0.0
 10
329.8221599996926
 20
627.9231254250766
 30
0.0
  0
SPLINE
  5
2DE
330
1F
100
AcDbEntity
  8
0
  6
Continuous
 62
     7
370
    15
100
AcDbSpline
210
0.0
220
0.0
230
1.0
 70
     8
 71
     3
 72
    11
 73
     7
 74
     0
 42
0.00000001
 43
0.00000001
 40
0.0
 40
0.0
 40
0.0
 40
0.0
 40
0.2477418957589046
 40
0.4969492447715336
 40
0.7476751472220932
 40
1.0
 40
1.0
 40
1.0
 40
1.0
 10
329.8459422529581
 20
627.7554426581622
 30
0.0
 10
329.8394979512042
 20
627.8200687118862
 30
0.0
 10
329.8265712280921
 20
627.9497030980776
 30
0.0
 10
329.790651399123
 20
628.3075729373803
 30
0.0
 10
329.7456331725204
 20
628.7538962594616
 30
0.0
 10
329.7102022568702
 20
629.1047638882782
 30
0.0
 10
329.6924304903391
 20
629.2807553202869
 30
0.0
  0
LINE
  5
2DF
330
1F
100
AcDbEntity
  8
0
  6
Continuous
 62
     7
370
    15
100
AcDbLine
 10
329.9762380064
 20
638.9355603845
 30
0.0
 11
329.9762380064
 21
639.2353717477
 31
0.0
  0
LINE
  5
2E0
330
1F
100
AcDbEntity
  8
0
  6
Continuous
 62
     7
370
    15
100
AcDbLine
 10
329.1762244643
 20
639.2353717477
 30
0.0
 11
329.1762244643
 21
638.9380041749
 31
0.0
  0
SPLINE
  5
2E1
330
1F
100
AcDbEntity
  8
0
  6
Continuous
 62
     7
370
    15
100
AcDbSpline
210
0.0
220
0.0
230
1.0
 70
    24
 71
     3
 72
    11
 73
     7
 74
     0
 42
0.00000001
 43
0.00000001
 40
0.0
 40
0.0
 40
0.0
 40
0.0
 40
0.0207850328835332
 40
0.3465561843128634
 40
0.6711381646362238
 40
0.9999999999999999
 40
0.9999999999999999
 40
0.9999999999999999
 40
0.9999999999999999
 10
329.1762244642618
 20
639.5216975600482
 30
0.0
 10
329.1762244642618
 20
639.5183758560073
 30
0.0
 10
329.1762244642617
 20
639.4629919129433
 30
0.0
 10
329.1762244642619
 20
639.3697537477675
 30
0.0
 10
329.1762244642616
 20
639.257041612481
 30
0.0
 10
329.1762244642617
 20
639.222514113407
 30
0.0
 10
329.1762244642618
 20
639.2051372916461
 30
0.0
  0
SPLINE
  5
2E2
330
1F
100
AcDbEntity
  8
0
  6
Continuous
 62
     7
370
    15
100
AcDbSpline
210
0.0
220
0.0
230
1.0
 70
    24
 71
     3
 72
    11
 73
     7
 74
     0
 42
0.00000001
 43
0.00000001
 40
0.0
 40
0.0
 40
0.0
 40
0.0
 40
0.2504877331241812
 40
0.4977261212757707
 40
0.7458640449708547
 40
0.9999999999999999
 40
0.9999999999999999
 40
0.9999999999999999
 40
0.9999999999999999
 10
329.9762380064371
 20
639.2026935012103
 30
0.0
 10
329.9762380064371
 20
639.2189106329215
 30
0.0
 10
329.9762380064371
 20
639.2511345265395
 30
0.0
 10
329.976238006437
 20
639.3599100629403
 30
0.0
 10
329.9762380064371
 20
639.4987404938728
 30
0.0
 10
329.9762380064371
 20
639.6057679535975
 30
0.0
 10
329.9762380064371
 20
639.6599207312823
 30
0.0
  0
LINE
  5
2E3
330
1F
100
AcDbEntity
  8
0
  6
Continuous
 62
     7
370
    15
100
AcDbLine
 10
329.9762380064
 20
639.6599207313
 30
0.0
 11
329.9762380064
 21
639.7638861329
 31
0.0
  0
LINE
  5
2E4
330
1F
100
AcDbEntity
  8
0
  6
Continuous
 62
     7
370
    15
100
AcDbLine
 10
328.9694857539
 20
639.7638861329
 30
0.0
 11
329.1784000338
 21
639.5166609676
 31
0.0
  0
LINE
  5
2E5
330
1F
100
AcDbEntity
  8
0
  6
Continuous
 62
     7
370
    15
100
AcDbLine
 10
324.699856037
 20
648.9019040258
 30
0.0
 11
324.6842396201
 21
649.3611429126
 31
0.0
  0
SPLINE
  5
2E6
330
1F
100
AcDbEntity
  8
0
  6
Continuous
 62
     7
370
    15
100
AcDbSpline
210
0.0
220
0.0
230
1.0
 70
     8
 71
     3
 72
    11
 73
     7
 74
     0
 42
0.00000001
 43
0.00000001
 40
0.0
 40
0.0
 40
0.0
 40
0.0
 40
0.1207578844303787
 40
0.4133921748940232
 40
0.7063561606893235
 40
1.0
 40
1.0
 40
1.0
 40
1.0
 10
326.7325234354379
 20
628.7384722621204
 30
0.0
 10
326.7424471400503
 20
628.640171499446
 30
0.0
 10
326.7764190985033
 20
628.303657107302
 30
0.0
 10
326.8237527496893
 20
627.834753281219
 30
0.0
 10
326.8666511307556
 20
627.4100091772518
 30
0.0
 10
326.8741866449317
 20
627.3354690709849
 30
0.0
 10
326.8779587686899
 20
627.2981558234454
 30
0.0
  0
LINE
  5
2E7
330
1F
100
AcDbEntity
  8
0
  6
Continuous
 62
     7
370
    15
100
AcDbLine
 10
325.0606727541
 20
679.7638926894
 30
0.0
 11
324.3089389742
 21
679.4902775676
 31
0.0
  0
LINE
  5
2E8
330
1F
100
AcDbEntity
  8
0
  6
Continuous
 62
     7
370
    15
100
AcDbLine
 10
330.5089247168
 20
678.7638906629
 30
0.0
 11
330.2089345396
 21
678.7638906629
 31
0.0
  0
LINE
  5
2E9
330
1F
100
AcDbEntity
  8
0
  6
Continuous
 62
     7
370
    15
100
AcDbLine
 10
330.2089345396
 20
677.7638886363
 30
0.0
 11
330.1089179457
 21
677.7638886363
 31
0.0
  0
LINE
  5
2EA
330
1F
100
AcDbEntity
  8
0
  6
Continuous
 62
     7
370
    15
100
AcDbLine
 10
330.1089179457
 20
671.7638913781
 30
0.0
 11
330.2089345396
 21
671.7638913781
 31
0.0
  0
LINE
  5
2EB
330
1F
100
AcDbEntity
  8
0
  6
Continuous
 62
     7
370
    15
100
AcDbLine
 10
330.2089345396
 20
654.763886729
 30
0.0
 11
330.1089179457
 21
654.763886729
 31
0.0
  0
LINE
  5
2EC
330
1F
100
AcDbEntity
  8
0
  6
Continuous
 62
     7
370
    15
100
AcDbLine
 10
330.1089179457
 20
648.7638894708
 30
0.0
 11
330.2089345396
 21
648.7638894708
 31
0.0
  0
LINE
  5
2ED
330
1F
100
AcDbEntity
  8
0
  6
Continuous
 62
     7
370
    15
100
AcDbLine
 10
330.5089247168
 20
622.7638963849
 30
0.0
 11
330.5089247168
 21
617.7638862521
 31
0.0
  0
LINE
  5
2EE
330
1F
100
AcDbEntity
  8
0
  6
Continuous
 62
     7
370
    15
100
AcDbLine
 10
330.5089247168
 20
622.7638963849
 30
0.0
 11
345.5089253128
 21
622.7638963849
 31
0.0
  0
LINE
  5
2EF
330
1F
100
AcDbEntity
  8
0
  6
Continuous
 62
     7
370
    15
100
AcDbLine
 10
345.5089253128
 20
622.7638963849
 30
0.0
 11
345.5089253128
 21
617.7638862521
 31
0.0
  0
LINE
  5
2F0
330
1F
100
AcDbEntity
  8
0
  6
Continuous
 62
     7
370
    15
100
AcDbLine
 10
330.5089247168
 20
617.7638862521
 30
0.0
 11
345.5089253128
 21
617.7638862521
 31
0.0
  0
LINE
  5
2F1
330
1F
100
AcDbEntity
  8
0
  6
Continuous
 62
     7
370
    15
100
AcDbLine
 10
815.5089241207
 20
622.7638963849
 30
0.0
 11
815.5089241207
 21
617.7638862521
 31
0.0
  0
LINE
  5
2F2
330
1F
100
AcDbEntity
  8
0
  6
Continuous
 62
     7
370
    15
100
AcDbLine
 10
345.5089253128
 20
617.7638862521
 30
0.0
 11
815.5089241207
 21
617.7638862521
 31
0.0
  0
LINE
  5
2F3
330
1F
100
AcDbEntity
  8
0
  6
Continuous
 62
     7
370
    15
100
AcDbLine
 10
345.5089253128
 20
622.7638963849
 30
0.0
 11
815.5089241207
 21
622.7638963849
 31
0.0
  0
ARC
  5
2F4
330
1F
100
AcDbEntity
  8
0
  6
Continuous
 62
     7
370
    15
100
AcDbCircle
 10
345.5089247168
 20
617.7638893993
 30
0.0
 40
15.00000000000006
100
AcDbArc
 50
180.0
 51
270.0
  0
LINE
  5
2F5
330
1F
100
AcDbEntity
  8
0
  6
Continuous
 62
     7
370
    15
100
AcDbLine
 10
345.5089253128
 20
602.7638856561
 30
0.0
 11
345.5089253128
 21
617.7638862521
 31
0.0
  0
LINE
  5
2F6
330
1F
100
AcDbEntity
  8
0
  6
Continuous
 62
     7
370
    15
100
AcDbLine
 10
345.5089253128
 20
602.7638856561
 30
0.0
 11
815.5089241207
 21
602.7638856561
 31
0.0
  0
LINE
  5
2F7
330
1F
100
AcDbEntity
  8
0
  6
Continuous
 62
     7
370
    15
100
AcDbLine
 10
815.5089241207
 20
617.7638862521
 30
0.0
 11
815.5089241207
 21
602.7638856561
 31
0.0
  0
LINE
  5
2F8
330
1F
100
AcDbEntity
  8
0
  6
Continuous
 62
     7
370
    15
100
AcDbLine
 10
830.5089247168
 20
622.7638963849
 30
0.0
 11
830.5089247168
 21
617.7638862521
 31
0.0
  0
LINE
  5
2F9
330
1F
100
AcDbEntity
  8
0
  6
Continuous
 62
     7
370
    15
100
AcDbLine
 10
830.5089247168
 20
617.7638862521
 30
0.0
 11
815.5089241207
 21
617.7638862521
 31
0.0
  0
LINE
  5
2FA
330
1F
100
AcDbEntity
  8
0
  6
Continuous
 62
     7
370
    15
100
AcDbLine
 10
830.5089247168
 20
622.7638963849
 30
0.0
 11
815.5089241207
 21
622.7638963849
 31
0.0
  0
ARC
  5
2FB
330
1F
100
AcDbEntity
  8
0
  6
Continuous
 62
     7
370
    15
100
AcDbCircle
 10
815.5089247168
 20
617.7638893993
 30
0.0
 40
15.00000000000011
100
AcDbArc
 50
270.0
 51
0.0
  0
LINE
  5
2FC
330
1F
100
AcDbEntity
  8
0
  6
Continuous
 62
     7
370
    15
100
AcDbLine
 10
329.3089342059
 20
618.6776850612
 30
0.0
 11
329.3089342059
 21
620.781654516
 31
0.0
  0
LINE
  5
2FD
330
1F
100
AcDbEntity
  8
0
  6
Continuous
 62
     7
370
    15
100
AcDbLine
 10
329.3089342059
 20
620.781654516
 30
0.0
 11
330.5089247168
 21
620.781654516
 31
0.0
  0
LINE
  5
2FE
330
1F
100
AcDbEntity
  8
0
  6
Continuous
 62
     7
370
    15
100
AcDbLine
 10
329.3089342059
 20
618.6776850612
 30
0.0
 11
330.5089247168
 21
618.6776850612
 31
0.0
  0
LINE
  5
2FF
330
1F
100
AcDbEntity
  8
0
  6
Continuous
 62
     7
370
    15
100
AcDbLine
 10
329.3089342059
 20
625.7638875634
 30
0.0
 11
330.5089247168
 21
625.7638875634
 31
0.0
  0
LINE
  5
300
330
1F
100
AcDbEntity
  8
0
  6
Continuous
 62
     7
370
    15
100
AcDbLine
 10
330.5089247168
 20
622.7638963849
 30
0.0
 11
330.5089247168
 21
625.7638875634
 31
0.0
  0
LINE
  5
301
330
1F
100
AcDbEntity
  8
0
  6
Continuous
 62
     7
370
    15
100
AcDbLine
 10
329.3089342059
 20
625.7638875634
 30
0.0
 11
329.3089342059
 21
620.781654516
 31
0.0
  0
LINE
  5
302
330
1F
100
AcDbEntity
  8
0
  6
Continuous
 62
     7
370
    15
100
AcDbLine
 10
330.5089247168
 20
617.7638862521
 30
0.0
 11
330.5089247168
 21
614.2638866098
 31
0.0
  0
LINE
  5
303
330
1F
100
AcDbEntity
  8
0
  6
Continuous
 62
     7
370
    15
100
AcDbLine
 10
329.3089342059
 20
614.2638866098
 30
0.0
 11
329.3089342059
 21
618.6776850612
 31
0.0
  0
LINE
  5
304
330
1F
100
AcDbEntity
  8
0
  6
Continuous
 62
     7
370
    15
100
AcDbLine
 10
329.2089176119
 20
616.7638842256
 30
0.0
 11
329.2089176119
 21
622.7638963849
 31
0.0
  0
LINE
  5
305
330
1F
100
AcDbEntity
  8
0
  6
Continuous
 62
     7
370
    15
100
AcDbLine
 10
322.4609565676
 20
626.9662920625
 30
0.0
 11
323.191471094
 21
626.014271775
 31
0.0
  0
LINE
  5
306
330
1F
100
AcDbEntity
  8
0
  6
Continuous
 62
     7
370
    15
100
AcDbLine
 10
322.2394359053
 20
625.2837572486
 30
0.0
 11
321.5089213789
 21
626.2357775361
 31
0.0
  0
LWPOLYLINE
  5
307
330
1F
100
AcDbEntity
  8
0
  6
Continuous
 62
     7
370
    15
100
AcDbPolyline
 90
        9
 70
   128
 43
0.0
 10
323.191471094
 20
626.014271775
 10
323.0057430209
 20
625.8717570693
 10
322.8271377028
 20
625.734725991
 10
322.6625394762
 20
625.6084237487
 10
322.5182664336
 20
625.4977230222
 10
322.399891609
 20
625.4068706424
 10
322.3119151533
 20
625.3393683822
 10
322.2577345312
 20
625.2977941425
 10
322.2394359053
 20
625.2837572486
  0
LWPOLYLINE
  5
308
330
1F
100
AcDbEntity
  8
0
  6
Continuous
 62
     7
370
    15
100
AcDbPolyline
 90
        9
 70
   128
 43
0.0
 10
321.5089213789
 20
626.2357775361
 10
321.5272200049
 20
626.24981443
 10
321.581400627
 20
626.2913886697
 10
321.6693770827
 20
626.3589058311
 10
321.7877519072
 20
626.4497433097
 10
321.9320249499
 20
626.5604440362
 10
322.0966231764
 20
626.6867462785
 10
322.2752284945
 20
626.8237773568
 10
322.4609565676
 20
626.9662920625
  0
ARC
  5
309
330
1F
100
AcDbEntity
  8
0
  6
Continuous
 62
     7
370
    15
100
AcDbCircle
 10
327.7089247168
 20
627.4638893993
 30
0.0
 40
2.800000000000068
100
AcDbArc
 50
0.0
 51
45.7322600129
  0
LINE
  5
30A
330
1F
100
AcDbEntity
  8
0
  6
Continuous
 62
     7
370
    15
100
AcDbLine
 10
326.6012740076
 20
630.0354842336
 30
0.0
 11
326.0043930949
 21
629.6852771432
 31
0.0
  0
LINE
  5
30B
330
1F
100
AcDbEntity
  8
0
  6
Continuous
 62
     7
370
    15
100
AcDbLine
 10
323.191471094
 20
626.014271775
 30
0.0
 11
326.7349076212
 21
628.7332568557
 31
0.0
  0
LINE
  5
30C
330
1F
100
AcDbEntity
  8
0
  6
Continuous
 62
     7
370
    15
100
AcDbLine
 10
326.0043930949
 20
629.6852771432
 30
0.0
 11
322.4609565676
 21
626.9662920625
 31
0.0
  0
LINE
  5
30D
330
1F
100
AcDbEntity
  8
0
  6
Continuous
 62
     7
370
    15
100
AcDbLine
 10
330.5089247168
 20
625.7638875634
 30
0.0
 11
330.5089247168
 21
626.76388959
 31
0.0
  0
LINE
  5
30E
330
1F
100
AcDbEntity
  8
0
  6
Continuous
 62
     7
370
    15
100
AcDbLine
 10
329.3089342059
 20
626.4048312099
 30
0.0
 11
329.3089342059
 21
625.7638875634
 31
0.0
  0
SPLINE
  5
30F
330
1F
100
AcDbEntity
  8
0
  6
Continuous
 62
     7
370
    15
100
AcDbSpline
210
0.0
220
0.0
230
1.0
 70
     8
 71
     3
 72
    12
 73
     8
 74
     0
 42
0.00000001
 43
0.00000001
 40
0.0
 40
0.0
 40
0.0
 40
0.0
 40
0.2340470625943748
 40
0.468110382289208
 40
0.7021603582588167
 40
0.9362165040643773
 40
1.0
 40
1.0
 40
1.0
 40
1.0
 10
326.8058967531564
 20
644.4410030038119
 30
0.0
 10
326.6095102970863
 20
644.4216243814639
 30
0.0
 10
326.2167237437823
 20
644.3828657907128
 30
0.0
 10
325.6792122631492
 20
644.3776097576022
 30
0.0
 10
325.3057641772444
 20
644.4160939767218
 30
0.0
 10
325.1265013542459
 20
644.4707546170853
 30
0.0
 10
325.1552483293719
 20
644.5147087381758
 30
0.0
 10
325.1614046038034
 20
644.5241216809512
 30
0.0
  0
SPLINE
  5
310
330
1F
100
AcDbEntity
  8
0
  6
Continuous
 62
     7
370
    15
100
AcDbSpline
210
0.0
220
0.0
230
1.0
 70
     8
 71
     3
 72
    11
 73
     7
 74
     0
 42
0.00000001
 43
0.00000001
 40
0.0
 40
0.0
 40
0.0
 40
0.0
 40
0.1986866801470759
 40
0.4657866974251356
 40
0.7328890205481572
 40
1.0
 40
1.0
 40
1.0
 40
1.0
 10
328.101820939863
 20
644.8198948294879
 30
0.0
 10
328.1006386532229
 20
644.7954013877406
 30
0.0
 10
328.0978669858465
 20
644.7379807326085
 30
0.0
 10
327.8283216037771
 20
644.6309045170613
 30
0.0
 10
327.3812736109676
 20
644.5200813127873
 30
0.0
 10
326.9976911109352
 20
644.4673627248856
 30
0.0
 10
326.8058967531564
 20
644.4410030038119
 30
0.0
  0
SPLINE
  5
311
330
1F
100
AcDbEntity
  8
0
  6
Continuous
 62
     7
370
    15
100
AcDbSpline
210
0.0
220
0.0
230
1.0
 70
     8
 71
     3
 72
    12
 73
     8
 74
     0
 42
0.00000001
 43
0.00000001
 40
0.0
 40
0.0
 40
0.0
 40
0.0
 40
0.2339746063686035
 40
0.4679314347940849
 40
0.7019014784153117
 40
0.9358644000539801
 40
1.0
 40
1.0
 40
1.0
 40
1.0
 10
326.1989426554086
 20
650.4528764874698
 30
0.0
 10
326.0028508686603
 20
650.4303763046082
 30
0.0
 10
325.6106821946806
 20
650.3853776485023
 30
0.0
 10
325.1077577583055
 20
650.037865908687
 30
0.0
 10
324.7879165472028
 20
649.5443904188564
 30
0.0
 10
324.6600343848854
 20
649.0908006809104
 30
0.0
 10
324.71779702831
 20
648.8478049297833
 30
0.0
 10
324.7302246034982
 20
648.7955246360065
 30
0.0
  0
SPLINE
  5
312
330
1F
100
AcDbEntity
  8
0
  6
Continuous
 62
     7
370
    15
100
AcDbSpline
210
0.0
220
0.0
230
1.0
 70
     8
 71
     3
 72
    11
 73
     7
 74
     0
 42
0.00000001
 43
0.00000001
 40
0.0
 40
0.0
 40
0.0
 40
0.0
 40
0.1976869012946596
 40
0.465132349840553
 40
0.7325626924186095
 40
1.0
 40
1.0
 40
1.0
 40
1.0
 10
327.6691508234384
 20
649.1025928647281
 30
0.0
 10
327.6508706874807
 20
649.2473416673942
 30
0.0
 10
327.6078598327514
 20
649.5879173468135
 30
0.0
 10
327.2823886952867
 20
650.0376784509933
 30
0.0
 10
326.7891090346654
 20
650.3854184680392
 30
0.0
 10
326.3956664896199
 20
650.4303902857864
 30
0.0
 10
326.1989426554086
 20
650.4528764874698
 30
0.0
  0
SPLINE
  5
313
330
1F
100
AcDbEntity
  8
0
  6
Continuous
 62
     7
370
    15
100
AcDbSpline
210
0.0
220
0.0
230
1.0
 70
     8
 71
     3
 72
    12
 73
     8
 74
     0
 42
0.00000001
 43
0.00000001
 40
0.0
 40
0.0
 40
0.0
 40
0.0
 40
0.2350193850730122
 40
0.4700326152068836
 40
0.7050507835947478
 40
0.9400637437707898
 40
1.0
 40
1.0
 40
1.0
 40
1.0
 10
328.3749890268685
 20
628.900030651784
 30
0.0
 10
328.1785978076455
 20
628.8806526903592
 30
0.0
 10
327.7858205125027
 20
628.8418972750005
 30
0.0
 10
327.2482194918475
 20
628.8366289978858
 30
0.0
 10
326.8751323959909
 20
628.875153989467
 30
0.0
 10
326.6961585875728
 20
628.9292752005751
 30
0.0
 10
326.7240039846587
 20
628.9725768229673
 30
0.0
 10
326.7296624124887
 20
628.9813760907413
 30
0.0
  0
SPLINE
  5
314
330
1F
100
AcDbEntity
  8
0
  6
Continuous
 62
     7
370
    15
100
AcDbSpline
210
0.0
220
0.0
230
1.0
 70
     8
 71
     3
 72
    11
 73
     7
 74
     0
 42
0.00000001
 43
0.00000001
 40
0.0
 40
0.0
 40
0.0
 40
0.0
 40
0.1989267092163891
 40
0.4659434779542677
 40
0.732978993579072
 40
0.9999999999999999
 40
0.9999999999999999
 40
0.9999999999999999
 40
0.9999999999999999
 10
329.6709430158975
 20
629.2790267855884
 30
0.0
 10
329.6697619656482
 20
629.2545010076818
 30
0.0
 10
329.666995606807
 20
629.1970545928576
 30
0.0
 10
329.3974311106581
 20
629.0899268451853
 30
0.0
 10
328.9503404468286
 20
628.9791145266362
 30
0.0
 10
328.5667693599127
 20
628.9263914659429
 30
0.0
 10
328.3749890268686
 20
628.900030651784
 30
0.0
  0
ARC
  5
315
330
1F
100
AcDbEntity
  8
0
  6
Continuous
 62
     7
370
    15
100
AcDbCircle
 10
329.5762243476
 20
639.201660583
 30
0.0
 40
0.400014992437483
100
AcDbArc
 50
0.1479492487
 51
179.5020105704
  0
ELLIPSE
  5
316
330
1F
100
AcDbEntity
  8
0
  6
Continuous
 62
     7
370
    15
100
AcDbEllipse
 10
329.5762241171
 20
638.9367810055
 30
0.0
 11
0.3991830274373456
 21
-0.02624604221159644
 31
0.0
210
0.0
220
0.0
230
1.0
 40
0.9763157485
 41
0.0
 42
6.283185307179586
  0
SPLINE
  5
317
330
1F
100
AcDbEntity
  8
0
  6
Continuous
 62
     7
370
    15
100
AcDbSpline
210
0.0
220
0.0
230
1.0
 70
     8
 71
     3
 72
    13
 73
     9
 74
     0
 42
0.00000001
 43
0.00000001
 40
0.0
 40
0.0
 40
0.0
 40
0.0
 40
0.0081674514163567
 40
0.2391721021016458
 40
0.4710976466709006
 40
0.6931339492044136
 40
0.9042391337694594
 40
0.9999999999999999
 40
0.9999999999999999
 40
0.9999999999999999
 40
0.9999999999999999
 10
329.5762312353494
 20
639.6656129748584
 30
0.0
 10
329.5745723246297
 20
639.6652207069868
 30
0.0
 10
329.5259935031821
 20
639.6537337049068
 30
0.0
 10
329.4298758647594
 20
639.6304521770751
 30
0.0
 10
329.3070466593038
 20
639.5868212596715
 30
0.0
 10
329.221381786153
 20
639.5493838835476
 30
0.0
 10
329.1773546952995
 20
639.5282180329189
 30
0.0
 10
329.1806045365452
 20
639.5232483906159
 30
0.0
 10
329.181618684614
 20
639.5216975600482
 30
0.0
  0
SPLINE
  5
318
330
1F
100
AcDbEntity
  8
0
  6
Continuous
 62
     7
370
    15
100
AcDbSpline
210
0.0
220
0.0
230
1.0
 70
     8
 71
     3
 72
    13
 73
     9
 74
     0
 42
0.00000001
 43
0.00000001
 40
0.0
 40
0.0
 40
0.0
 40
0.0
 40
0.1252364943437314
 40
0.2499770583600235
 40
0.4999990642972859
 40
0.7499967036364231
 40
0.8747775646080594
 40
1.0
 40
1.0
 40
1.0
 40
1.0
 10
329.9762380064371
 20
639.6599207312823
 30
0.0
 10
329.974516159923
 20
639.6599427176787
 30
0.0
 10
329.9710792853218
 20
639.659986603407
 30
0.0
 10
329.9367328975046
 20
639.6604987364286
 30
0.0
 10
329.8614406720225
 20
639.6615472451956
 30
0.0
 10
329.7527888275069
 20
639.6631054885935
 30
0.0
 10
329.6540764489312
 20
639.6645006898323
 30
0.0
 10
329.6022101765662
 20
639.665241776862
 30
0.0
 10
329.5762312353494
 20
639.6656129748584
 30
0.0
  0
SPLINE
  5
319
330
1F
100
AcDbEntity
  8
0
  6
Continuous
 62
     7
370
    15
100
AcDbSpline
210
0.0
220
0.0
230
1.0
 70
     8
 71
     3
 72
    10
 73
     6
 74
     0
 42
0.00000001
 43
0.00000001
 40
0.0
 40
0.0
 40
0.0
 40
0.0
 40
0.0189739094627935
 40
0.5253083415553117
 40
1.0
 40
1.0
 40
1.0
 40
1.0
 10
329.5762312353494
 20
639.6656129748584
 30
0.0
 10
329.5777505805302
 20
639.6663532387437
 30
0.0
 10
329.6198149056895
 20
639.6868480553051
 30
0.0
 10
329.7023998253326
 20
639.7251061151801
 30
0.0
 10
329.7725434157121
 20
639.7512404459818
 30
0.0
 10
329.8064839781168
 20
639.7638861329318
 30
0.0
  0
LINE
  5
31A
330
1F
100
AcDbEntity
  8
0
  6
Continuous
 62
     7
370
    15
100
AcDbLine
 10
324.6997368277
 20
648.9037368686
 30
0.0
 11
324.7121643961
 21
648.7540845067
 31
0.0
  0
LINE
  5
31B
330
1F
100
AcDbEntity
  8
0
  6
Continuous
 62
     7
370
    15
100
AcDbLine
 10
327.6919197977
 20
649.0975860746
 30
0.0
 11
327.6563358248
 21
649.307752052
 31
0.0
  0
ARC
  5
31C
330
1F
100
AcDbEntity
  8
0
  6
Continuous
 62
     7
370
    15
100
AcDbCircle
 10
325.6089247168
 20
642.7838893993
 30
0.0
 40
2.200000000000036
100
AcDbArc
 50
103.5934783352
 51
268.1042765976
  0
LINE
  5
31D
330
1F
100
AcDbEntity
  8
0
  6
Continuous
 62
     7
370
    15
100
AcDbLine
 10
322.0621120871
 20
644.1616509349
 30
0.0
 11
322.3957490862
 21
646.0538897903
 31
0.0
  0
LWPOLYLINE
  5
31E
330
1F
100
AcDbEntity
  8
0
  6
Continuous
 62
     7
370
    15
100
AcDbPolyline
 90
        9
 70
   128
 43
0.0
 10
322.3957490862
 20
646.0538897903
 10
322.2515058459
 20
646.0793260724
 10
322.1144747675
 20
646.1034808547
 10
321.9893646181
 20
646.1255494745
 10
321.8805265368
 20
646.1447421701
 10
321.7916858137
 20
646.1604032905
 10
321.7259418906
 20
646.1719963939
 10
321.685589546
 20
646.1791042478
 10
321.6719698847
 20
646.1815182359
  0
LINE
  5
31F
330
1F
100
AcDbEntity
  8
0
  6
Continuous
 62
     7
370
    15
100
AcDbLine
 10
321.6719698847
 20
646.1815182359
 30
0.0
 11
326.0470104159
 21
670.9936205537
 31
0.0
  0
LWPOLYLINE
  5
320
330
1F
100
AcDbEntity
  8
0
  6
Continuous
 62
     7
370
    15
100
AcDbPolyline
 90
        9
 70
   128
 43
0.0
 10
326.0470104159
 20
670.9936205537
 10
326.0621499956
 20
670.9909532459
 10
326.1069726885
 20
670.9830407293
 10
326.1797797621
 20
670.9702108295
 10
326.2777697981
 20
670.9529403836
 10
326.3971579016
 20
670.9318850429
 10
326.5333545149
 20
670.907864371
 10
326.6811442316
 20
670.8818022401
 10
326.8348646105
 20
670.8546970279
  0
LINE
  5
321
330
1F
100
AcDbEntity
  8
0
  6
Continuous
 62
     7
370
    15
100
AcDbLine
 10
326.8348646105
 20
670.8546970279
 30
0.0
 11
322.0095407904
 21
643.4888933093
 31
0.0
  0
LINE
  5
322
330
1F
100
AcDbEntity
  8
0
  6
Continuous
 62
     7
370
    15
100
AcDbLine
 10
322.0095407904
 20
643.4888933093
 30
0.0
 11
322.0621120871
 21
644.1616509349
 31
0.0
  0
LWPOLYLINE
  5
323
330
1F
100
AcDbEntity
  8
0
  6
Continuous
 62
     7
370
    15
100
AcDbPolyline
 90
        5
 70
   128
 43
0.0
 10
324.8943161906
 20
677.8819505365
 10
324.6408474387
 20
678.5783563049
 10
324.4572949351
 20
679.0826712043
 10
324.3461322726
 20
679.3880257995
 10
324.3089389742
 20
679.4902775676
  0
LWPOLYLINE
  5
324
330
1F
100
AcDbEntity
  8
0
  6
Continuous
 62
     7
370
    15
100
AcDbPolyline
 90
        5
 70
   128
 43
0.0
 10
325.6539475859
 20
678.1339291723
 10
325.3970813692
 20
678.8396034629
 10
325.2110552729
 20
679.350728193
 10
325.0984024943
 20
679.6602402122
 10
325.0606727541
 20
679.7638926894
  0
LINE
  5
325
330
1F
100
AcDbEntity
  8
0
  6
Continuous
 62
     7
370
    15
100
AcDbLine
 10
325.8760344923
 20
677.7794901521
 30
0.0
 11
325.6539475859
 21
678.1339291723
 31
0.0
  0
LINE
  5
326
330
1F
100
AcDbEntity
  8
0
  6
Continuous
 62
     7
370
    15
100
AcDbLine
 10
325.7938396872
 20
677.7495686204
 30
0.0
 11
325.8760344923
 21
677.7794901521
 31
0.0
  0
SPLINE
  5
327
330
1F
100
AcDbEntity
  8
0
  6
Continuous
 62
     7
370
    15
100
AcDbSpline
210
0.0
220
0.0
230
1.0
 70
     8
 71
     3
 72
    12
 73
     8
 74
     0
 42
0.00000001
 43
0.00000001
 40
0.0
 40
0.0
 40
0.0
 40
0.0
 40
0.2510114819641536
 40
0.5023967714756553
 40
0.7402775972796664
 40
0.9473076891039195
 40
1.0
 40
1.0
 40
1.0
 40
1.0
 10
324.8943161905649
 20
677.8819505364658
 30
0.0
 10
324.9220187842526
 20
677.8376320145096
 30
0.0
 10
324.9774652264684
 20
677.7489289712339
 30
0.0
 10
325.1844813439457
 20
677.6739467558717
 30
0.0
 10
325.4458652468821
 20
677.662437503497
 30
0.0
 10
325.662450457469
 20
677.7040863938046
 30
0.0
 10
325.7716793924329
 20
677.7418975232509
 30
0.0
 10
325.7938396871927
 20
677.7495686204196
 30
0.0
  0
LINE
  5
328
330
1F
100
AcDbEntity
  8
0
  6
Continuous
 62
     7
370
    15
100
AcDbLine
 10
325.7938396872
 20
677.7495686204
 30
0.0
 11
326.3701569975
 21
676.166081825
 31
0.0
  0
LWPOLYLINE
  5
329
330
1F
100
AcDbEntity
  8
0
  6
Continuous
 62
     7
370
    15
100
AcDbPolyline
 90
        9
 70
   128
 43
0.0
 10
325.6184232176
 20
675.8924667032
 10
325.6328475417
 20
675.8977268131
 10
325.6756436766
 20
675.9132985265
 10
325.7451128901
 20
675.938585797
 10
325.8386027754
 20
675.9726051481
 10
325.9525072516
 20
676.0140750797
 10
326.0824751795
 20
676.0613862664
 10
326.2234997691
 20
676.1127058656
 10
326.3701569975
 20
676.166081825
  0
LINE
  5
32A
330
1F
100
AcDbEntity
  8
0
  6
Continuous
 62
     7
370
    15
100
AcDbLine
 10
325.6184232176
 20
675.8924667032
 30
0.0
 11
324.8943161906
 21
677.8819505365
 31
0.0
  0
ARC
  5
32B
330
1F
100
AcDbEntity
  8
0
  6
Continuous
 62
     7
370
    15
100
AcDbCircle
 10
316.6913376763
 20
672.6432798676
 30
0.0
 40
9.500000000000444
100
AcDbArc
 50
350.0
 51
20.0
  0
ARC
  5
32C
330
1F
100
AcDbEntity
  8
0
  6
Continuous
 62
     7
370
    15
100
AcDbCircle
 10
316.6913376763
 20
672.6432798676
 30
0.0
 40
10.3000000000002
100
AcDbArc
 50
350.0
 51
20.0
  0
ARC
  5
32D
330
1F
100
AcDbEntity
  8
0
  6
Continuous
 62
     7
370
    15
100
AcDbCircle
 10
326.198930223
 20
648.9528803177
 30
0.0
 40
1.599999999999986
100
AcDbArc
 50
347.034367059
 51
204.5705045339
  0
LINE
  5
32E
330
1F
100
AcDbEntity
  8
0
  6
Continuous
 62
     7
370
    15
100
AcDbLine
 10
329.0089142264
 20
671.5795789153
 30
0.0
 11
329.0089142264
 21
643.5538921745
 31
0.0
  0
ARC
  5
32F
330
1F
100
AcDbEntity
  8
0
  6
Continuous
 62
     7
370
    15
100
AcDbCircle
 10
326.5936266426
 20
678.4759542536
 30
0.0
 40
1.0
100
AcDbArc
 50
224.1440002858
 51
270.0
  0
ARC
  5
330
330
1F
100
AcDbEntity
  8
0
  6
Continuous
 62
     7
370
    15
100
AcDbCircle
 10
319.5089247168
 20
671.5795754452
 30
0.0
 40
9.5
100
AcDbArc
 50
0.0
 51
36.8410865502
  0
LINE
  5
331
330
1F
100
AcDbEntity
  8
0
  6
Continuous
 62
     7
370
    15
100
AcDbLine
 10
326.5936148108
 20
677.4759534986
 30
0.0
 11
326.7116320074
 21
677.4759534986
 31
0.0
  0
ARC
  5
332
330
1F
100
AcDbEntity
  8
0
  6
Continuous
 62
     7
370
    15
100
AcDbCircle
 10
326.7116391882
 20
676.9759542536
 30
0.0
 40
0.5000000000001137
100
AcDbArc
 50
36.8410865503
 51
90.0
  0
LWPOLYLINE
  5
333
330
1F
100
AcDbEntity
  8
0
  6
Continuous
 62
     7
370
    15
100
AcDbPolyline
 90
        3
 70
   128
 43
0.0
 10
329.0089142264
 20
643.5538921745
 10
328.8002979697
 20
642.3636023195
 10
328.4441304148
 20
641.6474525125
  0
ARC
  5
334
330
1F
100
AcDbEntity
  8
0
  6
Continuous
 62
     7
370
    15
100
AcDbCircle
 10
325.5089247168
 20
643.5538893993
 30
0.0
 40
3.50000000000001
100
AcDbArc
 50
181.0639402281
 51
271.3221928089
  0
ARC
  5
335
330
1F
100
AcDbEntity
  8
0
  6
Continuous
 62
     7
370
    15
100
AcDbCircle
 10
326.1025425102
 20
644.2513849261
 30
0.0
 40
4.698428302688391
100
AcDbArc
 50
170.0
 51
264.3261771658
  0
LINE
  5
336
330
1F
100
AcDbEntity
  8
0
  6
Continuous
 62
     7
370
    15
100
AcDbLine
 10
321.6719698847
 20
646.1815182359
 30
0.0
 11
321.4754831732
 21
645.0672541053
 31
0.0
  0
LINE
  5
337
330
1F
100
AcDbEntity
  8
0
  6
Continuous
 62
     7
370
    15
100
AcDbLine
 10
815.5089241207
 20
837.7638897167
 30
0.0
 11
830.5089247168
 21
837.7638897167
 31
0.0
  0
LINE
  5
338
330
1F
100
AcDbEntity
  8
0
  6
Continuous
 62
     7
370
    15
100
AcDbLine
 10
815.5089241207
 20
837.7638897167
 30
0.0
 11
815.5089241207
 21
852.7638893814
 31
0.0
  0
ARC
  5
339
330
1F
100
AcDbEntity
  8
0
  6
Continuous
 62
     7
370
    15
100
AcDbCircle
 10
815.5089247168
 20
837.7638893993
 30
0.0
 40
14.99999999999989
100
AcDbArc
 50
0.0
 51
90.0
  0
LINE
  5
33A
330
1F
100
AcDbEntity
  8
0
  6
Continuous
 62
     7
370
    15
100
AcDbLine
 10
345.5089253128
 20
837.7638897167
 30
0.0
 11
815.5089241207
 21
837.7638897167
 31
0.0
  0
LINE
  5
33B
330
1F
100
AcDbEntity
  8
0
  6
Continuous
 62
     7
370
    15
100
AcDbLine
 10
345.5089253128
 20
837.7638897167
 30
0.0
 11
345.5089253128
 21
852.7638893814
 31
0.0
  0
LINE
  5
33C
330
1F
100
AcDbEntity
  8
0
  6
Continuous
 62
     7
370
    15
100
AcDbLine
 10
345.5089253128
 20
852.7638893814
 30
0.0
 11
815.5089241207
 21
852.7638893814
 31
0.0
  0
LINE
  5
33D
330
1F
100
AcDbEntity
  8
0
  6
Continuous
 62
     7
370
    15
100
AcDbLine
 10
345.5089253128
 20
837.7638897167
 30
0.0
 11
330.5089247168
 21
837.7638897167
 31
0.0
  0
ARC
  5
33E
330
1F
100
AcDbEntity
  8
0
  6
Continuous
 62
     7
370
    15
100
AcDbCircle
 10
345.5089247168
 20
837.7638893993
 30
0.0
 40
15.00000000000006
100
AcDbArc
 50
90.0
 51
180.0
  0
LINE
  5
33F
330
1F
100
AcDbEntity
  8
0
  6
Continuous
 62
     7
370
    15
100
AcDbLine
 10
830.5089247168
 20
626.76388959
 30
0.0
 11
830.5089247168
 21
837.7638897167
 31
0.0
  0
LINE
  5
340
330
1F
100
AcDbEntity
  8
0
  6
Continuous
 62
     7
370
    15
100
AcDbLine
 10
830.5089247168
 20
626.76388959
 30
0.0
 11
815.5089241207
 21
626.76388959
 31
0.0
  0
LINE
  5
341
330
1F
100
AcDbEntity
  8
0
  6
Continuous
 62
     7
370
    15
100
AcDbLine
 10
815.5089241207
 20
626.76388959
 30
0.0
 11
815.5089241207
 21
837.7638897167
 31
0.0
  0
LINE
  5
342
330
1F
100
AcDbEntity
  8
0
  6
Continuous
 62
     7
370
    15
100
AcDbLine
 10
815.5089241207
 20
626.76388959
 30
0.0
 11
345.5089253128
 21
626.76388959
 31
0.0
  0
LINE
  5
343
330
1F
100
AcDbEntity
  8
0
  6
Continuous
 62
     7
370
    15
100
AcDbLine
 10
345.5089253128
 20
626.76388959
 30
0.0
 11
345.5089253128
 21
837.7638897167
 31
0.0
  0
LINE
  5
344
330
1F
100
AcDbEntity
  8
0
  6
Continuous
 62
     7
370
    15
100
AcDbLine
 10
810.5089288891
 20
832.7638898284
 30
0.0
 11
810.5089288891
 21
646.7638854177
 31
0.0
  0
LINE
  5
345
330
1F
100
AcDbEntity
  8
0
  6
Continuous
 62
     7
370
    15
100
AcDbLine
 10
350.5089205445
 20
646.7638854177
 30
0.0
 11
810.5089288891
 21
646.7638854177
 31
0.0
  0
LINE
  5
346
330
1F
100
AcDbEntity
  8
0
  6
Continuous
 62
     7
370
    15
100
AcDbLine
 10
810.5089288891
 20
832.7638898284
 30
0.0
 11
350.5089205445
 21
832.7638898284
 31
0.0
  0
LINE
  5
347
330
1F
100
AcDbEntity
  8
0
  6
Continuous
 62
     7
370
    15
100
AcDbLine
 10
350.5089205445
 20
646.7638854177
 30
0.0
 11
350.5089205445
 21
832.7638898284
 31
0.0
  0
LINE
  5
348
330
1F
100
AcDbEntity
  8
0
  6
Continuous
 62
     7
370
    15
100
AcDbLine
 10
330.5089247168
 20
626.76388959
 30
0.0
 11
330.5089247168
 21
837.7638897167
 31
0.0
  0
LINE
  5
349
330
1F
100
AcDbEntity
  8
0
  6
Continuous
 62
     7
370
    15
100
AcDbLine
 10
345.5089253128
 20
626.76388959
 30
0.0
 11
330.5089247168
 21
626.76388959
 31
0.0
  0
LINE
  5
34A
330
1F
100
AcDbEntity
  8
0
  6
Continuous
 62
     7
370
    15
100
AcDbLine
 10
350.5089205445
 20
622.7638963849
 30
0.0
 11
350.5089205445
 21
626.76388959
 31
0.0
  0
LINE
  5
34B
330
1F
100
AcDbEntity
  8
0
  6
Continuous
 62
     7
370
    15
100
AcDbLine
 10
335.5089199484
 20
622.7638963849
 30
0.0
 11
335.5089199484
 21
626.76388959
 31
0.0
  0
LINE
  5
34C
330
1F
100
AcDbEntity
  8
0
  6
Continuous
 62
     7
370
    15
100
AcDbLine
 10
825.5089294852
 20
626.76388959
 30
0.0
 11
825.5089294852
 21
622.7638963849
 31
0.0
  0
LINE
  5
34D
330
1F
100
AcDbEntity
  8
0
  6
Continuous
 62
     7
370
    15
100
AcDbLine
 10
810.5089288891
 20
622.7638963849
 30
0.0
 11
810.5089288891
 21
626.76388959
 31
0.0
  0
LINE
  5
34E
330
1F
100
AcDbEntity
  8
0
  6
Continuous
 62
     7
370
    15
100
AcDbLine
 10
830.5089247168
 20
626.76388959
 30
0.0
 11
831.1762285174
 21
626.76388959
 31
0.0
  0
ARC
  5
34F
330
1F
100
AcDbEntity
  8
0
  6
Continuous
 62
     7
370
    15
100
AcDbCircle
 10
831.1762424649
 20
627.2638893993
 30
0.0
 40
0.5
100
AcDbArc
 50
270.0
 51
332.720387264
  0
ARC
  5
350
330
1F
100
AcDbEntity
  8
0
  6
Continuous
 62
     7
370
    15
100
AcDbCircle
 10
830.9467758515
 20
622.2638893993
 30
0.0
 40
0.5
100
AcDbArc
 50
22.024312837
 51
90.0
  0
ARC
  5
351
330
1F
100
AcDbEntity
  8
0
  6
Continuous
 62
     7
370
    15
100
AcDbCircle
 10
836.5089247168
 20
624.5138893993
 30
0.0
 40
5.500000000000115
100
AcDbArc
 50
202.024312837
 51
152.720387264
  0
LINE
  5
352
330
1F
100
AcDbEntity
  8
0
  6
Continuous
 62
     7
370
    15
100
AcDbLine
 10
830.9467804373
 20
622.7638963849
 30
0.0
 11
830.5089247168
 21
622.7638963849
 31
0.0
  0
LINE
  5
353
330
1F
100
AcDbEntity
  8
0
  6
Continuous
 62
     7
370
    15
100
AcDbLine
 10
330.5089247168
 20
647.9638908298
 30
0.0
 11
330.2089345396
 21
647.9638908298
 31
0.0
  0
LINE
  5
354
330
1F
100
AcDbEntity
  8
0
  6
Continuous
 62
     7
370
    15
100
AcDbLine
 10
330.2089345396
 20
645.9638867767
 30
0.0
 11
330.5089247168
 21
645.9649447591
 31
0.0
  0
LINE
  5
355
330
1F
100
AcDbEntity
  8
0
  6
Continuous
 62
     7
370
    15
100
AcDbLine
 10
330.2089345396
 20
645.9638867767
 30
0.0
 11
330.2089345396
 21
647.9638908298
 31
0.0
  0
ARC
  5
356
330
1F
100
AcDbEntity
  8
0
  6
Continuous
 62
     7
370
    15
100
AcDbCircle
 10
325.3089247168
 20
642.8638893993
 30
0.0
 40
3.100000000000023
100
AcDbArc
 50
192.3149452671
 51
270.0
  0
LINE
  5
357
330
1F
100
AcDbEntity
  8
0
  6
Continuous
 62
     7
370
    15
100
AcDbLine
 10
330.2089345396
 20
645.9638867767
 30
0.0
 11
329.0089142264
 21
645.9638867767
 31
0.0
  0
LINE
  5
358
330
1F
100
AcDbEntity
  8
0
  6
Continuous
 62
     7
370
    15
100
AcDbLine
 10
330.2089345396
 20
639.7638861329
 30
0.0
 11
330.2089345396
 21
645.9638867767
 31
0.0
  0
LINE
  5
359
330
1F
100
AcDbEntity
  8
0
  6
Continuous
 62
     7
370
    15
100
AcDbLine
 10
325.3089260996
 20
639.7638861329
 30
0.0
 11
325.6190490664
 21
639.7638861329
 31
0.0
  0
LINE
  5
35A
330
1F
100
AcDbEntity
  8
0
  6
Continuous
 62
     7
370
    15
100
AcDbLine
 10
328.634299034
 20
639.7638861329
 30
0.0
 11
330.2089345396
 21
639.7638861329
 31
0.0
  0
LINE
  5
35B
330
1F
100
AcDbEntity
  8
0
  6
Continuous
 62
     7
370
    15
100
AcDbLine
 10
330.5089247168
 20
639.7638861329
 30
0.0
 11
330.2089345396
 21
639.7638861329
 31
0.0
  0
LINE
  5
35C
330
1F
100
AcDbEntity
  8
0
  6
Continuous
 62
     7
370
    15
100
AcDbLine
 10
330.2089345396
 20
678.7638906629
 30
0.0
 11
330.2089345396
 21
672.0138881595
 31
0.0
  0
LINE
  5
35D
330
1F
100
AcDbEntity
  8
0
  6
Continuous
 62
     7
370
    15
100
AcDbLine
 10
330.2089345396
 20
647.9638908298
 30
0.0
 11
330.2089345396
 21
672.0138881595
 31
0.0
  0
LINE
  5
35E
330
1F
100
AcDbEntity
  8
0
  6
Continuous
 62
     7
370
    15
100
AcDbLine
 10
330.1089179457
 20
671.7638913781
 30
0.0
 11
330.1089179457
 21
677.7638886363
 31
0.0
  0
LINE
  5
35F
330
1F
100
AcDbEntity
  8
0
  6
Continuous
 62
     7
370
    15
100
AcDbLine
 10
330.1089179457
 20
648.7638894708
 30
0.0
 11
330.1089179457
 21
654.763886729
 31
0.0
  0
LINE
  5
360
330
1F
100
AcDbEntity
  8
0
  6
Continuous
 62
     7
370
    15
100
AcDbLine
 10
329.0089142264
 20
664.1206983716
 30
0.0
 11
330.2089345396
 21
663.7991611154
 31
0.0
  0
LINE
  5
361
330
1F
100
AcDbEntity
  8
0
  6
Continuous
 62
     7
370
    15
100
AcDbLine
 10
330.2089345396
 20
662.7638880403
 30
0.0
 11
329.0089142264
 21
663.0854252965
 31
0.0
  0
LINE
  5
362
330
1F
100
AcDbEntity
  8
0
  6
Continuous
 62
     8
370
    15
100
AcDbLine
 10
330.5089247168
 20
672.0138881595
 30
0.0
 11
330.2089345396
 21
672.0138881595
 31
0.0
  0
ENDSEC
  0
SECTION
  2
OBJECTS
  0
DICTIONARY
  5
C
330
0
100
AcDbDictionary
281
     1
  3
ACAD_GROUP
350
D
  3
ACAD_LAYOUT
350
1A
  3
ACAD_MLINESTYLE
350
17
  3
ACAD_PLOTSETTINGS
350
19
  3
ACAD_PLOTSTYLENAME
350
E
  0
DICTIONARY
  5
D
102
{ACAD_REACTORS
330
C
102
}
330
C
100
AcDbDictionary
281
     1
  0
DICTIONARY
  5
1A
102
{ACAD_REACTORS
330
C
102
}
330
C
100
AcDbDictionary
281
     1
  3
Layout1
350
1E
  3
Layout2
350
26
  3
Model
350
22
  0
DICTIONARY
  5
17
102
{ACAD_REACTORS
330
C
102
}
330
C
100
AcDbDictionary
281
     1
  3
Standard
350
18
  0
DICTIONARY
  5
19
102
{ACAD_REACTORS
330
C
102
}
330
C
100
AcDbDictionary
281
     1
  0
ACDBDICTIONARYWDFLT
  5
E
102
{ACAD_REACTORS
330
C
102
}
330
C
100
AcDbDictionary
281
     1
  3
Normal
350
F
100
AcDbDictionaryWithDefault
340
F
  0
LAYOUT
  5
1E
102
{ACAD_REACTORS
330
1A
102
}
330
1A
100
AcDbPlotSettings
  1

  2
none_device
  4

  6

 40
0.0
 41
0.0
 42
0.0
 43
0.0
 44
0.0
 45
0.0
 46
0.0
 47
0.0
 48
0.0
 49
0.0
140
0.0
141
0.0
142
1.0
143
1.0
 70
   688
 72
     0
 73
     0
 74
     5
  7

 75
    16
147
1.0
148
0.0
149
0.0
100
AcDbLayout
  1
Layout1
 70
     1
 71
     1
 10
0.0
 20
0.0
 11
420.0
 21
297.0
 12
0.0
 22
0.0
 32
0.0
 14
1.0000000000E+20
 24
1.0000000000E+20
 34
1.0000000000E+20
 15
-1.0000000000E+20
 25
-1.0000000000E+20
 35
-1.0000000000E+20
146
0.0
 13
0.0
 23
0.0
 33
0.0
 16
1.0
 26
0.0
 36
0.0
 17
0.0
 27
1.0
 37
0.0
 76
     0
330
1B
  0
LAYOUT
  5
26
102
{ACAD_REACTORS
330
1A
102
}
330
1A
100
AcDbPlotSettings
  1

  2
none_device
  4

  6

 40
0.0
 41
0.0
 42
0.0
 43
0.0
 44
0.0
 45
0.0
 46
0.0
 47
0.0
 48
0.0
 49
0.0
140
0.0
141
0.0
142
1.0
143
1.0
 70
   688
 72
     0
 73
     0
 74
     5
  7

 75
    16
147
1.0
148
0.0
149
0.0
100
AcDbLayout
  1
Layout2
 70
     1
 71
     2
 10
0.0
 20
0.0
 11
0.0
 21
0.0
 12
0.0
 22
0.0
 32
0.0
 14
0.0
 24
0.0
 34
0.0
 15
0.0
 25
0.0
 35
0.0
146
0.0
 13
0.0
 23
0.0
 33
0.0
 16
1.0
 26
0.0
 36
0.0
 17
0.0
 27
1.0
 37
0.0
 76
     0
330
23
  0
LAYOUT
  5
22
102
{ACAD_REACTORS
330
1A
102
}
330
1A
100
AcDbPlotSettings
  1

  2
none_device
  4

  6

 40
0.0
 41
0.0
 42
0.0
 43
0.0
 44
0.0
 45
0.0
 46
0.0
 47
0.0
 48
0.0
 49
0.0
140
0.0
141
0.0
142
1.0
143
1.0
 70
  1712
 72
     0
 73
     0
 74
     0
  7

 75
     0
147
1.0
148
0.0
149
0.0
100
AcDbLayout
  1
Model
 70
     1
 71
     0
 10
0.0
 20
0.0
 11
840.0
 21
594.0
 12
0.0
 22
0.0
 32
0.0
 14
0.0
 24
0.0
 34
0.0
 15
840.0
 25
594.0
 35
0.0
146
0.0
 13
0.0
 23
0.0
 33
0.0
 16
1.0
 26
0.0
 36
0.0
 17
0.0
 27
1.0
 37
0.0
 76
     0
330
1F
331
29
  0
MLINESTYLE
  5
18
102
{ACAD_REACTORS
330
17
102
}
330
17
100
AcDbMlineStyle
  2
Standard
 70
     0
  3

 62
   256
 51
90.0
 52
90.0
 71
     2
 49
0.5
 62
   256
  6
BYLAYER
 49
-0.5
 62
   256
  6
BYLAYER
  0
ACDBPLACEHOLDER
  5
F
102
{ACAD_REACTORS
330
E
102
}
330
E
  0
ENDSEC
  0
EOF
