  0
SECTION
  2
HEADER
  9
$ACADVER
  1
AC1015
  9
$ACADMAINTVER
 70
     6
  9
$DWGCODEPAGE
  3
DOS932
  9
$INSBASE
 10
0.0
 20
0.0
 30
0.0
  9
$EXTMIN
 10
0.0
 20
0.0
 30
0.0
  9
$EXTMAX
 10
840.0
 20
594.0
 30
0.0
  9
$LIMMIN
 10
0.0
 20
0.0
  9
$LIMMAX
 10
840.0
 20
594.0
  9
$ORTHOMODE
 70
     0
  9
$REGENMODE
 70
     1
  9
$FILLMODE
 70
     1
  9
$QTEXTMODE
 70
     0
  9
$MIRRTEXT
 70
     1
  9
$LTSCALE
 40
2.0
  9
$ATTMODE
 70
     1
  9
$TEXTSIZE
 40
7.0
  9
$TRACEWID
 40
1.0
  9
$TEXTSTYLE
  7
Standard
  9
$CLAYER
  8
0
  9
$CELTYPE
  6
ByLayer
  9
$CECOLOR
 62
   256
  9
$CELTSCALE
 40
1.0
  9
$DISPSILH
 70
     0
  9
$DIMSCALE
 40
1.0
  9
$DIMASZ
 40
6.0
  9
$DIMEXO
 40
2.0
  9
$DIMDLI
 40
3.75
  9
$DIMRND
 40
0.0
  9
$DIMDLE
 40
0.0
  9
$DIMEXE
 40
2.0
  9
$DIMTP
 40
0.0
  9
$DIMTM
 40
0.0
  9
$DIMTXT
 40
7.0
  9
$DIMCEN
 40
2.5
  9
$DIMTSZ
 40
0.0
  9
$DIMTOL
 70
     0
  9
$DIMLIM
 70
     0
  9
$DIMTIH
 70
     1
  9
$DIMTOH
 70
     1
  9
$DIMSE1
 70
     0
  9
$DIMSE2
 70
     0
  9
$DIMTAD
 70
     1
  9
$DIMZIN
 70
     0
  9
$DIMBLK
  1

  9
$DIMASO
 70
     1
  9
$DIMSHO
 70
     1
  9
$DIMPOST
  1

  9
$DIMAPOST
  1

  9
$DIMALT
 70
     0
  9
$DIMALTD
 70
     3
  9
$DIMALTF
 40
0.0393700787
  9
$DIMLFAC
 40
1.0
  9
$DIMTOFL
 70
     1
  9
$DIMTVP
 40
0.0
  9
$DIMTIX
 70
     0
  9
$DIMSOXD
 70
     0
  9
$DIMSAH
 70
     0
  9
$DIMBLK1
  1

  9
$DIMBLK2
  1

  9
$DIMSTYLE
  2
ISO-25
  9
$DIMCLRD
 70
     0
  9
$DIMCLRE
 70
     0
  9
$DIMCLRT
 70
     0
  9
$DIMTFAC
 40
1.0
  9
$DIMGAP
 40
3.048
  9
$DIMJUST
 70
     0
  9
$DIMSD1
 70
     0
  9
$DIMSD2
 70
     0
  9
$DIMTOLJ
 70
     0
  9
$DIMTZIN
 70
     0
  9
$DIMALTZ
 70
     0
  9
$DIMALTTZ
 70
     0
  9
$DIMUPT
 70
     0
  9
$DIMDEC
 70
     1
  9
$DIMTDEC
 70
     1
  9
$DIMALTU
 70
     2
  9
$DIMALTTD
 70
     3
  9
$DIMTXSTY
  7
Standard
  9
$DIMAUNIT
 70
     0
  9
$DIMADEC
 70
     2
  9
$DIMALTRND
 40
0.0
  9
$DIMAZIN
 70
     0
  9
$DIMDSEP
 70
    44
  9
$DIMATFIT
 70
     3
  9
$DIMFRAC
 70
     0
  9
$DIMLDRBLK
  1

  9
$DIMLUNIT
 70
     2
  9
$DIMLWD
 70
    -2
  9
$DIMLWE
 70
    -2
  9
$DIMTMOVE
 70
     0
  9
$LUNITS
 70
     2
  9
$LUPREC
 70
     1
  9
$SKETCHINC
 40
1.0
  9
$FILLETRAD
 40
10.0
  9
$AUNITS
 70
     0
  9
$AUPREC
 70
     2
  9
$MENU
  1
.
  9
$ELEVATION
 40
0.0
  9
$PELEVATION
 40
0.0
  9
$THICKNESS
 40
0.0
  9
$LIMCHECK
 70
     0
  9
$CHAMFERA
 40
10.0
  9
$CHAMFERB
 40
10.0
  9
$CHAMFERC
 40
20.0
  9
$CHAMFERD
 40
0.0
  9
$SKPOLY
 70
     0
  9
$TDCREATE
 40
2460451.61735882
  9
$TDUCREATE
 40
2460451.24235882
  9
$TDUPDATE
 40
2460451.617358831
  9
$TDUUPDATE
 40
2460451.242358831
  9
$TDINDWG
 40
0.0000000116
  9
$TDUSRTIMER
 40
0.0000000116
  9
$USRTIMER
 70
     1
  9
$ANGBASE
 50
0.0
  9
$ANGDIR
 70
     0
  9
$PDMODE
 70
     0
  9
$PDSIZE
 40
-1.0
  9
$PLINEWID
 40
0.0
  9
$SPLFRAME
 70
     0
  9
$SPLINETYPE
 70
     6
  9
$SPLINESEGS
 70
     8
  9
$HANDSEED
  5
365
  9
$SURFTAB1
 70
     6
  9
$SURFTAB2
 70
     6
  9
$SURFTYPE
 70
     6
  9
$SURFU
 70
     6
  9
$SURFV
 70
     6
  9
$UCSBASE
  2

  9
$UCSNAME
  2

  9
$UCSORG
 10
0.0
 20
0.0
 30
0.0
  9
$UCSXDIR
 10
1.0
 20
0.0
 30
0.0
  9
$UCSYDIR
 10
0.0
 20
1.0
 30
0.0
  9
$UCSORTHOREF
  2

  9
$UCSORTHOVIEW
 70
     0
  9
$UCSORGTOP
 10
0.0
 20
0.0
 30
0.0
  9
$UCSORGBOTTOM
 10
0.0
 20
0.0
 30
0.0
  9
$UCSORGLEFT
 10
0.0
 20
0.0
 30
0.0
  9
$UCSORGRIGHT
 10
0.0
 20
0.0
 30
0.0
  9
$UCSORGFRONT
 10
0.0
 20
0.0
 30
0.0
  9
$UCSORGBACK
 10
0.0
 20
0.0
 30
0.0
  9
$PUCSBASE
  2

  9
$PUCSNAME
  2

  9
$PUCSORG
 10
0.0
 20
0.0
 30
0.0
  9
$PUCSXDIR
 10
1.0
 20
0.0
 30
0.0
  9
$PUCSYDIR
 10
0.0
 20
1.0
 30
0.0
  9
$PUCSORTHOREF
  2

  9
$PUCSORTHOVIEW
 70
     0
  9
$PUCSORGTOP
 10
0.0
 20
0.0
 30
0.0
  9
$PUCSORGBOTTOM
 10
0.0
 20
0.0
 30
0.0
  9
$PUCSORGLEFT
 10
0.0
 20
0.0
 30
0.0
  9
$PUCSORGRIGHT
 10
0.0
 20
0.0
 30
0.0
  9
$PUCSORGFRONT
 10
0.0
 20
0.0
 30
0.0
  9
$PUCSORGBACK
 10
0.0
 20
0.0
 30
0.0
  9
$USERI1
 70
     0
  9
$USERI2
 70
     0
  9
$USERI3
 70
     0
  9
$USERI4
 70
     0
  9
$USERI5
 70
     0
  9
$USERR1
 40
0.0
  9
$USERR2
 40
0.0
  9
$USERR3
 40
0.0
  9
$USERR4
 40
0.0
  9
$USERR5
 40
0.0
  9
$WORLDVIEW
 70
     1
  9
$SHADEDGE
 70
     3
  9
$SHADEDIF
 70
    70
  9
$TILEMODE
 70
     1
  9
$MAXACTVP
 70
    64
  9
$PINSBASE
 10
0.0
 20
0.0
 30
0.0
  9
$PLIMCHECK
 70
     0
  9
$PEXTMIN
 10
1.0000000000E+20
 20
1.0000000000E+20
 30
1.0000000000E+20
  9
$PEXTMAX
 10
-1.0000000000E+20
 20
-1.0000000000E+20
 30
-1.0000000000E+20
  9
$PLIMMIN
 10
0.0
 20
0.0
  9
$PLIMMAX
 10
420.0
 20
297.0
  9
$UNITMODE
 70
     0
  9
$VISRETAIN
 70
     1
  9
$PLINEGEN
 70
     0
  9
$PSLTSCALE
 70
     1
  9
$TREEDEPTH
 70
  3020
  9
$CMLSTYLE
  2
Standard
  9
$CMLJUST
 70
     0
  9
$CMLSCALE
 40
20.0
  9
$PROXYGRAPHICS
 70
     1
  9
$MEASUREMENT
 70
     1
  9
$CELWEIGHT
370
    -1
  9
$ENDCAPS
280
     0
  9
$JOINSTYLE
280
     0
  9
$LWDISPLAY
290
     1
  9
$INSUNITS
 70
     4
  9
$HYPERLINKBASE
  1

  9
$STYLESHEET
  1

  9
$XEDIT
290
     1
  9
$CEPSNTYPE
380
     0
  9
$PSTYLEMODE
290
     1
  9
$FINGERPRINTGUID
  2
{0F7DBD48-2B8C-45BD-BBC2-D5F83BA57769}
  9
$VERSIONGUID
  2
{FAEB1C32-E019-11D5-929B-00C0DF256EC4}
  9
$EXTNAMES
290
     1
  9
$PSVPSCALE
 40
0.0
  9
$OLESTARTUP
290
     0
  0
ENDSEC
  0
SECTION
  2
CLASSES
  0
CLASS
  1
ACDBDICTIONARYWDFLT
  2
AcDbDictionaryWithDefault
  3
ObjectDBX Classes
 90
        0
280
     0
281
     0
  0
CLASS
  1
VISUALSTYLE
  2
AcDbVisualStyle
  3
ObjectDBX Classes
 90
     4095
280
     0
281
     0
  0
CLASS
  1
MATERIAL
  2
AcDbMaterial
  3
ObjectDBX Classes
 90
     1153
280
     0
281
     0
  0
CLASS
  1
ACDBPLACEHOLDER
  2
AcDbPlaceHolder
  3
ObjectDBX Classes
 90
        0
280
     0
281
     0
  0
CLASS
  1
LAYOUT
  2
AcDbLayout
  3
ObjectDBX Classes
 90
        0
280
     0
281
     0
  0
ENDSEC
  0
SECTION
  2
TABLES
  0
TABLE
  2
VPORT
  5
8
330
0
100
AcDbSymbolTable
 70
     1
  0
VPORT
  5
29
330
8
100
AcDbSymbolTableRecord
100
AcDbViewportTableRecord
  2
*Active
 70
     0
 10
0.0
 20
0.0
 11
1.0
 21
1.0
 12
420.0
 22
297.0
 13
0.0
 23
0.0
 14
10.0
 24
10.0
 15
10.0
 25
10.0
 16
0.0
 26
0.0
 36
1.0
 17
0.0
 27
0.0
 37
0.0
 40
594.0
 41
1.4141414141
 42
50.0
 43
0.0
 44
0.0
 50
0.0
 51
0.0
 71
     0
 72
  2000
 73
     1
 74
     3
 75
     0
 76
     0
 77
     0
 78
     0
281
     0
 65
     1
110
0.0
120
0.0
130
0.0
111
1.0
121
0.0
131
0.0
112
0.0
122
1.0
132
0.0
 79
     0
146
0.0
  0
ENDTAB
  0
TABLE
  2
LTYPE
  5
5
330
0
100
AcDbSymbolTable
 70
     6
  0
LTYPE
  5
14
330
5
100
AcDbSymbolTableRecord
100
AcDbLinetypeTableRecord
  2
ByBlock
 70
     0
  3

 72
    65
 73
     0
 40
0.0
  0
LTYPE
  5
15
330
5
100
AcDbSymbolTableRecord
100
AcDbLinetypeTableRecord
  2
ByLayer
 70
     0
  3

 72
    65
 73
     0
 40
0.0
  0
LTYPE
  5
16
330
5
100
AcDbSymbolTableRecord
100
AcDbLinetypeTableRecord
  2
Continuous
 70
     0
  3
Solid line
 72
    65
 73
     0
 40
0.0
  0
LTYPE
  5
3F
330
5
100
AcDbSymbolTableRecord
100
AcDbLinetypeTableRecord
  2
HIDDEN
 70
     0
  3
Hidden __ __ __ __ __ __ __ __ __ __ __ __ __ __
 72
    65
 73
     2
 40
1.905
 49
1.27
 74
     0
 49
-0.635
 74
     0
  0
LTYPE
  5
40
330
5
100
AcDbSymbolTableRecord
100
AcDbLinetypeTableRecord
  2
PHANTOM
 70
     0
  3
Phantom ______  __  __  ______  __  __  ______
 72
    65
 73
     6
 40
12.7
 49
6.35
 74
     0
 49
-1.27
 74
     0
 49
1.27
 74
     0
 49
-1.27
 74
     0
 49
1.27
 74
     0
 49
-1.27
 74
     0
  0
LTYPE
  5
41
330
5
100
AcDbSymbolTableRecord
100
AcDbLinetypeTableRecord
  2
CENTER
 70
     0
  3
Center ____ _ ____ _ ____ _ ____ _ ____ _ ____
 72
    65
 73
     4
 40
10.16
 49
6.35
 74
     0
 49
-1.27
 74
     0
 49
1.27
 74
     0
 49
-1.27
 74
     0
  0
LTYPE
  5
42
330
5
100
AcDbSymbolTableRecord
100
AcDbLinetypeTableRecord
  2
CENTERX2
 70
     0
  3
Center (2x) ________  __  ________  __  _____
 72
    65
 73
     4
 40
20.32
 49
12.7
 74
     0
 49
-2.54
 74
     0
 49
2.54
 74
     0
 49
-2.54
 74
     0
  0
LTYPE
  5
43
330
5
100
AcDbSymbolTableRecord
100
AcDbLinetypeTableRecord
  2
DOT2
 70
     0
  3
Dot (.5x) ........................................
 72
    65
 73
     2
 40
0.635
 49
0.0
 74
     0
 49
-0.635
 74
     0
  0
ENDTAB
  0
TABLE
  2
LAYER
  5
2
330
0
100
AcDbSymbolTable
 70
     1
  0
LAYER
  5
10
330
2
100
AcDbSymbolTableRecord
100
AcDbLayerTableRecord
  2
0
 70
     0
 62
     7
  6
Continuous
370
    -3
390
F
  0
ENDTAB
  0
TABLE
  2
STYLE
  5
3
330
0
100
AcDbSymbolTable
 70
     2
  0
STYLE
  5
11
330
3
100
AcDbSymbolTableRecord
100
AcDbTextStyleTableRecord
  2
Standard
 70
     0
 40
0.0
 41
1.0
 50
0.0
 71
     0
 42
2.5
  3
txt
  4
bigfont
  0
STYLE
  5
44
330
3
100
AcDbSymbolTableRecord
100
AcDbTextStyleTableRecord
  2
SLDTEXTSTYLE0
 70
     0
 40
0.0
 41
0.7
 50
0.0
 71
     0
 42
0.2
  3
TXT
  4
bigfont
  0
ENDTAB
  0
TABLE
  2
VIEW
  5
6
330
0
100
AcDbSymbolTable
 70
     0
  0
ENDTAB
  0
TABLE
  2
UCS
  5
7
330
0
100
AcDbSymbolTable
 70
     0
  0
ENDTAB
  0
TABLE
  2
APPID
  5
9
330
0
100
AcDbSymbolTable
 70
     1
  0
APPID
  5
12
330
9
100
AcDbSymbolTableRecord
100
AcDbRegAppTableRecord
  2
ACAD
 70
     0
  0
ENDTAB
  0
TABLE
  2
DIMSTYLE
  5
A
330
0
100
AcDbSymbolTable
 70
     1
100
AcDbDimStyleTable
  0
DIMSTYLE
105
27
330
A
100
AcDbSymbolTableRecord
100
AcDbDimStyleTableRecord
  2
ISO-25
 70
     0
 41
2.5
 42
0.625
 43
3.75
 44
1.25
 73
     0
 74
     0
 77
     1
 78
     8
140
2.5
141
2.5
143
0.0393700787
147
0.625
171
     3
172
     1
178
     0
271
     2
272
     2
274
     3
278
    44
283
     0
284
     8
340
11
  0
ENDTAB
  0
TABLE
  2
BLOCK_RECORD
  5
1
330
0
100
AcDbSymbolTable
 70
     1
  0
BLOCK_RECORD
  5
1F
330
1
100
AcDbSymbolTableRecord
100
AcDbBlockTableRecord
  2
*Model_Space
340
22
  0
BLOCK_RECORD
  5
1B
330
1
100
AcDbSymbolTableRecord
100
AcDbBlockTableRecord
  2
*Paper_Space
340
1E
  0
BLOCK_RECORD
  5
23
330
1
100
AcDbSymbolTableRecord
100
AcDbBlockTableRecord
  2
*Paper_Space0
340
26
  0
ENDTAB
  0
ENDSEC
  0
SECTION
  2
BLOCKS
  0
BLOCK
  5
20
330
1F
100
AcDbEntity
  8
0
100
AcDbBlockBegin
  2
*Model_Space
 70
     0
 10
0.0
 20
0.0
 30
0.0
  3
*Model_Space
  1

  0
ENDBLK
  5
21
330
1F
100
AcDbEntity
  8
0
100
AcDbBlockEnd
  0
BLOCK
  5
1C
330
1B
100
AcDbEntity
 67
     1
  8
0
100
AcDbBlockBegin
  2
*Paper_Space
 70
     0
 10
0.0
 20
0.0
 30
0.0
  3
*Paper_Space
  1

  0
ENDBLK
  5
1D
330
1B
100
AcDbEntity
 67
     1
  8
0
100
AcDbBlockEnd
  0
BLOCK
  5
24
330
23
100
AcDbEntity
  8
0
100
AcDbBlockBegin
  2
*Paper_Space0
 70
     0
 10
0.0
 20
0.0
 30
0.0
  3
*Paper_Space0
  1

  0
ENDBLK
  5
25
330
23
100
AcDbEntity
  8
0
100
AcDbBlockEnd
  0
ENDSEC
  0
SECTION
  2
ENTITIES
  0
MTEXT
  5
45
330
1F
100
AcDbEntity
  8
0
  6
Continuous
 62
     7
370
     0
100
AcDbMText
 10
140.5251317764
 20
564.1918409792
 30
0.0
 40
7.0
 41
0.0
 71
     1
 72
     1
  1
CHB-515P
  7
SLDTEXTSTYLE0
 73
     1
 44
1.0
  0
LINE
  5
46
330
1F
100
AcDbEntity
  8
0
  6
Continuous
 62
     7
370
    15
100
AcDbLine
 10
320.9910424527
 20
462.9987699193
 30
0.0
 11
321.0910590466
 21
462.9987699193
 31
0.0
  0
LINE
  5
47
330
1F
100
AcDbEntity
  8
0
  6
Continuous
 62
     7
370
    15
100
AcDbLine
 10
321.0910590466
 20
468.9987671774
 30
0.0
 11
320.9910424527
 21
468.9987671774
 31
0.0
  0
LINE
  5
48
330
1F
100
AcDbEntity
  8
0
  6
Continuous
 62
     7
370
    15
100
AcDbLine
 10
320.9910424527
 20
452.9987645548
 30
0.0
 11
321.0910590466
 21
452.9987645548
 31
0.0
  0
LINE
  5
49
330
1F
100
AcDbEntity
  8
0
  6
Continuous
 62
     7
370
    15
100
AcDbLine
 10
321.0910590466
 20
458.998761813
 30
0.0
 11
320.9910424527
 21
458.998761813
 31
0.0
  0
LINE
  5
4A
330
1F
100
AcDbEntity
  8
0
  6
Continuous
 62
     7
370
    15
100
AcDbLine
 10
320.9910424527
 20
82.9987597865
 30
0.0
 11
321.0910590466
 21
82.9987597865
 31
0.0
  0
LINE
  5
4B
330
1F
100
AcDbEntity
  8
0
  6
Continuous
 62
     7
370
    15
100
AcDbLine
 10
321.0910590466
 20
88.9987570447
 30
0.0
 11
320.9910424527
 21
88.9987570447
 31
0.0
  0
LINE
  5
4C
330
1F
100
AcDbEntity
  8
0
  6
Continuous
 62
     7
370
    15
100
AcDbLine
 10
320.9910424527
 20
92.9987651509
 30
0.0
 11
321.0910590466
 21
92.9987651509
 31
0.0
  0
LINE
  5
4D
330
1F
100
AcDbEntity
  8
0
  6
Continuous
 62
     7
370
    15
100
AcDbLine
 10
321.0910590466
 20
98.9987624091
 30
0.0
 11
320.9910424527
 21
98.9987624091
 31
0.0
  0
LINE
  5
4E
330
1F
100
AcDbEntity
  8
0
  6
Continuous
 62
     7
370
    15
100
AcDbLine
 10
322.2910495576
 20
472.4987668198
 30
0.0
 11
321.0910590466
 21
472.4987668198
 31
0.0
  0
LINE
  5
4F
330
1F
100
AcDbEntity
  8
0
  6
Continuous
 62
     7
370
    15
100
AcDbLine
 10
322.2910495576
 20
102.4987620514
 30
0.0
 11
321.0910590466
 21
102.4987620514
 31
0.0
  0
LINE
  5
50
330
1F
100
AcDbEntity
  8
0
  6
Continuous
 62
     7
370
    15
100
AcDbLine
 10
321.0910590466
 20
449.4987649125
 30
0.0
 11
322.2910495576
 21
449.4987649125
 31
0.0
  0
LINE
  5
51
330
1F
100
AcDbEntity
  8
0
  6
Continuous
 62
     7
370
    15
100
AcDbLine
 10
321.0910590466
 20
79.4987601441
 30
0.0
 11
322.2910495576
 21
79.4987601441
 31
0.0
  0
LINE
  5
52
330
1F
100
AcDbEntity
  8
0
  6
Continuous
 62
     7
370
    15
100
AcDbLine
 10
833.7910505112
 20
434.9987578791
 30
0.0
 11
833.7910505112
 21
469.998769204
 31
0.0
  0
LINE
  5
53
330
1F
100
AcDbEntity
  8
0
  6
Continuous
 62
     7
370
    15
100
AcDbLine
 10
833.7910505112
 20
81.9987577599
 30
0.0
 11
833.7910505112
 21
116.9987690848
 31
0.0
  0
LINE
  5
54
330
1F
100
AcDbEntity
  8
0
  6
Continuous
 62
     7
370
    15
100
AcDbLine
 10
313.1862314519
 20
94.8987675112
 30
0.0
 11
313.1862314519
 21
86.2987560433
 31
0.0
  0
LINE
  5
55
330
1F
100
AcDbEntity
  8
0
  6
Continuous
 62
     7
370
    15
100
AcDbLine
 10
313.7910397824
 20
83.7987584275
 30
0.0
 11
313.7910397824
 21
82.9990131062
 31
0.0
  0
LINE
  5
56
330
1F
100
AcDbEntity
  8
0
  6
Continuous
 62
     7
370
    15
100
AcDbLine
 10
313.7910397824
 20
98.9985090893
 30
0.0
 11
313.7910397824
 21
98.1987637681
 31
0.0
  0
ARC
  5
57
330
1F
100
AcDbEntity
  8
0
  6
Continuous
 62
     7
370
    15
100
AcDbCircle
 10
317.3910495576
 20
96.1916206248
 30
0.0
 40
3.807142857143177
100
AcDbArc
 50
77.9663271603
 51
90.0
  0
ARC
  5
58
330
1F
100
AcDbEntity
  8
0
  6
Continuous
 62
     7
370
    15
100
AcDbCircle
 10
317.3910495576
 20
96.1916206248
 30
0.0
 40
3.80714285714331
100
AcDbArc
 50
90.0
 51
125.3002484399
  0
LINE
  5
59
330
1F
100
AcDbEntity
  8
0
  6
Continuous
 62
     7
370
    15
100
AcDbLine
 10
315.1910634812
 20
99.2987674874
 30
0.0
 11
315.1910634812
 21
98.9987624091
 31
0.0
  0
LINE
  5
5A
330
1F
100
AcDbEntity
  8
0
  6
Continuous
 62
     7
370
    15
100
AcDbLine
 10
315.2910502728
 20
82.5987679165
 30
0.0
 11
315.2910502728
 21
82.1987611455
 31
0.0
  0
ARC
  5
5B
330
1F
100
AcDbEntity
  8
0
  6
Continuous
 62
     7
370
    15
100
AcDbCircle
 10
315.4910495576
 20
82.998763482
 30
0.0
 40
0.4000000000007731
100
AcDbArc
 50
270.0
 51
0.0
  0
LINE
  5
5C
330
1F
100
AcDbEntity
  8
0
  6
Continuous
 62
     7
370
    15
100
AcDbLine
 10
315.8910604294
 20
98.1987637681
 30
0.0
 11
315.8910604294
 21
97.7487636012
 31
0.0
  0
LINE
  5
5D
330
1F
100
AcDbEntity
  8
0
  6
Continuous
 62
     7
370
    15
100
AcDbLine
 10
315.8910604294
 20
84.2487585944
 30
0.0
 11
315.8910604294
 21
83.7987584275
 31
0.0
  0
SPLINE
  5
5E
330
1F
100
AcDbEntity
  8
0
  6
Continuous
 62
     7
370
    15
100
AcDbSpline
210
0.0
220
0.0
230
1.0
 70
     8
 71
     3
 72
    11
 73
     7
 74
     0
 42
0.00000001
 43
0.00000001
 40
0.0
 40
0.0
 40
0.0
 40
0.0
 40
0.2262216123131673
 40
0.4679437777915651
 40
0.725484838772645
 40
1.0
 40
1.0
 40
1.0
 40
1.0
 10
318.6115654286074
 20
469.2291987341428
 30
0.0
 10
318.6143862044364
 20
469.2062988157451
 30
0.0
 10
318.6202210337626
 20
469.1589298918984
 30
0.0
 10
318.6369875784803
 20
468.8341525161479
 30
0.0
 10
318.6505828006457
 20
468.3336535886694
 30
0.0
 10
318.6511292119524
 20
467.909831887301
 30
0.0
 10
318.6514111336397
 20
467.6911604803586
 30
0.0
  0
SPLINE
  5
5F
330
1F
100
AcDbEntity
  8
0
  6
Continuous
 62
     7
370
    15
100
AcDbSpline
210
0.0
220
0.0
230
1.0
 70
     8
 71
     3
 72
    12
 73
     8
 74
     0
 42
0.00000001
 43
0.00000001
 40
0.0
 40
0.0
 40
0.0
 40
0.0
 40
0.248946245326258
 40
0.4822936287519815
 40
0.699811415192867
 40
0.9035372363555159
 40
1.0
 40
1.0
 40
1.0
 40
1.0
 10
318.6514111336397
 20
454.1325343054318
 30
0.0
 10
318.6499852665821
 20
453.99519862761
 30
0.0
 10
318.6472228766675
 20
453.7291326649481
 30
0.0
 10
318.6363219448671
 20
453.3933287417323
 30
0.0
 10
318.6338116139743
 20
453.1601511641294
 30
0.0
 10
318.6386006301246
 20
453.0400373256188
 30
0.0
 10
318.6650312326224
 20
453.0386979339964
 30
0.0
 10
318.6735244568514
 20
453.0382675331616
 30
0.0
  0
LINE
  5
60
330
1F
100
AcDbEntity
  8
0
  6
Continuous
 62
     7
370
    15
100
AcDbLine
 10
318.6505766686
 20
467.7411538762
 30
0.0
 11
318.6505766686
 21
454.0825260085
 31
0.0
  0
LINE
  5
61
330
1F
100
AcDbEntity
  8
0
  6
Continuous
 62
     7
370
    15
100
AcDbLine
 10
317.1269329365
 20
471.6790539425
 30
0.0
 11
318.6143072423
 21
469.1989046734
 31
0.0
  0
LINE
  5
62
330
1F
100
AcDbEntity
  8
0
  6
Continuous
 62
     7
370
    15
100
AcDbLine
 10
321.0910590466
 20
470.9020030898
 30
0.0
 11
319.6997674283
 21
473.2219797772
 31
0.0
  0
LINE
  5
63
330
1F
100
AcDbEntity
  8
0
  6
Continuous
 62
     7
370
    15
100
AcDbLine
 10
318.6787994679
 20
452.9061836403
 30
0.0
 11
317.1097071942
 21
450.2897632521
 31
0.0
  0
LINE
  5
64
330
1F
100
AcDbEntity
  8
0
  6
Continuous
 62
     7
370
    15
100
AcDbLine
 10
319.6825416859
 20
448.7468374175
 30
0.0
 11
321.0910590466
 21
451.0955137414
 31
0.0
  0
LINE
  5
65
330
1F
100
AcDbEntity
  8
0
  6
Continuous
 62
     7
370
    15
100
AcDbLine
 10
319.7196455773
 20
473.1864703101
 30
0.0
 11
319.6297021683
 21
473.3002555769
 31
0.0
  0
SPLINE
  5
66
330
1F
100
AcDbEntity
  8
0
  6
Continuous
 62
     7
370
    15
100
AcDbSpline
210
0.0
220
0.0
230
1.0
 70
     8
 71
     3
 72
    20
 73
    16
 74
     0
 42
0.00000001
 43
0.00000001
 40
0.0
 40
0.0
 40
0.0
 40
0.0
 40
0.0337781724794067
 40
0.1101040786095846
 40
0.1739272181521333
 40
0.2252746219696243
 40
0.2665355673712558
 40
0.3037729880891175
 40
0.3388573414579894
 40
0.3726382971496215
 40
0.4139167214041614
 40
0.6259820213644617
 40
0.8390272601464757
 40
0.9659458121632797
 40
1.0
 40
1.0
 40
1.0
 40
1.0
 10
319.517377215259
 20
473.4423232477689
 30
0.0
 10
319.4767273835918
 20
473.4985069008554
 30
0.0
 10
319.344224292607
 20
473.6816443799411
 30
0.0
 10
319.0343458393857
 20
473.8588276899266
 30
0.0
 10
318.6470734413032
 20
473.9817674986626
 30
0.0
 10
318.2772163403789
 20
473.9965836546242
 30
0.0
 10
317.9429091909372
 20
473.9459567178782
 30
0.0
 10
317.6684190140288
 20
473.8449366881235
 30
0.0
 10
317.4409222378824
 20
473.7102103768947
 30
0.0
 10
317.2348864717252
 20
473.5340335800107
 30
0.0
 10
316.8903266129517
 20
473.0915542671825
 30
0.0
 10
316.7092462215024
 20
472.4048680163169
 30
0.0
 10
316.5595279524521
 20
471.224031689189
 30
0.0
 10
316.5043205923079
 20
470.3193903759587
 30
0.0
 10
316.4977873298784
 20
469.9048015543104
 30
0.0
 10
316.4964052017855
 20
469.8170942467236
 30
0.0
  0
SPLINE
  5
67
330
1F
100
AcDbEntity
  8
0
  6
Continuous
 62
     7
370
    15
100
AcDbSpline
210
0.0
220
0.0
230
1.0
 70
     8
 71
     3
 72
    19
 73
    15
 74
     0
 42
0.00000001
 43
0.00000001
 40
0.0
 40
0.0
 40
0.0
 40
0.0
 40
0.010273182750312
 40
0.1295972824065042
 40
0.326812583574117
 40
0.5525090148970804
 40
0.5858519013612401
 40
0.618600616094169
 40
0.6529075970962559
 40
0.696008133553966
 40
0.7523125381565031
 40
0.8223126523326949
 40
0.905459862121092
 40
1.0
 40
1.0
 40
1.0
 40
1.0
 10
316.4935441788362
 20
452.1987659138227
 30
0.0
 10
316.4938673420266
 20
452.1715685088417
 30
0.0
 10
316.4979440797111
 20
451.8284703804725
 30
0.0
 10
316.5377580196007
 20
451.0084752800952
 30
0.0
 10
316.6727331978801
 20
449.78604596115
 30
0.0
 10
316.7631376566152
 20
449.1426770297847
 30
0.0
 10
317.1140125426195
 20
448.6025886184136
 30
0.0
 10
317.2832240483423
 20
448.4147250208743
 30
0.0
 10
317.5199632249366
 20
448.2382643674184
 30
0.0
 10
317.8335917955035
 20
448.084798075357
 30
0.0
 10
318.2370615873746
 20
447.9829895081701
 30
0.0
 10
318.722921148973
 20
448.0061577672141
 30
0.0
 10
319.2526782871557
 20
448.2164809644966
 30
0.0
 10
319.5179091876989
 20
448.538298839552
 30
0.0
 10
319.6590276535677
 20
448.7095249098325
 30
0.0
  0
LINE
  5
68
330
1F
100
AcDbEntity
  8
0
  6
Continuous
 62
     7
370
    15
100
AcDbLine
 10
313.1862314519
 20
464.8987573784
 30
0.0
 11
313.1862314519
 21
456.2987608117
 31
0.0
  0
LINE
  5
69
330
1F
100
AcDbEntity
  8
0
  6
Continuous
 62
     7
370
    15
100
AcDbLine
 10
313.7910397824
 20
453.7987631959
 30
0.0
 11
313.7910397824
 21
452.9990178746
 31
0.0
  0
LINE
  5
6A
330
1F
100
AcDbEntity
  8
0
  6
Continuous
 62
     7
370
    15
100
AcDbLine
 10
313.7910397824
 20
468.9985138577
 30
0.0
 11
313.7910397824
 21
468.1987685364
 31
0.0
  0
LINE
  5
6B
330
1F
100
AcDbEntity
  8
0
  6
Continuous
 62
     7
370
    15
100
AcDbLine
 10
315.1910634812
 20
469.2987573546
 30
0.0
 11
315.1910634812
 21
468.9987671774
 31
0.0
  0
ARC
  5
6C
330
1F
100
AcDbEntity
  8
0
  6
Continuous
 62
     7
370
    15
100
AcDbCircle
 10
317.3910495576
 20
466.1916206248
 30
0.0
 40
3.807142857143219
100
AcDbArc
 50
77.9663271603
 51
90.0
  0
ARC
  5
6D
330
1F
100
AcDbEntity
  8
0
  6
Continuous
 62
     7
370
    15
100
AcDbCircle
 10
317.3910495576
 20
466.1916206248
 30
0.0
 40
3.807142857143322
100
AcDbArc
 50
90.0
 51
125.3002484399
  0
LINE
  5
6E
330
1F
100
AcDbEntity
  8
0
  6
Continuous
 62
     7
370
    15
100
AcDbLine
 10
315.2910502728
 20
452.5987577837
 30
0.0
 11
315.2910502728
 21
452.1987659138
 31
0.0
  0
ARC
  5
6F
330
1F
100
AcDbEntity
  8
0
  6
Continuous
 62
     7
370
    15
100
AcDbCircle
 10
315.4910495576
 20
452.998763482
 30
0.0
 40
0.4000000000007731
100
AcDbArc
 50
270.0
 51
0.0
  0
LINE
  5
70
330
1F
100
AcDbEntity
  8
0
  6
Continuous
 62
     7
370
    15
100
AcDbLine
 10
315.8910604294
 20
468.1987685364
 30
0.0
 11
315.8910604294
 21
467.7487683695
 31
0.0
  0
LINE
  5
71
330
1F
100
AcDbEntity
  8
0
  6
Continuous
 62
     7
370
    15
100
AcDbLine
 10
315.8910604294
 20
454.2487633627
 30
0.0
 11
315.8910604294
 21
453.7987631959
 31
0.0
  0
SPLINE
  5
72
330
1F
100
AcDbEntity
  8
0
  6
Continuous
 62
     7
370
    15
100
AcDbSpline
210
0.0
220
0.0
230
1.0
 70
     8
 71
     3
 72
    11
 73
     7
 74
     0
 42
0.00000001
 43
0.00000001
 40
0.0
 40
0.0
 40
0.0
 40
0.0
 40
0.2262216123131673
 40
0.4679437777915651
 40
0.725484838772645
 40
1.0
 40
1.0
 40
1.0
 40
1.0
 10
318.6115654286074
 20
99.22919396577117
 30
0.0
 10
318.6143862044364
 20
99.20629404737355
 30
0.0
 10
318.6202210337626
 20
99.1589251235269
 30
0.0
 10
318.6369875784803
 20
98.83414774777621
 30
0.0
 10
318.6505828006457
 20
98.33364882029788
 30
0.0
 10
318.6511292119524
 20
97.90982711892946
 30
0.0
 10
318.6514111336397
 20
97.691155711987
 30
0.0
  0
SPLINE
  5
73
330
1F
100
AcDbEntity
  8
0
  6
Continuous
 62
     7
370
    15
100
AcDbSpline
210
0.0
220
0.0
230
1.0
 70
     8
 71
     3
 72
    12
 73
     8
 74
     0
 42
0.00000001
 43
0.00000001
 40
0.0
 40
0.0
 40
0.0
 40
0.0
 40
0.2489469272997727
 40
0.4822949499668513
 40
0.6998133322848473
 40
0.9035365115921212
 40
1.0
 40
1.0
 40
1.0
 40
1.0
 10
318.6514111336397
 20
84.13252953706021
 30
0.0
 10
318.649985262137
 20
83.99519360796623
 30
0.0
 10
318.647222863611
 20
83.72912715850458
 30
0.0
 10
318.6363219919385
 20
83.39332663425905
 30
0.0
 10
318.6338114670559
 20
83.16013853675244
 30
0.0
 10
318.6386009970428
 20
83.04005823368169
 30
0.0
 10
318.6650312325115
 20
83.03869941454283
 30
0.0
 10
318.6735244568514
 20
83.03826276479003
 30
0.0
  0
LINE
  5
74
330
1F
100
AcDbEntity
  8
0
  6
Continuous
 62
     7
370
    15
100
AcDbLine
 10
318.6505766686
 20
97.741164009
 30
0.0
 11
318.6505766686
 21
84.0825212401
 31
0.0
  0
LINE
  5
75
330
1F
100
AcDbEntity
  8
0
  6
Continuous
 62
     7
370
    15
100
AcDbLine
 10
317.1269329365
 20
101.6790491742
 30
0.0
 11
318.6143072423
 21
99.1988999051
 31
0.0
  0
LINE
  5
76
330
1F
100
AcDbEntity
  8
0
  6
Continuous
 62
     7
370
    15
100
AcDbLine
 10
321.0910590466
 20
100.9020132226
 30
0.0
 11
319.6997674283
 21
103.2219750088
 31
0.0
  0
LINE
  5
77
330
1F
100
AcDbEntity
  8
0
  6
Continuous
 62
     7
370
    15
100
AcDbLine
 10
318.6787994679
 20
82.906178872
 30
0.0
 11
317.1097071942
 21
80.2897584837
 31
0.0
  0
LINE
  5
78
330
1F
100
AcDbEntity
  8
0
  6
Continuous
 62
     7
370
    15
100
AcDbLine
 10
319.6825416859
 20
78.7468326491
 30
0.0
 11
321.0910590466
 21
81.0955238741
 31
0.0
  0
LINE
  5
79
330
1F
100
AcDbEntity
  8
0
  6
Continuous
 62
     7
370
    15
100
AcDbLine
 10
319.7196455773
 20
103.1864655417
 30
0.0
 11
319.6297021683
 21
103.3002508086
 31
0.0
  0
SPLINE
  5
7A
330
1F
100
AcDbEntity
  8
0
  6
Continuous
 62
     7
370
    15
100
AcDbSpline
210
0.0
220
0.0
230
1.0
 70
     8
 71
     3
 72
    20
 73
    16
 74
     0
 42
0.00000001
 43
0.00000001
 40
0.0
 40
0.0
 40
0.0
 40
0.0
 40
0.0337782168700868
 40
0.1101042233064281
 40
0.1739274467242242
 40
0.2252749180215701
 40
0.2665356140989973
 40
0.3037737395101398
 40
0.3388581389862517
 40
0.3726391390722216
 40
0.4139176175741406
 40
0.6259831962269281
 40
0.8390271529319054
 40
0.965947687651438
 40
0.9999999999999999
 40
0.9999999999999999
 40
0.9999999999999999
 40
0.9999999999999999
 10
319.517377215259
 20
103.4423184793973
 30
0.0
 10
319.4767273778574
 20
103.4985021606506
 30
0.0
 10
319.3442242681804
 20
103.6816397315498
 30
0.0
 10
319.0343460741753
 20
103.8588217683011
 30
0.0
 10
318.6470727940022
 20
103.9817659097417
 30
0.0
 10
318.2772188073272
 20
103.9965702653985
 30
0.0
 10
317.9429041470595
 20
103.9459762752188
 30
0.0
 10
317.6684222389157
 20
103.8449270975342
 30
0.0
 10
317.4409217865353
 20
103.7102070118816
 30
0.0
 10
317.2348866168381
 20
103.5340283599904
 30
0.0
 10
316.8903263391541
 20
103.0915503564796
 30
0.0
 10
316.7092475811448
 20
102.4048630635467
 30
0.0
 10
316.5595263024524
 20
101.2240365171874
 30
0.0
 10
316.5043212494413
 20
100.3193947237411
 30
0.0
 10
316.4977873810291
 20
99.90480664183909
 30
0.0
 10
316.4964052017855
 20
99.81710437951324
 30
0.0
  0
SPLINE
  5
7B
330
1F
100
AcDbEntity
  8
0
  6
Continuous
 62
     7
370
    15
100
AcDbSpline
210
0.0
220
0.0
230
1.0
 70
     8
 71
     3
 72
    19
 73
    15
 74
     0
 42
0.00000001
 43
0.00000001
 40
0.0
 40
0.0
 40
0.0
 40
0.0
 40
0.010273187794064
 40
0.1295973460339668
 40
0.3268127440269833
 40
0.5525080925531369
 40
0.5858522930241575
 40
0.6185997343435606
 40
0.6529078497587533
 40
0.6960084073772292
 40
0.7523124165511391
 40
0.8223125650947927
 40
0.9054598157053882
 40
1.0
 40
1.0
 40
1.0
 40
1.0
 10
316.4935441788363
 20
82.19876114545104
 30
0.0
 10
316.4938673408895
 20
82.17156373854765
 30
0.0
 10
316.4979440642278
 20
81.82846558592504
 30
0.0
 10
316.5377593370865
 20
81.00847273905143
 30
0.0
 10
316.672724377612
 20
79.7860294745168
 30
0.0
 10
316.7631603617997
 20
79.14271246043502
 30
0.0
 10
317.1140045210997
 20
78.6025828072485
 30
0.0
 10
317.2832337386458
 20
78.41473764844852
 30
0.0
 10
317.5199566795556
 20
78.23825606432818
 30
0.0
 10
317.8335915888737
 20
78.08479209607543
 30
0.0
 10
318.237063407413
 20
77.98300551507695
 30
0.0
 10
318.7229208551544
 20
78.00616585841897
 30
0.0
 10
319.2526783783942
 20
78.21649173125242
 30
0.0
 10
319.5179092193845
 20
78.53830919250763
 30
0.0
 10
319.6590276535677
 20
78.70953504262206
 30
0.0
  0
LINE
  5
7C
330
1F
100
AcDbEntity
  8
0
  6
Continuous
 62
     7
370
    15
100
AcDbLine
 10
833.7910505112
 20
45.9987593096
 30
0.0
 11
833.7910505112
 21
80.9987706345
 31
0.0
  0
LINE
  5
7D
330
1F
100
AcDbEntity
  8
0
  6
Continuous
 62
     7
370
    15
100
AcDbLine
 10
833.7910505112
 20
470.9987563294
 30
0.0
 11
833.7910505112
 21
505.9987676543
 31
0.0
  0
LINE
  5
7E
330
1F
100
AcDbEntity
  8
0
  6
Continuous
 62
     7
370
    15
100
AcDbLine
 10
830.7910593327
 20
80.9987706345
 30
0.0
 11
830.7910593327
 21
81.9987577599
 31
0.0
  0
LINE
  5
7F
330
1F
100
AcDbEntity
  8
0
  6
Continuous
 62
     7
370
    15
100
AcDbLine
 10
830.7910593327
 20
116.9987690848
 30
0.0
 11
830.7910593327
 21
117.9987562102
 31
0.0
  0
LINE
  5
80
330
1F
100
AcDbEntity
  8
0
  6
Continuous
 62
     7
370
    15
100
AcDbLine
 10
825.7910641011
 20
117.9987562102
 30
0.0
 11
825.7910641011
 21
116.9987690848
 31
0.0
  0
LINE
  5
81
330
1F
100
AcDbEntity
  8
0
  6
Continuous
 62
     7
370
    15
100
AcDbLine
 10
825.7910641011
 20
81.9987577599
 30
0.0
 11
825.7910641011
 21
80.9987706345
 31
0.0
  0
LINE
  5
82
330
1F
100
AcDbEntity
  8
0
  6
Continuous
 62
     7
370
    15
100
AcDbLine
 10
825.7910641011
 20
470.9987563294
 30
0.0
 11
825.7910641011
 21
469.998769204
 31
0.0
  0
LINE
  5
83
330
1F
100
AcDbEntity
  8
0
  6
Continuous
 62
     7
370
    15
100
AcDbLine
 10
825.7910641011
 20
434.9987578791
 30
0.0
 11
825.7910641011
 21
433.9987707537
 31
0.0
  0
LINE
  5
84
330
1F
100
AcDbEntity
  8
0
  6
Continuous
 62
     7
370
    15
100
AcDbLine
 10
830.7910593327
 20
433.9987707537
 30
0.0
 11
830.7910593327
 21
434.9987578791
 31
0.0
  0
LINE
  5
85
330
1F
100
AcDbEntity
  8
0
  6
Continuous
 62
     7
370
    15
100
AcDbLine
 10
830.7910593327
 20
469.998769204
 30
0.0
 11
830.7910593327
 21
470.9987563294
 31
0.0
  0
LINE
  5
86
330
1F
100
AcDbEntity
  8
0
  6
Continuous
 62
     7
370
    15
100
AcDbLine
 10
313.9910431679
 20
84.541581313
 30
0.0
 11
313.9910431679
 21
84.2487585944
 31
0.0
  0
LINE
  5
87
330
1F
100
AcDbEntity
  8
0
  6
Continuous
 62
     7
370
    15
100
AcDbLine
 10
313.9910431679
 20
97.7487636012
 30
0.0
 11
313.9910431679
 21
97.4559557837
 31
0.0
  0
LINE
  5
88
330
1F
100
AcDbEntity
  8
0
  6
Continuous
 62
     7
370
    15
100
AcDbLine
 10
313.9910431679
 20
454.5415711802
 30
0.0
 11
313.9910431679
 21
454.2487633627
 31
0.0
  0
LINE
  5
89
330
1F
100
AcDbEntity
  8
0
  6
Continuous
 62
     7
370
    15
100
AcDbLine
 10
313.9910431679
 20
467.7487683695
 30
0.0
 11
313.9910431679
 21
467.4559456509
 31
0.0
  0
LINE
  5
8A
330
1F
100
AcDbEntity
  8
0
  6
Continuous
 62
     7
370
    15
100
AcDbLine
 10
322.2910495576
 20
510.9987628859
 30
0.0
 11
337.2910501536
 21
510.9987628859
 31
0.0
  0
ARC
  5
8B
330
1F
100
AcDbEntity
  8
0
  6
Continuous
 62
     7
370
    15
100
AcDbCircle
 10
337.2910495576
 20
510.998763482
 30
0.0
 40
15.0
100
AcDbArc
 50
90.0
 51
180.0
  0
LINE
  5
8C
330
1F
100
AcDbEntity
  8
0
  6
Continuous
 62
     7
370
    15
100
AcDbLine
 10
337.2910501536
 20
510.9987628859
 30
0.0
 11
337.2910501536
 21
525.998763482
 31
0.0
  0
LINE
  5
8D
330
1F
100
AcDbEntity
  8
0
  6
Continuous
 62
     7
370
    15
100
AcDbLine
 10
337.2910501536
 20
40.998764078
 30
0.0
 11
337.2910501536
 21
510.9987628859
 31
0.0
  0
LINE
  5
8E
330
1F
100
AcDbEntity
  8
0
  6
Continuous
 62
     7
370
    15
100
AcDbLine
 10
322.2910495576
 20
40.998764078
 30
0.0
 11
337.2910501536
 21
40.998764078
 31
0.0
  0
LINE
  5
8F
330
1F
100
AcDbEntity
  8
0
  6
Continuous
 62
     7
370
    15
100
AcDbLine
 10
322.2910495576
 20
81.0112727088
 30
0.0
 11
322.2910495576
 21
40.998764078
 31
0.0
  0
LINE
  5
90
330
1F
100
AcDbEntity
  8
0
  6
Continuous
 62
     7
370
    15
100
AcDbLine
 10
322.2910495576
 20
100.9862494868
 30
0.0
 11
322.2910495576
 21
451.0112774771
 31
0.0
  0
LINE
  5
91
330
1F
100
AcDbEntity
  8
0
  6
Continuous
 62
     7
370
    15
100
AcDbLine
 10
322.2910495576
 20
470.9862542552
 30
0.0
 11
322.2910495576
 21
510.9987628859
 31
0.0
  0
LINE
  5
92
330
1F
100
AcDbEntity
  8
0
  6
Continuous
 62
     7
370
    15
100
AcDbLine
 10
337.2910501536
 20
525.998763482
 30
0.0
 11
807.2910489615
 21
525.998763482
 31
0.0
  0
LINE
  5
93
330
1F
100
AcDbEntity
  8
0
  6
Continuous
 62
     7
370
    15
100
AcDbLine
 10
807.2910489615
 20
525.998763482
 30
0.0
 11
807.2910489615
 21
510.9987628859
 31
0.0
  0
LINE
  5
94
330
1F
100
AcDbEntity
  8
0
  6
Continuous
 62
     7
370
    15
100
AcDbLine
 10
337.2910501536
 20
510.9987628859
 30
0.0
 11
807.2910489615
 21
510.9987628859
 31
0.0
  0
LINE
  5
95
330
1F
100
AcDbEntity
  8
0
  6
Continuous
 62
     7
370
    15
100
AcDbLine
 10
807.2910489615
 20
40.998764078
 30
0.0
 11
807.2910489615
 21
510.9987628859
 31
0.0
  0
LINE
  5
96
330
1F
100
AcDbEntity
  8
0
  6
Continuous
 62
     7
370
    15
100
AcDbLine
 10
337.2910501536
 20
40.998764078
 30
0.0
 11
807.2910489615
 21
40.998764078
 31
0.0
  0
LINE
  5
97
330
1F
100
AcDbEntity
  8
0
  6
Continuous
 62
     7
370
    15
100
AcDbLine
 10
342.2910453852
 20
505.9987676543
 30
0.0
 11
802.2910537299
 21
505.9987676543
 31
0.0
  0
LINE
  5
98
330
1F
100
AcDbEntity
  8
0
  6
Continuous
 62
     7
370
    15
100
AcDbLine
 10
342.2910453852
 20
45.9987593096
 30
0.0
 11
342.2910453852
 21
505.9987676543
 31
0.0
  0
LINE
  5
99
330
1F
100
AcDbEntity
  8
0
  6
Continuous
 62
     7
370
    15
100
AcDbLine
 10
802.2910537299
 20
45.9987593096
 30
0.0
 11
342.2910453852
 21
45.9987593096
 31
0.0
  0
LINE
  5
9A
330
1F
100
AcDbEntity
  8
0
  6
Continuous
 62
     7
370
    15
100
AcDbLine
 10
802.2910537299
 20
45.9987593096
 30
0.0
 11
802.2910537299
 21
505.9987676543
 31
0.0
  0
LINE
  5
9B
330
1F
100
AcDbEntity
  8
0
  6
Continuous
 62
     7
370
    15
100
AcDbLine
 10
822.2910495576
 20
510.9987628859
 30
0.0
 11
807.2910489615
 21
510.9987628859
 31
0.0
  0
LINE
  5
9C
330
1F
100
AcDbEntity
  8
0
  6
Continuous
 62
     7
370
    15
100
AcDbLine
 10
822.2910495576
 20
40.998764078
 30
0.0
 11
822.2910495576
 21
510.9987628859
 31
0.0
  0
LINE
  5
9D
330
1F
100
AcDbEntity
  8
0
  6
Continuous
 62
     7
370
    15
100
AcDbLine
 10
807.2910489615
 20
40.998764078
 30
0.0
 11
822.2910495576
 21
40.998764078
 31
0.0
  0
ARC
  5
9E
330
1F
100
AcDbEntity
  8
0
  6
Continuous
 62
     7
370
    15
100
AcDbCircle
 10
807.2910495576
 20
510.998763482
 30
0.0
 40
15.00000000000006
100
AcDbArc
 50
0.0
 51
90.0
  0
LINE
  5
9F
330
1F
100
AcDbEntity
  8
0
  6
Continuous
 62
     7
370
    15
100
AcDbLine
 10
337.2910501536
 20
25.998763482
 30
0.0
 11
807.2910489615
 21
25.998763482
 31
0.0
  0
LINE
  5
A0
330
1F
100
AcDbEntity
  8
0
  6
Continuous
 62
     7
370
    15
100
AcDbLine
 10
337.2910501536
 20
25.998763482
 30
0.0
 11
337.2910501536
 21
40.998764078
 31
0.0
  0
LINE
  5
A1
330
1F
100
AcDbEntity
  8
0
  6
Continuous
 62
     7
370
    15
100
AcDbLine
 10
807.2910489615
 20
40.998764078
 30
0.0
 11
807.2910489615
 21
25.998763482
 31
0.0
  0
ARC
  5
A2
330
1F
100
AcDbEntity
  8
0
  6
Continuous
 62
     7
370
    15
100
AcDbCircle
 10
337.2910495576
 20
40.998763482
 30
0.0
 40
15.00000000000001
100
AcDbArc
 50
180.0
 51
270.0
  0
ARC
  5
A3
330
1F
100
AcDbEntity
  8
0
  6
Continuous
 62
     7
370
    15
100
AcDbCircle
 10
807.2910495576
 20
40.998763482
 30
0.0
 40
15.00000000000004
100
AcDbArc
 50
270.0
 51
0.0
  0
LINE
  5
A4
330
1F
100
AcDbEntity
  8
0
  6
Continuous
 62
     7
370
    15
100
AcDbLine
 10
321.0910590466
 20
472.033239643
 30
0.0
 11
322.2910495576
 21
472.033239643
 31
0.0
  0
LINE
  5
A5
330
1F
100
AcDbEntity
  8
0
  6
Continuous
 62
     7
370
    15
100
AcDbLine
 10
322.2910495576
 20
470.9862542552
 30
0.0
 11
322.2910495576
 21
451.0112774771
 31
0.0
  0
LINE
  5
A6
330
1F
100
AcDbEntity
  8
0
  6
Continuous
 62
     7
370
    15
100
AcDbLine
 10
321.0910590466
 20
449.9642771882
 30
0.0
 11
322.2910495576
 21
449.9642771882
 31
0.0
  0
LINE
  5
A7
330
1F
100
AcDbEntity
  8
0
  6
Continuous
 62
     7
370
    15
100
AcDbLine
 10
321.0910590466
 20
449.9642771882
 30
0.0
 11
321.0910590466
 21
472.033239643
 31
0.0
  0
LINE
  5
A8
330
1F
100
AcDbEntity
  8
0
  6
Continuous
 62
     7
370
    15
100
AcDbLine
 10
321.0910590466
 20
102.0332497757
 30
0.0
 11
322.2910495576
 21
102.0332497757
 31
0.0
  0
LINE
  5
A9
330
1F
100
AcDbEntity
  8
0
  6
Continuous
 62
     7
370
    15
100
AcDbLine
 10
321.0910590466
 20
79.964287321
 30
0.0
 11
322.2910495576
 21
79.964287321
 31
0.0
  0
LINE
  5
AA
330
1F
100
AcDbEntity
  8
0
  6
Continuous
 62
     7
370
    15
100
AcDbLine
 10
321.0910590466
 20
79.964287321
 30
0.0
 11
321.0910590466
 21
102.0332497757
 31
0.0
  0
LINE
  5
AB
330
1F
100
AcDbEntity
  8
0
  6
Continuous
 62
     7
370
    15
100
AcDbLine
 10
322.2910495576
 20
100.9862494868
 30
0.0
 11
322.2910495576
 21
81.0112727088
 31
0.0
  0
LINE
  5
AC
330
1F
100
AcDbEntity
  8
0
  6
Continuous
 62
     7
370
    15
100
AcDbLine
 10
320.9910424527
 20
465.9987610978
 30
0.0
 11
320.9910424527
 21
468.9987671774
 31
0.0
  0
LINE
  5
AD
330
1F
100
AcDbEntity
  8
0
  6
Continuous
 62
     7
370
    15
100
AcDbLine
 10
320.9910424527
 20
462.9987699193
 30
0.0
 11
320.9910424527
 21
465.9987610978
 31
0.0
  0
LINE
  5
AE
330
1F
100
AcDbEntity
  8
0
  6
Continuous
 62
     7
370
    15
100
AcDbLine
 10
320.9910424527
 20
452.9987645548
 30
0.0
 11
320.9910424527
 21
458.998761813
 31
0.0
  0
LINE
  5
AF
330
1F
100
AcDbEntity
  8
0
  6
Continuous
 62
     7
370
    15
100
AcDbLine
 10
320.9910424527
 20
82.9987597865
 30
0.0
 11
320.9910424527
 21
88.9987570447
 31
0.0
  0
LINE
  5
B0
330
1F
100
AcDbEntity
  8
0
  6
Continuous
 62
     7
370
    15
100
AcDbLine
 10
320.9910424527
 20
95.9987563294
 30
0.0
 11
320.9910424527
 21
98.9987624091
 31
0.0
  0
LINE
  5
B1
330
1F
100
AcDbEntity
  8
0
  6
Continuous
 62
     7
370
    15
100
AcDbLine
 10
320.9910424527
 20
92.9987651509
 30
0.0
 11
320.9910424527
 21
95.9987563294
 31
0.0
  0
LINE
  5
B2
330
1F
100
AcDbEntity
  8
0
  6
Continuous
 62
     7
370
    15
100
AcDbLine
 10
321.0910590466
 20
472.033239643
 30
0.0
 11
321.0910590466
 21
472.4987668198
 31
0.0
  0
LINE
  5
B3
330
1F
100
AcDbEntity
  8
0
  6
Continuous
 62
     7
370
    15
100
AcDbLine
 10
321.0910590466
 20
102.0332497757
 30
0.0
 11
321.0910590466
 21
102.4987620514
 31
0.0
  0
LINE
  5
B4
330
1F
100
AcDbEntity
  8
0
  6
Continuous
 62
     7
370
    15
100
AcDbLine
 10
321.0910590466
 20
449.4987649125
 30
0.0
 11
321.0910590466
 21
449.9642771882
 31
0.0
  0
LINE
  5
B5
330
1F
100
AcDbEntity
  8
0
  6
Continuous
 62
     7
370
    15
100
AcDbLine
 10
321.0910590466
 20
79.4987601441
 30
0.0
 11
321.0910590466
 21
79.964287321
 31
0.0
  0
LINE
  5
B6
330
1F
100
AcDbEntity
  8
0
  6
Continuous
 62
     7
370
    15
100
AcDbLine
 10
823.1924207982
 20
434.9987578791
 30
0.0
 11
833.7910505112
 21
434.9987578791
 31
0.0
  0
LINE
  5
B7
330
1F
100
AcDbEntity
  8
0
  6
Continuous
 62
     7
370
    15
100
AcDbLine
 10
823.1924207982
 20
469.998769204
 30
0.0
 11
823.1924207982
 21
434.9987578791
 31
0.0
  0
LINE
  5
B8
330
1F
100
AcDbEntity
  8
0
  6
Continuous
 62
     7
370
    15
100
AcDbLine
 10
823.1924207982
 20
469.998769204
 30
0.0
 11
833.7910505112
 21
469.998769204
 31
0.0
  0
LINE
  5
B9
330
1F
100
AcDbEntity
  8
0
  6
Continuous
 62
     7
370
    15
100
AcDbLine
 10
823.1924207982
 20
81.9987577599
 30
0.0
 11
833.7910505112
 21
81.9987577599
 31
0.0
  0
LINE
  5
BA
330
1F
100
AcDbEntity
  8
0
  6
Continuous
 62
     7
370
    15
100
AcDbLine
 10
823.1924207982
 20
116.9987690848
 30
0.0
 11
823.1924207982
 21
81.9987577599
 31
0.0
  0
LINE
  5
BB
330
1F
100
AcDbEntity
  8
0
  6
Continuous
 62
     7
370
    15
100
AcDbLine
 10
823.1924207982
 20
116.9987690848
 30
0.0
 11
833.7910505112
 21
116.9987690848
 31
0.0
  0
LINE
  5
BC
330
1F
100
AcDbEntity
  8
0
  6
Continuous
 62
     7
370
    15
100
AcDbLine
 10
822.7289052781
 20
469.998769204
 30
0.0
 11
822.7289052781
 21
434.9987578791
 31
0.0
  0
LINE
  5
BD
330
1F
100
AcDbEntity
  8
0
  6
Continuous
 62
     7
370
    15
100
AcDbLine
 10
822.7289052781
 20
434.9987578791
 30
0.0
 11
823.1924207982
 21
434.9987578791
 31
0.0
  0
LINE
  5
BE
330
1F
100
AcDbEntity
  8
0
  6
Continuous
 62
     7
370
    15
100
AcDbLine
 10
822.7289052781
 20
469.998769204
 30
0.0
 11
823.1924207982
 21
469.998769204
 31
0.0
  0
LINE
  5
BF
330
1F
100
AcDbEntity
  8
0
  6
Continuous
 62
     7
370
    15
100
AcDbLine
 10
822.7289052781
 20
116.9987690848
 30
0.0
 11
822.7289052781
 21
81.9987577599
 31
0.0
  0
LINE
  5
C0
330
1F
100
AcDbEntity
  8
0
  6
Continuous
 62
     7
370
    15
100
AcDbLine
 10
822.7289052781
 20
81.9987577599
 30
0.0
 11
823.1924207982
 21
81.9987577599
 31
0.0
  0
LINE
  5
C1
330
1F
100
AcDbEntity
  8
0
  6
Continuous
 62
     7
370
    15
100
AcDbLine
 10
822.7289052781
 20
116.9987690848
 30
0.0
 11
823.1924207982
 21
116.9987690848
 31
0.0
  0
LINE
  5
C2
330
1F
100
AcDbEntity
  8
0
  6
Continuous
 62
     7
370
    15
100
AcDbLine
 10
822.2910495576
 20
434.9987578791
 30
0.0
 11
822.7289052781
 21
434.9987578791
 31
0.0
  0
LINE
  5
C3
330
1F
100
AcDbEntity
  8
0
  6
Continuous
 62
     7
370
    15
100
AcDbLine
 10
822.2910495576
 20
469.998769204
 30
0.0
 11
822.7289052781
 21
469.998769204
 31
0.0
  0
LINE
  5
C4
330
1F
100
AcDbEntity
  8
0
  6
Continuous
 62
     7
370
    15
100
AcDbLine
 10
822.2910495576
 20
81.9987577599
 30
0.0
 11
822.7289052781
 21
81.9987577599
 31
0.0
  0
LINE
  5
C5
330
1F
100
AcDbEntity
  8
0
  6
Continuous
 62
     7
370
    15
100
AcDbLine
 10
822.2910495576
 20
116.9987690848
 30
0.0
 11
822.7289052781
 21
116.9987690848
 31
0.0
  0
ARC
  5
C6
330
1F
100
AcDbEntity
  8
0
  6
Continuous
 62
     7
370
    15
100
AcDbCircle
 10
315.1137088934
 20
466.4099425935
 30
0.0
 40
1.097792225978379
100
AcDbArc
 50
97.3327518516
 51
185.8124647246
  0
LINE
  5
C7
330
1F
100
AcDbEntity
  8
0
  6
Continuous
 62
     7
370
    15
100
AcDbLine
 10
314.9735959347
 20
467.498756687
 30
0.0
 11
318.517032462
 21
467.498756687
 31
0.0
  0
LINE
  5
C8
330
1F
100
AcDbEntity
  8
0
  6
Continuous
 62
     7
370
    15
100
AcDbLine
 10
318.517032462
 20
467.498756687
 30
0.0
 11
318.517032462
 21
454.4987601441
 31
0.0
  0
LINE
  5
C9
330
1F
100
AcDbEntity
  8
0
  6
Continuous
 62
     7
370
    15
100
AcDbLine
 10
318.517032462
 20
454.4987601441
 30
0.0
 11
314.9735959347
 21
454.4987601441
 31
0.0
  0
ARC
  5
CA
330
1F
100
AcDbEntity
  8
0
  6
Continuous
 62
     7
370
    15
100
AcDbCircle
 10
315.1137262958
 20
455.5875894246
 30
0.0
 40
1.097809509998417
100
AcDbArc
 50
174.1876420989
 51
262.6664484898
  0
LINE
  5
CB
330
1F
100
AcDbEntity
  8
0
  6
Continuous
 62
     7
370
    15
100
AcDbLine
 10
314.0215607461
 20
466.2987661761
 30
0.0
 11
314.0215607461
 21
455.6987655562
 31
0.0
  0
LINE
  5
CC
330
1F
100
AcDbEntity
  8
0
  6
Continuous
 62
     7
370
    15
100
AcDbLine
 10
314.2430814084
 20
467.498756687
 30
0.0
 11
314.9735959347
 21
467.498756687
 31
0.0
  0
LINE
  5
CD
330
1F
100
AcDbEntity
  8
0
  6
Continuous
 62
     7
370
    15
100
AcDbLine
 10
314.0215607461
 20
466.2987661761
 30
0.0
 11
313.2910462197
 21
466.2987661761
 31
0.0
  0
ARC
  5
CE
330
1F
100
AcDbEntity
  8
0
  6
Continuous
 62
     7
370
    15
100
AcDbCircle
 10
314.383194367
 20
466.4099425935
 30
0.0
 40
1.097792225978379
100
AcDbArc
 50
97.3327518516
 51
185.8124647246
  0
LINE
  5
CF
330
1F
100
AcDbEntity
  8
0
  6
Continuous
 62
     7
370
    15
100
AcDbLine
 10
314.9735959347
 20
454.4987601441
 30
0.0
 11
314.2430814084
 21
454.4987601441
 31
0.0
  0
ARC
  5
D0
330
1F
100
AcDbEntity
  8
0
  6
Continuous
 62
     7
370
    15
100
AcDbCircle
 10
314.3832117694
 20
455.5875894246
 30
0.0
 40
1.097809509998417
100
AcDbArc
 50
174.1876420989
 51
262.6664484898
  0
LINE
  5
D1
330
1F
100
AcDbEntity
  8
0
  6
Continuous
 62
     7
370
    15
100
AcDbLine
 10
313.2910462197
 20
455.6987655562
 30
0.0
 11
314.0215607461
 21
455.6987655562
 31
0.0
  0
LINE
  5
D2
330
1F
100
AcDbEntity
  8
0
  6
Continuous
 62
     7
370
    15
100
AcDbLine
 10
313.2910462197
 20
466.2987661761
 30
0.0
 11
313.2910462197
 21
455.6987655562
 31
0.0
  0
LINE
  5
D3
330
1F
100
AcDbEntity
  8
0
  6
Continuous
 62
     7
370
    15
100
AcDbLine
 10
314.0215607461
 20
96.2987614077
 30
0.0
 11
313.2910462197
 21
96.2987614077
 31
0.0
  0
LINE
  5
D4
330
1F
100
AcDbEntity
  8
0
  6
Continuous
 62
     7
370
    15
100
AcDbLine
 10
314.0215607461
 20
96.2987614077
 30
0.0
 11
314.0215607461
 21
85.6987607878
 31
0.0
  0
LINE
  5
D5
330
1F
100
AcDbEntity
  8
0
  6
Continuous
 62
     7
370
    15
100
AcDbLine
 10
313.2910462197
 20
85.6987607878
 30
0.0
 11
314.0215607461
 21
85.6987607878
 31
0.0
  0
LINE
  5
D6
330
1F
100
AcDbEntity
  8
0
  6
Continuous
 62
     7
370
    15
100
AcDbLine
 10
313.2910462197
 20
96.2987614077
 30
0.0
 11
313.2910462197
 21
85.6987607878
 31
0.0
  0
LINE
  5
D7
330
1F
100
AcDbEntity
  8
0
  6
Continuous
 62
     7
370
    15
100
AcDbLine
 10
314.2430814084
 20
97.4987668198
 30
0.0
 11
314.9735959347
 21
97.4987668198
 31
0.0
  0
ARC
  5
D8
330
1F
100
AcDbEntity
  8
0
  6
Continuous
 62
     7
370
    15
100
AcDbCircle
 10
315.1137262958
 20
96.4099375393
 30
0.0
 40
1.097809509998412
100
AcDbArc
 50
97.3335515103
 51
185.8123579011
  0
ARC
  5
D9
330
1F
100
AcDbEntity
  8
0
  6
Continuous
 62
     7
370
    15
100
AcDbCircle
 10
314.3832117694
 20
96.4099375393
 30
0.0
 40
1.097809509998412
100
AcDbArc
 50
97.3335515103
 51
185.8123579011
  0
LINE
  5
DA
330
1F
100
AcDbEntity
  8
0
  6
Continuous
 62
     7
370
    15
100
AcDbLine
 10
314.9735959347
 20
97.4987668198
 30
0.0
 11
318.517032462
 21
97.4987668198
 31
0.0
  0
LINE
  5
DB
330
1F
100
AcDbEntity
  8
0
  6
Continuous
 62
     7
370
    15
100
AcDbLine
 10
318.517032462
 20
97.4987668198
 30
0.0
 11
318.517032462
 21
84.4987702769
 31
0.0
  0
LINE
  5
DC
330
1F
100
AcDbEntity
  8
0
  6
Continuous
 62
     7
370
    15
100
AcDbLine
 10
318.517032462
 20
84.4987702769
 30
0.0
 11
314.9735959347
 21
84.4987702769
 31
0.0
  0
ARC
  5
DD
330
1F
100
AcDbEntity
  8
0
  6
Continuous
 62
     7
370
    15
100
AcDbCircle
 10
315.1137088934
 20
85.5875843704
 30
0.0
 40
1.097792225978378
100
AcDbArc
 50
174.1875352754
 51
262.6672481484
  0
LINE
  5
DE
330
1F
100
AcDbEntity
  8
0
  6
Continuous
 62
     7
370
    15
100
AcDbLine
 10
314.9735959347
 20
84.4987702769
 30
0.0
 11
314.2430814084
 21
84.4987702769
 31
0.0
  0
ARC
  5
DF
330
1F
100
AcDbEntity
  8
0
  6
Continuous
 62
     7
370
    15
100
AcDbCircle
 10
314.383194367
 20
85.5875843704
 30
0.0
 40
1.097792225978379
100
AcDbArc
 50
174.1875352754
 51
262.6672481484
  0
LINE
  5
E0
330
1F
100
AcDbEntity
  8
0
  6
Continuous
 62
     7
370
    15
100
AcDbLine
 10
318.6169894513
 20
467.498756687
 30
0.0
 11
318.517032462
 21
467.498756687
 31
0.0
  0
LINE
  5
E1
330
1F
100
AcDbEntity
  8
0
  6
Continuous
 62
     7
370
    15
100
AcDbLine
 10
318.517032462
 20
454.4987601441
 30
0.0
 11
318.6505766686
 21
454.4987601441
 31
0.0
  0
LINE
  5
E2
330
1F
100
AcDbEntity
  8
0
  6
Continuous
 62
     7
370
    15
100
AcDbLine
 10
318.598571616
 20
97.4987668198
 30
0.0
 11
318.517032462
 21
97.4987668198
 31
0.0
  0
LINE
  5
E3
330
1F
100
AcDbEntity
  8
0
  6
Continuous
 62
     7
370
    15
100
AcDbLine
 10
318.517032462
 20
84.4987702769
 30
0.0
 11
318.6505766686
 21
84.4987702769
 31
0.0
  0
LINE
  5
E4
330
1F
100
AcDbEntity
  8
0
  6
Continuous
 62
     7
370
    15
100
AcDbLine
 10
313.2910462197
 20
86.2987560433
 30
0.0
 11
313.1862314519
 21
86.2987560433
 31
0.0
  0
LINE
  5
E5
330
1F
100
AcDbEntity
  8
0
  6
Continuous
 62
     7
370
    15
100
AcDbLine
 10
313.2910462197
 20
94.8987675112
 30
0.0
 11
313.1862314519
 21
94.8987675112
 31
0.0
  0
LINE
  5
E6
330
1F
100
AcDbEntity
  8
0
  6
Continuous
 62
     7
370
    15
100
AcDbLine
 10
318.6652096089
 20
82.9987597865
 30
0.0
 11
313.7916656312
 21
82.9987597865
 31
0.0
  0
LINE
  5
E7
330
1F
100
AcDbEntity
  8
0
  6
Continuous
 62
     7
370
    15
100
AcDbLine
 10
318.6569245633
 20
83.7987584275
 30
0.0
 11
313.7910397824
 21
83.7987584275
 31
0.0
  0
LINE
  5
E8
330
1F
100
AcDbEntity
  8
0
  6
Continuous
 62
     7
370
    15
100
AcDbLine
 10
318.6195226487
 20
98.9987624091
 30
0.0
 11
313.7916656312
 21
98.9987624091
 31
0.0
  0
LINE
  5
E9
330
1F
100
AcDbEntity
  8
0
  6
Continuous
 62
     7
370
    15
100
AcDbLine
 10
318.6591895398
 20
98.1987637681
 30
0.0
 11
313.7910397824
 21
98.1987637681
 31
0.0
  0
LINE
  5
EA
330
1F
100
AcDbEntity
  8
0
  6
Continuous
 62
     7
370
    15
100
AcDbLine
 10
317.3910411175
 20
99.2987674874
 30
0.0
 11
318.5544045743
 21
99.2987674874
 31
0.0
  0
LINE
  5
EB
330
1F
100
AcDbEntity
  8
0
  6
Continuous
 62
     7
370
    15
100
AcDbLine
 10
318.7175722893
 20
99.2987674874
 30
0.0
 11
318.7798889455
 21
99.2987674874
 31
0.0
  0
LINE
  5
EC
330
1F
100
AcDbEntity
  8
0
  6
Continuous
 62
     7
370
    15
100
AcDbLine
 10
315.1910634812
 20
99.2987674874
 30
0.0
 11
317.3910411175
 21
99.2987674874
 31
0.0
  0
LINE
  5
ED
330
1F
100
AcDbEntity
  8
0
  6
Continuous
 62
     7
370
    15
100
AcDbLine
 10
317.3910411175
 20
82.5987679165
 30
0.0
 11
318.4944423016
 21
82.5987679165
 31
0.0
  0
LINE
  5
EE
330
1F
100
AcDbEntity
  8
0
  6
Continuous
 62
     7
370
    15
100
AcDbLine
 10
315.2910502728
 20
82.5987679165
 30
0.0
 11
317.3910411175
 21
82.5987679165
 31
0.0
  0
LINE
  5
EF
330
1F
100
AcDbEntity
  8
0
  6
Continuous
 62
     7
370
    15
100
AcDbLine
 10
317.3910411175
 20
82.1987611455
 30
0.0
 11
318.2545634087
 21
82.1987611455
 31
0.0
  0
LINE
  5
F0
330
1F
100
AcDbEntity
  8
0
  6
Continuous
 62
     7
370
    15
100
AcDbLine
 10
315.2910502728
 20
82.1987611455
 30
0.0
 11
317.3910411175
 21
82.1987611455
 31
0.0
  0
ARC
  5
F1
330
1F
100
AcDbEntity
  8
0
  6
Continuous
 62
     7
370
    15
100
AcDbCircle
 10
314.2569952483
 20
83.7965997867
 30
0.0
 40
0.8029034246593696
100
AcDbArc
 50
179.8459576192
 51
234.5256721179
  0
ARC
  5
F2
330
1F
100
AcDbEntity
  8
0
  6
Continuous
 62
     7
370
    15
100
AcDbCircle
 10
314.2570070919
 20
98.2009311779
 30
0.0
 40
0.8029152918097077
100
AcDbArc
 50
125.4747622064
 51
180.154665862
  0
LINE
  5
F3
330
1F
100
AcDbEntity
  8
0
  6
Continuous
 62
     7
370
    15
100
AcDbLine
 10
314.2419489201
 20
84.2487585944
 30
0.0
 11
314.2419489201
 21
83.7987584275
 31
0.0
  0
LINE
  5
F4
330
1F
100
AcDbEntity
  8
0
  6
Continuous
 62
     7
370
    15
100
AcDbLine
 10
314.2419489201
 20
98.1987637681
 30
0.0
 11
314.2419489201
 21
97.7487636012
 31
0.0
  0
LINE
  5
F5
330
1F
100
AcDbEntity
  8
0
  6
Continuous
 62
     7
370
    15
100
AcDbLine
 10
313.4540947255
 20
83.7987584275
 30
0.0
 11
313.4540947255
 21
85.0272101563
 31
0.0
  0
LINE
  5
F6
330
1F
100
AcDbEntity
  8
0
  6
Continuous
 62
     7
370
    15
100
AcDbLine
 10
313.4540947255
 20
96.9703269404
 30
0.0
 11
313.4540947255
 21
98.1987637681
 31
0.0
  0
SPLINE
  5
F7
330
1F
100
AcDbEntity
  8
0
  6
Continuous
 62
     7
370
    15
100
AcDbSpline
210
0.0
220
0.0
230
1.0
 70
    24
 71
     3
 72
    12
 73
     8
 74
     0
 42
0.00000001
 43
0.00000001
 40
0.0
 40
0.0
 40
0.0
 40
0.0
 40
0.2185040659699323
 40
0.4370095603324679
 40
0.6555189772202858
 40
0.8740247140736526
 40
1.0
 40
1.0
 40
1.0
 40
1.0
 10
320.4503985222506
 20
467.6911604803586
 30
0.0
 10
320.2536781311104
 20
467.6911604803586
 30
0.0
 10
319.8602360628404
 20
467.6911604803585
 30
0.0
 10
319.2994881846068
 20
467.6911604803586
 30
0.0
 10
318.8817975950017
 20
467.6911604803585
 30
0.0
 10
318.6552276111379
 20
467.6911604803586
 30
0.0
 10
318.6727712587131
 20
467.6911604803586
 30
0.0
 10
318.6791868981051
 20
467.6911604803586
 30
0.0
  0
SPLINE
  5
F8
330
1F
100
AcDbEntity
  8
0
  6
Continuous
 62
     7
370
    15
100
AcDbSpline
210
0.0
220
0.0
230
1.0
 70
    24
 71
     3
 72
     9
 73
     5
 74
     0
 42
0.00000001
 43
0.00000001
 40
0.0
 40
0.0
 40
0.0
 40
0.0
 40
0.1970282982560592
 40
0.9999999999999999
 40
0.9999999999999999
 40
0.9999999999999999
 40
0.9999999999999999
 10
321.0910590466189
 20
467.6911604803586
 30
0.0
 10
321.0584017735573
 20
467.6911604803586
 30
0.0
 10
320.8926526230518
 20
467.6911604803585
 30
0.0
 10
320.6473608636894
 20
467.6911604803586
 30
0.0
 10
320.4503985222505
 20
467.6911604803586
 30
0.0
  0
SPLINE
  5
F9
330
1F
100
AcDbEntity
  8
0
  6
Continuous
 62
     7
370
    15
100
AcDbSpline
210
0.0
220
0.0
230
1.0
 70
     8
 71
     3
 72
    13
 73
     9
 74
     0
 42
0.00000001
 43
0.00000001
 40
0.0
 40
0.0
 40
0.0
 40
0.0
 40
0.187740000413576
 40
0.3754750840911282
 40
0.5632141125828769
 40
0.7509489806106309
 40
0.9386872804467359
 40
1.0
 40
1.0
 40
1.0
 40
1.0
 10
320.1571138676333
 20
471.3060033720517
 30
0.0
 10
319.9604167655454
 20
471.3033017066023
 30
0.0
 10
319.567027712684
 20
471.2978984464577
 30
0.0
 10
319.0340148149313
 20
471.0073561650173
 30
0.0
 10
318.6434927218677
 20
470.5524603069293
 30
0.0
 10
318.4705439302135
 20
469.9907802659431
 30
0.0
 10
318.4738282496042
 20
469.5175938418986
 30
0.0
 10
318.6011435046346
 20
469.2961559700943
 30
0.0
 10
318.6324866589235
 20
469.2416412037396
 30
0.0
  0
SPLINE
  5
FA
330
1F
100
AcDbEntity
  8
0
  6
Continuous
 62
     7
370
    15
100
AcDbSpline
210
0.0
220
0.0
230
1.0
 70
     8
 71
     3
 72
    10
 73
     6
 74
     0
 42
0.00000001
 43
0.00000001
 40
0.0
 40
0.0
 40
0.0
 40
0.0
 40
0.2093330610731358
 40
0.6046772709239069
 40
0.9999999999999999
 40
0.9999999999999999
 40
0.9999999999999999
 40
0.9999999999999999
 10
321.2942810829805
 20
470.4998803537869
 30
0.0
 10
321.2525843901418
 20
470.5929441400506
 30
0.0
 10
321.1321397632729
 20
470.861767210861
 30
0.0
 10
320.7254082486619
 20
471.1783993718603
 30
0.0
 10
320.3465418969728
 20
471.2634694757139
 30
0.0
 10
320.1571138676333
 20
471.3060033720517
 30
0.0
  0
SPLINE
  5
FB
330
1F
100
AcDbEntity
  8
0
  6
Continuous
 62
     7
370
    15
100
AcDbSpline
210
0.0
220
0.0
230
1.0
 70
     8
 71
     3
 72
    13
 73
     9
 74
     0
 42
0.00000001
 43
0.00000001
 40
0.0
 40
0.0
 40
0.0
 40
0.0
 40
0.1768655441741053
 40
0.3537268808725106
 40
0.5305919338987228
 40
0.7074573141850448
 40
0.8843216807598565
 40
1.0
 40
1.0
 40
1.0
 40
1.0
 10
320.1398881252932
 20
450.6628138226056
 30
0.0
 10
319.9432153729124
 20
450.6654998063258
 30
0.0
 10
319.5498745468227
 20
450.6708717098689
 30
0.0
 10
319.0164956275774
 20
450.9615606104851
 30
0.0
 10
318.6273646599661
 20
451.4159200579332
 30
0.0
 10
318.4492065221266
 20
451.9796192378259
 30
0.0
 10
318.4701725056229
 20
452.5127695238789
 30
0.0
 10
318.6362536463676
 20
452.7860408372817
 30
0.0
 10
318.7019260700869
 20
452.8940987986111
 30
0.0
  0
SPLINE
  5
FC
330
1F
100
AcDbEntity
  8
0
  6
Continuous
 62
     7
370
    15
100
AcDbSpline
210
0.0
220
0.0
230
1.0
 70
     8
 71
     3
 72
    10
 73
     6
 74
     0
 42
0.00000001
 43
0.00000001
 40
0.0
 40
0.0
 40
0.0
 40
0.0
 40
0.0588225777550384
 40
0.5294258028009099
 40
1.0
 40
1.0
 40
1.0
 40
1.0
 10
321.1700053986239
 20
451.2627196711087
 30
0.0
 10
321.1593709033909
 20
451.241238679917
 30
0.0
 10
321.0636563599122
 20
451.0479015049646
 30
0.0
 10
320.7027613139281
 20
450.7937433542675
 30
0.0
 10
320.3275086636504
 20
450.7064561024534
 30
0.0
 10
320.1398881252932
 20
450.6628138226056
 30
0.0
  0
SPLINE
  5
FD
330
1F
100
AcDbEntity
  8
0
  6
Continuous
 62
     7
370
    15
100
AcDbSpline
210
0.0
220
0.0
230
1.0
 70
    24
 71
     3
 72
    12
 73
     8
 74
     0
 42
0.00000001
 43
0.00000001
 40
0.0
 40
0.0
 40
0.0
 40
0.0
 40
0.2193534179877733
 40
0.4387082699204865
 40
0.6580670596258174
 40
0.8774221549919532
 40
1.0
 40
1.0
 40
1.0
 40
1.0
 10
320.4503985222506
 20
454.1325343054318
 30
0.0
 10
320.2536828171455
 20
454.1325343054318
 30
0.0
 10
319.8602501209767
 20
454.1325343054318
 30
0.0
 10
319.2994319512118
 20
454.1325343054319
 30
0.0
 10
318.8820084729144
 20
454.1325343054318
 30
0.0
 10
318.6561454148451
 20
454.1325343054318
 30
0.0
 10
318.6731504514592
 20
454.1325343054319
 30
0.0
 10
318.6792465027498
 20
454.1325343054319
 30
0.0
  0
SPLINE
  5
FE
330
1F
100
AcDbEntity
  8
0
  6
Continuous
 62
     7
370
    15
100
AcDbSpline
210
0.0
220
0.0
230
1.0
 70
    24
 71
     3
 72
     9
 73
     5
 74
     0
 42
0.00000001
 43
0.00000001
 40
0.0
 40
0.0
 40
0.0
 40
0.0
 40
0.1970282982560592
 40
0.9999999999999999
 40
0.9999999999999999
 40
0.9999999999999999
 40
0.9999999999999999
 10
321.0910590466189
 20
454.1325343054318
 30
0.0
 10
321.0584017735573
 20
454.1325343054318
 30
0.0
 10
320.8926526230518
 20
454.1325343054318
 30
0.0
 10
320.6473608636894
 20
454.1325343054319
 30
0.0
 10
320.4503985222505
 20
454.1325343054319
 30
0.0
  0
SPLINE
  5
FF
330
1F
100
AcDbEntity
  8
0
  6
Continuous
 62
     7
370
    15
100
AcDbSpline
210
0.0
220
0.0
230
1.0
 70
     8
 71
     3
 72
    13
 73
     9
 74
     0
 42
0.00000001
 43
0.00000001
 40
0.0
 40
0.0
 40
0.0
 40
0.0
 40
0.1768566554889662
 40
0.3537260201165023
 40
0.5305853015913031
 40
0.7074492452872759
 40
0.8843136569183215
 40
1.0
 40
1.0
 40
1.0
 40
1.0
 10
318.5880215939211
 20
473.9224088591122
 30
0.0
 10
318.391360697292
 20
473.9197191252375
 30
0.0
 10
317.9980247717382
 20
473.9143394642005
 30
0.0
 10
317.4646293978554
 20
473.6236823263368
 30
0.0
 10
317.0755439525377
 20
473.1692879513872
 30
0.0
 10
316.8973286070972
 20
472.605623010129
 30
0.0
 10
316.918302131305
 20
472.0724552068436
 30
0.0
 10
317.0844054166416
 20
471.7991856604021
 30
0.0
 10
317.1500893410372
 20
471.6911238831067
 30
0.0
  0
SPLINE
  5
100
330
1F
100
AcDbEntity
  8
0
  6
Continuous
 62
     7
370
    15
100
AcDbSpline
210
0.0
220
0.0
230
1.0
 70
     8
 71
     3
 72
    10
 73
     6
 74
     0
 42
0.00000001
 43
0.00000001
 40
0.0
 40
0.0
 40
0.0
 40
0.0
 40
0.1474526147854356
 40
0.5737209661418518
 40
1.0
 40
1.0
 40
1.0
 40
1.0
 10
319.6766110237764
 20
473.2098949354672
 30
0.0
 10
319.6485540230693
 20
473.2701868445308
 30
0.0
 10
319.5393874981071
 20
473.5047756469664
 30
0.0
 10
319.1543250695405
 20
473.7935957043979
 30
0.0
 10
318.7767909959737
 20
473.8794707821997
 30
0.0
 10
318.588021593921
 20
473.9224088591123
 30
0.0
  0
SPLINE
  5
101
330
1F
100
AcDbEntity
  8
0
  6
Continuous
 62
     7
370
    15
100
AcDbSpline
210
0.0
220
0.0
230
1.0
 70
     8
 71
     3
 72
    13
 73
     9
 74
     0
 42
0.00000001
 43
0.00000001
 40
0.0
 40
0.0
 40
0.0
 40
0.0
 40
0.1768639155161733
 40
0.3537316063935162
 40
0.5305892142135427
 40
0.7074551555097355
 40
0.8843186734337619
 40
1.0
 40
1.0
 40
1.0
 40
1.0
 10
318.5708256539034
 20
448.0463934343838
 30
0.0
 10
318.3741545207201
 20
448.049081732504
 30
0.0
 10
317.980808056185
 20
448.0544583861289
 30
0.0
 10
317.4474039492559
 20
448.3451201356863
 30
0.0
 10
317.0583142973644
 20
448.799516361399
 30
0.0
 10
316.8801054550732
 20
449.3631926214055
 30
0.0
 10
316.9010723158801
 20
449.8963578513086
 30
0.0
 10
317.0671796103007
 20
450.1696214771279
 30
0.0
 10
317.1328635986971
 20
450.2776784103894
 30
0.0
  0
SPLINE
  5
102
330
1F
100
AcDbEntity
  8
0
  6
Continuous
 62
     7
370
    15
100
AcDbSpline
210
0.0
220
0.0
230
1.0
 70
     8
 71
     3
 72
    10
 73
     6
 74
     0
 42
0.00000001
 43
0.00000001
 40
0.0
 40
0.0
 40
0.0
 40
0.0
 40
0.1474657734209292
 40
0.5737368301587874
 40
0.9999999999999999
 40
0.9999999999999999
 40
0.9999999999999999
 40
0.9999999999999999
 10
319.6593852814364
 20
448.7589222591901
 30
0.0
 10
319.6313290080334
 20
448.6986251379834
 30
0.0
 10
319.5221720355725
 20
448.4640305036742
 30
0.0
 10
319.1371033269955
 20
448.1752128786247
 30
0.0
 10
318.7595837141077
 20
448.0893329843024
 30
0.0
 10
318.5708256539034
 20
448.0463934343838
 30
0.0
  0
LINE
  5
103
330
1F
100
AcDbEntity
  8
0
  6
Continuous
 62
     7
370
    15
100
AcDbLine
 10
313.2910462197
 20
464.8987573784
 30
0.0
 11
313.1862314519
 21
464.8987573784
 31
0.0
  0
LINE
  5
104
330
1F
100
AcDbEntity
  8
0
  6
Continuous
 62
     7
370
    15
100
AcDbLine
 10
313.2910462197
 20
456.2987608117
 30
0.0
 11
313.1862314519
 21
456.2987608117
 31
0.0
  0
LINE
  5
105
330
1F
100
AcDbEntity
  8
0
  6
Continuous
 62
     7
370
    15
100
AcDbLine
 10
318.6169894513
 20
453.7987631959
 30
0.0
 11
313.7910397824
 21
453.7987631959
 31
0.0
  0
LINE
  5
106
330
1F
100
AcDbEntity
  8
0
  6
Continuous
 62
     7
370
    15
100
AcDbLine
 10
318.6728986081
 20
452.9987645548
 30
0.0
 11
313.7916656312
 21
452.9987645548
 31
0.0
  0
LINE
  5
107
330
1F
100
AcDbEntity
  8
0
  6
Continuous
 62
     7
370
    15
100
AcDbLine
 10
318.7211187657
 20
468.9987671774
 30
0.0
 11
313.7916656312
 21
468.9987671774
 31
0.0
  0
LINE
  5
108
330
1F
100
AcDbEntity
  8
0
  6
Continuous
 62
     7
370
    15
100
AcDbLine
 10
318.6169894513
 20
468.1987685364
 30
0.0
 11
313.7910397824
 21
468.1987685364
 31
0.0
  0
LINE
  5
109
330
1F
100
AcDbEntity
  8
0
  6
Continuous
 62
     7
370
    15
100
AcDbLine
 10
317.3910411175
 20
469.2987573546
 30
0.0
 11
318.5544045743
 21
469.2987573546
 31
0.0
  0
LINE
  5
10A
330
1F
100
AcDbEntity
  8
0
  6
Continuous
 62
     7
370
    15
100
AcDbLine
 10
315.1910634812
 20
469.2987573546
 30
0.0
 11
317.3910411175
 21
469.2987573546
 31
0.0
  0
LINE
  5
10B
330
1F
100
AcDbEntity
  8
0
  6
Continuous
 62
     7
370
    15
100
AcDbLine
 10
317.3910411175
 20
452.5987577837
 30
0.0
 11
318.4944423016
 21
452.5987577837
 31
0.0
  0
LINE
  5
10C
330
1F
100
AcDbEntity
  8
0
  6
Continuous
 62
     7
370
    15
100
AcDbLine
 10
315.2910502728
 20
452.5987577837
 30
0.0
 11
317.3910411175
 21
452.5987577837
 31
0.0
  0
LINE
  5
10D
330
1F
100
AcDbEntity
  8
0
  6
Continuous
 62
     7
370
    15
100
AcDbLine
 10
317.3910411175
 20
452.1987659138
 30
0.0
 11
318.2545634087
 21
452.1987659138
 31
0.0
  0
LINE
  5
10E
330
1F
100
AcDbEntity
  8
0
  6
Continuous
 62
     7
370
    15
100
AcDbLine
 10
315.2910502728
 20
452.1987659138
 30
0.0
 11
317.3910411175
 21
452.1987659138
 31
0.0
  0
ARC
  5
10F
330
1F
100
AcDbEntity
  8
0
  6
Continuous
 62
     7
370
    15
100
AcDbCircle
 10
314.2570070919
 20
453.796595786
 30
0.0
 40
0.8029152918097557
100
AcDbArc
 50
179.845334138
 51
234.5252377937
  0
ARC
  5
110
330
1F
100
AcDbEntity
  8
0
  6
Continuous
 62
     7
370
    15
100
AcDbCircle
 10
314.2569952483
 20
468.2009271772
 30
0.0
 40
0.8029034246593697
100
AcDbArc
 50
125.4743278821
 51
180.1540423808
  0
LINE
  5
111
330
1F
100
AcDbEntity
  8
0
  6
Continuous
 62
     7
370
    15
100
AcDbLine
 10
314.2419489201
 20
454.2487633627
 30
0.0
 11
314.2419489201
 21
453.7987631959
 31
0.0
  0
LINE
  5
112
330
1F
100
AcDbEntity
  8
0
  6
Continuous
 62
     7
370
    15
100
AcDbLine
 10
314.2419489201
 20
468.1987685364
 30
0.0
 11
314.2419489201
 21
467.7487683695
 31
0.0
  0
LINE
  5
113
330
1F
100
AcDbEntity
  8
0
  6
Continuous
 62
     7
370
    15
100
AcDbLine
 10
313.4540947255
 20
453.7987631959
 30
0.0
 11
313.4540947255
 21
455.0272000235
 31
0.0
  0
LINE
  5
114
330
1F
100
AcDbEntity
  8
0
  6
Continuous
 62
     7
370
    15
100
AcDbLine
 10
313.4540947255
 20
466.9703168076
 30
0.0
 11
313.4540947255
 21
468.1987685364
 31
0.0
  0
SPLINE
  5
115
330
1F
100
AcDbEntity
  8
0
  6
Continuous
 62
     7
370
    15
100
AcDbSpline
210
0.0
220
0.0
230
1.0
 70
    24
 71
     3
 72
    12
 73
     8
 74
     0
 42
0.00000001
 43
0.00000001
 40
0.0
 40
0.0
 40
0.0
 40
0.0
 40
0.2185040659699323
 40
0.4370095603324679
 40
0.6555189772202858
 40
0.8740247140736526
 40
1.0
 40
1.0
 40
1.0
 40
1.0
 10
320.4503985222506
 20
97.691155711987
 30
0.0
 10
320.2536781311104
 20
97.691155711987
 30
0.0
 10
319.8602360628404
 20
97.69115571198702
 30
0.0
 10
319.2994881846068
 20
97.69115571198697
 30
0.0
 10
318.8817975950017
 20
97.69115571198702
 30
0.0
 10
318.6552276111379
 20
97.69115571198702
 30
0.0
 10
318.6727712587131
 20
97.69115571198697
 30
0.0
 10
318.6791868981051
 20
97.691155711987
 30
0.0
  0
SPLINE
  5
116
330
1F
100
AcDbEntity
  8
0
  6
Continuous
 62
     7
370
    15
100
AcDbSpline
210
0.0
220
0.0
230
1.0
 70
    24
 71
     3
 72
     9
 73
     5
 74
     0
 42
0.00000001
 43
0.00000001
 40
0.0
 40
0.0
 40
0.0
 40
0.0
 40
0.1970282982560592
 40
0.9999999999999999
 40
0.9999999999999999
 40
0.9999999999999999
 40
0.9999999999999999
 10
321.0910590466189
 20
97.691155711987
 30
0.0
 10
321.0584017735573
 20
97.691155711987
 30
0.0
 10
320.8926526230518
 20
97.69115571198705
 30
0.0
 10
320.6473608636894
 20
97.69115571198694
 30
0.0
 10
320.4503985222505
 20
97.69115571198697
 30
0.0
  0
SPLINE
  5
117
330
1F
100
AcDbEntity
  8
0
  6
Continuous
 62
     7
370
    15
100
AcDbSpline
210
0.0
220
0.0
230
1.0
 70
     8
 71
     3
 72
    13
 73
     9
 74
     0
 42
0.00000001
 43
0.00000001
 40
0.0
 40
0.0
 40
0.0
 40
0.0
 40
0.1877395694049195
 40
0.3754720100250568
 40
0.5632106075103803
 40
0.7509495523755451
 40
0.9386874212068979
 40
1.0
 40
1.0
 40
1.0
 40
1.0
 10
320.1571138676333
 20
101.3059986036801
 30
0.0
 10
319.9604174052249
 20
101.303295719405
 30
0.0
 10
319.5670319493012
 20
101.2978900534877
 30
0.0
 10
319.034011213928
 20
101.0073688588189
 30
0.0
 10
318.6434891613835
 20
100.5524659747416
 30
0.0
 10
318.4705458388691
 20
99.99077992871536
 30
0.0
 10
318.4738281178392
 20
99.51758910421199
 30
0.0
 10
318.6011434786042
 20
99.29615120778453
 30
0.0
 10
318.6324866589235
 20
99.24163643536801
 30
0.0
  0
SPLINE
  5
118
330
1F
100
AcDbEntity
  8
0
  6
Continuous
 62
     7
370
    15
100
AcDbSpline
210
0.0
220
0.0
230
1.0
 70
     8
 71
     3
 72
    10
 73
     6
 74
     0
 42
0.00000001
 43
0.00000001
 40
0.0
 40
0.0
 40
0.0
 40
0.0
 40
0.209341314567853
 40
0.6046782396237235
 40
1.0
 40
1.0
 40
1.0
 40
1.0
 10
321.2942810829805
 20
100.4998755854153
 30
0.0
 10
321.2525854477646
 20
100.5929451923032
 30
0.0
 10
321.1321484315243
 20
100.861774907888
 30
0.0
 10
320.7254020756167
 20
101.1783918963016
 30
0.0
 10
320.3465408481329
 20
101.2634635784401
 30
0.0
 10
320.1571138676333
 20
101.3059986036801
 30
0.0
  0
SPLINE
  5
119
330
1F
100
AcDbEntity
  8
0
  6
Continuous
 62
     7
370
    15
100
AcDbSpline
210
0.0
220
0.0
230
1.0
 70
     8
 71
     3
 72
    13
 73
     9
 74
     0
 42
0.00000001
 43
0.00000001
 40
0.0
 40
0.0
 40
0.0
 40
0.0
 40
0.1768666446852921
 40
0.3537286573976354
 40
0.5305943864519905
 40
0.7074561960043457
 40
0.8843212386046765
 40
1.0
 40
1.0
 40
1.0
 40
1.0
 10
320.1398881252932
 20
80.662809054234
 30
0.0
 10
319.9432155097348
 20
80.66550127706437
 30
0.0
 10
319.5498754292909
 20
80.67088565221827
 30
0.0
 10
319.0164952432088
 20
80.96156956923731
 30
0.0
 10
318.6273688562175
 20
81.41592720810817
 30
0.0
 10
318.449204587252
 20
81.97961846776802
 30
0.0
 10
318.470172828798
 20
82.51276488101853
 30
0.0
 10
318.6362537379462
 20
82.7860361044765
 30
0.0
 10
318.7019260700869
 20
82.89409403023956
 30
0.0
  0
SPLINE
  5
11A
330
1F
100
AcDbEntity
  8
0
  6
Continuous
 62
     7
370
    15
100
AcDbSpline
210
0.0
220
0.0
230
1.0
 70
     8
 71
     3
 72
    10
 73
     6
 74
     0
 42
0.00000001
 43
0.00000001
 40
0.0
 40
0.0
 40
0.0
 40
0.0
 40
0.0588228166040073
 40
0.5294204340995383
 40
1.0
 40
1.0
 40
1.0
 40
1.0
 10
321.1700053986239
 20
81.26271490273712
 30
0.0
 10
321.1593709348372
 20
81.24123386871365
 30
0.0
 10
321.0636580336304
 20
81.04789905385482
 30
0.0
 10
320.7027531108957
 20
80.79375929096649
 30
0.0
 10
320.327507388114
 20
80.70645857500794
 30
0.0
 10
320.1398881252931
 20
80.66280905423397
 30
0.0
  0
SPLINE
  5
11B
330
1F
100
AcDbEntity
  8
0
  6
Continuous
 62
     7
370
    15
100
AcDbSpline
210
0.0
220
0.0
230
1.0
 70
    24
 71
     3
 72
    12
 73
     8
 74
     0
 42
0.00000001
 43
0.00000001
 40
0.0
 40
0.0
 40
0.0
 40
0.0
 40
0.2193534179877733
 40
0.4387082699204865
 40
0.6580670596258174
 40
0.8774221549919532
 40
1.0
 40
1.0
 40
1.0
 40
1.0
 10
320.4503985222506
 20
84.13252953706024
 30
0.0
 10
320.2536828171455
 20
84.13252953706021
 30
0.0
 10
319.8602501209767
 20
84.13252953706026
 30
0.0
 10
319.2994319512118
 20
84.13252953706021
 30
0.0
 10
318.8820084729144
 20
84.13252953706021
 30
0.0
 10
318.6561454148451
 20
84.13252953706026
 30
0.0
 10
318.6731504514592
 20
84.13252953706021
 30
0.0
 10
318.6792465027498
 20
84.13252953706021
 30
0.0
  0
SPLINE
  5
11C
330
1F
100
AcDbEntity
  8
0
  6
Continuous
 62
     7
370
    15
100
AcDbSpline
210
0.0
220
0.0
230
1.0
 70
    24
 71
     3
 72
     9
 73
     5
 74
     0
 42
0.00000001
 43
0.00000001
 40
0.0
 40
0.0
 40
0.0
 40
0.0
 40
0.1970282982560592
 40
0.9999999999999999
 40
0.9999999999999999
 40
0.9999999999999999
 40
0.9999999999999999
 10
321.0910590466189
 20
84.13252953706024
 30
0.0
 10
321.0584017735573
 20
84.13252953706024
 30
0.0
 10
320.8926526230518
 20
84.1325295370603
 30
0.0
 10
320.6473608636894
 20
84.13252953706021
 30
0.0
 10
320.4503985222505
 20
84.13252953706021
 30
0.0
  0
SPLINE
  5
11D
330
1F
100
AcDbEntity
  8
0
  6
Continuous
 62
     7
370
    15
100
AcDbSpline
210
0.0
220
0.0
230
1.0
 70
     8
 71
     3
 72
    13
 73
     9
 74
     0
 42
0.00000001
 43
0.00000001
 40
0.0
 40
0.0
 40
0.0
 40
0.0
 40
0.1768576985124456
 40
0.3537276817053297
 40
0.5305875817102148
 40
0.7074521439525769
 40
0.8843171741316485
 40
0.9999999999999999
 40
0.9999999999999999
 40
0.9999999999999999
 40
0.9999999999999999
 10
318.5880215939211
 20
103.9224189919018
 30
0.0
 10
318.3913608046896
 20
103.9197230236973
 30
0.0
 10
317.9980255660074
 20
103.9143309000239
 30
0.0
 10
317.4646293666499
 20
103.6236786753042
 30
0.0
 10
317.0755437098691
 20
103.1692827418753
 30
0.0
 10
316.8973296090137
 20
102.6056188889959
 30
0.0
 10
316.9182987407483
 20
102.0724530673798
 30
0.0
 10
317.0844054205505
 20
101.7991907284051
 30
0.0
 10
317.1500893410371
 20
101.6911340158963
 30
0.0
  0
SPLINE
  5
11E
330
1F
100
AcDbEntity
  8
0
  6
Continuous
 62
     7
370
    15
100
AcDbSpline
210
0.0
220
0.0
230
1.0
 70
     8
 71
     3
 72
    10
 73
     6
 74
     0
 42
0.00000001
 43
0.00000001
 40
0.0
 40
0.0
 40
0.0
 40
0.0
 40
0.1474521529467936
 40
0.5737191691814364
 40
0.9999999999999999
 40
0.9999999999999999
 40
0.9999999999999999
 40
0.9999999999999999
 10
319.6766110237764
 20
103.2098901670956
 30
0.0
 10
319.6485540404298
 20
103.2701821343445
 30
0.0
 10
319.5393875830148
 20
103.5047711631719
 30
0.0
 10
319.1543226918309
 20
103.7935879137538
 30
0.0
 10
318.776790665719
 20
103.8794748352853
 30
0.0
 10
318.5880215939211
 20
103.9224189919018
 30
0.0
  0
SPLINE
  5
11F
330
1F
100
AcDbEntity
  8
0
  6
Continuous
 62
     7
370
    15
100
AcDbSpline
210
0.0
220
0.0
230
1.0
 70
     8
 71
     3
 72
    13
 73
     9
 74
     0
 42
0.00000001
 43
0.00000001
 40
0.0
 40
0.0
 40
0.0
 40
0.0
 40
0.1768650160017019
 40
0.3537333829017458
 40
0.5305916667059338
 40
0.7074540373464636
 40
0.8843182312772411
 40
1.0
 40
1.0
 40
1.0
 40
1.0
 10
318.5708256539033
 20
78.04638866601223
 30
0.0
 10
318.374154657554
 20
78.04908320323048
 30
0.0
 10
317.9808089387112
 20
78.05447232871788
 30
0.0
 10
317.4474035647827
 20
78.3451290944008
 30
0.0
 10
317.0583184935524
 20
78.79952351154535
 30
0.0
 10
316.8801035199396
 20
79.36319185120658
 30
0.0
 10
316.9010726391055
 20
79.89635320847415
 30
0.0
 10
317.067179701895
 20
80.16961674433051
 30
0.0
 10
317.1328635986971
 20
80.27767364201782
 30
0.0
  0
SPLINE
  5
120
330
1F
100
AcDbEntity
  8
0
  6
Continuous
 62
     7
370
    15
100
AcDbSpline
210
0.0
220
0.0
230
1.0
 70
     8
 71
     3
 72
    10
 73
     6
 74
     0
 42
0.00000001
 43
0.00000001
 40
0.0
 40
0.0
 40
0.0
 40
0.0
 40
0.1474572530124322
 40
0.5737310038141519
 40
1.0
 40
1.0
 40
1.0
 40
1.0
 10
319.6593852814364
 20
78.75891749081848
 30
0.0
 10
319.6313284774569
 20
78.69862561529887
 30
0.0
 10
319.522164241842
 20
78.46404021812758
 30
0.0
 10
319.1371024057996
 20
78.17522514157434
 30
0.0
 10
318.7595838693973
 20
78.08933399819512
 30
0.0
 10
318.5708256539034
 20
78.04638866601226
 30
0.0
  0
LINE
  5
121
330
1F
100
AcDbEntity
  8
0
  6
Continuous
 62
     7
370
    15
100
AcDbLine
 10
823.1924207982
 20
80.9987706345
 30
0.0
 11
823.1924207982
 21
45.9987593096
 31
0.0
  0
LINE
  5
122
330
1F
100
AcDbEntity
  8
0
  6
Continuous
 62
     7
370
    15
100
AcDbLine
 10
833.7910505112
 20
80.9987706345
 30
0.0
 11
823.1924207982
 21
80.9987706345
 31
0.0
  0
LINE
  5
123
330
1F
100
AcDbEntity
  8
0
  6
Continuous
 62
     7
370
    15
100
AcDbLine
 10
833.7910505112
 20
45.9987593096
 30
0.0
 11
823.1924207982
 21
45.9987593096
 31
0.0
  0
LINE
  5
124
330
1F
100
AcDbEntity
  8
0
  6
Continuous
 62
     7
370
    15
100
AcDbLine
 10
823.1924207982
 20
505.9987676543
 30
0.0
 11
823.1924207982
 21
470.9987563294
 31
0.0
  0
LINE
  5
125
330
1F
100
AcDbEntity
  8
0
  6
Continuous
 62
     7
370
    15
100
AcDbLine
 10
833.7910505112
 20
505.9987676543
 30
0.0
 11
823.1924207982
 21
505.9987676543
 31
0.0
  0
LINE
  5
126
330
1F
100
AcDbEntity
  8
0
  6
Continuous
 62
     7
370
    15
100
AcDbLine
 10
833.7910505112
 20
470.9987563294
 30
0.0
 11
823.1924207982
 21
470.9987563294
 31
0.0
  0
LINE
  5
127
330
1F
100
AcDbEntity
  8
0
  6
Continuous
 62
     7
370
    15
100
AcDbLine
 10
830.7910593327
 20
117.9987562102
 30
0.0
 11
825.7910641011
 21
117.9987562102
 31
0.0
  0
LINE
  5
128
330
1F
100
AcDbEntity
  8
0
  6
Continuous
 62
     7
370
    15
100
AcDbLine
 10
825.7910641011
 20
433.9987707537
 30
0.0
 11
830.7910593327
 21
433.9987707537
 31
0.0
  0
LINE
  5
129
330
1F
100
AcDbEntity
  8
0
  6
Continuous
 62
     7
370
    15
100
AcDbLine
 10
822.7289052781
 20
45.9987593096
 30
0.0
 11
822.7289052781
 21
80.9987706345
 31
0.0
  0
LINE
  5
12A
330
1F
100
AcDbEntity
  8
0
  6
Continuous
 62
     7
370
    15
100
AcDbLine
 10
822.7289052781
 20
80.9987706345
 30
0.0
 11
823.1924207982
 21
80.9987706345
 31
0.0
  0
LINE
  5
12B
330
1F
100
AcDbEntity
  8
0
  6
Continuous
 62
     7
370
    15
100
AcDbLine
 10
823.1924207982
 20
45.9987593096
 30
0.0
 11
822.7289052781
 21
45.9987593096
 31
0.0
  0
LINE
  5
12C
330
1F
100
AcDbEntity
  8
0
  6
Continuous
 62
     7
370
    15
100
AcDbLine
 10
822.7289052781
 20
470.9987563294
 30
0.0
 11
822.7289052781
 21
505.9987676543
 31
0.0
  0
LINE
  5
12D
330
1F
100
AcDbEntity
  8
0
  6
Continuous
 62
     7
370
    15
100
AcDbLine
 10
823.1924207982
 20
470.9987563294
 30
0.0
 11
822.7289052781
 21
470.9987563294
 31
0.0
  0
LINE
  5
12E
330
1F
100
AcDbEntity
  8
0
  6
Continuous
 62
     7
370
    15
100
AcDbLine
 10
822.7289052781
 20
505.9987676543
 30
0.0
 11
823.1924207982
 21
505.9987676543
 31
0.0
  0
LINE
  5
12F
330
1F
100
AcDbEntity
  8
0
  6
Continuous
 62
     7
370
    15
100
AcDbLine
 10
822.7289052781
 20
470.9987563294
 30
0.0
 11
822.2910495576
 21
470.9987563294
 31
0.0
  0
LINE
  5
130
330
1F
100
AcDbEntity
  8
0
  6
Continuous
 62
     7
370
    15
100
AcDbLine
 10
822.7289052781
 20
505.9987676543
 30
0.0
 11
822.2910495576
 21
505.9987676543
 31
0.0
  0
LINE
  5
131
330
1F
100
AcDbEntity
  8
0
  6
Continuous
 62
     7
370
    15
100
AcDbLine
 10
822.7289052781
 20
80.9987706345
 30
0.0
 11
822.2910495576
 21
80.9987706345
 31
0.0
  0
LINE
  5
132
330
1F
100
AcDbEntity
  8
0
  6
Continuous
 62
     7
370
    15
100
AcDbLine
 10
822.7289052781
 20
45.9987593096
 30
0.0
 11
822.2910495576
 21
45.9987593096
 31
0.0
  0
LINE
  5
133
330
1F
100
AcDbEntity
  8
0
  6
Continuous
 62
     7
370
    15
100
AcDbLine
 10
317.0910509404
 20
84.2487585944
 30
0.0
 11
318.6505766686
 21
84.2487585944
 31
0.0
  0
LINE
  5
134
330
1F
100
AcDbEntity
  8
0
  6
Continuous
 62
     7
370
    15
100
AcDbLine
 10
317.0910509404
 20
97.7487636012
 30
0.0
 11
318.6511131104
 21
97.7487636012
 31
0.0
  0
LINE
  5
135
330
1F
100
AcDbEntity
  8
0
  6
Continuous
 62
     7
370
    15
100
AcDbLine
 10
317.0910509404
 20
84.2487585944
 30
0.0
 11
313.9910431679
 21
84.2487585944
 31
0.0
  0
LINE
  5
136
330
1F
100
AcDbEntity
  8
0
  6
Continuous
 62
     7
370
    15
100
AcDbLine
 10
317.0910509404
 20
97.7487636012
 30
0.0
 11
313.9910431679
 21
97.7487636012
 31
0.0
  0
LINE
  5
137
330
1F
100
AcDbEntity
  8
0
  6
Continuous
 62
     7
370
    15
100
AcDbLine
 10
317.0910509404
 20
454.2487633627
 30
0.0
 11
313.9910431679
 21
454.2487633627
 31
0.0
  0
LINE
  5
138
330
1F
100
AcDbEntity
  8
0
  6
Continuous
 62
     7
370
    15
100
AcDbLine
 10
317.0910509404
 20
467.7487683695
 30
0.0
 11
318.6511131104
 21
467.7487683695
 31
0.0
  0
LINE
  5
139
330
1F
100
AcDbEntity
  8
0
  6
Continuous
 62
     7
370
    15
100
AcDbLine
 10
317.0910509404
 20
454.2487633627
 30
0.0
 11
318.6505766686
 21
454.2487633627
 31
0.0
  0
LINE
  5
13A
330
1F
100
AcDbEntity
  8
0
  6
Continuous
 62
     7
370
    15
100
AcDbLine
 10
317.0910509404
 20
467.7487683695
 30
0.0
 11
313.9910431679
 21
467.7487683695
 31
0.0
  0
LINE
  5
13B
330
1F
100
AcDbEntity
  8
0
  6
Continuous
 62
     8
370
    15
100
AcDbLine
 10
317.0910509404
 20
84.4987702769
 30
0.0
 11
317.0910509404
 21
84.2487585944
 31
0.0
  0
LINE
  5
13C
330
1F
100
AcDbEntity
  8
0
  6
Continuous
 62
     8
370
    15
100
AcDbLine
 10
317.0910509404
 20
97.7487636012
 30
0.0
 11
317.0910509404
 21
97.4987668198
 31
0.0
  0
LINE
  5
13D
330
1F
100
AcDbEntity
  8
0
  6
Continuous
 62
     8
370
    15
100
AcDbLine
 10
317.0910509404
 20
454.4987601441
 30
0.0
 11
317.0910509404
 21
454.2487633627
 31
0.0
  0
LINE
  5
13E
330
1F
100
AcDbEntity
  8
0
  6
Continuous
 62
     8
370
    15
100
AcDbLine
 10
317.0910509404
 20
467.7487683695
 30
0.0
 11
317.0910509404
 21
467.498756687
 31
0.0
  0
LINE
  5
13F
330
1F
100
AcDbEntity
  8
0
  6
Continuous
 62
     7
370
    15
100
AcDbLine
 10
264.2394413559
 20
97.4987668198
 30
0.0
 11
264.2394413559
 21
84.4987702769
 31
0.0
  0
LINE
  5
140
330
1F
100
AcDbEntity
  8
0
  6
Continuous
 62
     7
370
    15
100
AcDbLine
 10
264.2394413559
 20
467.498756687
 30
0.0
 11
264.2394413559
 21
454.4987601441
 31
0.0
  0
LINE
  5
141
330
1F
100
AcDbEntity
  8
0
  6
Continuous
 62
     7
370
    15
100
AcDbLine
 10
254.4494380561
 20
98.1987637681
 30
0.0
 11
254.4494380561
 21
98.9987624091
 31
0.0
  0
LINE
  5
142
330
1F
100
AcDbEntity
  8
0
  6
Continuous
 62
     7
370
    15
100
AcDbLine
 10
254.4494380561
 20
82.9987597865
 30
0.0
 11
254.4494380561
 21
83.7987584275
 31
0.0
  0
ARC
  5
143
330
1F
100
AcDbEntity
  8
0
  6
Continuous
 62
     7
370
    15
100
AcDbCircle
 10
251.719441189
 20
96.1916206248
 30
0.0
 40
3.80714285714331
100
AcDbArc
 50
54.6997515601
 51
125.3002484399
  0
LINE
  5
144
330
1F
100
AcDbEntity
  8
0
  6
Continuous
 62
     7
370
    15
100
AcDbLine
 10
249.5194484798
 20
99.2987674874
 30
0.0
 11
249.5194484798
 21
98.9987624091
 31
0.0
  0
LINE
  5
145
330
1F
100
AcDbEntity
  8
0
  6
Continuous
 62
     7
370
    15
100
AcDbLine
 10
253.919448456
 20
98.9987624091
 30
0.0
 11
253.919448456
 21
99.2987674874
 31
0.0
  0
LINE
  5
146
330
1F
100
AcDbEntity
  8
0
  6
Continuous
 62
     7
370
    15
100
AcDbLine
 10
249.6194352714
 20
82.5987679165
 30
0.0
 11
249.6194352714
 21
82.1987611455
 31
0.0
  0
LINE
  5
147
330
1F
100
AcDbEntity
  8
0
  6
Continuous
 62
     7
370
    15
100
AcDbLine
 10
253.8194467632
 20
82.1987611455
 30
0.0
 11
253.8194467632
 21
82.5987679165
 31
0.0
  0
ARC
  5
148
330
1F
100
AcDbEntity
  8
0
  6
Continuous
 62
     7
370
    15
100
AcDbCircle
 10
249.819441189
 20
82.998763482
 30
0.0
 40
0.4000000000007731
100
AcDbArc
 50
270.0
 51
0.0
  0
ARC
  5
149
330
1F
100
AcDbEntity
  8
0
  6
Continuous
 62
     7
370
    15
100
AcDbCircle
 10
253.619441189
 20
82.998763482
 30
0.0
 40
0.4000000000007446
100
AcDbArc
 50
180.0
 51
270.0
  0
LINE
  5
14A
330
1F
100
AcDbEntity
  8
0
  6
Continuous
 62
     7
370
    15
100
AcDbLine
 10
250.219445428
 20
98.1987637681
 30
0.0
 11
250.219445428
 21
97.7487636012
 31
0.0
  0
LINE
  5
14B
330
1F
100
AcDbEntity
  8
0
  6
Continuous
 62
     7
370
    15
100
AcDbLine
 10
250.219445428
 20
96.7487615746
 30
0.0
 11
250.219445428
 21
96.2600630921
 31
0.0
  0
LINE
  5
14C
330
1F
100
AcDbEntity
  8
0
  6
Continuous
 62
     7
370
    15
100
AcDbLine
 10
250.219445428
 20
95.463938753
 30
0.0
 11
250.219445428
 21
95.3082514208
 31
0.0
  0
LINE
  5
14D
330
1F
100
AcDbEntity
  8
0
  6
Continuous
 62
     7
370
    15
100
AcDbLine
 10
250.219445428
 20
86.0091370743
 30
0.0
 11
250.219445428
 21
85.2487606209
 31
0.0
  0
LINE
  5
14E
330
1F
100
AcDbEntity
  8
0
  6
Continuous
 62
     7
370
    15
100
AcDbLine
 10
250.219445428
 20
84.2487585944
 30
0.0
 11
250.219445428
 21
83.7987584275
 31
0.0
  0
LINE
  5
14F
330
1F
100
AcDbEntity
  8
0
  6
Continuous
 62
     7
370
    15
100
AcDbLine
 10
253.2194366066
 20
83.7987584275
 30
0.0
 11
253.2194366066
 21
84.2487585944
 31
0.0
  0
LINE
  5
150
330
1F
100
AcDbEntity
  8
0
  6
Continuous
 62
     7
370
    15
100
AcDbLine
 10
253.2194366066
 20
85.2487606209
 30
0.0
 11
253.2194366066
 21
85.7359093827
 31
0.0
  0
LINE
  5
151
330
1F
100
AcDbEntity
  8
0
  6
Continuous
 62
     7
370
    15
100
AcDbLine
 10
253.2194366066
 20
95.0438303154
 30
0.0
 11
253.2194366066
 21
95.2317637604
 31
0.0
  0
LINE
  5
152
330
1F
100
AcDbEntity
  8
0
  6
Continuous
 62
     7
370
    15
100
AcDbLine
 10
253.2194366066
 20
95.9868354004
 30
0.0
 11
253.2194366066
 21
96.7487615746
 31
0.0
  0
LINE
  5
153
330
1F
100
AcDbEntity
  8
0
  6
Continuous
 62
     7
370
    15
100
AcDbLine
 10
253.2194366066
 20
97.7487636012
 30
0.0
 11
253.2194366066
 21
98.1987637681
 31
0.0
  0
SPLINE
  5
154
330
1F
100
AcDbEntity
  8
0
  6
Continuous
 62
     7
370
    15
100
AcDbSpline
210
0.0
220
0.0
230
1.0
 70
     8
 71
     3
 72
    15
 73
    11
 74
     0
 42
0.00000001
 43
0.00000001
 40
0.0
 40
0.0
 40
0.0
 40
0.0
 40
0.1355965265320355
 40
0.2953255980744156
 40
0.4038106423382971
 40
0.5319577027750214
 40
0.6738320656244405
 40
0.8261009879684832
 40
0.9126193300633378
 40
1.0
 40
1.0
 40
1.0
 40
1.0
 10
253.2194366065544
 20
455.5648041170621
 30
0.0
 10
253.2638188796687
 20
455.5574836805629
 30
0.0
 10
253.3604822801749
 20
455.5415399662025
 30
0.0
 10
253.5673324382583
 20
455.5892113548696
 30
0.0
 10
253.76058928929
 20
455.6769258499017
 30
0.0
 10
253.9071746881829
 20
455.7965974327426
 30
0.0
 10
254.0058869776193
 20
455.9474820302523
 30
0.0
 10
254.0355402642234
 20
456.0693315595897
 30
0.0
 10
254.0143712782421
 20
456.198580899153
 30
0.0
 10
253.9681134449362
 20
456.2652572961848
 30
0.0
 10
253.9448698369545
 20
456.2987608116651
 30
0.0
  0
SPLINE
  5
155
330
1F
100
AcDbEntity
  8
0
  6
Continuous
 62
     7
370
    15
100
AcDbSpline
210
0.0
220
0.0
230
1.0
 70
     8
 71
     3
 72
    20
 73
    16
 74
     0
 42
0.00000001
 43
0.00000001
 40
0.0
 40
0.0
 40
0.0
 40
0.0
 40
0.0607080786555937
 40
0.2265357058541371
 40
0.3908032043468366
 40
0.4705945460475215
 40
0.547620500933756
 40
0.6228575210760745
 40
0.7003373656687489
 40
0.7786474675671871
 40
0.8566579547793368
 40
0.933098788388438
 40
0.9703736090764431
 40
0.9892324290281727
 40
1.0
 40
1.0
 40
1.0
 40
1.0
 10
249.4832386580985
 20
456.298760811665
 30
0.0
 10
249.529513526495
 20
456.2454293658895
 30
0.0
 10
249.7021908736893
 20
456.0464199921701
 30
0.0
 10
250.1191492979605
 20
456.0284931430854
 30
0.0
 10
250.6841182826376
 20
455.9534678604286
 30
0.0
 10
251.2037286010171
 20
455.9105302152845
 30
0.0
 10
251.5976196715262
 20
455.8799694624082
 30
0.0
 10
251.9905315288342
 20
455.8522981169009
 30
0.0
 10
252.3716927856811
 20
455.8209869702334
 30
0.0
 10
252.7274175877889
 20
455.7885141005691
 30
0.0
 10
253.0300389631646
 20
455.7576770353699
 30
0.0
 10
253.2225572916702
 20
455.7347760507393
 30
0.0
 10
253.3106720516896
 20
455.7267576243741
 30
0.0
 10
253.356099111246
 20
455.7189749917617
 30
0.0
 10
253.3555497577285
 20
455.7229178403757
 30
0.0
 10
253.3553500978034
 20
455.7243508499646
 30
0.0
  0
SPLINE
  5
156
330
1F
100
AcDbEntity
  8
0
  6
Continuous
 62
     7
370
    15
100
AcDbSpline
210
0.0
220
0.0
230
1.0
 70
     8
 71
     3
 72
    18
 73
    14
 74
     0
 42
0.00000001
 43
0.00000001
 40
0.0
 40
0.0
 40
0.0
 40
0.0
 40
0.0057509055707785
 40
0.1156365942108736
 40
0.2383917546761024
 40
0.3593077580000205
 40
0.4757061783838784
 40
0.5872136758512743
 40
0.7047343241619957
 40
0.8265029199285094
 40
0.8891450723957606
 40
0.9517986371317534
 40
1.0
 40
1.0
 40
1.0
 40
1.0
 10
253.726061185984
 20
464.9455917280698
 30
0.0
 10
253.7214139529759
 20
464.9485439239212
 30
0.0
 10
253.6279695048006
 20
465.007905335703
 30
0.0
 10
253.4056631984108
 20
465.0140833953871
 30
0.0
 10
253.0142648061886
 20
465.0732858785699
 30
0.0
 10
252.5023867015559
 20
465.1188226776138
 30
0.0
 10
251.9513545593144
 20
465.164989445684
 30
0.0
 10
251.3892385420898
 20
465.2038691089778
 30
0.0
 10
250.8549558467876
 20
465.2486217623331
 30
0.0
 10
250.4573366207059
 20
465.2896634924121
 30
0.0
 10
250.2425863605469
 20
465.3108100804965
 30
0.0
 10
250.1465424905898
 20
465.3130857197393
 30
0.0
 10
250.1310934786284
 20
465.2970079988519
 30
0.0
 10
250.124376019625
 20
465.2900171679044
 30
0.0
  0
SPLINE
  5
157
330
1F
100
AcDbEntity
  8
0
  6
Continuous
 62
     7
370
    15
100
AcDbSpline
210
0.0
220
0.0
230
1.0
 70
     8
 71
     3
 72
    12
 73
     8
 74
     0
 42
0.00000001
 43
0.00000001
 40
0.0
 40
0.0
 40
0.0
 40
0.0
 40
0.2236877803995734
 40
0.4523150907588928
 40
0.6822433916861204
 40
0.9102241217890146
 40
1.0
 40
1.0
 40
1.0
 40
1.0
 10
249.4251390306038
 20
466.1006105345273
 30
0.0
 10
249.4124052018724
 20
466.0580603448104
 30
0.0
 10
249.3866563527932
 20
465.9720203613602
 30
0.0
 10
249.5077851065459
 20
465.8804261941606
 30
0.0
 10
249.739455964105
 20
465.7840913761256
 30
0.0
 10
249.9843169619618
 20
465.7216309091294
 30
0.0
 10
250.1676486627956
 20
465.7268347727987
 30
0.0
 10
250.2194454280418
 20
465.728305022099
 30
0.0
  0
SPLINE
  5
158
330
1F
100
AcDbEntity
  8
0
  6
Continuous
 62
     7
370
    15
100
AcDbSpline
210
0.0
220
0.0
230
1.0
 70
     8
 71
     3
 72
    19
 73
    15
 74
     0
 42
0.00000001
 43
0.00000001
 40
0.0
 40
0.0
 40
0.0
 40
0.0
 40
0.097905917995741
 40
0.1753774581523557
 40
0.2884834021363955
 40
0.3734528377717841
 40
0.4570035821710856
 40
0.61688738746232
 40
0.6796673909510111
 40
0.7634260241287744
 40
0.8137549702879531
 40
0.8702986083098486
 40
0.932400294223479
 40
1.0
 40
1.0
 40
1.0
 40
1.0
 10
249.6013750640434
 20
465.6054896515393
 30
0.0
 10
249.6518828289786
 20
465.5791084204021
 30
0.0
 10
249.7423566594948
 20
465.5318521017393
 30
0.0
 10
250.1170177220344
 20
465.4712049455245
 30
0.0
 10
250.6035033126387
 20
465.417313782048
 30
0.0
 10
251.1948478337954
 20
465.3640895429565
 30
0.0
 10
251.9489437832493
 20
465.3125425006876
 30
0.0
 10
252.5900510505788
 20
465.2455893538969
 30
0.0
 10
253.2393094235952
 20
465.2100635894527
 30
0.0
 10
253.6176500040947
 20
465.2882782842702
 30
0.0
 10
253.8694976237077
 20
465.3964493408118
 30
0.0
 10
254.0030847490011
 20
465.4848007427954
 30
0.0
 10
254.0648602652245
 20
465.5586313998199
 30
0.0
 10
253.9934161354324
 20
465.6391579285092
 30
0.0
 10
253.9561798183005
 20
465.6811279457593
 30
0.0
  0
SPLINE
  5
159
330
1F
100
AcDbEntity
  8
0
  6
Continuous
 62
     7
370
    15
100
AcDbSpline
210
0.0
220
0.0
230
1.0
 70
     8
 71
     3
 72
    25
 73
    21
 74
     0
 42
0.00000001
 43
0.00000001
 40
0.0
 40
0.0
 40
0.0
 40
0.0
 40
0.0176277496452752
 40
0.0344974659164648
 40
0.0503153655365016
 40
0.0649724010491646
 40
0.0909444597833625
 40
0.113437148394622
 40
0.1538399471442875
 40
0.1912336503716957
 40
0.2995702728358309
 40
0.3999628847938618
 40
0.5012948169500224
 40
0.594905109583101
 40
0.6784865294371866
 40
0.7336285575858053
 40
0.807518368220248
 40
0.8952813637324751
 40
0.9453088361668351
 40
1.0
 40
1.0
 40
1.0
 40
1.0
 10
253.5988648740333
 20
465.0555473965192
 30
0.0
 10
253.6385747420675
 20
465.0599362452708
 30
0.0
 10
253.716286863389
 20
465.068525212284
 30
0.0
 10
253.8181741063363
 20
465.1145474887563
 30
0.0
 10
253.8991739691515
 20
465.173492367557
 30
0.0
 10
253.9753916039609
 20
465.2570732651992
 30
0.0
 10
254.0284272860835
 20
465.3607087181124
 30
0.0
 10
254.0526089757649
 20
465.4930668234965
 30
0.0
 10
254.0297002718962
 20
465.6249170203346
 30
0.0
 10
253.858468241786
 20
465.8701238843883
 30
0.0
 10
253.5156801474632
 20
465.957216205387
 30
0.0
 10
253.0205670119205
 20
466.0157747503238
 30
0.0
 10
252.4073548226461
 20
466.0741186383732
 30
0.0
 10
251.7578826269382
 20
466.1237417975644
 30
0.0
 10
251.2181910915881
 20
466.1632298248048
 30
0.0
 10
250.7721651654981
 20
466.2024055091345
 30
0.0
 10
250.3834765834309
 20
466.2406350122852
 30
0.0
 10
250.1233004755275
 20
466.268463691586
 30
0.0
 10
249.9928691217683
 20
466.2909793448612
 30
0.0
 10
249.9842087677931
 20
466.3034362220696
 30
0.0
 10
249.9796857444328
 20
466.3099420469784
 30
0.0
  0
SPLINE
  5
15A
330
1F
100
AcDbEntity
  8
0
  6
Continuous
 62
     7
370
    15
100
AcDbSpline
210
0.0
220
0.0
230
1.0
 70
     8
 71
     3
 72
    12
 73
     8
 74
     0
 42
0.00000001
 43
0.00000001
 40
0.0
 40
0.0
 40
0.0
 40
0.0
 40
0.1756410329005891
 40
0.5723067852938244
 40
0.7586187064161154
 40
0.9207475017615295
 40
1.0
 40
1.0
 40
1.0
 40
1.0
 10
250.0680049268287
 20
465.4914510649228
 30
0.0
 10
250.0024474814369
 20
465.4822808283384
 30
0.0
 10
249.7888358315583
 20
465.4524006315912
 30
0.0
 10
249.5728871365522
 20
465.37844507443
 30
0.0
 10
249.4117640722393
 20
465.1635478264711
 30
0.0
 10
249.3805347088413
 20
465.0033012395625
 30
0.0
 10
249.4115114095407
 20
464.9246540452557
 30
0.0
 10
249.4216819612068
 20
464.8988318842435
 30
0.0
  0
SPLINE
  5
15B
330
1F
100
AcDbEntity
  8
0
  6
Continuous
 62
     7
370
    15
100
AcDbSpline
210
0.0
220
0.0
230
1.0
 70
     8
 71
     3
 72
    11
 73
     7
 74
     0
 42
0.00000001
 43
0.00000001
 40
0.0
 40
0.0
 40
0.0
 40
0.0
 40
0.3513221057926732
 40
0.6842819077228383
 40
0.9949038471095564
 40
1.0
 40
1.0
 40
1.0
 40
1.0
 10
253.6439557878059
 20
465.0860202711606
 30
0.0
 10
253.6846540494793
 20
465.0877038372
 30
0.0
 10
253.7639234255867
 20
465.0909829755241
 30
0.0
 10
253.8565208540718
 20
465.1377547327492
 30
0.0
 10
253.907886994053
 20
465.1781083377951
 30
0.0
 10
253.9207459114587
 20
465.2012059469433
 30
0.0
 10
253.9209534732383
 20
465.2015787762189
 30
0.0
  0
LINE
  5
15C
330
1F
100
AcDbEntity
  8
0
  6
Continuous
 62
     7
370
    15
100
AcDbLine
 10
249.5792021362
 20
456.2010240954
 30
0.0
 11
248.4607358781
 21
456.2010240954
 31
0.0
  0
LINE
  5
15D
330
1F
100
AcDbEntity
  8
0
  6
Continuous
 62
     7
370
    15
100
AcDbLine
 10
248.4607358781
 20
455.4010254544
 30
0.0
 11
250.219445428
 21
455.4010254544
 31
0.0
  0
LINE
  5
15E
330
1F
100
AcDbEntity
  8
0
  6
Continuous
 62
     7
370
    15
100
AcDbLine
 10
247.0504452793
 20
468.9987671774
 30
0.0
 11
247.0504452793
 21
469.0522325438
 31
0.0
  0
LINE
  5
15F
330
1F
100
AcDbEntity
  8
0
  6
Continuous
 62
     7
370
    15
100
AcDbLine
 10
244.0504541008
 20
469.0522325438
 30
0.0
 11
244.0504541008
 21
468.9987671774
 31
0.0
  0
SPLINE
  5
160
330
1F
100
AcDbEntity
  8
0
  6
Continuous
 62
     7
370
    15
100
AcDbSpline
210
0.0
220
0.0
230
1.0
 70
     8
 71
     3
 72
    15
 73
    11
 74
     0
 42
0.00000001
 43
0.00000001
 40
0.0
 40
0.0
 40
0.0
 40
0.0
 40
0.1077555579650511
 40
0.2352512325732731
 40
0.362790393113062
 40
0.4902567237356049
 40
0.6176629731078395
 40
0.7450967633746183
 40
0.8724966280894119
 40
1.0
 40
1.0
 40
1.0
 40
1.0
 10
244.0665026513618
 20
452.9987645548367
 30
0.0
 10
244.0830417796831
 20
452.6862423078633
 30
0.0
 10
244.119149896951
 20
452.0039457730437
 30
0.0
 10
244.455362597341
 20
450.9947979192769
 30
0.0
 10
245.0134421029566
 20
450.0313190406007
 30
0.0
 10
245.768267434306
 20
449.210392120313
 30
0.0
 10
246.6834312283817
 20
448.5751245320251
 30
0.0
 10
247.7106886440321
 20
448.1549713392116
 30
0.0
 10
248.8066631930498
 20
447.9411405130106
 30
0.0
 10
249.5424247751088
 20
448.0066808960782
 30
0.0
 10
249.9104549495262
 20
448.0394643944287
 30
0.0
  0
SPLINE
  5
161
330
1F
100
AcDbEntity
  8
0
  6
Continuous
 62
     7
370
    15
100
AcDbSpline
210
0.0
220
0.0
230
1.0
 70
     8
 71
     3
 72
    15
 73
    11
 74
     0
 42
0.00000001
 43
0.00000001
 40
0.0
 40
0.0
 40
0.0
 40
0.0
 40
0.1316519846524219
 40
0.2633115185478435
 40
0.3951896149794171
 40
0.5266715633740143
 40
0.657547320090316
 40
0.7882119844618856
 40
0.9184608404949043
 40
1.0
 40
1.0
 40
1.0
 40
1.0
 10
249.4127710668128
 20
450.9971511763119
 30
0.0
 10
249.2605876921734
 20
450.9853355496782
 30
0.0
 10
248.9562122163319
 20
450.9617036188741
 30
0.0
 10
248.5053466262652
 20
451.0631848363828
 30
0.0
 10
248.0863089634953
 20
451.2500251563917
 30
0.0
 10
247.7159230901018
 20
451.5226354967725
 30
0.0
 10
247.4136706312988
 20
451.8685508108855
 30
0.0
 10
247.1944908960054
 20
452.270245215699
 30
0.0
 10
247.0771417478586
 20
452.6565647509162
 30
0.0
 10
247.0669576683023
 20
452.9036397700622
 30
0.0
 10
247.0630367604774
 20
452.9987645548367
 30
0.0
  0
SPLINE
  5
162
330
1F
100
AcDbEntity
  8
0
  6
Continuous
 62
     7
370
    15
100
AcDbSpline
210
0.0
220
0.0
230
1.0
 70
     8
 71
     3
 72
    15
 73
    11
 74
     0
 42
0.00000001
 43
0.00000001
 40
0.0
 40
0.0
 40
0.0
 40
0.0
 40
0.1249272773955475
 40
0.2499156548456479
 40
0.3749667937671986
 40
0.4999572819099412
 40
0.6249200874788893
 40
0.7499166956281047
 40
0.8748745008613593
 40
1.0
 40
1.0
 40
1.0
 40
1.0
 10
250.081326564936
 20
473.9292782944226
 30
0.0
 10
249.7149503483864
 20
473.9726087627644
 30
0.0
 10
248.9820187261838
 20
474.0592908917289
 30
0.0
 10
247.877988072573
 20
473.8941236424267
 30
0.0
 10
246.8372004393847
 20
473.5051672736809
 30
0.0
 10
245.9019982463719
 20
472.9001744633991
 30
0.0
 10
245.1213663101701
 20
472.1039696667298
 30
0.0
 10
244.5333878956818
 20
471.1596171792354
 30
0.0
 10
244.1375696020909
 20
470.1111670982261
 30
0.0
 10
244.07950557952
 20
469.3720470042721
 30
0.0
 10
244.050454100756
 20
469.0022391479993
 30
0.0
  0
SPLINE
  5
163
330
1F
100
AcDbEntity
  8
0
  6
Continuous
 62
     7
370
    15
100
AcDbSpline
210
0.0
220
0.0
230
1.0
 70
     8
 71
     3
 72
    15
 73
    11
 74
     0
 42
0.00000001
 43
0.00000001
 40
0.0
 40
0.0
 40
0.0
 40
0.0
 40
0.1242510229729375
 40
0.2486328359840116
 40
0.3735415682951852
 40
0.4985819219384404
 40
0.6236646078267593
 40
0.7490700537809706
 40
0.8744362964630042
 40
1.0
 40
1.0
 40
1.0
 40
1.0
 10
247.0504452792686
 20
469.0022391479993
 30
0.0
 10
247.0640095819364
 20
469.1541919462071
 30
0.0
 10
247.0911524654293
 20
469.4582574923102
 30
0.0
 10
247.265602550511
 20
469.8855750922767
 30
0.0
 10
247.51893717024
 20
470.2672175196194
 30
0.0
 10
247.8487562804862
 20
470.5871512563977
 30
0.0
 10
248.239684231873
 20
470.8277267255141
 30
0.0
 10
248.6723841341436
 20
470.9793352475555
 30
0.0
 10
249.1299154304652
 20
471.0327981318682
 30
0.0
 10
249.4318342987489
 20
470.9921136659203
 30
0.0
 10
249.5829125253242
 20
470.9717554253125
 30
0.0
  0
LINE
  5
164
330
1F
100
AcDbEntity
  8
0
  6
Continuous
 62
     7
370
    15
100
AcDbLine
 10
264.9535050003
 20
453.6138993901
 30
0.0
 11
249.4125475494
 21
450.9974790019
 31
0.0
  0
LINE
  5
165
330
1F
100
AcDbEntity
  8
0
  6
Continuous
 62
     7
370
    15
100
AcDbLine
 10
249.9106039611
 20
448.0391216677
 30
0.0
 11
265.4515763132
 21
450.6555271548
 31
0.0
  0
LINE
  5
166
330
1F
100
AcDbEntity
  8
0
  6
Continuous
 62
     7
370
    15
100
AcDbLine
 10
249.5831211416
 20
470.9713232916
 30
0.0
 11
265.1240934936
 21
468.3549029034
 31
0.0
  0
LINE
  5
167
330
1F
100
AcDbEntity
  8
0
  6
Continuous
 62
     7
370
    15
100
AcDbLine
 10
265.6221499054
 20
471.3132751387
 30
0.0
 11
250.0811924545
 21
473.9296955269
 31
0.0
  0
SPLINE
  5
168
330
1F
100
AcDbEntity
  8
0
  6
Continuous
 62
     7
370
    15
100
AcDbSpline
210
0.0
220
0.0
230
1.0
 70
     8
 71
     3
 72
    12
 73
     8
 74
     0
 42
0.00000001
 43
0.00000001
 40
0.0
 40
0.0
 40
0.0
 40
0.0
 40
0.1526135397173891
 40
0.2973904856902686
 40
0.5623705157137553
 40
0.7966016097880517
 40
1.0
 40
1.0
 40
1.0
 40
1.0
 10
265.4512186852973
 20
450.6558400791669
 30
0.0
 10
265.7024384348252
 20
450.7085777962608
 30
0.0
 10
266.1919779833178
 20
450.8113451872131
 30
0.0
 10
267.0414985950621
 20
451.2405979704237
 30
0.0
 10
267.8534883368403
 20
451.9849921453114
 30
0.0
 10
268.4179383912224
 20
453.056030862365
 30
0.0
 10
268.4996257925728
 20
453.7909593504444
 30
0.0
 10
268.5375918952506
 20
454.1325343054318
 30
0.0
  0
SPLINE
  5
169
330
1F
100
AcDbEntity
  8
0
  6
Continuous
 62
     7
370
    15
100
AcDbSpline
210
0.0
220
0.0
230
1.0
 70
     8
 71
     3
 72
    11
 73
     7
 74
     0
 42
0.00000001
 43
0.00000001
 40
0.0
 40
0.0
 40
0.0
 40
0.0
 40
0.2003633530022297
 40
0.4328044256764416
 40
0.6990221939103936
 40
1.0
 40
1.0
 40
1.0
 40
1.0
 10
265.5392696467918
 20
454.1325343054318
 30
0.0
 10
265.5260429883463
 20
454.0761059577083
 30
0.0
 10
265.4974721133518
 20
453.9542152114095
 30
0.0
 10
265.3815774946913
 20
453.7885148346366
 30
0.0
 10
265.1968440662959
 20
453.6496007170296
 30
0.0
 10
265.0392188337106
 20
453.6262081571904
 30
0.0
 10
264.9555762616675
 20
453.6137950819516
 30
0.0
  0
SPLINE
  5
16A
330
1F
100
AcDbEntity
  8
0
  6
Continuous
 62
     7
370
    15
100
AcDbSpline
210
0.0
220
0.0
230
1.0
 70
     8
 71
     3
 72
    12
 73
     8
 74
     0
 42
0.00000001
 43
0.00000001
 40
0.0
 40
0.0
 40
0.0
 40
0.0
 40
0.20340791682587
 40
0.4376401915798406
 40
0.7026163496154697
 40
0.8473901516791367
 40
1.0
 40
1.0
 40
1.0
 40
1.0
 10
268.5375918952507
 20
467.6911604803586
 30
0.0
 10
268.5161511650613
 20
468.0341710387684
 30
0.0
 10
268.4700205846291
 20
468.7721718444345
 30
0.0
 10
267.9579218454903
 20
469.8692814511809
 30
0.0
 10
267.182720566573
 20
470.6520434817131
 30
0.0
 10
266.3548666179913
 20
471.1217618179485
 30
0.0
 10
265.8708782522751
 20
471.2480204380776
 30
0.0
 10
265.6225075332206
 20
471.3128132027173
 30
0.0
  0
SPLINE
  5
16B
330
1F
100
AcDbEntity
  8
0
  6
Continuous
 62
     7
370
    15
100
AcDbSpline
210
0.0
220
0.0
230
1.0
 70
     8
 71
     3
 72
    12
 73
     8
 74
     0
 42
0.00000001
 43
0.00000001
 40
0.0
 40
0.0
 40
0.0
 40
0.0
 40
0.1555606298326515
 40
0.3022104918759382
 40
0.5679679576816538
 40
0.7999533683161958
 40
0.9999999999999999
 40
0.9999999999999999
 40
0.9999999999999999
 40
0.9999999999999999
 10
265.1221712438148
 20
468.3558267754102
 30
0.0
 10
265.1627184461851
 20
468.3400767325278
 30
0.0
 10
265.2414902407305
 20
468.3094788350289
 30
0.0
 10
265.3711170400724
 20
468.2144417934426
 30
0.0
 10
265.4855586858553
 20
468.0682620012079
 30
0.0
 10
265.549686161158
 20
467.8740095674899
 30
0.0
 10
265.5425663702829
 20
467.7490304030305
 30
0.0
 10
265.5392696467918
 20
467.6911604803586
 30
0.0
  0
LINE
  5
16C
330
1F
100
AcDbEntity
  8
0
  6
Continuous
 62
     7
370
    15
100
AcDbLine
 10
265.5384351818
 20
467.7411538762
 30
0.0
 11
265.5384351818
 21
467.498756687
 31
0.0
  0
LINE
  5
16D
330
1F
100
AcDbEntity
  8
0
  6
Continuous
 62
     7
370
    15
100
AcDbLine
 10
265.5384351818
 20
454.4987601441
 30
0.0
 11
265.5384351818
 21
454.0825260085
 31
0.0
  0
LINE
  5
16E
330
1F
100
AcDbEntity
  8
0
  6
Continuous
 62
     7
370
    15
100
AcDbLine
 10
268.5384263603
 20
454.0825260085
 30
0.0
 11
268.5384263603
 21
454.5015019578
 31
0.0
  0
LINE
  5
16F
330
1F
100
AcDbEntity
  8
0
  6
Continuous
 62
     7
370
    15
100
AcDbLine
 10
268.5384263603
 20
467.4960148734
 30
0.0
 11
268.5384263603
 21
467.7411538762
 31
0.0
  0
LINE
  5
170
330
1F
100
AcDbEntity
  8
0
  6
Continuous
 62
     7
370
    15
100
AcDbLine
 10
254.8377176134
 20
466.5987563532
 30
0.0
 11
253.2194366066
 21
466.5987563532
 31
0.0
  0
LINE
  5
171
330
1F
100
AcDbEntity
  8
0
  6
Continuous
 62
     7
370
    15
100
AcDbLine
 10
253.8463582603
 20
465.7987577122
 30
0.0
 11
254.8377176134
 21
465.7987577122
 31
0.0
  0
LINE
  5
172
330
1F
100
AcDbEntity
  8
0
  6
Continuous
 62
     7
370
    15
100
AcDbLine
 10
255.1759441701
 20
467.8669047755
 30
0.0
 11
254.909422001
 21
466.6586590212
 31
0.0
  0
LINE
  5
173
330
1F
100
AcDbEntity
  8
0
  6
Continuous
 62
     7
370
    15
100
AcDbLine
 10
255.6775768606
 20
466.4271098774
 30
0.0
 11
255.9571524469
 21
467.6945728463
 31
0.0
  0
SPLINE
  5
174
330
1F
100
AcDbEntity
  8
0
  6
Continuous
 62
     7
370
    15
100
AcDbSpline
210
0.0
220
0.0
230
1.0
 70
     8
 71
     3
 72
    11
 73
     7
 74
     0
 42
0.00000001
 43
0.00000001
 40
0.0
 40
0.0
 40
0.0
 40
0.0
 40
0.2541322396080093
 40
0.5022676065307782
 40
0.7495073204938133
 40
1.0
 40
1.0
 40
1.0
 40
1.0
 10
254.8377176133674
 20
465.7987577122235
 30
0.0
 10
254.937806069381
 20
465.8090088306157
 30
0.0
 10
255.1356211491239
 20
465.8292691671517
 30
0.0
 10
255.3937678151674
 20
465.9832911560271
 30
0.0
 10
255.5972231056681
 20
466.2023627375068
 30
0.0
 10
255.658952775784
 20
466.3894170609121
 30
0.0
 10
255.6900193301719
 20
466.483555476048
 30
0.0
  0
LINE
  5
175
330
1F
100
AcDbEntity
  8
0
  6
Continuous
 62
     7
370
    15
100
AcDbLine
 10
254.4494380561
 20
452.9987645548
 30
0.0
 11
254.4494380561
 21
453.7987631959
 31
0.0
  0
LINE
  5
176
330
1F
100
AcDbEntity
  8
0
  6
Continuous
 62
     7
370
    15
100
AcDbLine
 10
254.4494380561
 20
468.1987685364
 30
0.0
 11
254.4494380561
 21
468.9987671774
 31
0.0
  0
LINE
  5
177
330
1F
100
AcDbEntity
  8
0
  6
Continuous
 62
     7
370
    15
100
AcDbLine
 10
249.5194484798
 20
469.2987573546
 30
0.0
 11
249.5194484798
 21
468.9987671774
 31
0.0
  0
LINE
  5
178
330
1F
100
AcDbEntity
  8
0
  6
Continuous
 62
     7
370
    15
100
AcDbLine
 10
253.919448456
 20
468.9987671774
 30
0.0
 11
253.919448456
 21
469.2987573546
 31
0.0
  0
ARC
  5
179
330
1F
100
AcDbEntity
  8
0
  6
Continuous
 62
     7
370
    15
100
AcDbCircle
 10
251.719441189
 20
466.1916206248
 30
0.0
 40
3.807142857143322
100
AcDbArc
 50
54.6997515601
 51
125.3002484399
  0
LINE
  5
17A
330
1F
100
AcDbEntity
  8
0
  6
Continuous
 62
     7
370
    15
100
AcDbLine
 10
249.6194352714
 20
452.5987577837
 30
0.0
 11
249.6194352714
 21
452.1987659138
 31
0.0
  0
LINE
  5
17B
330
1F
100
AcDbEntity
  8
0
  6
Continuous
 62
     7
370
    15
100
AcDbLine
 10
253.8194467632
 20
452.1987659138
 30
0.0
 11
253.8194467632
 21
452.5987577837
 31
0.0
  0
ARC
  5
17C
330
1F
100
AcDbEntity
  8
0
  6
Continuous
 62
     7
370
    15
100
AcDbCircle
 10
249.819441189
 20
452.998763482
 30
0.0
 40
0.4000000000008015
100
AcDbArc
 50
270.0
 51
0.0
  0
ARC
  5
17D
330
1F
100
AcDbEntity
  8
0
  6
Continuous
 62
     7
370
    15
100
AcDbCircle
 10
253.619441189
 20
452.998763482
 30
0.0
 40
0.4000000000008015
100
AcDbArc
 50
180.0
 51
270.0
  0
LINE
  5
17E
330
1F
100
AcDbEntity
  8
0
  6
Continuous
 62
     7
370
    15
100
AcDbLine
 10
250.219445428
 20
468.1987685364
 30
0.0
 11
250.219445428
 21
467.7487683695
 31
0.0
  0
LINE
  5
17F
330
1F
100
AcDbEntity
  8
0
  6
Continuous
 62
     7
370
    15
100
AcDbLine
 10
250.219445428
 20
466.748766343
 30
0.0
 11
250.219445428
 21
466.2600529593
 31
0.0
  0
LINE
  5
180
330
1F
100
AcDbEntity
  8
0
  6
Continuous
 62
     7
370
    15
100
AcDbLine
 10
250.219445428
 20
465.4639435214
 30
0.0
 11
250.219445428
 21
465.308241288
 31
0.0
  0
LINE
  5
181
330
1F
100
AcDbEntity
  8
0
  6
Continuous
 62
     7
370
    15
100
AcDbLine
 10
250.219445428
 20
456.0091418427
 30
0.0
 11
250.219445428
 21
455.2487653893
 31
0.0
  0
LINE
  5
182
330
1F
100
AcDbEntity
  8
0
  6
Continuous
 62
     7
370
    15
100
AcDbLine
 10
250.219445428
 20
454.2487633627
 30
0.0
 11
250.219445428
 21
453.7987631959
 31
0.0
  0
LINE
  5
183
330
1F
100
AcDbEntity
  8
0
  6
Continuous
 62
     7
370
    15
100
AcDbLine
 10
253.2194366066
 20
453.7987631959
 30
0.0
 11
253.2194366066
 21
454.2487633627
 31
0.0
  0
LINE
  5
184
330
1F
100
AcDbEntity
  8
0
  6
Continuous
 62
     7
370
    15
100
AcDbLine
 10
253.2194366066
 20
455.2487653893
 30
0.0
 11
253.2194366066
 21
455.7358992499
 31
0.0
  0
LINE
  5
185
330
1F
100
AcDbEntity
  8
0
  6
Continuous
 62
     7
370
    15
100
AcDbLine
 10
253.2194366066
 20
465.0438201827
 30
0.0
 11
253.2194366066
 21
465.2317685288
 31
0.0
  0
LINE
  5
186
330
1F
100
AcDbEntity
  8
0
  6
Continuous
 62
     7
370
    15
100
AcDbLine
 10
253.2194366066
 20
465.9868401688
 30
0.0
 11
253.2194366066
 21
466.748766343
 31
0.0
  0
LINE
  5
187
330
1F
100
AcDbEntity
  8
0
  6
Continuous
 62
     7
370
    15
100
AcDbLine
 10
253.2194366066
 20
467.7487683695
 30
0.0
 11
253.2194366066
 21
468.1987685364
 31
0.0
  0
SPLINE
  5
188
330
1F
100
AcDbEntity
  8
0
  6
Continuous
 62
     7
370
    15
100
AcDbSpline
210
0.0
220
0.0
230
1.0
 70
     8
 71
     3
 72
    15
 73
    11
 74
     0
 42
0.00000001
 43
0.00000001
 40
0.0
 40
0.0
 40
0.0
 40
0.0
 40
0.1355968776699562
 40
0.2953259741877942
 40
0.403811035414547
 40
0.5319581158885225
 40
0.6738366035801229
 40
0.8261055497331444
 40
0.9126193164003756
 40
1.0
 40
1.0
 40
1.0
 40
1.0
 10
253.2194366065543
 20
85.56481424985168
 30
0.0
 10
253.2638188311541
 20
85.55748760802506
 30
0.0
 10
253.3604819987858
 20
85.54153039962789
 30
0.0
 10
253.5673325238165
 20
85.58920723472166
 30
0.0
 10
253.7605891079647
 20
85.67692147710565
 30
0.0
 10
253.9071771200589
 20
85.79659100990544
 30
0.0
 10
254.0058849304922
 20
85.94749325523875
 30
0.0
 10
254.0355411893264
 20
86.06934582236612
 30
0.0
 10
254.0143699206191
 20
86.19857494238356
 30
0.0
 10
253.9681133991373
 20
86.2652515419208
 30
0.0
 10
253.9448698369544
 20
86.29875604329345
 30
0.0
  0
SPLINE
  5
189
330
1F
100
AcDbEntity
  8
0
  6
Continuous
 62
     7
370
    15
100
AcDbSpline
210
0.0
220
0.0
230
1.0
 70
     8
 71
     3
 72
    20
 73
    16
 74
     0
 42
0.00000001
 43
0.00000001
 40
0.0
 40
0.0
 40
0.0
 40
0.0
 40
0.0607080733617801
 40
0.2265356860999659
 40
0.3908031702683526
 40
0.4705945050111417
 40
0.5476204531806254
 40
0.62285746676219
 40
0.7003373045985339
 40
0.778647399668242
 40
0.8566576561068441
 40
0.9330984830502176
 40
0.970373435824492
 40
0.9892322541317109
 40
1.0
 40
1.0
 40
1.0
 40
1.0
 10
249.4832386580985
 20
86.29875604329345
 30
0.0
 10
249.5295135265001
 20
86.24542459760166
 30
0.0
 10
249.7021908737135
 20
86.04641522419404
 30
0.0
 10
250.119149297649
 20
86.02848836962396
 30
0.0
 10
250.6841182835136
 20
85.95346310636515
 30
0.0
 10
251.2037285995688
 20
85.91052542325406
 30
0.0
 10
251.5976196767905
 20
85.87996478003532
 30
0.0
 10
251.9905315094002
 20
85.85229303105507
 30
0.0
 10
252.3716928610366
 20
85.82098343287761
 30
0.0
 10
252.7274169631532
 20
85.78850472602606
 30
0.0
 10
253.030039450506
 20
85.75768940480296
 30
0.0
 10
253.2225576017391
 20
85.7347945873789
 30
0.0
 10
253.3106719342528
 20
85.7267554502519
 30
0.0
 10
253.3560992078864
 20
85.71896313555072
 30
0.0
 10
253.3555497850116
 20
85.72292210072204
 30
0.0
 10
253.3553500978034
 20
85.7243609827542
 30
0.0
  0
SPLINE
  5
18A
330
1F
100
AcDbEntity
  8
0
  6
Continuous
 62
     7
370
    15
100
AcDbSpline
210
0.0
220
0.0
230
1.0
 70
     8
 71
     3
 72
    18
 73
    14
 74
     0
 42
0.00000001
 43
0.00000001
 40
0.0
 40
0.0
 40
0.0
 40
0.0
 40
0.0449172813486616
 40
0.1504742766166284
 40
0.2683937805366198
 40
0.3845465766708667
 40
0.4963597496300843
 40
0.6034746663055388
 40
0.7163658596096396
 40
0.8333376622727834
 40
0.8935121715595931
 40
0.9536976435551273
 40
1.0
 40
1.0
 40
1.0
 40
1.0
 10
253.825690349726
 20
94.88343421635864
 30
0.0
 10
253.7883825501503
 20
94.90924618243538
 30
0.0
 10
253.6634002719547
 20
94.99571706417257
 30
0.0
 10
253.4067849727884
 20
95.01851725006505
 30
0.0
 10
253.0139550818071
 20
95.07205559800805
 30
0.0
 10
252.5024658432707
 20
95.1191310507202
 30
0.0
 10
251.9513347057841
 20
95.16490614047163
 30
0.0
 10
251.3892440820846
 20
95.20388619062395
 30
0.0
 10
250.8549542344823
 20
95.24861089836797
 30
0.0
 10
250.4573368336516
 20
95.28965869273426
 30
0.0
 10
250.2425863144298
 20
95.31080669025502
 30
0.0
 10
250.1465426475441
 20
95.31307568197023
 30
0.0
 10
250.1310935133427
 20
95.29701200567442
 30
0.0
 10
250.124376019625
 20
95.29002730069396
 30
0.0
  0
SPLINE
  5
18B
330
1F
100
AcDbEntity
  8
0
  6
Continuous
 62
     7
370
    15
100
AcDbSpline
210
0.0
220
0.0
230
1.0
 70
     8
 71
     3
 72
    12
 73
     8
 74
     0
 42
0.00000001
 43
0.00000001
 40
0.0
 40
0.0
 40
0.0
 40
0.0
 40
0.2236875025367031
 40
0.4523163059241643
 40
0.6822426646133385
 40
0.9102241826887856
 40
0.9999999999999999
 40
0.9999999999999999
 40
0.9999999999999999
 40
0.9999999999999999
 10
249.4251390306037
 20
96.10062066731689
 30
0.0
 10
249.4124054027582
 20
96.05807266700009
 30
0.0
 10
249.386656858728
 20
95.97203677268529
 30
0.0
 10
249.5077831582304
 20
95.88040890865818
 30
0.0
 10
249.7394582831665
 20
95.78411787230156
 30
0.0
 10
249.984316227373
 20
95.72161268369736
 30
0.0
 10
250.1676486207784
 20
95.72683866193282
 30
0.0
 10
250.2194454280418
 20
95.7283151548886
 30
0.0
  0
SPLINE
  5
18C
330
1F
100
AcDbEntity
  8
0
  6
Continuous
 62
     7
370
    15
100
AcDbSpline
210
0.0
220
0.0
230
1.0
 70
     8
 71
     3
 72
    19
 73
    15
 74
     0
 42
0.00000001
 43
0.00000001
 40
0.0
 40
0.0
 40
0.0
 40
0.0
 40
0.0979057262921821
 40
0.1753773141996929
 40
0.2884833278984972
 40
0.3734529959417294
 40
0.4570037918389475
 40
0.6168875195762131
 40
0.679667561760423
 40
0.763425919897083
 40
0.8137554230084055
 40
0.8702990958819301
 40
0.9324008200729866
 40
1.0
 40
1.0
 40
1.0
 40
1.0
 10
249.6013750640434
 20
95.60548488316772
 30
0.0
 10
249.6518829406326
 20
95.5791102017693
 30
0.0
 10
249.7423570740427
 20
95.53186556183144
 30
0.0
 10
250.1170175916261
 20
95.47121256025518
 30
0.0
 10
250.6035041980513
 20
95.41733138471612
 30
0.0
 10
251.1948471105766
 20
95.36408016903866
 30
0.0
 10
251.9489432706395
 20
95.3125382796989
 30
0.0
 10
252.5900520582441
 20
95.24559723173829
 30
0.0
 10
253.2393079628535
 20
95.21007934663331
 30
0.0
 10
253.6176530338839
 20
95.28826194871905
 30
0.0
 10
253.8694962203453
 20
95.39646555136552
 30
0.0
 10
254.0030849909662
 20
95.4848081768788
 30
0.0
 10
254.0648602813494
 20
95.55864522652519
 30
0.0
 10
253.9934160425614
 20
95.63915964210834
 30
0.0
 10
253.9561798183005
 20
95.68112317738769
 30
0.0
  0
SPLINE
  5
18D
330
1F
100
AcDbEntity
  8
0
  6
Continuous
 62
     7
370
    15
100
AcDbSpline
210
0.0
220
0.0
230
1.0
 70
     8
 71
     3
 72
    25
 73
    21
 74
     0
 42
0.00000001
 43
0.00000001
 40
0.0
 40
0.0
 40
0.0
 40
0.0
 40
0.0176277386458924
 40
0.0344974443906976
 40
0.0503153341406637
 40
0.0649737082675127
 40
0.0909457507956364
 40
0.1134370502499708
 40
0.1538398237890529
 40
0.1912346414901368
 40
0.2995706765179207
 40
0.3999632258328576
 40
0.5012952724115781
 40
0.594905506633602
 40
0.6784867138874268
 40
0.7336287076284611
 40
0.8075184721570575
 40
0.8952815387423068
 40
0.9453088702930883
 40
1.0
 40
1.0
 40
1.0
 40
1.0
 10
253.5988648740333
 20
95.05554262814758
 30
0.0
 10
253.6385747910487
 20
95.05993139359309
 30
0.0
 10
253.7162870082261
 20
95.06852019757645
 30
0.0
 10
253.818173570169
 20
95.11454363228734
 30
0.0
 10
253.899178091168
 20
95.17348618822632
 30
0.0
 10
253.9753865665082
 20
95.25708681211528
 30
0.0
 10
254.0284269407852
 20
95.36071835968201
 30
0.0
 10
254.0526094947104
 20
95.49305944709432
 30
0.0
 10
254.029698509256
 20
95.62491111356256
 30
0.0
 10
253.8584736450765
 20
95.87014500006977
 30
0.0
 10
253.515677637604
 20
95.95720411016323
 30
0.0
 10
253.0205668169637
 20
96.01576747856016
 30
0.0
 10
252.4073553258403
 20
96.0741311436549
 30
0.0
 10
251.7578834231365
 20
96.12375747787341
 30
0.0
 10
251.2181904973195
 20
96.16322139269012
 30
0.0
 10
250.7721652693575
 20
96.20240304573069
 30
0.0
 10
250.3834761681273
 20
96.24062234791569
 30
0.0
 10
250.1233009177989
 20
96.26848656703072
 30
0.0
 10
249.9928689942005
 20
96.29096874550468
 30
0.0
 10
249.9842087271382
 20
96.30342944869547
 30
0.0
 10
249.9796857444328
 20
96.30993727860684
 30
0.0
  0
SPLINE
  5
18E
330
1F
100
AcDbEntity
  8
0
  6
Continuous
 62
     7
370
    15
100
AcDbSpline
210
0.0
220
0.0
230
1.0
 70
     8
 71
     3
 72
    12
 73
     8
 74
     0
 42
0.00000001
 43
0.00000001
 40
0.0
 40
0.0
 40
0.0
 40
0.0
 40
0.1756414369177539
 40
0.5723036229260589
 40
0.7586198355200895
 40
0.920742030368776
 40
0.9999999999999999
 40
0.9999999999999999
 40
0.9999999999999999
 40
0.9999999999999999
 10
250.0680049268287
 20
95.4914611977124
 30
0.0
 10
250.002447648848
 20
95.48228428105773
 30
0.0
 10
249.7888382161542
 20
95.4523825520528
 30
0.0
 10
249.5728828255259
 20
95.37847079510209
 30
0.0
 10
249.4117663569143
 20
95.16353687286922
 30
0.0
 10
249.3805361524567
 20
95.00331440858514
 30
0.0
 10
249.4115112019818
 20
94.92465514376904
 30
0.0
 10
249.4216819612068
 20
94.89882711587188
 30
0.0
  0
SPLINE
  5
18F
330
1F
100
AcDbEntity
  8
0
  6
Continuous
 62
     7
370
    15
100
AcDbSpline
210
0.0
220
0.0
230
1.0
 70
     8
 71
     3
 72
    11
 73
     7
 74
     0
 42
0.00000001
 43
0.00000001
 40
0.0
 40
0.0
 40
0.0
 40
0.0
 40
0.3513299898137984
 40
0.6842942743841863
 40
0.994903778500013
 40
0.9999999999999999
 40
0.9999999999999999
 40
0.9999999999999999
 40
0.9999999999999999
 10
253.6439557878059
 20
95.086015502789
 30
0.0
 10
253.6846541207753
 20
95.08770483527948
 30
0.0
 10
253.7639232894641
 20
95.09099519074097
 30
0.0
 10
253.8565177547721
 20
95.13776881373853
 30
0.0
 10
253.9078876880301
 20
95.17810473956631
 30
0.0
 10
253.9207459117316
 20
95.20120117784839
 30
0.0
 10
253.9209534732383
 20
95.20157400784728
 30
0.0
  0
LINE
  5
190
330
1F
100
AcDbEntity
  8
0
  6
Continuous
 62
     7
370
    15
100
AcDbLine
 10
249.5792021362
 20
86.201019327
 30
0.0
 11
248.4607358781
 21
86.201019327
 31
0.0
  0
LINE
  5
191
330
1F
100
AcDbEntity
  8
0
  6
Continuous
 62
     7
370
    15
100
AcDbLine
 10
248.4607358781
 20
85.401020686
 30
0.0
 11
250.219445428
 21
85.401020686
 31
0.0
  0
LINE
  5
192
330
1F
100
AcDbEntity
  8
0
  6
Continuous
 62
     7
370
    15
100
AcDbLine
 10
247.0504452793
 20
98.9987624091
 30
0.0
 11
247.0504452793
 21
99.0522277754
 31
0.0
  0
LINE
  5
193
330
1F
100
AcDbEntity
  8
0
  6
Continuous
 62
     7
370
    15
100
AcDbLine
 10
244.0504541008
 20
99.0522277754
 30
0.0
 11
244.0504541008
 21
98.9987624091
 31
0.0
  0
SPLINE
  5
194
330
1F
100
AcDbEntity
  8
0
  6
Continuous
 62
     7
370
    15
100
AcDbSpline
210
0.0
220
0.0
230
1.0
 70
     8
 71
     3
 72
    15
 73
    11
 74
     0
 42
0.00000001
 43
0.00000001
 40
0.0
 40
0.0
 40
0.0
 40
0.0
 40
0.1077555984635169
 40
0.23525132098926
 40
0.3627905294629136
 40
0.4902569079919491
 40
0.6176632052480955
 40
0.745097043409137
 40
0.8724966518631685
 40
1.0
 40
1.0
 40
1.0
 40
1.0
 10
244.0665026513618
 20
82.99875978646514
 30
0.0
 10
244.0830417799829
 20
82.68623754159188
 30
0.0
 10
244.1191498979055
 20
82.00394101135758
 30
0.0
 10
244.4553625926934
 20
80.99479311834934
 30
0.0
 10
245.0134421202901
 20
80.03131439364799
 30
0.0
 10
245.7682673696752
 20
79.21038689920954
 30
0.0
 10
246.683431469486
 20
78.57512145256327
 30
0.0
 10
247.7106869267165
 20
78.15496060114575
 30
0.0
 10
248.8066645754011
 20
77.94115957055104
 30
0.0
 10
249.542425012252
 20
78.00668405189923
 30
0.0
 10
249.9104549495262
 20
78.03945962605712
 30
0.0
  0
SPLINE
  5
195
330
1F
100
AcDbEntity
  8
0
  6
Continuous
 62
     7
370
    15
100
AcDbSpline
210
0.0
220
0.0
230
1.0
 70
     8
 71
     3
 72
    15
 73
    11
 74
     0
 42
0.00000001
 43
0.00000001
 40
0.0
 40
0.0
 40
0.0
 40
0.0
 40
0.1316521354348152
 40
0.2633118201212764
 40
0.3951917953559327
 40
0.526671388426647
 40
0.65754729503632
 40
0.7882158253461952
 40
0.9184607471072531
 40
1.0
 40
1.0
 40
1.0
 40
1.0
 10
249.4127710668128
 20
80.99714640794036
 30
0.0
 10
249.2605879045052
 20
80.9853312220549
 30
0.0
 10
248.9562128533397
 20
80.96170017277251
 30
0.0
 10
248.5053421051132
 20
81.06317521856326
 30
0.0
 10
248.0863175931616
 20
81.25004088430043
 30
0.0
 10
247.7159185771146
 20
81.52262832738292
 30
0.0
 10
247.4136662728995
 20
81.86854939588392
 30
0.0
 10
247.1944979646083
 20
82.27024839816293
 30
0.0
 10
247.0771402042552
 20
82.65656430950207
 30
0.0
 10
247.0669572937893
 20
82.90363488025415
 30
0.0
 10
247.0630367604774
 20
82.99875978646514
 30
0.0
  0
SPLINE
  5
196
330
1F
100
AcDbEntity
  8
0
  6
Continuous
 62
     7
370
    15
100
AcDbSpline
210
0.0
220
0.0
230
1.0
 70
     8
 71
     3
 72
    15
 73
    11
 74
     0
 42
0.00000001
 43
0.00000001
 40
0.0
 40
0.0
 40
0.0
 40
0.0
 40
0.1249272078069247
 40
0.2499157485592948
 40
0.3749662286529669
 40
0.4999575604502636
 40
0.6249202964107985
 40
0.7499168349327715
 40
0.8748745705603984
 40
1.0
 40
1.0
 40
1.0
 40
1.0
 10
250.081326564936
 20
103.9292884272122
 30
0.0
 10
249.714949920852
 20
103.9726210012132
 30
0.0
 10
248.9820167602678
 20
104.059307423319
 30
0.0
 10
247.8779935695669
 20
103.8941084460308
 30
0.0
 10
246.8371920186327
 20
103.5051854984781
 30
0.0
 10
245.9020032798674
 20
102.9001659485812
 30
0.0
 10
245.1213654710419
 20
102.1039664216601
 30
0.0
 10
244.5333881193873
 20
101.1596120047626
 30
0.0
 10
244.1375695460842
 20
100.1111624315256
 30
0.0
 10
244.0795055608428
 20
99.37204226980597
 30
0.0
 10
244.050454100756
 20
99.00223437962768
 30
0.0
  0
SPLINE
  5
197
330
1F
100
AcDbEntity
  8
0
  6
Continuous
 62
     7
370
    15
100
AcDbSpline
210
0.0
220
0.0
230
1.0
 70
     8
 71
     3
 72
    15
 73
    11
 74
     0
 42
0.00000001
 43
0.00000001
 40
0.0
 40
0.0
 40
0.0
 40
0.0
 40
0.1242547936411233
 40
0.248632597602545
 40
0.373541087961196
 40
0.4985811993969735
 40
0.6236636429958158
 40
0.7490701704186972
 40
0.8744361702619948
 40
1.0
 40
1.0
 40
1.0
 40
1.0
 10
247.0504452792686
 20
99.00223437962768
 30
0.0
 10
247.0640083676061
 20
99.15419251027585
 30
0.0
 10
247.0911479715286
 20
99.45825920776686
 30
0.0
 10
247.2656066176932
 20
99.88557365113202
 30
0.0
 10
247.5189368771576
 20
100.267212578772
 30
0.0
 10
247.8487559309039
 20
100.5871476951832
 30
0.0
 10
248.2396873045074
 20
100.8277181430819
 30
0.0
 10
248.6723808131611
 20
100.9793488792365
 30
0.0
 10
249.1299166402027
 20
101.0328110532795
 30
0.0
 10
249.4318345541991
 20
100.9921148171859
 30
0.0
 10
249.5829125253242
 20
100.9717506569409
 30
0.0
  0
LINE
  5
198
330
1F
100
AcDbEntity
  8
0
  6
Continuous
 62
     7
370
    15
100
AcDbLine
 10
264.9535050003
 20
83.6138946217
 30
0.0
 11
249.4125475494
 21
80.9974891346
 31
0.0
  0
LINE
  5
199
330
1F
100
AcDbEntity
  8
0
  6
Continuous
 62
     7
370
    15
100
AcDbLine
 10
249.9106039611
 20
78.0391168993
 30
0.0
 11
265.4515763132
 21
80.6555372876
 31
0.0
  0
LINE
  5
19A
330
1F
100
AcDbEntity
  8
0
  6
Continuous
 62
     7
370
    15
100
AcDbLine
 10
249.5831211416
 20
100.9713334244
 30
0.0
 11
265.1240934936
 21
98.3549130362
 31
0.0
  0
LINE
  5
19B
330
1F
100
AcDbEntity
  8
0
  6
Continuous
 62
     7
370
    15
100
AcDbLine
 10
265.6221499054
 20
101.3132703703
 30
0.0
 11
250.0811924545
 21
103.9296907586
 31
0.0
  0
SPLINE
  5
19C
330
1F
100
AcDbEntity
  8
0
  6
Continuous
 62
     7
370
    15
100
AcDbSpline
210
0.0
220
0.0
230
1.0
 70
     8
 71
     3
 72
    12
 73
     8
 74
     0
 42
0.00000001
 43
0.00000001
 40
0.0
 40
0.0
 40
0.0
 40
0.0
 40
0.1526143616206806
 40
0.2973900838260376
 40
0.5623702654073864
 40
0.7966014934523973
 40
1.0
 40
1.0
 40
1.0
 40
1.0
 10
265.4512186852973
 20
80.65583531079528
 30
0.0
 10
265.7024374939226
 20
80.70858047348887
 30
0.0
 10
266.1919719110138
 20
80.81136168089489
 30
0.0
 10
267.0415048844176
 20
81.2405844230906
 30
0.0
 10
267.8534869917632
 20
81.9849903584233
 30
0.0
 10
268.417938661384
 20
83.05602549515598
 30
0.0
 10
268.4996258782952
 20
83.79095439206141
 30
0.0
 10
268.5375918952506
 20
84.13252953706024
 30
0.0
  0
SPLINE
  5
19D
330
1F
100
AcDbEntity
  8
0
  6
Continuous
 62
     7
370
    15
100
AcDbSpline
210
0.0
220
0.0
230
1.0
 70
     8
 71
     3
 72
    11
 73
     7
 74
     0
 42
0.00000001
 43
0.00000001
 40
0.0
 40
0.0
 40
0.0
 40
0.0
 40
0.2003641189614822
 40
0.4328060802232906
 40
0.699024866168115
 40
0.9999999999999999
 40
0.9999999999999999
 40
0.9999999999999999
 40
0.9999999999999999
 10
265.5392696467918
 20
84.13252953706021
 30
0.0
 10
265.5260429988877
 20
84.07610114213549
 30
0.0
 10
265.4974721466635
 20
83.95421029387757
 30
0.0
 10
265.3815773264578
 20
83.78851081956748
 30
0.0
 10
265.1968457203911
 20
83.64959316072628
 30
0.0
 10
265.0392190813777
 20
83.62621210921372
 30
0.0
 10
264.9555762616675
 20
83.6138052147412
 30
0.0
  0
SPLINE
  5
19E
330
1F
100
AcDbEntity
  8
0
  6
Continuous
 62
     7
370
    15
100
AcDbSpline
210
0.0
220
0.0
230
1.0
 70
     8
 71
     3
 72
    12
 73
     8
 74
     0
 42
0.00000001
 43
0.00000001
 40
0.0
 40
0.0
 40
0.0
 40
0.0
 40
0.2034077395159399
 40
0.4376398100905015
 40
0.7026157371473919
 40
0.8473894130122702
 40
0.9999999999999999
 40
0.9999999999999999
 40
0.9999999999999999
 40
0.9999999999999999
 10
268.5375918952506
 20
97.691155711987
 30
0.0
 10
268.5161511752281
 20
98.03416630324254
 30
0.0
 10
268.47002061667
 20
98.77216717957774
 30
0.0
 10
267.9579216859752
 20
99.869276167461
 30
0.0
 10
267.1827211170565
 20
100.6520404918
 30
0.0
 10
266.354864263715
 20
101.1217543174263
 30
0.0
 10
265.8708779102701
 20
101.2480244716648
 30
0.0
 10
265.6225075332206
 20
101.3128233355069
 30
0.0
  0
SPLINE
  5
19F
330
1F
100
AcDbEntity
  8
0
  6
Continuous
 62
     7
370
    15
100
AcDbSpline
210
0.0
220
0.0
230
1.0
 70
     8
 71
     3
 72
    12
 73
     8
 74
     0
 42
0.00000001
 43
0.00000001
 40
0.0
 40
0.0
 40
0.0
 40
0.0
 40
0.1555604877376545
 40
0.3022102158253786
 40
0.5679674388781151
 40
0.7999363513240186
 40
0.9999999999999999
 40
0.9999999999999999
 40
0.9999999999999999
 40
0.9999999999999999
 10
265.1221712438148
 20
98.35582200703857
 30
0.0
 10
265.1627184353425
 20
98.34007195988825
 30
0.0
 10
265.2414902088237
 20
98.30947405409756
 30
0.0
 10
265.3711171993003
 20
98.21443708774929
 30
0.0
 10
265.4855546973039
 20
98.06826049587109
 30
0.0
 10
265.5496885677997
 20
97.87401069864445
 30
0.0
 10
265.5425673209746
 20
97.74903081903913
 30
0.0
 10
265.5392696467918
 20
97.691155711987
 30
0.0
  0
LINE
  5
1A0
330
1F
100
AcDbEntity
  8
0
  6
Continuous
 62
     7
370
    15
100
AcDbLine
 10
265.5384351818
 20
97.741164009
 30
0.0
 11
265.5384351818
 21
97.4987668198
 31
0.0
  0
LINE
  5
1A1
330
1F
100
AcDbEntity
  8
0
  6
Continuous
 62
     7
370
    15
100
AcDbLine
 10
265.5384351818
 20
84.4987702769
 30
0.0
 11
265.5384351818
 21
84.0825212401
 31
0.0
  0
LINE
  5
1A2
330
1F
100
AcDbEntity
  8
0
  6
Continuous
 62
     7
370
    15
100
AcDbLine
 10
268.5384263603
 20
84.0825212401
 30
0.0
 11
268.5384263603
 21
84.5015120905
 31
0.0
  0
LINE
  5
1A3
330
1F
100
AcDbEntity
  8
0
  6
Continuous
 62
     7
370
    15
100
AcDbLine
 10
268.5384263603
 20
97.4960250062
 30
0.0
 11
268.5384263603
 21
97.741164009
 31
0.0
  0
LINE
  5
1A4
330
1F
100
AcDbEntity
  8
0
  6
Continuous
 62
     7
370
    15
100
AcDbLine
 10
254.8377176134
 20
96.598766486
 30
0.0
 11
253.2194366066
 21
96.598766486
 31
0.0
  0
LINE
  5
1A5
330
1F
100
AcDbEntity
  8
0
  6
Continuous
 62
     7
370
    15
100
AcDbLine
 10
253.8463582603
 20
95.798767845
 30
0.0
 11
254.8377176134
 21
95.798767845
 31
0.0
  0
LINE
  5
1A6
330
1F
100
AcDbEntity
  8
0
  6
Continuous
 62
     7
370
    15
100
AcDbLine
 10
255.1759441701
 20
97.8669000071
 30
0.0
 11
254.909422001
 21
96.6586542529
 31
0.0
  0
LINE
  5
1A7
330
1F
100
AcDbEntity
  8
0
  6
Continuous
 62
     7
370
    15
100
AcDbLine
 10
255.6775768606
 20
96.4271051091
 30
0.0
 11
255.9571524469
 21
97.6945680779
 31
0.0
  0
SPLINE
  5
1A8
330
1F
100
AcDbEntity
  8
0
  6
Continuous
 62
     7
370
    15
100
AcDbSpline
210
0.0
220
0.0
230
1.0
 70
     8
 71
     3
 72
    11
 73
     7
 74
     0
 42
0.00000001
 43
0.00000001
 40
0.0
 40
0.0
 40
0.0
 40
0.0
 40
0.2541311630691059
 40
0.5022676364033828
 40
0.7495179365131207
 40
1.0
 40
1.0
 40
1.0
 40
1.0
 10
254.8377176133674
 20
95.79876784501312
 30
0.0
 10
254.9378060466628
 20
95.80901296926544
 30
0.0
 10
255.1356219312459
 20
95.82926154594814
 30
0.0
 10
255.3937735183952
 20
95.98328718285174
 30
0.0
 10
255.5972149356675
 20
96.2023684140996
 30
0.0
 10
255.6589509152968
 20
96.38941843949011
 30
0.0
 10
255.6900193301719
 20
96.48355070767639
 30
0.0
  0
LINE
  5
1A9
330
1F
100
AcDbEntity
  8
0
  6
Continuous
 62
     7
370
    15
100
AcDbLine
 10
269.2195733396
 20
96.2987614077
 30
0.0
 11
268.2675530521
 21
96.2987614077
 31
0.0
  0
LINE
  5
1AA
330
1F
100
AcDbEntity
  8
0
  6
Continuous
 62
     7
370
    15
100
AcDbLine
 10
269.2195733396
 20
96.2987614077
 30
0.0
 11
269.2195733396
 21
85.6987607878
 31
0.0
  0
LINE
  5
1AB
330
1F
100
AcDbEntity
  8
0
  6
Continuous
 62
     7
370
    15
100
AcDbLine
 10
268.2675530521
 20
85.6987607878
 30
0.0
 11
269.2195733396
 21
85.6987607878
 31
0.0
  0
LINE
  5
1AC
330
1F
100
AcDbEntity
  8
0
  6
Continuous
 62
     7
370
    15
100
AcDbLine
 10
268.2675530521
 20
96.2987614077
 30
0.0
 11
268.2675530521
 21
85.6987607878
 31
0.0
  0
LINE
  5
1AD
330
1F
100
AcDbEntity
  8
0
  6
Continuous
 62
     7
370
    15
100
AcDbLine
 10
264.818053445
 20
97.4987668198
 30
0.0
 11
264.818053445
 21
84.4987702769
 31
0.0
  0
LINE
  5
1AE
330
1F
100
AcDbEntity
  8
0
  6
Continuous
 62
     7
370
    15
100
AcDbLine
 10
264.818053445
 20
97.4987668198
 30
0.0
 11
267.5370385257
 21
97.4987668198
 31
0.0
  0
LWPOLYLINE
  5
1AF
330
1F
100
AcDbEntity
  8
0
  6
Continuous
 62
     7
370
    15
100
AcDbPolyline
 90
        9
 70
   128
 43
0.0
 10
268.2675530521
 20
96.2987614077
 10
268.2535161583
 20
96.5328735512
 10
268.2119419185
 20
96.7579853934
 10
268.1444247572
 20
96.9654542607
 10
268.0535872785
 20
97.1472931307
 10
267.942886552
 20
97.2965282601
 10
267.8165843097
 20
97.4074227017
 10
267.6795532314
 20
97.4756998223
 10
267.5370385257
 20
97.4987668198
  0
LWPOLYLINE
  5
1B0
330
1F
100
AcDbEntity
  8
0
  6
Continuous
 62
     7
370
    15
100
AcDbPolyline
 90
        9
 70
   128
 43
0.0
 10
267.5370385257
 20
84.4987702769
 10
267.6795532314
 20
84.5218223732
 10
267.8165843097
 20
84.590114395
 10
267.942886552
 20
84.7009939354
 10
268.0535872785
 20
84.8502290648
 10
268.1444247572
 20
85.032082836
 10
268.2119419185
 20
85.2395368022
 10
268.2535161583
 20
85.4646486443
 10
268.2675530521
 20
85.6987607878
  0
LINE
  5
1B1
330
1F
100
AcDbEntity
  8
0
  6
Continuous
 62
     7
370
    15
100
AcDbLine
 10
267.5370385257
 20
84.4987702769
 30
0.0
 11
264.818053445
 21
84.4987702769
 31
0.0
  0
LINE
  5
1B2
330
1F
100
AcDbEntity
  8
0
  6
Continuous
 62
     7
370
    15
100
AcDbLine
 10
267.5370385257
 20
97.4987668198
 30
0.0
 11
268.4890588132
 21
97.4987668198
 31
0.0
  0
LWPOLYLINE
  5
1B3
330
1F
100
AcDbEntity
  8
0
  6
Continuous
 62
     7
370
    15
100
AcDbPolyline
 90
        9
 70
   128
 43
0.0
 10
268.4890588132
 20
97.4987668198
 10
268.6315735189
 20
97.4756998223
 10
268.7686045972
 20
97.4074227017
 10
268.8949068395
 20
97.2965282601
 10
269.005607566
 20
97.1472931307
 10
269.0964599458
 20
96.9654542607
 10
269.163962206
 20
96.7579853934
 10
269.2055364458
 20
96.5328735512
 10
269.2195733396
 20
96.2987614077
  0
LINE
  5
1B4
330
1F
100
AcDbEntity
  8
0
  6
Continuous
 62
     7
370
    15
100
AcDbLine
 10
268.4890588132
 20
84.4987702769
 30
0.0
 11
267.5370385257
 21
84.4987702769
 31
0.0
  0
LWPOLYLINE
  5
1B5
330
1F
100
AcDbEntity
  8
0
  6
Continuous
 62
     7
370
    15
100
AcDbPolyline
 90
        9
 70
   128
 43
0.0
 10
269.2195733396
 20
85.6987607878
 10
269.2055364458
 20
85.4646486443
 10
269.163962206
 20
85.2395368022
 10
269.0964599458
 20
85.032082836
 10
269.005607566
 20
84.8502290648
 10
268.8949068395
 20
84.7009939354
 10
268.7686045972
 20
84.590114395
 10
268.6315735189
 20
84.5218223732
 10
268.4890588132
 20
84.4987702769
  0
LINE
  5
1B6
330
1F
100
AcDbEntity
  8
0
  6
Continuous
 62
     7
370
    15
100
AcDbLine
 10
269.2195733396
 20
466.2987661761
 30
0.0
 11
268.2675530521
 21
466.2987661761
 31
0.0
  0
LINE
  5
1B7
330
1F
100
AcDbEntity
  8
0
  6
Continuous
 62
     7
370
    15
100
AcDbLine
 10
269.2195733396
 20
466.2987661761
 30
0.0
 11
269.2195733396
 21
455.6987655562
 31
0.0
  0
LINE
  5
1B8
330
1F
100
AcDbEntity
  8
0
  6
Continuous
 62
     7
370
    15
100
AcDbLine
 10
268.2675530521
 20
455.6987655562
 30
0.0
 11
269.2195733396
 21
455.6987655562
 31
0.0
  0
LINE
  5
1B9
330
1F
100
AcDbEntity
  8
0
  6
Continuous
 62
     7
370
    15
100
AcDbLine
 10
268.2675530521
 20
466.2987661761
 30
0.0
 11
268.2675530521
 21
455.6987655562
 31
0.0
  0
LINE
  5
1BA
330
1F
100
AcDbEntity
  8
0
  6
Continuous
 62
     7
370
    15
100
AcDbLine
 10
264.818053445
 20
467.498756687
 30
0.0
 11
264.818053445
 21
454.4987601441
 31
0.0
  0
LINE
  5
1BB
330
1F
100
AcDbEntity
  8
0
  6
Continuous
 62
     7
370
    15
100
AcDbLine
 10
264.818053445
 20
467.498756687
 30
0.0
 11
267.5370385257
 21
467.498756687
 31
0.0
  0
LWPOLYLINE
  5
1BC
330
1F
100
AcDbEntity
  8
0
  6
Continuous
 62
     7
370
    15
100
AcDbPolyline
 90
        9
 70
   128
 43
0.0
 10
268.2675530521
 20
466.2987661761
 10
268.2535161583
 20
466.5328783196
 10
268.2119419185
 20
466.7579901618
 10
268.1444247572
 20
466.9654441279
 10
268.0535872785
 20
467.1472978991
 10
267.942886552
 20
467.2965330285
 10
267.8165843097
 20
467.4074125689
 10
267.6795532314
 20
467.4757045907
 10
267.5370385257
 20
467.498756687
  0
LWPOLYLINE
  5
1BD
330
1F
100
AcDbEntity
  8
0
  6
Continuous
 62
     7
370
    15
100
AcDbPolyline
 90
        9
 70
   128
 43
0.0
 10
267.5370385257
 20
454.4987601441
 10
267.6795532314
 20
454.5218271416
 10
267.8165843097
 20
454.5901042622
 10
267.942886552
 20
454.7009987038
 10
268.0535872785
 20
454.8502338332
 10
268.1444247572
 20
455.0320727032
 10
268.2119419185
 20
455.2395415705
 10
268.2535161583
 20
455.4646534127
 10
268.2675530521
 20
455.6987655562
  0
LINE
  5
1BE
330
1F
100
AcDbEntity
  8
0
  6
Continuous
 62
     7
370
    15
100
AcDbLine
 10
267.5370385257
 20
454.4987601441
 30
0.0
 11
264.818053445
 21
454.4987601441
 31
0.0
  0
LINE
  5
1BF
330
1F
100
AcDbEntity
  8
0
  6
Continuous
 62
     7
370
    15
100
AcDbLine
 10
267.5370385257
 20
467.498756687
 30
0.0
 11
268.4890588132
 21
467.498756687
 31
0.0
  0
LWPOLYLINE
  5
1C0
330
1F
100
AcDbEntity
  8
0
  6
Continuous
 62
     7
370
    15
100
AcDbPolyline
 90
        9
 70
   128
 43
0.0
 10
268.4890588132
 20
467.498756687
 10
268.6315735189
 20
467.4757045907
 10
268.7686045972
 20
467.4074125689
 10
268.8949068395
 20
467.2965330285
 10
269.005607566
 20
467.1472978991
 10
269.0964599458
 20
466.9654441279
 10
269.163962206
 20
466.7579901618
 10
269.2055364458
 20
466.5328783196
 10
269.2195733396
 20
466.2987661761
  0
LINE
  5
1C1
330
1F
100
AcDbEntity
  8
0
  6
Continuous
 62
     7
370
    15
100
AcDbLine
 10
268.4890588132
 20
454.4987601441
 30
0.0
 11
267.5370385257
 21
454.4987601441
 31
0.0
  0
LWPOLYLINE
  5
1C2
330
1F
100
AcDbEntity
  8
0
  6
Continuous
 62
     7
370
    15
100
AcDbPolyline
 90
        9
 70
   128
 43
0.0
 10
269.2195733396
 20
455.6987655562
 10
269.2055364458
 20
455.4646534127
 10
269.163962206
 20
455.2395415705
 10
269.0964599458
 20
455.0320727032
 10
269.005607566
 20
454.8502338332
 10
268.8949068395
 20
454.7009987038
 10
268.7686045972
 20
454.5901042622
 10
268.6315735189
 20
454.5218271416
 10
268.4890588132
 20
454.4987601441
  0
LINE
  5
1C3
330
1F
100
AcDbEntity
  8
0
  6
Continuous
 62
     7
370
    15
100
AcDbLine
 10
264.2394413559
 20
97.4987668198
 30
0.0
 11
264.818053445
 21
97.4987668198
 31
0.0
  0
LINE
  5
1C4
330
1F
100
AcDbEntity
  8
0
  6
Continuous
 62
     7
370
    15
100
AcDbLine
 10
264.818053445
 20
84.4987702769
 30
0.0
 11
264.2394413559
 21
84.4987702769
 31
0.0
  0
LINE
  5
1C5
330
1F
100
AcDbEntity
  8
0
  6
Continuous
 62
     7
370
    15
100
AcDbLine
 10
264.2394413559
 20
467.498756687
 30
0.0
 11
264.818053445
 21
467.498756687
 31
0.0
  0
LINE
  5
1C6
330
1F
100
AcDbEntity
  8
0
  6
Continuous
 62
     7
370
    15
100
AcDbLine
 10
264.818053445
 20
454.4987601441
 30
0.0
 11
264.2394413559
 21
454.4987601441
 31
0.0
  0
LINE
  5
1C7
330
1F
100
AcDbEntity
  8
0
  6
Continuous
 62
     7
370
    15
100
AcDbLine
 10
274.339448413
 20
84.0987635058
 30
0.0
 11
275.1394470541
 21
84.0987635058
 31
0.0
  0
LINE
  5
1C8
330
1F
100
AcDbEntity
  8
0
  6
Continuous
 62
     7
370
    15
100
AcDbLine
 10
275.1394470541
 20
84.0987635058
 30
0.0
 11
275.1394470541
 21
85.5987590951
 31
0.0
  0
LINE
  5
1C9
330
1F
100
AcDbEntity
  8
0
  6
Continuous
 62
     7
370
    15
100
AcDbLine
 10
275.1394470541
 20
85.5987590951
 30
0.0
 11
276.6394426433
 21
85.5987590951
 31
0.0
  0
LINE
  5
1CA
330
1F
100
AcDbEntity
  8
0
  6
Continuous
 62
     7
370
    15
100
AcDbLine
 10
276.6394426433
 20
85.5987590951
 30
0.0
 11
276.6394426433
 21
86.3987577361
 31
0.0
  0
LINE
  5
1CB
330
1F
100
AcDbEntity
  8
0
  6
Continuous
 62
     7
370
    15
100
AcDbLine
 10
276.6394426433
 20
86.3987577361
 30
0.0
 11
275.1394470541
 21
86.3987577361
 31
0.0
  0
LINE
  5
1CC
330
1F
100
AcDbEntity
  8
0
  6
Continuous
 62
     7
370
    15
100
AcDbLine
 10
275.1394470541
 20
86.3987577361
 30
0.0
 11
275.1394470541
 21
87.8987682265
 31
0.0
  0
LINE
  5
1CD
330
1F
100
AcDbEntity
  8
0
  6
Continuous
 62
     7
370
    15
100
AcDbLine
 10
275.1394470541
 20
87.8987682265
 30
0.0
 11
274.339448413
 21
87.8987682265
 31
0.0
  0
LINE
  5
1CE
330
1F
100
AcDbEntity
  8
0
  6
Continuous
 62
     7
370
    15
100
AcDbLine
 10
274.339448413
 20
87.8987682265
 30
0.0
 11
274.339448413
 21
86.3987577361
 31
0.0
  0
LINE
  5
1CF
330
1F
100
AcDbEntity
  8
0
  6
Continuous
 62
     7
370
    15
100
AcDbLine
 10
274.339448413
 20
86.3987577361
 30
0.0
 11
272.8394379226
 21
86.3987577361
 31
0.0
  0
LINE
  5
1D0
330
1F
100
AcDbEntity
  8
0
  6
Continuous
 62
     7
370
    15
100
AcDbLine
 10
272.8394379226
 20
86.3987577361
 30
0.0
 11
272.8394379226
 21
85.5987590951
 31
0.0
  0
LINE
  5
1D1
330
1F
100
AcDbEntity
  8
0
  6
Continuous
 62
     7
370
    15
100
AcDbLine
 10
272.8394379226
 20
85.5987590951
 30
0.0
 11
274.339448413
 21
85.5987590951
 31
0.0
  0
LINE
  5
1D2
330
1F
100
AcDbEntity
  8
0
  6
Continuous
 62
     7
370
    15
100
AcDbLine
 10
274.339448413
 20
85.5987590951
 30
0.0
 11
274.339448413
 21
84.0987635058
 31
0.0
  0
CIRCLE
  5
1D3
330
1F
100
AcDbEntity
  8
0
  6
Continuous
 62
     7
370
    15
100
AcDbCircle
 10
274.739441189
 20
85.9987634819
 30
0.0
 40
3.0
  0
LINE
  5
1D4
330
1F
100
AcDbEntity
  8
0
  6
Continuous
 62
     7
370
    15
100
AcDbLine
 10
274.339448413
 20
96.3987631005
 30
0.0
 11
272.8394379226
 21
96.3987631005
 31
0.0
  0
LINE
  5
1D5
330
1F
100
AcDbEntity
  8
0
  6
Continuous
 62
     7
370
    15
100
AcDbLine
 10
272.8394379226
 20
95.5987644595
 30
0.0
 11
274.339448413
 21
95.5987644595
 31
0.0
  0
LINE
  5
1D6
330
1F
100
AcDbEntity
  8
0
  6
Continuous
 62
     7
370
    15
100
AcDbLine
 10
274.339448413
 20
95.5987644595
 30
0.0
 11
274.339448413
 21
94.0987688702
 31
0.0
  0
LINE
  5
1D7
330
1F
100
AcDbEntity
  8
0
  6
Continuous
 62
     7
370
    15
100
AcDbLine
 10
274.339448413
 20
94.0987688702
 30
0.0
 11
275.1394470541
 21
94.0987688702
 31
0.0
  0
LINE
  5
1D8
330
1F
100
AcDbEntity
  8
0
  6
Continuous
 62
     7
370
    15
100
AcDbLine
 10
276.6394426433
 20
95.5987644595
 30
0.0
 11
276.6394426433
 21
96.3987631005
 31
0.0
  0
LINE
  5
1D9
330
1F
100
AcDbEntity
  8
0
  6
Continuous
 62
     7
370
    15
100
AcDbLine
 10
275.1394470541
 20
96.3987631005
 30
0.0
 11
275.1394470541
 21
97.8987586897
 31
0.0
  0
LINE
  5
1DA
330
1F
100
AcDbEntity
  8
0
  6
Continuous
 62
     7
370
    15
100
AcDbLine
 10
275.1394470541
 20
97.8987586897
 30
0.0
 11
274.339448413
 21
97.8987586897
 31
0.0
  0
LINE
  5
1DB
330
1F
100
AcDbEntity
  8
0
  6
Continuous
 62
     7
370
    15
100
AcDbLine
 10
274.339448413
 20
97.8987586897
 30
0.0
 11
274.339448413
 21
96.3987631005
 31
0.0
  0
LINE
  5
1DC
330
1F
100
AcDbEntity
  8
0
  6
Continuous
 62
     7
370
    15
100
AcDbLine
 10
275.1394470541
 20
94.0987688702
 30
0.0
 11
275.1394470541
 21
95.5987644595
 31
0.0
  0
LINE
  5
1DD
330
1F
100
AcDbEntity
  8
0
  6
Continuous
 62
     7
370
    15
100
AcDbLine
 10
276.6394426433
 20
96.3987631005
 30
0.0
 11
275.1394470541
 21
96.3987631005
 31
0.0
  0
CIRCLE
  5
1DE
330
1F
100
AcDbEntity
  8
0
  6
Continuous
 62
     7
370
    15
100
AcDbCircle
 10
274.739441189
 20
95.998763482
 30
0.0
 40
3.0
  0
LINE
  5
1DF
330
1F
100
AcDbEntity
  8
0
  6
Continuous
 62
     7
370
    15
100
AcDbLine
 10
272.8394379226
 20
96.3987631005
 30
0.0
 11
272.8394379226
 21
95.5987644595
 31
0.0
  0
LINE
  5
1E0
330
1F
100
AcDbEntity
  8
0
  6
Continuous
 62
     7
370
    15
100
AcDbLine
 10
275.1394470541
 20
95.5987644595
 30
0.0
 11
276.6394426433
 21
95.5987644595
 31
0.0
  0
CIRCLE
  5
1E1
330
1F
100
AcDbEntity
  8
0
  6
Continuous
 62
     7
370
    15
100
AcDbCircle
 10
274.739441189
 20
465.998763482
 30
0.0
 40
3.0
  0
LINE
  5
1E2
330
1F
100
AcDbEntity
  8
0
  6
Continuous
 62
     7
370
    15
100
AcDbLine
 10
274.339448413
 20
466.3987678689
 30
0.0
 11
272.8394379226
 21
466.3987678689
 31
0.0
  0
LINE
  5
1E3
330
1F
100
AcDbEntity
  8
0
  6
Continuous
 62
     7
370
    15
100
AcDbLine
 10
272.8394379226
 20
466.3987678689
 30
0.0
 11
272.8394379226
 21
465.5987692278
 31
0.0
  0
LINE
  5
1E4
330
1F
100
AcDbEntity
  8
0
  6
Continuous
 62
     7
370
    15
100
AcDbLine
 10
272.8394379226
 20
465.5987692278
 30
0.0
 11
274.339448413
 21
465.5987692278
 31
0.0
  0
LINE
  5
1E5
330
1F
100
AcDbEntity
  8
0
  6
Continuous
 62
     7
370
    15
100
AcDbLine
 10
275.1394470541
 20
464.0987587374
 30
0.0
 11
275.1394470541
 21
465.5987692278
 31
0.0
  0
LINE
  5
1E6
330
1F
100
AcDbEntity
  8
0
  6
Continuous
 62
     7
370
    15
100
AcDbLine
 10
275.1394470541
 20
465.5987692278
 30
0.0
 11
276.6394426433
 21
465.5987692278
 31
0.0
  0
LINE
  5
1E7
330
1F
100
AcDbEntity
  8
0
  6
Continuous
 62
     7
370
    15
100
AcDbLine
 10
276.6394426433
 20
465.5987692278
 30
0.0
 11
276.6394426433
 21
466.3987678689
 31
0.0
  0
LINE
  5
1E8
330
1F
100
AcDbEntity
  8
0
  6
Continuous
 62
     7
370
    15
100
AcDbLine
 10
275.1394470541
 20
466.3987678689
 30
0.0
 11
275.1394470541
 21
467.8987634581
 31
0.0
  0
LINE
  5
1E9
330
1F
100
AcDbEntity
  8
0
  6
Continuous
 62
     7
370
    15
100
AcDbLine
 10
275.1394470541
 20
467.8987634581
 30
0.0
 11
274.339448413
 21
467.8987634581
 31
0.0
  0
LINE
  5
1EA
330
1F
100
AcDbEntity
  8
0
  6
Continuous
 62
     7
370
    15
100
AcDbLine
 10
274.339448413
 20
467.8987634581
 30
0.0
 11
274.339448413
 21
466.3987678689
 31
0.0
  0
LINE
  5
1EB
330
1F
100
AcDbEntity
  8
0
  6
Continuous
 62
     7
370
    15
100
AcDbLine
 10
276.6394426433
 20
466.3987678689
 30
0.0
 11
275.1394470541
 21
466.3987678689
 31
0.0
  0
LINE
  5
1EC
330
1F
100
AcDbEntity
  8
0
  6
Continuous
 62
     7
370
    15
100
AcDbLine
 10
274.339448413
 20
464.0987587374
 30
0.0
 11
275.1394470541
 21
464.0987587374
 31
0.0
  0
LINE
  5
1ED
330
1F
100
AcDbEntity
  8
0
  6
Continuous
 62
     7
370
    15
100
AcDbLine
 10
274.339448413
 20
465.5987692278
 30
0.0
 11
274.339448413
 21
464.0987587374
 31
0.0
  0
LINE
  5
1EE
330
1F
100
AcDbEntity
  8
0
  6
Continuous
 62
     7
370
    15
100
AcDbLine
 10
274.339448413
 20
454.0987682742
 30
0.0
 11
275.1394470541
 21
454.0987682742
 31
0.0
  0
LINE
  5
1EF
330
1F
100
AcDbEntity
  8
0
  6
Continuous
 62
     7
370
    15
100
AcDbLine
 10
275.1394470541
 20
455.5987638634
 30
0.0
 11
276.6394426433
 21
455.5987638634
 31
0.0
  0
LINE
  5
1F0
330
1F
100
AcDbEntity
  8
0
  6
Continuous
 62
     7
370
    15
100
AcDbLine
 10
276.6394426433
 20
455.5987638634
 30
0.0
 11
276.6394426433
 21
456.3987625044
 31
0.0
  0
LINE
  5
1F1
330
1F
100
AcDbEntity
  8
0
  6
Continuous
 62
     7
370
    15
100
AcDbLine
 10
275.1394470541
 20
456.3987625044
 30
0.0
 11
275.1394470541
 21
457.8987580937
 31
0.0
  0
LINE
  5
1F2
330
1F
100
AcDbEntity
  8
0
  6
Continuous
 62
     7
370
    15
100
AcDbLine
 10
275.1394470541
 20
457.8987580937
 30
0.0
 11
274.339448413
 21
457.8987580937
 31
0.0
  0
LINE
  5
1F3
330
1F
100
AcDbEntity
  8
0
  6
Continuous
 62
     7
370
    15
100
AcDbLine
 10
276.6394426433
 20
456.3987625044
 30
0.0
 11
275.1394470541
 21
456.3987625044
 31
0.0
  0
LINE
  5
1F4
330
1F
100
AcDbEntity
  8
0
  6
Continuous
 62
     7
370
    15
100
AcDbLine
 10
272.8394379226
 20
455.5987638634
 30
0.0
 11
274.339448413
 21
455.5987638634
 31
0.0
  0
CIRCLE
  5
1F5
330
1F
100
AcDbEntity
  8
0
  6
Continuous
 62
     7
370
    15
100
AcDbCircle
 10
274.739441189
 20
455.9987634819
 30
0.0
 40
3.0
  0
LINE
  5
1F6
330
1F
100
AcDbEntity
  8
0
  6
Continuous
 62
     7
370
    15
100
AcDbLine
 10
275.1394470541
 20
454.0987682742
 30
0.0
 11
275.1394470541
 21
455.5987638634
 31
0.0
  0
LINE
  5
1F7
330
1F
100
AcDbEntity
  8
0
  6
Continuous
 62
     7
370
    15
100
AcDbLine
 10
274.339448413
 20
456.3987625044
 30
0.0
 11
272.8394379226
 21
456.3987625044
 31
0.0
  0
LINE
  5
1F8
330
1F
100
AcDbEntity
  8
0
  6
Continuous
 62
     7
370
    15
100
AcDbLine
 10
274.339448413
 20
455.5987638634
 30
0.0
 11
274.339448413
 21
454.0987682742
 31
0.0
  0
LINE
  5
1F9
330
1F
100
AcDbEntity
  8
0
  6
Continuous
 62
     7
370
    15
100
AcDbLine
 10
274.339448413
 20
457.8987580937
 30
0.0
 11
274.339448413
 21
456.3987625044
 31
0.0
  0
LINE
  5
1FA
330
1F
100
AcDbEntity
  8
0
  6
Continuous
 62
     7
370
    15
100
AcDbLine
 10
272.8394379226
 20
456.3987625044
 30
0.0
 11
272.8394379226
 21
455.5987638634
 31
0.0
  0
LINE
  5
1FB
330
1F
100
AcDbEntity
  8
0
  6
Continuous
 62
     7
370
    15
100
AcDbLine
 10
268.7394430248
 20
97.4987668198
 30
0.0
 11
273.7216760723
 21
102.1006477278
 31
0.0
  0
ARC
  5
1FC
330
1F
100
AcDbEntity
  8
0
  6
Continuous
 62
     7
370
    15
100
AcDbCircle
 10
274.739441189
 20
100.9987634819
 30
0.0
 40
1.49999999999997
100
AcDbArc
 50
43.6028189726
 51
132.7273953127
  0
ARC
  5
1FD
330
1F
100
AcDbEntity
  8
0
  6
Continuous
 62
     7
370
    15
100
AcDbCircle
 10
264.239441189
 20
90.998763482
 30
0.0
 40
16.00000000000018
100
AcDbArc
 50
316.3971810272
 51
43.6028189726
  0
ARC
  5
1FE
330
1F
100
AcDbEntity
  8
0
  6
Continuous
 62
     7
370
    15
100
AcDbCircle
 10
274.7394411889
 20
80.9987634819
 30
0.0
 40
1.500000000000139
100
AcDbArc
 50
227.2726046868
 51
316.3971810272
  0
LINE
  5
1FF
330
1F
100
AcDbEntity
  8
0
  6
Continuous
 62
     7
370
    15
100
AcDbLine
 10
273.7216760723
 20
79.8968744677
 30
0.0
 11
268.7394430248
 21
84.4987702769
 31
0.0
  0
LINE
  5
200
330
1F
100
AcDbEntity
  8
0
  6
Continuous
 62
     7
370
    15
100
AcDbLine
 10
268.5384263603
 20
97.4987668198
 30
0.0
 11
268.7394430248
 21
97.4987668198
 31
0.0
  0
LINE
  5
201
330
1F
100
AcDbEntity
  8
0
  6
Continuous
 62
     7
370
    15
100
AcDbLine
 10
268.7394430248
 20
84.4987702769
 30
0.0
 11
268.5384263603
 21
84.4987702769
 31
0.0
  0
LINE
  5
202
330
1F
100
AcDbEntity
  8
0
  6
Continuous
 62
     7
370
    15
100
AcDbLine
 10
273.7216760723
 20
449.8968792361
 30
0.0
 11
268.7394430248
 21
454.4987601441
 31
0.0
  0
LINE
  5
203
330
1F
100
AcDbEntity
  8
0
  6
Continuous
 62
     7
370
    15
100
AcDbLine
 10
268.7394430248
 20
467.498756687
 30
0.0
 11
273.7216760723
 21
472.1006524962
 31
0.0
  0
ARC
  5
204
330
1F
100
AcDbEntity
  8
0
  6
Continuous
 62
     7
370
    15
100
AcDbCircle
 10
274.739441189
 20
470.9987634819
 30
0.0
 40
1.49999999999999
100
AcDbArc
 50
43.6028189726
 51
132.7273953127
  0
ARC
  5
205
330
1F
100
AcDbEntity
  8
0
  6
Continuous
 62
     7
370
    15
100
AcDbCircle
 10
264.239441189
 20
460.998763482
 30
0.0
 40
16.00000000000013
100
AcDbArc
 50
316.3971810272
 51
43.6028189726
  0
ARC
  5
206
330
1F
100
AcDbEntity
  8
0
  6
Continuous
 62
     7
370
    15
100
AcDbCircle
 10
274.7394411889
 20
450.9987634819
 30
0.0
 40
1.499999999999814
100
AcDbArc
 50
227.2726046868
 51
316.3971810272
  0
LINE
  5
207
330
1F
100
AcDbEntity
  8
0
  6
Continuous
 62
     7
370
    15
100
AcDbLine
 10
268.5384263603
 20
467.498756687
 30
0.0
 11
268.7394430248
 21
467.498756687
 31
0.0
  0
LINE
  5
208
330
1F
100
AcDbEntity
  8
0
  6
Continuous
 62
     7
370
    15
100
AcDbLine
 10
268.7394430248
 20
454.4987601441
 30
0.0
 11
268.5384263603
 21
454.4987601441
 31
0.0
  0
LINE
  5
209
330
1F
100
AcDbEntity
  8
0
  6
Continuous
 62
     7
370
    15
100
AcDbLine
 10
291.7394449321
 20
40.998764078
 30
0.0
 11
291.7394449321
 21
510.9987628859
 31
0.0
  0
LINE
  5
20A
330
1F
100
AcDbEntity
  8
0
  6
Continuous
 62
     7
370
    15
100
AcDbLine
 10
276.7394443361
 20
40.998764078
 30
0.0
 11
291.7394449321
 21
40.998764078
 31
0.0
  0
LINE
  5
20B
330
1F
100
AcDbEntity
  8
0
  6
Continuous
 62
     7
370
    15
100
AcDbLine
 10
276.7394443361
 20
81.0112727088
 30
0.0
 11
276.7394443361
 21
40.998764078
 31
0.0
  0
LINE
  5
20C
330
1F
100
AcDbEntity
  8
0
  6
Continuous
 62
     7
370
    15
100
AcDbLine
 10
276.7394443361
 20
100.9862494868
 30
0.0
 11
276.7394443361
 21
451.0112774771
 31
0.0
  0
LINE
  5
20D
330
1F
100
AcDbEntity
  8
0
  6
Continuous
 62
     7
370
    15
100
AcDbLine
 10
276.7394443361
 20
470.9862542552
 30
0.0
 11
276.7394443361
 21
510.9987628859
 31
0.0
  0
LINE
  5
20E
330
1F
100
AcDbEntity
  8
0
  6
Continuous
 62
     7
370
    15
100
AcDbLine
 10
276.7394443361
 20
510.9987628859
 30
0.0
 11
291.7394449321
 21
510.9987628859
 31
0.0
  0
LINE
  5
20F
330
1F
100
AcDbEntity
  8
0
  6
Continuous
 62
     7
370
    15
100
AcDbLine
 10
276.7394443361
 20
40.998764078
 30
0.0
 11
276.7394443361
 21
25.998763482
 31
0.0
  0
ARC
  5
210
330
1F
100
AcDbEntity
  8
0
  6
Continuous
 62
     7
370
    15
100
AcDbCircle
 10
276.739441189
 20
40.998763482
 30
0.0
 40
15.00000000000001
100
AcDbArc
 50
270.0
 51
0.0
  0
LINE
  5
211
330
1F
100
AcDbEntity
  8
0
  6
Continuous
 62
     7
370
    15
100
AcDbLine
 10
271.7394342033
 20
25.998763482
 30
0.0
 11
276.7394443361
 21
25.998763482
 31
0.0
  0
LINE
  5
212
330
1F
100
AcDbEntity
  8
0
  6
Continuous
 62
     7
370
    15
100
AcDbLine
 10
271.7394342033
 20
40.998764078
 30
0.0
 11
276.7394443361
 21
40.998764078
 31
0.0
  0
LINE
  5
213
330
1F
100
AcDbEntity
  8
0
  6
Continuous
 62
     7
370
    15
100
AcDbLine
 10
271.7394342033
 20
40.998764078
 30
0.0
 11
271.7394342033
 21
25.998763482
 31
0.0
  0
LINE
  5
214
330
1F
100
AcDbEntity
  8
0
  6
Continuous
 62
     7
370
    15
100
AcDbLine
 10
271.7394342033
 20
81.7277801436
 30
0.0
 11
271.7394342033
 21
40.998764078
 31
0.0
  0
LINE
  5
215
330
1F
100
AcDbEntity
  8
0
  6
Continuous
 62
     7
370
    15
100
AcDbLine
 10
271.7394342033
 20
100.2697420519
 30
0.0
 11
271.7394342033
 21
451.727784912
 31
0.0
  0
LINE
  5
216
330
1F
100
AcDbEntity
  8
0
  6
Continuous
 62
     7
370
    15
100
AcDbLine
 10
271.7394342033
 20
510.9987628859
 30
0.0
 11
276.7394443361
 21
510.9987628859
 31
0.0
  0
LINE
  5
217
330
1F
100
AcDbEntity
  8
0
  6
Continuous
 62
     7
370
    15
100
AcDbLine
 10
271.7394342033
 20
470.2697468203
 30
0.0
 11
271.7394342033
 21
510.9987628859
 31
0.0
  0
LINE
  5
218
330
1F
100
AcDbEntity
  8
0
  6
Continuous
 62
     7
370
    15
100
AcDbLine
 10
271.7394342033
 20
525.998763482
 30
0.0
 11
276.7394443361
 21
525.998763482
 31
0.0
  0
LINE
  5
219
330
1F
100
AcDbEntity
  8
0
  6
Continuous
 62
     7
370
    15
100
AcDbLine
 10
276.7394443361
 20
510.9987628859
 30
0.0
 11
276.7394443361
 21
525.998763482
 31
0.0
  0
LINE
  5
21A
330
1F
100
AcDbEntity
  8
0
  6
Continuous
 62
     7
370
    15
100
AcDbLine
 10
271.7394342033
 20
510.9987628859
 30
0.0
 11
271.7394342033
 21
525.998763482
 31
0.0
  0
ARC
  5
21B
330
1F
100
AcDbEntity
  8
0
  6
Continuous
 62
     7
370
    15
100
AcDbCircle
 10
276.739441189
 20
510.998763482
 30
0.0
 40
15.00000000000006
100
AcDbArc
 50
0.0
 51
90.0
  0
LINE
  5
21C
330
1F
100
AcDbEntity
  8
0
  6
Continuous
 62
     7
370
    15
100
AcDbLine
 10
254.950370392
 20
86.2987560433
 30
0.0
 11
254.950370392
 21
94.8987675112
 31
0.0
  0
LINE
  5
21D
330
1F
100
AcDbEntity
  8
0
  6
Continuous
 62
     7
370
    15
100
AcDbLine
 10
254.950370392
 20
86.2987560433
 30
0.0
 11
249.4360764829
 21
86.2987560433
 31
0.0
  0
LINE
  5
21E
330
1F
100
AcDbEntity
  8
0
  6
Continuous
 62
     7
370
    15
100
AcDbLine
 10
249.4360764829
 20
86.2987560433
 30
0.0
 11
249.4360764829
 21
94.8987675112
 31
0.0
  0
LINE
  5
21F
330
1F
100
AcDbEntity
  8
0
  6
Continuous
 62
     7
370
    15
100
AcDbLine
 10
254.950370392
 20
94.8987675112
 30
0.0
 11
249.4360764829
 21
94.8987675112
 31
0.0
  0
LINE
  5
220
330
1F
100
AcDbEntity
  8
0
  6
Continuous
 62
     7
370
    15
100
AcDbLine
 10
248.3218123523
 20
98.1987637681
 30
0.0
 11
223.5097100345
 21
98.1987637681
 31
0.0
  0
LINE
  5
221
330
1F
100
AcDbEntity
  8
0
  6
Continuous
 62
     7
370
    15
100
AcDbLine
 10
248.3218123523
 20
94.8987675112
 30
0.0
 11
248.3218123523
 21
98.1987637681
 31
0.0
  0
LINE
  5
222
330
1F
100
AcDbEntity
  8
0
  6
Continuous
 62
     7
370
    15
100
AcDbLine
 10
248.3218123523
 20
83.7987584275
 30
0.0
 11
248.3218123523
 21
86.2987560433
 31
0.0
  0
LINE
  5
223
330
1F
100
AcDbEntity
  8
0
  6
Continuous
 62
     7
370
    15
100
AcDbLine
 10
223.5097100345
 20
83.7987584275
 30
0.0
 11
248.3218123523
 21
83.7987584275
 31
0.0
  0
LINE
  5
224
330
1F
100
AcDbEntity
  8
0
  6
Continuous
 62
     7
370
    15
100
AcDbLine
 10
223.5097100345
 20
83.7987584275
 30
0.0
 11
223.5097100345
 21
98.1987637681
 31
0.0
  0
LINE
  5
225
330
1F
100
AcDbEntity
  8
0
  6
Continuous
 62
     7
370
    15
100
AcDbLine
 10
248.3218123523
 20
86.2987560433
 30
0.0
 11
249.4360764829
 21
86.2987560433
 31
0.0
  0
LINE
  5
226
330
1F
100
AcDbEntity
  8
0
  6
Continuous
 62
     7
370
    15
100
AcDbLine
 10
248.3218123523
 20
94.8987675112
 30
0.0
 11
249.4360764829
 21
94.8987675112
 31
0.0
  0
LINE
  5
227
330
1F
100
AcDbEntity
  8
0
  6
Continuous
 62
     7
370
    15
100
AcDbLine
 10
248.449440798
 20
83.0014121932
 30
0.0
 11
250.3416796533
 21
83.0014121932
 31
0.0
  0
LINE
  5
228
330
1F
100
AcDbEntity
  8
0
  6
Continuous
 62
     7
370
    15
100
AcDbLine
 10
250.3416796533
 20
83.0014121932
 30
0.0
 11
251.0144372789
 21
82.9987597865
 31
0.0
  0
LINE
  5
229
330
1F
100
AcDbEntity
  8
0
  6
Continuous
 62
     7
370
    15
100
AcDbLine
 10
251.0144372789
 20
82.9987597865
 30
0.0
 11
223.6486335603
 21
82.9987597865
 31
0.0
  0
ARC
  5
22A
330
1F
100
AcDbEntity
  8
0
  6
Continuous
 62
     7
370
    15
100
AcDbCircle
 10
224.7656328315
 20
83.6047936446
 30
0.0
 40
1.270812499494413
100
AcDbArc
 50
171.2205995842
 51
208.4822784261
  0
ARC
  5
22B
330
1F
100
AcDbEntity
  8
0
  6
Continuous
 62
     7
370
    15
100
AcDbCircle
 10
249.7961273409
 20
83.6258592747
 30
0.0
 40
1.484418674970809
100
AcDbArc
 50
173.3112340828
 51
204.8767532576
  0
LINE
  5
22C
330
1F
100
AcDbEntity
  8
0
  6
Continuous
 62
     7
370
    15
100
AcDbLine
 10
250.3416796533
 20
98.9961100024
 30
0.0
 11
248.449440798
 21
98.9961100024
 31
0.0
  0
ARC
  5
22D
330
1F
100
AcDbEntity
  8
0
  6
Continuous
 62
     7
370
    15
100
AcDbCircle
 10
249.7960987984
 20
98.3716674896
 30
0.0
 40
1.48439085894487
100
AcDbArc
 50
155.1229432741
 51
186.6890693855
  0
ARC
  5
22E
330
1F
100
AcDbEntity
  8
0
  6
Continuous
 62
     7
370
    15
100
AcDbCircle
 10
224.7656328315
 20
98.392728551
 30
0.0
 40
1.270812499494413
100
AcDbArc
 50
151.5177215739
 51
188.7794004158
  0
LINE
  5
22F
330
1F
100
AcDbEntity
  8
0
  6
Continuous
 62
     7
370
    15
100
AcDbLine
 10
223.6486335603
 20
98.9987624091
 30
0.0
 11
251.0144372789
 21
98.9987624091
 31
0.0
  0
LINE
  5
230
330
1F
100
AcDbEntity
  8
0
  6
Continuous
 62
     7
370
    15
100
AcDbLine
 10
251.0144372789
 20
98.9987624091
 30
0.0
 11
250.3416796533
 21
98.9961100024
 31
0.0
  0
LINE
  5
231
330
1F
100
AcDbEntity
  8
0
  6
Continuous
 62
     7
370
    15
100
AcDbLine
 10
248.449440798
 20
83.0014121932
 30
0.0
 11
248.449440798
 21
83.7987584275
 31
0.0
  0
LINE
  5
232
330
1F
100
AcDbEntity
  8
0
  6
Continuous
 62
     7
370
    15
100
AcDbLine
 10
248.4607358781
 20
86.2987560433
 30
0.0
 11
248.4607358781
 21
83.7987584275
 31
0.0
  0
LINE
  5
233
330
1F
100
AcDbEntity
  8
0
  6
Continuous
 62
     7
370
    15
100
AcDbLine
 10
248.449440798
 20
98.1987637681
 30
0.0
 11
248.449440798
 21
98.9961100024
 31
0.0
  0
LINE
  5
234
330
1F
100
AcDbEntity
  8
0
  6
Continuous
 62
     7
370
    15
100
AcDbLine
 10
248.4607358781
 20
98.1987637681
 30
0.0
 11
248.4607358781
 21
94.8987675112
 31
0.0
  0
LINE
  5
235
330
1F
100
AcDbEntity
  8
0
  6
Continuous
 62
     7
370
    15
100
AcDbLine
 10
250.3416796533
 20
98.1987637681
 30
0.0
 11
250.3416796533
 21
98.9961100024
 31
0.0
  0
LINE
  5
236
330
1F
100
AcDbEntity
  8
0
  6
Continuous
 62
     7
370
    15
100
AcDbLine
 10
254.4494380561
 20
98.9987624091
 30
0.0
 11
251.0144372789
 21
98.9987624091
 31
0.0
  0
LINE
  5
237
330
1F
100
AcDbEntity
  8
0
  6
Continuous
 62
     7
370
    15
100
AcDbLine
 10
254.4494380561
 20
98.1987637681
 30
0.0
 11
250.3416796533
 21
98.1987637681
 31
0.0
  0
LINE
  5
238
330
1F
100
AcDbEntity
  8
0
  6
Continuous
 62
     7
370
    15
100
AcDbLine
 10
254.4494380561
 20
82.9987597865
 30
0.0
 11
251.0144372789
 21
82.9987597865
 31
0.0
  0
LINE
  5
239
330
1F
100
AcDbEntity
  8
0
  6
Continuous
 62
     7
370
    15
100
AcDbLine
 10
250.3416796533
 20
83.0014121932
 30
0.0
 11
250.3416796533
 21
83.7987584275
 31
0.0
  0
LINE
  5
23A
330
1F
100
AcDbEntity
  8
0
  6
Continuous
 62
     7
370
    15
100
AcDbLine
 10
254.4494380561
 20
83.7987584275
 30
0.0
 11
250.3416796533
 21
83.7987584275
 31
0.0
  0
LINE
  5
23B
330
1F
100
AcDbEntity
  8
0
  6
Continuous
 62
     7
370
    15
100
AcDbLine
 10
248.449440798
 20
83.7987584275
 30
0.0
 11
250.3416796533
 21
83.7987584275
 31
0.0
  0
LINE
  5
23C
330
1F
100
AcDbEntity
  8
0
  6
Continuous
 62
     7
370
    15
100
AcDbLine
 10
248.449440798
 20
98.1987637681
 30
0.0
 11
250.3416796533
 21
98.1987637681
 31
0.0
  0
LINE
  5
23D
330
1F
100
AcDbEntity
  8
0
  6
Continuous
 62
     7
370
    15
100
AcDbLine
 10
249.5194484798
 20
99.2987674874
 30
0.0
 11
253.919448456
 21
99.2987674874
 31
0.0
  0
LINE
  5
23E
330
1F
100
AcDbEntity
  8
0
  6
Continuous
 62
     7
370
    15
100
AcDbLine
 10
249.6194352714
 20
82.5987679165
 30
0.0
 11
253.8194467632
 21
82.5987679165
 31
0.0
  0
LINE
  5
23F
330
1F
100
AcDbEntity
  8
0
  6
Continuous
 62
     7
370
    15
100
AcDbLine
 10
249.6194352714
 20
82.1987611455
 30
0.0
 11
253.8194467632
 21
82.1987611455
 31
0.0
  0
LINE
  5
240
330
1F
100
AcDbEntity
  8
0
  6
Continuous
 62
     7
370
    15
100
AcDbLine
 10
218.6108638851
 20
98.1987637681
 30
0.0
 11
216.6213800518
 21
98.1987637681
 31
0.0
  0
LINE
  5
241
330
1F
100
AcDbEntity
  8
0
  6
Continuous
 62
     7
370
    15
100
AcDbLine
 10
218.6108638851
 20
83.7987584275
 30
0.0
 11
218.6108638851
 21
98.1987637681
 31
0.0
  0
LINE
  5
242
330
1F
100
AcDbEntity
  8
0
  6
Continuous
 62
     7
370
    15
100
AcDbLine
 10
216.6213800518
 20
83.7987584275
 30
0.0
 11
218.6108638851
 21
83.7987584275
 31
0.0
  0
ARC
  5
243
330
1F
100
AcDbEntity
  8
0
  6
Continuous
 62
     7
370
    15
100
AcDbCircle
 10
231.9153544745
 20
90.9987610978
 30
0.0
 40
16.90401408232907
100
AcDbArc
 50
154.7901718738
 51
205.2098281262
  0
SPLINE
  5
244
330
1F
100
AcDbEntity
  8
0
  6
Continuous
 62
     7
370
    15
100
AcDbSpline
210
0.0
220
0.0
230
1.0
 70
     8
 71
     3
 72
    12
 73
     8
 74
     0
 42
0.00000001
 43
0.00000001
 40
0.0
 40
0.0
 40
0.0
 40
0.0
 40
0.1818825444540627
 40
0.3633449413033811
 40
0.5550836662988128
 40
0.7712676109962568
 40
1.0
 40
1.0
 40
1.0
 40
1.0
 10
216.7537619678062
 20
82.99875978646514
 30
0.0
 10
216.7776190707826
 20
83.00608218420457
 30
0.0
 10
216.8252781669684
 20
83.02071006498785
 30
0.0
 10
216.840028980416
 20
83.13270660533364
 30
0.0
 10
216.8127949339347
 20
83.30210217915979
 30
0.0
 10
216.7411193929114
 20
83.53050863454203
 30
0.0
 10
216.6620366501268
 20
83.70767621516254
 30
0.0
 10
216.6213800517601
 20
83.79875842747921
 30
0.0
  0
LINE
  5
245
330
1F
100
AcDbEntity
  8
0
  6
Continuous
 62
     7
370
    15
100
AcDbLine
 10
216.369401416
 20
83.7532651824
 30
0.0
 11
216.7238404361
 21
82.9987597865
 31
0.0
  0
ARC
  5
246
330
1F
100
AcDbEntity
  8
0
  6
Continuous
 62
     7
370
    15
100
AcDbCircle
 10
231.6399370648
 20
90.9987610978
 30
0.0
 40
16.90226227646351
100
AcDbArc
 50
154.6168036234
 51
205.3831963766
  0
LINE
  5
247
330
1F
100
AcDbEntity
  8
0
  6
Continuous
 62
     7
370
    15
100
AcDbLine
 10
216.7238404361
 20
98.9987624091
 30
0.0
 11
216.369401416
 21
98.2442570132
 31
0.0
  0
SPLINE
  5
248
330
1F
100
AcDbEntity
  8
0
  6
Continuous
 62
     7
370
    15
100
AcDbSpline
210
0.0
220
0.0
230
1.0
 70
     8
 71
     3
 72
    12
 73
     8
 74
     0
 42
0.00000001
 43
0.00000001
 40
0.0
 40
0.0
 40
0.0
 40
0.0
 40
0.2510209521689922
 40
0.5023973771521156
 40
0.7402779134105443
 40
0.9473077532403449
 40
1.0
 40
1.0
 40
1.0
 40
1.0
 10
216.62138005176
 20
98.19876376805541
 30
0.0
 10
216.665698096252
 20
98.29864941836026
 30
0.0
 10
216.7543969443796
 20
98.49856216785247
 30
0.0
 10
216.8293854442033
 20
98.75727950634922
 30
0.0
 10
216.8408927421488
 20
98.93451739868014
 30
0.0
 10
216.7992442107661
 20
98.99497736135598
 30
0.0
 10
216.7614330677315
 20
98.99812401752716
 30
0.0
 10
216.7537619678062
 20
98.99876240906951
 30
0.0
  0
LINE
  5
249
330
1F
100
AcDbEntity
  8
0
  6
Continuous
 62
     7
370
    15
100
AcDbLine
 10
216.7537619678
 20
98.9987624091
 30
0.0
 11
216.7238404361
 21
98.9987624091
 31
0.0
  0
LINE
  5
24A
330
1F
100
AcDbEntity
  8
0
  6
Continuous
 62
     7
370
    15
100
AcDbLine
 10
216.7537619678
 20
82.9987597865
 30
0.0
 11
216.7238404361
 21
82.9987597865
 31
0.0
  0
LWPOLYLINE
  5
24B
330
1F
100
AcDbEntity
  8
0
  6
Continuous
 62
     7
370
    15
100
AcDbPolyline
 90
        9
 70
   128
 43
0.0
 10
218.6108638851
 20
98.1987637681
 10
218.6056037752
 20
98.3548385304
 10
218.5900320617
 20
98.5049081248
 10
218.5647447912
 20
98.643220703
 10
218.5307254402
 20
98.7644416493
 10
218.4892555086
 20
98.8639367026
 10
218.4419443218
 20
98.9378613633
 10
218.3906247226
 20
98.9833844107
 10
218.3372487632
 20
98.9987624091
  0
LINE
  5
24C
330
1F
100
AcDbEntity
  8
0
  6
Continuous
 62
     7
370
    15
100
AcDbLine
 10
216.7537619678
 20
98.9987624091
 30
0.0
 11
218.3372487632
 21
98.9987624091
 31
0.0
  0
LWPOLYLINE
  5
24D
330
1F
100
AcDbEntity
  8
0
  6
Continuous
 62
     7
370
    15
100
AcDbPolyline
 90
        9
 70
   128
 43
0.0
 10
218.6108638851
 20
83.7987584275
 10
218.6056037752
 20
83.6426985663
 10
218.5900320617
 20
83.4926140708
 10
218.5647447912
 20
83.3543014926
 10
218.5307254402
 20
83.2330805462
 10
218.4892555086
 20
83.1335854929
 10
218.4419443218
 20
83.0596608323
 10
218.3906247226
 20
83.0141377848
 10
218.3372487632
 20
82.9987597865
  0
LINE
  5
24E
330
1F
100
AcDbEntity
  8
0
  6
Continuous
 62
     7
370
    15
100
AcDbLine
 10
218.3372487632
 20
82.9987597865
 30
0.0
 11
216.7537619678
 21
82.9987597865
 31
0.0
  0
LINE
  5
24F
330
1F
100
AcDbEntity
  8
0
  6
Continuous
 62
     7
370
    15
100
AcDbLine
 10
223.5097100345
 20
98.1987637681
 30
0.0
 11
218.6108638851
 21
98.1987637681
 31
0.0
  0
LINE
  5
250
330
1F
100
AcDbEntity
  8
0
  6
Continuous
 62
     7
370
    15
100
AcDbLine
 10
218.6108638851
 20
83.7987584275
 30
0.0
 11
223.5097100345
 21
83.7987584275
 31
0.0
  0
LINE
  5
251
330
1F
100
AcDbEntity
  8
0
  6
Continuous
 62
     7
370
    15
100
AcDbLine
 10
223.6486335603
 20
82.9987597865
 30
0.0
 11
218.3372487632
 21
82.9987597865
 31
0.0
  0
LINE
  5
252
330
1F
100
AcDbEntity
  8
0
  6
Continuous
 62
     7
370
    15
100
AcDbLine
 10
218.3372487632
 20
98.9987624091
 30
0.0
 11
223.6486335603
 21
98.9987624091
 31
0.0
  0
SPLINE
  5
253
330
1F
100
AcDbEntity
  8
0
  6
Continuous
 62
     7
370
    15
100
AcDbSpline
210
0.0
220
0.0
230
1.0
 70
     8
 71
     3
 72
    16
 73
    12
 74
     0
 42
0.00000001
 43
0.00000001
 40
0.0
 40
0.0
 40
0.0
 40
0.0
 40
0.1207062643774234
 40
0.2414151053671655
 40
0.3621170648617275
 40
0.4828247117955524
 40
0.6035307048238843
 40
0.7242346942082294
 40
0.8449397256167895
 40
0.9656486688686837
 40
1.0
 40
1.0
 40
1.0
 40
1.0
 10
249.8917390910667
 20
448.0463934343838
 30
0.0
 10
249.9111399446642
 20
448.0490637150524
 30
0.0
 10
249.9499420659925
 20
448.0544043333895
 30
0.0
 10
249.9548657311975
 20
448.3453363468927
 30
0.0
 10
249.9176483854352
 20
448.7987056054372
 30
0.0
 10
249.8407520814469
 20
449.3662195905432
 30
0.0
 10
249.736917952306
 20
449.9545495388443
 30
0.0
 10
249.620827911644
 20
450.481238468148
 30
0.0
 10
249.5138136274686
 20
450.8445296671139
 30
0.0
 10
249.4412429393448
 20
451.0150063208913
 30
0.0
 10
249.4216918759937
 20
450.9818473052204
 30
0.0
 10
249.4173606244605
 20
450.9745014112973
 30
0.0
  0
SPLINE
  5
254
330
1F
100
AcDbEntity
  8
0
  6
Continuous
 62
     7
370
    15
100
AcDbSpline
210
0.0
220
0.0
230
1.0
 70
     8
 71
     3
 72
    16
 73
    12
 74
     0
 42
0.00000001
 43
0.00000001
 40
0.0
 40
0.0
 40
0.0
 40
0.0
 40
0.1205770585621467
 40
0.24116278194124
 40
0.3617416308439701
 40
0.48232365834868
 40
0.6029060048814441
 40
0.72348955541215
 40
0.8440714730956633
 40
0.9646564126233752
 40
1.0
 40
1.0
 40
1.0
 40
1.0
 10
250.0623275844138
 20
473.9224088591122
 30
0.0
 10
250.0817286043983
 20
473.919737122015
 30
0.0
 10
250.1205320385486
 20
473.9143934558262
 30
0.0
 10
250.1254520278601
 20
473.6234663468578
 30
0.0
 10
250.0882445263287
 20
473.1700978299482
 30
0.0
 10
250.0113145248287
 20
472.6025993661415
 30
0.0
 10
249.907509755784
 20
472.0142510357223
 30
0.0
 10
249.7914226861224
 20
471.4876095496617
 30
0.0
 10
249.6843786913741
 20
471.1241106951388
 30
0.0
 10
249.6116239346424
 20
470.9535878718694
 30
0.0
 10
249.5919836552474
 20
470.9871665891137
 30
0.0
 10
249.5875318852943
 20
470.994777719357
 30
0.0
  0
SPLINE
  5
255
330
1F
100
AcDbEntity
  8
0
  6
Continuous
 62
     7
370
    15
100
AcDbSpline
210
0.0
220
0.0
230
1.0
 70
     8
 71
     3
 72
    16
 73
    12
 74
     0
 42
0.00000001
 43
0.00000001
 40
0.0
 40
0.0
 40
0.0
 40
0.0
 40
0.1205177302061663
 40
0.2410325934015554
 40
0.3615499889352475
 40
0.4820676074668435
 40
0.6025845352465417
 40
0.7230999940129991
 40
0.8436164931761072
 40
0.9641310894240808
 40
0.9999999999999999
 40
0.9999999999999999
 40
0.9999999999999999
 40
0.9999999999999999
 10
265.4327114430945
 20
450.6628138226056
 30
0.0
 10
265.4521125429474
 20
450.6654818245854
 30
0.0
 10
265.490914281118
 20
450.6708177650758
 30
0.0
 10
265.4958354348308
 20
450.9617763855583
 30
0.0
 10
265.4586290160738
 20
451.4151108811486
 30
0.0
 10
265.3816988219062
 20
451.9826401614505
 30
0.0
 10
265.2778943920153
 20
452.5709873579732
 30
0.0
 10
265.1618081165821
 20
453.0975962506996
 30
0.0
 10
265.0547520286032
 20
453.4611779857405
 30
0.0
 10
264.9818990996285
 20
453.6317792393291
 30
0.0
 10
264.9622085503426
 20
453.5979628431258
 30
0.0
 10
264.9576922265571
 20
453.5902065437817
 30
0.0
  0
SPLINE
  5
256
330
1F
100
AcDbEntity
  8
0
  6
Continuous
 62
     7
370
    15
100
AcDbSpline
210
0.0
220
0.0
230
1.0
 70
     8
 71
     3
 72
    16
 73
    12
 74
     0
 42
0.00000001
 43
0.00000001
 40
0.0
 40
0.0
 40
0.0
 40
0.0
 40
0.1205178887985882
 40
0.2410326213457433
 40
0.3615498862284561
 40
0.482064480341296
 40
0.6025812774705218
 40
0.7230970929169649
 40
0.8436175482792354
 40
0.9641311283089926
 40
1.0
 40
1.0
 40
1.0
 40
1.0
 10
265.6032999364417
 20
471.3060033720517
 30
0.0
 10
265.6227010641811
 20
471.3033291396954
 30
0.0
 10
265.6615028115622
 20
471.2979807450186
 30
0.0
 10
265.6664236030525
 20
471.0070269779496
 30
0.0
 10
265.6292190667029
 20
470.5536947769254
 30
0.0
 10
265.5522839929328
 20
469.9861716590182
 30
0.0
 10
265.4484900303276
 20
469.3978342396967
 30
0.0
 10
265.3323683283154
 20
468.8711934942108
 30
0.0
 10
265.2253506364314
 20
468.507628468758
 30
0.0
 10
265.1524868961168
 20
468.3370388541421
 30
0.0
 10
265.1327969344784
 20
468.3708544834977
 30
0.0
 10
265.1282807199042
 20
468.3786106508755
 30
0.0
  0
SPLINE
  5
257
330
1F
100
AcDbEntity
  8
0
  6
Continuous
 62
     7
370
    15
100
AcDbSpline
210
0.0
220
0.0
230
1.0
 70
    24
 71
     3
 72
    16
 73
    12
 74
     0
 42
0.00000001
 43
0.00000001
 40
0.0
 40
0.0
 40
0.0
 40
0.0
 40
0.0611042260699412
 40
0.1864670038060815
 40
0.3118320320058386
 40
0.4371949488658223
 40
0.5625600988373968
 40
0.6879240836221383
 40
0.8132868438052594
 40
0.9386468178623724
 40
1.0
 40
1.0
 40
1.0
 40
1.0
 10
268.5096224156898
 20
454.1325343054319
 30
0.0
 10
268.515395435011
 20
454.1325343054318
 30
0.0
 10
268.5330125080837
 20
454.1325343054318
 30
0.0
 10
268.3145728703867
 20
454.1325343054319
 30
0.0
 10
267.9018478485039
 20
454.1325343054318
 30
0.0
 10
267.3453751264415
 20
454.1325343054319
 30
0.0
 10
266.7462642300766
 20
454.1325343054318
 30
0.0
 10
266.1875729398424
 20
454.1325343054319
 30
0.0
 10
265.7706167933852
 20
454.1325343054318
 30
0.0
 10
265.5476145886174
 20
454.1325343054319
 30
0.0
 10
265.5624303365962
 20
454.1325343054318
 30
0.0
 10
265.5672987309974
 20
454.1325343054318
 30
0.0
  0
SPLINE
  5
258
330
1F
100
AcDbEntity
  8
0
  6
Continuous
 62
     7
370
    15
100
AcDbSpline
210
0.0
220
0.0
230
1.0
 70
    24
 71
     3
 72
    16
 73
    12
 74
     0
 42
0.00000001
 43
0.00000001
 40
0.0
 40
0.0
 40
0.0
 40
0.0
 40
0.0610064761844534
 40
0.1861687080998494
 40
0.3113331868787419
 40
0.4364955576954215
 40
0.5616601580513301
 40
0.686823595084383
 40
0.8119858094748397
 40
0.9371452421963204
 40
1.0
 40
1.0
 40
1.0
 40
1.0
 10
268.5096224156898
 20
467.6911604803586
 30
0.0
 10
268.5153954287867
 20
467.6911604803586
 30
0.0
 10
268.5330124828653
 20
467.6911604803585
 30
0.0
 10
268.314573104201
 20
467.6911604803585
 30
0.0
 10
267.9018469918327
 20
467.6911604803586
 30
0.0
 10
267.3453783192716
 20
467.6911604803585
 30
0.0
 10
266.7462523152215
 20
467.6911604803586
 30
0.0
 10
266.1876174057119
 20
467.6911604803586
 30
0.0
 10
265.7704508479014
 20
467.6911604803586
 30
0.0
 10
265.5469586349622
 20
467.6911604803586
 30
0.0
 10
265.5621802216
 20
467.6911604803586
 30
0.0
 10
265.567268928675
 20
467.6911604803586
 30
0.0
  0
SPLINE
  5
259
330
1F
100
AcDbEntity
  8
0
  6
Continuous
 62
     7
370
    15
100
AcDbSpline
210
0.0
220
0.0
230
1.0
 70
     8
 71
     3
 72
    19
 73
    15
 74
     0
 42
0.00000001
 43
0.00000001
 40
0.0
 40
0.0
 40
0.0
 40
0.0
 40
0.0039535652361297
 40
0.1157759121658322
 40
0.2280440359016414
 40
0.3355250774271488
 40
0.4377146961948316
 40
0.534890183995112
 40
0.6283065977509118
 40
0.7303034789161297
 40
0.8413391001064751
 40
0.9641118027772828
 40
0.9937688388160357
 40
1.0
 40
1.0
 40
1.0
 40
1.0
 10
254.8377176133674
 20
466.5987563532376
 30
0.0
 10
254.8381098743522
 20
466.598754376547
 30
0.0
 10
254.8495968160408
 20
466.5986964912835
 30
0.0
 10
254.8729131428652
 20
466.5834292769434
 30
0.0
 10
254.9163886881052
 20
466.5165672248347
 30
0.0
 10
254.9543649399741
 20
466.4118690985912
 30
0.0
 10
254.9778672092871
 20
466.2867907276458
 30
0.0
 10
254.9892100632268
 20
466.1583518701117
 30
0.0
 10
254.9897869608437
 20
466.0371878479482
 30
0.0
 10
254.9740236060059
 20
465.9279507749573
 30
0.0
 10
254.9336398189458
 20
465.838556548321
 30
0.0
 10
254.881782390881
 20
465.8034469200233
 30
0.0
 10
254.8470584747484
 20
465.7988973409746
 30
0.0
 10
254.8390995055677
 20
465.7987783689782
 30
0.0
 10
254.8377176133674
 20
465.7987577122236
 30
0.0
  0
SPLINE
  5
25A
330
1F
100
AcDbEntity
  8
0
  6
Continuous
 62
     7
370
    15
100
AcDbSpline
210
0.0
220
0.0
230
1.0
 70
     8
 71
     3
 72
    30
 73
    26
 74
     0
 42
0.00000001
 43
0.00000001
 40
0.0
 40
0.0
 40
0.0
 40
0.0
 40
0.124721393558182
 40
0.2494234757821737
 40
0.3741305536322721
 40
0.4367847638028221
 40
0.4681519414634681
 40
0.483841008569833
 40
0.4916921798588894
 40
0.4956114143033643
 40
0.4975722517811428
 40
0.4985512055745481
 40
0.4990393412871713
 40
0.4992847845923886
 40
0.4994205310176681
 40
0.4994812386645936
 40
0.4995050501627703
 40
0.4995218874346013
 40
0.499545698932778
 40
0.5609223251316692
 40
0.6646300005891262
 40
0.7325823323415515
 40
0.8111545550432933
 40
0.9002868046533048
 40
1.0
 40
1.0
 40
1.0
 40
1.0
 10
254.9094220010322
 20
466.6586590212369
 30
0.0
 10
254.9151854491452
 20
466.6568683600771
 30
0.0
 10
254.9267114529831
 20
466.6532873150159
 30
0.0
 10
255.0165565771113
 20
466.6314236774237
 30
0.0
 10
255.1240438395174
 20
466.6057822651874
 30
0.0
 10
255.2095771525241
 20
466.5853231096094
 30
0.0
 10
255.2536879321977
 20
466.574821632925
 30
0.0
 10
255.275908120839
 20
466.5694853944287
 30
0.0
 10
255.2870468376643
 20
466.5668347132003
 30
0.0
 10
255.2926164288677
 20
466.5654973627376
 30
0.0
 10
255.2953965556168
 20
466.5648204580536
 30
0.0
 10
255.2967851194766
 20
466.5644783442781
 30
0.0
 10
255.2974850231712
 20
466.5643326484792
 30
0.0
 10
255.2978353303978
 20
466.5642396000783
 30
0.0
 10
255.2980157420918
 20
466.5641993033448
 30
0.0
 10
255.2981007542968
 20
466.5641632459456
 30
0.0
 10
255.2981486974039
 20
466.5641781549448
 30
0.0
 10
255.2981634607018
 20
466.5641487126709
 30
0.0
 10
255.3265916873667
 20
466.5709587183367
 30
0.0
 10
255.3876449380966
 20
466.5331047814869
 30
0.0
 10
255.4819521270242
 20
466.5261668358754
 30
0.0
 10
255.5647753783837
 20
466.5062095925144
 30
0.0
 10
255.6284967515096
 20
466.4940858476777
 30
0.0
 10
255.6789764932478
 20
466.484209857001
 30
0.0
 10
255.686203410627
 20
466.4837816013712
 30
0.0
 10
255.6900193301719
 20
466.483555476048
 30
0.0
  0
ELLIPSE
  5
25B
330
1F
100
AcDbEntity
  8
0
  6
Continuous
 62
     7
370
    15
100
AcDbEllipse
 10
255.5665495827
 20
467.7807386607
 30
0.0
 11
0.3906095144045594
 21
-0.0861638396116291
 31
0.0
210
0.0
220
0.0
230
1.0
 40
0.0142285888
 41
0.0
 42
6.283185307179586
  0
LINE
  5
25C
330
1F
100
AcDbEntity
  8
0
  6
Continuous
 62
     7
370
    15
100
AcDbLine
 10
254.950370392
 20
456.2987608117
 30
0.0
 11
254.950370392
 21
464.8987573784
 31
0.0
  0
LINE
  5
25D
330
1F
100
AcDbEntity
  8
0
  6
Continuous
 62
     7
370
    15
100
AcDbLine
 10
254.950370392
 20
456.2987608117
 30
0.0
 11
249.4360764829
 21
456.2987608117
 31
0.0
  0
LINE
  5
25E
330
1F
100
AcDbEntity
  8
0
  6
Continuous
 62
     7
370
    15
100
AcDbLine
 10
249.4360764829
 20
456.2987608117
 30
0.0
 11
249.4360764829
 21
464.8987573784
 31
0.0
  0
LINE
  5
25F
330
1F
100
AcDbEntity
  8
0
  6
Continuous
 62
     7
370
    15
100
AcDbLine
 10
254.950370392
 20
464.8987573784
 30
0.0
 11
249.4360764829
 21
464.8987573784
 31
0.0
  0
LINE
  5
260
330
1F
100
AcDbEntity
  8
0
  6
Continuous
 62
     7
370
    15
100
AcDbLine
 10
248.3218123523
 20
468.1987685364
 30
0.0
 11
223.5097100345
 21
468.1987685364
 31
0.0
  0
LINE
  5
261
330
1F
100
AcDbEntity
  8
0
  6
Continuous
 62
     7
370
    15
100
AcDbLine
 10
248.3218123523
 20
464.8987573784
 30
0.0
 11
248.3218123523
 21
468.1987685364
 31
0.0
  0
LINE
  5
262
330
1F
100
AcDbEntity
  8
0
  6
Continuous
 62
     7
370
    15
100
AcDbLine
 10
248.3218123523
 20
453.7987631959
 30
0.0
 11
248.3218123523
 21
456.2987608117
 31
0.0
  0
LINE
  5
263
330
1F
100
AcDbEntity
  8
0
  6
Continuous
 62
     7
370
    15
100
AcDbLine
 10
223.5097100345
 20
453.7987631959
 30
0.0
 11
248.3218123523
 21
453.7987631959
 31
0.0
  0
LINE
  5
264
330
1F
100
AcDbEntity
  8
0
  6
Continuous
 62
     7
370
    15
100
AcDbLine
 10
223.5097100345
 20
453.7987631959
 30
0.0
 11
223.5097100345
 21
468.1987685364
 31
0.0
  0
LINE
  5
265
330
1F
100
AcDbEntity
  8
0
  6
Continuous
 62
     7
370
    15
100
AcDbLine
 10
248.3218123523
 20
464.8987573784
 30
0.0
 11
249.4360764829
 21
464.8987573784
 31
0.0
  0
LINE
  5
266
330
1F
100
AcDbEntity
  8
0
  6
Continuous
 62
     7
370
    15
100
AcDbLine
 10
248.3218123523
 20
456.2987608117
 30
0.0
 11
249.4360764829
 21
456.2987608117
 31
0.0
  0
LINE
  5
267
330
1F
100
AcDbEntity
  8
0
  6
Continuous
 62
     7
370
    15
100
AcDbLine
 10
248.449440798
 20
453.0014169615
 30
0.0
 11
250.3416796533
 21
453.0014169615
 31
0.0
  0
LINE
  5
268
330
1F
100
AcDbEntity
  8
0
  6
Continuous
 62
     7
370
    15
100
AcDbLine
 10
250.3416796533
 20
453.0014169615
 30
0.0
 11
251.0144372789
 21
452.9987645548
 31
0.0
  0
LINE
  5
269
330
1F
100
AcDbEntity
  8
0
  6
Continuous
 62
     7
370
    15
100
AcDbLine
 10
251.0144372789
 20
452.9987645548
 30
0.0
 11
223.6486335603
 21
452.9987645548
 31
0.0
  0
ARC
  5
26A
330
1F
100
AcDbEntity
  8
0
  6
Continuous
 62
     7
370
    15
100
AcDbCircle
 10
224.7656328315
 20
453.6047984129
 30
0.0
 40
1.270812499494411
100
AcDbArc
 50
171.2205995842
 51
208.4822784261
  0
ARC
  5
26B
330
1F
100
AcDbEntity
  8
0
  6
Continuous
 62
     7
370
    15
100
AcDbCircle
 10
249.7960987984
 20
453.6258594744
 30
0.0
 40
1.48439085894487
100
AcDbArc
 50
173.3109306145
 51
204.8770567259
  0
LINE
  5
26C
330
1F
100
AcDbEntity
  8
0
  6
Continuous
 62
     7
370
    15
100
AcDbLine
 10
250.3416796533
 20
468.9961147707
 30
0.0
 11
248.449440798
 21
468.9961147707
 31
0.0
  0
ARC
  5
26D
330
1F
100
AcDbEntity
  8
0
  6
Continuous
 62
     7
370
    15
100
AcDbCircle
 10
249.7961273409
 20
468.3716676892
 30
0.0
 40
1.484418674970836
100
AcDbArc
 50
155.1232467424
 51
186.6887659172
  0
ARC
  5
26E
330
1F
100
AcDbEntity
  8
0
  6
Continuous
 62
     7
370
    15
100
AcDbCircle
 10
224.7656328315
 20
468.3927333193
 30
0.0
 40
1.270812499494411
100
AcDbArc
 50
151.5177215739
 51
188.7794004158
  0
LINE
  5
26F
330
1F
100
AcDbEntity
  8
0
  6
Continuous
 62
     7
370
    15
100
AcDbLine
 10
223.6486335603
 20
468.9987671774
 30
0.0
 11
251.0144372789
 21
468.9987671774
 31
0.0
  0
LINE
  5
270
330
1F
100
AcDbEntity
  8
0
  6
Continuous
 62
     7
370
    15
100
AcDbLine
 10
251.0144372789
 20
468.9987671774
 30
0.0
 11
250.3416796533
 21
468.9961147707
 31
0.0
  0
LINE
  5
271
330
1F
100
AcDbEntity
  8
0
  6
Continuous
 62
     7
370
    15
100
AcDbLine
 10
248.449440798
 20
453.0014169615
 30
0.0
 11
248.449440798
 21
453.7987631959
 31
0.0
  0
LINE
  5
272
330
1F
100
AcDbEntity
  8
0
  6
Continuous
 62
     7
370
    15
100
AcDbLine
 10
248.4607358781
 20
456.2987608117
 30
0.0
 11
248.4607358781
 21
453.7987631959
 31
0.0
  0
LINE
  5
273
330
1F
100
AcDbEntity
  8
0
  6
Continuous
 62
     7
370
    15
100
AcDbLine
 10
248.449440798
 20
468.1987685364
 30
0.0
 11
248.449440798
 21
468.9961147707
 31
0.0
  0
LINE
  5
274
330
1F
100
AcDbEntity
  8
0
  6
Continuous
 62
     7
370
    15
100
AcDbLine
 10
248.4607358781
 20
468.1987685364
 30
0.0
 11
248.4607358781
 21
464.8987573784
 31
0.0
  0
LINE
  5
275
330
1F
100
AcDbEntity
  8
0
  6
Continuous
 62
     7
370
    15
100
AcDbLine
 10
254.4494380561
 20
452.9987645548
 30
0.0
 11
251.0144372789
 21
452.9987645548
 31
0.0
  0
LINE
  5
276
330
1F
100
AcDbEntity
  8
0
  6
Continuous
 62
     7
370
    15
100
AcDbLine
 10
250.3416796533
 20
453.0014169615
 30
0.0
 11
250.3416796533
 21
453.7987631959
 31
0.0
  0
LINE
  5
277
330
1F
100
AcDbEntity
  8
0
  6
Continuous
 62
     7
370
    15
100
AcDbLine
 10
254.4494380561
 20
453.7987631959
 30
0.0
 11
250.3416796533
 21
453.7987631959
 31
0.0
  0
LINE
  5
278
330
1F
100
AcDbEntity
  8
0
  6
Continuous
 62
     7
370
    15
100
AcDbLine
 10
250.3416796533
 20
468.1987685364
 30
0.0
 11
250.3416796533
 21
468.9961147707
 31
0.0
  0
LINE
  5
279
330
1F
100
AcDbEntity
  8
0
  6
Continuous
 62
     7
370
    15
100
AcDbLine
 10
254.4494380561
 20
468.9987671774
 30
0.0
 11
251.0144372789
 21
468.9987671774
 31
0.0
  0
LINE
  5
27A
330
1F
100
AcDbEntity
  8
0
  6
Continuous
 62
     7
370
    15
100
AcDbLine
 10
254.4494380561
 20
468.1987685364
 30
0.0
 11
250.3416796533
 21
468.1987685364
 31
0.0
  0
LINE
  5
27B
330
1F
100
AcDbEntity
  8
0
  6
Continuous
 62
     7
370
    15
100
AcDbLine
 10
248.449440798
 20
453.7987631959
 30
0.0
 11
250.3416796533
 21
453.7987631959
 31
0.0
  0
LINE
  5
27C
330
1F
100
AcDbEntity
  8
0
  6
Continuous
 62
     7
370
    15
100
AcDbLine
 10
248.449440798
 20
468.1987685364
 30
0.0
 11
250.3416796533
 21
468.1987685364
 31
0.0
  0
LINE
  5
27D
330
1F
100
AcDbEntity
  8
0
  6
Continuous
 62
     7
370
    15
100
AcDbLine
 10
249.5194484798
 20
469.2987573546
 30
0.0
 11
253.919448456
 21
469.2987573546
 31
0.0
  0
LINE
  5
27E
330
1F
100
AcDbEntity
  8
0
  6
Continuous
 62
     7
370
    15
100
AcDbLine
 10
249.6194352714
 20
452.1987659138
 30
0.0
 11
253.8194467632
 21
452.1987659138
 31
0.0
  0
LINE
  5
27F
330
1F
100
AcDbEntity
  8
0
  6
Continuous
 62
     7
370
    15
100
AcDbLine
 10
249.6194352714
 20
452.5987577837
 30
0.0
 11
253.8194467632
 21
452.5987577837
 31
0.0
  0
LINE
  5
280
330
1F
100
AcDbEntity
  8
0
  6
Continuous
 62
     7
370
    15
100
AcDbLine
 10
218.6108638851
 20
468.1987685364
 30
0.0
 11
216.6213800518
 21
468.1987685364
 31
0.0
  0
LINE
  5
281
330
1F
100
AcDbEntity
  8
0
  6
Continuous
 62
     7
370
    15
100
AcDbLine
 10
218.6108638851
 20
453.7987631959
 30
0.0
 11
218.6108638851
 21
468.1987685364
 31
0.0
  0
LINE
  5
282
330
1F
100
AcDbEntity
  8
0
  6
Continuous
 62
     7
370
    15
100
AcDbLine
 10
216.6213800518
 20
453.7987631959
 30
0.0
 11
218.6108638851
 21
453.7987631959
 31
0.0
  0
ARC
  5
283
330
1F
100
AcDbEntity
  8
0
  6
Continuous
 62
     7
370
    15
100
AcDbCircle
 10
231.9153544745
 20
460.9987658661
 30
0.0
 40
16.90401408232907
100
AcDbArc
 50
154.7901718738
 51
205.2098281262
  0
SPLINE
  5
284
330
1F
100
AcDbEntity
  8
0
  6
Continuous
 62
     7
370
    15
100
AcDbSpline
210
0.0
220
0.0
230
1.0
 70
     8
 71
     3
 72
    12
 73
     8
 74
     0
 42
0.00000001
 43
0.00000001
 40
0.0
 40
0.0
 40
0.0
 40
0.0
 40
0.1818822321958606
 40
0.3633443175082915
 40
0.5550756114976005
 40
0.7712680036868516
 40
1.0
 40
1.0
 40
1.0
 40
1.0
 10
216.7537619678062
 20
452.9987645548367
 30
0.0
 10
216.777619010934
 20
453.0060866929323
 30
0.0
 10
216.8252779875609
 20
453.0207140550278
 30
0.0
 10
216.8400295242599
 20
453.1327131189364
 30
0.0
 10
216.8127924024053
 20
453.3020916863532
 30
0.0
 10
216.7411219324001
 20
453.5305131494312
 30
0.0
 10
216.6620369801562
 20
453.7076820897979
 30
0.0
 10
216.62138005176
 20
453.7987631958508
 30
0.0
  0
LINE
  5
285
330
1F
100
AcDbEntity
  8
0
  6
Continuous
 62
     7
370
    15
100
AcDbLine
 10
216.369401416
 20
453.7532699507
 30
0.0
 11
216.7238404361
 21
452.9987645548
 31
0.0
  0
ARC
  5
286
330
1F
100
AcDbEntity
  8
0
  6
Continuous
 62
     7
370
    15
100
AcDbCircle
 10
231.6399370648
 20
460.9987658661
 30
0.0
 40
16.90226227646351
100
AcDbArc
 50
154.6168036234
 51
205.3831963766
  0
LINE
  5
287
330
1F
100
AcDbEntity
  8
0
  6
Continuous
 62
     7
370
    15
100
AcDbLine
 10
216.7238404361
 20
468.9987671774
 30
0.0
 11
216.369401416
 21
468.2442617816
 31
0.0
  0
SPLINE
  5
288
330
1F
100
AcDbEntity
  8
0
  6
Continuous
 62
     7
370
    15
100
AcDbSpline
210
0.0
220
0.0
230
1.0
 70
     8
 71
     3
 72
    12
 73
     8
 74
     0
 42
0.00000001
 43
0.00000001
 40
0.0
 40
0.0
 40
0.0
 40
0.0
 40
0.2510129086054094
 40
0.502399626882728
 40
0.7402756306463418
 40
0.9473068991405539
 40
1.0
 40
1.0
 40
1.0
 40
1.0
 10
216.62138005176
 20
468.198768536427
 30
0.0
 10
216.6656985696536
 20
468.2986478845476
 30
0.0
 10
216.7544016047979
 20
468.4985553216107
 30
0.0
 10
216.8293832547577
 20
468.7572838997909
 30
0.0
 10
216.8408929428246
 20
468.9345124846611
 30
0.0
 10
216.7992438769614
 20
468.9949496024942
 30
0.0
 10
216.7614330587498
 20
468.9981232958375
 30
0.0
 10
216.7537619678062
 20
468.9987671774411
 30
0.0
  0
LINE
  5
289
330
1F
100
AcDbEntity
  8
0
  6
Continuous
 62
     7
370
    15
100
AcDbLine
 10
216.7537619678
 20
468.9987671774
 30
0.0
 11
216.7238404361
 21
468.9987671774
 31
0.0
  0
LINE
  5
28A
330
1F
100
AcDbEntity
  8
0
  6
Continuous
 62
     7
370
    15
100
AcDbLine
 10
216.7537619678
 20
452.9987645548
 30
0.0
 11
216.7238404361
 21
452.9987645548
 31
0.0
  0
LWPOLYLINE
  5
28B
330
1F
100
AcDbEntity
  8
0
  6
Continuous
 62
     7
370
    15
100
AcDbPolyline
 90
        9
 70
   128
 43
0.0
 10
218.6108638851
 20
468.1987685364
 10
218.6056037752
 20
468.3548283976
 10
218.5900320617
 20
468.5049128932
 10
218.5647447912
 20
468.6432254714
 10
218.5307254402
 20
468.7644464177
 10
218.4892555086
 20
468.863941471
 10
218.4419443218
 20
468.9378661316
 10
218.3906247226
 20
468.9833891791
 10
218.3372487632
 20
468.9987671774
  0
LINE
  5
28C
330
1F
100
AcDbEntity
  8
0
  6
Continuous
 62
     7
370
    15
100
AcDbLine
 10
216.7537619678
 20
468.9987671774
 30
0.0
 11
218.3372487632
 21
468.9987671774
 31
0.0
  0
LWPOLYLINE
  5
28D
330
1F
100
AcDbEntity
  8
0
  6
Continuous
 62
     7
370
    15
100
AcDbPolyline
 90
        9
 70
   128
 43
0.0
 10
218.6108638851
 20
453.7987631959
 10
218.6056037752
 20
453.6426884335
 10
218.5900320617
 20
453.4926188391
 10
218.5647447912
 20
453.3543062609
 10
218.5307254402
 20
453.2330853146
 10
218.4892555086
 20
453.1335902613
 10
218.4419443218
 20
453.0596656006
 10
218.3906247226
 20
453.0141425532
 10
218.3372487632
 20
452.9987645548
  0
LINE
  5
28E
330
1F
100
AcDbEntity
  8
0
  6
Continuous
 62
     7
370
    15
100
AcDbLine
 10
218.3372487632
 20
452.9987645548
 30
0.0
 11
216.7537619678
 21
452.9987645548
 31
0.0
  0
LINE
  5
28F
330
1F
100
AcDbEntity
  8
0
  6
Continuous
 62
     7
370
    15
100
AcDbLine
 10
223.5097100345
 20
468.1987685364
 30
0.0
 11
218.6108638851
 21
468.1987685364
 31
0.0
  0
LINE
  5
290
330
1F
100
AcDbEntity
  8
0
  6
Continuous
 62
     7
370
    15
100
AcDbLine
 10
218.3372487632
 20
468.9987671774
 30
0.0
 11
223.6486335603
 21
468.9987671774
 31
0.0
  0
LINE
  5
291
330
1F
100
AcDbEntity
  8
0
  6
Continuous
 62
     7
370
    15
100
AcDbLine
 10
218.6108638851
 20
453.7987631959
 30
0.0
 11
223.5097100345
 21
453.7987631959
 31
0.0
  0
LINE
  5
292
330
1F
100
AcDbEntity
  8
0
  6
Continuous
 62
     7
370
    15
100
AcDbLine
 10
223.6486335603
 20
452.9987645548
 30
0.0
 11
218.3372487632
 21
452.9987645548
 31
0.0
  0
SPLINE
  5
293
330
1F
100
AcDbEntity
  8
0
  6
Continuous
 62
     7
370
    15
100
AcDbSpline
210
0.0
220
0.0
230
1.0
 70
     8
 71
     3
 72
    16
 73
    12
 74
     0
 42
0.00000001
 43
0.00000001
 40
0.0
 40
0.0
 40
0.0
 40
0.0
 40
0.1207066529255468
 40
0.2414155927687232
 40
0.362117651111084
 40
0.4828224986332781
 40
0.6035285905127119
 40
0.7242353552872488
 40
0.8449404855461232
 40
0.9656486407369659
 40
1.0
 40
1.0
 40
1.0
 40
1.0
 10
249.8917390910667
 20
78.04638866601223
 30
0.0
 10
249.9111399597163
 20
78.04906518391844
 30
0.0
 10
249.9499420645858
 20
78.05441827044035
 30
0.0
 10
249.9548655600659
 20
78.34534532715418
 30
0.0
 10
249.9176493652635
 20
78.79871268294144
 30
0.0
 10
249.8407509143653
 20
79.36621904135518
 30
0.0
 10
249.7369164259517
 20
79.95454823261636
 30
0.0
 10
249.6208295217624
 20
80.48124529316792
 30
0.0
 10
249.5138138890023
 20
80.84454444944828
 30
0.0
 10
249.4412427798349
 20
81.01500032693355
 30
0.0
 10
249.4216918673462
 20
80.9818423489748
 30
0.0
 10
249.4173606244605
 20
80.97449664292571
 30
0.0
  0
SPLINE
  5
294
330
1F
100
AcDbEntity
  8
0
  6
Continuous
 62
     7
370
    15
100
AcDbSpline
210
0.0
220
0.0
230
1.0
 70
     8
 71
     3
 72
    16
 73
    12
 74
     0
 42
0.00000001
 43
0.00000001
 40
0.0
 40
0.0
 40
0.0
 40
0.0
 40
0.1205773130808821
 40
0.2411630015605836
 40
0.3617418155659114
 40
0.4823238081722991
 40
0.6029061198066487
 40
0.7234896354385915
 40
0.8440715182238145
 40
0.9646564228523614
 40
1.0
 40
1.0
 40
1.0
 40
1.0
 10
250.0623275844138
 20
103.9224189919018
 30
0.0
 10
250.0817286042271
 20
103.9197410239303
 30
0.0
 10
250.1205319914645
 20
103.9143849019733
 30
0.0
 10
250.1254520394212
 20
103.6234626551331
 30
0.0
 10
250.088244523231
 20
103.1700927730883
 30
0.0
 10
250.0113145256589
 20
102.6025946750722
 30
0.0
 10
249.9075097555614
 20
102.014246246634
 30
0.0
 10
249.7914226861823
 20
101.4876047868542
 30
0.0
 10
249.6843786913576
 20
101.1241059252272
 30
0.0
 10
249.6116239346435
 20
100.9535831035901
 30
0.0
 10
249.5919836552476
 20
100.9871618207591
 30
0.0
 10
249.5875318852943
 20
100.9947729509854
 30
0.0
  0
SPLINE
  5
295
330
1F
100
AcDbEntity
  8
0
  6
Continuous
 62
     7
370
    15
100
AcDbSpline
210
0.0
220
0.0
230
1.0
 70
     8
 71
     3
 72
    16
 73
    12
 74
     0
 42
0.00000001
 43
0.00000001
 40
0.0
 40
0.0
 40
0.0
 40
0.0
 40
0.1205182433370418
 40
0.2410333304133654
 40
0.3615509498326964
 40
0.4820658984742974
 40
0.6025830501387655
 40
0.7231014051502135
 40
0.8436162026618527
 40
0.9641310227902649
 40
1.0
 40
1.0
 40
1.0
 40
1.0
 10
265.4327114430945
 20
80.662809054234
 30
0.0
 10
265.4521125577148
 20
80.66548329126047
 30
0.0
 10
265.490914278858
 20
80.67083169527758
 30
0.0
 10
265.4958352671297
 20
80.9617853922956
 30
0.0
 10
265.4586299830055
 20
81.41511785951522
 30
0.0
 10
265.3816977035212
 20
81.98263998270289
 30
0.0
 10
265.2778926840865
 20
82.57098467041298
 30
0.0
 10
265.1618110235883
 20
83.097605425271
 30
0.0
 10
265.0547506124342
 20
83.4611709781176
 30
0.0
 10
264.9818991550961
 20
83.63177467986007
 30
0.0
 10
264.9622085606912
 20
83.59795811372969
 30
0.0
 10
264.9576922265571
 20
83.59020177541015
 30
0.0
  0
SPLINE
  5
296
330
1F
100
AcDbEntity
  8
0
  6
Continuous
 62
     7
370
    15
100
AcDbSpline
210
0.0
220
0.0
230
1.0
 70
     8
 71
     3
 72
    16
 73
    12
 74
     0
 42
0.00000001
 43
0.00000001
 40
0.0
 40
0.0
 40
0.0
 40
0.0
 40
0.1205178365107945
 40
0.2410310967581959
 40
0.3615483093533857
 40
0.4820657449461409
 40
0.6025824897880467
 40
0.7230982529475957
 40
0.8436167305573118
 40
0.9641311438710323
 40
1.0
 40
1.0
 40
1.0
 40
1.0
 10
265.6032999364417
 20
101.3059986036801
 30
0.0
 10
265.6227010577729
 20
101.3033231546038
 30
0.0
 10
265.6615025637422
 20
101.2979723580424
 30
0.0
 10
265.6664237459279
 20
101.0070396506859
 30
0.0
 10
265.6292179820962
 20
100.5537005529787
 30
0.0
 10
265.552285460677
 20
99.98617084291969
 30
0.0
 10
265.4484896910075
 20
99.39783095503246
 30
0.0
 10
265.3323696670221
 20
98.871186352331
 30
0.0
 10
265.2253489480419
 20
98.50764547718494
 30
0.0
 10
265.1524871138145
 20
98.33703259512774
 30
0.0
 10
265.1327969542917
 20
98.3708494727411
 30
0.0
 10
265.1282807199043
 20
98.37860588250393
 30
0.0
  0
SPLINE
  5
297
330
1F
100
AcDbEntity
  8
0
  6
Continuous
 62
     7
370
    15
100
AcDbSpline
210
0.0
220
0.0
230
1.0
 70
    24
 71
     3
 72
    16
 73
    12
 74
     0
 42
0.00000001
 43
0.00000001
 40
0.0
 40
0.0
 40
0.0
 40
0.0
 40
0.0611042260699412
 40
0.1864670038060815
 40
0.3118320320058386
 40
0.4371949488658223
 40
0.5625600988373968
 40
0.6879240836221383
 40
0.8132868438052594
 40
0.9386468178623724
 40
1.0
 40
1.0
 40
1.0
 40
1.0
 10
268.5096224156898
 20
84.13252953706021
 30
0.0
 10
268.515395435011
 20
84.13252953706024
 30
0.0
 10
268.5330125080837
 20
84.13252953706021
 30
0.0
 10
268.3145728703867
 20
84.13252953706015
 30
0.0
 10
267.9018478485039
 20
84.1325295370603
 30
0.0
 10
267.3453751264415
 20
84.13252953706018
 30
0.0
 10
266.7462642300766
 20
84.1325295370603
 30
0.0
 10
266.1875729398424
 20
84.13252953706018
 30
0.0
 10
265.7706167933852
 20
84.1325295370603
 30
0.0
 10
265.5476145886174
 20
84.13252953706021
 30
0.0
 10
265.5624303365962
 20
84.13252953706021
 30
0.0
 10
265.5672987309974
 20
84.13252953706024
 30
0.0
  0
SPLINE
  5
298
330
1F
100
AcDbEntity
  8
0
  6
Continuous
 62
     7
370
    15
100
AcDbSpline
210
0.0
220
0.0
230
1.0
 70
    24
 71
     3
 72
    16
 73
    12
 74
     0
 42
0.00000001
 43
0.00000001
 40
0.0
 40
0.0
 40
0.0
 40
0.0
 40
0.0610064761844534
 40
0.1861687080998494
 40
0.3113331868787419
 40
0.4364955576954215
 40
0.5616601580513301
 40
0.686823595084383
 40
0.8119858094748397
 40
0.9371452421963204
 40
1.0
 40
1.0
 40
1.0
 40
1.0
 10
268.5096224156898
 20
97.691155711987
 30
0.0
 10
268.5153954287867
 20
97.691155711987
 30
0.0
 10
268.5330124828653
 20
97.69115571198702
 30
0.0
 10
268.314573104201
 20
97.69115571198702
 30
0.0
 10
267.9018469918327
 20
97.69115571198697
 30
0.0
 10
267.3453783192716
 20
97.69115571198697
 30
0.0
 10
266.7462523152215
 20
97.69115571198702
 30
0.0
 10
266.1876174057119
 20
97.69115571198697
 30
0.0
 10
265.7704508479014
 20
97.691155711987
 30
0.0
 10
265.5469586349622
 20
97.69115571198702
 30
0.0
 10
265.5621802216
 20
97.69115571198697
 30
0.0
 10
265.567268928675
 20
97.691155711987
 30
0.0
  0
SPLINE
  5
299
330
1F
100
AcDbEntity
  8
0
  6
Continuous
 62
     7
370
    15
100
AcDbSpline
210
0.0
220
0.0
230
1.0
 70
     8
 71
     3
 72
    19
 73
    15
 74
     0
 42
0.00000001
 43
0.00000001
 40
0.0
 40
0.0
 40
0.0
 40
0.0
 40
0.0039536244848257
 40
0.1157762232980749
 40
0.2280445999215579
 40
0.3355258835516775
 40
0.4377050591197083
 40
0.5348807658109992
 40
0.6283083145349223
 40
0.7302960199431322
 40
0.8413388598395838
 40
0.9641118390599779
 40
0.9937689419021886
 40
1.0
 40
1.0
 40
1.0
 40
1.0
 10
254.8377176133674
 20
96.59876648602722
 30
0.0
 10
254.838109874265
 20
96.59875944495485
 30
0.0
 10
254.8495966721264
 20
96.59855325724794
 30
0.0
 10
254.8729131357297
 20
96.58348748937074
 30
0.0
 10
254.9163889162883
 20
96.51654644006189
 30
0.0
 10
254.9543628377939
 20
96.4118713822576
 30
0.0
 10
254.9778687081405
 20
96.28679558916389
 30
0.0
 10
254.989209854195
 20
96.15835882465181
 30
0.0
 10
254.9897882855194
 20
96.03718708784989
 30
0.0
 10
254.9740207415667
 20
95.927964412126
 30
0.0
 10
254.9336422823751
 20
95.8385344658394
 30
0.0
 10
254.8817821219006
 20
95.80348144540324
 30
0.0
 10
254.8470586151592
 20
95.79887084523875
 30
0.0
 10
254.8390995080508
 20
95.79878308272183
 30
0.0
 10
254.8377176133674
 20
95.79876784501312
 30
0.0
  0
SPLINE
  5
29A
330
1F
100
AcDbEntity
  8
0
  6
Continuous
 62
     7
370
    15
100
AcDbSpline
210
0.0
220
0.0
230
1.0
 70
     8
 71
     3
 72
    30
 73
    26
 74
     0
 42
0.00000001
 43
0.00000001
 40
0.0
 40
0.0
 40
0.0
 40
0.0
 40
0.1247217805376483
 40
0.2494242496811882
 40
0.3741317144663349
 40
0.4367834731342143
 40
0.4681534842357631
 40
0.4838426000214016
 40
0.4916937956706898
 40
0.4956130422755746
 40
0.4975711007266118
 40
0.4985500575574673
 40
0.4990409456910009
 40
0.4992863897577676
 40
0.4994195004921991
 40
0.4994802083274854
 40
0.4995068304743717
 40
0.4995187362604006
 40
0.4995453584072869
 40
0.5609195733727153
 40
0.6646275706092974
 40
0.7325820771240311
 40
0.8111529966377453
 40
0.900286495268058
 40
1.0
 40
1.0
 40
1.0
 40
1.0
 10
254.9094220010322
 20
96.65865425286529
 30
0.0
 10
254.9151853271183
 20
96.65686305559007
 30
0.0
 10
254.9267110869214
 20
96.65328093838093
 30
0.0
 10
255.0165580411178
 20
96.63142534105098
 30
0.0
 10
255.1240385913924
 20
96.6057586609512
 30
0.0
 10
255.2095821973319
 20
96.58534523076334
 30
0.0
 10
255.2536866798605
 20
96.57481664862466
 30
0.0
 10
255.2759075659176
 20
96.56947801601429
 30
0.0
 10
255.2870476886883
 20
96.56683392246227
 30
0.0
 10
255.2926140944419
 20
96.56548723674175
 30
0.0
 10
255.2953959975102
 20
96.56482418027478
 30
0.0
 10
255.2967893388419
 20
96.56449987094007
 30
0.0
 10
255.2974828126553
 20
96.56432553133453
 30
0.0
 10
255.2978351319463
 20
96.56423587502294
 30
0.0
 10
255.2980123590992
 20
96.56419417542702
 30
0.0
 10
255.2981078432312
 20
96.5641937209559
 30
0.0
 10
255.2981418523764
 20
96.56416351192595
 30
0.0
 10
255.2981701911083
 20
96.5641683208808
 30
0.0
 10
255.3199492594267
 20
96.54792141437338
 30
0.0
 10
255.3930213856985
 20
96.55176186571873
 30
0.0
 10
255.4808650541244
 20
96.52240919618934
 30
0.0
 10
255.565053273989
 20
96.50716565804585
 30
0.0
 10
255.6284074564392
 20
96.49379346487727
 30
0.0
 10
255.679003161039
 20
96.48429124598654
 30
0.0
 10
255.6862126386735
 20
96.48380660433656
 30
0.0
 10
255.6900193301719
 20
96.48355070767639
 30
0.0
  0
ELLIPSE
  5
29B
330
1F
100
AcDbEntity
  8
0
  6
Continuous
 62
     7
370
    15
100
AcDbEllipse
 10
255.5665495827
 20
97.7807386607
 30
0.0
 11
0.3906095144045594
 21
-0.08616383961160068
 31
0.0
210
0.0
220
0.0
230
1.0
 40
0.0142285888
 41
0.0
 42
6.283185307179586
  0
LINE
  5
29C
330
1F
100
AcDbEntity
  8
0
  6
Continuous
 62
     7
370
    15
100
AcDbLine
 10
254.7394444553
 20
467.7487683695
 30
0.0
 11
254.7394444553
 21
466.748766343
 31
0.0
  0
LINE
  5
29D
330
1F
100
AcDbEntity
  8
0
  6
Continuous
 62
     7
370
    15
100
AcDbLine
 10
254.7394444553
 20
466.748766343
 30
0.0
 11
248.5394438116
 21
466.748766343
 31
0.0
  0
LINE
  5
29E
330
1F
100
AcDbEntity
  8
0
  6
Continuous
 62
     7
370
    15
100
AcDbLine
 10
248.5394438116
 20
467.7487683695
 30
0.0
 11
248.5394438116
 21
466.748766343
 31
0.0
  0
LINE
  5
29F
330
1F
100
AcDbEntity
  8
0
  6
Continuous
 62
     7
370
    15
100
AcDbLine
 10
254.7394444553
 20
467.7487683695
 30
0.0
 11
248.5394438116
 21
467.7487683695
 31
0.0
  0
LINE
  5
2A0
330
1F
100
AcDbEntity
  8
0
  6
Continuous
 62
     7
370
    15
100
AcDbLine
 10
254.7394444553
 20
97.7487636012
 30
0.0
 11
248.5394438116
 21
97.7487636012
 31
0.0
  0
LINE
  5
2A1
330
1F
100
AcDbEntity
  8
0
  6
Continuous
 62
     7
370
    15
100
AcDbLine
 10
254.7394444553
 20
97.7487636012
 30
0.0
 11
254.7394444553
 21
96.7487615746
 31
0.0
  0
LINE
  5
2A2
330
1F
100
AcDbEntity
  8
0
  6
Continuous
 62
     7
370
    15
100
AcDbLine
 10
254.7394444553
 20
96.7487615746
 30
0.0
 11
248.5394438116
 21
96.7487615746
 31
0.0
  0
LINE
  5
2A3
330
1F
100
AcDbEntity
  8
0
  6
Continuous
 62
     7
370
    15
100
AcDbLine
 10
248.5394438116
 20
97.7487636012
 30
0.0
 11
248.5394438116
 21
96.7487615746
 31
0.0
  0
LINE
  5
2A4
330
1F
100
AcDbEntity
  8
0
  6
Continuous
 62
     7
370
    15
100
AcDbLine
 10
254.7394444553
 20
455.2487653893
 30
0.0
 11
254.7394444553
 21
454.2487633627
 31
0.0
  0
LINE
  5
2A5
330
1F
100
AcDbEntity
  8
0
  6
Continuous
 62
     7
370
    15
100
AcDbLine
 10
248.5394438116
 20
455.2487653893
 30
0.0
 11
248.5394438116
 21
454.2487633627
 31
0.0
  0
LINE
  5
2A6
330
1F
100
AcDbEntity
  8
0
  6
Continuous
 62
     7
370
    15
100
AcDbLine
 10
254.7394444553
 20
455.2487653893
 30
0.0
 11
248.5394438116
 21
455.2487653893
 31
0.0
  0
LINE
  5
2A7
330
1F
100
AcDbEntity
  8
0
  6
Continuous
 62
     7
370
    15
100
AcDbLine
 10
254.7394444553
 20
454.2487633627
 30
0.0
 11
248.5394438116
 21
454.2487633627
 31
0.0
  0
LINE
  5
2A8
330
1F
100
AcDbEntity
  8
0
  6
Continuous
 62
     7
370
    15
100
AcDbLine
 10
254.7394444553
 20
85.2487606209
 30
0.0
 11
254.7394444553
 21
84.2487585944
 31
0.0
  0
LINE
  5
2A9
330
1F
100
AcDbEntity
  8
0
  6
Continuous
 62
     7
370
    15
100
AcDbLine
 10
248.5394438116
 20
85.2487606209
 30
0.0
 11
248.5394438116
 21
84.2487585944
 31
0.0
  0
LINE
  5
2AA
330
1F
100
AcDbEntity
  8
0
  6
Continuous
 62
     7
370
    15
100
AcDbLine
 10
254.7394444553
 20
84.2487585944
 30
0.0
 11
248.5394438116
 21
84.2487585944
 31
0.0
  0
LINE
  5
2AB
330
1F
100
AcDbEntity
  8
0
  6
Continuous
 62
     7
370
    15
100
AcDbLine
 10
254.7394444553
 20
85.2487606209
 30
0.0
 11
248.5394438116
 21
85.2487606209
 31
0.0
  0
LWPOLYLINE
  5
2AC
330
1F
100
AcDbEntity
  8
0
  6
Continuous
 62
     7
370
    15
100
AcDbPolyline
 90
        3
 70
   128
 43
0.0
 10
248.4607358781
 20
84.6376192969
 10
248.463313779
 20
84.6314502162
 10
248.5394438116
 20
84.2487585944
  0
LWPOLYLINE
  5
2AD
330
1F
100
AcDbEntity
  8
0
  6
Continuous
 62
     7
370
    15
100
AcDbPolyline
 90
        3
 70
   128
 43
0.0
 10
248.5394438116
 20
97.7487636012
 10
248.463313779
 20
97.3660868805
 10
248.4607358781
 20
97.3599028986
  0
LINE
  5
2AE
330
1F
100
AcDbEntity
  8
0
  6
Continuous
 62
     7
370
    15
100
AcDbLine
 10
254.7394444553
 20
96.7487615746
 30
0.0
 11
254.7394444553
 21
96.598766486
 31
0.0
  0
LINE
  5
2AF
330
1F
100
AcDbEntity
  8
0
  6
Continuous
 62
     7
370
    15
100
AcDbLine
 10
254.7394444553
 20
95.798767845
 30
0.0
 11
254.7394444553
 21
94.8987675112
 31
0.0
  0
LINE
  5
2B0
330
1F
100
AcDbEntity
  8
0
  6
Continuous
 62
     7
370
    15
100
AcDbLine
 10
254.7394444553
 20
86.2987560433
 30
0.0
 11
254.7394444553
 21
85.2487606209
 31
0.0
  0
LWPOLYLINE
  5
2B1
330
1F
100
AcDbEntity
  8
0
  6
Continuous
 62
     7
370
    15
100
AcDbPolyline
 90
        3
 70
   128
 43
0.0
 10
248.4607358781
 20
454.6376240653
 10
248.463313779
 20
454.6314400834
 10
248.5394438116
 20
454.2487633627
  0
LWPOLYLINE
  5
2B2
330
1F
100
AcDbEntity
  8
0
  6
Continuous
 62
     7
370
    15
100
AcDbPolyline
 90
        3
 70
   128
 43
0.0
 10
248.5394438116
 20
467.7487683695
 10
248.463313779
 20
467.3660767478
 10
248.4607358781
 20
467.359907667
  0
LINE
  5
2B3
330
1F
100
AcDbEntity
  8
0
  6
Continuous
 62
     7
370
    15
100
AcDbLine
 10
254.7394444553
 20
466.748766343
 30
0.0
 11
254.7394444553
 21
466.5987563532
 31
0.0
  0
LINE
  5
2B4
330
1F
100
AcDbEntity
  8
0
  6
Continuous
 62
     7
370
    15
100
AcDbLine
 10
254.7394444553
 20
465.7987577122
 30
0.0
 11
254.7394444553
 21
464.8987573784
 31
0.0
  0
LINE
  5
2B5
330
1F
100
AcDbEntity
  8
0
  6
Continuous
 62
     7
370
    15
100
AcDbLine
 10
254.7394444553
 20
456.2987608117
 30
0.0
 11
254.7394444553
 21
455.2487653893
 31
0.0
  0
LINE
  5
2B6
330
1F
100
AcDbEntity
  8
0
  6
Continuous
 62
     7
370
    15
100
AcDbLine
 10
56.7394408716
 20
40.998764078
 30
0.0
 11
41.7394412068
 21
40.998764078
 31
0.0
  0
LINE
  5
2B7
330
1F
100
AcDbEntity
  8
0
  6
Continuous
 62
     7
370
    15
100
AcDbLine
 10
56.7394408716
 20
40.998764078
 30
0.0
 11
56.7394408716
 21
25.998763482
 31
0.0
  0
ARC
  5
2B8
330
1F
100
AcDbEntity
  8
0
  6
Continuous
 62
     7
370
    15
100
AcDbCircle
 10
56.739441189
 20
40.998763482
 30
0.0
 40
15.00000000000002
100
AcDbArc
 50
180.0
 51
270.0
  0
LINE
  5
2B9
330
1F
100
AcDbEntity
  8
0
  6
Continuous
 62
     7
370
    15
100
AcDbLine
 10
267.7394409982
 20
510.9987628859
 30
0.0
 11
267.7394409982
 21
469.9746889275
 31
0.0
  0
LINE
  5
2BA
330
1F
100
AcDbEntity
  8
0
  6
Continuous
 62
     7
370
    15
100
AcDbLine
 10
267.7394409982
 20
451.9908500117
 30
0.0
 11
267.7394409982
 21
99.9746990603
 31
0.0
  0
LINE
  5
2BB
330
1F
100
AcDbEntity
  8
0
  6
Continuous
 62
     7
370
    15
100
AcDbLine
 10
267.7394409982
 20
81.9908601445
 30
0.0
 11
267.7394409982
 21
40.998764078
 31
0.0
  0
LINE
  5
2BC
330
1F
100
AcDbEntity
  8
0
  6
Continuous
 62
     7
370
    15
100
AcDbLine
 10
267.7394409982
 20
40.998764078
 30
0.0
 11
56.7394408716
 21
40.998764078
 31
0.0
  0
LINE
  5
2BD
330
1F
100
AcDbEntity
  8
0
  6
Continuous
 62
     7
370
    15
100
AcDbLine
 10
56.7394408716
 20
510.9987628859
 30
0.0
 11
56.7394408716
 21
40.998764078
 31
0.0
  0
LINE
  5
2BE
330
1F
100
AcDbEntity
  8
0
  6
Continuous
 62
     7
370
    15
100
AcDbLine
 10
267.7394409982
 20
510.9987628859
 30
0.0
 11
56.7394408716
 21
510.9987628859
 31
0.0
  0
LINE
  5
2BF
330
1F
100
AcDbEntity
  8
0
  6
Continuous
 62
     7
370
    15
100
AcDbLine
 10
61.7394407598
 20
505.9987676543
 30
0.0
 11
61.7394407598
 21
45.9987593096
 31
0.0
  0
LINE
  5
2C0
330
1F
100
AcDbEntity
  8
0
  6
Continuous
 62
     7
370
    15
100
AcDbLine
 10
247.7394451705
 20
45.9987593096
 30
0.0
 11
61.7394407598
 21
45.9987593096
 31
0.0
  0
LINE
  5
2C1
330
1F
100
AcDbEntity
  8
0
  6
Continuous
 62
     7
370
    15
100
AcDbLine
 10
247.7394451705
 20
45.9987593096
 30
0.0
 11
247.7394451705
 21
78.1862211627
 31
0.0
  0
LINE
  5
2C2
330
1F
100
AcDbEntity
  8
0
  6
Continuous
 62
     7
370
    15
100
AcDbLine
 10
247.7394451705
 20
81.5260035199
 30
0.0
 11
247.7394451705
 21
82.9987597865
 31
0.0
  0
LINE
  5
2C3
330
1F
100
AcDbEntity
  8
0
  6
Continuous
 62
     7
370
    15
100
AcDbLine
 10
247.7394451705
 20
98.9987624091
 30
0.0
 11
247.7394451705
 21
100.4581672352
 31
0.0
  0
LINE
  5
2C4
330
1F
100
AcDbEntity
  8
0
  6
Continuous
 62
     7
370
    15
100
AcDbLine
 10
247.7394451705
 20
103.8008851212
 30
0.0
 11
247.7394451705
 21
448.1862110299
 31
0.0
  0
LINE
  5
2C5
330
1F
100
AcDbEntity
  8
0
  6
Continuous
 62
     7
370
    15
100
AcDbLine
 10
247.7394451705
 20
451.5260082882
 30
0.0
 11
247.7394451705
 21
452.9987645548
 31
0.0
  0
LINE
  5
2C6
330
1F
100
AcDbEntity
  8
0
  6
Continuous
 62
     7
370
    15
100
AcDbLine
 10
247.7394451705
 20
468.9987671774
 30
0.0
 11
247.7394451705
 21
470.4581720036
 31
0.0
  0
LINE
  5
2C7
330
1F
100
AcDbEntity
  8
0
  6
Continuous
 62
     7
370
    15
100
AcDbLine
 10
247.7394451705
 20
473.8008749884
 30
0.0
 11
247.7394451705
 21
505.9987676543
 31
0.0
  0
LINE
  5
2C8
330
1F
100
AcDbEntity
  8
0
  6
Continuous
 62
     7
370
    15
100
AcDbLine
 10
247.7394451705
 20
505.9987676543
 30
0.0
 11
61.7394407598
 21
505.9987676543
 31
0.0
  0
ARC
  5
2C9
330
1F
100
AcDbEntity
  8
0
  6
Continuous
 62
     7
370
    15
100
AcDbCircle
 10
56.739441189
 20
510.998763482
 30
0.0
 40
15.00000000000017
100
AcDbArc
 50
90.0
 51
180.0
  0
LINE
  5
2CA
330
1F
100
AcDbEntity
  8
0
  6
Continuous
 62
     7
370
    15
100
AcDbLine
 10
56.7394408716
 20
525.998763482
 30
0.0
 11
56.7394408716
 21
510.9987628859
 31
0.0
  0
LINE
  5
2CB
330
1F
100
AcDbEntity
  8
0
  6
Continuous
 62
     7
370
    15
100
AcDbLine
 10
41.7394412068
 20
510.9987628859
 30
0.0
 11
56.7394408716
 21
510.9987628859
 31
0.0
  0
LINE
  5
2CC
330
1F
100
AcDbEntity
  8
0
  6
Continuous
 62
     7
370
    15
100
AcDbLine
 10
267.7394409982
 20
40.998764078
 30
0.0
 11
267.7394409982
 21
25.998763482
 31
0.0
  0
LINE
  5
2CD
330
1F
100
AcDbEntity
  8
0
  6
Continuous
 62
     7
370
    15
100
AcDbLine
 10
267.7394409982
 20
25.998763482
 30
0.0
 11
56.7394408716
 21
25.998763482
 31
0.0
  0
LINE
  5
2CE
330
1F
100
AcDbEntity
  8
0
  6
Continuous
 62
     7
370
    15
100
AcDbLine
 10
41.7394412068
 20
510.9987628859
 30
0.0
 11
41.7394412068
 21
40.998764078
 31
0.0
  0
LINE
  5
2CF
330
1F
100
AcDbEntity
  8
0
  6
Continuous
 62
     7
370
    15
100
AcDbLine
 10
267.7394409982
 20
525.998763482
 30
0.0
 11
56.7394408716
 21
525.998763482
 31
0.0
  0
LINE
  5
2D0
330
1F
100
AcDbEntity
  8
0
  6
Continuous
 62
     7
370
    15
100
AcDbLine
 10
267.7394409982
 20
525.998763482
 30
0.0
 11
267.7394409982
 21
510.9987628859
 31
0.0
  0
LINE
  5
2D1
330
1F
100
AcDbEntity
  8
0
  6
Continuous
 62
     7
370
    15
100
AcDbLine
 10
271.7394342033
 20
45.9987593096
 30
0.0
 11
267.7394409982
 21
45.9987593096
 31
0.0
  0
LINE
  5
2D2
330
1F
100
AcDbEntity
  8
0
  6
Continuous
 62
     7
370
    15
100
AcDbLine
 10
271.7394342033
 20
30.9987587136
 30
0.0
 11
267.7394409982
 21
30.9987587136
 31
0.0
  0
LINE
  5
2D3
330
1F
100
AcDbEntity
  8
0
  6
Continuous
 62
     7
370
    15
100
AcDbLine
 10
271.7394342033
 20
520.9987682503
 30
0.0
 11
267.7394409982
 21
520.9987682503
 31
0.0
  0
LINE
  5
2D4
330
1F
100
AcDbEntity
  8
0
  6
Continuous
 62
     7
370
    15
100
AcDbLine
 10
271.7394342033
 20
505.9987676543
 30
0.0
 11
267.7394409982
 21
505.9987676543
 31
0.0
  0
LINE
  5
2D5
330
1F
100
AcDbEntity
  8
0
  6
Continuous
 62
     7
370
    15
100
AcDbLine
 10
321.0910590466
 20
572.1621039338
 30
0.0
 11
322.2910495576
 21
572.1621039338
 31
0.0
  0
LINE
  5
2D6
330
1F
100
AcDbEntity
  8
0
  6
Continuous
 62
     7
370
    15
100
AcDbLine
 10
320.9910424527
 20
574.6621015496
 30
0.0
 11
321.0910590466
 21
574.6621015496
 31
0.0
  0
LINE
  5
2D7
330
1F
100
AcDbEntity
  8
0
  6
Continuous
 62
     7
370
    15
100
AcDbLine
 10
321.0910590466
 20
580.6621137089
 30
0.0
 11
320.9910424527
 21
580.6621137089
 31
0.0
  0
SPLINE
  5
2D8
330
1F
100
AcDbEntity
  8
0
  6
Continuous
 62
     7
370
    15
100
AcDbSpline
210
0.0
220
0.0
230
1.0
 70
     8
 71
     3
 72
    15
 73
    11
 74
     0
 42
0.00000001
 43
0.00000001
 40
0.0
 40
0.0
 40
0.0
 40
0.0
 40
0.1250769471706953
 40
0.2501513588930749
 40
0.3752924560724085
 40
0.5003060634208963
 40
0.6252891927302159
 40
0.7502632827908169
 40
0.8750790919889987
 40
1.0
 40
1.0
 40
1.0
 40
1.0
 10
319.9054928597139
 20
602.719930095172
 30
0.0
 10
319.87936008206
 20
602.9786963401544
 30
0.0
 10
319.8270950564923
 20
603.4962235846406
 30
0.0
 10
319.7482566930685
 20
604.2773420349812
 30
0.0
 10
319.6738138504545
 20
605.0145219338903
 30
0.0
 10
319.6068373111634
 20
605.6781000189654
 30
0.0
 10
319.5506875975537
 20
606.2338556138159
 30
0.0
 10
319.5082102547871
 20
606.6549673301265
 30
0.0
 10
319.4793482256425
 20
606.9405577065722
 30
0.0
 10
319.474998514249
 20
606.9836008811118
 30
0.0
 10
319.4728227432894
 20
607.0051315254927
 30
0.0
  0
SPLINE
  5
2D9
330
1F
100
AcDbEntity
  8
0
  6
Continuous
 62
     7
370
    15
100
AcDbSpline
210
0.0
220
0.0
230
1.0
 70
     8
 71
     3
 72
    15
 73
    11
 74
     0
 42
0.00000001
 43
0.00000001
 40
0.0
 40
0.0
 40
0.0
 40
0.0
 40
0.1249399591839693
 40
0.2497678616012619
 40
0.3747499535098253
 40
0.4997376057782711
 40
0.6247474569580094
 40
0.7498805105013505
 40
0.8749437714103863
 40
1.0
 40
1.0
 40
1.0
 40
1.0
 10
316.4885969933199
 20
606.703740639186
 30
0.0
 10
316.4907737907134
 20
606.6821660802622
 30
0.0
 10
316.4951254331636
 20
606.6390363123113
 30
0.0
 10
316.5239700700321
 20
606.3533198833403
 30
0.0
 10
316.5665130413636
 20
605.9321376004355
 30
0.0
 10
316.6225951494296
 20
605.3763558229003
 30
0.0
 10
316.6895917509237
 20
604.712832610207
 30
0.0
 10
316.7640250233584
 20
603.9757869787354
 30
0.0
 10
316.8428820159153
 20
603.1948765642679
 30
0.0
 10
316.8950994980843
 20
602.6775220949712
 30
0.0
 10
316.9212075050997
 20
602.4188521332503
 30
0.0
  0
LINE
  5
2DA
330
1F
100
AcDbEntity
  8
0
  6
Continuous
 62
     7
370
    15
100
AcDbLine
 10
316.9209392842
 20
602.4187180228
 30
0.0
 11
318.4900017556
 21
586.8777456708
 31
0.0
  0
LINE
  5
2DB
330
1F
100
AcDbEntity
  8
0
  6
Continuous
 62
     7
370
    15
100
AcDbLine
 10
321.4748533543
 20
587.1791067548
 30
0.0
 11
319.9057610806
 21
602.7200642056
 31
0.0
  0
SPLINE
  5
2DC
330
1F
100
AcDbEntity
  8
0
  6
Continuous
 62
     7
370
    15
100
AcDbSpline
210
0.0
220
0.0
230
1.0
 70
     8
 71
     3
 72
     9
 73
     5
 74
     0
 42
0.00000001
 43
0.00000001
 40
0.0
 40
0.0
 40
0.0
 40
0.0
 40
0.4837455860165434
 40
1.0
 40
1.0
 40
1.0
 40
1.0
 10
318.6600836094545
 20
585.1963731474639
 30
0.0
 10
318.6695502331098
 20
585.1321422959354
 30
0.0
 10
318.6891196595374
 20
584.999364130335
 30
0.0
 10
318.7229602938011
 20
584.9632088475926
 30
0.0
 10
318.7404306706118
 20
584.9445435232878
 30
0.0
  0
SPLINE
  5
2DD
330
1F
100
AcDbEntity
  8
0
  6
Continuous
 62
     7
370
    15
100
AcDbSpline
210
0.0
220
0.0
230
1.0
 70
     8
 71
     3
 72
    11
 73
     7
 74
     0
 42
0.00000001
 43
0.00000001
 40
0.0
 40
0.0
 40
0.0
 40
0.0
 40
0.2484392408102948
 40
0.4978831839895903
 40
0.7483837915128825
 40
1.0
 40
1.0
 40
1.0
 40
1.0
 10
318.4902997788118
 20
586.8778946823836
 30
0.0
 10
318.5083141340072
 20
586.6994224986478
 30
0.0
 10
318.5444156954712
 20
586.341756379551
 30
0.0
 10
318.5914154256221
 20
585.8769295655841
 30
0.0
 10
318.6302190128135
 20
585.4940465299022
 30
0.0
 10
318.645249899398
 20
585.3467481413928
 30
0.0
 10
318.6527820404696
 20
585.2729353136779
 30
0.0
  0
SPLINE
  5
2DE
330
1F
100
AcDbEntity
  8
0
  6
Continuous
 62
     7
370
    15
100
AcDbSpline
210
0.0
220
0.0
230
1.0
 70
     8
 71
     3
 72
    19
 73
    15
 74
     0
 42
0.00000001
 43
0.00000001
 40
0.0
 40
0.0
 40
0.0
 40
0.0
 40
0.0802802511831793
 40
0.1534388866586519
 40
0.2193397424586619
 40
0.2779505612877921
 40
0.3728450923515969
 40
0.4421512035677624
 40
0.5315379253803565
 40
0.6554818616797216
 40
0.7303549253186019
 40
0.8130762651724769
 40
0.9031424698863586
 40
1.0
 40
1.0
 40
1.0
 40
1.0
 10
318.6757298287081
 20
585.1137164063216
 30
0.0
 10
318.7110891200323
 20
584.9908415459371
 30
0.0
 10
318.7786709999327
 20
584.755991984583
 30
0.0
 10
318.9759099985169
 20
584.4615935065996
 30
0.0
 10
319.2007491307115
 20
584.2374499894037
 30
0.0
 10
319.4964365623886
 20
584.0444303476187
 30
0.0
 10
319.8383775265956
 20
583.9265207785716
 30
0.0
 10
320.2481300602075
 20
583.896718966111
 30
0.0
 10
320.6872154856943
 20
583.9990215402612
 30
0.0
 10
321.0737500820536
 20
584.2502604337768
 30
0.0
 10
321.3665872819063
 20
584.5909674319909
 30
0.0
 10
321.547357787837
 20
584.9464365089725
 30
0.0
 10
321.6532767876442
 20
585.3733774909707
 30
0.0
 10
321.6210063072566
 20
585.668447495465
 30
0.0
 10
321.6042848404574
 20
585.821342749095
 30
0.0
  0
SPLINE
  5
2DF
330
1F
100
AcDbEntity
  8
0
  6
Continuous
 62
     7
370
    15
100
AcDbSpline
210
0.0
220
0.0
230
1.0
 70
     8
 71
     3
 72
    11
 73
     7
 74
     0
 42
0.00000001
 43
0.00000001
 40
0.0
 40
0.0
 40
0.0
 40
0.0
 40
0.2477426046789121
 40
0.4969454115246919
 40
0.7476720314340733
 40
1.0
 40
1.0
 40
1.0
 40
1.0
 10
321.6280670937227
 20
585.6536599821807
 30
0.0
 10
321.6216228809702
 20
585.7182851503535
 30
0.0
 10
321.6086964730865
 20
585.8479163893329
 30
0.0
 10
321.5727757230179
 20
586.2057954012529
 30
0.0
 10
321.527757792401
 20
586.6521157678089
 30
0.0
 10
321.4923270798113
 20
587.0029813877796
 30
0.0
 10
321.4745553311037
 20
587.1789726443053
 30
0.0
  0
LINE
  5
2E0
330
1F
100
AcDbEntity
  8
0
  6
Continuous
 62
     7
370
    15
100
AcDbLine
 10
321.7583628472
 20
596.8337777085
 30
0.0
 11
321.7583628472
 21
597.1335890717
 31
0.0
  0
LINE
  5
2E1
330
1F
100
AcDbEntity
  8
0
  6
Continuous
 62
     7
370
    15
100
AcDbLine
 10
320.958349305
 20
597.1335890717
 30
0.0
 11
320.958349305
 21
596.8362214989
 31
0.0
  0
SPLINE
  5
2E2
330
1F
100
AcDbEntity
  8
0
  6
Continuous
 62
     7
370
    15
100
AcDbSpline
210
0.0
220
0.0
230
1.0
 70
    24
 71
     3
 72
    11
 73
     7
 74
     0
 42
0.00000001
 43
0.00000001
 40
0.0
 40
0.0
 40
0.0
 40
0.0
 40
0.0207850328835332
 40
0.3465561843128634
 40
0.6711381646362238
 40
0.9999999999999999
 40
0.9999999999999999
 40
0.9999999999999999
 40
0.9999999999999999
 10
320.9583493050264
 20
597.4199148840667
 30
0.0
 10
320.9583493050264
 20
597.416593180026
 30
0.0
 10
320.9583493050263
 20
597.3612092369618
 30
0.0
 10
320.9583493050266
 20
597.2679710717861
 30
0.0
 10
320.9583493050263
 20
597.1552589364995
 30
0.0
 10
320.9583493050264
 20
597.1207314374257
 30
0.0
 10
320.9583493050264
 20
597.1033546156646
 30
0.0
  0
SPLINE
  5
2E3
330
1F
100
AcDbEntity
  8
0
  6
Continuous
 62
     7
370
    15
100
AcDbSpline
210
0.0
220
0.0
230
1.0
 70
    24
 71
     3
 72
    11
 73
     7
 74
     0
 42
0.00000001
 43
0.00000001
 40
0.0
 40
0.0
 40
0.0
 40
0.0
 40
0.2504877331241812
 40
0.4977261212757707
 40
0.7458640449708547
 40
0.9999999999999999
 40
0.9999999999999999
 40
0.9999999999999999
 40
0.9999999999999999
 10
321.7583628472017
 20
597.1009108252288
 30
0.0
 10
321.7583628472018
 20
597.1171279569401
 30
0.0
 10
321.7583628472018
 20
597.1493518505581
 30
0.0
 10
321.7583628472016
 20
597.2581273869588
 30
0.0
 10
321.7583628472018
 20
597.3969578178912
 30
0.0
 10
321.7583628472018
 20
597.5039852776159
 30
0.0
 10
321.7583628472017
 20
597.5581380553008
 30
0.0
  0
LINE
  5
2E4
330
1F
100
AcDbEntity
  8
0
  6
Continuous
 62
     7
370
    15
100
AcDbLine
 10
321.7583628472
 20
597.5581380553
 30
0.0
 11
321.7583628472
 21
597.662103457
 31
0.0
  0
LINE
  5
2E5
330
1F
100
AcDbEntity
  8
0
  6
Continuous
 62
     7
370
    15
100
AcDbLine
 10
320.7516105946
 20
597.662103457
 30
0.0
 11
320.9605248746
 21
597.4148782916
 31
0.0
  0
LINE
  5
2E6
330
1F
100
AcDbEntity
  8
0
  6
Continuous
 62
     7
370
    15
100
AcDbLine
 10
316.4819808777
 20
606.8001213498
 30
0.0
 11
316.4663644608
 21
607.2593602366
 31
0.0
  0
SPLINE
  5
2E7
330
1F
100
AcDbEntity
  8
0
  6
Continuous
 62
     7
370
    15
100
AcDbSpline
210
0.0
220
0.0
230
1.0
 70
     8
 71
     3
 72
    11
 73
     7
 74
     0
 42
0.00000001
 43
0.00000001
 40
0.0
 40
0.0
 40
0.0
 40
0.0
 40
0.1207593991991965
 40
0.4133931855089905
 40
0.706356666582437
 40
1.0
 40
1.0
 40
1.0
 40
1.0
 10
318.5146482762026
 20
586.6366895861388
 30
0.0
 10
318.524571962661
 20
586.5383890033063
 30
0.0
 10
318.5585435158833
 20
586.2018786252818
 30
0.0
 10
318.6058776997737
 20
585.7329695223597
 30
0.0
 10
318.6487759441035
 20
585.3082267728502
 30
0.0
 10
318.6563114765503
 20
585.2336864856001
 30
0.0
 10
318.6600836094545
 20
585.1963731474639
 30
0.0
  0
LINE
  5
2E8
330
1F
100
AcDbEntity
  8
0
  6
Continuous
 62
     7
370
    15
100
AcDbLine
 10
316.8427975949
 20
637.6621100135
 30
0.0
 11
316.091063815
 21
637.3884948916
 31
0.0
  0
LINE
  5
2E9
330
1F
100
AcDbEntity
  8
0
  6
Continuous
 62
     7
370
    15
100
AcDbLine
 10
322.2910495576
 20
636.6621079869
 30
0.0
 11
321.9910593804
 21
636.6621079869
 31
0.0
  0
LINE
  5
2EA
330
1F
100
AcDbEntity
  8
0
  6
Continuous
 62
     7
370
    15
100
AcDbLine
 10
321.9910593804
 20
635.6621059603
 30
0.0
 11
321.8910427865
 21
635.6621059603
 31
0.0
  0
LINE
  5
2EB
330
1F
100
AcDbEntity
  8
0
  6
Continuous
 62
     7
370
    15
100
AcDbLine
 10
321.8910427865
 20
629.6621087022
 30
0.0
 11
321.9910593804
 21
629.6621087022
 31
0.0
  0
LINE
  5
2EC
330
1F
100
AcDbEntity
  8
0
  6
Continuous
 62
     7
370
    15
100
AcDbLine
 10
321.9910593804
 20
612.662104053
 30
0.0
 11
321.8910427865
 21
612.662104053
 31
0.0
  0
LINE
  5
2ED
330
1F
100
AcDbEntity
  8
0
  6
Continuous
 62
     7
370
    15
100
AcDbLine
 10
321.8910427865
 20
606.6621067948
 30
0.0
 11
321.9910593804
 21
606.6621067948
 31
0.0
  0
LINE
  5
2EE
330
1F
100
AcDbEntity
  8
0
  6
Continuous
 62
     7
370
    15
100
AcDbLine
 10
337.2910501536
 20
580.6621137089
 30
0.0
 11
337.2910501536
 21
575.6621035762
 31
0.0
  0
LINE
  5
2EF
330
1F
100
AcDbEntity
  8
0
  6
Continuous
 62
     7
370
    15
100
AcDbLine
 10
337.2910501536
 20
580.6621137089
 30
0.0
 11
807.2910489615
 21
580.6621137089
 31
0.0
  0
LINE
  5
2F0
330
1F
100
AcDbEntity
  8
0
  6
Continuous
 62
     7
370
    15
100
AcDbLine
 10
807.2910489615
 20
580.6621137089
 30
0.0
 11
807.2910489615
 21
575.6621035762
 31
0.0
  0
LINE
  5
2F1
330
1F
100
AcDbEntity
  8
0
  6
Continuous
 62
     7
370
    15
100
AcDbLine
 10
337.2910501536
 20
575.6621035762
 30
0.0
 11
807.2910489615
 21
575.6621035762
 31
0.0
  0
LINE
  5
2F2
330
1F
100
AcDbEntity
  8
0
  6
Continuous
 62
     7
370
    15
100
AcDbLine
 10
322.2910495576
 20
580.6621137089
 30
0.0
 11
322.2910495576
 21
575.6621035762
 31
0.0
  0
LINE
  5
2F3
330
1F
100
AcDbEntity
  8
0
  6
Continuous
 62
     7
370
    15
100
AcDbLine
 10
322.2910495576
 20
580.6621137089
 30
0.0
 11
337.2910501536
 21
580.6621137089
 31
0.0
  0
LINE
  5
2F4
330
1F
100
AcDbEntity
  8
0
  6
Continuous
 62
     7
370
    15
100
AcDbLine
 10
322.2910495576
 20
575.6621035762
 30
0.0
 11
337.2910501536
 21
575.6621035762
 31
0.0
  0
ARC
  5
2F5
330
1F
100
AcDbEntity
  8
0
  6
Continuous
 62
     7
370
    15
100
AcDbCircle
 10
337.2910495576
 20
575.6621067233
 30
0.0
 40
15.0
100
AcDbArc
 50
180.0
 51
270.0
  0
LINE
  5
2F6
330
1F
100
AcDbEntity
  8
0
  6
Continuous
 62
     7
370
    15
100
AcDbLine
 10
337.2910501536
 20
560.6621029801
 30
0.0
 11
337.2910501536
 21
575.6621035762
 31
0.0
  0
LINE
  5
2F7
330
1F
100
AcDbEntity
  8
0
  6
Continuous
 62
     7
370
    15
100
AcDbLine
 10
807.2910489615
 20
575.6621035762
 30
0.0
 11
807.2910489615
 21
560.6621029801
 31
0.0
  0
LINE
  5
2F8
330
1F
100
AcDbEntity
  8
0
  6
Continuous
 62
     7
370
    15
100
AcDbLine
 10
337.2910501536
 20
560.6621029801
 30
0.0
 11
807.2910489615
 21
560.6621029801
 31
0.0
  0
LINE
  5
2F9
330
1F
100
AcDbEntity
  8
0
  6
Continuous
 62
     7
370
    15
100
AcDbLine
 10
822.2910495576
 20
575.6621035762
 30
0.0
 11
807.2910489615
 21
575.6621035762
 31
0.0
  0
ARC
  5
2FA
330
1F
100
AcDbEntity
  8
0
  6
Continuous
 62
     7
370
    15
100
AcDbCircle
 10
807.2910495576
 20
575.6621067233
 30
0.0
 40
15.0
100
AcDbArc
 50
270.0
 51
0.0
  0
LINE
  5
2FB
330
1F
100
AcDbEntity
  8
0
  6
Continuous
 62
     7
370
    15
100
AcDbLine
 10
822.2910495576
 20
580.6621137089
 30
0.0
 11
822.2910495576
 21
575.6621035762
 31
0.0
  0
LINE
  5
2FC
330
1F
100
AcDbEntity
  8
0
  6
Continuous
 62
     7
370
    15
100
AcDbLine
 10
822.2910495576
 20
580.6621137089
 30
0.0
 11
807.2910489615
 21
580.6621137089
 31
0.0
  0
LINE
  5
2FD
330
1F
100
AcDbEntity
  8
0
  6
Continuous
 62
     7
370
    15
100
AcDbLine
 10
321.0910590466
 20
578.67987184
 30
0.0
 11
322.2910495576
 21
578.67987184
 31
0.0
  0
LINE
  5
2FE
330
1F
100
AcDbEntity
  8
0
  6
Continuous
 62
     7
370
    15
100
AcDbLine
 10
321.0910590466
 20
576.5759023852
 30
0.0
 11
322.2910495576
 21
576.5759023852
 31
0.0
  0
LINE
  5
2FF
330
1F
100
AcDbEntity
  8
0
  6
Continuous
 62
     7
370
    15
100
AcDbLine
 10
321.0910590466
 20
576.5759023852
 30
0.0
 11
321.0910590466
 21
578.67987184
 31
0.0
  0
LINE
  5
300
330
1F
100
AcDbEntity
  8
0
  6
Continuous
 62
     7
370
    15
100
AcDbLine
 10
321.0910590466
 20
583.6621048875
 30
0.0
 11
322.2910495576
 21
583.6621048875
 31
0.0
  0
LINE
  5
301
330
1F
100
AcDbEntity
  8
0
  6
Continuous
 62
     7
370
    15
100
AcDbLine
 10
322.2910495576
 20
580.6621137089
 30
0.0
 11
322.2910495576
 21
583.6621048875
 31
0.0
  0
LINE
  5
302
330
1F
100
AcDbEntity
  8
0
  6
Continuous
 62
     7
370
    15
100
AcDbLine
 10
321.0910590466
 20
583.6621048875
 30
0.0
 11
321.0910590466
 21
578.67987184
 31
0.0
  0
LINE
  5
303
330
1F
100
AcDbEntity
  8
0
  6
Continuous
 62
     7
370
    15
100
AcDbLine
 10
322.2910495576
 20
575.6621035762
 30
0.0
 11
322.2910495576
 21
572.1621039338
 31
0.0
  0
LINE
  5
304
330
1F
100
AcDbEntity
  8
0
  6
Continuous
 62
     7
370
    15
100
AcDbLine
 10
321.0910590466
 20
572.1621039338
 30
0.0
 11
321.0910590466
 21
576.5759023852
 31
0.0
  0
LINE
  5
305
330
1F
100
AcDbEntity
  8
0
  6
Continuous
 62
     7
370
    15
100
AcDbLine
 10
320.9910424527
 20
574.6621015496
 30
0.0
 11
320.9910424527
 21
580.6621137089
 31
0.0
  0
LINE
  5
306
330
1F
100
AcDbEntity
  8
0
  6
Continuous
 62
     7
370
    15
100
AcDbLine
 10
314.2430814084
 20
584.8645093865
 30
0.0
 11
314.9735959347
 21
583.912489099
 31
0.0
  0
LINE
  5
307
330
1F
100
AcDbEntity
  8
0
  6
Continuous
 62
     7
370
    15
100
AcDbLine
 10
314.0215607461
 20
583.1819745726
 30
0.0
 11
313.2910462197
 21
584.1339948601
 31
0.0
  0
LWPOLYLINE
  5
308
330
1F
100
AcDbEntity
  8
0
  6
Continuous
 62
     7
370
    15
100
AcDbPolyline
 90
        9
 70
   128
 43
0.0
 10
313.2910462197
 20
584.1339948601
 10
313.3093448456
 20
584.148031754
 10
313.3635254677
 20
584.1896059937
 10
313.4515019234
 20
584.2571231551
 10
313.569876748
 20
584.3479606337
 10
313.7141497906
 20
584.4586613602
 10
313.8787480172
 20
584.5849636025
 10
314.0573533353
 20
584.7219946809
 10
314.2430814084
 20
584.8645093865
  0
LWPOLYLINE
  5
309
330
1F
100
AcDbEntity
  8
0
  6
Continuous
 62
     7
370
    15
100
AcDbPolyline
 90
        9
 70
   128
 43
0.0
 10
314.9735959347
 20
583.912489099
 10
314.7878678616
 20
583.7699743933
 10
314.6092625436
 20
583.632943315
 10
314.444664317
 20
583.5066410727
 10
314.3003912743
 20
583.3959403462
 10
314.1820164498
 20
583.3050879664
 10
314.0940399941
 20
583.2375857062
 10
314.039859372
 20
583.1960114665
 10
314.0215607461
 20
583.1819745726
  0
ARC
  5
30A
330
1F
100
AcDbEntity
  8
0
  6
Continuous
 62
     7
370
    15
100
AcDbCircle
 10
319.4910495576
 20
585.3621067233
 30
0.0
 40
2.800000000000068
100
AcDbArc
 50
0.0
 51
45.7322600129
  0
LINE
  5
30B
330
1F
100
AcDbEntity
  8
0
  6
Continuous
 62
     7
370
    15
100
AcDbLine
 10
318.3833988484
 20
587.9337015576
 30
0.0
 11
317.7865179356
 21
587.5834944672
 31
0.0
  0
LINE
  5
30C
330
1F
100
AcDbEntity
  8
0
  6
Continuous
 62
     7
370
    15
100
AcDbLine
 10
317.7865179356
 20
587.5834944672
 30
0.0
 11
314.2430814084
 21
584.8645093865
 31
0.0
  0
LINE
  5
30D
330
1F
100
AcDbEntity
  8
0
  6
Continuous
 62
     7
370
    15
100
AcDbLine
 10
314.9735959347
 20
583.912489099
 30
0.0
 11
318.517032462
 21
586.6314741797
 31
0.0
  0
LINE
  5
30E
330
1F
100
AcDbEntity
  8
0
  6
Continuous
 62
     7
370
    15
100
AcDbLine
 10
322.2910495576
 20
583.6621048875
 30
0.0
 11
322.2910495576
 21
584.662106914
 31
0.0
  0
LINE
  5
30F
330
1F
100
AcDbEntity
  8
0
  6
Continuous
 62
     7
370
    15
100
AcDbLine
 10
321.0910590466
 20
584.3030485339
 30
0.0
 11
321.0910590466
 21
583.6621048875
 31
0.0
  0
SPLINE
  5
310
330
1F
100
AcDbEntity
  8
0
  6
Continuous
 62
     7
370
    15
100
AcDbSpline
210
0.0
220
0.0
230
1.0
 70
     8
 71
     3
 72
    12
 73
     8
 74
     0
 42
0.00000001
 43
0.00000001
 40
0.0
 40
0.0
 40
0.0
 40
0.0
 40
0.234046632303745
 40
0.4681100834887106
 40
0.7021601909409557
 40
0.9362164682326188
 40
1.0
 40
1.0
 40
1.0
 40
1.0
 10
318.5880215939211
 20
602.3392203278304
 30
0.0
 10
318.3916350234589
 20
602.31984170523
 30
0.0
 10
317.9988477699522
 20
602.2810830674572
 30
0.0
 10
317.4613372072077
 20
602.2758270931893
 30
0.0
 10
317.0878889893726
 20
602.3143112975331
 30
0.0
 10
316.9086261965895
 20
602.3689719412805
 30
0.0
 10
316.9373731704151
 20
602.4129260622256
 30
0.0
 10
316.9435294445681
 20
602.4223390049697
 30
0.0
  0
SPLINE
  5
311
330
1F
100
AcDbEntity
  8
0
  6
Continuous
 62
     7
370
    15
100
AcDbSpline
210
0.0
220
0.0
230
1.0
 70
     8
 71
     3
 72
    11
 73
     7
 74
     0
 42
0.00000001
 43
0.00000001
 40
0.0
 40
0.0
 40
0.0
 40
0.0
 40
0.1986858933163891
 40
0.4657907755952836
 40
0.7328920409508484
 40
1.0
 40
1.0
 40
1.0
 40
1.0
 10
319.8839457806276
 20
602.7181121535064
 30
0.0
 10
319.8827629480296
 20
602.6936185257631
 30
0.0
 10
319.879989965489
 20
602.6361967044489
 30
0.0
 10
319.6104511829353
 20
602.529123550051
 30
0.0
 10
319.1634002842901
 20
602.4182988213095
 30
0.0
 10
318.7798160928265
 20
602.3655800458473
 30
0.0
 10
318.5880215939211
 20
602.3392203278304
 30
0.0
  0
SPLINE
  5
312
330
1F
100
AcDbEntity
  8
0
  6
Continuous
 62
     7
370
    15
100
AcDbSpline
210
0.0
220
0.0
230
1.0
 70
     8
 71
     3
 72
    12
 73
     8
 74
     0
 42
0.00000001
 43
0.00000001
 40
0.0
 40
0.0
 40
0.0
 40
0.0
 40
0.2339746063686035
 40
0.4679314347940849
 40
0.7019014784153117
 40
0.9358644000539801
 40
1.0
 40
1.0
 40
1.0
 40
1.0
 10
317.9810674961733
 20
608.3510938114882
 30
0.0
 10
317.7849757094249
 20
608.3285936286268
 30
0.0
 10
317.3928070354452
 20
608.283594972521
 30
0.0
 10
316.8898825990701
 20
607.9360832327054
 30
0.0
 10
316.5700413879674
 20
607.442607742875
 30
0.0
 10
316.4421592256501
 20
606.9890180049289
 30
0.0
 10
316.4999218690747
 20
606.7460222538018
 30
0.0
 10
316.5123494442629
 20
606.6937419600249
 30
0.0
  0
SPLINE
  5
313
330
1F
100
AcDbEntity
  8
0
  6
Continuous
 62
     7
370
    15
100
AcDbSpline
210
0.0
220
0.0
230
1.0
 70
     8
 71
     3
 72
    11
 73
     7
 74
     0
 42
0.00000001
 43
0.00000001
 40
0.0
 40
0.0
 40
0.0
 40
0.0
 40
0.1976869012946596
 40
0.465132349840553
 40
0.7325626924186095
 40
1.0
 40
1.0
 40
1.0
 40
1.0
 10
319.4512756642031
 20
607.0008101887465
 30
0.0
 10
319.4329955282453
 20
607.1455589914127
 30
0.0
 10
319.389984673516
 20
607.486134670832
 30
0.0
 10
319.0645135360514
 20
607.9358957750119
 30
0.0
 10
318.5712338754301
 20
608.2836357920578
 30
0.0
 10
318.1777913303845
 20
608.328607609805
 30
0.0
 10
317.9810674961733
 20
608.3510938114882
 30
0.0
  0
SPLINE
  5
314
330
1F
100
AcDbEntity
  8
0
  6
Continuous
 62
     7
370
    15
100
AcDbSpline
210
0.0
220
0.0
230
1.0
 70
     8
 71
     3
 72
    12
 73
     8
 74
     0
 42
0.00000001
 43
0.00000001
 40
0.0
 40
0.0
 40
0.0
 40
0.0
 40
0.2350193850730122
 40
0.4700326152068836
 40
0.7050507835947478
 40
0.9400637437707898
 40
1.0
 40
1.0
 40
1.0
 40
1.0
 10
320.1571138676332
 20
586.7982479758025
 30
0.0
 10
319.9607226484101
 20
586.7788700143777
 30
0.0
 10
319.5679453532673
 20
586.740114599019
 30
0.0
 10
319.0303443326121
 20
586.7348463219045
 30
0.0
 10
318.6572572367555
 20
586.7733713134855
 30
0.0
 10
318.4782834283374
 20
586.8274925245937
 30
0.0
 10
318.5061288254233
 20
586.8707941469859
 30
0.0
 10
318.5117872532534
 20
586.8795934147597
 30
0.0
  0
SPLINE
  5
315
330
1F
100
AcDbEntity
  8
0
  6
Continuous
 62
     7
370
    15
100
AcDbSpline
210
0.0
220
0.0
230
1.0
 70
     8
 71
     3
 72
    11
 73
     7
 74
     0
 42
0.00000001
 43
0.00000001
 40
0.0
 40
0.0
 40
0.0
 40
0.0
 40
0.1989201846168
 40
0.4659430756912897
 40
0.7329787924530475
 40
1.0
 40
1.0
 40
1.0
 40
1.0
 10
321.4530678566622
 20
587.1772441096068
 30
0.0
 10
321.4518856254768
 20
587.152717914593
 30
0.0
 10
321.4491164121075
 20
587.0952686881013
 30
0.0
 10
321.1795609047475
 20
586.9881461841469
 30
0.0
 10
320.732464875458
 20
586.8773315517018
 30
0.0
 10
320.3488940633014
 20
586.8246086903122
 30
0.0
 10
320.1571138676333
 20
586.7982479758025
 30
0.0
  0
LINE
  5
316
330
1F
100
AcDbEntity
  8
0
  6
Continuous
 62
     7
370
    15
100
AcDbLine
 10
318.6802001771
 20
585.1958218045
 30
0.0
 11
318.6791868981
 21
585.3993567652
 31
0.0
  0
ARC
  5
317
330
1F
100
AcDbEntity
  8
0
  6
Continuous
 62
     7
370
    15
100
AcDbCircle
 10
321.3583491884
 20
597.0998779071
 30
0.0
 40
0.4000149924375409
100
AcDbArc
 50
0.1479492488
 51
179.5020105704
  0
ELLIPSE
  5
318
330
1F
100
AcDbEntity
  8
0
  6
Continuous
 62
     7
370
    15
100
AcDbEllipse
 10
321.3583489579
 20
596.8349983295
 30
0.0
 11
0.3991830274373456
 21
-0.02624604221159644
 31
0.0
210
0.0
220
0.0
230
1.0
 40
0.9763157485
 41
0.0
 42
6.283185307179586
  0
SPLINE
  5
319
330
1F
100
AcDbEntity
  8
0
  6
Continuous
 62
     7
370
    15
100
AcDbSpline
210
0.0
220
0.0
230
1.0
 70
     8
 71
     3
 72
    13
 73
     9
 74
     0
 42
0.00000001
 43
0.00000001
 40
0.0
 40
0.0
 40
0.0
 40
0.0
 40
0.0081673482661725
 40
0.2391720229758519
 40
0.4710975916652696
 40
0.6931339172904684
 40
0.9042391238103681
 40
1.0
 40
1.0
 40
1.0
 40
1.0
 10
321.3583560761141
 20
597.5638302988768
 30
0.0
 10
321.3566971649779
 20
597.5634380309042
 30
0.0
 10
321.3081177338769
 20
597.5519508845841
 30
0.0
 10
321.2120009735399
 20
597.5286695644515
 30
0.0
 10
321.0891714313148
 20
597.485038567437
 30
0.0
 10
321.0035066443764
 20
597.4476012116934
 30
0.0
 10
320.9594795343716
 20
597.4264353565372
 30
0.0
 10
320.9627293769072
 20
597.4214657145394
 30
0.0
 10
320.9637435253786
 20
597.4199148840667
 30
0.0
  0
SPLINE
  5
31A
330
1F
100
AcDbEntity
  8
0
  6
Continuous
 62
     7
370
    15
100
AcDbSpline
210
0.0
220
0.0
230
1.0
 70
     8
 71
     3
 72
    13
 73
     9
 74
     0
 42
0.00000001
 43
0.00000001
 40
0.0
 40
0.0
 40
0.0
 40
0.0
 40
0.1252375854664854
 40
0.2499792362847393
 40
0.4999837015097632
 40
0.7499971743710292
 40
0.8747791224957145
 40
1.0
 40
1.0
 40
1.0
 40
1.0
 10
321.7583628472017
 20
597.5581380553008
 30
0.0
 10
321.7566408965134
 20
597.5581600431626
 30
0.0
 10
321.7532038139765
 20
597.5582039318152
 30
0.0
 10
321.7188608552274
 20
597.5587160154618
 30
0.0
 10
321.6435549586756
 20
597.5597647190724
 30
0.0
 10
321.5349175573888
 20
597.5613227575276
 30
0.0
 10
321.4362019907236
 20
597.5627180038932
 30
0.0
 10
321.3843350685288
 20
597.5634591001688
 30
0.0
 10
321.3583560761141
 20
597.5638302988768
 30
0.0
  0
SPLINE
  5
31B
330
1F
100
AcDbEntity
  8
0
  6
Continuous
 62
     7
370
    15
100
AcDbSpline
210
0.0
220
0.0
230
1.0
 70
     8
 71
     3
 72
    10
 73
     6
 74
     0
 42
0.00000001
 43
0.00000001
 40
0.0
 40
0.0
 40
0.0
 40
0.0
 40
0.018973590868354
 40
0.5252901025967246
 40
1.0
 40
1.0
 40
1.0
 40
1.0
 10
321.3583560761141
 20
597.5638302988768
 30
0.0
 10
321.3598754201712
 20
597.5645705622999
 30
0.0
 10
321.4019389600247
 20
597.5850649985998
 30
0.0
 10
321.4845300810243
 20
597.6233257135981
 30
0.0
 10
321.5546691508603
 20
597.649458187003
 30
0.0
 10
321.5886088188814
 20
597.6621034569503
 30
0.0
  0
LINE
  5
31C
330
1F
100
AcDbEntity
  8
0
  6
Continuous
 62
     7
370
    15
100
AcDbLine
 10
316.4818616685
 20
606.8019541926
 30
0.0
 11
316.4942892369
 21
606.6523018307
 31
0.0
  0
LINE
  5
31D
330
1F
100
AcDbEntity
  8
0
  6
Continuous
 62
     7
370
    15
100
AcDbLine
 10
319.4740446385
 20
606.9958033986
 30
0.0
 11
319.4384606656
 21
607.2059693761
 31
0.0
  0
ARC
  5
31E
330
1F
100
AcDbEntity
  8
0
  6
Continuous
 62
     7
370
    15
100
AcDbCircle
 10
317.3910495576
 20
600.6821067233
 30
0.0
 40
2.200000000000049
100
AcDbArc
 50
103.5934783353
 51
268.1042765976
  0
LINE
  5
31F
330
1F
100
AcDbEntity
  8
0
  6
Continuous
 62
     7
370
    15
100
AcDbLine
 10
313.8442369279
 20
602.0598682589
 30
0.0
 11
314.177873927
 21
603.9521071143
 31
0.0
  0
LWPOLYLINE
  5
320
330
1F
100
AcDbEntity
  8
0
  6
Continuous
 62
     7
370
    15
100
AcDbPolyline
 90
        9
 70
   128
 43
0.0
 10
314.177873927
 20
603.9521071143
 10
314.0336306866
 20
603.9775433964
 10
313.8965996083
 20
604.0016981787
 10
313.7714894589
 20
604.0237667985
 10
313.6626513776
 20
604.0429594941
 10
313.5738106545
 20
604.0586206145
 10
313.5080667313
 20
604.0702137179
 10
313.4677143868
 20
604.0773215718
 10
313.4540947255
 20
604.0797355599
  0
LINE
  5
321
330
1F
100
AcDbEntity
  8
0
  6
Continuous
 62
     7
370
    15
100
AcDbLine
 10
313.4540947255
 20
604.0797355599
 30
0.0
 11
317.8291352566
 21
628.8918378777
 31
0.0
  0
LWPOLYLINE
  5
322
330
1F
100
AcDbEntity
  8
0
  6
Continuous
 62
     7
370
    15
100
AcDbPolyline
 90
        9
 70
   128
 43
0.0
 10
317.8291352566
 20
628.8918378777
 10
317.8442748364
 20
628.8891705699
 10
317.8890975293
 20
628.8812580533
 10
317.9619046029
 20
628.8684281535
 10
318.0598946389
 20
628.8511577077
 10
318.1792827424
 20
628.8301023669
 10
318.3154793557
 20
628.8060816951
 10
318.4632690724
 20
628.7800195641
 10
318.6169894513
 20
628.7529143519
  0
LINE
  5
323
330
1F
100
AcDbEntity
  8
0
  6
Continuous
 62
     7
370
    15
100
AcDbLine
 10
318.6169894513
 20
628.7529143519
 30
0.0
 11
313.7916656312
 21
601.3871106333
 31
0.0
  0
LINE
  5
324
330
1F
100
AcDbEntity
  8
0
  6
Continuous
 62
     7
370
    15
100
AcDbLine
 10
313.7916656312
 20
601.3871106333
 30
0.0
 11
313.8442369279
 21
602.0598682589
 31
0.0
  0
LWPOLYLINE
  5
325
330
1F
100
AcDbEntity
  8
0
  6
Continuous
 62
     7
370
    15
100
AcDbPolyline
 90
        5
 70
   128
 43
0.0
 10
316.6764410313
 20
635.7801678605
 10
316.4229722794
 20
636.4765736289
 10
316.2394197758
 20
636.9808885283
 10
316.1282571133
 20
637.2862431235
 10
316.091063815
 20
637.3884948916
  0
LWPOLYLINE
  5
326
330
1F
100
AcDbEntity
  8
0
  6
Continuous
 62
     7
370
    15
100
AcDbPolyline
 90
        5
 70
   128
 43
0.0
 10
317.4360724267
 20
636.0321464963
 10
317.17920621
 20
636.7378207869
 10
316.9931801137
 20
637.248945517
 10
316.880527335
 20
637.5584575362
 10
316.8427975949
 20
637.6621100135
  0
LINE
  5
327
330
1F
100
AcDbEntity
  8
0
  6
Continuous
 62
     7
370
    15
100
AcDbLine
 10
317.6581593331
 20
635.6777074761
 30
0.0
 11
317.4360724267
 21
636.0321464963
 31
0.0
  0
LINE
  5
328
330
1F
100
AcDbEntity
  8
0
  6
Continuous
 62
     7
370
    15
100
AcDbLine
 10
317.575964528
 20
635.6477859444
 30
0.0
 11
317.6581593331
 21
635.6777074761
 31
0.0
  0
SPLINE
  5
329
330
1F
100
AcDbEntity
  8
0
  6
Continuous
 62
     7
370
    15
100
AcDbSpline
210
0.0
220
0.0
230
1.0
 70
     8
 71
     3
 72
    12
 73
     8
 74
     0
 42
0.00000001
 43
0.00000001
 40
0.0
 40
0.0
 40
0.0
 40
0.0
 40
0.2510129086054094
 40
0.502399626882728
 40
0.7402756306463418
 40
0.9473068991405539
 40
1.0
 40
1.0
 40
1.0
 40
1.0
 10
316.6764410313295
 20
635.7801678604842
 30
0.0
 10
316.7041438635216
 20
635.7358493425908
 30
0.0
 10
316.7595907831009
 20
635.6471463074463
 30
0.0
 10
316.9666016539645
 20
635.5721646574867
 30
0.0
 10
317.2279945501467
 20
635.5606549694197
 30
0.0
 10
317.4445761512548
 20
635.6023040352828
 30
0.0
 10
317.5538042403761
 20
635.6401148534944
 30
0.0
 10
317.5759645279574
 20
635.647785944438
 30
0.0
  0
LINE
  5
32A
330
1F
100
AcDbEntity
  8
0
  6
Continuous
 62
     7
370
    15
100
AcDbLine
 10
317.575964528
 20
635.6477859444
 30
0.0
 11
318.1522818383
 21
634.064299149
 31
0.0
  0
LWPOLYLINE
  5
32B
330
1F
100
AcDbEntity
  8
0
  6
Continuous
 62
     7
370
    15
100
AcDbPolyline
 90
        9
 70
   128
 43
0.0
 10
317.4005480584
 20
633.7906840272
 10
317.4149723824
 20
633.7959441371
 10
317.4577685174
 20
633.8115158505
 10
317.5272377309
 20
633.8368031211
 10
317.6207276162
 20
633.8708224721
 10
317.7346320923
 20
633.9122924037
 10
317.8646000203
 20
633.9596035905
 10
318.0056246098
 20
634.0109231896
 10
318.1522818383
 20
634.064299149
  0
LINE
  5
32C
330
1F
100
AcDbEntity
  8
0
  6
Continuous
 62
     7
370
    15
100
AcDbLine
 10
317.4005480584
 20
633.7906840272
 30
0.0
 11
316.6764410313
 21
635.7801678605
 31
0.0
  0
ARC
  5
32D
330
1F
100
AcDbEntity
  8
0
  6
Continuous
 62
     7
370
    15
100
AcDbCircle
 10
308.4734625171
 20
630.5414971916
 30
0.0
 40
9.500000000000059
100
AcDbArc
 50
350.0
 51
20.0
  0
ARC
  5
32E
330
1F
100
AcDbEntity
  8
0
  6
Continuous
 62
     7
370
    15
100
AcDbCircle
 10
308.4734625171
 20
630.5414971916
 30
0.0
 40
10.30000000000011
100
AcDbArc
 50
350.0
 51
20.0
  0
ARC
  5
32F
330
1F
100
AcDbEntity
  8
0
  6
Continuous
 62
     7
370
    15
100
AcDbCircle
 10
317.9810550637
 20
606.8510976418
 30
0.0
 40
1.600000000000011
100
AcDbArc
 50
347.034367059
 51
204.5950707184
  0
LINE
  5
330
330
1F
100
AcDbEntity
  8
0
  6
Continuous
 62
     7
370
    15
100
AcDbLine
 10
320.7910390671
 20
629.4777962394
 30
0.0
 11
320.7910390671
 21
601.4521094985
 31
0.0
  0
LINE
  5
331
330
1F
100
AcDbEntity
  8
0
  6
Continuous
 62
     7
370
    15
100
AcDbLine
 10
318.3757396516
 20
635.3741708226
 30
0.0
 11
318.4937568482
 21
635.3741708226
 31
0.0
  0
ARC
  5
332
330
1F
100
AcDbEntity
  8
0
  6
Continuous
 62
     7
370
    15
100
AcDbCircle
 10
311.2910495576
 20
629.4777927692
 30
0.0
 40
9.500000000000057
100
AcDbArc
 50
0.0
 51
36.8410865502
  0
ARC
  5
333
330
1F
100
AcDbEntity
  8
0
  6
Continuous
 62
     7
370
    15
100
AcDbCircle
 10
318.4937640289
 20
634.8741715776
 30
0.0
 40
0.5
100
AcDbArc
 50
36.8410865503
 51
90.0
  0
ARC
  5
334
330
1F
100
AcDbEntity
  8
0
  6
Continuous
 62
     7
370
    15
100
AcDbCircle
 10
318.3757514833
 20
636.3741715776
 30
0.0
 40
1.0
100
AcDbArc
 50
224.1440002858
 51
270.0
  0
LWPOLYLINE
  5
335
330
1F
100
AcDbEntity
  8
0
  6
Continuous
 62
     7
370
    15
100
AcDbPolyline
 90
        3
 70
   128
 43
0.0
 10
320.7910390671
 20
601.4521094985
 10
320.5824228104
 20
600.2618196435
 10
320.2262552556
 20
599.5456698365
  0
ARC
  5
336
330
1F
100
AcDbEntity
  8
0
  6
Continuous
 62
     7
370
    15
100
AcDbCircle
 10
317.2910495576
 20
601.4521067233
 30
0.0
 40
3.500000000000065
100
AcDbArc
 50
181.0639402281
 51
271.3221928089
  0
ARC
  5
337
330
1F
100
AcDbEntity
  8
0
  6
Continuous
 62
     7
370
    15
100
AcDbCircle
 10
317.8846673509
 20
602.1496022501
 30
0.0
 40
4.698428302688391
100
AcDbArc
 50
170.0
 51
264.3261771657
  0
LINE
  5
338
330
1F
100
AcDbEntity
  8
0
  6
Continuous
 62
     7
370
    15
100
AcDbLine
 10
313.4540947255
 20
604.0797355599
 30
0.0
 11
313.257608014
 21
602.9654714293
 31
0.0
  0
LINE
  5
339
330
1F
100
AcDbEntity
  8
0
  6
Continuous
 62
     7
370
    15
100
AcDbLine
 10
337.2910501536
 20
795.6621070407
 30
0.0
 11
807.2910489615
 21
795.6621070407
 31
0.0
  0
LINE
  5
33A
330
1F
100
AcDbEntity
  8
0
  6
Continuous
 62
     7
370
    15
100
AcDbLine
 10
337.2910501536
 20
795.6621070407
 30
0.0
 11
337.2910501536
 21
810.6621067054
 31
0.0
  0
LINE
  5
33B
330
1F
100
AcDbEntity
  8
0
  6
Continuous
 62
     7
370
    15
100
AcDbLine
 10
337.2910501536
 20
810.6621067054
 30
0.0
 11
807.2910489615
 21
810.6621067054
 31
0.0
  0
LINE
  5
33C
330
1F
100
AcDbEntity
  8
0
  6
Continuous
 62
     7
370
    15
100
AcDbLine
 10
807.2910489615
 20
795.6621070407
 30
0.0
 11
807.2910489615
 21
810.6621067054
 31
0.0
  0
LINE
  5
33D
330
1F
100
AcDbEntity
  8
0
  6
Continuous
 62
     7
370
    15
100
AcDbLine
 10
337.2910501536
 20
795.6621070407
 30
0.0
 11
322.2910495576
 21
795.6621070407
 31
0.0
  0
ARC
  5
33E
330
1F
100
AcDbEntity
  8
0
  6
Continuous
 62
     7
370
    15
100
AcDbCircle
 10
337.2910495576
 20
795.6621067233
 30
0.0
 40
15.0
100
AcDbArc
 50
90.0
 51
180.0
  0
LINE
  5
33F
330
1F
100
AcDbEntity
  8
0
  6
Continuous
 62
     7
370
    15
100
AcDbLine
 10
337.2910501536
 20
584.662106914
 30
0.0
 11
337.2910501536
 21
795.6621070407
 31
0.0
  0
LINE
  5
340
330
1F
100
AcDbEntity
  8
0
  6
Continuous
 62
     7
370
    15
100
AcDbLine
 10
337.2910501536
 20
584.662106914
 30
0.0
 11
322.2910495576
 21
584.662106914
 31
0.0
  0
LINE
  5
341
330
1F
100
AcDbEntity
  8
0
  6
Continuous
 62
     7
370
    15
100
AcDbLine
 10
322.2910495576
 20
584.662106914
 30
0.0
 11
322.2910495576
 21
795.6621070407
 31
0.0
  0
LINE
  5
342
330
1F
100
AcDbEntity
  8
0
  6
Continuous
 62
     7
370
    15
100
AcDbLine
 10
807.2910489615
 20
795.6621070407
 30
0.0
 11
822.2910495576
 21
795.6621070407
 31
0.0
  0
ARC
  5
343
330
1F
100
AcDbEntity
  8
0
  6
Continuous
 62
     7
370
    15
100
AcDbCircle
 10
807.2910495576
 20
795.6621067233
 30
0.0
 40
15.0
100
AcDbArc
 50
0.0
 51
90.0
  0
LINE
  5
344
330
1F
100
AcDbEntity
  8
0
  6
Continuous
 62
     7
370
    15
100
AcDbLine
 10
822.2910495576
 20
584.662106914
 30
0.0
 11
822.2910495576
 21
795.6621070407
 31
0.0
  0
LINE
  5
345
330
1F
100
AcDbEntity
  8
0
  6
Continuous
 62
     7
370
    15
100
AcDbLine
 10
822.2910495576
 20
584.662106914
 30
0.0
 11
807.2910489615
 21
584.662106914
 31
0.0
  0
LINE
  5
346
330
1F
100
AcDbEntity
  8
0
  6
Continuous
 62
     7
370
    15
100
AcDbLine
 10
807.2910489615
 20
584.662106914
 30
0.0
 11
807.2910489615
 21
795.6621070407
 31
0.0
  0
LINE
  5
347
330
1F
100
AcDbEntity
  8
0
  6
Continuous
 62
     7
370
    15
100
AcDbLine
 10
807.2910489615
 20
584.662106914
 30
0.0
 11
337.2910501536
 21
584.662106914
 31
0.0
  0
LINE
  5
348
330
1F
100
AcDbEntity
  8
0
  6
Continuous
 62
     7
370
    15
100
AcDbLine
 10
342.2910453852
 20
604.6621027417
 30
0.0
 11
342.2910453852
 21
790.6621071524
 31
0.0
  0
LINE
  5
349
330
1F
100
AcDbEntity
  8
0
  6
Continuous
 62
     7
370
    15
100
AcDbLine
 10
342.2910453852
 20
604.6621027417
 30
0.0
 11
802.2910537299
 21
604.6621027417
 31
0.0
  0
LINE
  5
34A
330
1F
100
AcDbEntity
  8
0
  6
Continuous
 62
     7
370
    15
100
AcDbLine
 10
802.2910537299
 20
790.6621071524
 30
0.0
 11
802.2910537299
 21
604.6621027417
 31
0.0
  0
LINE
  5
34B
330
1F
100
AcDbEntity
  8
0
  6
Continuous
 62
     7
370
    15
100
AcDbLine
 10
802.2910537299
 20
790.6621071524
 30
0.0
 11
342.2910453852
 21
790.6621071524
 31
0.0
  0
LINE
  5
34C
330
1F
100
AcDbEntity
  8
0
  6
Continuous
 62
     7
370
    15
100
AcDbLine
 10
342.2910453852
 20
580.6621137089
 30
0.0
 11
342.2910453852
 21
584.662106914
 31
0.0
  0
LINE
  5
34D
330
1F
100
AcDbEntity
  8
0
  6
Continuous
 62
     7
370
    15
100
AcDbLine
 10
327.2910447892
 20
580.6621137089
 30
0.0
 11
327.2910447892
 21
584.662106914
 31
0.0
  0
LINE
  5
34E
330
1F
100
AcDbEntity
  8
0
  6
Continuous
 62
     7
370
    15
100
AcDbLine
 10
817.2910543259
 20
580.6621137089
 30
0.0
 11
817.2910543259
 21
584.662106914
 31
0.0
  0
LINE
  5
34F
330
1F
100
AcDbEntity
  8
0
  6
Continuous
 62
     7
370
    15
100
AcDbLine
 10
802.2910537299
 20
580.6621137089
 30
0.0
 11
802.2910537299
 21
584.662106914
 31
0.0
  0
ARC
  5
350
330
1F
100
AcDbEntity
  8
0
  6
Continuous
 62
     7
370
    15
100
AcDbCircle
 10
828.2910495576
 20
582.4121067233
 30
0.0
 40
5.500000000000115
100
AcDbArc
 50
202.024312837
 51
152.720387264
  0
ARC
  5
351
330
1F
100
AcDbEntity
  8
0
  6
Continuous
 62
     7
370
    15
100
AcDbCircle
 10
822.7289006922
 20
580.1621067233
 30
0.0
 40
0.4999999999999757
100
AcDbArc
 50
22.024312837
 51
90.0
  0
ARC
  5
352
330
1F
100
AcDbEntity
  8
0
  6
Continuous
 62
     7
370
    15
100
AcDbCircle
 10
822.9583673056
 20
585.1621067233
 30
0.0
 40
0.5000000000000541
100
AcDbArc
 50
270.0
 51
332.720387264
  0
LINE
  5
353
330
1F
100
AcDbEntity
  8
0
  6
Continuous
 62
     7
370
    15
100
AcDbLine
 10
822.2910495576
 20
584.662106914
 30
0.0
 11
822.9583533581
 21
584.662106914
 31
0.0
  0
LINE
  5
354
330
1F
100
AcDbEntity
  8
0
  6
Continuous
 62
     7
370
    15
100
AcDbLine
 10
822.7289052781
 20
580.6621137089
 30
0.0
 11
822.2910495576
 21
580.6621137089
 31
0.0
  0
LINE
  5
355
330
1F
100
AcDbEntity
  8
0
  6
Continuous
 62
     7
370
    15
100
AcDbLine
 10
321.9910593804
 20
603.8621041007
 30
0.0
 11
322.2910495576
 21
603.8631620831
 31
0.0
  0
LINE
  5
356
330
1F
100
AcDbEntity
  8
0
  6
Continuous
 62
     7
370
    15
100
AcDbLine
 10
322.2910495576
 20
605.8621081538
 30
0.0
 11
321.9910593804
 21
605.8621081538
 31
0.0
  0
LINE
  5
357
330
1F
100
AcDbEntity
  8
0
  6
Continuous
 62
     7
370
    15
100
AcDbLine
 10
321.9910593804
 20
603.8621041007
 30
0.0
 11
321.9910593804
 21
605.8621081538
 31
0.0
  0
ARC
  5
358
330
1F
100
AcDbEntity
  8
0
  6
Continuous
 62
     7
370
    15
100
AcDbCircle
 10
317.0910495576
 20
600.7621067233
 30
0.0
 40
3.100000000000028
100
AcDbArc
 50
192.3149196472
 51
270.0
  0
LINE
  5
359
330
1F
100
AcDbEntity
  8
0
  6
Continuous
 62
     7
370
    15
100
AcDbLine
 10
321.9910593804
 20
603.8621041007
 30
0.0
 11
320.7910390671
 21
603.8621041007
 31
0.0
  0
LINE
  5
35A
330
1F
100
AcDbEntity
  8
0
  6
Continuous
 62
     7
370
    15
100
AcDbLine
 10
321.9910593804
 20
597.662103457
 30
0.0
 11
321.9910593804
 21
603.8621041007
 31
0.0
  0
LINE
  5
35B
330
1F
100
AcDbEntity
  8
0
  6
Continuous
 62
     7
370
    15
100
AcDbLine
 10
317.0910509404
 20
597.662103457
 30
0.0
 11
317.4011739072
 21
597.662103457
 31
0.0
  0
LINE
  5
35C
330
1F
100
AcDbEntity
  8
0
  6
Continuous
 62
     7
370
    15
100
AcDbLine
 10
320.4164238747
 20
597.662103457
 30
0.0
 11
321.9910593804
 21
597.662103457
 31
0.0
  0
LINE
  5
35D
330
1F
100
AcDbEntity
  8
0
  6
Continuous
 62
     7
370
    15
100
AcDbLine
 10
322.2910495576
 20
597.662103457
 30
0.0
 11
321.9910593804
 21
597.662103457
 31
0.0
  0
LINE
  5
35E
330
1F
100
AcDbEntity
  8
0
  6
Continuous
 62
     7
370
    15
100
AcDbLine
 10
321.9910593804
 20
636.6621079869
 30
0.0
 11
321.9910593804
 21
629.9121054835
 31
0.0
  0
LINE
  5
35F
330
1F
100
AcDbEntity
  8
0
  6
Continuous
 62
     7
370
    15
100
AcDbLine
 10
321.9910593804
 20
605.8621081538
 30
0.0
 11
321.9910593804
 21
629.9121054835
 31
0.0
  0
LINE
  5
360
330
1F
100
AcDbEntity
  8
0
  6
Continuous
 62
     7
370
    15
100
AcDbLine
 10
321.8910427865
 20
629.6621087022
 30
0.0
 11
321.8910427865
 21
635.6621059603
 31
0.0
  0
LINE
  5
361
330
1F
100
AcDbEntity
  8
0
  6
Continuous
 62
     7
370
    15
100
AcDbLine
 10
321.8910427865
 20
606.6621067948
 30
0.0
 11
321.8910427865
 21
612.662104053
 31
0.0
  0
LINE
  5
362
330
1F
100
AcDbEntity
  8
0
  6
Continuous
 62
     7
370
    15
100
AcDbLine
 10
320.7910390671
 20
622.0189156956
 30
0.0
 11
321.9910593804
 21
621.6973784394
 31
0.0
  0
LINE
  5
363
330
1F
100
AcDbEntity
  8
0
  6
Continuous
 62
     7
370
    15
100
AcDbLine
 10
321.9910593804
 20
620.6621053643
 30
0.0
 11
320.7910390671
 21
620.9836426205
 31
0.0
  0
LINE
  5
364
330
1F
100
AcDbEntity
  8
0
  6
Continuous
 62
     8
370
    15
100
AcDbLine
 10
322.2910495576
 20
629.9121054835
 30
0.0
 11
321.9910593804
 21
629.9121054835
 31
0.0
  0
ENDSEC
  0
SECTION
  2
OBJECTS
  0
DICTIONARY
  5
C
330
0
100
AcDbDictionary
281
     1
  3
ACAD_GROUP
350
D
  3
ACAD_LAYOUT
350
1A
  3
ACAD_MLINESTYLE
350
17
  3
ACAD_PLOTSETTINGS
350
19
  3
ACAD_PLOTSTYLENAME
350
E
  0
DICTIONARY
  5
D
102
{ACAD_REACTORS
330
C
102
}
330
C
100
AcDbDictionary
281
     1
  0
DICTIONARY
  5
1A
102
{ACAD_REACTORS
330
C
102
}
330
C
100
AcDbDictionary
281
     1
  3
Layout1
350
1E
  3
Layout2
350
26
  3
Model
350
22
  0
DICTIONARY
  5
17
102
{ACAD_REACTORS
330
C
102
}
330
C
100
AcDbDictionary
281
     1
  3
Standard
350
18
  0
DICTIONARY
  5
19
102
{ACAD_REACTORS
330
C
102
}
330
C
100
AcDbDictionary
281
     1
  0
ACDBDICTIONARYWDFLT
  5
E
102
{ACAD_REACTORS
330
C
102
}
330
C
100
AcDbDictionary
281
     1
  3
Normal
350
F
100
AcDbDictionaryWithDefault
340
F
  0
LAYOUT
  5
1E
102
{ACAD_REACTORS
330
1A
102
}
330
1A
100
AcDbPlotSettings
  1

  2
none_device
  4

  6

 40
0.0
 41
0.0
 42
0.0
 43
0.0
 44
0.0
 45
0.0
 46
0.0
 47
0.0
 48
0.0
 49
0.0
140
0.0
141
0.0
142
1.0
143
1.0
 70
   688
 72
     0
 73
     0
 74
     5
  7

 75
    16
147
1.0
148
0.0
149
0.0
100
AcDbLayout
  1
Layout1
 70
     1
 71
     1
 10
0.0
 20
0.0
 11
420.0
 21
297.0
 12
0.0
 22
0.0
 32
0.0
 14
1.0000000000E+20
 24
1.0000000000E+20
 34
1.0000000000E+20
 15
-1.0000000000E+20
 25
-1.0000000000E+20
 35
-1.0000000000E+20
146
0.0
 13
0.0
 23
0.0
 33
0.0
 16
1.0
 26
0.0
 36
0.0
 17
0.0
 27
1.0
 37
0.0
 76
     0
330
1B
  0
LAYOUT
  5
26
102
{ACAD_REACTORS
330
1A
102
}
330
1A
100
AcDbPlotSettings
  1

  2
none_device
  4

  6

 40
0.0
 41
0.0
 42
0.0
 43
0.0
 44
0.0
 45
0.0
 46
0.0
 47
0.0
 48
0.0
 49
0.0
140
0.0
141
0.0
142
1.0
143
1.0
 70
   688
 72
     0
 73
     0
 74
     5
  7

 75
    16
147
1.0
148
0.0
149
0.0
100
AcDbLayout
  1
Layout2
 70
     1
 71
     2
 10
0.0
 20
0.0
 11
0.0
 21
0.0
 12
0.0
 22
0.0
 32
0.0
 14
0.0
 24
0.0
 34
0.0
 15
0.0
 25
0.0
 35
0.0
146
0.0
 13
0.0
 23
0.0
 33
0.0
 16
1.0
 26
0.0
 36
0.0
 17
0.0
 27
1.0
 37
0.0
 76
     0
330
23
  0
LAYOUT
  5
22
102
{ACAD_REACTORS
330
1A
102
}
330
1A
100
AcDbPlotSettings
  1

  2
none_device
  4

  6

 40
0.0
 41
0.0
 42
0.0
 43
0.0
 44
0.0
 45
0.0
 46
0.0
 47
0.0
 48
0.0
 49
0.0
140
0.0
141
0.0
142
1.0
143
1.0
 70
  1712
 72
     0
 73
     0
 74
     0
  7

 75
     0
147
1.0
148
0.0
149
0.0
100
AcDbLayout
  1
Model
 70
     1
 71
     0
 10
0.0
 20
0.0
 11
840.0
 21
594.0
 12
0.0
 22
0.0
 32
0.0
 14
0.0
 24
0.0
 34
0.0
 15
840.0
 25
594.0
 35
0.0
146
0.0
 13
0.0
 23
0.0
 33
0.0
 16
1.0
 26
0.0
 36
0.0
 17
0.0
 27
1.0
 37
0.0
 76
     0
330
1F
331
29
  0
MLINESTYLE
  5
18
102
{ACAD_REACTORS
330
17
102
}
330
17
100
AcDbMlineStyle
  2
Standard
 70
     0
  3

 62
   256
 51
90.0
 52
90.0
 71
     2
 49
0.5
 62
   256
  6
BYLAYER
 49
-0.5
 62
   256
  6
BYLAYER
  0
ACDBPLACEHOLDER
  5
F
102
{ACAD_REACTORS
330
E
102
}
330
E
  0
ENDSEC
  0
EOF
