  0
SECTION
  2
HEADER
  9
$ACADVER
  1
AC1015
  9
$ACADMAINTVER
 70
     6
  9
$DWGCODEPAGE
  3
DOS932
  9
$INSBASE
 10
0.0
 20
0.0
 30
0.0
  9
$EXTMIN
 10
0.0
 20
0.0
 30
0.0
  9
$EXTMAX
 10
840.0
 20
594.0
 30
0.0
  9
$LIMMIN
 10
0.0
 20
0.0
  9
$LIMMAX
 10
840.0
 20
594.0
  9
$ORTHOMODE
 70
     0
  9
$REGENMODE
 70
     1
  9
$FILLMODE
 70
     1
  9
$QTEXTMODE
 70
     0
  9
$MIRRTEXT
 70
     1
  9
$LTSCALE
 40
2.0
  9
$ATTMODE
 70
     1
  9
$TEXTSIZE
 40
7.0
  9
$TRACEWID
 40
1.0
  9
$TEXTSTYLE
  7
Standard
  9
$CLAYER
  8
0
  9
$CELTYPE
  6
ByLayer
  9
$CECOLOR
 62
   256
  9
$CELTSCALE
 40
1.0
  9
$DISPSILH
 70
     0
  9
$DIMSCALE
 40
1.0
  9
$DIMASZ
 40
6.0
  9
$DIMEXO
 40
2.0
  9
$DIMDLI
 40
3.75
  9
$DIMRND
 40
0.0
  9
$DIMDLE
 40
0.0
  9
$DIMEXE
 40
2.0
  9
$DIMTP
 40
0.0
  9
$DIMTM
 40
0.0
  9
$DIMTXT
 40
7.0
  9
$DIMCEN
 40
2.5
  9
$DIMTSZ
 40
0.0
  9
$DIMTOL
 70
     0
  9
$DIMLIM
 70
     0
  9
$DIMTIH
 70
     1
  9
$DIMTOH
 70
     1
  9
$DIMSE1
 70
     0
  9
$DIMSE2
 70
     0
  9
$DIMTAD
 70
     1
  9
$DIMZIN
 70
     0
  9
$DIMBLK
  1

  9
$DIMASO
 70
     1
  9
$DIMSHO
 70
     1
  9
$DIMPOST
  1

  9
$DIMAPOST
  1

  9
$DIMALT
 70
     0
  9
$DIMALTD
 70
     3
  9
$DIMALTF
 40
0.0393700787
  9
$DIMLFAC
 40
1.0
  9
$DIMTOFL
 70
     1
  9
$DIMTVP
 40
0.0
  9
$DIMTIX
 70
     0
  9
$DIMSOXD
 70
     0
  9
$DIMSAH
 70
     0
  9
$DIMBLK1
  1

  9
$DIMBLK2
  1

  9
$DIMSTYLE
  2
ISO-25
  9
$DIMCLRD
 70
     0
  9
$DIMCLRE
 70
     0
  9
$DIMCLRT
 70
     0
  9
$DIMTFAC
 40
1.0
  9
$DIMGAP
 40
3.048
  9
$DIMJUST
 70
     0
  9
$DIMSD1
 70
     0
  9
$DIMSD2
 70
     0
  9
$DIMTOLJ
 70
     0
  9
$DIMTZIN
 70
     0
  9
$DIMALTZ
 70
     0
  9
$DIMALTTZ
 70
     0
  9
$DIMUPT
 70
     0
  9
$DIMDEC
 70
     1
  9
$DIMTDEC
 70
     1
  9
$DIMALTU
 70
     2
  9
$DIMALTTD
 70
     3
  9
$DIMTXSTY
  7
Standard
  9
$DIMAUNIT
 70
     0
  9
$DIMADEC
 70
     2
  9
$DIMALTRND
 40
0.0
  9
$DIMAZIN
 70
     0
  9
$DIMDSEP
 70
    44
  9
$DIMATFIT
 70
     3
  9
$DIMFRAC
 70
     0
  9
$DIMLDRBLK
  1

  9
$DIMLUNIT
 70
     2
  9
$DIMLWD
 70
    -2
  9
$DIMLWE
 70
    -2
  9
$DIMTMOVE
 70
     0
  9
$LUNITS
 70
     2
  9
$LUPREC
 70
     1
  9
$SKETCHINC
 40
1.0
  9
$FILLETRAD
 40
10.0
  9
$AUNITS
 70
     0
  9
$AUPREC
 70
     2
  9
$MENU
  1
.
  9
$ELEVATION
 40
0.0
  9
$PELEVATION
 40
0.0
  9
$THICKNESS
 40
0.0
  9
$LIMCHECK
 70
     0
  9
$CHAMFERA
 40
10.0
  9
$CHAMFERB
 40
10.0
  9
$CHAMFERC
 40
20.0
  9
$CHAMFERD
 40
0.0
  9
$SKPOLY
 70
     0
  9
$TDCREATE
 40
2460451.613811771
  9
$TDUCREATE
 40
2460451.238811771
  9
$TDUPDATE
 40
2460451.613811783
  9
$TDUUPDATE
 40
2460451.238811783
  9
$TDINDWG
 40
0.0000000116
  9
$TDUSRTIMER
 40
0.0000000116
  9
$USRTIMER
 70
     1
  9
$ANGBASE
 50
0.0
  9
$ANGDIR
 70
     0
  9
$PDMODE
 70
     0
  9
$PDSIZE
 40
-1.0
  9
$PLINEWID
 40
0.0
  9
$SPLFRAME
 70
     0
  9
$SPLINETYPE
 70
     6
  9
$SPLINESEGS
 70
     8
  9
$HANDSEED
  5
363
  9
$SURFTAB1
 70
     6
  9
$SURFTAB2
 70
     6
  9
$SURFTYPE
 70
     6
  9
$SURFU
 70
     6
  9
$SURFV
 70
     6
  9
$UCSBASE
  2

  9
$UCSNAME
  2

  9
$UCSORG
 10
0.0
 20
0.0
 30
0.0
  9
$UCSXDIR
 10
1.0
 20
0.0
 30
0.0
  9
$UCSYDIR
 10
0.0
 20
1.0
 30
0.0
  9
$UCSORTHOREF
  2

  9
$UCSORTHOVIEW
 70
     0
  9
$UCSORGTOP
 10
0.0
 20
0.0
 30
0.0
  9
$UCSORGBOTTOM
 10
0.0
 20
0.0
 30
0.0
  9
$UCSORGLEFT
 10
0.0
 20
0.0
 30
0.0
  9
$UCSORGRIGHT
 10
0.0
 20
0.0
 30
0.0
  9
$UCSORGFRONT
 10
0.0
 20
0.0
 30
0.0
  9
$UCSORGBACK
 10
0.0
 20
0.0
 30
0.0
  9
$PUCSBASE
  2

  9
$PUCSNAME
  2

  9
$PUCSORG
 10
0.0
 20
0.0
 30
0.0
  9
$PUCSXDIR
 10
1.0
 20
0.0
 30
0.0
  9
$PUCSYDIR
 10
0.0
 20
1.0
 30
0.0
  9
$PUCSORTHOREF
  2

  9
$PUCSORTHOVIEW
 70
     0
  9
$PUCSORGTOP
 10
0.0
 20
0.0
 30
0.0
  9
$PUCSORGBOTTOM
 10
0.0
 20
0.0
 30
0.0
  9
$PUCSORGLEFT
 10
0.0
 20
0.0
 30
0.0
  9
$PUCSORGRIGHT
 10
0.0
 20
0.0
 30
0.0
  9
$PUCSORGFRONT
 10
0.0
 20
0.0
 30
0.0
  9
$PUCSORGBACK
 10
0.0
 20
0.0
 30
0.0
  9
$USERI1
 70
     0
  9
$USERI2
 70
     0
  9
$USERI3
 70
     0
  9
$USERI4
 70
     0
  9
$USERI5
 70
     0
  9
$USERR1
 40
0.0
  9
$USERR2
 40
0.0
  9
$USERR3
 40
0.0
  9
$USERR4
 40
0.0
  9
$USERR5
 40
0.0
  9
$WORLDVIEW
 70
     1
  9
$SHADEDGE
 70
     3
  9
$SHADEDIF
 70
    70
  9
$TILEMODE
 70
     1
  9
$MAXACTVP
 70
    64
  9
$PINSBASE
 10
0.0
 20
0.0
 30
0.0
  9
$PLIMCHECK
 70
     0
  9
$PEXTMIN
 10
1.0000000000E+20
 20
1.0000000000E+20
 30
1.0000000000E+20
  9
$PEXTMAX
 10
-1.0000000000E+20
 20
-1.0000000000E+20
 30
-1.0000000000E+20
  9
$PLIMMIN
 10
0.0
 20
0.0
  9
$PLIMMAX
 10
420.0
 20
297.0
  9
$UNITMODE
 70
     0
  9
$VISRETAIN
 70
     1
  9
$PLINEGEN
 70
     0
  9
$PSLTSCALE
 70
     1
  9
$TREEDEPTH
 70
  3020
  9
$CMLSTYLE
  2
Standard
  9
$CMLJUST
 70
     0
  9
$CMLSCALE
 40
20.0
  9
$PROXYGRAPHICS
 70
     1
  9
$MEASUREMENT
 70
     1
  9
$CELWEIGHT
370
    -1
  9
$ENDCAPS
280
     0
  9
$JOINSTYLE
280
     0
  9
$LWDISPLAY
290
     1
  9
$INSUNITS
 70
     4
  9
$HYPERLINKBASE
  1

  9
$STYLESHEET
  1

  9
$XEDIT
290
     1
  9
$CEPSNTYPE
380
     0
  9
$PSTYLEMODE
290
     1
  9
$FINGERPRINTGUID
  2
{12DC0E21-AFAF-4A80-AE6F-C9A6854A7E66}
  9
$VERSIONGUID
  2
{FAEB1C32-E019-11D5-929B-00C0DF256EC4}
  9
$EXTNAMES
290
     1
  9
$PSVPSCALE
 40
0.0
  9
$OLESTARTUP
290
     0
  0
ENDSEC
  0
SECTION
  2
CLASSES
  0
CLASS
  1
ACDBDICTIONARYWDFLT
  2
AcDbDictionaryWithDefault
  3
ObjectDBX Classes
 90
        0
280
     0
281
     0
  0
CLASS
  1
VISUALSTYLE
  2
AcDbVisualStyle
  3
ObjectDBX Classes
 90
     4095
280
     0
281
     0
  0
CLASS
  1
MATERIAL
  2
AcDbMaterial
  3
ObjectDBX Classes
 90
     1153
280
     0
281
     0
  0
CLASS
  1
ACDBPLACEHOLDER
  2
AcDbPlaceHolder
  3
ObjectDBX Classes
 90
        0
280
     0
281
     0
  0
CLASS
  1
LAYOUT
  2
AcDbLayout
  3
ObjectDBX Classes
 90
        0
280
     0
281
     0
  0
ENDSEC
  0
SECTION
  2
TABLES
  0
TABLE
  2
VPORT
  5
8
330
0
100
AcDbSymbolTable
 70
     1
  0
VPORT
  5
29
330
8
100
AcDbSymbolTableRecord
100
AcDbViewportTableRecord
  2
*Active
 70
     0
 10
0.0
 20
0.0
 11
1.0
 21
1.0
 12
420.0
 22
297.0
 13
0.0
 23
0.0
 14
10.0
 24
10.0
 15
10.0
 25
10.0
 16
0.0
 26
0.0
 36
1.0
 17
0.0
 27
0.0
 37
0.0
 40
594.0
 41
1.4141414141
 42
50.0
 43
0.0
 44
0.0
 50
0.0
 51
0.0
 71
     0
 72
  2000
 73
     1
 74
     3
 75
     0
 76
     0
 77
     0
 78
     0
281
     0
 65
     1
110
0.0
120
0.0
130
0.0
111
1.0
121
0.0
131
0.0
112
0.0
122
1.0
132
0.0
 79
     0
146
0.0
  0
ENDTAB
  0
TABLE
  2
LTYPE
  5
5
330
0
100
AcDbSymbolTable
 70
     6
  0
LTYPE
  5
14
330
5
100
AcDbSymbolTableRecord
100
AcDbLinetypeTableRecord
  2
ByBlock
 70
     0
  3

 72
    65
 73
     0
 40
0.0
  0
LTYPE
  5
15
330
5
100
AcDbSymbolTableRecord
100
AcDbLinetypeTableRecord
  2
ByLayer
 70
     0
  3

 72
    65
 73
     0
 40
0.0
  0
LTYPE
  5
16
330
5
100
AcDbSymbolTableRecord
100
AcDbLinetypeTableRecord
  2
Continuous
 70
     0
  3
Solid line
 72
    65
 73
     0
 40
0.0
  0
LTYPE
  5
3F
330
5
100
AcDbSymbolTableRecord
100
AcDbLinetypeTableRecord
  2
HIDDEN
 70
     0
  3
Hidden __ __ __ __ __ __ __ __ __ __ __ __ __ __
 72
    65
 73
     2
 40
1.905
 49
1.27
 74
     0
 49
-0.635
 74
     0
  0
LTYPE
  5
40
330
5
100
AcDbSymbolTableRecord
100
AcDbLinetypeTableRecord
  2
PHANTOM
 70
     0
  3
Phantom ______  __  __  ______  __  __  ______
 72
    65
 73
     6
 40
12.7
 49
6.35
 74
     0
 49
-1.27
 74
     0
 49
1.27
 74
     0
 49
-1.27
 74
     0
 49
1.27
 74
     0
 49
-1.27
 74
     0
  0
LTYPE
  5
41
330
5
100
AcDbSymbolTableRecord
100
AcDbLinetypeTableRecord
  2
CENTER
 70
     0
  3
Center ____ _ ____ _ ____ _ ____ _ ____ _ ____
 72
    65
 73
     4
 40
10.16
 49
6.35
 74
     0
 49
-1.27
 74
     0
 49
1.27
 74
     0
 49
-1.27
 74
     0
  0
LTYPE
  5
42
330
5
100
AcDbSymbolTableRecord
100
AcDbLinetypeTableRecord
  2
CENTERX2
 70
     0
  3
Center (2x) ________  __  ________  __  _____
 72
    65
 73
     4
 40
20.32
 49
12.7
 74
     0
 49
-2.54
 74
     0
 49
2.54
 74
     0
 49
-2.54
 74
     0
  0
LTYPE
  5
43
330
5
100
AcDbSymbolTableRecord
100
AcDbLinetypeTableRecord
  2
DOT2
 70
     0
  3
Dot (.5x) ........................................
 72
    65
 73
     2
 40
0.635
 49
0.0
 74
     0
 49
-0.635
 74
     0
  0
ENDTAB
  0
TABLE
  2
LAYER
  5
2
330
0
100
AcDbSymbolTable
 70
     1
  0
LAYER
  5
10
330
2
100
AcDbSymbolTableRecord
100
AcDbLayerTableRecord
  2
0
 70
     0
 62
     7
  6
Continuous
370
    -3
390
F
  0
ENDTAB
  0
TABLE
  2
STYLE
  5
3
330
0
100
AcDbSymbolTable
 70
     2
  0
STYLE
  5
11
330
3
100
AcDbSymbolTableRecord
100
AcDbTextStyleTableRecord
  2
Standard
 70
     0
 40
0.0
 41
1.0
 50
0.0
 71
     0
 42
2.5
  3
txt
  4
bigfont
  0
STYLE
  5
44
330
3
100
AcDbSymbolTableRecord
100
AcDbTextStyleTableRecord
  2
SLDTEXTSTYLE0
 70
     0
 40
0.0
 41
0.7
 50
0.0
 71
     0
 42
0.2
  3
TXT
  4
bigfont
  0
ENDTAB
  0
TABLE
  2
VIEW
  5
6
330
0
100
AcDbSymbolTable
 70
     0
  0
ENDTAB
  0
TABLE
  2
UCS
  5
7
330
0
100
AcDbSymbolTable
 70
     0
  0
ENDTAB
  0
TABLE
  2
APPID
  5
9
330
0
100
AcDbSymbolTable
 70
     1
  0
APPID
  5
12
330
9
100
AcDbSymbolTableRecord
100
AcDbRegAppTableRecord
  2
ACAD
 70
     0
  0
ENDTAB
  0
TABLE
  2
DIMSTYLE
  5
A
330
0
100
AcDbSymbolTable
 70
     1
100
AcDbDimStyleTable
  0
DIMSTYLE
105
27
330
A
100
AcDbSymbolTableRecord
100
AcDbDimStyleTableRecord
  2
ISO-25
 70
     0
 41
2.5
 42
0.625
 43
3.75
 44
1.25
 73
     0
 74
     0
 77
     1
 78
     8
140
2.5
141
2.5
143
0.0393700787
147
0.625
171
     3
172
     1
178
     0
271
     2
272
     2
274
     3
278
    44
283
     0
284
     8
340
11
  0
ENDTAB
  0
TABLE
  2
BLOCK_RECORD
  5
1
330
0
100
AcDbSymbolTable
 70
     1
  0
BLOCK_RECORD
  5
1F
330
1
100
AcDbSymbolTableRecord
100
AcDbBlockTableRecord
  2
*Model_Space
340
22
  0
BLOCK_RECORD
  5
1B
330
1
100
AcDbSymbolTableRecord
100
AcDbBlockTableRecord
  2
*Paper_Space
340
1E
  0
BLOCK_RECORD
  5
23
330
1
100
AcDbSymbolTableRecord
100
AcDbBlockTableRecord
  2
*Paper_Space0
340
26
  0
ENDTAB
  0
ENDSEC
  0
SECTION
  2
BLOCKS
  0
BLOCK
  5
20
330
1F
100
AcDbEntity
  8
0
100
AcDbBlockBegin
  2
*Model_Space
 70
     0
 10
0.0
 20
0.0
 30
0.0
  3
*Model_Space
  1

  0
ENDBLK
  5
21
330
1F
100
AcDbEntity
  8
0
100
AcDbBlockEnd
  0
BLOCK
  5
1C
330
1B
100
AcDbEntity
 67
     1
  8
0
100
AcDbBlockBegin
  2
*Paper_Space
 70
     0
 10
0.0
 20
0.0
 30
0.0
  3
*Paper_Space
  1

  0
ENDBLK
  5
1D
330
1B
100
AcDbEntity
 67
     1
  8
0
100
AcDbBlockEnd
  0
BLOCK
  5
24
330
23
100
AcDbEntity
  8
0
100
AcDbBlockBegin
  2
*Paper_Space0
 70
     0
 10
0.0
 20
0.0
 30
0.0
  3
*Paper_Space0
  1

  0
ENDBLK
  5
25
330
23
100
AcDbEntity
  8
0
100
AcDbBlockEnd
  0
ENDSEC
  0
SECTION
  2
ENTITIES
  0
MTEXT
  5
45
330
1F
100
AcDbEntity
  8
0
  6
Continuous
 62
     7
370
     0
100
AcDbMText
 10
92.0338400566
 20
568.6213339728
 30
0.0
 40
7.0
 41
0.0
 71
     1
 72
     1
  1
CHB-515N
  7
SLDTEXTSTYLE0
 73
     1
 44
1.0
  0
LINE
  5
46
330
1F
100
AcDbEntity
  8
0
  6
Continuous
 62
     7
370
    15
100
AcDbLine
 10
307.9680740167
 20
88.9060172386
 30
0.0
 11
308.0680906107
 21
88.9060172386
 31
0.0
  0
LINE
  5
47
330
1F
100
AcDbEntity
  8
0
  6
Continuous
 62
     7
370
    15
100
AcDbLine
 10
308.0680906107
 20
94.9060144968
 30
0.0
 11
307.9680740167
 21
94.9060144968
 31
0.0
  0
LINE
  5
48
330
1F
100
AcDbEntity
  8
0
  6
Continuous
 62
     7
370
    15
100
AcDbLine
 10
307.9680740167
 20
78.9060118742
 30
0.0
 11
308.0680906107
 21
78.9060118742
 31
0.0
  0
LINE
  5
49
330
1F
100
AcDbEntity
  8
0
  6
Continuous
 62
     7
370
    15
100
AcDbLine
 10
308.0680906107
 20
84.9060091324
 30
0.0
 11
307.9680740167
 21
84.9060091324
 31
0.0
  0
LINE
  5
4A
330
1F
100
AcDbEntity
  8
0
  6
Continuous
 62
     7
370
    15
100
AcDbLine
 10
307.9680740167
 20
448.9060166426
 30
0.0
 11
308.0680906107
 21
448.9060166426
 31
0.0
  0
LINE
  5
4B
330
1F
100
AcDbEntity
  8
0
  6
Continuous
 62
     7
370
    15
100
AcDbLine
 10
308.0680906107
 20
454.9060139008
 30
0.0
 11
307.9680740167
 21
454.9060139008
 31
0.0
  0
LINE
  5
4C
330
1F
100
AcDbEntity
  8
0
  6
Continuous
 62
     7
370
    15
100
AcDbLine
 10
307.9680740167
 20
458.906022007
 30
0.0
 11
308.0680906107
 21
458.906022007
 31
0.0
  0
LINE
  5
4D
330
1F
100
AcDbEntity
  8
0
  6
Continuous
 62
     7
370
    15
100
AcDbLine
 10
308.0680906107
 20
464.9060192652
 30
0.0
 11
307.9680740167
 21
464.9060192652
 31
0.0
  0
LINE
  5
4E
330
1F
100
AcDbEntity
  8
0
  6
Continuous
 62
     7
370
    15
100
AcDbLine
 10
309.2680811216
 20
98.4060141392
 30
0.0
 11
308.0680906107
 21
98.4060141392
 31
0.0
  0
LINE
  5
4F
330
1F
100
AcDbEntity
  8
0
  6
Continuous
 62
     7
370
    15
100
AcDbLine
 10
309.2680811216
 20
468.4060189076
 30
0.0
 11
308.0680906107
 21
468.4060189076
 31
0.0
  0
LINE
  5
50
330
1F
100
AcDbEntity
  8
0
  6
Continuous
 62
     7
370
    15
100
AcDbLine
 10
308.0680906107
 20
75.4060122318
 30
0.0
 11
309.2680811216
 21
75.4060122318
 31
0.0
  0
LINE
  5
51
330
1F
100
AcDbEntity
  8
0
  6
Continuous
 62
     7
370
    15
100
AcDbLine
 10
308.0680906107
 20
445.4060170002
 30
0.0
 11
309.2680811216
 21
445.4060170002
 31
0.0
  0
LINE
  5
52
330
1F
100
AcDbEntity
  8
0
  6
Continuous
 62
     7
370
    15
100
AcDbLine
 10
820.7680820753
 20
77.9060098477
 30
0.0
 11
820.7680820753
 21
112.9060211725
 31
0.0
  0
LINE
  5
53
330
1F
100
AcDbEntity
  8
0
  6
Continuous
 62
     7
370
    15
100
AcDbLine
 10
820.7680820753
 20
430.9060099669
 30
0.0
 11
820.7680820753
 21
465.9060212918
 31
0.0
  0
LINE
  5
54
330
1F
100
AcDbEntity
  8
0
  6
Continuous
 62
     7
370
    15
100
AcDbLine
 10
300.1632630159
 20
90.806019599
 30
0.0
 11
300.1632630159
 21
82.206008131
 31
0.0
  0
LINE
  5
55
330
1F
100
AcDbEntity
  8
0
  6
Continuous
 62
     7
370
    15
100
AcDbLine
 10
300.7680713464
 20
79.7060105152
 30
0.0
 11
300.7680713464
 21
78.906265194
 31
0.0
  0
LINE
  5
56
330
1F
100
AcDbEntity
  8
0
  6
Continuous
 62
     7
370
    15
100
AcDbLine
 10
300.7680713464
 20
94.9057611771
 30
0.0
 11
300.7680713464
 21
94.1060158558
 31
0.0
  0
ARC
  5
57
330
1F
100
AcDbEntity
  8
0
  6
Continuous
 62
     7
370
    15
100
AcDbCircle
 10
304.3680811216
 20
92.0988727126
 30
0.0
 40
3.807142857143177
100
AcDbArc
 50
77.9663271603
 51
90.0
  0
ARC
  5
58
330
1F
100
AcDbEntity
  8
0
  6
Continuous
 62
     7
370
    15
100
AcDbCircle
 10
304.3680811216
 20
92.0988727126
 30
0.0
 40
3.80714285714331
100
AcDbArc
 50
90.0
 51
125.3002484399
  0
LINE
  5
59
330
1F
100
AcDbEntity
  8
0
  6
Continuous
 62
     7
370
    15
100
AcDbLine
 10
302.1680950453
 20
95.2060195751
 30
0.0
 11
302.1680950453
 21
94.9060144968
 31
0.0
  0
LINE
  5
5A
330
1F
100
AcDbEntity
  8
0
  6
Continuous
 62
     7
370
    15
100
AcDbLine
 10
302.2680818369
 20
78.5060200043
 30
0.0
 11
302.2680818369
 21
78.1060132332
 31
0.0
  0
ARC
  5
5B
330
1F
100
AcDbEntity
  8
0
  6
Continuous
 62
     7
370
    15
100
AcDbCircle
 10
302.4680811216
 20
78.9060155697
 30
0.0
 40
0.4000000000007731
100
AcDbArc
 50
270.0
 51
0.0
  0
LINE
  5
5C
330
1F
100
AcDbEntity
  8
0
  6
Continuous
 62
     7
370
    15
100
AcDbLine
 10
302.8680919935
 20
94.1060158558
 30
0.0
 11
302.8680919935
 21
93.6560156889
 31
0.0
  0
LINE
  5
5D
330
1F
100
AcDbEntity
  8
0
  6
Continuous
 62
     7
370
    15
100
AcDbLine
 10
302.8680919935
 20
80.1560106821
 30
0.0
 11
302.8680919935
 21
79.7060105152
 31
0.0
  0
SPLINE
  5
5E
330
1F
100
AcDbEntity
  8
0
  6
Continuous
 62
     7
370
    15
100
AcDbSpline
210
0.0
220
0.0
230
1.0
 70
     8
 71
     3
 72
    11
 73
     7
 74
     0
 42
0.00000001
 43
0.00000001
 40
0.0
 40
0.0
 40
0.0
 40
0.0
 40
0.2262216123131673
 40
0.4679437777915651
 40
0.725484838772645
 40
1.0
 40
1.0
 40
1.0
 40
1.0
 10
305.5885969926558
 20
465.1364508218988
 30
0.0
 10
305.5914177684849
 20
465.1135509035012
 30
0.0
 10
305.5972525978111
 20
465.0661819796546
 30
0.0
 10
305.6140191425288
 20
464.741404603904
 30
0.0
 10
305.6276143646942
 20
464.2409056764255
 30
0.0
 10
305.6281607760009
 20
463.8170839750571
 30
0.0
 10
305.6284426976882
 20
463.5984125681147
 30
0.0
  0
SPLINE
  5
5F
330
1F
100
AcDbEntity
  8
0
  6
Continuous
 62
     7
370
    15
100
AcDbSpline
210
0.0
220
0.0
230
1.0
 70
     8
 71
     3
 72
    12
 73
     8
 74
     0
 42
0.00000001
 43
0.00000001
 40
0.0
 40
0.0
 40
0.0
 40
0.0
 40
0.248946245326258
 40
0.4822936287519815
 40
0.699811415192867
 40
0.9035372363555159
 40
1.0
 40
1.0
 40
1.0
 40
1.0
 10
305.6284426976882
 20
450.0397863931879
 30
0.0
 10
305.6270168306306
 20
449.9024507153661
 30
0.0
 10
305.624254440716
 20
449.6363847527042
 30
0.0
 10
305.6133535089156
 20
449.3005808294884
 30
0.0
 10
305.6108431780227
 20
449.0674032518855
 30
0.0
 10
305.6156321941731
 20
448.9472894133748
 30
0.0
 10
305.6420627966709
 20
448.9459500217525
 30
0.0
 10
305.6505560208998
 20
448.9455196209177
 30
0.0
  0
LINE
  5
60
330
1F
100
AcDbEntity
  8
0
  6
Continuous
 62
     7
370
    15
100
AcDbLine
 10
305.6276082327
 20
463.6484059639
 30
0.0
 11
305.6276082327
 21
449.9897780962
 31
0.0
  0
LINE
  5
61
330
1F
100
AcDbEntity
  8
0
  6
Continuous
 62
     7
370
    15
100
AcDbLine
 10
304.1039645006
 20
467.5863060303
 30
0.0
 11
305.5913388063
 21
465.1061567612
 31
0.0
  0
LINE
  5
62
330
1F
100
AcDbEntity
  8
0
  6
Continuous
 62
     7
370
    15
100
AcDbLine
 10
308.0680906107
 20
466.8092551775
 30
0.0
 11
306.6767989923
 21
469.129231865
 31
0.0
  0
LINE
  5
63
330
1F
100
AcDbEntity
  8
0
  6
Continuous
 62
     7
370
    15
100
AcDbLine
 10
305.655831032
 20
448.8134357281
 30
0.0
 11
304.0867387583
 21
446.1970153399
 31
0.0
  0
LINE
  5
64
330
1F
100
AcDbEntity
  8
0
  6
Continuous
 62
     7
370
    15
100
AcDbLine
 10
306.65957325
 20
444.6540895052
 30
0.0
 11
308.0680906107
 21
447.0027658291
 31
0.0
  0
LINE
  5
65
330
1F
100
AcDbEntity
  8
0
  6
Continuous
 62
     7
370
    15
100
AcDbLine
 10
306.6966771414
 20
469.0937223978
 30
0.0
 11
306.6067337324
 21
469.2075076647
 31
0.0
  0
SPLINE
  5
66
330
1F
100
AcDbEntity
  8
0
  6
Continuous
 62
     7
370
    15
100
AcDbSpline
210
0.0
220
0.0
230
1.0
 70
     8
 71
     3
 72
    20
 73
    16
 74
     0
 42
0.00000001
 43
0.00000001
 40
0.0
 40
0.0
 40
0.0
 40
0.0
 40
0.0337781724794067
 40
0.1101040786095846
 40
0.1739272181521333
 40
0.2252746219696243
 40
0.2665355673712558
 40
0.3037729880891175
 40
0.3388573414579894
 40
0.3726382971496215
 40
0.4139167214041614
 40
0.6259820213644617
 40
0.8390272601464757
 40
0.9659458121632797
 40
1.0
 40
1.0
 40
1.0
 40
1.0
 10
306.4944087793074
 20
469.3495753355249
 30
0.0
 10
306.4537589476403
 20
469.4057589886115
 30
0.0
 10
306.3212558566555
 20
469.5888964676972
 30
0.0
 10
306.0113774034342
 20
469.7660797776827
 30
0.0
 10
305.6241050053516
 20
469.8890195864187
 30
0.0
 10
305.2542479044274
 20
469.9038357423803
 30
0.0
 10
304.9199407549857
 20
469.8532088056343
 30
0.0
 10
304.6454505780773
 20
469.7521887758796
 30
0.0
 10
304.4179538019309
 20
469.6174624646509
 30
0.0
 10
304.2119180357737
 20
469.4412856677668
 30
0.0
 10
303.8673581770001
 20
468.9988063549386
 30
0.0
 10
303.6862777855509
 20
468.312120104073
 30
0.0
 10
303.5365595165006
 20
467.1312837769451
 30
0.0
 10
303.4813521563564
 20
466.2266424637148
 30
0.0
 10
303.4748188939269
 20
465.8120536420665
 30
0.0
 10
303.4734367658339
 20
465.7243463344797
 30
0.0
  0
SPLINE
  5
67
330
1F
100
AcDbEntity
  8
0
  6
Continuous
 62
     7
370
    15
100
AcDbSpline
210
0.0
220
0.0
230
1.0
 70
     8
 71
     3
 72
    19
 73
    15
 74
     0
 42
0.00000001
 43
0.00000001
 40
0.0
 40
0.0
 40
0.0
 40
0.0
 40
0.010273182750312
 40
0.1295972824065042
 40
0.326812583574117
 40
0.5525090148970804
 40
0.5858519013612401
 40
0.618600616094169
 40
0.6529075970962559
 40
0.696008133553966
 40
0.7523125381565031
 40
0.8223126523326949
 40
0.905459862121092
 40
1.0
 40
1.0
 40
1.0
 40
1.0
 10
303.4705757428846
 20
448.1060180015788
 30
0.0
 10
303.4708989060751
 20
448.0788205965979
 30
0.0
 10
303.4749756437596
 20
447.7357224682286
 30
0.0
 10
303.5147895836492
 20
446.9157273678513
 30
0.0
 10
303.6497647619286
 20
445.6932980489061
 30
0.0
 10
303.7401692206636
 20
445.0499291175408
 30
0.0
 10
304.0910441066681
 20
444.5098407061697
 30
0.0
 10
304.2602556123908
 20
444.3219771086304
 30
0.0
 10
304.4969947889851
 20
444.1455164551745
 30
0.0
 10
304.8106233595519
 20
443.992050163113
 30
0.0
 10
305.2140931514231
 20
443.8902415959262
 30
0.0
 10
305.6999527130214
 20
443.9134098549702
 30
0.0
 10
306.2297098512042
 20
444.1237330522527
 30
0.0
 10
306.4949407517474
 20
444.4455509273081
 30
0.0
 10
306.6360592176162
 20
444.6167769975885
 30
0.0
  0
LINE
  5
68
330
1F
100
AcDbEntity
  8
0
  6
Continuous
 62
     7
370
    15
100
AcDbLine
 10
300.1632630159
 20
460.8060094662
 30
0.0
 11
300.1632630159
 21
452.2060128994
 31
0.0
  0
LINE
  5
69
330
1F
100
AcDbEntity
  8
0
  6
Continuous
 62
     7
370
    15
100
AcDbLine
 10
300.7680713464
 20
449.7060152836
 30
0.0
 11
300.7680713464
 21
448.9062699623
 31
0.0
  0
LINE
  5
6A
330
1F
100
AcDbEntity
  8
0
  6
Continuous
 62
     7
370
    15
100
AcDbLine
 10
300.7680713464
 20
464.9057659455
 30
0.0
 11
300.7680713464
 21
464.1060206242
 31
0.0
  0
LINE
  5
6B
330
1F
100
AcDbEntity
  8
0
  6
Continuous
 62
     7
370
    15
100
AcDbLine
 10
302.1680950453
 20
465.2060094424
 30
0.0
 11
302.1680950453
 21
464.9060192652
 31
0.0
  0
ARC
  5
6C
330
1F
100
AcDbEntity
  8
0
  6
Continuous
 62
     7
370
    15
100
AcDbCircle
 10
304.3680811216
 20
462.0988727126
 30
0.0
 40
3.807142857143219
100
AcDbArc
 50
77.9663271603
 51
90.0
  0
ARC
  5
6D
330
1F
100
AcDbEntity
  8
0
  6
Continuous
 62
     7
370
    15
100
AcDbCircle
 10
304.3680811216
 20
462.0988727126
 30
0.0
 40
3.807142857143322
100
AcDbArc
 50
90.0
 51
125.3002484399
  0
LINE
  5
6E
330
1F
100
AcDbEntity
  8
0
  6
Continuous
 62
     7
370
    15
100
AcDbLine
 10
302.2680818369
 20
448.5060098715
 30
0.0
 11
302.2680818369
 21
448.1060180016
 31
0.0
  0
ARC
  5
6F
330
1F
100
AcDbEntity
  8
0
  6
Continuous
 62
     7
370
    15
100
AcDbCircle
 10
302.4680811216
 20
448.9060155697
 30
0.0
 40
0.4000000000007731
100
AcDbArc
 50
270.0
 51
0.0
  0
LINE
  5
70
330
1F
100
AcDbEntity
  8
0
  6
Continuous
 62
     7
370
    15
100
AcDbLine
 10
302.8680919935
 20
464.1060206242
 30
0.0
 11
302.8680919935
 21
463.6560204573
 31
0.0
  0
LINE
  5
71
330
1F
100
AcDbEntity
  8
0
  6
Continuous
 62
     7
370
    15
100
AcDbLine
 10
302.8680919935
 20
450.1560154505
 30
0.0
 11
302.8680919935
 21
449.7060152836
 31
0.0
  0
SPLINE
  5
72
330
1F
100
AcDbEntity
  8
0
  6
Continuous
 62
     7
370
    15
100
AcDbSpline
210
0.0
220
0.0
230
1.0
 70
     8
 71
     3
 72
    11
 73
     7
 74
     0
 42
0.00000001
 43
0.00000001
 40
0.0
 40
0.0
 40
0.0
 40
0.0
 40
0.2262216123131673
 40
0.4679437777915651
 40
0.725484838772645
 40
1.0
 40
1.0
 40
1.0
 40
1.0
 10
305.5885969926558
 20
95.13644605352728
 30
0.0
 10
305.5914177684849
 20
95.11354613512965
 30
0.0
 10
305.5972525978111
 20
95.06617721128299
 30
0.0
 10
305.6140191425288
 20
94.74139983553232
 30
0.0
 10
305.6276143646942
 20
94.24090090805399
 30
0.0
 10
305.6281607760009
 20
93.81707920668555
 30
0.0
 10
305.6284426976882
 20
93.5984077997431
 30
0.0
  0
SPLINE
  5
73
330
1F
100
AcDbEntity
  8
0
  6
Continuous
 62
     7
370
    15
100
AcDbSpline
210
0.0
220
0.0
230
1.0
 70
     8
 71
     3
 72
    12
 73
     8
 74
     0
 42
0.00000001
 43
0.00000001
 40
0.0
 40
0.0
 40
0.0
 40
0.0
 40
0.2489469272997727
 40
0.4822949499668513
 40
0.6998133322848473
 40
0.9035365115921212
 40
1.0
 40
1.0
 40
1.0
 40
1.0
 10
305.6284426976881
 20
80.03978162481631
 30
0.0
 10
305.6270168261855
 20
79.90244569572234
 30
0.0
 10
305.6242544276595
 20
79.63637924626069
 30
0.0
 10
305.613353555987
 20
79.30057872201515
 30
0.0
 10
305.6108430311044
 20
79.06739062450855
 30
0.0
 10
305.6156325610913
 20
78.94731032143778
 30
0.0
 10
305.6420627965599
 20
78.94595150229894
 30
0.0
 10
305.6505560208998
 20
78.94551485254614
 30
0.0
  0
LINE
  5
74
330
1F
100
AcDbEntity
  8
0
  6
Continuous
 62
     7
370
    15
100
AcDbLine
 10
305.6276082327
 20
93.6484160967
 30
0.0
 11
305.6276082327
 21
79.9897733278
 31
0.0
  0
LINE
  5
75
330
1F
100
AcDbEntity
  8
0
  6
Continuous
 62
     7
370
    15
100
AcDbLine
 10
304.1039645006
 20
97.5863012619
 30
0.0
 11
305.5913388063
 21
95.1061519928
 31
0.0
  0
LINE
  5
76
330
1F
100
AcDbEntity
  8
0
  6
Continuous
 62
     7
370
    15
100
AcDbLine
 10
308.0680906107
 20
96.8092653103
 30
0.0
 11
306.6767989923
 21
99.1292270966
 31
0.0
  0
LINE
  5
77
330
1F
100
AcDbEntity
  8
0
  6
Continuous
 62
     7
370
    15
100
AcDbLine
 10
305.655831032
 20
78.8134309597
 30
0.0
 11
304.0867387583
 21
76.1970105715
 31
0.0
  0
LINE
  5
78
330
1F
100
AcDbEntity
  8
0
  6
Continuous
 62
     7
370
    15
100
AcDbLine
 10
306.65957325
 20
74.6540847368
 30
0.0
 11
308.0680906107
 21
77.0027759619
 31
0.0
  0
LINE
  5
79
330
1F
100
AcDbEntity
  8
0
  6
Continuous
 62
     7
370
    15
100
AcDbLine
 10
306.6966771414
 20
99.0937176295
 30
0.0
 11
306.6067337324
 21
99.2075028963
 31
0.0
  0
SPLINE
  5
7A
330
1F
100
AcDbEntity
  8
0
  6
Continuous
 62
     7
370
    15
100
AcDbSpline
210
0.0
220
0.0
230
1.0
 70
     8
 71
     3
 72
    20
 73
    16
 74
     0
 42
0.00000001
 43
0.00000001
 40
0.0
 40
0.0
 40
0.0
 40
0.0
 40
0.0337782168700868
 40
0.1101042233064281
 40
0.1739274467242242
 40
0.2252749180215701
 40
0.2665356140989973
 40
0.3037737395101398
 40
0.3388581389862517
 40
0.3726391390722216
 40
0.4139176175741406
 40
0.6259831962269281
 40
0.8390271529319054
 40
0.965947687651438
 40
0.9999999999999999
 40
0.9999999999999999
 40
0.9999999999999999
 40
0.9999999999999999
 10
306.4944087793074
 20
99.34957056715338
 30
0.0
 10
306.4537589419058
 20
99.40575424840667
 30
0.0
 10
306.3212558322289
 20
99.58889181930586
 30
0.0
 10
306.0113776382238
 20
99.7660738560572
 30
0.0
 10
305.6241043580507
 20
99.88901799749777
 30
0.0
 10
305.2542503713757
 20
99.90382235315465
 30
0.0
 10
304.919935711108
 20
99.85322836297486
 30
0.0
 10
304.6454538029641
 20
99.75217918529025
 30
0.0
 10
304.4179533505837
 20
99.6174590996377
 30
0.0
 10
304.2119181808866
 20
99.44128044774652
 30
0.0
 10
303.8673579032026
 20
98.99880244423572
 30
0.0
 10
303.6862791451932
 20
98.31211515130275
 30
0.0
 10
303.5365578665009
 20
97.13128860494352
 30
0.0
 10
303.4813528134898
 20
96.22664681149723
 30
0.0
 10
303.4748189450776
 20
95.8120587295952
 30
0.0
 10
303.4734367658339
 20
95.72435646726935
 30
0.0
  0
SPLINE
  5
7B
330
1F
100
AcDbEntity
  8
0
  6
Continuous
 62
     7
370
    15
100
AcDbSpline
210
0.0
220
0.0
230
1.0
 70
     8
 71
     3
 72
    19
 73
    15
 74
     0
 42
0.00000001
 43
0.00000001
 40
0.0
 40
0.0
 40
0.0
 40
0.0
 40
0.010273187794064
 40
0.1295973460339668
 40
0.3268127440269833
 40
0.5525080925531369
 40
0.5858522930241575
 40
0.6185997343435606
 40
0.6529078497587533
 40
0.6960084073772292
 40
0.7523124165511391
 40
0.8223125650947927
 40
0.9054598157053882
 40
1.0
 40
1.0
 40
1.0
 40
1.0
 10
303.4705757428847
 20
78.10601323320715
 30
0.0
 10
303.4708989049379
 20
78.07881582630374
 30
0.0
 10
303.4749756282763
 20
77.73571767368115
 30
0.0
 10
303.514790901135
 20
76.91572482680753
 30
0.0
 10
303.6497559416605
 20
75.6932815622729
 30
0.0
 10
303.7401919258483
 20
75.04996454819113
 30
0.0
 10
304.0910360851482
 20
74.5098348950046
 30
0.0
 10
304.2602653026942
 20
74.32198973620463
 30
0.0
 10
304.4969882436041
 20
74.14550815208429
 30
0.0
 10
304.8106231529222
 20
73.99204418383154
 30
0.0
 10
305.2140949714615
 20
73.89025760283305
 30
0.0
 10
305.6999524192028
 20
73.91341794617506
 30
0.0
 10
306.2297099424427
 20
74.12374381900852
 30
0.0
 10
306.494940783433
 20
74.44556128026372
 30
0.0
 10
306.6360592176162
 20
74.61678713037817
 30
0.0
  0
LINE
  5
7C
330
1F
100
AcDbEntity
  8
0
  6
Continuous
 62
     7
370
    15
100
AcDbLine
 10
820.7680820753
 20
41.9060113974
 30
0.0
 11
820.7680820753
 21
76.9060227223
 31
0.0
  0
LINE
  5
7D
330
1F
100
AcDbEntity
  8
0
  6
Continuous
 62
     7
370
    15
100
AcDbLine
 10
820.7680820753
 20
466.9060084172
 30
0.0
 11
820.7680820753
 21
501.906019742
 31
0.0
  0
LINE
  5
7E
330
1F
100
AcDbEntity
  8
0
  6
Continuous
 62
     7
370
    15
100
AcDbLine
 10
817.7680908968
 20
76.9060227223
 30
0.0
 11
817.7680908968
 21
77.9060098477
 31
0.0
  0
LINE
  5
7F
330
1F
100
AcDbEntity
  8
0
  6
Continuous
 62
     7
370
    15
100
AcDbLine
 10
817.7680908968
 20
112.9060211725
 30
0.0
 11
817.7680908968
 21
113.9060082979
 31
0.0
  0
LINE
  5
80
330
1F
100
AcDbEntity
  8
0
  6
Continuous
 62
     7
370
    15
100
AcDbLine
 10
812.7680956651
 20
113.9060082979
 30
0.0
 11
812.7680956651
 21
112.9060211725
 31
0.0
  0
LINE
  5
81
330
1F
100
AcDbEntity
  8
0
  6
Continuous
 62
     7
370
    15
100
AcDbLine
 10
812.7680956651
 20
77.9060098477
 30
0.0
 11
812.7680956651
 21
76.9060227223
 31
0.0
  0
LINE
  5
82
330
1F
100
AcDbEntity
  8
0
  6
Continuous
 62
     7
370
    15
100
AcDbLine
 10
812.7680956651
 20
466.9060084172
 30
0.0
 11
812.7680956651
 21
465.9060212918
 31
0.0
  0
LINE
  5
83
330
1F
100
AcDbEntity
  8
0
  6
Continuous
 62
     7
370
    15
100
AcDbLine
 10
812.7680956651
 20
430.9060099669
 30
0.0
 11
812.7680956651
 21
429.9060228415
 31
0.0
  0
LINE
  5
84
330
1F
100
AcDbEntity
  8
0
  6
Continuous
 62
     7
370
    15
100
AcDbLine
 10
817.7680908968
 20
429.9060228415
 30
0.0
 11
817.7680908968
 21
430.9060099669
 31
0.0
  0
LINE
  5
85
330
1F
100
AcDbEntity
  8
0
  6
Continuous
 62
     7
370
    15
100
AcDbLine
 10
817.7680908968
 20
465.9060212918
 30
0.0
 11
817.7680908968
 21
466.9060084172
 31
0.0
  0
LINE
  5
86
330
1F
100
AcDbEntity
  8
0
  6
Continuous
 62
     7
370
    15
100
AcDbLine
 10
300.968074732
 20
80.4488334007
 30
0.0
 11
300.968074732
 21
80.1560106821
 31
0.0
  0
LINE
  5
87
330
1F
100
AcDbEntity
  8
0
  6
Continuous
 62
     7
370
    15
100
AcDbLine
 10
300.968074732
 20
93.6560156889
 30
0.0
 11
300.968074732
 21
93.3632078715
 31
0.0
  0
LINE
  5
88
330
1F
100
AcDbEntity
  8
0
  6
Continuous
 62
     7
370
    15
100
AcDbLine
 10
300.968074732
 20
450.448823268
 30
0.0
 11
300.968074732
 21
450.1560154505
 31
0.0
  0
LINE
  5
89
330
1F
100
AcDbEntity
  8
0
  6
Continuous
 62
     7
370
    15
100
AcDbLine
 10
300.968074732
 20
463.6560204573
 30
0.0
 11
300.968074732
 21
463.3631977387
 31
0.0
  0
ARC
  5
8A
330
1F
100
AcDbEntity
  8
0
  6
Continuous
 62
     7
370
    15
100
AcDbCircle
 10
324.2680811216
 20
36.9060155697
 30
0.0
 40
15.00000000000001
100
AcDbArc
 50
180.0
 51
270.0
  0
LINE
  5
8B
330
1F
100
AcDbEntity
  8
0
  6
Continuous
 62
     7
370
    15
100
AcDbLine
 10
309.2680811216
 20
36.9060161658
 30
0.0
 11
324.2680817177
 21
36.9060161658
 31
0.0
  0
LINE
  5
8C
330
1F
100
AcDbEntity
  8
0
  6
Continuous
 62
     7
370
    15
100
AcDbLine
 10
324.2680817177
 20
21.9060155697
 30
0.0
 11
324.2680817177
 21
36.9060161658
 31
0.0
  0
LINE
  5
8D
330
1F
100
AcDbEntity
  8
0
  6
Continuous
 62
     7
370
    15
100
AcDbLine
 10
324.2680817177
 20
21.9060155697
 30
0.0
 11
794.2680805256
 21
21.9060155697
 31
0.0
  0
LINE
  5
8E
330
1F
100
AcDbEntity
  8
0
  6
Continuous
 62
     7
370
    15
100
AcDbLine
 10
324.2680817177
 20
36.9060161658
 30
0.0
 11
794.2680805256
 21
36.9060161658
 31
0.0
  0
LINE
  5
8F
330
1F
100
AcDbEntity
  8
0
  6
Continuous
 62
     7
370
    15
100
AcDbLine
 10
794.2680805256
 20
36.9060161658
 30
0.0
 11
794.2680805256
 21
21.9060155697
 31
0.0
  0
LINE
  5
90
330
1F
100
AcDbEntity
  8
0
  6
Continuous
 62
     7
370
    15
100
AcDbLine
 10
324.2680817177
 20
36.9060161658
 30
0.0
 11
324.2680817177
 21
506.9060149737
 31
0.0
  0
LINE
  5
91
330
1F
100
AcDbEntity
  8
0
  6
Continuous
 62
     7
370
    15
100
AcDbLine
 10
309.2680811216
 20
76.9185247965
 30
0.0
 11
309.2680811216
 21
36.9060161658
 31
0.0
  0
LINE
  5
92
330
1F
100
AcDbEntity
  8
0
  6
Continuous
 62
     7
370
    15
100
AcDbLine
 10
309.2680811216
 20
96.8935015745
 30
0.0
 11
309.2680811216
 21
446.9185295649
 31
0.0
  0
LINE
  5
93
330
1F
100
AcDbEntity
  8
0
  6
Continuous
 62
     7
370
    15
100
AcDbLine
 10
309.2680811216
 20
466.8935063429
 30
0.0
 11
309.2680811216
 21
506.9060149737
 31
0.0
  0
LINE
  5
94
330
1F
100
AcDbEntity
  8
0
  6
Continuous
 62
     7
370
    15
100
AcDbLine
 10
309.2680811216
 20
506.9060149737
 30
0.0
 11
324.2680817177
 21
506.9060149737
 31
0.0
  0
LINE
  5
95
330
1F
100
AcDbEntity
  8
0
  6
Continuous
 62
     7
370
    15
100
AcDbLine
 10
794.2680805256
 20
36.9060161658
 30
0.0
 11
794.2680805256
 21
506.9060149737
 31
0.0
  0
LINE
  5
96
330
1F
100
AcDbEntity
  8
0
  6
Continuous
 62
     7
370
    15
100
AcDbLine
 10
324.2680817177
 20
506.9060149737
 30
0.0
 11
794.2680805256
 21
506.9060149737
 31
0.0
  0
LINE
  5
97
330
1F
100
AcDbEntity
  8
0
  6
Continuous
 62
     7
370
    15
100
AcDbLine
 10
329.2680769493
 20
501.906019742
 30
0.0
 11
789.2680852939
 21
501.906019742
 31
0.0
  0
LINE
  5
98
330
1F
100
AcDbEntity
  8
0
  6
Continuous
 62
     7
370
    15
100
AcDbLine
 10
789.2680852939
 20
41.9060113974
 30
0.0
 11
789.2680852939
 21
501.906019742
 31
0.0
  0
LINE
  5
99
330
1F
100
AcDbEntity
  8
0
  6
Continuous
 62
     7
370
    15
100
AcDbLine
 10
789.2680852939
 20
41.9060113974
 30
0.0
 11
329.2680769493
 21
41.9060113974
 31
0.0
  0
LINE
  5
9A
330
1F
100
AcDbEntity
  8
0
  6
Continuous
 62
     7
370
    15
100
AcDbLine
 10
329.2680769493
 20
41.9060113974
 30
0.0
 11
329.2680769493
 21
501.906019742
 31
0.0
  0
LINE
  5
9B
330
1F
100
AcDbEntity
  8
0
  6
Continuous
 62
     7
370
    15
100
AcDbLine
 10
794.2680805256
 20
36.9060161658
 30
0.0
 11
809.2680811216
 21
36.9060161658
 31
0.0
  0
ARC
  5
9C
330
1F
100
AcDbEntity
  8
0
  6
Continuous
 62
     7
370
    15
100
AcDbCircle
 10
794.2680811216
 20
36.9060155697
 30
0.0
 40
15.00000000000007
100
AcDbArc
 50
270.0
 51
0.0
  0
LINE
  5
9D
330
1F
100
AcDbEntity
  8
0
  6
Continuous
 62
     7
370
    15
100
AcDbLine
 10
809.2680811216
 20
506.9060149737
 30
0.0
 11
794.2680805256
 21
506.9060149737
 31
0.0
  0
LINE
  5
9E
330
1F
100
AcDbEntity
  8
0
  6
Continuous
 62
     7
370
    15
100
AcDbLine
 10
809.2680811216
 20
36.9060161658
 30
0.0
 11
809.2680811216
 21
506.9060149737
 31
0.0
  0
ARC
  5
9F
330
1F
100
AcDbEntity
  8
0
  6
Continuous
 62
     7
370
    15
100
AcDbCircle
 10
324.2680811216
 20
506.9060155697
 30
0.0
 40
15.00000000000006
100
AcDbArc
 50
90.0
 51
180.0
  0
LINE
  5
A0
330
1F
100
AcDbEntity
  8
0
  6
Continuous
 62
     7
370
    15
100
AcDbLine
 10
324.2680817177
 20
506.9060149737
 30
0.0
 11
324.2680817177
 21
521.9060155697
 31
0.0
  0
LINE
  5
A1
330
1F
100
AcDbEntity
  8
0
  6
Continuous
 62
     7
370
    15
100
AcDbLine
 10
324.2680817177
 20
521.9060155697
 30
0.0
 11
794.2680805256
 21
521.9060155697
 31
0.0
  0
LINE
  5
A2
330
1F
100
AcDbEntity
  8
0
  6
Continuous
 62
     7
370
    15
100
AcDbLine
 10
794.2680805256
 20
521.9060155697
 30
0.0
 11
794.2680805256
 21
506.9060149737
 31
0.0
  0
ARC
  5
A3
330
1F
100
AcDbEntity
  8
0
  6
Continuous
 62
     7
370
    15
100
AcDbCircle
 10
794.2680811216
 20
506.9060155697
 30
0.0
 40
15.00000000000011
100
AcDbArc
 50
0.0
 51
90.0
  0
LINE
  5
A4
330
1F
100
AcDbEntity
  8
0
  6
Continuous
 62
     7
370
    15
100
AcDbLine
 10
308.0680906107
 20
97.9405018635
 30
0.0
 11
309.2680811216
 21
97.9405018635
 31
0.0
  0
LINE
  5
A5
330
1F
100
AcDbEntity
  8
0
  6
Continuous
 62
     7
370
    15
100
AcDbLine
 10
308.0680906107
 20
75.8715394087
 30
0.0
 11
309.2680811216
 21
75.8715394087
 31
0.0
  0
LINE
  5
A6
330
1F
100
AcDbEntity
  8
0
  6
Continuous
 62
     7
370
    15
100
AcDbLine
 10
308.0680906107
 20
75.8715394087
 30
0.0
 11
308.0680906107
 21
97.9405018635
 31
0.0
  0
LINE
  5
A7
330
1F
100
AcDbEntity
  8
0
  6
Continuous
 62
     7
370
    15
100
AcDbLine
 10
309.2680811216
 20
96.8935015745
 30
0.0
 11
309.2680811216
 21
76.9185247965
 31
0.0
  0
LINE
  5
A8
330
1F
100
AcDbEntity
  8
0
  6
Continuous
 62
     7
370
    15
100
AcDbLine
 10
308.0680906107
 20
467.9404917307
 30
0.0
 11
309.2680811216
 21
467.9404917307
 31
0.0
  0
LINE
  5
A9
330
1F
100
AcDbEntity
  8
0
  6
Continuous
 62
     7
370
    15
100
AcDbLine
 10
308.0680906107
 20
445.8715292759
 30
0.0
 11
309.2680811216
 21
445.8715292759
 31
0.0
  0
LINE
  5
AA
330
1F
100
AcDbEntity
  8
0
  6
Continuous
 62
     7
370
    15
100
AcDbLine
 10
308.0680906107
 20
445.8715292759
 30
0.0
 11
308.0680906107
 21
467.9404917307
 31
0.0
  0
LINE
  5
AB
330
1F
100
AcDbEntity
  8
0
  6
Continuous
 62
     7
370
    15
100
AcDbLine
 10
309.2680811216
 20
466.8935063429
 30
0.0
 11
309.2680811216
 21
446.9185295649
 31
0.0
  0
LINE
  5
AC
330
1F
100
AcDbEntity
  8
0
  6
Continuous
 62
     7
370
    15
100
AcDbLine
 10
307.9680740167
 20
91.9060084172
 30
0.0
 11
307.9680740167
 21
94.9060144968
 31
0.0
  0
LINE
  5
AD
330
1F
100
AcDbEntity
  8
0
  6
Continuous
 62
     7
370
    15
100
AcDbLine
 10
307.9680740167
 20
88.9060172386
 30
0.0
 11
307.9680740167
 21
91.9060084172
 31
0.0
  0
LINE
  5
AE
330
1F
100
AcDbEntity
  8
0
  6
Continuous
 62
     7
370
    15
100
AcDbLine
 10
307.9680740167
 20
78.9060118742
 30
0.0
 11
307.9680740167
 21
84.9060091324
 31
0.0
  0
LINE
  5
AF
330
1F
100
AcDbEntity
  8
0
  6
Continuous
 62
     7
370
    15
100
AcDbLine
 10
307.9680740167
 20
448.9060166426
 30
0.0
 11
307.9680740167
 21
454.9060139008
 31
0.0
  0
LINE
  5
B0
330
1F
100
AcDbEntity
  8
0
  6
Continuous
 62
     7
370
    15
100
AcDbLine
 10
307.9680740167
 20
461.9060131855
 30
0.0
 11
307.9680740167
 21
464.9060192652
 31
0.0
  0
LINE
  5
B1
330
1F
100
AcDbEntity
  8
0
  6
Continuous
 62
     7
370
    15
100
AcDbLine
 10
307.9680740167
 20
458.906022007
 30
0.0
 11
307.9680740167
 21
461.9060131855
 31
0.0
  0
LINE
  5
B2
330
1F
100
AcDbEntity
  8
0
  6
Continuous
 62
     7
370
    15
100
AcDbLine
 10
308.0680906107
 20
97.9405018635
 30
0.0
 11
308.0680906107
 21
98.4060141392
 31
0.0
  0
LINE
  5
B3
330
1F
100
AcDbEntity
  8
0
  6
Continuous
 62
     7
370
    15
100
AcDbLine
 10
308.0680906107
 20
467.9404917307
 30
0.0
 11
308.0680906107
 21
468.4060189076
 31
0.0
  0
LINE
  5
B4
330
1F
100
AcDbEntity
  8
0
  6
Continuous
 62
     7
370
    15
100
AcDbLine
 10
308.0680906107
 20
75.4060122318
 30
0.0
 11
308.0680906107
 21
75.8715394087
 31
0.0
  0
LINE
  5
B5
330
1F
100
AcDbEntity
  8
0
  6
Continuous
 62
     7
370
    15
100
AcDbLine
 10
308.0680906107
 20
445.4060170002
 30
0.0
 11
308.0680906107
 21
445.8715292759
 31
0.0
  0
LINE
  5
B6
330
1F
100
AcDbEntity
  8
0
  6
Continuous
 62
     7
370
    15
100
AcDbLine
 10
810.1694523622
 20
112.9060211725
 30
0.0
 11
810.1694523622
 21
77.9060098477
 31
0.0
  0
LINE
  5
B7
330
1F
100
AcDbEntity
  8
0
  6
Continuous
 62
     7
370
    15
100
AcDbLine
 10
810.1694523622
 20
112.9060211725
 30
0.0
 11
820.7680820753
 21
112.9060211725
 31
0.0
  0
LINE
  5
B8
330
1F
100
AcDbEntity
  8
0
  6
Continuous
 62
     7
370
    15
100
AcDbLine
 10
810.1694523622
 20
77.9060098477
 30
0.0
 11
820.7680820753
 21
77.9060098477
 31
0.0
  0
LINE
  5
B9
330
1F
100
AcDbEntity
  8
0
  6
Continuous
 62
     7
370
    15
100
AcDbLine
 10
810.1694523622
 20
430.9060099669
 30
0.0
 11
820.7680820753
 21
430.9060099669
 31
0.0
  0
LINE
  5
BA
330
1F
100
AcDbEntity
  8
0
  6
Continuous
 62
     7
370
    15
100
AcDbLine
 10
810.1694523622
 20
465.9060212918
 30
0.0
 11
810.1694523622
 21
430.9060099669
 31
0.0
  0
LINE
  5
BB
330
1F
100
AcDbEntity
  8
0
  6
Continuous
 62
     7
370
    15
100
AcDbLine
 10
810.1694523622
 20
465.9060212918
 30
0.0
 11
820.7680820753
 21
465.9060212918
 31
0.0
  0
LINE
  5
BC
330
1F
100
AcDbEntity
  8
0
  6
Continuous
 62
     7
370
    15
100
AcDbLine
 10
809.7059368421
 20
112.9060211725
 30
0.0
 11
809.7059368421
 21
77.9060098477
 31
0.0
  0
LINE
  5
BD
330
1F
100
AcDbEntity
  8
0
  6
Continuous
 62
     7
370
    15
100
AcDbLine
 10
809.7059368421
 20
112.9060211725
 30
0.0
 11
810.1694523622
 21
112.9060211725
 31
0.0
  0
LINE
  5
BE
330
1F
100
AcDbEntity
  8
0
  6
Continuous
 62
     7
370
    15
100
AcDbLine
 10
809.7059368421
 20
77.9060098477
 30
0.0
 11
810.1694523622
 21
77.9060098477
 31
0.0
  0
LINE
  5
BF
330
1F
100
AcDbEntity
  8
0
  6
Continuous
 62
     7
370
    15
100
AcDbLine
 10
809.7059368421
 20
465.9060212918
 30
0.0
 11
809.7059368421
 21
430.9060099669
 31
0.0
  0
LINE
  5
C0
330
1F
100
AcDbEntity
  8
0
  6
Continuous
 62
     7
370
    15
100
AcDbLine
 10
809.7059368421
 20
465.9060212918
 30
0.0
 11
810.1694523622
 21
465.9060212918
 31
0.0
  0
LINE
  5
C1
330
1F
100
AcDbEntity
  8
0
  6
Continuous
 62
     7
370
    15
100
AcDbLine
 10
809.7059368421
 20
430.9060099669
 30
0.0
 11
810.1694523622
 21
430.9060099669
 31
0.0
  0
LINE
  5
C2
330
1F
100
AcDbEntity
  8
0
  6
Continuous
 62
     7
370
    15
100
AcDbLine
 10
809.2680811216
 20
112.9060211725
 30
0.0
 11
809.7059368421
 21
112.9060211725
 31
0.0
  0
LINE
  5
C3
330
1F
100
AcDbEntity
  8
0
  6
Continuous
 62
     7
370
    15
100
AcDbLine
 10
809.2680811216
 20
77.9060098477
 30
0.0
 11
809.7059368421
 21
77.9060098477
 31
0.0
  0
LINE
  5
C4
330
1F
100
AcDbEntity
  8
0
  6
Continuous
 62
     7
370
    15
100
AcDbLine
 10
809.2680811216
 20
465.9060212918
 30
0.0
 11
809.7059368421
 21
465.9060212918
 31
0.0
  0
LINE
  5
C5
330
1F
100
AcDbEntity
  8
0
  6
Continuous
 62
     7
370
    15
100
AcDbLine
 10
809.2680811216
 20
430.9060099669
 30
0.0
 11
809.7059368421
 21
430.9060099669
 31
0.0
  0
LINE
  5
C6
330
1F
100
AcDbEntity
  8
0
  6
Continuous
 62
     7
370
    15
100
AcDbLine
 10
301.2201129724
 20
93.4060189076
 30
0.0
 11
301.9506274988
 21
93.4060189076
 31
0.0
  0
ARC
  5
C7
330
1F
100
AcDbEntity
  8
0
  6
Continuous
 62
     7
370
    15
100
AcDbCircle
 10
302.0907578598
 20
92.317189627
 30
0.0
 40
1.097809509998412
100
AcDbArc
 50
97.3335515103
 51
185.8123579011
  0
LINE
  5
C8
330
1F
100
AcDbEntity
  8
0
  6
Continuous
 62
     7
370
    15
100
AcDbLine
 10
300.9985923101
 20
92.2060134955
 30
0.0
 11
300.2680777837
 21
92.2060134955
 31
0.0
  0
ARC
  5
C9
330
1F
100
AcDbEntity
  8
0
  6
Continuous
 62
     7
370
    15
100
AcDbCircle
 10
301.3602433335
 20
92.317189627
 30
0.0
 40
1.097809509998397
100
AcDbArc
 50
97.3335515102
 51
185.8123579011
  0
LINE
  5
CA
330
1F
100
AcDbEntity
  8
0
  6
Continuous
 62
     7
370
    15
100
AcDbLine
 10
301.9506274988
 20
93.4060189076
 30
0.0
 11
305.494064026
 21
93.4060189076
 31
0.0
  0
LINE
  5
CB
330
1F
100
AcDbEntity
  8
0
  6
Continuous
 62
     7
370
    15
100
AcDbLine
 10
305.494064026
 20
93.4060189076
 30
0.0
 11
305.494064026
 21
80.4060223646
 31
0.0
  0
LINE
  5
CC
330
1F
100
AcDbEntity
  8
0
  6
Continuous
 62
     7
370
    15
100
AcDbLine
 10
305.494064026
 20
80.4060223646
 30
0.0
 11
301.9506274988
 21
80.4060223646
 31
0.0
  0
ARC
  5
CD
330
1F
100
AcDbEntity
  8
0
  6
Continuous
 62
     7
370
    15
100
AcDbCircle
 10
302.0907404574
 20
81.4948364582
 30
0.0
 40
1.097792225978379
100
AcDbArc
 50
174.1875352754
 51
262.6672481484
  0
LINE
  5
CE
330
1F
100
AcDbEntity
  8
0
  6
Continuous
 62
     7
370
    15
100
AcDbLine
 10
300.9985923101
 20
92.2060134955
 30
0.0
 11
300.9985923101
 21
81.6060128756
 31
0.0
  0
LINE
  5
CF
330
1F
100
AcDbEntity
  8
0
  6
Continuous
 62
     7
370
    15
100
AcDbLine
 10
300.2680777837
 20
81.6060128756
 30
0.0
 11
300.9985923101
 21
81.6060128756
 31
0.0
  0
LINE
  5
D0
330
1F
100
AcDbEntity
  8
0
  6
Continuous
 62
     7
370
    15
100
AcDbLine
 10
300.2680777837
 20
92.2060134955
 30
0.0
 11
300.2680777837
 21
81.6060128756
 31
0.0
  0
LINE
  5
D1
330
1F
100
AcDbEntity
  8
0
  6
Continuous
 62
     7
370
    15
100
AcDbLine
 10
301.9506274988
 20
80.4060223646
 30
0.0
 11
301.2201129724
 21
80.4060223646
 31
0.0
  0
ARC
  5
D2
330
1F
100
AcDbEntity
  8
0
  6
Continuous
 62
     7
370
    15
100
AcDbCircle
 10
301.360225931
 20
81.4948364582
 30
0.0
 40
1.097792225978379
100
AcDbArc
 50
174.1875352754
 51
262.6672481484
  0
LINE
  5
D3
330
1F
100
AcDbEntity
  8
0
  6
Continuous
 62
     7
370
    15
100
AcDbLine
 10
301.2201129724
 20
463.4060087748
 30
0.0
 11
301.9506274988
 21
463.4060087748
 31
0.0
  0
ARC
  5
D4
330
1F
100
AcDbEntity
  8
0
  6
Continuous
 62
     7
370
    15
100
AcDbCircle
 10
302.0907404574
 20
462.3171946813
 30
0.0
 40
1.097792225978379
100
AcDbArc
 50
97.3327518516
 51
185.8124647246
  0
LINE
  5
D5
330
1F
100
AcDbEntity
  8
0
  6
Continuous
 62
     7
370
    15
100
AcDbLine
 10
300.9985923101
 20
462.2060182638
 30
0.0
 11
300.2680777837
 21
462.2060182638
 31
0.0
  0
ARC
  5
D6
330
1F
100
AcDbEntity
  8
0
  6
Continuous
 62
     7
370
    15
100
AcDbCircle
 10
301.360225931
 20
462.3171946813
 30
0.0
 40
1.097792225978379
100
AcDbArc
 50
97.3327518516
 51
185.8124647246
  0
LINE
  5
D7
330
1F
100
AcDbEntity
  8
0
  6
Continuous
 62
     7
370
    15
100
AcDbLine
 10
301.9506274988
 20
450.4060122318
 30
0.0
 11
301.2201129724
 21
450.4060122318
 31
0.0
  0
ARC
  5
D8
330
1F
100
AcDbEntity
  8
0
  6
Continuous
 62
     7
370
    15
100
AcDbCircle
 10
301.3602433335
 20
451.4948415124
 30
0.0
 40
1.097809509998419
100
AcDbArc
 50
174.1876420989
 51
262.6664484898
  0
LINE
  5
D9
330
1F
100
AcDbEntity
  8
0
  6
Continuous
 62
     7
370
    15
100
AcDbLine
 10
300.2680777837
 20
451.606017644
 30
0.0
 11
300.9985923101
 21
451.606017644
 31
0.0
  0
ARC
  5
DA
330
1F
100
AcDbEntity
  8
0
  6
Continuous
 62
     7
370
    15
100
AcDbCircle
 10
302.0907578598
 20
451.4948415124
 30
0.0
 40
1.097809509998411
100
AcDbArc
 50
174.1876420989
 51
262.6664484898
  0
LINE
  5
DB
330
1F
100
AcDbEntity
  8
0
  6
Continuous
 62
     7
370
    15
100
AcDbLine
 10
301.9506274988
 20
463.4060087748
 30
0.0
 11
305.494064026
 21
463.4060087748
 31
0.0
  0
LINE
  5
DC
330
1F
100
AcDbEntity
  8
0
  6
Continuous
 62
     7
370
    15
100
AcDbLine
 10
305.494064026
 20
463.4060087748
 30
0.0
 11
305.494064026
 21
450.4060122318
 31
0.0
  0
LINE
  5
DD
330
1F
100
AcDbEntity
  8
0
  6
Continuous
 62
     7
370
    15
100
AcDbLine
 10
305.494064026
 20
450.4060122318
 30
0.0
 11
301.9506274988
 21
450.4060122318
 31
0.0
  0
LINE
  5
DE
330
1F
100
AcDbEntity
  8
0
  6
Continuous
 62
     7
370
    15
100
AcDbLine
 10
300.9985923101
 20
462.2060182638
 30
0.0
 11
300.9985923101
 21
451.606017644
 31
0.0
  0
LINE
  5
DF
330
1F
100
AcDbEntity
  8
0
  6
Continuous
 62
     7
370
    15
100
AcDbLine
 10
300.2680777837
 20
462.2060182638
 30
0.0
 11
300.2680777837
 21
451.606017644
 31
0.0
  0
LINE
  5
E0
330
1F
100
AcDbEntity
  8
0
  6
Continuous
 62
     7
370
    15
100
AcDbLine
 10
305.5756031801
 20
93.4060189076
 30
0.0
 11
305.494064026
 21
93.4060189076
 31
0.0
  0
LINE
  5
E1
330
1F
100
AcDbEntity
  8
0
  6
Continuous
 62
     7
370
    15
100
AcDbLine
 10
305.494064026
 20
80.4060223646
 30
0.0
 11
305.6276082327
 21
80.4060223646
 31
0.0
  0
LINE
  5
E2
330
1F
100
AcDbEntity
  8
0
  6
Continuous
 62
     7
370
    15
100
AcDbLine
 10
305.5940210153
 20
463.4060087748
 30
0.0
 11
305.494064026
 21
463.4060087748
 31
0.0
  0
LINE
  5
E3
330
1F
100
AcDbEntity
  8
0
  6
Continuous
 62
     7
370
    15
100
AcDbLine
 10
305.494064026
 20
450.4060122318
 30
0.0
 11
305.6276082327
 21
450.4060122318
 31
0.0
  0
LINE
  5
E4
330
1F
100
AcDbEntity
  8
0
  6
Continuous
 62
     7
370
    15
100
AcDbLine
 10
300.2680777837
 20
82.206008131
 30
0.0
 11
300.1632630159
 21
82.206008131
 31
0.0
  0
LINE
  5
E5
330
1F
100
AcDbEntity
  8
0
  6
Continuous
 62
     7
370
    15
100
AcDbLine
 10
300.2680777837
 20
90.806019599
 30
0.0
 11
300.1632630159
 21
90.806019599
 31
0.0
  0
LINE
  5
E6
330
1F
100
AcDbEntity
  8
0
  6
Continuous
 62
     7
370
    15
100
AcDbLine
 10
305.642241173
 20
78.9060118742
 30
0.0
 11
300.7686971952
 21
78.9060118742
 31
0.0
  0
LINE
  5
E7
330
1F
100
AcDbEntity
  8
0
  6
Continuous
 62
     7
370
    15
100
AcDbLine
 10
305.6339561273
 20
79.7060105152
 30
0.0
 11
300.7680713464
 21
79.7060105152
 31
0.0
  0
LINE
  5
E8
330
1F
100
AcDbEntity
  8
0
  6
Continuous
 62
     7
370
    15
100
AcDbLine
 10
305.6362211038
 20
94.1060158558
 30
0.0
 11
300.7680713464
 21
94.1060158558
 31
0.0
  0
LINE
  5
E9
330
1F
100
AcDbEntity
  8
0
  6
Continuous
 62
     7
370
    15
100
AcDbLine
 10
305.5965542127
 20
94.9060144968
 30
0.0
 11
300.7686971952
 21
94.9060144968
 31
0.0
  0
LINE
  5
EA
330
1F
100
AcDbEntity
  8
0
  6
Continuous
 62
     7
370
    15
100
AcDbLine
 10
304.3680726816
 20
95.2060195751
 30
0.0
 11
305.5314361383
 21
95.2060195751
 31
0.0
  0
LINE
  5
EB
330
1F
100
AcDbEntity
  8
0
  6
Continuous
 62
     7
370
    15
100
AcDbLine
 10
305.6946038534
 20
95.2060195751
 30
0.0
 11
305.7569205095
 21
95.2060195751
 31
0.0
  0
LINE
  5
EC
330
1F
100
AcDbEntity
  8
0
  6
Continuous
 62
     7
370
    15
100
AcDbLine
 10
302.1680950453
 20
95.2060195751
 30
0.0
 11
304.3680726816
 21
95.2060195751
 31
0.0
  0
LINE
  5
ED
330
1F
100
AcDbEntity
  8
0
  6
Continuous
 62
     7
370
    15
100
AcDbLine
 10
304.3680726816
 20
78.1060132332
 30
0.0
 11
305.2315949728
 21
78.1060132332
 31
0.0
  0
LINE
  5
EE
330
1F
100
AcDbEntity
  8
0
  6
Continuous
 62
     7
370
    15
100
AcDbLine
 10
302.2680818369
 20
78.1060132332
 30
0.0
 11
304.3680726816
 21
78.1060132332
 31
0.0
  0
LINE
  5
EF
330
1F
100
AcDbEntity
  8
0
  6
Continuous
 62
     7
370
    15
100
AcDbLine
 10
304.3680726816
 20
78.5060200043
 30
0.0
 11
305.4714738657
 21
78.5060200043
 31
0.0
  0
LINE
  5
F0
330
1F
100
AcDbEntity
  8
0
  6
Continuous
 62
     7
370
    15
100
AcDbLine
 10
302.2680818369
 20
78.5060200043
 30
0.0
 11
304.3680726816
 21
78.5060200043
 31
0.0
  0
ARC
  5
F1
330
1F
100
AcDbEntity
  8
0
  6
Continuous
 62
     7
370
    15
100
AcDbCircle
 10
301.2340268124
 20
79.7038518745
 30
0.0
 40
0.8029034246593127
100
AcDbArc
 50
179.8459576192
 51
234.5256721179
  0
ARC
  5
F2
330
1F
100
AcDbEntity
  8
0
  6
Continuous
 62
     7
370
    15
100
AcDbCircle
 10
301.234038656
 20
94.1081832656
 30
0.0
 40
0.8029152918097077
100
AcDbArc
 50
125.4747622064
 51
180.154665862
  0
LINE
  5
F3
330
1F
100
AcDbEntity
  8
0
  6
Continuous
 62
     7
370
    15
100
AcDbLine
 10
301.2189804842
 20
80.1560106821
 30
0.0
 11
301.2189804842
 21
79.7060105152
 31
0.0
  0
LINE
  5
F4
330
1F
100
AcDbEntity
  8
0
  6
Continuous
 62
     7
370
    15
100
AcDbLine
 10
301.2189804842
 20
94.1060158558
 30
0.0
 11
301.2189804842
 21
93.6560156889
 31
0.0
  0
LINE
  5
F5
330
1F
100
AcDbEntity
  8
0
  6
Continuous
 62
     7
370
    15
100
AcDbLine
 10
300.4311262895
 20
79.7060105152
 30
0.0
 11
300.4311262895
 21
80.9344622441
 31
0.0
  0
LINE
  5
F6
330
1F
100
AcDbEntity
  8
0
  6
Continuous
 62
     7
370
    15
100
AcDbLine
 10
300.4311262895
 20
92.8775790282
 30
0.0
 11
300.4311262895
 21
94.1060158558
 31
0.0
  0
SPLINE
  5
F7
330
1F
100
AcDbEntity
  8
0
  6
Continuous
 62
     7
370
    15
100
AcDbSpline
210
0.0
220
0.0
230
1.0
 70
    24
 71
     3
 72
    12
 73
     8
 74
     0
 42
0.00000001
 43
0.00000001
 40
0.0
 40
0.0
 40
0.0
 40
0.0
 40
0.2185040659699323
 40
0.4370095603324679
 40
0.6555189772202858
 40
0.8740247140736526
 40
1.0
 40
1.0
 40
1.0
 40
1.0
 10
307.427430086299
 20
463.5984125681147
 30
0.0
 10
307.2307096951589
 20
463.5984125681147
 30
0.0
 10
306.8372676268888
 20
463.5984125681146
 30
0.0
 10
306.2765197486553
 20
463.5984125681147
 30
0.0
 10
305.8588291590502
 20
463.5984125681146
 30
0.0
 10
305.6322591751864
 20
463.5984125681147
 30
0.0
 10
305.6498028227616
 20
463.5984125681147
 30
0.0
 10
305.6562184621535
 20
463.5984125681147
 30
0.0
  0
SPLINE
  5
F8
330
1F
100
AcDbEntity
  8
0
  6
Continuous
 62
     7
370
    15
100
AcDbSpline
210
0.0
220
0.0
230
1.0
 70
    24
 71
     3
 72
     9
 73
     5
 74
     0
 42
0.00000001
 43
0.00000001
 40
0.0
 40
0.0
 40
0.0
 40
0.0
 40
0.002514167495053
 40
1.0
 40
1.0
 40
1.0
 40
1.0
 10
307.9680740167342
 20
463.5984125681147
 30
0.0
 10
307.9677264557987
 20
463.5984125681146
 30
0.0
 10
307.8294854928125
 20
463.5984125681211
 30
0.0
 10
307.6282047628214
 20
463.5984125681179
 30
0.0
 10
307.427430086299
 20
463.5984125681147
 30
0.0
  0
SPLINE
  5
F9
330
1F
100
AcDbEntity
  8
0
  6
Continuous
 62
     7
370
    15
100
AcDbSpline
210
0.0
220
0.0
230
1.0
 70
     8
 71
     3
 72
    13
 73
     9
 74
     0
 42
0.00000001
 43
0.00000001
 40
0.0
 40
0.0
 40
0.0
 40
0.0
 40
0.187740000413576
 40
0.3754750840911282
 40
0.5632141125828769
 40
0.7509489806106309
 40
0.9386872804467359
 40
1.0
 40
1.0
 40
1.0
 40
1.0
 10
307.1341454316817
 20
467.2132554598078
 30
0.0
 10
306.9374483295939
 20
467.2105537943584
 30
0.0
 10
306.5440592767325
 20
467.2051505342138
 30
0.0
 10
306.0110463789798
 20
466.9146082527734
 30
0.0
 10
305.6205242859162
 20
466.4597123946854
 30
0.0
 10
305.4475754942619
 20
465.8980323536992
 30
0.0
 10
305.4508598136526
 20
465.4248459296548
 30
0.0
 10
305.5781750686831
 20
465.2034080578504
 30
0.0
 10
305.609518222972
 20
465.1488932914957
 30
0.0
  0
SPLINE
  5
FA
330
1F
100
AcDbEntity
  8
0
  6
Continuous
 62
     7
370
    15
100
AcDbSpline
210
0.0
220
0.0
230
1.0
 70
     8
 71
     3
 72
    10
 73
     6
 74
     0
 42
0.00000001
 43
0.00000001
 40
0.0
 40
0.0
 40
0.0
 40
0.0
 40
0.2093330610731358
 40
0.6046772709239069
 40
0.9999999999999999
 40
0.9999999999999999
 40
0.9999999999999999
 40
0.9999999999999999
 10
308.271312647029
 20
466.407132441543
 30
0.0
 10
308.2296159541903
 20
466.5001962278067
 30
0.0
 10
308.1091713273214
 20
466.7690192986171
 30
0.0
 10
307.7024398127104
 20
467.0856514596164
 30
0.0
 10
307.3235734610212
 20
467.17072156347
 30
0.0
 10
307.1341454316817
 20
467.2132554598078
 30
0.0
  0
SPLINE
  5
FB
330
1F
100
AcDbEntity
  8
0
  6
Continuous
 62
     7
370
    15
100
AcDbSpline
210
0.0
220
0.0
230
1.0
 70
     8
 71
     3
 72
    13
 73
     9
 74
     0
 42
0.00000001
 43
0.00000001
 40
0.0
 40
0.0
 40
0.0
 40
0.0
 40
0.1768655441741053
 40
0.3537268808725106
 40
0.5305919338987228
 40
0.7074573141850448
 40
0.8843216807598565
 40
1.0
 40
1.0
 40
1.0
 40
1.0
 10
307.1169196893416
 20
446.5700659103617
 30
0.0
 10
306.9202469369609
 20
446.5727518940819
 30
0.0
 10
306.5269061108712
 20
446.5781237976251
 30
0.0
 10
305.9935271916258
 20
446.8688126982412
 30
0.0
 10
305.6043962240146
 20
447.3231721456893
 30
0.0
 10
305.4262380861751
 20
447.886871325582
 30
0.0
 10
305.4472040696714
 20
448.420021611635
 30
0.0
 10
305.6132852104161
 20
448.6932929250378
 30
0.0
 10
305.6789576341353
 20
448.8013508863672
 30
0.0
  0
SPLINE
  5
FC
330
1F
100
AcDbEntity
  8
0
  6
Continuous
 62
     7
370
    15
100
AcDbSpline
210
0.0
220
0.0
230
1.0
 70
     8
 71
     3
 72
    10
 73
     6
 74
     0
 42
0.00000001
 43
0.00000001
 40
0.0
 40
0.0
 40
0.0
 40
0.0
 40
0.0588225777550384
 40
0.5294258028009099
 40
1.0
 40
1.0
 40
1.0
 40
1.0
 10
308.1470369626723
 20
447.1699717588648
 30
0.0
 10
308.1364024674394
 20
447.1484907676731
 30
0.0
 10
308.0406879239607
 20
446.9551535927206
 30
0.0
 10
307.6797928779765
 20
446.7009954420236
 30
0.0
 10
307.3045402276989
 20
446.6137081902095
 30
0.0
 10
307.1169196893416
 20
446.5700659103617
 30
0.0
  0
SPLINE
  5
FD
330
1F
100
AcDbEntity
  8
0
  6
Continuous
 62
     7
370
    15
100
AcDbSpline
210
0.0
220
0.0
230
1.0
 70
    24
 71
     3
 72
    12
 73
     8
 74
     0
 42
0.00000001
 43
0.00000001
 40
0.0
 40
0.0
 40
0.0
 40
0.0
 40
0.2193534179877733
 40
0.4387082699204865
 40
0.6580670596258174
 40
0.8774221549919532
 40
1.0
 40
1.0
 40
1.0
 40
1.0
 10
307.427430086299
 20
450.0397863931879
 30
0.0
 10
307.230714381194
 20
450.0397863931879
 30
0.0
 10
306.8372816850252
 20
450.0397863931879
 30
0.0
 10
306.2764635152603
 20
450.039786393188
 30
0.0
 10
305.8590400369629
 20
450.0397863931879
 30
0.0
 10
305.6331769788936
 20
450.0397863931879
 30
0.0
 10
305.6501820155077
 20
450.039786393188
 30
0.0
 10
305.6562780667982
 20
450.039786393188
 30
0.0
  0
SPLINE
  5
FE
330
1F
100
AcDbEntity
  8
0
  6
Continuous
 62
     7
370
    15
100
AcDbSpline
210
0.0
220
0.0
230
1.0
 70
    24
 71
     3
 72
     9
 73
     5
 74
     0
 42
0.00000001
 43
0.00000001
 40
0.0
 40
0.0
 40
0.0
 40
0.0
 40
0.002514167495053
 40
1.0
 40
1.0
 40
1.0
 40
1.0
 10
307.9680740167342
 20
450.0397863931879
 30
0.0
 10
307.9677264557987
 20
450.0397863931879
 30
0.0
 10
307.8294854928125
 20
450.0397863931932
 30
0.0
 10
307.6282047628214
 20
450.0397863931906
 30
0.0
 10
307.427430086299
 20
450.039786393188
 30
0.0
  0
SPLINE
  5
FF
330
1F
100
AcDbEntity
  8
0
  6
Continuous
 62
     7
370
    15
100
AcDbSpline
210
0.0
220
0.0
230
1.0
 70
     8
 71
     3
 72
    13
 73
     9
 74
     0
 42
0.00000001
 43
0.00000001
 40
0.0
 40
0.0
 40
0.0
 40
0.0
 40
0.1768566554889662
 40
0.3537260201165023
 40
0.5305853015913031
 40
0.7074492452872759
 40
0.8843136569183215
 40
1.0
 40
1.0
 40
1.0
 40
1.0
 10
305.5650531579695
 20
469.8296609468683
 30
0.0
 10
305.3683922613405
 20
469.8269712129936
 30
0.0
 10
304.9750563357867
 20
469.8215915519566
 30
0.0
 10
304.4416609619039
 20
469.5309344140929
 30
0.0
 10
304.0525755165862
 20
469.0765400391434
 30
0.0
 10
303.8743601711457
 20
468.5128750978851
 30
0.0
 10
303.8953336953535
 20
467.9797072945997
 30
0.0
 10
304.0614369806901
 20
467.7064377481582
 30
0.0
 10
304.1271209050856
 20
467.5983759708628
 30
0.0
  0
SPLINE
  5
100
330
1F
100
AcDbEntity
  8
0
  6
Continuous
 62
     7
370
    15
100
AcDbSpline
210
0.0
220
0.0
230
1.0
 70
     8
 71
     3
 72
    10
 73
     6
 74
     0
 42
0.00000001
 43
0.00000001
 40
0.0
 40
0.0
 40
0.0
 40
0.0
 40
0.1474526147854356
 40
0.5737209661418518
 40
1.0
 40
1.0
 40
1.0
 40
1.0
 10
306.6536425878249
 20
469.1171470232233
 30
0.0
 10
306.6255855871178
 20
469.1774389322869
 30
0.0
 10
306.5164190621556
 20
469.4120277347225
 30
0.0
 10
306.131356633589
 20
469.700847792154
 30
0.0
 10
305.7538225600222
 20
469.7867228699559
 30
0.0
 10
305.5650531579695
 20
469.8296609468684
 30
0.0
  0
SPLINE
  5
101
330
1F
100
AcDbEntity
  8
0
  6
Continuous
 62
     7
370
    15
100
AcDbSpline
210
0.0
220
0.0
230
1.0
 70
     8
 71
     3
 72
    13
 73
     9
 74
     0
 42
0.00000001
 43
0.00000001
 40
0.0
 40
0.0
 40
0.0
 40
0.0
 40
0.1768639155161733
 40
0.3537316063935162
 40
0.5305892142135427
 40
0.7074551555097355
 40
0.8843186734337619
 40
1.0
 40
1.0
 40
1.0
 40
1.0
 10
305.5478572179518
 20
443.9536455221399
 30
0.0
 10
305.3511860847686
 20
443.9563338202601
 30
0.0
 10
304.9578396202335
 20
443.961710473885
 30
0.0
 10
304.4244355133044
 20
444.2523722234424
 30
0.0
 10
304.0353458614129
 20
444.7067684491551
 30
0.0
 10
303.8571370191217
 20
445.2704447091616
 30
0.0
 10
303.8781038799285
 20
445.8036099390647
 30
0.0
 10
304.0442111743492
 20
446.076873564884
 30
0.0
 10
304.1098951627455
 20
446.1849304981455
 30
0.0
  0
SPLINE
  5
102
330
1F
100
AcDbEntity
  8
0
  6
Continuous
 62
     7
370
    15
100
AcDbSpline
210
0.0
220
0.0
230
1.0
 70
     8
 71
     3
 72
    10
 73
     6
 74
     0
 42
0.00000001
 43
0.00000001
 40
0.0
 40
0.0
 40
0.0
 40
0.0
 40
0.1474657734209292
 40
0.5737368301587874
 40
0.9999999999999999
 40
0.9999999999999999
 40
0.9999999999999999
 40
0.9999999999999999
 10
306.6364168454848
 20
444.6661743469461
 30
0.0
 10
306.6083605720819
 20
444.6058772257395
 30
0.0
 10
306.4992035996209
 20
444.3712825914303
 30
0.0
 10
306.1141348910439
 20
444.0824649663808
 30
0.0
 10
305.7366152781561
 20
443.9965850720585
 30
0.0
 10
305.5478572179518
 20
443.9536455221399
 30
0.0
  0
LINE
  5
103
330
1F
100
AcDbEntity
  8
0
  6
Continuous
 62
     7
370
    15
100
AcDbLine
 10
300.2680777837
 20
460.8060094662
 30
0.0
 11
300.1632630159
 21
460.8060094662
 31
0.0
  0
LINE
  5
104
330
1F
100
AcDbEntity
  8
0
  6
Continuous
 62
     7
370
    15
100
AcDbLine
 10
300.2680777837
 20
452.2060128994
 30
0.0
 11
300.1632630159
 21
452.2060128994
 31
0.0
  0
LINE
  5
105
330
1F
100
AcDbEntity
  8
0
  6
Continuous
 62
     7
370
    15
100
AcDbLine
 10
305.5940210153
 20
449.7060152836
 30
0.0
 11
300.7680713464
 21
449.7060152836
 31
0.0
  0
LINE
  5
106
330
1F
100
AcDbEntity
  8
0
  6
Continuous
 62
     7
370
    15
100
AcDbLine
 10
305.6499301721
 20
448.9060166426
 30
0.0
 11
300.7686971952
 21
448.9060166426
 31
0.0
  0
LINE
  5
107
330
1F
100
AcDbEntity
  8
0
  6
Continuous
 62
     7
370
    15
100
AcDbLine
 10
305.5940210153
 20
464.1060206242
 30
0.0
 11
300.7680713464
 21
464.1060206242
 31
0.0
  0
LINE
  5
108
330
1F
100
AcDbEntity
  8
0
  6
Continuous
 62
     7
370
    15
100
AcDbLine
 10
305.6981503298
 20
464.9060192652
 30
0.0
 11
300.7686971952
 21
464.9060192652
 31
0.0
  0
LINE
  5
109
330
1F
100
AcDbEntity
  8
0
  6
Continuous
 62
     7
370
    15
100
AcDbLine
 10
304.3680726816
 20
465.2060094424
 30
0.0
 11
305.5314361383
 21
465.2060094424
 31
0.0
  0
LINE
  5
10A
330
1F
100
AcDbEntity
  8
0
  6
Continuous
 62
     7
370
    15
100
AcDbLine
 10
302.1680950453
 20
465.2060094424
 30
0.0
 11
304.3680726816
 21
465.2060094424
 31
0.0
  0
LINE
  5
10B
330
1F
100
AcDbEntity
  8
0
  6
Continuous
 62
     7
370
    15
100
AcDbLine
 10
304.3680726816
 20
448.1060180016
 30
0.0
 11
305.2315949728
 21
448.1060180016
 31
0.0
  0
LINE
  5
10C
330
1F
100
AcDbEntity
  8
0
  6
Continuous
 62
     7
370
    15
100
AcDbLine
 10
302.2680818369
 20
448.1060180016
 30
0.0
 11
304.3680726816
 21
448.1060180016
 31
0.0
  0
LINE
  5
10D
330
1F
100
AcDbEntity
  8
0
  6
Continuous
 62
     7
370
    15
100
AcDbLine
 10
304.3680726816
 20
448.5060098715
 30
0.0
 11
305.4714738657
 21
448.5060098715
 31
0.0
  0
LINE
  5
10E
330
1F
100
AcDbEntity
  8
0
  6
Continuous
 62
     7
370
    15
100
AcDbLine
 10
302.2680818369
 20
448.5060098715
 30
0.0
 11
304.3680726816
 21
448.5060098715
 31
0.0
  0
ARC
  5
10F
330
1F
100
AcDbEntity
  8
0
  6
Continuous
 62
     7
370
    15
100
AcDbCircle
 10
301.234038656
 20
449.7038478738
 30
0.0
 40
0.8029152918096765
100
AcDbArc
 50
179.845334138
 51
234.5252377937
  0
ARC
  5
110
330
1F
100
AcDbEntity
  8
0
  6
Continuous
 62
     7
370
    15
100
AcDbCircle
 10
301.2340268124
 20
464.108179265
 30
0.0
 40
0.8029034246592697
100
AcDbArc
 50
125.4743278821
 51
180.1540423808
  0
LINE
  5
111
330
1F
100
AcDbEntity
  8
0
  6
Continuous
 62
     7
370
    15
100
AcDbLine
 10
301.2189804842
 20
450.1560154505
 30
0.0
 11
301.2189804842
 21
449.7060152836
 31
0.0
  0
LINE
  5
112
330
1F
100
AcDbEntity
  8
0
  6
Continuous
 62
     7
370
    15
100
AcDbLine
 10
301.2189804842
 20
464.1060206242
 30
0.0
 11
301.2189804842
 21
463.6560204573
 31
0.0
  0
LINE
  5
113
330
1F
100
AcDbEntity
  8
0
  6
Continuous
 62
     7
370
    15
100
AcDbLine
 10
300.4311262895
 20
449.7060152836
 30
0.0
 11
300.4311262895
 21
450.9344521113
 31
0.0
  0
LINE
  5
114
330
1F
100
AcDbEntity
  8
0
  6
Continuous
 62
     7
370
    15
100
AcDbLine
 10
300.4311262895
 20
462.8775688954
 30
0.0
 11
300.4311262895
 21
464.1060206242
 31
0.0
  0
SPLINE
  5
115
330
1F
100
AcDbEntity
  8
0
  6
Continuous
 62
     7
370
    15
100
AcDbSpline
210
0.0
220
0.0
230
1.0
 70
    24
 71
     3
 72
    12
 73
     8
 74
     0
 42
0.00000001
 43
0.00000001
 40
0.0
 40
0.0
 40
0.0
 40
0.0
 40
0.2185040659699323
 40
0.4370095603324679
 40
0.6555189772202858
 40
0.8740247140736526
 40
1.0
 40
1.0
 40
1.0
 40
1.0
 10
307.427430086299
 20
93.5984077997431
 30
0.0
 10
307.2307096951589
 20
93.5984077997431
 30
0.0
 10
306.8372676268888
 20
93.59840779974313
 30
0.0
 10
306.2765197486553
 20
93.59840779974307
 30
0.0
 10
305.8588291590502
 20
93.59840779974313
 30
0.0
 10
305.6322591751864
 20
93.59840779974313
 30
0.0
 10
305.6498028227616
 20
93.59840779974307
 30
0.0
 10
305.6562184621535
 20
93.5984077997431
 30
0.0
  0
SPLINE
  5
116
330
1F
100
AcDbEntity
  8
0
  6
Continuous
 62
     7
370
    15
100
AcDbSpline
210
0.0
220
0.0
230
1.0
 70
    24
 71
     3
 72
     9
 73
     5
 74
     0
 42
0.00000001
 43
0.00000001
 40
0.0
 40
0.0
 40
0.0
 40
0.0
 40
0.1970282982560592
 40
0.9999999999999999
 40
0.9999999999999999
 40
0.9999999999999999
 40
0.9999999999999999
 10
308.0680906106673
 20
93.5984077997431
 30
0.0
 10
308.0354333376058
 20
93.5984077997431
 30
0.0
 10
307.8696841871002
 20
93.59840779974316
 30
0.0
 10
307.6243924277379
 20
93.59840779974304
 30
0.0
 10
307.427430086299
 20
93.59840779974307
 30
0.0
  0
SPLINE
  5
117
330
1F
100
AcDbEntity
  8
0
  6
Continuous
 62
     7
370
    15
100
AcDbSpline
210
0.0
220
0.0
230
1.0
 70
     8
 71
     3
 72
    13
 73
     9
 74
     0
 42
0.00000001
 43
0.00000001
 40
0.0
 40
0.0
 40
0.0
 40
0.0
 40
0.1877395694049195
 40
0.3754720100250568
 40
0.5632106075103803
 40
0.7509495523755451
 40
0.9386874212068979
 40
1.0
 40
1.0
 40
1.0
 40
1.0
 10
307.1341454316817
 20
97.21325069143622
 30
0.0
 10
306.9374489692734
 20
97.21054780716109
 30
0.0
 10
306.5440635133497
 20
97.20514214124384
 30
0.0
 10
306.0110427779765
 20
96.91462094657497
 30
0.0
 10
305.620520725432
 20
96.45971806249764
 30
0.0
 10
305.4475774029175
 20
95.89803201647146
 30
0.0
 10
305.4508596818876
 20
95.42484119196808
 30
0.0
 10
305.5781750426527
 20
95.20340329554064
 30
0.0
 10
305.6095182229719
 20
95.14888852312411
 30
0.0
  0
SPLINE
  5
118
330
1F
100
AcDbEntity
  8
0
  6
Continuous
 62
     7
370
    15
100
AcDbSpline
210
0.0
220
0.0
230
1.0
 70
     8
 71
     3
 72
    10
 73
     6
 74
     0
 42
0.00000001
 43
0.00000001
 40
0.0
 40
0.0
 40
0.0
 40
0.0
 40
0.209341314567853
 40
0.6046782396237235
 40
1.0
 40
1.0
 40
1.0
 40
1.0
 10
308.271312647029
 20
96.40712767317144
 30
0.0
 10
308.229617011813
 20
96.50019728005933
 30
0.0
 10
308.1091799955728
 20
96.76902699564407
 30
0.0
 10
307.7024336396652
 20
97.08564398405775
 30
0.0
 10
307.3235724121814
 20
97.17071566619617
 30
0.0
 10
307.1341454316817
 20
97.21325069143622
 30
0.0
  0
SPLINE
  5
119
330
1F
100
AcDbEntity
  8
0
  6
Continuous
 62
     7
370
    15
100
AcDbSpline
210
0.0
220
0.0
230
1.0
 70
     8
 71
     3
 72
    13
 73
     9
 74
     0
 42
0.00000001
 43
0.00000001
 40
0.0
 40
0.0
 40
0.0
 40
0.0
 40
0.1768666446852921
 40
0.3537286573976354
 40
0.5305943864519905
 40
0.7074561960043457
 40
0.8843212386046765
 40
1.0
 40
1.0
 40
1.0
 40
1.0
 10
307.1169196893416
 20
76.57006114199011
 30
0.0
 10
306.9202470737832
 20
76.57275336482047
 30
0.0
 10
306.5269069933394
 20
76.57813773997438
 30
0.0
 10
305.9935268072573
 20
76.8688216569934
 30
0.0
 10
305.6044004202659
 20
77.32317929586426
 30
0.0
 10
305.4262361513005
 20
77.88687055552413
 30
0.0
 10
305.4472043928465
 20
78.42001696877462
 30
0.0
 10
305.6132853019947
 20
78.69328819223259
 30
0.0
 10
305.6789576341353
 20
78.80134611799566
 30
0.0
  0
SPLINE
  5
11A
330
1F
100
AcDbEntity
  8
0
  6
Continuous
 62
     7
370
    15
100
AcDbSpline
210
0.0
220
0.0
230
1.0
 70
     8
 71
     3
 72
    10
 73
     6
 74
     0
 42
0.00000001
 43
0.00000001
 40
0.0
 40
0.0
 40
0.0
 40
0.0
 40
0.0588228166040073
 40
0.5294204340995383
 40
1.0
 40
1.0
 40
1.0
 40
1.0
 10
308.1470369626723
 20
77.16996699049322
 30
0.0
 10
308.1364024988857
 20
77.14848595646976
 30
0.0
 10
308.0406895976789
 20
76.95515114161091
 30
0.0
 10
307.6797846749442
 20
76.7010113787226
 30
0.0
 10
307.3045389521625
 20
76.61371066276403
 30
0.0
 10
307.1169196893416
 20
76.57006114199008
 30
0.0
  0
SPLINE
  5
11B
330
1F
100
AcDbEntity
  8
0
  6
Continuous
 62
     7
370
    15
100
AcDbSpline
210
0.0
220
0.0
230
1.0
 70
    24
 71
     3
 72
    12
 73
     8
 74
     0
 42
0.00000001
 43
0.00000001
 40
0.0
 40
0.0
 40
0.0
 40
0.0
 40
0.2193534179877733
 40
0.4387082699204865
 40
0.6580670596258174
 40
0.8774221549919532
 40
1.0
 40
1.0
 40
1.0
 40
1.0
 10
307.427430086299
 20
80.03978162481634
 30
0.0
 10
307.230714381194
 20
80.03978162481631
 30
0.0
 10
306.8372816850252
 20
80.03978162481637
 30
0.0
 10
306.2764635152603
 20
80.03978162481631
 30
0.0
 10
305.8590400369629
 20
80.03978162481631
 30
0.0
 10
305.6331769788936
 20
80.03978162481637
 30
0.0
 10
305.6501820155077
 20
80.03978162481631
 30
0.0
 10
305.6562780667982
 20
80.03978162481631
 30
0.0
  0
SPLINE
  5
11C
330
1F
100
AcDbEntity
  8
0
  6
Continuous
 62
     7
370
    15
100
AcDbSpline
210
0.0
220
0.0
230
1.0
 70
    24
 71
     3
 72
     9
 73
     5
 74
     0
 42
0.00000001
 43
0.00000001
 40
0.0
 40
0.0
 40
0.0
 40
0.0
 40
0.1970282982560592
 40
0.9999999999999999
 40
0.9999999999999999
 40
0.9999999999999999
 40
0.9999999999999999
 10
308.0680906106673
 20
80.03978162481634
 30
0.0
 10
308.0354333376058
 20
80.03978162481634
 30
0.0
 10
307.8696841871002
 20
80.0397816248164
 30
0.0
 10
307.6243924277379
 20
80.03978162481631
 30
0.0
 10
307.427430086299
 20
80.03978162481631
 30
0.0
  0
SPLINE
  5
11D
330
1F
100
AcDbEntity
  8
0
  6
Continuous
 62
     7
370
    15
100
AcDbSpline
210
0.0
220
0.0
230
1.0
 70
     8
 71
     3
 72
    13
 73
     9
 74
     0
 42
0.00000001
 43
0.00000001
 40
0.0
 40
0.0
 40
0.0
 40
0.0
 40
0.1768576985124456
 40
0.3537276817053297
 40
0.5305875817102148
 40
0.7074521439525769
 40
0.8843171741316485
 40
0.9999999999999999
 40
0.9999999999999999
 40
0.9999999999999999
 40
0.9999999999999999
 10
305.5650531579695
 20
99.82967107965796
 30
0.0
 10
305.368392368738
 20
99.82697511145336
 30
0.0
 10
304.9750571300559
 20
99.82158298777999
 30
0.0
 10
304.4416609306984
 20
99.53093076306035
 30
0.0
 10
304.0525752739176
 20
99.07653482963144
 30
0.0
 10
303.8743611730621
 20
98.51287097675198
 30
0.0
 10
303.8953303047967
 20
97.97970515513587
 30
0.0
 10
304.061436984599
 20
97.70644281616117
 30
0.0
 10
304.1271209050856
 20
97.59838610365237
 30
0.0
  0
SPLINE
  5
11E
330
1F
100
AcDbEntity
  8
0
  6
Continuous
 62
     7
370
    15
100
AcDbSpline
210
0.0
220
0.0
230
1.0
 70
     8
 71
     3
 72
    10
 73
     6
 74
     0
 42
0.00000001
 43
0.00000001
 40
0.0
 40
0.0
 40
0.0
 40
0.0
 40
0.1474521529467936
 40
0.5737191691814364
 40
0.9999999999999999
 40
0.9999999999999999
 40
0.9999999999999999
 40
0.9999999999999999
 10
306.6536425878249
 20
99.11714225485174
 30
0.0
 10
306.6255856044782
 20
99.17743422210057
 30
0.0
 10
306.5164191470633
 20
99.41202325092802
 30
0.0
 10
306.1313542558793
 20
99.70084000150986
 30
0.0
 10
305.7538222297674
 20
99.78672692304139
 30
0.0
 10
305.5650531579695
 20
99.82967107965796
 30
0.0
  0
SPLINE
  5
11F
330
1F
100
AcDbEntity
  8
0
  6
Continuous
 62
     7
370
    15
100
AcDbSpline
210
0.0
220
0.0
230
1.0
 70
     8
 71
     3
 72
    13
 73
     9
 74
     0
 42
0.00000001
 43
0.00000001
 40
0.0
 40
0.0
 40
0.0
 40
0.0
 40
0.1768650160017019
 40
0.3537333829017458
 40
0.5305916667059338
 40
0.7074540373464636
 40
0.8843182312772411
 40
1.0
 40
1.0
 40
1.0
 40
1.0
 10
305.5478572179518
 20
73.95364075376834
 30
0.0
 10
305.3511862216025
 20
73.95633529098659
 30
0.0
 10
304.9578405027597
 20
73.96172441647397
 30
0.0
 10
304.4244351288311
 20
74.25238118215691
 30
0.0
 10
304.0353500576009
 20
74.70677559930145
 30
0.0
 10
303.8571350839881
 20
75.27044393896267
 30
0.0
 10
303.8781042031539
 20
75.80360529623026
 30
0.0
 10
304.0442112659434
 20
76.07686883208662
 30
0.0
 10
304.1098951627455
 20
76.18492572977392
 30
0.0
  0
SPLINE
  5
120
330
1F
100
AcDbEntity
  8
0
  6
Continuous
 62
     7
370
    15
100
AcDbSpline
210
0.0
220
0.0
230
1.0
 70
     8
 71
     3
 72
    10
 73
     6
 74
     0
 42
0.00000001
 43
0.00000001
 40
0.0
 40
0.0
 40
0.0
 40
0.0
 40
0.1474572530124322
 40
0.5737310038141519
 40
1.0
 40
1.0
 40
1.0
 40
1.0
 10
306.6364168454848
 20
74.66616957857458
 30
0.0
 10
306.6083600415053
 20
74.60587770305496
 30
0.0
 10
306.4991958058905
 20
74.37129230588369
 30
0.0
 10
306.1141339698481
 20
74.08247722933045
 30
0.0
 10
305.7366154334458
 20
73.99658608595122
 30
0.0
 10
305.5478572179518
 20
73.95364075376837
 30
0.0
  0
LINE
  5
121
330
1F
100
AcDbEntity
  8
0
  6
Continuous
 62
     7
370
    15
100
AcDbLine
 10
810.1694523622
 20
76.9060227223
 30
0.0
 11
810.1694523622
 21
41.9060113974
 31
0.0
  0
LINE
  5
122
330
1F
100
AcDbEntity
  8
0
  6
Continuous
 62
     7
370
    15
100
AcDbLine
 10
820.7680820753
 20
76.9060227223
 30
0.0
 11
810.1694523622
 21
76.9060227223
 31
0.0
  0
LINE
  5
123
330
1F
100
AcDbEntity
  8
0
  6
Continuous
 62
     7
370
    15
100
AcDbLine
 10
820.7680820753
 20
41.9060113974
 30
0.0
 11
810.1694523622
 21
41.9060113974
 31
0.0
  0
LINE
  5
124
330
1F
100
AcDbEntity
  8
0
  6
Continuous
 62
     7
370
    15
100
AcDbLine
 10
810.1694523622
 20
501.906019742
 30
0.0
 11
810.1694523622
 21
466.9060084172
 31
0.0
  0
LINE
  5
125
330
1F
100
AcDbEntity
  8
0
  6
Continuous
 62
     7
370
    15
100
AcDbLine
 10
820.7680820753
 20
501.906019742
 30
0.0
 11
810.1694523622
 21
501.906019742
 31
0.0
  0
LINE
  5
126
330
1F
100
AcDbEntity
  8
0
  6
Continuous
 62
     7
370
    15
100
AcDbLine
 10
820.7680820753
 20
466.9060084172
 30
0.0
 11
810.1694523622
 21
466.9060084172
 31
0.0
  0
LINE
  5
127
330
1F
100
AcDbEntity
  8
0
  6
Continuous
 62
     7
370
    15
100
AcDbLine
 10
817.7680908968
 20
113.9060082979
 30
0.0
 11
812.7680956651
 21
113.9060082979
 31
0.0
  0
LINE
  5
128
330
1F
100
AcDbEntity
  8
0
  6
Continuous
 62
     7
370
    15
100
AcDbLine
 10
812.7680956651
 20
429.9060228415
 30
0.0
 11
817.7680908968
 21
429.9060228415
 31
0.0
  0
LINE
  5
129
330
1F
100
AcDbEntity
  8
0
  6
Continuous
 62
     7
370
    15
100
AcDbLine
 10
809.7059368421
 20
41.9060113974
 30
0.0
 11
809.7059368421
 21
76.9060227223
 31
0.0
  0
LINE
  5
12A
330
1F
100
AcDbEntity
  8
0
  6
Continuous
 62
     7
370
    15
100
AcDbLine
 10
809.7059368421
 20
76.9060227223
 30
0.0
 11
810.1694523622
 21
76.9060227223
 31
0.0
  0
LINE
  5
12B
330
1F
100
AcDbEntity
  8
0
  6
Continuous
 62
     7
370
    15
100
AcDbLine
 10
810.1694523622
 20
41.9060113974
 30
0.0
 11
809.7059368421
 21
41.9060113974
 31
0.0
  0
LINE
  5
12C
330
1F
100
AcDbEntity
  8
0
  6
Continuous
 62
     7
370
    15
100
AcDbLine
 10
809.7059368421
 20
466.9060084172
 30
0.0
 11
809.7059368421
 21
501.906019742
 31
0.0
  0
LINE
  5
12D
330
1F
100
AcDbEntity
  8
0
  6
Continuous
 62
     7
370
    15
100
AcDbLine
 10
810.1694523622
 20
466.9060084172
 30
0.0
 11
809.7059368421
 21
466.9060084172
 31
0.0
  0
LINE
  5
12E
330
1F
100
AcDbEntity
  8
0
  6
Continuous
 62
     7
370
    15
100
AcDbLine
 10
809.7059368421
 20
501.906019742
 30
0.0
 11
810.1694523622
 21
501.906019742
 31
0.0
  0
LINE
  5
12F
330
1F
100
AcDbEntity
  8
0
  6
Continuous
 62
     7
370
    15
100
AcDbLine
 10
809.7059368421
 20
466.9060084172
 30
0.0
 11
809.2680811216
 21
466.9060084172
 31
0.0
  0
LINE
  5
130
330
1F
100
AcDbEntity
  8
0
  6
Continuous
 62
     7
370
    15
100
AcDbLine
 10
809.7059368421
 20
501.906019742
 30
0.0
 11
809.2680811216
 21
501.906019742
 31
0.0
  0
LINE
  5
131
330
1F
100
AcDbEntity
  8
0
  6
Continuous
 62
     7
370
    15
100
AcDbLine
 10
809.7059368421
 20
76.9060227223
 30
0.0
 11
809.2680811216
 21
76.9060227223
 31
0.0
  0
LINE
  5
132
330
1F
100
AcDbEntity
  8
0
  6
Continuous
 62
     7
370
    15
100
AcDbLine
 10
809.7059368421
 20
41.9060113974
 30
0.0
 11
809.2680811216
 21
41.9060113974
 31
0.0
  0
LINE
  5
133
330
1F
100
AcDbEntity
  8
0
  6
Continuous
 62
     7
370
    15
100
AcDbLine
 10
304.0680825044
 20
80.1560106821
 30
0.0
 11
305.6276082327
 21
80.1560106821
 31
0.0
  0
LINE
  5
134
330
1F
100
AcDbEntity
  8
0
  6
Continuous
 62
     7
370
    15
100
AcDbLine
 10
304.0680825044
 20
93.6560156889
 30
0.0
 11
305.6281446745
 21
93.6560156889
 31
0.0
  0
LINE
  5
135
330
1F
100
AcDbEntity
  8
0
  6
Continuous
 62
     7
370
    15
100
AcDbLine
 10
304.0680825044
 20
80.1560106821
 30
0.0
 11
300.968074732
 21
80.1560106821
 31
0.0
  0
LINE
  5
136
330
1F
100
AcDbEntity
  8
0
  6
Continuous
 62
     7
370
    15
100
AcDbLine
 10
304.0680825044
 20
93.6560156889
 30
0.0
 11
300.968074732
 21
93.6560156889
 31
0.0
  0
LINE
  5
137
330
1F
100
AcDbEntity
  8
0
  6
Continuous
 62
     7
370
    15
100
AcDbLine
 10
304.0680825044
 20
450.1560154505
 30
0.0
 11
300.968074732
 21
450.1560154505
 31
0.0
  0
LINE
  5
138
330
1F
100
AcDbEntity
  8
0
  6
Continuous
 62
     7
370
    15
100
AcDbLine
 10
304.0680825044
 20
450.1560154505
 30
0.0
 11
305.6276082327
 21
450.1560154505
 31
0.0
  0
LINE
  5
139
330
1F
100
AcDbEntity
  8
0
  6
Continuous
 62
     7
370
    15
100
AcDbLine
 10
304.0680825044
 20
463.6560204573
 30
0.0
 11
305.6281446745
 21
463.6560204573
 31
0.0
  0
LINE
  5
13A
330
1F
100
AcDbEntity
  8
0
  6
Continuous
 62
     7
370
    15
100
AcDbLine
 10
304.0680825044
 20
463.6560204573
 30
0.0
 11
300.968074732
 21
463.6560204573
 31
0.0
  0
LINE
  5
13B
330
1F
100
AcDbEntity
  8
0
  6
Continuous
 62
     8
370
    15
100
AcDbLine
 10
304.0680825044
 20
80.4060223646
 30
0.0
 11
304.0680825044
 21
80.1560106821
 31
0.0
  0
LINE
  5
13C
330
1F
100
AcDbEntity
  8
0
  6
Continuous
 62
     8
370
    15
100
AcDbLine
 10
304.0680825044
 20
93.6560156889
 30
0.0
 11
304.0680825044
 21
93.4060189076
 31
0.0
  0
LINE
  5
13D
330
1F
100
AcDbEntity
  8
0
  6
Continuous
 62
     8
370
    15
100
AcDbLine
 10
304.0680825044
 20
450.4060122318
 30
0.0
 11
304.0680825044
 21
450.1560154505
 31
0.0
  0
LINE
  5
13E
330
1F
100
AcDbEntity
  8
0
  6
Continuous
 62
     8
370
    15
100
AcDbLine
 10
304.0680825044
 20
463.6560204573
 30
0.0
 11
304.0680825044
 21
463.4060087748
 31
0.0
  0
LINE
  5
13F
330
1F
100
AcDbEntity
  8
0
  6
Continuous
 62
     7
370
    15
100
AcDbLine
 10
229.7489739815
 20
93.4060189076
 30
0.0
 11
229.7489739815
 21
80.4060223646
 31
0.0
  0
LINE
  5
140
330
1F
100
AcDbEntity
  8
0
  6
Continuous
 62
     7
370
    15
100
AcDbLine
 10
229.7489739815
 20
463.4060087748
 30
0.0
 11
229.7489739815
 21
450.4060122318
 31
0.0
  0
LINE
  5
141
330
1F
100
AcDbEntity
  8
0
  6
Continuous
 62
     7
370
    15
100
AcDbLine
 10
219.9589706818
 20
78.9060118742
 30
0.0
 11
219.9589706818
 21
79.7060105152
 31
0.0
  0
LINE
  5
142
330
1F
100
AcDbEntity
  8
0
  6
Continuous
 62
     7
370
    15
100
AcDbLine
 10
219.9589706818
 20
94.1060158558
 30
0.0
 11
219.9589706818
 21
94.9060144968
 31
0.0
  0
LINE
  5
143
330
1F
100
AcDbEntity
  8
0
  6
Continuous
 62
     7
370
    15
100
AcDbLine
 10
215.0289811054
 20
95.2060195751
 30
0.0
 11
215.0289811054
 21
94.9060144968
 31
0.0
  0
LINE
  5
144
330
1F
100
AcDbEntity
  8
0
  6
Continuous
 62
     7
370
    15
100
AcDbLine
 10
219.4289810816
 20
94.9060144968
 30
0.0
 11
219.4289810816
 21
95.2060195751
 31
0.0
  0
ARC
  5
145
330
1F
100
AcDbEntity
  8
0
  6
Continuous
 62
     7
370
    15
100
AcDbCircle
 10
217.2289738146
 20
92.0988727126
 30
0.0
 40
3.807142857143293
100
AcDbArc
 50
54.6997515601
 51
125.3002484399
  0
LINE
  5
146
330
1F
100
AcDbEntity
  8
0
  6
Continuous
 62
     7
370
    15
100
AcDbLine
 10
215.128967897
 20
78.5060200043
 30
0.0
 11
215.128967897
 21
78.1060132332
 31
0.0
  0
LINE
  5
147
330
1F
100
AcDbEntity
  8
0
  6
Continuous
 62
     7
370
    15
100
AcDbLine
 10
219.3289793888
 20
78.1060132332
 30
0.0
 11
219.3289793888
 21
78.5060200043
 31
0.0
  0
ARC
  5
148
330
1F
100
AcDbEntity
  8
0
  6
Continuous
 62
     7
370
    15
100
AcDbCircle
 10
215.3289738146
 20
78.9060155697
 30
0.0
 40
0.4000000000008015
100
AcDbArc
 50
270.0
 51
0.0
  0
ARC
  5
149
330
1F
100
AcDbEntity
  8
0
  6
Continuous
 62
     7
370
    15
100
AcDbCircle
 10
219.1289738146
 20
78.9060155697
 30
0.0
 40
0.4000000000007731
100
AcDbArc
 50
180.0
 51
270.0
  0
LINE
  5
14A
330
1F
100
AcDbEntity
  8
0
  6
Continuous
 62
     7
370
    15
100
AcDbLine
 10
215.7289780537
 20
94.1060158558
 30
0.0
 11
215.7289780537
 21
93.6560156889
 31
0.0
  0
LINE
  5
14B
330
1F
100
AcDbEntity
  8
0
  6
Continuous
 62
     7
370
    15
100
AcDbLine
 10
215.7289780537
 20
92.6560136624
 30
0.0
 11
215.7289780537
 21
92.1673151798
 31
0.0
  0
LINE
  5
14C
330
1F
100
AcDbEntity
  8
0
  6
Continuous
 62
     7
370
    15
100
AcDbLine
 10
215.7289780537
 20
91.3711908407
 30
0.0
 11
215.7289780537
 21
91.2155035086
 31
0.0
  0
LINE
  5
14D
330
1F
100
AcDbEntity
  8
0
  6
Continuous
 62
     7
370
    15
100
AcDbLine
 10
215.7289780537
 20
81.9163891621
 30
0.0
 11
215.7289780537
 21
81.1560127087
 31
0.0
  0
LINE
  5
14E
330
1F
100
AcDbEntity
  8
0
  6
Continuous
 62
     7
370
    15
100
AcDbLine
 10
215.7289780537
 20
80.1560106821
 30
0.0
 11
215.7289780537
 21
79.7060105152
 31
0.0
  0
LINE
  5
14F
330
1F
100
AcDbEntity
  8
0
  6
Continuous
 62
     7
370
    15
100
AcDbLine
 10
218.7289692322
 20
79.7060105152
 30
0.0
 11
218.7289692322
 21
80.1560106821
 31
0.0
  0
LINE
  5
150
330
1F
100
AcDbEntity
  8
0
  6
Continuous
 62
     7
370
    15
100
AcDbLine
 10
218.7289692322
 20
81.1560127087
 30
0.0
 11
218.7289692322
 21
81.6431614704
 31
0.0
  0
LINE
  5
151
330
1F
100
AcDbEntity
  8
0
  6
Continuous
 62
     7
370
    15
100
AcDbLine
 10
218.7289692322
 20
90.9510824032
 30
0.0
 11
218.7289692322
 21
91.1390158482
 31
0.0
  0
LINE
  5
152
330
1F
100
AcDbEntity
  8
0
  6
Continuous
 62
     7
370
    15
100
AcDbLine
 10
218.7289692322
 20
91.8940874882
 30
0.0
 11
218.7289692322
 21
92.6560136624
 31
0.0
  0
LINE
  5
153
330
1F
100
AcDbEntity
  8
0
  6
Continuous
 62
     7
370
    15
100
AcDbLine
 10
218.7289692322
 20
93.6560156889
 30
0.0
 11
218.7289692322
 21
94.1060158558
 31
0.0
  0
SPLINE
  5
154
330
1F
100
AcDbEntity
  8
0
  6
Continuous
 62
     7
370
    15
100
AcDbSpline
210
0.0
220
0.0
230
1.0
 70
     8
 71
     3
 72
    15
 73
    11
 74
     0
 42
0.00000001
 43
0.00000001
 40
0.0
 40
0.0
 40
0.0
 40
0.0
 40
0.1355965265320355
 40
0.2953255980744156
 40
0.4038106423382971
 40
0.5319577027750214
 40
0.6738320656244405
 40
0.8261009879684832
 40
0.9126193300633378
 40
1.0
 40
1.0
 40
1.0
 40
1.0
 10
218.7289692321736
 20
451.4720562048182
 30
0.0
 10
218.773351505288
 20
451.464735768319
 30
0.0
 10
218.8700149057942
 20
451.4487920539586
 30
0.0
 10
219.0768650638775
 20
451.4964634426257
 30
0.0
 10
219.2701219149092
 20
451.5841779376578
 30
0.0
 10
219.4167073138021
 20
451.7038495204987
 30
0.0
 10
219.5154196032385
 20
451.8547341180084
 30
0.0
 10
219.5450728898426
 20
451.9765836473458
 30
0.0
 10
219.5239039038613
 20
452.1058329869091
 30
0.0
 10
219.4776460705554
 20
452.1725093839409
 30
0.0
 10
219.4544024625737
 20
452.2060128994212
 30
0.0
  0
SPLINE
  5
155
330
1F
100
AcDbEntity
  8
0
  6
Continuous
 62
     7
370
    15
100
AcDbSpline
210
0.0
220
0.0
230
1.0
 70
     8
 71
     3
 72
    20
 73
    16
 74
     0
 42
0.00000001
 43
0.00000001
 40
0.0
 40
0.0
 40
0.0
 40
0.0
 40
0.0607080786555937
 40
0.2265357058541371
 40
0.3908032043468366
 40
0.4705945460475215
 40
0.547620500933756
 40
0.6228575210760745
 40
0.7003373656687489
 40
0.7786474675671871
 40
0.8566579547793368
 40
0.933098788388438
 40
0.9703736090764431
 40
0.9892324290281727
 40
1.0
 40
1.0
 40
1.0
 40
1.0
 10
214.9927712837177
 20
452.2060128994211
 30
0.0
 10
215.0390461521142
 20
452.1526814536457
 30
0.0
 10
215.2117234993085
 20
451.9536720799262
 30
0.0
 10
215.6286819235797
 20
451.9357452308415
 30
0.0
 10
216.1936509082568
 20
451.8607199481847
 30
0.0
 10
216.7132612266364
 20
451.8177823030406
 30
0.0
 10
217.1071522971453
 20
451.7872215501642
 30
0.0
 10
217.5000641544534
 20
451.759550204657
 30
0.0
 10
217.8812254113003
 20
451.7282390579895
 30
0.0
 10
218.2369502134081
 20
451.6957661883252
 30
0.0
 10
218.5395715887838
 20
451.664929123126
 30
0.0
 10
218.7320899172894
 20
451.6420281384954
 30
0.0
 10
218.8202046773087
 20
451.6340097121302
 30
0.0
 10
218.8656317368652
 20
451.6262270795178
 30
0.0
 10
218.8650823833476
 20
451.6301699281317
 30
0.0
 10
218.8648827234226
 20
451.6316029377207
 30
0.0
  0
SPLINE
  5
156
330
1F
100
AcDbEntity
  8
0
  6
Continuous
 62
     7
370
    15
100
AcDbSpline
210
0.0
220
0.0
230
1.0
 70
     8
 71
     3
 72
    18
 73
    14
 74
     0
 42
0.00000001
 43
0.00000001
 40
0.0
 40
0.0
 40
0.0
 40
0.0
 40
0.0057509055707785
 40
0.1156365942108736
 40
0.2383917546761024
 40
0.3593077580000205
 40
0.4757061783838784
 40
0.5872136758512743
 40
0.7047343241619957
 40
0.8265029199285094
 40
0.8891450723957606
 40
0.9517986371317534
 40
1.0
 40
1.0
 40
1.0
 40
1.0
 10
219.2355938116032
 20
460.8528438158258
 30
0.0
 10
219.2309465785951
 20
460.8557960116773
 30
0.0
 10
219.1375021304198
 20
460.915157423459
 30
0.0
 10
218.9151958240301
 20
460.9213354831432
 30
0.0
 10
218.5237974318078
 20
460.980537966326
 30
0.0
 10
218.0119193271751
 20
461.02607476537
 30
0.0
 10
217.4608871849336
 20
461.0722415334401
 30
0.0
 10
216.898771167709
 20
461.1111211967339
 30
0.0
 10
216.3644884724068
 20
461.1558738500892
 30
0.0
 10
215.9668692463251
 20
461.1969155801682
 30
0.0
 10
215.7521189861661
 20
461.2180621682526
 30
0.0
 10
215.6560751162089
 20
461.2203378074954
 30
0.0
 10
215.6406261042476
 20
461.204260086608
 30
0.0
 10
215.6339086452442
 20
461.1972692556604
 30
0.0
  0
SPLINE
  5
157
330
1F
100
AcDbEntity
  8
0
  6
Continuous
 62
     7
370
    15
100
AcDbSpline
210
0.0
220
0.0
230
1.0
 70
     8
 71
     3
 72
    12
 73
     8
 74
     0
 42
0.00000001
 43
0.00000001
 40
0.0
 40
0.0
 40
0.0
 40
0.0
 40
0.2236877803995734
 40
0.4523150907588928
 40
0.6822433916861204
 40
0.9102241217890146
 40
1.0
 40
1.0
 40
1.0
 40
1.0
 10
214.9346716562229
 20
462.0078626222834
 30
0.0
 10
214.9219378274916
 20
461.9653124325665
 30
0.0
 10
214.8961889784124
 20
461.8792724491163
 30
0.0
 10
215.0173177321651
 20
461.7876782819167
 30
0.0
 10
215.2489885897241
 20
461.6913434638818
 30
0.0
 10
215.4938495875809
 20
461.6288829968855
 30
0.0
 10
215.6771812884148
 20
461.6340868605549
 30
0.0
 10
215.728978053661
 20
461.6355571098551
 30
0.0
  0
SPLINE
  5
158
330
1F
100
AcDbEntity
  8
0
  6
Continuous
 62
     7
370
    15
100
AcDbSpline
210
0.0
220
0.0
230
1.0
 70
     8
 71
     3
 72
    19
 73
    15
 74
     0
 42
0.00000001
 43
0.00000001
 40
0.0
 40
0.0
 40
0.0
 40
0.0
 40
0.097905917995741
 40
0.1753774581523557
 40
0.2884834021363955
 40
0.3734528377717841
 40
0.4570035821710856
 40
0.61688738746232
 40
0.6796673909510111
 40
0.7634260241287744
 40
0.8137549702879531
 40
0.8702986083098486
 40
0.932400294223479
 40
1.0
 40
1.0
 40
1.0
 40
1.0
 10
215.1109076896626
 20
461.5127417392954
 30
0.0
 10
215.1614154545977
 20
461.4863605081582
 30
0.0
 10
215.251889285114
 20
461.4391041894954
 30
0.0
 10
215.6265503476536
 20
461.3784570332806
 30
0.0
 10
216.1130359382579
 20
461.3245658698041
 30
0.0
 10
216.7043804594146
 20
461.2713416307126
 30
0.0
 10
217.4584764088685
 20
461.2197945884437
 30
0.0
 10
218.099583676198
 20
461.152841441653
 30
0.0
 10
218.7488420492144
 20
461.1173156772088
 30
0.0
 10
219.1271826297139
 20
461.1955303720263
 30
0.0
 10
219.3790302493269
 20
461.3037014285679
 30
0.0
 10
219.5126173746203
 20
461.3920528305514
 30
0.0
 10
219.5743928908436
 20
461.465883487576
 30
0.0
 10
219.5029487610515
 20
461.5464100162653
 30
0.0
 10
219.4657124439198
 20
461.5883800335154
 30
0.0
  0
SPLINE
  5
159
330
1F
100
AcDbEntity
  8
0
  6
Continuous
 62
     7
370
    15
100
AcDbSpline
210
0.0
220
0.0
230
1.0
 70
     8
 71
     3
 72
    25
 73
    21
 74
     0
 42
0.00000001
 43
0.00000001
 40
0.0
 40
0.0
 40
0.0
 40
0.0
 40
0.0176277496452752
 40
0.0344974659164648
 40
0.0503153655365016
 40
0.0649724010491646
 40
0.0909444597833625
 40
0.113437148394622
 40
0.1538399471442875
 40
0.1912336503716957
 40
0.2995702728358309
 40
0.3999628847938618
 40
0.5012948169500224
 40
0.594905109583101
 40
0.6784865294371866
 40
0.7336285575858053
 40
0.807518368220248
 40
0.8952813637324751
 40
0.9453088361668351
 40
1.0
 40
1.0
 40
1.0
 40
1.0
 10
219.1083974996525
 20
460.9627994842753
 30
0.0
 10
219.1481073676867
 20
460.9671883330269
 30
0.0
 10
219.2258194890082
 20
460.9757773000401
 30
0.0
 10
219.3277067319555
 20
461.0217995765125
 30
0.0
 10
219.4087065947707
 20
461.0807444553131
 30
0.0
 10
219.4849242295801
 20
461.1643253529552
 30
0.0
 10
219.5379599117027
 20
461.2679608058685
 30
0.0
 10
219.5621416013841
 20
461.4003189112526
 30
0.0
 10
219.5392328975154
 20
461.5321691080907
 30
0.0
 10
219.3680008674052
 20
461.7773759721444
 30
0.0
 10
219.0252127730824
 20
461.8644682931431
 30
0.0
 10
218.5300996375397
 20
461.92302683808
 30
0.0
 10
217.9168874482653
 20
461.9813707261293
 30
0.0
 10
217.2674152525574
 20
462.0309938853205
 30
0.0
 10
216.7277237172073
 20
462.0704819125609
 30
0.0
 10
216.2816977911172
 20
462.1096575968906
 30
0.0
 10
215.8930092090501
 20
462.1478871000413
 30
0.0
 10
215.6328331011467
 20
462.1757157793421
 30
0.0
 10
215.5024017473875
 20
462.1982314326173
 30
0.0
 10
215.4937413934123
 20
462.2106883098257
 30
0.0
 10
215.489218370052
 20
462.2171941347345
 30
0.0
  0
SPLINE
  5
15A
330
1F
100
AcDbEntity
  8
0
  6
Continuous
 62
     7
370
    15
100
AcDbSpline
210
0.0
220
0.0
230
1.0
 70
     8
 71
     3
 72
    12
 73
     8
 74
     0
 42
0.00000001
 43
0.00000001
 40
0.0
 40
0.0
 40
0.0
 40
0.0
 40
0.1756410329005891
 40
0.5723067852938244
 40
0.7586187064161154
 40
0.9207475017615295
 40
1.0
 40
1.0
 40
1.0
 40
1.0
 10
215.5775375524479
 20
461.3987031526789
 30
0.0
 10
215.5119801070561
 20
461.3895329160945
 30
0.0
 10
215.2983684571775
 20
461.3596527193473
 30
0.0
 10
215.0824197621714
 20
461.2856971621861
 30
0.0
 10
214.9212966978585
 20
461.0707999142272
 30
0.0
 10
214.8900673344605
 20
460.9105533273186
 30
0.0
 10
214.9210440351599
 20
460.8319061330118
 30
0.0
 10
214.9312145868259
 20
460.8060839719996
 30
0.0
  0
LINE
  5
15B
330
1F
100
AcDbEntity
  8
0
  6
Continuous
 62
     7
370
    15
100
AcDbLine
 10
215.0887347618
 20
452.1082761832
 30
0.0
 11
213.9702685038
 21
452.1082761832
 31
0.0
  0
LINE
  5
15C
330
1F
100
AcDbEntity
  8
0
  6
Continuous
 62
     7
370
    15
100
AcDbLine
 10
213.9702685038
 20
451.3082775421
 30
0.0
 11
215.7289780537
 21
451.3082775421
 31
0.0
  0
LINE
  5
15D
330
1F
100
AcDbEntity
  8
0
  6
Continuous
 62
     7
370
    15
100
AcDbLine
 10
212.5599779049
 20
464.9060192652
 30
0.0
 11
212.5599779049
 21
464.9594846316
 31
0.0
  0
LINE
  5
15E
330
1F
100
AcDbEntity
  8
0
  6
Continuous
 62
     7
370
    15
100
AcDbLine
 10
209.5599867264
 20
464.9594846316
 30
0.0
 11
209.5599867264
 21
464.9060192652
 31
0.0
  0
SPLINE
  5
15F
330
1F
100
AcDbEntity
  8
0
  6
Continuous
 62
     7
370
    15
100
AcDbSpline
210
0.0
220
0.0
230
1.0
 70
     8
 71
     3
 72
    15
 73
    11
 74
     0
 42
0.00000001
 43
0.00000001
 40
0.0
 40
0.0
 40
0.0
 40
0.0
 40
0.1077555579650511
 40
0.2352512325732731
 40
0.362790393113062
 40
0.4902567237356049
 40
0.6176629731078395
 40
0.7450967633746183
 40
0.8724966280894119
 40
1.0
 40
1.0
 40
1.0
 40
1.0
 10
209.576035276981
 20
448.9060166425928
 30
0.0
 10
209.5925744053023
 20
448.5934943956194
 30
0.0
 10
209.6286825225702
 20
447.9111978607998
 30
0.0
 10
209.9648952229603
 20
446.902050007033
 30
0.0
 10
210.5229747285757
 20
445.9385711283568
 30
0.0
 10
211.2778000599253
 20
445.1176442080691
 30
0.0
 10
212.1929638540009
 20
444.4823766197812
 30
0.0
 10
213.2202212696513
 20
444.0622234269676
 30
0.0
 10
214.316195818669
 20
443.8483926007667
 30
0.0
 10
215.051957400728
 20
443.9139329838343
 30
0.0
 10
215.4199875751453
 20
443.9467164821848
 30
0.0
  0
SPLINE
  5
160
330
1F
100
AcDbEntity
  8
0
  6
Continuous
 62
     7
370
    15
100
AcDbSpline
210
0.0
220
0.0
230
1.0
 70
     8
 71
     3
 72
    15
 73
    11
 74
     0
 42
0.00000001
 43
0.00000001
 40
0.0
 40
0.0
 40
0.0
 40
0.0
 40
0.1316519846524219
 40
0.2633115185478435
 40
0.3951896149794171
 40
0.5266715633740143
 40
0.657547320090316
 40
0.7882119844618856
 40
0.9184608404949043
 40
1.0
 40
1.0
 40
1.0
 40
1.0
 10
214.922303692432
 20
446.904403264068
 30
0.0
 10
214.7701203177926
 20
446.8925876374344
 30
0.0
 10
214.4657448419511
 20
446.8689557066302
 30
0.0
 10
214.0148792518844
 20
446.9704369241389
 30
0.0
 10
213.5958415891145
 20
447.1572772441478
 30
0.0
 10
213.225455715721
 20
447.4298875845286
 30
0.0
 10
212.923203256918
 20
447.7758028986416
 30
0.0
 10
212.7040235216246
 20
448.1774973034551
 30
0.0
 10
212.5866743734778
 20
448.5638168386724
 30
0.0
 10
212.5764902939215
 20
448.8108918578183
 30
0.0
 10
212.5725693860966
 20
448.9060166425928
 30
0.0
  0
SPLINE
  5
161
330
1F
100
AcDbEntity
  8
0
  6
Continuous
 62
     7
370
    15
100
AcDbSpline
210
0.0
220
0.0
230
1.0
 70
     8
 71
     3
 72
    15
 73
    11
 74
     0
 42
0.00000001
 43
0.00000001
 40
0.0
 40
0.0
 40
0.0
 40
0.0
 40
0.1249272773955475
 40
0.2499156548456479
 40
0.3749667937671986
 40
0.4999572819099412
 40
0.6249200874788893
 40
0.7499166956281047
 40
0.8748745008613593
 40
1.0
 40
1.0
 40
1.0
 40
1.0
 10
215.5908591905552
 20
469.8365303821787
 30
0.0
 10
215.2244829740056
 20
469.8798608505205
 30
0.0
 10
214.491551351803
 20
469.966542979485
 30
0.0
 10
213.3875206981922
 20
469.8013757301828
 30
0.0
 10
212.3467330650039
 20
469.412419361437
 30
0.0
 10
211.4115308719911
 20
468.8074265511552
 30
0.0
 10
210.6308989357893
 20
468.011221754486
 30
0.0
 10
210.042920521301
 20
467.0668692669915
 30
0.0
 10
209.6471022277101
 20
466.0184191859822
 30
0.0
 10
209.5890382051392
 20
465.2792990920282
 30
0.0
 10
209.5599867263752
 20
464.9094912357554
 30
0.0
  0
SPLINE
  5
162
330
1F
100
AcDbEntity
  8
0
  6
Continuous
 62
     7
370
    15
100
AcDbSpline
210
0.0
220
0.0
230
1.0
 70
     8
 71
     3
 72
    15
 73
    11
 74
     0
 42
0.00000001
 43
0.00000001
 40
0.0
 40
0.0
 40
0.0
 40
0.0
 40
0.1242510229729375
 40
0.2486328359840116
 40
0.3735415682951852
 40
0.4985819219384404
 40
0.6236646078267593
 40
0.7490700537809706
 40
0.8744362964630042
 40
1.0
 40
1.0
 40
1.0
 40
1.0
 10
212.5599779048878
 20
464.9094912357554
 30
0.0
 10
212.5735422075556
 20
465.0614440339632
 30
0.0
 10
212.6006850910485
 20
465.3655095800663
 30
0.0
 10
212.7751351761302
 20
465.7928271800328
 30
0.0
 10
213.0284697958592
 20
466.1744696073754
 30
0.0
 10
213.3582889061054
 20
466.4944033441538
 30
0.0
 10
213.7492168574922
 20
466.7349788132702
 30
0.0
 10
214.1819167597628
 20
466.8865873353116
 30
0.0
 10
214.6394480560845
 20
466.9400502196243
 30
0.0
 10
214.9413669243681
 20
466.8993657536764
 30
0.0
 10
215.0924451509434
 20
466.8790075130686
 30
0.0
  0
LINE
  5
163
330
1F
100
AcDbEntity
  8
0
  6
Continuous
 62
     7
370
    15
100
AcDbLine
 10
230.4630376259
 20
449.5211514778
 30
0.0
 11
214.922080175
 21
446.9047310896
 31
0.0
  0
LINE
  5
164
330
1F
100
AcDbEntity
  8
0
  6
Continuous
 62
     7
370
    15
100
AcDbLine
 10
215.4201365868
 20
443.9463737555
 30
0.0
 11
230.9611089388
 21
446.5627792425
 31
0.0
  0
LINE
  5
165
330
1F
100
AcDbEntity
  8
0
  6
Continuous
 62
     7
370
    15
100
AcDbLine
 10
215.0926537672
 20
466.8785753794
 30
0.0
 11
230.6336261192
 21
464.2621549912
 31
0.0
  0
LINE
  5
166
330
1F
100
AcDbEntity
  8
0
  6
Continuous
 62
     7
370
    15
100
AcDbLine
 10
231.131682531
 20
467.2205272265
 30
0.0
 11
215.5907250801
 21
469.8369476147
 31
0.0
  0
SPLINE
  5
167
330
1F
100
AcDbEntity
  8
0
  6
Continuous
 62
     7
370
    15
100
AcDbSpline
210
0.0
220
0.0
230
1.0
 70
     8
 71
     3
 72
    12
 73
     8
 74
     0
 42
0.00000001
 43
0.00000001
 40
0.0
 40
0.0
 40
0.0
 40
0.0
 40
0.1526135397173891
 40
0.2973904856902686
 40
0.5623705157137553
 40
0.7966016097880517
 40
1.0
 40
1.0
 40
1.0
 40
1.0
 10
230.9607513109165
 20
446.563092166923
 30
0.0
 10
231.2119710604445
 20
446.6158298840169
 30
0.0
 10
231.701510608937
 20
446.7185972749692
 30
0.0
 10
232.5510312206813
 20
447.1478500581798
 30
0.0
 10
233.3630209624595
 20
447.8922442330675
 30
0.0
 10
233.9274710168416
 20
448.9632829501211
 30
0.0
 10
234.009158418192
 20
449.6982114382005
 30
0.0
 10
234.0471245208698
 20
450.0397863931879
 30
0.0
  0
SPLINE
  5
168
330
1F
100
AcDbEntity
  8
0
  6
Continuous
 62
     7
370
    15
100
AcDbSpline
210
0.0
220
0.0
230
1.0
 70
     8
 71
     3
 72
    11
 73
     7
 74
     0
 42
0.00000001
 43
0.00000001
 40
0.0
 40
0.0
 40
0.0
 40
0.0
 40
0.2003633530022297
 40
0.4328044256764416
 40
0.6990221939103936
 40
1.0
 40
1.0
 40
1.0
 40
1.0
 10
231.048802272411
 20
450.0397863931879
 30
0.0
 10
231.0355756139655
 20
449.9833580454643
 30
0.0
 10
231.0070047389711
 20
449.8614672991656
 30
0.0
 10
230.8911101203105
 20
449.6957669223927
 30
0.0
 10
230.7063766919151
 20
449.5568528047856
 30
0.0
 10
230.5487514593298
 20
449.5334602449465
 30
0.0
 10
230.4651088872868
 20
449.5210471697077
 30
0.0
  0
SPLINE
  5
169
330
1F
100
AcDbEntity
  8
0
  6
Continuous
 62
     7
370
    15
100
AcDbSpline
210
0.0
220
0.0
230
1.0
 70
     8
 71
     3
 72
    12
 73
     8
 74
     0
 42
0.00000001
 43
0.00000001
 40
0.0
 40
0.0
 40
0.0
 40
0.0
 40
0.20340791682587
 40
0.4376401915798406
 40
0.7026163496154697
 40
0.8473901516791367
 40
1.0
 40
1.0
 40
1.0
 40
1.0
 10
234.0471245208699
 20
463.5984125681147
 30
0.0
 10
234.0256837906805
 20
463.9414231265245
 30
0.0
 10
233.9795532102484
 20
464.6794239321906
 30
0.0
 10
233.4674544711095
 20
465.776533538937
 30
0.0
 10
232.6922531921922
 20
466.5592955694692
 30
0.0
 10
231.8643992436105
 20
467.0290139057046
 30
0.0
 10
231.3804108778943
 20
467.1552725258337
 30
0.0
 10
231.1320401588398
 20
467.2200652904734
 30
0.0
  0
SPLINE
  5
16A
330
1F
100
AcDbEntity
  8
0
  6
Continuous
 62
     7
370
    15
100
AcDbSpline
210
0.0
220
0.0
230
1.0
 70
     8
 71
     3
 72
    12
 73
     8
 74
     0
 42
0.00000001
 43
0.00000001
 40
0.0
 40
0.0
 40
0.0
 40
0.0
 40
0.1555606298326515
 40
0.3022104918759382
 40
0.5679679576816538
 40
0.7999533683161958
 40
0.9999999999999999
 40
0.9999999999999999
 40
0.9999999999999999
 40
0.9999999999999999
 10
230.631703869434
 20
464.2630788631662
 30
0.0
 10
230.6722510718043
 20
464.2473288202839
 30
0.0
 10
230.7510228663497
 20
464.216730922785
 30
0.0
 10
230.8806496656916
 20
464.1216938811987
 30
0.0
 10
230.9950913114745
 20
463.975514088964
 30
0.0
 10
231.0592187867773
 20
463.781261655246
 30
0.0
 10
231.0520989959022
 20
463.6562824907866
 30
0.0
 10
231.048802272411
 20
463.5984125681147
 30
0.0
  0
LINE
  5
16B
330
1F
100
AcDbEntity
  8
0
  6
Continuous
 62
     7
370
    15
100
AcDbLine
 10
231.0479678074
 20
463.6484059639
 30
0.0
 11
231.0479678074
 21
463.4060087748
 31
0.0
  0
LINE
  5
16C
330
1F
100
AcDbEntity
  8
0
  6
Continuous
 62
     7
370
    15
100
AcDbLine
 10
231.0479678074
 20
450.4060122318
 30
0.0
 11
231.0479678074
 21
449.9897780962
 31
0.0
  0
LINE
  5
16D
330
1F
100
AcDbEntity
  8
0
  6
Continuous
 62
     7
370
    15
100
AcDbLine
 10
234.0479589859
 20
449.9897780962
 30
0.0
 11
234.0479589859
 21
450.4087540455
 31
0.0
  0
LINE
  5
16E
330
1F
100
AcDbEntity
  8
0
  6
Continuous
 62
     7
370
    15
100
AcDbLine
 10
234.0479589859
 20
463.4032669611
 30
0.0
 11
234.0479589859
 21
463.6484059639
 31
0.0
  0
LINE
  5
16F
330
1F
100
AcDbEntity
  8
0
  6
Continuous
 62
     7
370
    15
100
AcDbLine
 10
220.347250239
 20
462.506008441
 30
0.0
 11
218.7289692322
 21
462.506008441
 31
0.0
  0
LINE
  5
170
330
1F
100
AcDbEntity
  8
0
  6
Continuous
 62
     7
370
    15
100
AcDbLine
 10
219.3558908859
 20
461.7060098
 30
0.0
 11
220.347250239
 21
461.7060098
 31
0.0
  0
LINE
  5
171
330
1F
100
AcDbEntity
  8
0
  6
Continuous
 62
     7
370
    15
100
AcDbLine
 10
220.6854767958
 20
463.7741568632
 30
0.0
 11
220.4189546267
 21
462.565911109
 31
0.0
  0
LINE
  5
172
330
1F
100
AcDbEntity
  8
0
  6
Continuous
 62
     7
370
    15
100
AcDbLine
 10
221.1871094862
 20
462.3343619652
 30
0.0
 11
221.4666850725
 21
463.601824934
 31
0.0
  0
SPLINE
  5
173
330
1F
100
AcDbEntity
  8
0
  6
Continuous
 62
     7
370
    15
100
AcDbSpline
210
0.0
220
0.0
230
1.0
 70
     8
 71
     3
 72
    11
 73
     7
 74
     0
 42
0.00000001
 43
0.00000001
 40
0.0
 40
0.0
 40
0.0
 40
0.0
 40
0.2541322396080093
 40
0.5022676065307782
 40
0.7495073204938133
 40
1.0
 40
1.0
 40
1.0
 40
1.0
 10
220.3472502389866
 20
461.7060097999796
 30
0.0
 10
220.4473386950002
 20
461.7162609183718
 30
0.0
 10
220.6451537747431
 20
461.7365212549078
 30
0.0
 10
220.9033004407866
 20
461.8905432437832
 30
0.0
 10
221.1067557312873
 20
462.1096148252629
 30
0.0
 10
221.1684854014032
 20
462.2966691486682
 30
0.0
 10
221.1995519557911
 20
462.3908075638041
 30
0.0
  0
LINE
  5
174
330
1F
100
AcDbEntity
  8
0
  6
Continuous
 62
     7
370
    15
100
AcDbLine
 10
219.9589706818
 20
464.1060206242
 30
0.0
 11
219.9589706818
 21
464.9060192652
 31
0.0
  0
LINE
  5
175
330
1F
100
AcDbEntity
  8
0
  6
Continuous
 62
     7
370
    15
100
AcDbLine
 10
219.9589706818
 20
448.9060166426
 30
0.0
 11
219.9589706818
 21
449.7060152836
 31
0.0
  0
LINE
  5
176
330
1F
100
AcDbEntity
  8
0
  6
Continuous
 62
     7
370
    15
100
AcDbLine
 10
215.0289811054
 20
465.2060094424
 30
0.0
 11
215.0289811054
 21
464.9060192652
 31
0.0
  0
LINE
  5
177
330
1F
100
AcDbEntity
  8
0
  6
Continuous
 62
     7
370
    15
100
AcDbLine
 10
219.4289810816
 20
464.9060192652
 30
0.0
 11
219.4289810816
 21
465.2060094424
 31
0.0
  0
ARC
  5
178
330
1F
100
AcDbEntity
  8
0
  6
Continuous
 62
     7
370
    15
100
AcDbCircle
 10
217.2289738146
 20
462.0988727126
 30
0.0
 40
3.807142857143305
100
AcDbArc
 50
54.6997515601
 51
125.3002484399
  0
LINE
  5
179
330
1F
100
AcDbEntity
  8
0
  6
Continuous
 62
     7
370
    15
100
AcDbLine
 10
215.128967897
 20
448.5060098715
 30
0.0
 11
215.128967897
 21
448.1060180016
 31
0.0
  0
LINE
  5
17A
330
1F
100
AcDbEntity
  8
0
  6
Continuous
 62
     7
370
    15
100
AcDbLine
 10
219.3289793888
 20
448.1060180016
 30
0.0
 11
219.3289793888
 21
448.5060098715
 31
0.0
  0
ARC
  5
17B
330
1F
100
AcDbEntity
  8
0
  6
Continuous
 62
     7
370
    15
100
AcDbCircle
 10
215.3289738146
 20
448.9060155697
 30
0.0
 40
0.4000000000008015
100
AcDbArc
 50
270.0
 51
0.0
  0
ARC
  5
17C
330
1F
100
AcDbEntity
  8
0
  6
Continuous
 62
     7
370
    15
100
AcDbCircle
 10
219.1289738146
 20
448.9060155697
 30
0.0
 40
0.4000000000007731
100
AcDbArc
 50
180.0
 51
270.0
  0
LINE
  5
17D
330
1F
100
AcDbEntity
  8
0
  6
Continuous
 62
     7
370
    15
100
AcDbLine
 10
215.7289780537
 20
464.1060206242
 30
0.0
 11
215.7289780537
 21
463.6560204573
 31
0.0
  0
LINE
  5
17E
330
1F
100
AcDbEntity
  8
0
  6
Continuous
 62
     7
370
    15
100
AcDbLine
 10
215.7289780537
 20
462.6560184307
 30
0.0
 11
215.7289780537
 21
462.1673050471
 31
0.0
  0
LINE
  5
17F
330
1F
100
AcDbEntity
  8
0
  6
Continuous
 62
     7
370
    15
100
AcDbLine
 10
215.7289780537
 20
461.3711956091
 30
0.0
 11
215.7289780537
 21
461.2154933758
 31
0.0
  0
LINE
  5
180
330
1F
100
AcDbEntity
  8
0
  6
Continuous
 62
     7
370
    15
100
AcDbLine
 10
215.7289780537
 20
451.9163939305
 30
0.0
 11
215.7289780537
 21
451.1560174771
 31
0.0
  0
LINE
  5
181
330
1F
100
AcDbEntity
  8
0
  6
Continuous
 62
     7
370
    15
100
AcDbLine
 10
215.7289780537
 20
450.1560154505
 30
0.0
 11
215.7289780537
 21
449.7060152836
 31
0.0
  0
LINE
  5
182
330
1F
100
AcDbEntity
  8
0
  6
Continuous
 62
     7
370
    15
100
AcDbLine
 10
218.7289692322
 20
449.7060152836
 30
0.0
 11
218.7289692322
 21
450.1560154505
 31
0.0
  0
LINE
  5
183
330
1F
100
AcDbEntity
  8
0
  6
Continuous
 62
     7
370
    15
100
AcDbLine
 10
218.7289692322
 20
451.1560174771
 30
0.0
 11
218.7289692322
 21
451.6431513376
 31
0.0
  0
LINE
  5
184
330
1F
100
AcDbEntity
  8
0
  6
Continuous
 62
     7
370
    15
100
AcDbLine
 10
218.7289692322
 20
460.9510722704
 30
0.0
 11
218.7289692322
 21
461.1390206166
 31
0.0
  0
LINE
  5
185
330
1F
100
AcDbEntity
  8
0
  6
Continuous
 62
     7
370
    15
100
AcDbLine
 10
218.7289692322
 20
461.8940922566
 30
0.0
 11
218.7289692322
 21
462.6560184307
 31
0.0
  0
LINE
  5
186
330
1F
100
AcDbEntity
  8
0
  6
Continuous
 62
     7
370
    15
100
AcDbLine
 10
218.7289692322
 20
463.6560204573
 30
0.0
 11
218.7289692322
 21
464.1060206242
 31
0.0
  0
SPLINE
  5
187
330
1F
100
AcDbEntity
  8
0
  6
Continuous
 62
     7
370
    15
100
AcDbSpline
210
0.0
220
0.0
230
1.0
 70
     8
 71
     3
 72
    15
 73
    11
 74
     0
 42
0.00000001
 43
0.00000001
 40
0.0
 40
0.0
 40
0.0
 40
0.0
 40
0.1355968776699562
 40
0.2953259741877942
 40
0.403811035414547
 40
0.5319581158885225
 40
0.6738366035801229
 40
0.8261055497331444
 40
0.9126193164003756
 40
1.0
 40
1.0
 40
1.0
 40
1.0
 10
218.7289692321735
 20
81.47206633760779
 30
0.0
 10
218.7733514567733
 20
81.46473969578116
 30
0.0
 10
218.870014624405
 20
81.448782487384
 30
0.0
 10
219.0768651494357
 20
81.49645932247776
 30
0.0
 10
219.2701217335839
 20
81.58417356486176
 30
0.0
 10
219.4167097456782
 20
81.70384309766155
 30
0.0
 10
219.5154175561115
 20
81.85474534299486
 30
0.0
 10
219.5450738149456
 20
81.97659791012221
 30
0.0
 10
219.5239025462383
 20
82.10582703013966
 30
0.0
 10
219.4776460247564
 20
82.1725036296769
 30
0.0
 10
219.4544024625736
 20
82.20600813104956
 30
0.0
  0
SPLINE
  5
188
330
1F
100
AcDbEntity
  8
0
  6
Continuous
 62
     7
370
    15
100
AcDbSpline
210
0.0
220
0.0
230
1.0
 70
     8
 71
     3
 72
    20
 73
    16
 74
     0
 42
0.00000001
 43
0.00000001
 40
0.0
 40
0.0
 40
0.0
 40
0.0
 40
0.0607080733617801
 40
0.2265356860999659
 40
0.3908031702683526
 40
0.4705945050111417
 40
0.5476204531806254
 40
0.62285746676219
 40
0.7003373045985339
 40
0.778647399668242
 40
0.8566576561068441
 40
0.9330984830502176
 40
0.970373435824492
 40
0.9892322541317109
 40
1.0
 40
1.0
 40
1.0
 40
1.0
 10
214.9927712837177
 20
82.20600813104956
 30
0.0
 10
215.0390461521193
 20
82.15267668535775
 30
0.0
 10
215.2117234993327
 20
81.95366731195014
 30
0.0
 10
215.6286819232681
 20
81.93574045738006
 30
0.0
 10
216.1936509091327
 20
81.86071519412124
 30
0.0
 10
216.7132612251881
 20
81.81777751101016
 30
0.0
 10
217.1071523024097
 20
81.78721686779141
 30
0.0
 10
217.5000641350194
 20
81.75954511881118
 30
0.0
 10
217.8812254866558
 20
81.72823552063372
 30
0.0
 10
218.2369495887724
 20
81.69575681378217
 30
0.0
 10
218.5395720761252
 20
81.66494149255907
 30
0.0
 10
218.7320902273583
 20
81.642046675135
 30
0.0
 10
218.820204559872
 20
81.634007538008
 30
0.0
 10
218.8656318335055
 20
81.62621522330682
 30
0.0
 10
218.8650824106308
 20
81.63017418847815
 30
0.0
 10
218.8648827234226
 20
81.63161307051031
 30
0.0
  0
SPLINE
  5
189
330
1F
100
AcDbEntity
  8
0
  6
Continuous
 62
     7
370
    15
100
AcDbSpline
210
0.0
220
0.0
230
1.0
 70
     8
 71
     3
 72
    18
 73
    14
 74
     0
 42
0.00000001
 43
0.00000001
 40
0.0
 40
0.0
 40
0.0
 40
0.0
 40
0.0057509069169403
 40
0.1156366212788831
 40
0.2383918104784229
 40
0.3593078421061454
 40
0.4757062897363398
 40
0.5872138133052135
 40
0.7047344891249605
 40
0.8265031133948519
 40
0.8891452805252673
 40
0.9517988599270959
 40
1.0
 40
1.0
 40
1.0
 40
1.0
 10
219.2355938116032
 20
90.85283904745425
 30
0.0
 10
219.2309465785951
 20
90.85579124330584
 30
0.0
 10
219.1375021304203
 20
90.91515265509057
 30
0.0
 10
218.9151958240314
 20
90.9213307143875
 30
0.0
 10
218.5237974318022
 20
90.98053319947003
 30
0.0
 10
218.0119193271956
 20
91.02606999156654
 30
0.0
 10
217.4608871848616
 20
91.07223678415419
 30
0.0
 10
216.8987711679709
 20
91.1111163588311
 30
0.0
 10
216.3644884713527
 20
91.15586936150349
 30
0.0
 10
215.9668692495695
 20
91.196909950747
 30
0.0
 10
215.7521189803719
 20
91.21805893756041
 30
0.0
 10
215.6560752657442
 20
91.22032774037123
 30
0.0
 10
215.6406261367136
 20
91.20426408453459
 30
0.0
 10
215.6339086452442
 20
91.19727938845007
 30
0.0
  0
SPLINE
  5
18A
330
1F
100
AcDbEntity
  8
0
  6
Continuous
 62
     7
370
    15
100
AcDbSpline
210
0.0
220
0.0
230
1.0
 70
     8
 71
     3
 72
    12
 73
     8
 74
     0
 42
0.00000001
 43
0.00000001
 40
0.0
 40
0.0
 40
0.0
 40
0.0
 40
0.2236875025367031
 40
0.4523163059241643
 40
0.6822426646133385
 40
0.9102241826887856
 40
0.9999999999999999
 40
0.9999999999999999
 40
0.9999999999999999
 40
0.9999999999999999
 10
214.9346716562229
 20
92.007872755073
 30
0.0
 10
214.9219380283774
 20
91.9653247547562
 30
0.0
 10
214.8961894843472
 20
91.87928886044139
 30
0.0
 10
215.0173157838496
 20
91.78766099641427
 30
0.0
 10
215.2489909087857
 20
91.69136996005767
 30
0.0
 10
215.4938488529922
 20
91.62886477145346
 30
0.0
 10
215.6771812463975
 20
91.63409074968892
 30
0.0
 10
215.728978053661
 20
91.63556724264471
 30
0.0
  0
SPLINE
  5
18B
330
1F
100
AcDbEntity
  8
0
  6
Continuous
 62
     7
370
    15
100
AcDbSpline
210
0.0
220
0.0
230
1.0
 70
     8
 71
     3
 72
    19
 73
    15
 74
     0
 42
0.00000001
 43
0.00000001
 40
0.0
 40
0.0
 40
0.0
 40
0.0
 40
0.0979057262921821
 40
0.1753773141996929
 40
0.2884833278984972
 40
0.3734529959417294
 40
0.4570037918389475
 40
0.6168875195762131
 40
0.679667561760423
 40
0.763425919897083
 40
0.8137554230084055
 40
0.8702990958819301
 40
0.9324008200729866
 40
1.0
 40
1.0
 40
1.0
 40
1.0
 10
215.1109076896626
 20
91.51273697092383
 30
0.0
 10
215.1614155662518
 20
91.48636228952539
 30
0.0
 10
215.2518896996619
 20
91.43911764958753
 30
0.0
 10
215.6265502172452
 20
91.37846464801127
 30
0.0
 10
216.1130368236705
 20
91.32458347247221
 30
0.0
 10
216.7043797361958
 20
91.27133225679476
 30
0.0
 10
217.4584758962587
 20
91.219790367455
 30
0.0
 10
218.0995846838634
 20
91.15284931949438
 30
0.0
 10
218.7488405884727
 20
91.11733143438941
 30
0.0
 10
219.1271856595031
 20
91.19551403647516
 30
0.0
 10
219.3790288459644
 20
91.30371763912163
 30
0.0
 10
219.5126176165854
 20
91.39206026463489
 30
0.0
 10
219.5743929069687
 20
91.46589731428129
 30
0.0
 10
219.5029486681807
 20
91.54641172986445
 30
0.0
 10
219.4657124439198
 20
91.5883752651438
 30
0.0
  0
SPLINE
  5
18C
330
1F
100
AcDbEntity
  8
0
  6
Continuous
 62
     7
370
    15
100
AcDbSpline
210
0.0
220
0.0
230
1.0
 70
     8
 71
     3
 72
    25
 73
    21
 74
     0
 42
0.00000001
 43
0.00000001
 40
0.0
 40
0.0
 40
0.0
 40
0.0
 40
0.0176277386458924
 40
0.0344974443906976
 40
0.0503153341406637
 40
0.0649737082675127
 40
0.0909457507956364
 40
0.1134370502499708
 40
0.1538398237890529
 40
0.1912346414901368
 40
0.2995706765179207
 40
0.3999632258328576
 40
0.5012952724115781
 40
0.594905506633602
 40
0.6784867138874268
 40
0.7336287076284611
 40
0.8075184721570575
 40
0.8952815387423068
 40
0.9453088702930883
 40
1.0
 40
1.0
 40
1.0
 40
1.0
 10
219.1083974996525
 20
90.96279471590368
 30
0.0
 10
219.1481074166679
 20
90.9671834813492
 30
0.0
 10
219.2258196338453
 20
90.97577228533254
 30
0.0
 10
219.3277061957882
 20
91.02179572004343
 30
0.0
 10
219.4087107167872
 20
91.08073827598243
 30
0.0
 10
219.4849191921274
 20
91.16433889987138
 30
0.0
 10
219.5379595664044
 20
91.26797044743812
 30
0.0
 10
219.5621421203296
 20
91.40031153485043
 30
0.0
 10
219.5392311348751
 20
91.53216320131865
 30
0.0
 10
219.3680062706957
 20
91.77739708782588
 30
0.0
 10
219.0252102632232
 20
91.86445619791932
 30
0.0
 10
218.5300994425829
 20
91.92301956631627
 30
0.0
 10
217.9168879514594
 20
91.981383231411
 30
0.0
 10
217.2674160487557
 20
92.03100956562952
 30
0.0
 10
216.7277231229387
 20
92.07047348044622
 30
0.0
 10
216.2816978949767
 20
92.1096551334868
 30
0.0
 10
215.8930087937465
 20
92.1478744356718
 30
0.0
 10
215.6328335434181
 20
92.17573865478681
 30
0.0
 10
215.5024016198197
 20
92.19822083326079
 30
0.0
 10
215.4937413527574
 20
92.21068153645156
 30
0.0
 10
215.489218370052
 20
92.21718936636294
 30
0.0
  0
SPLINE
  5
18D
330
1F
100
AcDbEntity
  8
0
  6
Continuous
 62
     7
370
    15
100
AcDbSpline
210
0.0
220
0.0
230
1.0
 70
     8
 71
     3
 72
    12
 73
     8
 74
     0
 42
0.00000001
 43
0.00000001
 40
0.0
 40
0.0
 40
0.0
 40
0.0
 40
0.1756414369177539
 40
0.5723036229260589
 40
0.7586198355200895
 40
0.920742030368776
 40
0.9999999999999999
 40
0.9999999999999999
 40
0.9999999999999999
 40
0.9999999999999999
 10
215.5775375524479
 20
91.3987132854685
 30
0.0
 10
215.5119802744672
 20
91.38953636881384
 30
0.0
 10
215.2983708417734
 20
91.35963463980889
 30
0.0
 10
215.0824154511451
 20
91.2857228828582
 30
0.0
 10
214.9212989825334
 20
91.07078896062532
 30
0.0
 10
214.8900687780759
 20
90.91056649634125
 30
0.0
 10
214.921043827601
 20
90.83190723152515
 30
0.0
 10
214.9312145868259
 20
90.80607920362799
 30
0.0
  0
LINE
  5
18E
330
1F
100
AcDbEntity
  8
0
  6
Continuous
 62
     7
370
    15
100
AcDbLine
 10
215.0887347618
 20
82.1082714148
 30
0.0
 11
213.9702685038
 21
82.1082714148
 31
0.0
  0
LINE
  5
18F
330
1F
100
AcDbEntity
  8
0
  6
Continuous
 62
     7
370
    15
100
AcDbLine
 10
213.9702685038
 20
81.3082727738
 30
0.0
 11
215.7289780537
 21
81.3082727738
 31
0.0
  0
LINE
  5
190
330
1F
100
AcDbEntity
  8
0
  6
Continuous
 62
     7
370
    15
100
AcDbLine
 10
212.5599779049
 20
94.9060144968
 30
0.0
 11
212.5599779049
 21
94.9594798632
 31
0.0
  0
LINE
  5
191
330
1F
100
AcDbEntity
  8
0
  6
Continuous
 62
     7
370
    15
100
AcDbLine
 10
209.5599867264
 20
94.9594798632
 30
0.0
 11
209.5599867264
 21
94.9060144968
 31
0.0
  0
SPLINE
  5
192
330
1F
100
AcDbEntity
  8
0
  6
Continuous
 62
     7
370
    15
100
AcDbSpline
210
0.0
220
0.0
230
1.0
 70
     8
 71
     3
 72
    15
 73
    11
 74
     0
 42
0.00000001
 43
0.00000001
 40
0.0
 40
0.0
 40
0.0
 40
0.0
 40
0.1077555984635169
 40
0.23525132098926
 40
0.3627905294629136
 40
0.4902569079919491
 40
0.6176632052480955
 40
0.745097043409137
 40
0.8724966518631685
 40
1.0
 40
1.0
 40
1.0
 40
1.0
 10
209.576035276981
 20
78.90601187422125
 30
0.0
 10
209.5925744056021
 20
78.59348962934799
 30
0.0
 10
209.6286825235247
 20
77.91119309911367
 30
0.0
 10
209.9648952183126
 20
76.90204520610544
 30
0.0
 10
210.5229747459093
 20
75.9385664814041
 30
0.0
 10
211.2777999952944
 20
75.11763898696563
 30
0.0
 10
212.1929640951053
 20
74.48237354031936
 30
0.0
 10
213.2202195523357
 20
74.06221268890184
 30
0.0
 10
214.3161972010203
 20
73.84841165830713
 30
0.0
 10
215.0519576378713
 20
73.91393613965533
 30
0.0
 10
215.4199875751453
 20
73.94671171381323
 30
0.0
  0
SPLINE
  5
193
330
1F
100
AcDbEntity
  8
0
  6
Continuous
 62
     7
370
    15
100
AcDbSpline
210
0.0
220
0.0
230
1.0
 70
     8
 71
     3
 72
    15
 73
    11
 74
     0
 42
0.00000001
 43
0.00000001
 40
0.0
 40
0.0
 40
0.0
 40
0.0
 40
0.1316521354348152
 40
0.2633118201212764
 40
0.3951917953559327
 40
0.526671388426647
 40
0.65754729503632
 40
0.7882158253461952
 40
0.9184607471072531
 40
1.0
 40
1.0
 40
1.0
 40
1.0
 10
214.922303692432
 20
76.90439849569647
 30
0.0
 10
214.7701205301244
 20
76.892583309811
 30
0.0
 10
214.4657454789589
 20
76.86895226052862
 30
0.0
 10
214.0148747307324
 20
76.97042730631937
 30
0.0
 10
213.5958502187808
 20
77.15729297205654
 30
0.0
 10
213.2254512027338
 20
77.42988041513901
 30
0.0
 10
212.9231988985186
 20
77.77580148364002
 30
0.0
 10
212.7040305902275
 20
78.17750048591904
 30
0.0
 10
212.5866728298744
 20
78.56381639725818
 30
0.0
 10
212.5764899194085
 20
78.81088696801025
 30
0.0
 10
212.5725693860966
 20
78.90601187422125
 30
0.0
  0
SPLINE
  5
194
330
1F
100
AcDbEntity
  8
0
  6
Continuous
 62
     7
370
    15
100
AcDbSpline
210
0.0
220
0.0
230
1.0
 70
     8
 71
     3
 72
    15
 73
    11
 74
     0
 42
0.00000001
 43
0.00000001
 40
0.0
 40
0.0
 40
0.0
 40
0.0
 40
0.1249272078069247
 40
0.2499157485592948
 40
0.3749662286529669
 40
0.4999575604502636
 40
0.6249202964107985
 40
0.7499168349327715
 40
0.8748745705603984
 40
1.0
 40
1.0
 40
1.0
 40
1.0
 10
215.5908591905552
 20
99.83654051496829
 30
0.0
 10
215.2244825464712
 20
99.87987308896929
 30
0.0
 10
214.491549385887
 20
99.96655951107508
 30
0.0
 10
213.3875261951861
 20
99.80136053378685
 30
0.0
 10
212.3467246442519
 20
99.41243758623425
 30
0.0
 10
211.4115359054865
 20
98.80741803633732
 30
0.0
 10
210.6308980966611
 20
98.01121850941624
 30
0.0
 10
210.0429207450065
 20
97.06686409251871
 30
0.0
 10
209.6471021717034
 20
96.01841451928166
 30
0.0
 10
209.5890381864619
 20
95.27929435756208
 30
0.0
 10
209.5599867263752
 20
94.90948646738379
 30
0.0
  0
SPLINE
  5
195
330
1F
100
AcDbEntity
  8
0
  6
Continuous
 62
     7
370
    15
100
AcDbSpline
210
0.0
220
0.0
230
1.0
 70
     8
 71
     3
 72
    15
 73
    11
 74
     0
 42
0.00000001
 43
0.00000001
 40
0.0
 40
0.0
 40
0.0
 40
0.0
 40
0.1242547936411233
 40
0.248632597602545
 40
0.373541087961196
 40
0.4985811993969735
 40
0.6236636429958158
 40
0.7490701704186972
 40
0.8744361702619948
 40
1.0
 40
1.0
 40
1.0
 40
1.0
 10
212.5599779048878
 20
94.90948646738379
 30
0.0
 10
212.5735409932254
 20
95.06144459803195
 30
0.0
 10
212.6006805971478
 20
95.36551129552295
 30
0.0
 10
212.7751392433124
 20
95.79282573888811
 30
0.0
 10
213.0284695027768
 20
96.17446466652815
 30
0.0
 10
213.3582885565231
 20
96.49439978293928
 30
0.0
 10
213.7492199301266
 20
96.73497023083799
 30
0.0
 10
214.1819134387803
 20
96.88660096699262
 30
0.0
 10
214.6394492658219
 20
96.94006314103565
 30
0.0
 10
214.9413671798183
 20
96.89936690494203
 30
0.0
 10
215.0924451509434
 20
96.87900274469702
 30
0.0
  0
LINE
  5
196
330
1F
100
AcDbEntity
  8
0
  6
Continuous
 62
     7
370
    15
100
AcDbLine
 10
230.4630376259
 20
79.5211467095
 30
0.0
 11
214.922080175
 21
76.9047412224
 31
0.0
  0
LINE
  5
197
330
1F
100
AcDbEntity
  8
0
  6
Continuous
 62
     7
370
    15
100
AcDbLine
 10
215.4201365868
 20
73.9463689871
 30
0.0
 11
230.9611089388
 21
76.5627893753
 31
0.0
  0
LINE
  5
198
330
1F
100
AcDbEntity
  8
0
  6
Continuous
 62
     7
370
    15
100
AcDbLine
 10
215.0926537672
 20
96.8785855122
 30
0.0
 11
230.6336261192
 21
94.262165124
 31
0.0
  0
LINE
  5
199
330
1F
100
AcDbEntity
  8
0
  6
Continuous
 62
     7
370
    15
100
AcDbLine
 10
231.131682531
 20
97.2205224581
 30
0.0
 11
215.5907250801
 21
99.8369428463
 31
0.0
  0
SPLINE
  5
19A
330
1F
100
AcDbEntity
  8
0
  6
Continuous
 62
     7
370
    15
100
AcDbSpline
210
0.0
220
0.0
230
1.0
 70
     8
 71
     3
 72
    12
 73
     8
 74
     0
 42
0.00000001
 43
0.00000001
 40
0.0
 40
0.0
 40
0.0
 40
0.0
 40
0.1526143616206806
 40
0.2973900838260376
 40
0.5623702654073864
 40
0.7966014934523973
 40
1.0
 40
1.0
 40
1.0
 40
1.0
 10
230.9607513109165
 20
76.56308739855139
 30
0.0
 10
231.2119701195418
 20
76.61583256124496
 30
0.0
 10
231.7015045366329
 20
76.718613768651
 30
0.0
 10
232.5510375100368
 20
77.1478365108467
 30
0.0
 10
233.3630196173825
 20
77.8922424461794
 30
0.0
 10
233.9274712870032
 20
78.96327758291208
 30
0.0
 10
234.0091585039144
 20
79.69820647981751
 30
0.0
 10
234.0471245208698
 20
80.03978162481634
 30
0.0
  0
SPLINE
  5
19B
330
1F
100
AcDbEntity
  8
0
  6
Continuous
 62
     7
370
    15
100
AcDbSpline
210
0.0
220
0.0
230
1.0
 70
     8
 71
     3
 72
    11
 73
     7
 74
     0
 42
0.00000001
 43
0.00000001
 40
0.0
 40
0.0
 40
0.0
 40
0.0
 40
0.2003641189614822
 40
0.4328060802232906
 40
0.699024866168115
 40
0.9999999999999999
 40
0.9999999999999999
 40
0.9999999999999999
 40
0.9999999999999999
 10
231.048802272411
 20
80.03978162481631
 30
0.0
 10
231.0355756245069
 20
79.98335322989159
 30
0.0
 10
231.0070047722827
 20
79.86146238163366
 30
0.0
 10
230.891109952077
 20
79.69576290732358
 30
0.0
 10
230.7063783460104
 20
79.55684524848239
 30
0.0
 10
230.5487517069969
 20
79.53346419696983
 30
0.0
 10
230.4651088872868
 20
79.52105730249731
 30
0.0
  0
SPLINE
  5
19C
330
1F
100
AcDbEntity
  8
0
  6
Continuous
 62
     7
370
    15
100
AcDbSpline
210
0.0
220
0.0
230
1.0
 70
     8
 71
     3
 72
    12
 73
     8
 74
     0
 42
0.00000001
 43
0.00000001
 40
0.0
 40
0.0
 40
0.0
 40
0.0
 40
0.2034077395159399
 40
0.4376398100905015
 40
0.7026157371473919
 40
0.8473894130122702
 40
0.9999999999999999
 40
0.9999999999999999
 40
0.9999999999999999
 40
0.9999999999999999
 10
234.0471245208698
 20
93.5984077997431
 30
0.0
 10
234.0256838008473
 20
93.94141839099865
 30
0.0
 10
233.9795532422892
 20
94.67941926733384
 30
0.0
 10
233.4674543115945
 20
95.7765282552171
 30
0.0
 10
232.6922537426757
 20
96.55929257955609
 30
0.0
 10
231.8643968893342
 20
97.02900640518241
 30
0.0
 10
231.3804105358893
 20
97.15527655942094
 30
0.0
 10
231.1320401588398
 20
97.220075423263
 30
0.0
  0
SPLINE
  5
19D
330
1F
100
AcDbEntity
  8
0
  6
Continuous
 62
     7
370
    15
100
AcDbSpline
210
0.0
220
0.0
230
1.0
 70
     8
 71
     3
 72
    12
 73
     8
 74
     0
 42
0.00000001
 43
0.00000001
 40
0.0
 40
0.0
 40
0.0
 40
0.0
 40
0.1555604877376545
 40
0.3022102158253786
 40
0.5679674388781151
 40
0.7999363513240186
 40
0.9999999999999999
 40
0.9999999999999999
 40
0.9999999999999999
 40
0.9999999999999999
 10
230.631703869434
 20
94.26307409479467
 30
0.0
 10
230.6722510609617
 20
94.24732404764436
 30
0.0
 10
230.7510228344429
 20
94.21672614185367
 30
0.0
 10
230.8806498249195
 20
94.1216891755054
 30
0.0
 10
230.9950873229231
 20
93.97551258362718
 30
0.0
 10
231.0592211934189
 20
93.78126278640056
 30
0.0
 10
231.0520999465938
 20
93.65628290679523
 30
0.0
 10
231.048802272411
 20
93.5984077997431
 30
0.0
  0
LINE
  5
19E
330
1F
100
AcDbEntity
  8
0
  6
Continuous
 62
     7
370
    15
100
AcDbLine
 10
231.0479678074
 20
93.6484160967
 30
0.0
 11
231.0479678074
 21
93.4060189076
 31
0.0
  0
LINE
  5
19F
330
1F
100
AcDbEntity
  8
0
  6
Continuous
 62
     7
370
    15
100
AcDbLine
 10
231.0479678074
 20
80.4060223646
 30
0.0
 11
231.0479678074
 21
79.9897733278
 31
0.0
  0
LINE
  5
1A0
330
1F
100
AcDbEntity
  8
0
  6
Continuous
 62
     7
370
    15
100
AcDbLine
 10
234.0479589859
 20
79.9897733278
 30
0.0
 11
234.0479589859
 21
80.4087641783
 31
0.0
  0
LINE
  5
1A1
330
1F
100
AcDbEntity
  8
0
  6
Continuous
 62
     7
370
    15
100
AcDbLine
 10
234.0479589859
 20
93.4032770939
 30
0.0
 11
234.0479589859
 21
93.6484160967
 31
0.0
  0
LINE
  5
1A2
330
1F
100
AcDbEntity
  8
0
  6
Continuous
 62
     7
370
    15
100
AcDbLine
 10
220.347250239
 20
92.5060185738
 30
0.0
 11
218.7289692322
 21
92.5060185738
 31
0.0
  0
LINE
  5
1A3
330
1F
100
AcDbEntity
  8
0
  6
Continuous
 62
     7
370
    15
100
AcDbLine
 10
219.3558908859
 20
91.7060199328
 30
0.0
 11
220.347250239
 21
91.7060199328
 31
0.0
  0
LINE
  5
1A4
330
1F
100
AcDbEntity
  8
0
  6
Continuous
 62
     7
370
    15
100
AcDbLine
 10
220.6854767958
 20
93.7741520949
 30
0.0
 11
220.4189546267
 21
92.5659063406
 31
0.0
  0
LINE
  5
1A5
330
1F
100
AcDbEntity
  8
0
  6
Continuous
 62
     7
370
    15
100
AcDbLine
 10
221.1871094862
 20
92.3343571968
 30
0.0
 11
221.4666850725
 21
93.6018201657
 31
0.0
  0
SPLINE
  5
1A6
330
1F
100
AcDbEntity
  8
0
  6
Continuous
 62
     7
370
    15
100
AcDbSpline
210
0.0
220
0.0
230
1.0
 70
     8
 71
     3
 72
    11
 73
     7
 74
     0
 42
0.00000001
 43
0.00000001
 40
0.0
 40
0.0
 40
0.0
 40
0.0
 40
0.2541311630691059
 40
0.5022676364033828
 40
0.7495179365131207
 40
1.0
 40
1.0
 40
1.0
 40
1.0
 10
220.3472502389866
 20
91.70601993276922
 30
0.0
 10
220.4473386722821
 20
91.71626505702154
 30
0.0
 10
220.645154556865
 20
91.73651363370425
 30
0.0
 10
220.9033061440144
 20
91.89053927060783
 30
0.0
 10
221.1067475612867
 20
92.1096205018557
 30
0.0
 10
221.168483540916
 20
92.29667052724622
 30
0.0
 10
221.1995519557911
 20
92.39080279543249
 30
0.0
  0
LINE
  5
1A7
330
1F
100
AcDbEntity
  8
0
  6
Continuous
 62
     7
370
    15
100
AcDbLine
 10
234.7291059652
 20
92.2060134955
 30
0.0
 11
233.7770856777
 21
92.2060134955
 31
0.0
  0
LINE
  5
1A8
330
1F
100
AcDbEntity
  8
0
  6
Continuous
 62
     7
370
    15
100
AcDbLine
 10
234.7291059652
 20
92.2060134955
 30
0.0
 11
234.7291059652
 21
81.6060128756
 31
0.0
  0
LINE
  5
1A9
330
1F
100
AcDbEntity
  8
0
  6
Continuous
 62
     7
370
    15
100
AcDbLine
 10
233.7770856777
 20
81.6060128756
 30
0.0
 11
234.7291059652
 21
81.6060128756
 31
0.0
  0
LINE
  5
1AA
330
1F
100
AcDbEntity
  8
0
  6
Continuous
 62
     7
370
    15
100
AcDbLine
 10
233.7770856777
 20
92.2060134955
 30
0.0
 11
233.7770856777
 21
81.6060128756
 31
0.0
  0
LINE
  5
1AB
330
1F
100
AcDbEntity
  8
0
  6
Continuous
 62
     7
370
    15
100
AcDbLine
 10
233.9985914389
 20
80.4060223646
 30
0.0
 11
233.0465711513
 21
80.4060223646
 31
0.0
  0
LWPOLYLINE
  5
1AC
330
1F
100
AcDbEntity
  8
0
  6
Continuous
 62
     7
370
    15
100
AcDbPolyline
 90
        9
 70
   128
 43
0.0
 10
233.0465711513
 20
80.4060223646
 10
233.189085857
 20
80.429074461
 10
233.3261169353
 20
80.4973664828
 10
233.4524191776
 20
80.6082460232
 10
233.5631199041
 20
80.7574811526
 10
233.6539573828
 20
80.9393349238
 10
233.7214745441
 20
81.1467888899
 10
233.7630487839
 20
81.3719007321
 10
233.7770856777
 20
81.6060128756
  0
LWPOLYLINE
  5
1AD
330
1F
100
AcDbEntity
  8
0
  6
Continuous
 62
     7
370
    15
100
AcDbPolyline
 90
        9
 70
   128
 43
0.0
 10
234.7291059652
 20
81.6060128756
 10
234.7150690714
 20
81.3719007321
 10
234.6734948317
 20
81.1467888899
 10
234.6059925714
 20
80.9393349238
 10
234.5151401916
 20
80.7574811526
 10
234.4044394651
 20
80.6082460232
 10
234.2781372229
 20
80.4973664828
 10
234.1411061445
 20
80.429074461
 10
233.9985914389
 20
80.4060223646
  0
LINE
  5
1AE
330
1F
100
AcDbEntity
  8
0
  6
Continuous
 62
     7
370
    15
100
AcDbLine
 10
230.3275860706
 20
93.4060189076
 30
0.0
 11
230.3275860706
 21
80.4060223646
 31
0.0
  0
LINE
  5
1AF
330
1F
100
AcDbEntity
  8
0
  6
Continuous
 62
     7
370
    15
100
AcDbLine
 10
230.3275860706
 20
93.4060189076
 30
0.0
 11
233.0465711513
 21
93.4060189076
 31
0.0
  0
LWPOLYLINE
  5
1B0
330
1F
100
AcDbEntity
  8
0
  6
Continuous
 62
     7
370
    15
100
AcDbPolyline
 90
        9
 70
   128
 43
0.0
 10
233.7770856777
 20
92.2060134955
 10
233.7630487839
 20
92.440125639
 10
233.7214745441
 20
92.6652374811
 10
233.6539573828
 20
92.8727063484
 10
233.5631199041
 20
93.0545452185
 10
233.4524191776
 20
93.2037803478
 10
233.3261169353
 20
93.3146747895
 10
233.189085857
 20
93.38295191
 10
233.0465711513
 20
93.4060189076
  0
LINE
  5
1B1
330
1F
100
AcDbEntity
  8
0
  6
Continuous
 62
     7
370
    15
100
AcDbLine
 10
233.0465711513
 20
80.4060223646
 30
0.0
 11
230.3275860706
 21
80.4060223646
 31
0.0
  0
LINE
  5
1B2
330
1F
100
AcDbEntity
  8
0
  6
Continuous
 62
     7
370
    15
100
AcDbLine
 10
233.0465711513
 20
93.4060189076
 30
0.0
 11
233.9985914389
 21
93.4060189076
 31
0.0
  0
LWPOLYLINE
  5
1B3
330
1F
100
AcDbEntity
  8
0
  6
Continuous
 62
     7
370
    15
100
AcDbPolyline
 90
        9
 70
   128
 43
0.0
 10
233.9985914389
 20
93.4060189076
 10
234.1411061445
 20
93.38295191
 10
234.2781372229
 20
93.3146747895
 10
234.4044394651
 20
93.2037803478
 10
234.5151401916
 20
93.0545452185
 10
234.6059925714
 20
92.8727063484
 10
234.6734948317
 20
92.6652374811
 10
234.7150690714
 20
92.440125639
 10
234.7291059652
 20
92.2060134955
  0
LINE
  5
1B4
330
1F
100
AcDbEntity
  8
0
  6
Continuous
 62
     7
370
    15
100
AcDbLine
 10
233.9985914389
 20
450.4060122318
 30
0.0
 11
233.0465711513
 21
450.4060122318
 31
0.0
  0
LWPOLYLINE
  5
1B5
330
1F
100
AcDbEntity
  8
0
  6
Continuous
 62
     7
370
    15
100
AcDbPolyline
 90
        9
 70
   128
 43
0.0
 10
233.0465711513
 20
450.4060122318
 10
233.189085857
 20
450.4290792294
 10
233.3261169353
 20
450.49735635
 10
233.4524191776
 20
450.6082507916
 10
233.5631199041
 20
450.7574859209
 10
233.6539573828
 20
450.939324791
 10
233.7214745441
 20
451.1467936583
 10
233.7630487839
 20
451.3719055004
 10
233.7770856777
 20
451.606017644
  0
LINE
  5
1B6
330
1F
100
AcDbEntity
  8
0
  6
Continuous
 62
     7
370
    15
100
AcDbLine
 10
233.7770856777
 20
451.606017644
 30
0.0
 11
234.7291059652
 21
451.606017644
 31
0.0
  0
LWPOLYLINE
  5
1B7
330
1F
100
AcDbEntity
  8
0
  6
Continuous
 62
     7
370
    15
100
AcDbPolyline
 90
        9
 70
   128
 43
0.0
 10
234.7291059652
 20
451.606017644
 10
234.7150690714
 20
451.3719055004
 10
234.6734948317
 20
451.1467936583
 10
234.6059925714
 20
450.939324791
 10
234.5151401916
 20
450.7574859209
 10
234.4044394651
 20
450.6082507916
 10
234.2781372229
 20
450.49735635
 10
234.1411061445
 20
450.4290792294
 10
233.9985914389
 20
450.4060122318
  0
LINE
  5
1B8
330
1F
100
AcDbEntity
  8
0
  6
Continuous
 62
     7
370
    15
100
AcDbLine
 10
230.3275860706
 20
463.4060087748
 30
0.0
 11
230.3275860706
 21
450.4060122318
 31
0.0
  0
LINE
  5
1B9
330
1F
100
AcDbEntity
  8
0
  6
Continuous
 62
     7
370
    15
100
AcDbLine
 10
230.3275860706
 20
463.4060087748
 30
0.0
 11
233.0465711513
 21
463.4060087748
 31
0.0
  0
LWPOLYLINE
  5
1BA
330
1F
100
AcDbEntity
  8
0
  6
Continuous
 62
     7
370
    15
100
AcDbPolyline
 90
        9
 70
   128
 43
0.0
 10
233.7770856777
 20
462.2060182638
 10
233.7630487839
 20
462.4401304074
 10
233.7214745441
 20
462.6652422495
 10
233.6539573828
 20
462.8726962157
 10
233.5631199041
 20
463.0545499869
 10
233.4524191776
 20
463.2037851162
 10
233.3261169353
 20
463.3146646567
 10
233.189085857
 20
463.3829566784
 10
233.0465711513
 20
463.4060087748
  0
LINE
  5
1BB
330
1F
100
AcDbEntity
  8
0
  6
Continuous
 62
     7
370
    15
100
AcDbLine
 10
233.7770856777
 20
462.2060182638
 30
0.0
 11
233.7770856777
 21
451.606017644
 31
0.0
  0
LINE
  5
1BC
330
1F
100
AcDbEntity
  8
0
  6
Continuous
 62
     7
370
    15
100
AcDbLine
 10
233.0465711513
 20
450.4060122318
 30
0.0
 11
230.3275860706
 21
450.4060122318
 31
0.0
  0
LINE
  5
1BD
330
1F
100
AcDbEntity
  8
0
  6
Continuous
 62
     7
370
    15
100
AcDbLine
 10
234.7291059652
 20
462.2060182638
 30
0.0
 11
233.7770856777
 21
462.2060182638
 31
0.0
  0
LINE
  5
1BE
330
1F
100
AcDbEntity
  8
0
  6
Continuous
 62
     7
370
    15
100
AcDbLine
 10
234.7291059652
 20
462.2060182638
 30
0.0
 11
234.7291059652
 21
451.606017644
 31
0.0
  0
LINE
  5
1BF
330
1F
100
AcDbEntity
  8
0
  6
Continuous
 62
     7
370
    15
100
AcDbLine
 10
233.0465711513
 20
463.4060087748
 30
0.0
 11
233.9985914389
 21
463.4060087748
 31
0.0
  0
LWPOLYLINE
  5
1C0
330
1F
100
AcDbEntity
  8
0
  6
Continuous
 62
     7
370
    15
100
AcDbPolyline
 90
        9
 70
   128
 43
0.0
 10
233.9985914389
 20
463.4060087748
 10
234.1411061445
 20
463.3829566784
 10
234.2781372229
 20
463.3146646567
 10
234.4044394651
 20
463.2037851162
 10
234.5151401916
 20
463.0545499869
 10
234.6059925714
 20
462.8726962157
 10
234.6734948317
 20
462.6652422495
 10
234.7150690714
 20
462.4401304074
 10
234.7291059652
 20
462.2060182638
  0
LINE
  5
1C1
330
1F
100
AcDbEntity
  8
0
  6
Continuous
 62
     7
370
    15
100
AcDbLine
 10
229.7489739815
 20
93.4060189076
 30
0.0
 11
230.3275860706
 21
93.4060189076
 31
0.0
  0
LINE
  5
1C2
330
1F
100
AcDbEntity
  8
0
  6
Continuous
 62
     7
370
    15
100
AcDbLine
 10
230.3275860706
 20
80.4060223646
 30
0.0
 11
229.7489739815
 21
80.4060223646
 31
0.0
  0
LINE
  5
1C3
330
1F
100
AcDbEntity
  8
0
  6
Continuous
 62
     7
370
    15
100
AcDbLine
 10
229.7489739815
 20
463.4060087748
 30
0.0
 11
230.3275860706
 21
463.4060087748
 31
0.0
  0
LINE
  5
1C4
330
1F
100
AcDbEntity
  8
0
  6
Continuous
 62
     7
370
    15
100
AcDbLine
 10
230.3275860706
 20
450.4060122318
 30
0.0
 11
229.7489739815
 21
450.4060122318
 31
0.0
  0
CIRCLE
  5
1C5
330
1F
100
AcDbEntity
  8
0
  6
Continuous
 62
     7
370
    15
100
AcDbCircle
 10
240.2489738146
 20
81.9060155697
 30
0.0
 40
3.0
  0
LINE
  5
1C6
330
1F
100
AcDbEntity
  8
0
  6
Continuous
 62
     7
370
    15
100
AcDbLine
 10
240.6489796797
 20
80.0060155936
 30
0.0
 11
240.6489796797
 21
81.5060111828
 31
0.0
  0
LINE
  5
1C7
330
1F
100
AcDbEntity
  8
0
  6
Continuous
 62
     7
370
    15
100
AcDbLine
 10
240.6489796797
 20
81.5060111828
 30
0.0
 11
242.1489752689
 21
81.5060111828
 31
0.0
  0
LINE
  5
1C8
330
1F
100
AcDbEntity
  8
0
  6
Continuous
 62
     7
370
    15
100
AcDbLine
 10
242.1489752689
 20
81.5060111828
 30
0.0
 11
242.1489752689
 21
82.3060098238
 31
0.0
  0
LINE
  5
1C9
330
1F
100
AcDbEntity
  8
0
  6
Continuous
 62
     7
370
    15
100
AcDbLine
 10
242.1489752689
 20
82.3060098238
 30
0.0
 11
240.6489796797
 21
82.3060098238
 31
0.0
  0
LINE
  5
1CA
330
1F
100
AcDbEntity
  8
0
  6
Continuous
 62
     7
370
    15
100
AcDbLine
 10
240.6489796797
 20
82.3060098238
 30
0.0
 11
240.6489796797
 21
83.8060203142
 31
0.0
  0
LINE
  5
1CB
330
1F
100
AcDbEntity
  8
0
  6
Continuous
 62
     7
370
    15
100
AcDbLine
 10
239.8489810387
 20
83.8060203142
 30
0.0
 11
239.8489810387
 21
82.3060098238
 31
0.0
  0
LINE
  5
1CC
330
1F
100
AcDbEntity
  8
0
  6
Continuous
 62
     7
370
    15
100
AcDbLine
 10
238.3489705482
 20
82.3060098238
 30
0.0
 11
238.3489705482
 21
81.5060111828
 31
0.0
  0
LINE
  5
1CD
330
1F
100
AcDbEntity
  8
0
  6
Continuous
 62
     7
370
    15
100
AcDbLine
 10
238.3489705482
 20
81.5060111828
 30
0.0
 11
239.8489810387
 21
81.5060111828
 31
0.0
  0
LINE
  5
1CE
330
1F
100
AcDbEntity
  8
0
  6
Continuous
 62
     7
370
    15
100
AcDbLine
 10
239.8489810387
 20
80.0060155936
 30
0.0
 11
240.6489796797
 21
80.0060155936
 31
0.0
  0
LINE
  5
1CF
330
1F
100
AcDbEntity
  8
0
  6
Continuous
 62
     7
370
    15
100
AcDbLine
 10
240.6489796797
 20
83.8060203142
 30
0.0
 11
239.8489810387
 21
83.8060203142
 31
0.0
  0
LINE
  5
1D0
330
1F
100
AcDbEntity
  8
0
  6
Continuous
 62
     7
370
    15
100
AcDbLine
 10
239.8489810387
 20
82.3060098238
 30
0.0
 11
238.3489705482
 21
82.3060098238
 31
0.0
  0
LINE
  5
1D1
330
1F
100
AcDbEntity
  8
0
  6
Continuous
 62
     7
370
    15
100
AcDbLine
 10
239.8489810387
 20
81.5060111828
 30
0.0
 11
239.8489810387
 21
80.0060155936
 31
0.0
  0
CIRCLE
  5
1D2
330
1F
100
AcDbEntity
  8
0
  6
Continuous
 62
     7
370
    15
100
AcDbCircle
 10
240.2489738146
 20
91.9060155697
 30
0.0
 40
2.999999999999972
  0
LINE
  5
1D3
330
1F
100
AcDbEntity
  8
0
  6
Continuous
 62
     7
370
    15
100
AcDbLine
 10
239.8489810387
 20
92.3060151882
 30
0.0
 11
238.3489705482
 21
92.3060151882
 31
0.0
  0
LINE
  5
1D4
330
1F
100
AcDbEntity
  8
0
  6
Continuous
 62
     7
370
    15
100
AcDbLine
 10
238.3489705482
 20
92.3060151882
 30
0.0
 11
238.3489705482
 21
91.5060165472
 31
0.0
  0
LINE
  5
1D5
330
1F
100
AcDbEntity
  8
0
  6
Continuous
 62
     7
370
    15
100
AcDbLine
 10
238.3489705482
 20
91.5060165472
 30
0.0
 11
239.8489810387
 21
91.5060165472
 31
0.0
  0
LINE
  5
1D6
330
1F
100
AcDbEntity
  8
0
  6
Continuous
 62
     7
370
    15
100
AcDbLine
 10
239.8489810387
 20
91.5060165472
 30
0.0
 11
239.8489810387
 21
90.006020958
 31
0.0
  0
LINE
  5
1D7
330
1F
100
AcDbEntity
  8
0
  6
Continuous
 62
     7
370
    15
100
AcDbLine
 10
239.8489810387
 20
90.006020958
 30
0.0
 11
240.6489796797
 21
90.006020958
 31
0.0
  0
LINE
  5
1D8
330
1F
100
AcDbEntity
  8
0
  6
Continuous
 62
     7
370
    15
100
AcDbLine
 10
240.6489796797
 20
90.006020958
 30
0.0
 11
240.6489796797
 21
91.5060165472
 31
0.0
  0
LINE
  5
1D9
330
1F
100
AcDbEntity
  8
0
  6
Continuous
 62
     7
370
    15
100
AcDbLine
 10
240.6489796797
 20
91.5060165472
 30
0.0
 11
242.1489752689
 21
91.5060165472
 31
0.0
  0
LINE
  5
1DA
330
1F
100
AcDbEntity
  8
0
  6
Continuous
 62
     7
370
    15
100
AcDbLine
 10
242.1489752689
 20
91.5060165472
 30
0.0
 11
242.1489752689
 21
92.3060151882
 31
0.0
  0
LINE
  5
1DB
330
1F
100
AcDbEntity
  8
0
  6
Continuous
 62
     7
370
    15
100
AcDbLine
 10
242.1489752689
 20
92.3060151882
 30
0.0
 11
240.6489796797
 21
92.3060151882
 31
0.0
  0
LINE
  5
1DC
330
1F
100
AcDbEntity
  8
0
  6
Continuous
 62
     7
370
    15
100
AcDbLine
 10
240.6489796797
 20
92.3060151882
 30
0.0
 11
240.6489796797
 21
93.8060107775
 31
0.0
  0
LINE
  5
1DD
330
1F
100
AcDbEntity
  8
0
  6
Continuous
 62
     7
370
    15
100
AcDbLine
 10
239.8489810387
 20
93.8060107775
 30
0.0
 11
239.8489810387
 21
92.3060151882
 31
0.0
  0
LINE
  5
1DE
330
1F
100
AcDbEntity
  8
0
  6
Continuous
 62
     7
370
    15
100
AcDbLine
 10
240.6489796797
 20
93.8060107775
 30
0.0
 11
239.8489810387
 21
93.8060107775
 31
0.0
  0
LINE
  5
1DF
330
1F
100
AcDbEntity
  8
0
  6
Continuous
 62
     7
370
    15
100
AcDbLine
 10
242.1489752689
 20
451.5060159512
 30
0.0
 11
242.1489752689
 21
452.3060145922
 31
0.0
  0
LINE
  5
1E0
330
1F
100
AcDbEntity
  8
0
  6
Continuous
 62
     7
370
    15
100
AcDbLine
 10
238.3489705482
 20
452.3060145922
 30
0.0
 11
238.3489705482
 21
451.5060159512
 31
0.0
  0
LINE
  5
1E1
330
1F
100
AcDbEntity
  8
0
  6
Continuous
 62
     7
370
    15
100
AcDbLine
 10
240.6489796797
 20
452.3060145922
 30
0.0
 11
240.6489796797
 21
453.8060101814
 31
0.0
  0
LINE
  5
1E2
330
1F
100
AcDbEntity
  8
0
  6
Continuous
 62
     7
370
    15
100
AcDbLine
 10
239.8489810387
 20
451.5060159512
 30
0.0
 11
239.8489810387
 21
450.0060203619
 31
0.0
  0
LINE
  5
1E3
330
1F
100
AcDbEntity
  8
0
  6
Continuous
 62
     7
370
    15
100
AcDbLine
 10
240.6489796797
 20
451.5060159512
 30
0.0
 11
242.1489752689
 21
451.5060159512
 31
0.0
  0
LINE
  5
1E4
330
1F
100
AcDbEntity
  8
0
  6
Continuous
 62
     7
370
    15
100
AcDbLine
 10
242.1489752689
 20
452.3060145922
 30
0.0
 11
240.6489796797
 21
452.3060145922
 31
0.0
  0
LINE
  5
1E5
330
1F
100
AcDbEntity
  8
0
  6
Continuous
 62
     7
370
    15
100
AcDbLine
 10
240.6489796797
 20
453.8060101814
 30
0.0
 11
239.8489810387
 21
453.8060101814
 31
0.0
  0
LINE
  5
1E6
330
1F
100
AcDbEntity
  8
0
  6
Continuous
 62
     7
370
    15
100
AcDbLine
 10
239.8489810387
 20
452.3060145922
 30
0.0
 11
238.3489705482
 21
452.3060145922
 31
0.0
  0
LINE
  5
1E7
330
1F
100
AcDbEntity
  8
0
  6
Continuous
 62
     7
370
    15
100
AcDbLine
 10
238.3489705482
 20
451.5060159512
 30
0.0
 11
239.8489810387
 21
451.5060159512
 31
0.0
  0
LINE
  5
1E8
330
1F
100
AcDbEntity
  8
0
  6
Continuous
 62
     7
370
    15
100
AcDbLine
 10
239.8489810387
 20
450.0060203619
 30
0.0
 11
240.6489796797
 21
450.0060203619
 31
0.0
  0
CIRCLE
  5
1E9
330
1F
100
AcDbEntity
  8
0
  6
Continuous
 62
     7
370
    15
100
AcDbCircle
 10
240.2489738146
 20
451.9060155697
 30
0.0
 40
3.0
  0
LINE
  5
1EA
330
1F
100
AcDbEntity
  8
0
  6
Continuous
 62
     7
370
    15
100
AcDbLine
 10
239.8489810387
 20
453.8060101814
 30
0.0
 11
239.8489810387
 21
452.3060145922
 31
0.0
  0
LINE
  5
1EB
330
1F
100
AcDbEntity
  8
0
  6
Continuous
 62
     7
370
    15
100
AcDbLine
 10
240.6489796797
 20
450.0060203619
 30
0.0
 11
240.6489796797
 21
451.5060159512
 31
0.0
  0
LINE
  5
1EC
330
1F
100
AcDbEntity
  8
0
  6
Continuous
 62
     7
370
    15
100
AcDbLine
 10
239.8489810387
 20
462.3060199566
 30
0.0
 11
238.3489705482
 21
462.3060199566
 31
0.0
  0
LINE
  5
1ED
330
1F
100
AcDbEntity
  8
0
  6
Continuous
 62
     7
370
    15
100
AcDbLine
 10
238.3489705482
 20
462.3060199566
 30
0.0
 11
238.3489705482
 21
461.5060213156
 31
0.0
  0
LINE
  5
1EE
330
1F
100
AcDbEntity
  8
0
  6
Continuous
 62
     7
370
    15
100
AcDbLine
 10
238.3489705482
 20
461.5060213156
 30
0.0
 11
239.8489810387
 21
461.5060213156
 31
0.0
  0
LINE
  5
1EF
330
1F
100
AcDbEntity
  8
0
  6
Continuous
 62
     7
370
    15
100
AcDbLine
 10
239.8489810387
 20
461.5060213156
 30
0.0
 11
239.8489810387
 21
460.0060108252
 31
0.0
  0
LINE
  5
1F0
330
1F
100
AcDbEntity
  8
0
  6
Continuous
 62
     7
370
    15
100
AcDbLine
 10
239.8489810387
 20
460.0060108252
 30
0.0
 11
240.6489796797
 21
460.0060108252
 31
0.0
  0
LINE
  5
1F1
330
1F
100
AcDbEntity
  8
0
  6
Continuous
 62
     7
370
    15
100
AcDbLine
 10
240.6489796797
 20
460.0060108252
 30
0.0
 11
240.6489796797
 21
461.5060213156
 31
0.0
  0
LINE
  5
1F2
330
1F
100
AcDbEntity
  8
0
  6
Continuous
 62
     7
370
    15
100
AcDbLine
 10
242.1489752689
 20
461.5060213156
 30
0.0
 11
242.1489752689
 21
462.3060199566
 31
0.0
  0
LINE
  5
1F3
330
1F
100
AcDbEntity
  8
0
  6
Continuous
 62
     7
370
    15
100
AcDbLine
 10
240.6489796797
 20
462.3060199566
 30
0.0
 11
240.6489796797
 21
463.8060155459
 31
0.0
  0
LINE
  5
1F4
330
1F
100
AcDbEntity
  8
0
  6
Continuous
 62
     7
370
    15
100
AcDbLine
 10
240.6489796797
 20
463.8060155459
 30
0.0
 11
239.8489810387
 21
463.8060155459
 31
0.0
  0
LINE
  5
1F5
330
1F
100
AcDbEntity
  8
0
  6
Continuous
 62
     7
370
    15
100
AcDbLine
 10
239.8489810387
 20
463.8060155459
 30
0.0
 11
239.8489810387
 21
462.3060199566
 31
0.0
  0
CIRCLE
  5
1F6
330
1F
100
AcDbEntity
  8
0
  6
Continuous
 62
     7
370
    15
100
AcDbCircle
 10
240.2489738146
 20
461.9060155697
 30
0.0
 40
3.0
  0
LINE
  5
1F7
330
1F
100
AcDbEntity
  8
0
  6
Continuous
 62
     7
370
    15
100
AcDbLine
 10
240.6489796797
 20
461.5060213156
 30
0.0
 11
242.1489752689
 21
461.5060213156
 31
0.0
  0
LINE
  5
1F8
330
1F
100
AcDbEntity
  8
0
  6
Continuous
 62
     7
370
    15
100
AcDbLine
 10
242.1489752689
 20
462.3060199566
 30
0.0
 11
240.6489796797
 21
462.3060199566
 31
0.0
  0
LINE
  5
1F9
330
1F
100
AcDbEntity
  8
0
  6
Continuous
 62
     7
370
    15
100
AcDbLine
 10
234.2489756504
 20
93.4060189076
 30
0.0
 11
239.2312086979
 21
98.0078998156
 31
0.0
  0
ARC
  5
1FA
330
1F
100
AcDbEntity
  8
0
  6
Continuous
 62
     7
370
    15
100
AcDbCircle
 10
240.2489738146
 20
96.9060155697
 30
0.0
 40
1.50000000000002
100
AcDbArc
 50
43.6028189726
 51
132.7273953127
  0
ARC
  5
1FB
330
1F
100
AcDbEntity
  8
0
  6
Continuous
 62
     7
370
    15
100
AcDbCircle
 10
229.7489738146
 20
86.9060155697
 30
0.0
 40
16.0000000000002
100
AcDbArc
 50
316.3971810272
 51
43.6028189726
  0
LINE
  5
1FC
330
1F
100
AcDbEntity
  8
0
  6
Continuous
 62
     7
370
    15
100
AcDbLine
 10
239.2312086979
 20
75.8041265555
 30
0.0
 11
234.2489756504
 21
80.4060223646
 31
0.0
  0
ARC
  5
1FD
330
1F
100
AcDbEntity
  8
0
  6
Continuous
 62
     7
370
    15
100
AcDbCircle
 10
240.2489738146
 20
76.9060155697
 30
0.0
 40
1.500000000000087
100
AcDbArc
 50
227.2726046868
 51
316.3971810272
  0
LINE
  5
1FE
330
1F
100
AcDbEntity
  8
0
  6
Continuous
 62
     7
370
    15
100
AcDbLine
 10
234.0479589859
 20
93.4060189076
 30
0.0
 11
234.2489756504
 21
93.4060189076
 31
0.0
  0
LINE
  5
1FF
330
1F
100
AcDbEntity
  8
0
  6
Continuous
 62
     7
370
    15
100
AcDbLine
 10
234.2489756504
 20
80.4060223646
 30
0.0
 11
234.0479589859
 21
80.4060223646
 31
0.0
  0
LINE
  5
200
330
1F
100
AcDbEntity
  8
0
  6
Continuous
 62
     7
370
    15
100
AcDbLine
 10
239.2312086979
 20
445.8041313238
 30
0.0
 11
234.2489756504
 21
450.4060122318
 31
0.0
  0
LINE
  5
201
330
1F
100
AcDbEntity
  8
0
  6
Continuous
 62
     7
370
    15
100
AcDbLine
 10
234.2489756504
 20
463.4060087748
 30
0.0
 11
239.2312086979
 21
468.007904584
 31
0.0
  0
ARC
  5
202
330
1F
100
AcDbEntity
  8
0
  6
Continuous
 62
     7
370
    15
100
AcDbCircle
 10
240.2489738146
 20
466.9060155697
 30
0.0
 40
1.49999999999999
100
AcDbArc
 50
43.6028189726
 51
132.7273953127
  0
ARC
  5
203
330
1F
100
AcDbEntity
  8
0
  6
Continuous
 62
     7
370
    15
100
AcDbCircle
 10
229.7489738146
 20
456.9060155697
 30
0.0
 40
16.00000000000017
100
AcDbArc
 50
316.3971810272
 51
43.6028189726
  0
ARC
  5
204
330
1F
100
AcDbEntity
  8
0
  6
Continuous
 62
     7
370
    15
100
AcDbCircle
 10
240.2489738146
 20
446.9060155697
 30
0.0
 40
1.499999999999805
100
AcDbArc
 50
227.2726046868
 51
316.3971810272
  0
LINE
  5
205
330
1F
100
AcDbEntity
  8
0
  6
Continuous
 62
     7
370
    15
100
AcDbLine
 10
234.0479589859
 20
463.4060087748
 30
0.0
 11
234.2489756504
 21
463.4060087748
 31
0.0
  0
LINE
  5
206
330
1F
100
AcDbEntity
  8
0
  6
Continuous
 62
     7
370
    15
100
AcDbLine
 10
234.2489756504
 20
450.4060122318
 30
0.0
 11
234.0479589859
 21
450.4060122318
 31
0.0
  0
LINE
  5
207
330
1F
100
AcDbEntity
  8
0
  6
Continuous
 62
     7
370
    15
100
AcDbLine
 10
257.2489775578
 20
36.9060161658
 30
0.0
 11
257.2489775578
 21
506.9060149737
 31
0.0
  0
LINE
  5
208
330
1F
100
AcDbEntity
  8
0
  6
Continuous
 62
     7
370
    15
100
AcDbLine
 10
242.2489769617
 20
36.9060161658
 30
0.0
 11
257.2489775578
 21
36.9060161658
 31
0.0
  0
LINE
  5
209
330
1F
100
AcDbEntity
  8
0
  6
Continuous
 62
     7
370
    15
100
AcDbLine
 10
242.2489769617
 20
76.9185247965
 30
0.0
 11
242.2489769617
 21
36.9060161658
 31
0.0
  0
LINE
  5
20A
330
1F
100
AcDbEntity
  8
0
  6
Continuous
 62
     7
370
    15
100
AcDbLine
 10
242.2489769617
 20
96.8935015745
 30
0.0
 11
242.2489769617
 21
446.9185295649
 31
0.0
  0
LINE
  5
20B
330
1F
100
AcDbEntity
  8
0
  6
Continuous
 62
     7
370
    15
100
AcDbLine
 10
242.2489769617
 20
466.8935063429
 30
0.0
 11
242.2489769617
 21
506.9060149737
 31
0.0
  0
LINE
  5
20C
330
1F
100
AcDbEntity
  8
0
  6
Continuous
 62
     7
370
    15
100
AcDbLine
 10
242.2489769617
 20
506.9060149737
 30
0.0
 11
257.2489775578
 21
506.9060149737
 31
0.0
  0
LINE
  5
20D
330
1F
100
AcDbEntity
  8
0
  6
Continuous
 62
     7
370
    15
100
AcDbLine
 10
237.2489668289
 20
21.9060155697
 30
0.0
 11
242.2489769617
 21
21.9060155697
 31
0.0
  0
LINE
  5
20E
330
1F
100
AcDbEntity
  8
0
  6
Continuous
 62
     7
370
    15
100
AcDbLine
 10
237.2489668289
 20
36.9060161658
 30
0.0
 11
237.2489668289
 21
21.9060155697
 31
0.0
  0
LINE
  5
20F
330
1F
100
AcDbEntity
  8
0
  6
Continuous
 62
     7
370
    15
100
AcDbLine
 10
237.2489668289
 20
36.9060161658
 30
0.0
 11
242.2489769617
 21
36.9060161658
 31
0.0
  0
LINE
  5
210
330
1F
100
AcDbEntity
  8
0
  6
Continuous
 62
     7
370
    15
100
AcDbLine
 10
242.2489769617
 20
36.9060161658
 30
0.0
 11
242.2489769617
 21
21.9060155697
 31
0.0
  0
ARC
  5
211
330
1F
100
AcDbEntity
  8
0
  6
Continuous
 62
     7
370
    15
100
AcDbCircle
 10
242.2489738146
 20
36.9060155697
 30
0.0
 40
15.00000000000001
100
AcDbArc
 50
270.0
 51
0.0
  0
LINE
  5
212
330
1F
100
AcDbEntity
  8
0
  6
Continuous
 62
     7
370
    15
100
AcDbLine
 10
237.2489668289
 20
77.6350322314
 30
0.0
 11
237.2489668289
 21
36.9060161658
 31
0.0
  0
LINE
  5
213
330
1F
100
AcDbEntity
  8
0
  6
Continuous
 62
     7
370
    15
100
AcDbLine
 10
237.2489668289
 20
96.1769941397
 30
0.0
 11
237.2489668289
 21
447.6350369997
 31
0.0
  0
LINE
  5
214
330
1F
100
AcDbEntity
  8
0
  6
Continuous
 62
     7
370
    15
100
AcDbLine
 10
237.2489668289
 20
506.9060149737
 30
0.0
 11
242.2489769617
 21
506.9060149737
 31
0.0
  0
LINE
  5
215
330
1F
100
AcDbEntity
  8
0
  6
Continuous
 62
     7
370
    15
100
AcDbLine
 10
237.2489668289
 20
466.1769989081
 30
0.0
 11
237.2489668289
 21
506.9060149737
 31
0.0
  0
LINE
  5
216
330
1F
100
AcDbEntity
  8
0
  6
Continuous
 62
     7
370
    15
100
AcDbLine
 10
242.2489769617
 20
506.9060149737
 30
0.0
 11
242.2489769617
 21
521.9060155697
 31
0.0
  0
ARC
  5
217
330
1F
100
AcDbEntity
  8
0
  6
Continuous
 62
     7
370
    15
100
AcDbCircle
 10
242.2489738146
 20
506.9060155697
 30
0.0
 40
15.00000000000006
100
AcDbArc
 50
0.0
 51
90.0
  0
LINE
  5
218
330
1F
100
AcDbEntity
  8
0
  6
Continuous
 62
     7
370
    15
100
AcDbLine
 10
237.2489668289
 20
521.9060155697
 30
0.0
 11
242.2489769617
 21
521.9060155697
 31
0.0
  0
LINE
  5
219
330
1F
100
AcDbEntity
  8
0
  6
Continuous
 62
     7
370
    15
100
AcDbLine
 10
237.2489668289
 20
506.9060149737
 30
0.0
 11
237.2489668289
 21
521.9060155697
 31
0.0
  0
LINE
  5
21A
330
1F
100
AcDbEntity
  8
0
  6
Continuous
 62
     7
370
    15
100
AcDbLine
 10
220.4599030176
 20
82.206008131
 30
0.0
 11
220.4599030176
 21
90.806019599
 31
0.0
  0
LINE
  5
21B
330
1F
100
AcDbEntity
  8
0
  6
Continuous
 62
     7
370
    15
100
AcDbLine
 10
214.9456091085
 20
82.206008131
 30
0.0
 11
214.9456091085
 21
90.806019599
 31
0.0
  0
LINE
  5
21C
330
1F
100
AcDbEntity
  8
0
  6
Continuous
 62
     7
370
    15
100
AcDbLine
 10
220.4599030176
 20
82.206008131
 30
0.0
 11
214.9456091085
 21
82.206008131
 31
0.0
  0
LINE
  5
21D
330
1F
100
AcDbEntity
  8
0
  6
Continuous
 62
     7
370
    15
100
AcDbLine
 10
220.4599030176
 20
90.806019599
 30
0.0
 11
214.9456091085
 21
90.806019599
 31
0.0
  0
LINE
  5
21E
330
1F
100
AcDbEntity
  8
0
  6
Continuous
 62
     7
370
    15
100
AcDbLine
 10
213.8313449779
 20
94.1060158558
 30
0.0
 11
189.0192426601
 21
94.1060158558
 31
0.0
  0
LINE
  5
21F
330
1F
100
AcDbEntity
  8
0
  6
Continuous
 62
     7
370
    15
100
AcDbLine
 10
213.8313449779
 20
90.806019599
 30
0.0
 11
213.8313449779
 21
94.1060158558
 31
0.0
  0
LINE
  5
220
330
1F
100
AcDbEntity
  8
0
  6
Continuous
 62
     7
370
    15
100
AcDbLine
 10
213.8313449779
 20
79.7060105152
 30
0.0
 11
213.8313449779
 21
82.206008131
 31
0.0
  0
LINE
  5
221
330
1F
100
AcDbEntity
  8
0
  6
Continuous
 62
     7
370
    15
100
AcDbLine
 10
189.0192426601
 20
79.7060105152
 30
0.0
 11
213.8313449779
 21
79.7060105152
 31
0.0
  0
LINE
  5
222
330
1F
100
AcDbEntity
  8
0
  6
Continuous
 62
     7
370
    15
100
AcDbLine
 10
189.0192426601
 20
79.7060105152
 30
0.0
 11
189.0192426601
 21
94.1060158558
 31
0.0
  0
LINE
  5
223
330
1F
100
AcDbEntity
  8
0
  6
Continuous
 62
     7
370
    15
100
AcDbLine
 10
213.8313449779
 20
82.206008131
 30
0.0
 11
214.9456091085
 21
82.206008131
 31
0.0
  0
LINE
  5
224
330
1F
100
AcDbEntity
  8
0
  6
Continuous
 62
     7
370
    15
100
AcDbLine
 10
213.8313449779
 20
90.806019599
 30
0.0
 11
214.9456091085
 21
90.806019599
 31
0.0
  0
LINE
  5
225
330
1F
100
AcDbEntity
  8
0
  6
Continuous
 62
     7
370
    15
100
AcDbLine
 10
213.9589734236
 20
78.9086642809
 30
0.0
 11
215.8512122789
 21
78.9086642809
 31
0.0
  0
LINE
  5
226
330
1F
100
AcDbEntity
  8
0
  6
Continuous
 62
     7
370
    15
100
AcDbLine
 10
215.8512122789
 20
78.9086642809
 30
0.0
 11
216.5239699045
 21
78.9060118742
 31
0.0
  0
LINE
  5
227
330
1F
100
AcDbEntity
  8
0
  6
Continuous
 62
     7
370
    15
100
AcDbLine
 10
216.5239699045
 20
78.9060118742
 30
0.0
 11
189.1581661859
 21
78.9060118742
 31
0.0
  0
ARC
  5
228
330
1F
100
AcDbEntity
  8
0
  6
Continuous
 62
     7
370
    15
100
AcDbCircle
 10
190.2751654571
 20
79.5120457323
 30
0.0
 40
1.270812499494439
100
AcDbArc
 50
171.2205995842
 51
208.4822784261
  0
ARC
  5
229
330
1F
100
AcDbEntity
  8
0
  6
Continuous
 62
     7
370
    15
100
AcDbCircle
 10
215.3056599665
 20
79.5331113624
 30
0.0
 40
1.484418674970838
100
AcDbArc
 50
173.3112340828
 51
204.8767532576
  0
LINE
  5
22A
330
1F
100
AcDbEntity
  8
0
  6
Continuous
 62
     7
370
    15
100
AcDbLine
 10
215.8512122789
 20
94.9033620901
 30
0.0
 11
213.9589734236
 21
94.9033620901
 31
0.0
  0
ARC
  5
22B
330
1F
100
AcDbEntity
  8
0
  6
Continuous
 62
     7
370
    15
100
AcDbCircle
 10
215.3056314241
 20
94.2789195773
 30
0.0
 40
1.484390858944842
100
AcDbArc
 50
155.1229432741
 51
186.6890693855
  0
ARC
  5
22C
330
1F
100
AcDbEntity
  8
0
  6
Continuous
 62
     7
370
    15
100
AcDbCircle
 10
190.2751654571
 20
94.2999806387
 30
0.0
 40
1.270812499494435
100
AcDbArc
 50
151.5177215739
 51
188.7794004158
  0
LINE
  5
22D
330
1F
100
AcDbEntity
  8
0
  6
Continuous
 62
     7
370
    15
100
AcDbLine
 10
189.1581661859
 20
94.9060144968
 30
0.0
 11
216.5239699045
 21
94.9060144968
 31
0.0
  0
LINE
  5
22E
330
1F
100
AcDbEntity
  8
0
  6
Continuous
 62
     7
370
    15
100
AcDbLine
 10
216.5239699045
 20
94.9060144968
 30
0.0
 11
215.8512122789
 21
94.9033620901
 31
0.0
  0
LINE
  5
22F
330
1F
100
AcDbEntity
  8
0
  6
Continuous
 62
     7
370
    15
100
AcDbLine
 10
213.9589734236
 20
78.9086642809
 30
0.0
 11
213.9589734236
 21
79.7060105152
 31
0.0
  0
LINE
  5
230
330
1F
100
AcDbEntity
  8
0
  6
Continuous
 62
     7
370
    15
100
AcDbLine
 10
213.9702685038
 20
82.206008131
 30
0.0
 11
213.9702685038
 21
79.7060105152
 31
0.0
  0
LINE
  5
231
330
1F
100
AcDbEntity
  8
0
  6
Continuous
 62
     7
370
    15
100
AcDbLine
 10
213.9589734236
 20
94.1060158558
 30
0.0
 11
213.9589734236
 21
94.9033620901
 31
0.0
  0
LINE
  5
232
330
1F
100
AcDbEntity
  8
0
  6
Continuous
 62
     7
370
    15
100
AcDbLine
 10
213.9702685038
 20
94.1060158558
 30
0.0
 11
213.9702685038
 21
90.806019599
 31
0.0
  0
LINE
  5
233
330
1F
100
AcDbEntity
  8
0
  6
Continuous
 62
     7
370
    15
100
AcDbLine
 10
219.9589706818
 20
78.9060118742
 30
0.0
 11
216.5239699045
 21
78.9060118742
 31
0.0
  0
LINE
  5
234
330
1F
100
AcDbEntity
  8
0
  6
Continuous
 62
     7
370
    15
100
AcDbLine
 10
215.8512122789
 20
78.9086642809
 30
0.0
 11
215.8512122789
 21
79.7060105152
 31
0.0
  0
LINE
  5
235
330
1F
100
AcDbEntity
  8
0
  6
Continuous
 62
     7
370
    15
100
AcDbLine
 10
219.9589706818
 20
79.7060105152
 30
0.0
 11
215.8512122789
 21
79.7060105152
 31
0.0
  0
LINE
  5
236
330
1F
100
AcDbEntity
  8
0
  6
Continuous
 62
     7
370
    15
100
AcDbLine
 10
215.8512122789
 20
94.1060158558
 30
0.0
 11
215.8512122789
 21
94.9033620901
 31
0.0
  0
LINE
  5
237
330
1F
100
AcDbEntity
  8
0
  6
Continuous
 62
     7
370
    15
100
AcDbLine
 10
219.9589706818
 20
94.9060144968
 30
0.0
 11
216.5239699045
 21
94.9060144968
 31
0.0
  0
LINE
  5
238
330
1F
100
AcDbEntity
  8
0
  6
Continuous
 62
     7
370
    15
100
AcDbLine
 10
219.9589706818
 20
94.1060158558
 30
0.0
 11
215.8512122789
 21
94.1060158558
 31
0.0
  0
LINE
  5
239
330
1F
100
AcDbEntity
  8
0
  6
Continuous
 62
     7
370
    15
100
AcDbLine
 10
213.9589734236
 20
79.7060105152
 30
0.0
 11
215.8512122789
 21
79.7060105152
 31
0.0
  0
LINE
  5
23A
330
1F
100
AcDbEntity
  8
0
  6
Continuous
 62
     7
370
    15
100
AcDbLine
 10
213.9589734236
 20
94.1060158558
 30
0.0
 11
215.8512122789
 21
94.1060158558
 31
0.0
  0
LINE
  5
23B
330
1F
100
AcDbEntity
  8
0
  6
Continuous
 62
     7
370
    15
100
AcDbLine
 10
215.0289811054
 20
95.2060195751
 30
0.0
 11
219.4289810816
 21
95.2060195751
 31
0.0
  0
LINE
  5
23C
330
1F
100
AcDbEntity
  8
0
  6
Continuous
 62
     7
370
    15
100
AcDbLine
 10
215.128967897
 20
78.5060200043
 30
0.0
 11
219.3289793888
 21
78.5060200043
 31
0.0
  0
LINE
  5
23D
330
1F
100
AcDbEntity
  8
0
  6
Continuous
 62
     7
370
    15
100
AcDbLine
 10
215.128967897
 20
78.1060132332
 30
0.0
 11
219.3289793888
 21
78.1060132332
 31
0.0
  0
LINE
  5
23E
330
1F
100
AcDbEntity
  8
0
  6
Continuous
 62
     7
370
    15
100
AcDbLine
 10
184.1203965107
 20
94.1060158558
 30
0.0
 11
182.1309126774
 21
94.1060158558
 31
0.0
  0
LINE
  5
23F
330
1F
100
AcDbEntity
  8
0
  6
Continuous
 62
     7
370
    15
100
AcDbLine
 10
184.1203965107
 20
79.7060105152
 30
0.0
 11
184.1203965107
 21
94.1060158558
 31
0.0
  0
LINE
  5
240
330
1F
100
AcDbEntity
  8
0
  6
Continuous
 62
     7
370
    15
100
AcDbLine
 10
182.1309126774
 20
79.7060105152
 30
0.0
 11
184.1203965107
 21
79.7060105152
 31
0.0
  0
ARC
  5
241
330
1F
100
AcDbEntity
  8
0
  6
Continuous
 62
     7
370
    15
100
AcDbCircle
 10
197.4248871001
 20
86.9060131855
 30
0.0
 40
16.90401408232909
100
AcDbArc
 50
154.7901718738
 51
205.2098281262
  0
SPLINE
  5
242
330
1F
100
AcDbEntity
  8
0
  6
Continuous
 62
     7
370
    15
100
AcDbSpline
210
0.0
220
0.0
230
1.0
 70
     8
 71
     3
 72
    12
 73
     8
 74
     0
 42
0.00000001
 43
0.00000001
 40
0.0
 40
0.0
 40
0.0
 40
0.0
 40
0.1818825444540627
 40
0.3633449413033811
 40
0.5550836662988128
 40
0.7712676109962568
 40
1.0
 40
1.0
 40
1.0
 40
1.0
 10
182.2632945934254
 20
78.90601187422125
 30
0.0
 10
182.2871516964018
 20
78.91333427196068
 30
0.0
 10
182.3348107925876
 20
78.92796215274394
 30
0.0
 10
182.3495616060353
 20
79.03995869308974
 30
0.0
 10
182.3223275595539
 20
79.20935426691588
 30
0.0
 10
182.2506520185306
 20
79.43776072229814
 30
0.0
 10
182.171569275746
 20
79.61492830291864
 30
0.0
 10
182.1309126773793
 20
79.70601051523532
 30
0.0
  0
LINE
  5
243
330
1F
100
AcDbEntity
  8
0
  6
Continuous
 62
     7
370
    15
100
AcDbLine
 10
181.8789340416
 20
79.6605172701
 30
0.0
 11
182.2333730617
 21
78.9060118742
 31
0.0
  0
ARC
  5
244
330
1F
100
AcDbEntity
  8
0
  6
Continuous
 62
     7
370
    15
100
AcDbCircle
 10
197.1494696904
 20
86.9060131855
 30
0.0
 40
16.90226227646351
100
AcDbArc
 50
154.6168036234
 51
205.3831963766
  0
LINE
  5
245
330
1F
100
AcDbEntity
  8
0
  6
Continuous
 62
     7
370
    15
100
AcDbLine
 10
182.2333730617
 20
94.9060144968
 30
0.0
 11
181.8789340416
 21
94.1515091009
 31
0.0
  0
SPLINE
  5
246
330
1F
100
AcDbEntity
  8
0
  6
Continuous
 62
     7
370
    15
100
AcDbSpline
210
0.0
220
0.0
230
1.0
 70
     8
 71
     3
 72
    12
 73
     8
 74
     0
 42
0.00000001
 43
0.00000001
 40
0.0
 40
0.0
 40
0.0
 40
0.0
 40
0.2510209521689922
 40
0.5023973771521156
 40
0.7402779134105443
 40
0.9473077532403449
 40
1.0
 40
1.0
 40
1.0
 40
1.0
 10
182.1309126773792
 20
94.10601585581152
 30
0.0
 10
182.1752307218712
 20
94.20590150611635
 30
0.0
 10
182.2639295699988
 20
94.40581425560856
 30
0.0
 10
182.3389180698225
 20
94.66453159410531
 30
0.0
 10
182.350425367768
 20
94.84176948643625
 30
0.0
 10
182.3087768363853
 20
94.90222944911208
 30
0.0
 10
182.2709656933507
 20
94.90537610528327
 30
0.0
 10
182.2632945934254
 20
94.90601449682562
 30
0.0
  0
LINE
  5
247
330
1F
100
AcDbEntity
  8
0
  6
Continuous
 62
     7
370
    15
100
AcDbLine
 10
182.2632945934
 20
94.9060144968
 30
0.0
 11
182.2333730617
 21
94.9060144968
 31
0.0
  0
LINE
  5
248
330
1F
100
AcDbEntity
  8
0
  6
Continuous
 62
     7
370
    15
100
AcDbLine
 10
182.2632945934
 20
78.9060118742
 30
0.0
 11
182.2333730617
 21
78.9060118742
 31
0.0
  0
LWPOLYLINE
  5
249
330
1F
100
AcDbEntity
  8
0
  6
Continuous
 62
     7
370
    15
100
AcDbPolyline
 90
        9
 70
   128
 43
0.0
 10
184.1203965107
 20
94.1060158558
 10
184.1151364008
 20
94.2620906182
 10
184.0995646873
 20
94.4121602125
 10
184.0742774168
 20
94.5504727907
 10
184.0402580658
 20
94.6716937371
 10
183.9987881342
 20
94.7711887903
 10
183.9514769474
 20
94.845113451
 10
183.9001573482
 20
94.8906364985
 10
183.8467813889
 20
94.9060144968
  0
LINE
  5
24A
330
1F
100
AcDbEntity
  8
0
  6
Continuous
 62
     7
370
    15
100
AcDbLine
 10
182.2632945934
 20
94.9060144968
 30
0.0
 11
183.8467813889
 21
94.9060144968
 31
0.0
  0
LWPOLYLINE
  5
24B
330
1F
100
AcDbEntity
  8
0
  6
Continuous
 62
     7
370
    15
100
AcDbPolyline
 90
        9
 70
   128
 43
0.0
 10
184.1203965107
 20
79.7060105152
 10
184.1151364008
 20
79.5499506541
 10
184.0995646873
 20
79.3998661585
 10
184.0742774168
 20
79.2615535803
 10
184.0402580658
 20
79.140332634
 10
183.9987881342
 20
79.0408375807
 10
183.9514769474
 20
78.96691292
 10
183.9001573482
 20
78.9213898726
 10
183.8467813889
 20
78.9060118742
  0
LINE
  5
24C
330
1F
100
AcDbEntity
  8
0
  6
Continuous
 62
     7
370
    15
100
AcDbLine
 10
183.8467813889
 20
78.9060118742
 30
0.0
 11
182.2632945934
 21
78.9060118742
 31
0.0
  0
LINE
  5
24D
330
1F
100
AcDbEntity
  8
0
  6
Continuous
 62
     7
370
    15
100
AcDbLine
 10
189.0192426601
 20
94.1060158558
 30
0.0
 11
184.1203965107
 21
94.1060158558
 31
0.0
  0
LINE
  5
24E
330
1F
100
AcDbEntity
  8
0
  6
Continuous
 62
     7
370
    15
100
AcDbLine
 10
183.8467813889
 20
94.9060144968
 30
0.0
 11
189.1581661859
 21
94.9060144968
 31
0.0
  0
LINE
  5
24F
330
1F
100
AcDbEntity
  8
0
  6
Continuous
 62
     7
370
    15
100
AcDbLine
 10
184.1203965107
 20
79.7060105152
 30
0.0
 11
189.0192426601
 21
79.7060105152
 31
0.0
  0
LINE
  5
250
330
1F
100
AcDbEntity
  8
0
  6
Continuous
 62
     7
370
    15
100
AcDbLine
 10
189.1581661859
 20
78.9060118742
 30
0.0
 11
183.8467813889
 21
78.9060118742
 31
0.0
  0
SPLINE
  5
251
330
1F
100
AcDbEntity
  8
0
  6
Continuous
 62
     7
370
    15
100
AcDbSpline
210
0.0
220
0.0
230
1.0
 70
     8
 71
     3
 72
    16
 73
    12
 74
     0
 42
0.00000001
 43
0.00000001
 40
0.0
 40
0.0
 40
0.0
 40
0.0
 40
0.1207062643774234
 40
0.2414151053671655
 40
0.3621170648617275
 40
0.4828247117955524
 40
0.6035307048238843
 40
0.7242346942082294
 40
0.8449397256167895
 40
0.9656486688686837
 40
1.0
 40
1.0
 40
1.0
 40
1.0
 10
215.4012717166859
 20
443.9536455221399
 30
0.0
 10
215.4206725702834
 20
443.9563158028085
 30
0.0
 10
215.4594746916117
 20
443.9616564211456
 30
0.0
 10
215.4643983568167
 20
444.2525884346488
 30
0.0
 10
215.4271810110544
 20
444.7059576931933
 30
0.0
 10
215.3502847070661
 20
445.2734716782994
 30
0.0
 10
215.2464505779252
 20
445.8618016266004
 30
0.0
 10
215.1303605372632
 20
446.3884905559041
 30
0.0
 10
215.0233462530878
 20
446.75178175487
 30
0.0
 10
214.9507755649641
 20
446.9222584086474
 30
0.0
 10
214.9312245016129
 20
446.8890993929765
 30
0.0
 10
214.9268932500797
 20
446.8817534990534
 30
0.0
  0
SPLINE
  5
252
330
1F
100
AcDbEntity
  8
0
  6
Continuous
 62
     7
370
    15
100
AcDbSpline
210
0.0
220
0.0
230
1.0
 70
     8
 71
     3
 72
    16
 73
    12
 74
     0
 42
0.00000001
 43
0.00000001
 40
0.0
 40
0.0
 40
0.0
 40
0.0
 40
0.1205770585621467
 40
0.24116278194124
 40
0.3617416308439701
 40
0.48232365834868
 40
0.6029060048814441
 40
0.72348955541215
 40
0.8440714730956633
 40
0.9646564126233752
 40
1.0
 40
1.0
 40
1.0
 40
1.0
 10
215.571860210033
 20
469.8296609468683
 30
0.0
 10
215.5912612300175
 20
469.8269892097711
 30
0.0
 10
215.6300646641678
 20
469.8216455435823
 30
0.0
 10
215.6349846534793
 20
469.5307184346139
 30
0.0
 10
215.597777151948
 20
469.0773499177043
 30
0.0
 10
215.5208471504479
 20
468.5098514538976
 30
0.0
 10
215.4170423814031
 20
467.9215031234785
 30
0.0
 10
215.3009553117416
 20
467.3948616374178
 30
0.0
 10
215.1939113169933
 20
467.0313627828949
 30
0.0
 10
215.1211565602616
 20
466.8608399596255
 30
0.0
 10
215.1015162808666
 20
466.8944186768697
 30
0.0
 10
215.0970645109135
 20
466.9020298071131
 30
0.0
  0
SPLINE
  5
253
330
1F
100
AcDbEntity
  8
0
  6
Continuous
 62
     7
370
    15
100
AcDbSpline
210
0.0
220
0.0
230
1.0
 70
     8
 71
     3
 72
    16
 73
    12
 74
     0
 42
0.00000001
 43
0.00000001
 40
0.0
 40
0.0
 40
0.0
 40
0.0
 40
0.1205177302061663
 40
0.2410325934015554
 40
0.3615499889352475
 40
0.4820676074668435
 40
0.6025845352465417
 40
0.7230999940129991
 40
0.8436164931761072
 40
0.9641310894240808
 40
0.9999999999999999
 40
0.9999999999999999
 40
0.9999999999999999
 40
0.9999999999999999
 10
230.9422440687138
 20
446.5700659103617
 30
0.0
 10
230.9616451685666
 20
446.5727339123416
 30
0.0
 10
231.0004469067372
 20
446.5780698528319
 30
0.0
 10
231.00536806045
 20
446.8690284733145
 30
0.0
 10
230.9681616416929
 20
447.3223629689047
 30
0.0
 10
230.8912314475254
 20
447.8898922492066
 30
0.0
 10
230.7874270176345
 20
448.4782394457293
 30
0.0
 10
230.6713407422012
 20
449.0048483384556
 30
0.0
 10
230.5642846542224
 20
449.3684300734966
 30
0.0
 10
230.4914317252477
 20
449.5390313270852
 30
0.0
 10
230.4717411759618
 20
449.5052149308819
 30
0.0
 10
230.4672248521763
 20
449.4974586315378
 30
0.0
  0
SPLINE
  5
254
330
1F
100
AcDbEntity
  8
0
  6
Continuous
 62
     7
370
    15
100
AcDbSpline
210
0.0
220
0.0
230
1.0
 70
     8
 71
     3
 72
    16
 73
    12
 74
     0
 42
0.00000001
 43
0.00000001
 40
0.0
 40
0.0
 40
0.0
 40
0.0
 40
0.1205178887985882
 40
0.2410326213457433
 40
0.3615498862284561
 40
0.482064480341296
 40
0.6025812774705218
 40
0.7230970929169649
 40
0.8436175482792354
 40
0.9641311283089926
 40
1.0
 40
1.0
 40
1.0
 40
1.0
 10
231.1128325620609
 20
467.2132554598078
 30
0.0
 10
231.1322336898002
 20
467.2105812274515
 30
0.0
 10
231.1710354371814
 20
467.2052328327747
 30
0.0
 10
231.1759562286717
 20
466.9142790657057
 30
0.0
 10
231.1387516923222
 20
466.4609468646815
 30
0.0
 10
231.061816618552
 20
465.8934237467743
 30
0.0
 10
230.9580226559468
 20
465.3050863274528
 30
0.0
 10
230.8419009539346
 20
464.7784455819669
 30
0.0
 10
230.7348832620506
 20
464.414880556514
 30
0.0
 10
230.662019521736
 20
464.2442909418982
 30
0.0
 10
230.6423295600977
 20
464.2781065712538
 30
0.0
 10
230.6378133455235
 20
464.2858627386316
 30
0.0
  0
SPLINE
  5
255
330
1F
100
AcDbEntity
  8
0
  6
Continuous
 62
     7
370
    15
100
AcDbSpline
210
0.0
220
0.0
230
1.0
 70
    24
 71
     3
 72
    16
 73
    12
 74
     0
 42
0.00000001
 43
0.00000001
 40
0.0
 40
0.0
 40
0.0
 40
0.0
 40
0.0611042260699412
 40
0.1864670038060815
 40
0.3118320320058386
 40
0.4371949488658223
 40
0.5625600988373968
 40
0.6879240836221383
 40
0.8132868438052594
 40
0.9386468178623724
 40
1.0
 40
1.0
 40
1.0
 40
1.0
 10
234.019155041309
 20
450.039786393188
 30
0.0
 10
234.0249280606302
 20
450.0397863931879
 30
0.0
 10
234.0425451337029
 20
450.0397863931879
 30
0.0
 10
233.8241054960059
 20
450.039786393188
 30
0.0
 10
233.4113804741231
 20
450.0397863931879
 30
0.0
 10
232.8549077520607
 20
450.039786393188
 30
0.0
 10
232.2557968556958
 20
450.0397863931879
 30
0.0
 10
231.6971055654616
 20
450.039786393188
 30
0.0
 10
231.2801494190044
 20
450.0397863931879
 30
0.0
 10
231.0571472142366
 20
450.039786393188
 30
0.0
 10
231.0719629622154
 20
450.0397863931879
 30
0.0
 10
231.0768313566166
 20
450.0397863931879
 30
0.0
  0
SPLINE
  5
256
330
1F
100
AcDbEntity
  8
0
  6
Continuous
 62
     7
370
    15
100
AcDbSpline
210
0.0
220
0.0
230
1.0
 70
    24
 71
     3
 72
    16
 73
    12
 74
     0
 42
0.00000001
 43
0.00000001
 40
0.0
 40
0.0
 40
0.0
 40
0.0
 40
0.0610064761844534
 40
0.1861687080998494
 40
0.3113331868787419
 40
0.4364955576954215
 40
0.5616601580513301
 40
0.686823595084383
 40
0.8119858094748397
 40
0.9371452421963204
 40
1.0
 40
1.0
 40
1.0
 40
1.0
 10
234.019155041309
 20
463.5984125681147
 30
0.0
 10
234.0249280544058
 20
463.5984125681147
 30
0.0
 10
234.0425451084845
 20
463.5984125681146
 30
0.0
 10
233.8241057298202
 20
463.5984125681146
 30
0.0
 10
233.4113796174519
 20
463.5984125681147
 30
0.0
 10
232.8549109448908
 20
463.5984125681146
 30
0.0
 10
232.2557849408407
 20
463.5984125681147
 30
0.0
 10
231.6971500313311
 20
463.5984125681147
 30
0.0
 10
231.2799834735206
 20
463.5984125681147
 30
0.0
 10
231.0564912605813
 20
463.5984125681147
 30
0.0
 10
231.0717128472193
 20
463.5984125681147
 30
0.0
 10
231.0768015542942
 20
463.5984125681147
 30
0.0
  0
SPLINE
  5
257
330
1F
100
AcDbEntity
  8
0
  6
Continuous
 62
     7
370
    15
100
AcDbSpline
210
0.0
220
0.0
230
1.0
 70
     8
 71
     3
 72
    19
 73
    15
 74
     0
 42
0.00000001
 43
0.00000001
 40
0.0
 40
0.0
 40
0.0
 40
0.0
 40
0.0039535652361297
 40
0.1157759121658322
 40
0.2280440359016414
 40
0.3355250774271488
 40
0.4377146961948316
 40
0.534890183995112
 40
0.6283065977509118
 40
0.7303034789161297
 40
0.8413391001064751
 40
0.9641118027772828
 40
0.9937688388160357
 40
1.0
 40
1.0
 40
1.0
 40
1.0
 10
220.3472502389866
 20
462.5060084409937
 30
0.0
 10
220.3476424999714
 20
462.5060064643031
 30
0.0
 10
220.3591294416601
 20
462.5059485790396
 30
0.0
 10
220.3824457684844
 20
462.4906813646995
 30
0.0
 10
220.4259213137244
 20
462.4238193125908
 30
0.0
 10
220.4638975655933
 20
462.3191211863473
 30
0.0
 10
220.4873998349063
 20
462.1940428154019
 30
0.0
 10
220.498742688846
 20
462.0656039578678
 30
0.0
 10
220.4993195864629
 20
461.9444399357043
 30
0.0
 10
220.4835562316251
 20
461.8352028627134
 30
0.0
 10
220.443172444565
 20
461.7458086360771
 30
0.0
 10
220.3913150165002
 20
461.7106990077794
 30
0.0
 10
220.3565911003676
 20
461.7061494287307
 30
0.0
 10
220.3486321311869
 20
461.7060304567343
 30
0.0
 10
220.3472502389866
 20
461.7060097999797
 30
0.0
  0
SPLINE
  5
258
330
1F
100
AcDbEntity
  8
0
  6
Continuous
 62
     7
370
    15
100
AcDbSpline
210
0.0
220
0.0
230
1.0
 70
     8
 71
     3
 72
    30
 73
    26
 74
     0
 42
0.00000001
 43
0.00000001
 40
0.0
 40
0.0
 40
0.0
 40
0.0
 40
0.124721393558182
 40
0.2494234757821737
 40
0.3741305536322721
 40
0.4367847638028221
 40
0.4681519414634681
 40
0.483841008569833
 40
0.4916921798588894
 40
0.4956114143033643
 40
0.4975722517811428
 40
0.4985512055745481
 40
0.4990393412871713
 40
0.4992847845923886
 40
0.4994205310176681
 40
0.4994812386645936
 40
0.4995050501627703
 40
0.4995218874346013
 40
0.499545698932778
 40
0.5609223251316692
 40
0.6646300005891262
 40
0.7325823323415515
 40
0.8111545550432933
 40
0.9002868046533048
 40
1.0
 40
1.0
 40
1.0
 40
1.0
 10
220.4189546266514
 20
462.565911108993
 30
0.0
 10
220.4247180747643
 20
462.5641204478332
 30
0.0
 10
220.4362440786023
 20
462.560539402772
 30
0.0
 10
220.5260892027305
 20
462.5386757651798
 30
0.0
 10
220.6335764651365
 20
462.5130343529435
 30
0.0
 10
220.7191097781433
 20
462.4925751973655
 30
0.0
 10
220.7632205578169
 20
462.4820737206811
 30
0.0
 10
220.7854407464582
 20
462.4767374821848
 30
0.0
 10
220.7965794632836
 20
462.4740868009563
 30
0.0
 10
220.8021490544869
 20
462.4727494504937
 30
0.0
 10
220.804929181236
 20
462.4720725458097
 30
0.0
 10
220.8063177450958
 20
462.4717304320343
 30
0.0
 10
220.8070176487903
 20
462.4715847362353
 30
0.0
 10
220.8073679560171
 20
462.4714916878344
 30
0.0
 10
220.807548367711
 20
462.4714513911009
 30
0.0
 10
220.807633379916
 20
462.4714153337017
 30
0.0
 10
220.807681323023
 20
462.4714302427009
 30
0.0
 10
220.807696086321
 20
462.471400800427
 30
0.0
 10
220.8361243129859
 20
462.4782108060928
 30
0.0
 10
220.8971775637158
 20
462.4403568692431
 30
0.0
 10
220.9914847526434
 20
462.4334189236315
 30
0.0
 10
221.0743080040029
 20
462.4134616802705
 30
0.0
 10
221.1380293771288
 20
462.4013379354338
 30
0.0
 10
221.188509118867
 20
462.3914619447571
 30
0.0
 10
221.1957360362462
 20
462.3910336891273
 30
0.0
 10
221.1995519557911
 20
462.3908075638041
 30
0.0
  0
ELLIPSE
  5
259
330
1F
100
AcDbEntity
  8
0
  6
Continuous
 62
     7
370
    15
100
AcDbEllipse
 10
221.0760822083
 20
463.6879907485
 30
0.0
 11
0.3906095144045878
 21
-0.0861638396116291
 31
0.0
210
0.0
220
0.0
230
0.9999999999999999
 40
0.0142285888
 41
0.0
 42
6.283185307179586
  0
LINE
  5
25A
330
1F
100
AcDbEntity
  8
0
  6
Continuous
 62
     7
370
    15
100
AcDbLine
 10
220.4599030176
 20
452.2060128994
 30
0.0
 11
220.4599030176
 21
460.8060094662
 31
0.0
  0
LINE
  5
25B
330
1F
100
AcDbEntity
  8
0
  6
Continuous
 62
     7
370
    15
100
AcDbLine
 10
220.4599030176
 20
452.2060128994
 30
0.0
 11
214.9456091085
 21
452.2060128994
 31
0.0
  0
LINE
  5
25C
330
1F
100
AcDbEntity
  8
0
  6
Continuous
 62
     7
370
    15
100
AcDbLine
 10
214.9456091085
 20
452.2060128994
 30
0.0
 11
214.9456091085
 21
460.8060094662
 31
0.0
  0
LINE
  5
25D
330
1F
100
AcDbEntity
  8
0
  6
Continuous
 62
     7
370
    15
100
AcDbLine
 10
220.4599030176
 20
460.8060094662
 30
0.0
 11
214.9456091085
 21
460.8060094662
 31
0.0
  0
LINE
  5
25E
330
1F
100
AcDbEntity
  8
0
  6
Continuous
 62
     7
370
    15
100
AcDbLine
 10
213.8313449779
 20
464.1060206242
 30
0.0
 11
189.0192426601
 21
464.1060206242
 31
0.0
  0
LINE
  5
25F
330
1F
100
AcDbEntity
  8
0
  6
Continuous
 62
     7
370
    15
100
AcDbLine
 10
213.8313449779
 20
460.8060094662
 30
0.0
 11
213.8313449779
 21
464.1060206242
 31
0.0
  0
LINE
  5
260
330
1F
100
AcDbEntity
  8
0
  6
Continuous
 62
     7
370
    15
100
AcDbLine
 10
213.8313449779
 20
449.7060152836
 30
0.0
 11
213.8313449779
 21
452.2060128994
 31
0.0
  0
LINE
  5
261
330
1F
100
AcDbEntity
  8
0
  6
Continuous
 62
     7
370
    15
100
AcDbLine
 10
189.0192426601
 20
449.7060152836
 30
0.0
 11
213.8313449779
 21
449.7060152836
 31
0.0
  0
LINE
  5
262
330
1F
100
AcDbEntity
  8
0
  6
Continuous
 62
     7
370
    15
100
AcDbLine
 10
189.0192426601
 20
449.7060152836
 30
0.0
 11
189.0192426601
 21
464.1060206242
 31
0.0
  0
LINE
  5
263
330
1F
100
AcDbEntity
  8
0
  6
Continuous
 62
     7
370
    15
100
AcDbLine
 10
213.8313449779
 20
460.8060094662
 30
0.0
 11
214.9456091085
 21
460.8060094662
 31
0.0
  0
LINE
  5
264
330
1F
100
AcDbEntity
  8
0
  6
Continuous
 62
     7
370
    15
100
AcDbLine
 10
213.8313449779
 20
452.2060128994
 30
0.0
 11
214.9456091085
 21
452.2060128994
 31
0.0
  0
LINE
  5
265
330
1F
100
AcDbEntity
  8
0
  6
Continuous
 62
     7
370
    15
100
AcDbLine
 10
215.8512122789
 20
464.9033668585
 30
0.0
 11
213.9589734236
 21
464.9033668585
 31
0.0
  0
ARC
  5
266
330
1F
100
AcDbEntity
  8
0
  6
Continuous
 62
     7
370
    15
100
AcDbCircle
 10
215.3056599665
 20
464.278919777
 30
0.0
 40
1.484418674970842
100
AcDbArc
 50
155.1232467424
 51
186.6887659172
  0
ARC
  5
267
330
1F
100
AcDbEntity
  8
0
  6
Continuous
 62
     7
370
    15
100
AcDbCircle
 10
190.2751654571
 20
464.2999854071
 30
0.0
 40
1.270812499494445
100
AcDbArc
 50
151.5177215739
 51
188.7794004158
  0
LINE
  5
268
330
1F
100
AcDbEntity
  8
0
  6
Continuous
 62
     7
370
    15
100
AcDbLine
 10
189.1581661859
 20
464.9060192652
 30
0.0
 11
216.5239699045
 21
464.9060192652
 31
0.0
  0
LINE
  5
269
330
1F
100
AcDbEntity
  8
0
  6
Continuous
 62
     7
370
    15
100
AcDbLine
 10
216.5239699045
 20
464.9060192652
 30
0.0
 11
215.8512122789
 21
464.9033668585
 31
0.0
  0
LINE
  5
26A
330
1F
100
AcDbEntity
  8
0
  6
Continuous
 62
     7
370
    15
100
AcDbLine
 10
213.9589734236
 20
448.9086690493
 30
0.0
 11
215.8512122789
 21
448.9086690493
 31
0.0
  0
LINE
  5
26B
330
1F
100
AcDbEntity
  8
0
  6
Continuous
 62
     7
370
    15
100
AcDbLine
 10
215.8512122789
 20
448.9086690493
 30
0.0
 11
216.5239699045
 21
448.9060166426
 31
0.0
  0
LINE
  5
26C
330
1F
100
AcDbEntity
  8
0
  6
Continuous
 62
     7
370
    15
100
AcDbLine
 10
216.5239699045
 20
448.9060166426
 30
0.0
 11
189.1581661859
 21
448.9060166426
 31
0.0
  0
ARC
  5
26D
330
1F
100
AcDbEntity
  8
0
  6
Continuous
 62
     7
370
    15
100
AcDbCircle
 10
190.2751654571
 20
449.5120505007
 30
0.0
 40
1.270812499494445
100
AcDbArc
 50
171.2205995842
 51
208.4822784261
  0
ARC
  5
26E
330
1F
100
AcDbEntity
  8
0
  6
Continuous
 62
     7
370
    15
100
AcDbCircle
 10
215.3056314241
 20
449.5331115621
 30
0.0
 40
1.484390858944842
100
AcDbArc
 50
173.3109306145
 51
204.8770567259
  0
LINE
  5
26F
330
1F
100
AcDbEntity
  8
0
  6
Continuous
 62
     7
370
    15
100
AcDbLine
 10
213.9589734236
 20
448.9086690493
 30
0.0
 11
213.9589734236
 21
449.7060152836
 31
0.0
  0
LINE
  5
270
330
1F
100
AcDbEntity
  8
0
  6
Continuous
 62
     7
370
    15
100
AcDbLine
 10
213.9702685038
 20
452.2060128994
 30
0.0
 11
213.9702685038
 21
449.7060152836
 31
0.0
  0
LINE
  5
271
330
1F
100
AcDbEntity
  8
0
  6
Continuous
 62
     7
370
    15
100
AcDbLine
 10
213.9589734236
 20
464.1060206242
 30
0.0
 11
213.9589734236
 21
464.9033668585
 31
0.0
  0
LINE
  5
272
330
1F
100
AcDbEntity
  8
0
  6
Continuous
 62
     7
370
    15
100
AcDbLine
 10
213.9702685038
 20
464.1060206242
 30
0.0
 11
213.9702685038
 21
460.8060094662
 31
0.0
  0
LINE
  5
273
330
1F
100
AcDbEntity
  8
0
  6
Continuous
 62
     7
370
    15
100
AcDbLine
 10
215.8512122789
 20
464.1060206242
 30
0.0
 11
215.8512122789
 21
464.9033668585
 31
0.0
  0
LINE
  5
274
330
1F
100
AcDbEntity
  8
0
  6
Continuous
 62
     7
370
    15
100
AcDbLine
 10
219.9589706818
 20
464.9060192652
 30
0.0
 11
216.5239699045
 21
464.9060192652
 31
0.0
  0
LINE
  5
275
330
1F
100
AcDbEntity
  8
0
  6
Continuous
 62
     7
370
    15
100
AcDbLine
 10
219.9589706818
 20
464.1060206242
 30
0.0
 11
215.8512122789
 21
464.1060206242
 31
0.0
  0
LINE
  5
276
330
1F
100
AcDbEntity
  8
0
  6
Continuous
 62
     7
370
    15
100
AcDbLine
 10
219.9589706818
 20
448.9060166426
 30
0.0
 11
216.5239699045
 21
448.9060166426
 31
0.0
  0
LINE
  5
277
330
1F
100
AcDbEntity
  8
0
  6
Continuous
 62
     7
370
    15
100
AcDbLine
 10
215.8512122789
 20
448.9086690493
 30
0.0
 11
215.8512122789
 21
449.7060152836
 31
0.0
  0
LINE
  5
278
330
1F
100
AcDbEntity
  8
0
  6
Continuous
 62
     7
370
    15
100
AcDbLine
 10
219.9589706818
 20
449.7060152836
 30
0.0
 11
215.8512122789
 21
449.7060152836
 31
0.0
  0
LINE
  5
279
330
1F
100
AcDbEntity
  8
0
  6
Continuous
 62
     7
370
    15
100
AcDbLine
 10
213.9589734236
 20
449.7060152836
 30
0.0
 11
215.8512122789
 21
449.7060152836
 31
0.0
  0
LINE
  5
27A
330
1F
100
AcDbEntity
  8
0
  6
Continuous
 62
     7
370
    15
100
AcDbLine
 10
213.9589734236
 20
464.1060206242
 30
0.0
 11
215.8512122789
 21
464.1060206242
 31
0.0
  0
LINE
  5
27B
330
1F
100
AcDbEntity
  8
0
  6
Continuous
 62
     7
370
    15
100
AcDbLine
 10
215.0289811054
 20
465.2060094424
 30
0.0
 11
219.4289810816
 21
465.2060094424
 31
0.0
  0
LINE
  5
27C
330
1F
100
AcDbEntity
  8
0
  6
Continuous
 62
     7
370
    15
100
AcDbLine
 10
215.128967897
 20
448.5060098715
 30
0.0
 11
219.3289793888
 21
448.5060098715
 31
0.0
  0
LINE
  5
27D
330
1F
100
AcDbEntity
  8
0
  6
Continuous
 62
     7
370
    15
100
AcDbLine
 10
215.128967897
 20
448.1060180016
 30
0.0
 11
219.3289793888
 21
448.1060180016
 31
0.0
  0
LINE
  5
27E
330
1F
100
AcDbEntity
  8
0
  6
Continuous
 62
     7
370
    15
100
AcDbLine
 10
184.1203965107
 20
464.1060206242
 30
0.0
 11
182.1309126774
 21
464.1060206242
 31
0.0
  0
LINE
  5
27F
330
1F
100
AcDbEntity
  8
0
  6
Continuous
 62
     7
370
    15
100
AcDbLine
 10
184.1203965107
 20
449.7060152836
 30
0.0
 11
184.1203965107
 21
464.1060206242
 31
0.0
  0
LINE
  5
280
330
1F
100
AcDbEntity
  8
0
  6
Continuous
 62
     7
370
    15
100
AcDbLine
 10
182.1309126774
 20
449.7060152836
 30
0.0
 11
184.1203965107
 21
449.7060152836
 31
0.0
  0
ARC
  5
281
330
1F
100
AcDbEntity
  8
0
  6
Continuous
 62
     7
370
    15
100
AcDbCircle
 10
197.4248871001
 20
456.9060179539
 30
0.0
 40
16.90401408232912
100
AcDbArc
 50
154.7901718738
 51
205.2098281262
  0
SPLINE
  5
282
330
1F
100
AcDbEntity
  8
0
  6
Continuous
 62
     7
370
    15
100
AcDbSpline
210
0.0
220
0.0
230
1.0
 70
     8
 71
     3
 72
    12
 73
     8
 74
     0
 42
0.00000001
 43
0.00000001
 40
0.0
 40
0.0
 40
0.0
 40
0.0
 40
0.1818822321958606
 40
0.3633443175082915
 40
0.5550756114976005
 40
0.7712680036868516
 40
1.0
 40
1.0
 40
1.0
 40
1.0
 10
182.2632945934254
 20
448.9060166425928
 30
0.0
 10
182.2871516365532
 20
448.9133387806884
 30
0.0
 10
182.3348106131801
 20
448.927966142784
 30
0.0
 10
182.3495621498791
 20
449.0399652066924
 30
0.0
 10
182.3223250280244
 20
449.2093437741092
 30
0.0
 10
182.2506545580193
 20
449.4377652371873
 30
0.0
 10
182.1715696057754
 20
449.6149341775539
 30
0.0
 10
182.1309126773792
 20
449.7060152836069
 30
0.0
  0
LINE
  5
283
330
1F
100
AcDbEntity
  8
0
  6
Continuous
 62
     7
370
    15
100
AcDbLine
 10
181.8789340416
 20
449.6605220385
 30
0.0
 11
182.2333730617
 21
448.9060166426
 31
0.0
  0
ARC
  5
284
330
1F
100
AcDbEntity
  8
0
  6
Continuous
 62
     7
370
    15
100
AcDbCircle
 10
197.1494696904
 20
456.9060179539
 30
0.0
 40
16.90226227646354
100
AcDbArc
 50
154.6168036234
 51
205.3831963766
  0
LINE
  5
285
330
1F
100
AcDbEntity
  8
0
  6
Continuous
 62
     7
370
    15
100
AcDbLine
 10
182.2333730617
 20
464.9060192652
 30
0.0
 11
181.8789340416
 21
464.1515138693
 31
0.0
  0
SPLINE
  5
286
330
1F
100
AcDbEntity
  8
0
  6
Continuous
 62
     7
370
    15
100
AcDbSpline
210
0.0
220
0.0
230
1.0
 70
     8
 71
     3
 72
    12
 73
     8
 74
     0
 42
0.00000001
 43
0.00000001
 40
0.0
 40
0.0
 40
0.0
 40
0.0
 40
0.2510129086054094
 40
0.502399626882728
 40
0.7402756306463418
 40
0.9473068991405539
 40
1.0
 40
1.0
 40
1.0
 40
1.0
 10
182.1309126773792
 20
464.1060206241831
 30
0.0
 10
182.1752311952728
 20
464.2058999723037
 30
0.0
 10
182.2639342304171
 20
464.4058074093668
 30
0.0
 10
182.3389158803768
 20
464.664535987547
 30
0.0
 10
182.3504255684437
 20
464.8417645724172
 30
0.0
 10
182.3087765025806
 20
464.9022016902503
 30
0.0
 10
182.270965684369
 20
464.9053753835936
 30
0.0
 10
182.2632945934254
 20
464.9060192651972
 30
0.0
  0
LINE
  5
287
330
1F
100
AcDbEntity
  8
0
  6
Continuous
 62
     7
370
    15
100
AcDbLine
 10
182.2632945934
 20
448.9060166426
 30
0.0
 11
182.2333730617
 21
448.9060166426
 31
0.0
  0
LINE
  5
288
330
1F
100
AcDbEntity
  8
0
  6
Continuous
 62
     7
370
    15
100
AcDbLine
 10
182.2632945934
 20
464.9060192652
 30
0.0
 11
182.2333730617
 21
464.9060192652
 31
0.0
  0
LWPOLYLINE
  5
289
330
1F
100
AcDbEntity
  8
0
  6
Continuous
 62
     7
370
    15
100
AcDbPolyline
 90
        9
 70
   128
 43
0.0
 10
184.1203965107
 20
464.1060206242
 10
184.1151364008
 20
464.2620804854
 10
184.0995646873
 20
464.4121649809
 10
184.0742774168
 20
464.5504775591
 10
184.0402580658
 20
464.6716985054
 10
183.9987881342
 20
464.7711935587
 10
183.9514769474
 20
464.8451182194
 10
183.9001573482
 20
464.8906412668
 10
183.8467813889
 20
464.9060192652
  0
LINE
  5
28A
330
1F
100
AcDbEntity
  8
0
  6
Continuous
 62
     7
370
    15
100
AcDbLine
 10
182.2632945934
 20
464.9060192652
 30
0.0
 11
183.8467813889
 21
464.9060192652
 31
0.0
  0
LWPOLYLINE
  5
28B
330
1F
100
AcDbEntity
  8
0
  6
Continuous
 62
     7
370
    15
100
AcDbPolyline
 90
        9
 70
   128
 43
0.0
 10
184.1203965107
 20
449.7060152836
 10
184.1151364008
 20
449.5499405213
 10
184.0995646873
 20
449.3998709269
 10
184.0742774168
 20
449.2615583487
 10
184.0402580658
 20
449.1403374024
 10
183.9987881342
 20
449.0408423491
 10
183.9514769474
 20
448.9669176884
 10
183.9001573482
 20
448.9213946409
 10
183.8467813889
 20
448.9060166426
  0
LINE
  5
28C
330
1F
100
AcDbEntity
  8
0
  6
Continuous
 62
     7
370
    15
100
AcDbLine
 10
183.8467813889
 20
448.9060166426
 30
0.0
 11
182.2632945934
 21
448.9060166426
 31
0.0
  0
LINE
  5
28D
330
1F
100
AcDbEntity
  8
0
  6
Continuous
 62
     7
370
    15
100
AcDbLine
 10
189.0192426601
 20
464.1060206242
 30
0.0
 11
184.1203965107
 21
464.1060206242
 31
0.0
  0
LINE
  5
28E
330
1F
100
AcDbEntity
  8
0
  6
Continuous
 62
     7
370
    15
100
AcDbLine
 10
183.8467813889
 20
464.9060192652
 30
0.0
 11
189.1581661859
 21
464.9060192652
 31
0.0
  0
LINE
  5
28F
330
1F
100
AcDbEntity
  8
0
  6
Continuous
 62
     7
370
    15
100
AcDbLine
 10
184.1203965107
 20
449.7060152836
 30
0.0
 11
189.0192426601
 21
449.7060152836
 31
0.0
  0
LINE
  5
290
330
1F
100
AcDbEntity
  8
0
  6
Continuous
 62
     7
370
    15
100
AcDbLine
 10
189.1581661859
 20
448.9060166426
 30
0.0
 11
183.8467813889
 21
448.9060166426
 31
0.0
  0
SPLINE
  5
291
330
1F
100
AcDbEntity
  8
0
  6
Continuous
 62
     7
370
    15
100
AcDbSpline
210
0.0
220
0.0
230
1.0
 70
     8
 71
     3
 72
    16
 73
    12
 74
     0
 42
0.00000001
 43
0.00000001
 40
0.0
 40
0.0
 40
0.0
 40
0.0
 40
0.1207066529255468
 40
0.2414155927687232
 40
0.362117651111084
 40
0.4828224986332781
 40
0.6035285905127119
 40
0.7242353552872488
 40
0.8449404855461232
 40
0.9656486407369659
 40
1.0
 40
1.0
 40
1.0
 40
1.0
 10
215.4012717166859
 20
73.95364075376834
 30
0.0
 10
215.4206725853355
 20
73.95631727167454
 30
0.0
 10
215.459474690205
 20
73.96167035819646
 30
0.0
 10
215.4643981856851
 20
74.25259741491027
 30
0.0
 10
215.4271819908827
 20
74.70596477069755
 30
0.0
 10
215.3502835399845
 20
75.27347112911129
 30
0.0
 10
215.2464490515709
 20
75.86180032037245
 30
0.0
 10
215.1303621473816
 20
76.38849738092401
 30
0.0
 10
215.0233465146215
 20
76.75179653720437
 30
0.0
 10
214.9507754054541
 20
76.92225241468964
 30
0.0
 10
214.9312244929654
 20
76.88909443673089
 30
0.0
 10
214.9268932500797
 20
76.88174873068182
 30
0.0
  0
SPLINE
  5
292
330
1F
100
AcDbEntity
  8
0
  6
Continuous
 62
     7
370
    15
100
AcDbSpline
210
0.0
220
0.0
230
1.0
 70
     8
 71
     3
 72
    16
 73
    12
 74
     0
 42
0.00000001
 43
0.00000001
 40
0.0
 40
0.0
 40
0.0
 40
0.0
 40
0.1205773130808821
 40
0.2411630015605836
 40
0.3617418155659114
 40
0.4823238081722991
 40
0.6029061198066487
 40
0.7234896354385915
 40
0.8440715182238145
 40
0.9646564228523614
 40
1.0
 40
1.0
 40
1.0
 40
1.0
 10
215.571860210033
 20
99.82967107965796
 30
0.0
 10
215.5912612298463
 20
99.82699311168639
 30
0.0
 10
215.6300646170837
 20
99.82163698972937
 30
0.0
 10
215.6349846650404
 20
99.53071474288916
 30
0.0
 10
215.5977771488502
 20
99.07734486084435
 30
0.0
 10
215.5208471512781
 20
98.50984676282826
 30
0.0
 10
215.4170423811806
 20
97.9214983343901
 30
0.0
 10
215.3009553118015
 20
97.3948568746103
 30
0.0
 10
215.1939113169768
 20
97.03135801298335
 30
0.0
 10
215.1211565602627
 20
96.86083519134623
 30
0.0
 10
215.1015162808668
 20
96.89441390851525
 30
0.0
 10
215.0970645109135
 20
96.90202503874151
 30
0.0
  0
SPLINE
  5
293
330
1F
100
AcDbEntity
  8
0
  6
Continuous
 62
     7
370
    15
100
AcDbSpline
210
0.0
220
0.0
230
1.0
 70
     8
 71
     3
 72
    16
 73
    12
 74
     0
 42
0.00000001
 43
0.00000001
 40
0.0
 40
0.0
 40
0.0
 40
0.0
 40
0.1205182433370418
 40
0.2410333304133654
 40
0.3615509498326964
 40
0.4820658984742974
 40
0.6025830501387655
 40
0.7231014051502135
 40
0.8436162026618527
 40
0.9641310227902649
 40
1.0
 40
1.0
 40
1.0
 40
1.0
 10
230.9422440687138
 20
76.57006114199011
 30
0.0
 10
230.961645183334
 20
76.57273537901658
 30
0.0
 10
231.0004469044773
 20
76.57808378303369
 30
0.0
 10
231.0053678927489
 20
76.86903748005169
 30
0.0
 10
230.9681626086247
 20
77.32236994727131
 30
0.0
 10
230.8912303291404
 20
77.88989207045898
 30
0.0
 10
230.7874253097057
 20
78.47823675816909
 30
0.0
 10
230.6713436492075
 20
79.0048575130271
 30
0.0
 10
230.5642832380534
 20
79.36842306587369
 30
0.0
 10
230.4914317807153
 20
79.53902676761618
 30
0.0
 10
230.4717411863104
 20
79.5052102014858
 30
0.0
 10
230.4672248521763
 20
79.49745386316626
 30
0.0
  0
SPLINE
  5
294
330
1F
100
AcDbEntity
  8
0
  6
Continuous
 62
     7
370
    15
100
AcDbSpline
210
0.0
220
0.0
230
1.0
 70
     8
 71
     3
 72
    16
 73
    12
 74
     0
 42
0.00000001
 43
0.00000001
 40
0.0
 40
0.0
 40
0.0
 40
0.0
 40
0.1205178365107945
 40
0.2410310967581959
 40
0.3615483093533857
 40
0.4820657449461409
 40
0.6025824897880467
 40
0.7230982529475957
 40
0.8436167305573118
 40
0.9641311438710323
 40
1.0
 40
1.0
 40
1.0
 40
1.0
 10
231.1128325620609
 20
97.21325069143622
 30
0.0
 10
231.1322336833921
 20
97.21057524235988
 30
0.0
 10
231.1710351893614
 20
97.20522444579855
 30
0.0
 10
231.1759563715471
 20
96.91429173844199
 30
0.0
 10
231.1387506077154
 20
96.46095264073479
 30
0.0
 10
231.0618180862962
 20
95.8934229306758
 30
0.0
 10
230.9580223166267
 20
95.30508304278857
 30
0.0
 10
230.8419022926413
 20
94.7784384400871
 30
0.0
 10
230.7348815736612
 20
94.41489756494104
 30
0.0
 10
230.6620197394336
 20
94.24428468288384
 30
0.0
 10
230.6423295799109
 20
94.2781015604972
 30
0.0
 10
230.6378133455235
 20
94.28585797026004
 30
0.0
  0
SPLINE
  5
295
330
1F
100
AcDbEntity
  8
0
  6
Continuous
 62
     7
370
    15
100
AcDbSpline
210
0.0
220
0.0
230
1.0
 70
    24
 71
     3
 72
    16
 73
    12
 74
     0
 42
0.00000001
 43
0.00000001
 40
0.0
 40
0.0
 40
0.0
 40
0.0
 40
0.0611042260699412
 40
0.1864670038060815
 40
0.3118320320058386
 40
0.4371949488658223
 40
0.5625600988373968
 40
0.6879240836221383
 40
0.8132868438052594
 40
0.9386468178623724
 40
1.0
 40
1.0
 40
1.0
 40
1.0
 10
234.019155041309
 20
80.03978162481631
 30
0.0
 10
234.0249280606302
 20
80.03978162481634
 30
0.0
 10
234.0425451337029
 20
80.03978162481631
 30
0.0
 10
233.8241054960059
 20
80.03978162481626
 30
0.0
 10
233.4113804741231
 20
80.0397816248164
 30
0.0
 10
232.8549077520607
 20
80.03978162481629
 30
0.0
 10
232.2557968556958
 20
80.0397816248164
 30
0.0
 10
231.6971055654616
 20
80.03978162481629
 30
0.0
 10
231.2801494190044
 20
80.0397816248164
 30
0.0
 10
231.0571472142366
 20
80.03978162481631
 30
0.0
 10
231.0719629622154
 20
80.03978162481631
 30
0.0
 10
231.0768313566166
 20
80.03978162481634
 30
0.0
  0
SPLINE
  5
296
330
1F
100
AcDbEntity
  8
0
  6
Continuous
 62
     7
370
    15
100
AcDbSpline
210
0.0
220
0.0
230
1.0
 70
    24
 71
     3
 72
    16
 73
    12
 74
     0
 42
0.00000001
 43
0.00000001
 40
0.0
 40
0.0
 40
0.0
 40
0.0
 40
0.0610064761844534
 40
0.1861687080998494
 40
0.3113331868787419
 40
0.4364955576954215
 40
0.5616601580513301
 40
0.686823595084383
 40
0.8119858094748397
 40
0.9371452421963204
 40
1.0
 40
1.0
 40
1.0
 40
1.0
 10
234.019155041309
 20
93.5984077997431
 30
0.0
 10
234.0249280544058
 20
93.5984077997431
 30
0.0
 10
234.0425451084845
 20
93.59840779974313
 30
0.0
 10
233.8241057298202
 20
93.59840779974313
 30
0.0
 10
233.4113796174519
 20
93.59840779974307
 30
0.0
 10
232.8549109448908
 20
93.59840779974307
 30
0.0
 10
232.2557849408407
 20
93.59840779974313
 30
0.0
 10
231.6971500313311
 20
93.59840779974307
 30
0.0
 10
231.2799834735206
 20
93.5984077997431
 30
0.0
 10
231.0564912605813
 20
93.59840779974313
 30
0.0
 10
231.0717128472193
 20
93.59840779974307
 30
0.0
 10
231.0768015542942
 20
93.5984077997431
 30
0.0
  0
SPLINE
  5
297
330
1F
100
AcDbEntity
  8
0
  6
Continuous
 62
     7
370
    15
100
AcDbSpline
210
0.0
220
0.0
230
1.0
 70
     8
 71
     3
 72
    19
 73
    15
 74
     0
 42
0.00000001
 43
0.00000001
 40
0.0
 40
0.0
 40
0.0
 40
0.0
 40
0.0039536244848257
 40
0.1157762232980749
 40
0.2280445999215579
 40
0.3355258835516775
 40
0.4377050591197083
 40
0.5348807658109992
 40
0.6283083145349223
 40
0.7302960199431322
 40
0.8413388598395838
 40
0.9641118390599779
 40
0.9937689419021886
 40
1.0
 40
1.0
 40
1.0
 40
1.0
 10
220.3472502389866
 20
92.50601857378332
 30
0.0
 10
220.3476424998842
 20
92.50601153271096
 30
0.0
 10
220.3591292977456
 20
92.50580534500405
 30
0.0
 10
220.3824457613489
 20
92.49073957712683
 30
0.0
 10
220.4259215419075
 20
92.42379852781798
 30
0.0
 10
220.4638954634131
 20
92.3191234700137
 30
0.0
 10
220.4874013337598
 20
92.19404767692
 30
0.0
 10
220.4987424798142
 20
92.06561091240792
 30
0.0
 10
220.4993209111386
 20
91.94443917560599
 30
0.0
 10
220.4835533671859
 20
91.83521649988211
 30
0.0
 10
220.4431749079944
 20
91.7457865535955
 30
0.0
 10
220.3913147475197
 20
91.71073353315934
 30
0.0
 10
220.3565912407784
 20
91.70612293299484
 30
0.0
 10
220.34863213367
 20
91.70603517047793
 30
0.0
 10
220.3472502389866
 20
91.70601993276922
 30
0.0
  0
SPLINE
  5
298
330
1F
100
AcDbEntity
  8
0
  6
Continuous
 62
     7
370
    15
100
AcDbSpline
210
0.0
220
0.0
230
1.0
 70
     8
 71
     3
 72
    30
 73
    26
 74
     0
 42
0.00000001
 43
0.00000001
 40
0.0
 40
0.0
 40
0.0
 40
0.0
 40
0.1247217805376483
 40
0.2494242496811882
 40
0.3741317144663349
 40
0.4367834731342143
 40
0.4681534842357631
 40
0.4838426000214016
 40
0.4916937956706898
 40
0.4956130422755746
 40
0.4975711007266118
 40
0.4985500575574673
 40
0.4990409456910009
 40
0.4992863897577676
 40
0.4994195004921991
 40
0.4994802083274854
 40
0.4995068304743717
 40
0.4995187362604006
 40
0.4995453584072869
 40
0.5609195733727153
 40
0.6646275706092974
 40
0.7325820771240311
 40
0.8111529966377453
 40
0.900286495268058
 40
1.0
 40
1.0
 40
1.0
 40
1.0
 10
220.4189546266514
 20
92.5659063406214
 30
0.0
 10
220.4247179527375
 20
92.56411514334617
 30
0.0
 10
220.4362437125407
 20
92.56053302613704
 30
0.0
 10
220.526090666737
 20
92.53867742880709
 30
0.0
 10
220.6335712170116
 20
92.5130107487073
 30
0.0
 10
220.7191148229511
 20
92.49259731851944
 30
0.0
 10
220.7632193054797
 20
92.48206873638077
 30
0.0
 10
220.7854401915368
 20
92.4767301037704
 30
0.0
 10
220.7965803143074
 20
92.47408601021837
 30
0.0
 10
220.8021467200611
 20
92.47273932449784
 30
0.0
 10
220.8049286231294
 20
92.47207626803089
 30
0.0
 10
220.8063219644611
 20
92.47175195869617
 30
0.0
 10
220.8070154382745
 20
92.47157761909064
 30
0.0
 10
220.8073677575655
 20
92.47148796277904
 30
0.0
 10
220.8075449847184
 20
92.47144626318313
 30
0.0
 10
220.8076404688504
 20
92.471445808712
 30
0.0
 10
220.8076744779956
 20
92.47141559968206
 30
0.0
 10
220.8077028167275
 20
92.4714204086369
 30
0.0
 10
220.8294818850459
 20
92.45517350212948
 30
0.0
 10
220.9025540113177
 20
92.45901395347484
 30
0.0
 10
220.9903976797436
 20
92.42966128394545
 30
0.0
 10
221.0745858996083
 20
92.41441774580194
 30
0.0
 10
221.1379400820584
 20
92.40104555263338
 30
0.0
 10
221.1885357866582
 20
92.39154333374263
 30
0.0
 10
221.1957452642927
 20
92.39105869209266
 30
0.0
 10
221.1995519557911
 20
92.39080279543249
 30
0.0
  0
ELLIPSE
  5
299
330
1F
100
AcDbEntity
  8
0
  6
Continuous
 62
     7
370
    15
100
AcDbEllipse
 10
221.0760822083
 20
93.6879907485
 30
0.0
 11
0.3906095144045594
 21
-0.08616383961160068
 31
0.0
210
0.0
220
0.0
230
1.0
 40
0.0142285888
 41
0.0
 42
6.283185307179586
  0
LINE
  5
29A
330
1F
100
AcDbEntity
  8
0
  6
Continuous
 62
     7
370
    15
100
AcDbLine
 10
220.2489770809
 20
81.1560127087
 30
0.0
 11
220.2489770809
 21
80.1560106821
 31
0.0
  0
LINE
  5
29B
330
1F
100
AcDbEntity
  8
0
  6
Continuous
 62
     7
370
    15
100
AcDbLine
 10
220.2489770809
 20
80.1560106821
 30
0.0
 11
214.0489764372
 21
80.1560106821
 31
0.0
  0
LINE
  5
29C
330
1F
100
AcDbEntity
  8
0
  6
Continuous
 62
     7
370
    15
100
AcDbLine
 10
214.0489764372
 20
81.1560127087
 30
0.0
 11
214.0489764372
 21
80.1560106821
 31
0.0
  0
LINE
  5
29D
330
1F
100
AcDbEntity
  8
0
  6
Continuous
 62
     7
370
    15
100
AcDbLine
 10
220.2489770809
 20
81.1560127087
 30
0.0
 11
214.0489764372
 21
81.1560127087
 31
0.0
  0
LINE
  5
29E
330
1F
100
AcDbEntity
  8
0
  6
Continuous
 62
     7
370
    15
100
AcDbLine
 10
220.2489770809
 20
451.1560174771
 30
0.0
 11
220.2489770809
 21
450.1560154505
 31
0.0
  0
LINE
  5
29F
330
1F
100
AcDbEntity
  8
0
  6
Continuous
 62
     7
370
    15
100
AcDbLine
 10
220.2489770809
 20
450.1560154505
 30
0.0
 11
214.0489764372
 21
450.1560154505
 31
0.0
  0
LINE
  5
2A0
330
1F
100
AcDbEntity
  8
0
  6
Continuous
 62
     7
370
    15
100
AcDbLine
 10
214.0489764372
 20
451.1560174771
 30
0.0
 11
214.0489764372
 21
450.1560154505
 31
0.0
  0
LINE
  5
2A1
330
1F
100
AcDbEntity
  8
0
  6
Continuous
 62
     7
370
    15
100
AcDbLine
 10
220.2489770809
 20
451.1560174771
 30
0.0
 11
214.0489764372
 21
451.1560174771
 31
0.0
  0
LINE
  5
2A2
330
1F
100
AcDbEntity
  8
0
  6
Continuous
 62
     7
370
    15
100
AcDbLine
 10
220.2489770809
 20
93.6560156889
 30
0.0
 11
220.2489770809
 21
92.6560136624
 31
0.0
  0
LINE
  5
2A3
330
1F
100
AcDbEntity
  8
0
  6
Continuous
 62
     7
370
    15
100
AcDbLine
 10
214.0489764372
 20
93.6560156889
 30
0.0
 11
214.0489764372
 21
92.6560136624
 31
0.0
  0
LINE
  5
2A4
330
1F
100
AcDbEntity
  8
0
  6
Continuous
 62
     7
370
    15
100
AcDbLine
 10
220.2489770809
 20
92.6560136624
 30
0.0
 11
214.0489764372
 21
92.6560136624
 31
0.0
  0
LINE
  5
2A5
330
1F
100
AcDbEntity
  8
0
  6
Continuous
 62
     7
370
    15
100
AcDbLine
 10
220.2489770809
 20
93.6560156889
 30
0.0
 11
214.0489764372
 21
93.6560156889
 31
0.0
  0
LINE
  5
2A6
330
1F
100
AcDbEntity
  8
0
  6
Continuous
 62
     7
370
    15
100
AcDbLine
 10
220.2489770809
 20
463.6560204573
 30
0.0
 11
220.2489770809
 21
462.6560184307
 31
0.0
  0
LINE
  5
2A7
330
1F
100
AcDbEntity
  8
0
  6
Continuous
 62
     7
370
    15
100
AcDbLine
 10
220.2489770809
 20
462.6560184307
 30
0.0
 11
214.0489764372
 21
462.6560184307
 31
0.0
  0
LINE
  5
2A8
330
1F
100
AcDbEntity
  8
0
  6
Continuous
 62
     7
370
    15
100
AcDbLine
 10
214.0489764372
 20
463.6560204573
 30
0.0
 11
214.0489764372
 21
462.6560184307
 31
0.0
  0
LINE
  5
2A9
330
1F
100
AcDbEntity
  8
0
  6
Continuous
 62
     7
370
    15
100
AcDbLine
 10
220.2489770809
 20
463.6560204573
 30
0.0
 11
214.0489764372
 21
463.6560204573
 31
0.0
  0
LWPOLYLINE
  5
2AA
330
1F
100
AcDbEntity
  8
0
  6
Continuous
 62
     7
370
    15
100
AcDbPolyline
 90
        3
 70
   128
 43
0.0
 10
213.9702685038
 20
450.544876153
 10
213.9728464046
 20
450.5386921711
 10
214.0489764372
 20
450.1560154505
  0
LWPOLYLINE
  5
2AB
330
1F
100
AcDbEntity
  8
0
  6
Continuous
 62
     7
370
    15
100
AcDbPolyline
 90
        3
 70
   128
 43
0.0
 10
214.0489764372
 20
463.6560204573
 10
213.9728464046
 20
463.2733288355
 10
213.9702685038
 20
463.2671597548
  0
LINE
  5
2AC
330
1F
100
AcDbEntity
  8
0
  6
Continuous
 62
     7
370
    15
100
AcDbLine
 10
220.2489770809
 20
462.6560184307
 30
0.0
 11
220.2489770809
 21
462.506008441
 31
0.0
  0
LINE
  5
2AD
330
1F
100
AcDbEntity
  8
0
  6
Continuous
 62
     7
370
    15
100
AcDbLine
 10
220.2489770809
 20
461.7060098
 30
0.0
 11
220.2489770809
 21
460.8060094662
 31
0.0
  0
LINE
  5
2AE
330
1F
100
AcDbEntity
  8
0
  6
Continuous
 62
     7
370
    15
100
AcDbLine
 10
220.2489770809
 20
452.2060128994
 30
0.0
 11
220.2489770809
 21
451.1560174771
 31
0.0
  0
LWPOLYLINE
  5
2AF
330
1F
100
AcDbEntity
  8
0
  6
Continuous
 62
     7
370
    15
100
AcDbPolyline
 90
        3
 70
   128
 43
0.0
 10
213.9702685038
 20
80.5448713846
 10
213.9728464046
 20
80.5387023039
 10
214.0489764372
 20
80.1560106821
  0
LWPOLYLINE
  5
2B0
330
1F
100
AcDbEntity
  8
0
  6
Continuous
 62
     7
370
    15
100
AcDbPolyline
 90
        3
 70
   128
 43
0.0
 10
214.0489764372
 20
93.6560156889
 10
213.9728464046
 20
93.2733389683
 10
213.9702685038
 20
93.2671549864
  0
LINE
  5
2B1
330
1F
100
AcDbEntity
  8
0
  6
Continuous
 62
     7
370
    15
100
AcDbLine
 10
220.2489770809
 20
92.6560136624
 30
0.0
 11
220.2489770809
 21
92.5060185738
 31
0.0
  0
LINE
  5
2B2
330
1F
100
AcDbEntity
  8
0
  6
Continuous
 62
     7
370
    15
100
AcDbLine
 10
220.2489770809
 20
91.7060199328
 30
0.0
 11
220.2489770809
 21
90.806019599
 31
0.0
  0
LINE
  5
2B3
330
1F
100
AcDbEntity
  8
0
  6
Continuous
 62
     7
370
    15
100
AcDbLine
 10
220.2489770809
 20
82.206008131
 30
0.0
 11
220.2489770809
 21
81.1560127087
 31
0.0
  0
LINE
  5
2B4
330
1F
100
AcDbEntity
  8
0
  6
Continuous
 62
     7
370
    15
100
AcDbLine
 10
233.2489736238
 20
521.9060155697
 30
0.0
 11
22.2489734972
 21
521.9060155697
 31
0.0
  0
LINE
  5
2B5
330
1F
100
AcDbEntity
  8
0
  6
Continuous
 62
     7
370
    15
100
AcDbLine
 10
233.2489736238
 20
521.9060155697
 30
0.0
 11
233.2489736238
 21
506.9060149737
 31
0.0
  0
LINE
  5
2B6
330
1F
100
AcDbEntity
  8
0
  6
Continuous
 62
     7
370
    15
100
AcDbLine
 10
233.2489736238
 20
506.9060149737
 30
0.0
 11
22.2489734972
 21
506.9060149737
 31
0.0
  0
LINE
  5
2B7
330
1F
100
AcDbEntity
  8
0
  6
Continuous
 62
     7
370
    15
100
AcDbLine
 10
22.2489734972
 20
521.9060155697
 30
0.0
 11
22.2489734972
 21
506.9060149737
 31
0.0
  0
LINE
  5
2B8
330
1F
100
AcDbEntity
  8
0
  6
Continuous
 62
     7
370
    15
100
AcDbLine
 10
22.2489734972
 20
506.9060149737
 30
0.0
 11
22.2489734972
 21
36.9060161658
 31
0.0
  0
LINE
  5
2B9
330
1F
100
AcDbEntity
  8
0
  6
Continuous
 62
     7
370
    15
100
AcDbLine
 10
22.2489734972
 20
36.9060161658
 30
0.0
 11
7.2489738325
 21
36.9060161658
 31
0.0
  0
LINE
  5
2BA
330
1F
100
AcDbEntity
  8
0
  6
Continuous
 62
     7
370
    15
100
AcDbLine
 10
7.2489738325
 20
506.9060149737
 30
0.0
 11
7.2489738325
 21
36.9060161658
 31
0.0
  0
LINE
  5
2BB
330
1F
100
AcDbEntity
  8
0
  6
Continuous
 62
     7
370
    15
100
AcDbLine
 10
7.2489738325
 20
506.9060149737
 30
0.0
 11
22.2489734972
 21
506.9060149737
 31
0.0
  0
LINE
  5
2BC
330
1F
100
AcDbEntity
  8
0
  6
Continuous
 62
     7
370
    15
100
AcDbLine
 10
22.2489734972
 20
36.9060161658
 30
0.0
 11
22.2489734972
 21
21.9060155697
 31
0.0
  0
ARC
  5
2BD
330
1F
100
AcDbEntity
  8
0
  6
Continuous
 62
     7
370
    15
100
AcDbCircle
 10
22.2489738146
 20
36.9060155697
 30
0.0
 40
15.00000000000001
100
AcDbArc
 50
180.0
 51
270.0
  0
LINE
  5
2BE
330
1F
100
AcDbEntity
  8
0
  6
Continuous
 62
     7
370
    15
100
AcDbLine
 10
233.2489736238
 20
36.9060161658
 30
0.0
 11
22.2489734972
 21
36.9060161658
 31
0.0
  0
LINE
  5
2BF
330
1F
100
AcDbEntity
  8
0
  6
Continuous
 62
     7
370
    15
100
AcDbLine
 10
233.2489736238
 20
36.9060161658
 30
0.0
 11
233.2489736238
 21
21.9060155697
 31
0.0
  0
LINE
  5
2C0
330
1F
100
AcDbEntity
  8
0
  6
Continuous
 62
     7
370
    15
100
AcDbLine
 10
233.2489736238
 20
21.9060155697
 30
0.0
 11
22.2489734972
 21
21.9060155697
 31
0.0
  0
ARC
  5
2C1
330
1F
100
AcDbEntity
  8
0
  6
Continuous
 62
     7
370
    15
100
AcDbCircle
 10
22.2489738146
 20
506.9060155697
 30
0.0
 40
15.00000000000017
100
AcDbArc
 50
90.0
 51
180.0
  0
LINE
  5
2C2
330
1F
100
AcDbEntity
  8
0
  6
Continuous
 62
     7
370
    15
100
AcDbLine
 10
233.2489736238
 20
506.9060149737
 30
0.0
 11
233.2489736238
 21
465.8819410153
 31
0.0
  0
LINE
  5
2C3
330
1F
100
AcDbEntity
  8
0
  6
Continuous
 62
     7
370
    15
100
AcDbLine
 10
233.2489736238
 20
447.8981020994
 30
0.0
 11
233.2489736238
 21
95.8819511481
 31
0.0
  0
LINE
  5
2C4
330
1F
100
AcDbEntity
  8
0
  6
Continuous
 62
     7
370
    15
100
AcDbLine
 10
233.2489736238
 20
77.8981122322
 30
0.0
 11
233.2489736238
 21
36.9060161658
 31
0.0
  0
LINE
  5
2C5
330
1F
100
AcDbEntity
  8
0
  6
Continuous
 62
     7
370
    15
100
AcDbLine
 10
27.2489733854
 20
501.906019742
 30
0.0
 11
27.2489733854
 21
41.9060113974
 31
0.0
  0
LINE
  5
2C6
330
1F
100
AcDbEntity
  8
0
  6
Continuous
 62
     7
370
    15
100
AcDbLine
 10
213.2489777962
 20
41.9060113974
 30
0.0
 11
27.2489733854
 21
41.9060113974
 31
0.0
  0
LINE
  5
2C7
330
1F
100
AcDbEntity
  8
0
  6
Continuous
 62
     7
370
    15
100
AcDbLine
 10
213.2489777962
 20
41.9060113974
 30
0.0
 11
213.2489777962
 21
74.0934732504
 31
0.0
  0
LINE
  5
2C8
330
1F
100
AcDbEntity
  8
0
  6
Continuous
 62
     7
370
    15
100
AcDbLine
 10
213.2489777962
 20
77.4332556076
 30
0.0
 11
213.2489777962
 21
78.9060118742
 31
0.0
  0
LINE
  5
2C9
330
1F
100
AcDbEntity
  8
0
  6
Continuous
 62
     7
370
    15
100
AcDbLine
 10
213.2489777962
 20
94.9060144968
 30
0.0
 11
213.2489777962
 21
96.365419323
 31
0.0
  0
LINE
  5
2CA
330
1F
100
AcDbEntity
  8
0
  6
Continuous
 62
     7
370
    15
100
AcDbLine
 10
213.2489777962
 20
99.708137209
 30
0.0
 11
213.2489777962
 21
444.0934631176
 31
0.0
  0
LINE
  5
2CB
330
1F
100
AcDbEntity
  8
0
  6
Continuous
 62
     7
370
    15
100
AcDbLine
 10
213.2489777962
 20
447.433260376
 30
0.0
 11
213.2489777962
 21
448.9060166426
 31
0.0
  0
LINE
  5
2CC
330
1F
100
AcDbEntity
  8
0
  6
Continuous
 62
     7
370
    15
100
AcDbLine
 10
213.2489777962
 20
464.9060192652
 30
0.0
 11
213.2489777962
 21
466.3654240914
 31
0.0
  0
LINE
  5
2CD
330
1F
100
AcDbEntity
  8
0
  6
Continuous
 62
     7
370
    15
100
AcDbLine
 10
213.2489777962
 20
469.7081270762
 30
0.0
 11
213.2489777962
 21
501.906019742
 31
0.0
  0
LINE
  5
2CE
330
1F
100
AcDbEntity
  8
0
  6
Continuous
 62
     7
370
    15
100
AcDbLine
 10
213.2489777962
 20
501.906019742
 30
0.0
 11
27.2489733854
 21
501.906019742
 31
0.0
  0
LINE
  5
2CF
330
1F
100
AcDbEntity
  8
0
  6
Continuous
 62
     7
370
    15
100
AcDbLine
 10
237.2489668289
 20
501.906019742
 30
0.0
 11
233.2489736238
 21
501.906019742
 31
0.0
  0
LINE
  5
2D0
330
1F
100
AcDbEntity
  8
0
  6
Continuous
 62
     7
370
    15
100
AcDbLine
 10
237.2489668289
 20
41.9060113974
 30
0.0
 11
233.2489736238
 21
41.9060113974
 31
0.0
  0
LINE
  5
2D1
330
1F
100
AcDbEntity
  8
0
  6
Continuous
 62
     7
370
    15
100
AcDbLine
 10
237.2489668289
 20
26.9060108013
 30
0.0
 11
233.2489736238
 21
26.9060108013
 31
0.0
  0
LINE
  5
2D2
330
1F
100
AcDbEntity
  8
0
  6
Continuous
 62
     7
370
    15
100
AcDbLine
 10
237.2489668289
 20
516.9060203381
 30
0.0
 11
233.2489736238
 21
516.9060203381
 31
0.0
  0
LINE
  5
2D3
330
1F
100
AcDbEntity
  8
0
  6
Continuous
 62
     7
370
    15
100
AcDbLine
 10
308.0680906107
 20
548.933169185
 30
0.0
 11
309.2680811216
 21
548.933169185
 31
0.0
  0
LINE
  5
2D4
330
1F
100
AcDbEntity
  8
0
  6
Continuous
 62
     7
370
    15
100
AcDbLine
 10
307.9680740167
 20
551.4331668008
 30
0.0
 11
308.0680906107
 21
551.4331668008
 31
0.0
  0
LINE
  5
2D5
330
1F
100
AcDbEntity
  8
0
  6
Continuous
 62
     7
370
    15
100
AcDbLine
 10
308.0680906107
 20
557.4331789602
 30
0.0
 11
307.9680740167
 21
557.4331789602
 31
0.0
  0
SPLINE
  5
2D6
330
1F
100
AcDbEntity
  8
0
  6
Continuous
 62
     7
370
    15
100
AcDbSpline
210
0.0
220
0.0
230
1.0
 70
     8
 71
     3
 72
    15
 73
    11
 74
     0
 42
0.00000001
 43
0.00000001
 40
0.0
 40
0.0
 40
0.0
 40
0.0
 40
0.1250769471706953
 40
0.2501513588930749
 40
0.3752924560724085
 40
0.5003060634208963
 40
0.6252891927302159
 40
0.7502632827908169
 40
0.8750790919889987
 40
1.0
 40
1.0
 40
1.0
 40
1.0
 10
306.8825244237624
 20
579.4909953464098
 30
0.0
 10
306.8563916461085
 20
579.7497615913923
 30
0.0
 10
306.8041266205408
 20
580.2672888358784
 30
0.0
 10
306.725288257117
 20
581.048407286219
 30
0.0
 10
306.650845414503
 20
581.7855871851281
 30
0.0
 10
306.5838688752118
 20
582.4491652702033
 30
0.0
 10
306.5277191616021
 20
583.0049208650537
 30
0.0
 10
306.4852418188356
 20
583.4260325813643
 30
0.0
 10
306.4563797896909
 20
583.71162295781
 30
0.0
 10
306.4520300782975
 20
583.7546661323496
 30
0.0
 10
306.4498543073378
 20
583.7761967767306
 30
0.0
  0
SPLINE
  5
2D7
330
1F
100
AcDbEntity
  8
0
  6
Continuous
 62
     7
370
    15
100
AcDbSpline
210
0.0
220
0.0
230
1.0
 70
     8
 71
     3
 72
    15
 73
    11
 74
     0
 42
0.00000001
 43
0.00000001
 40
0.0
 40
0.0
 40
0.0
 40
0.0
 40
0.1249399591839693
 40
0.2497678616012619
 40
0.3747499535098253
 40
0.4997376057782711
 40
0.6247474569580094
 40
0.7498805105013505
 40
0.8749437714103863
 40
1.0
 40
1.0
 40
1.0
 40
1.0
 10
303.4656285573683
 20
583.4748058904238
 30
0.0
 10
303.4678053547619
 20
583.4532313315
 30
0.0
 10
303.4721569972121
 20
583.4101015635491
 30
0.0
 10
303.5010016340806
 20
583.1243851345781
 30
0.0
 10
303.5435446054121
 20
582.7032028516732
 30
0.0
 10
303.5996267134781
 20
582.147421074138
 30
0.0
 10
303.6666233149722
 20
581.4838978614448
 30
0.0
 10
303.7410565874069
 20
580.7468522299732
 30
0.0
 10
303.8199135799638
 20
579.9659418155057
 30
0.0
 10
303.8721310621328
 20
579.4485873462089
 30
0.0
 10
303.8982390691481
 20
579.1899173844881
 30
0.0
  0
LINE
  5
2D8
330
1F
100
AcDbEntity
  8
0
  6
Continuous
 62
     7
370
    15
100
AcDbLine
 10
303.8979708482
 20
579.189783274
 30
0.0
 11
305.4670333196
 21
563.648810922
 31
0.0
  0
LINE
  5
2D9
330
1F
100
AcDbEntity
  8
0
  6
Continuous
 62
     7
370
    15
100
AcDbLine
 10
308.4518849184
 20
563.950172006
 30
0.0
 11
306.8827926447
 21
579.4911294569
 31
0.0
  0
SPLINE
  5
2DA
330
1F
100
AcDbEntity
  8
0
  6
Continuous
 62
     7
370
    15
100
AcDbSpline
210
0.0
220
0.0
230
1.0
 70
     8
 71
     3
 72
     9
 73
     5
 74
     0
 42
0.00000001
 43
0.00000001
 40
0.0
 40
0.0
 40
0.0
 40
0.0
 40
0.4837455860165434
 40
1.0
 40
1.0
 40
1.0
 40
1.0
 10
305.637115173503
 20
561.9674383987017
 30
0.0
 10
305.6465817971583
 20
561.9032075471731
 30
0.0
 10
305.6661512235859
 20
561.7704293815729
 30
0.0
 10
305.6999918578496
 20
561.7342740988304
 30
0.0
 10
305.7174622346602
 20
561.7156087745257
 30
0.0
  0
SPLINE
  5
2DB
330
1F
100
AcDbEntity
  8
0
  6
Continuous
 62
     7
370
    15
100
AcDbSpline
210
0.0
220
0.0
230
1.0
 70
     8
 71
     3
 72
    11
 73
     7
 74
     0
 42
0.00000001
 43
0.00000001
 40
0.0
 40
0.0
 40
0.0
 40
0.0
 40
0.2484392408102948
 40
0.4978831839895903
 40
0.7483837915128825
 40
1.0
 40
1.0
 40
1.0
 40
1.0
 10
305.4673313428603
 20
563.6489599336214
 30
0.0
 10
305.4853456980557
 20
563.4704877498856
 30
0.0
 10
305.5214472595196
 20
563.1128216307887
 30
0.0
 10
305.5684469896706
 20
562.6479948168219
 30
0.0
 10
305.607250576862
 20
562.26511178114
 30
0.0
 10
305.6222814634464
 20
562.1178133926306
 30
0.0
 10
305.629813604518
 20
562.0440005649157
 30
0.0
  0
SPLINE
  5
2DC
330
1F
100
AcDbEntity
  8
0
  6
Continuous
 62
     7
370
    15
100
AcDbSpline
210
0.0
220
0.0
230
1.0
 70
     8
 71
     3
 72
    19
 73
    15
 74
     0
 42
0.00000001
 43
0.00000001
 40
0.0
 40
0.0
 40
0.0
 40
0.0
 40
0.0802802511831793
 40
0.1534388866586519
 40
0.2193397424586619
 40
0.2779505612877921
 40
0.3728450923515969
 40
0.4421512035677624
 40
0.5315379253803565
 40
0.6554818616797216
 40
0.7303549253186019
 40
0.8130762651724769
 40
0.9031424698863586
 40
1.0
 40
1.0
 40
1.0
 40
1.0
 10
305.6527613927565
 20
561.8847816575594
 30
0.0
 10
305.6881206840808
 20
561.7619067971749
 30
0.0
 10
305.7557025639812
 20
561.5270572358208
 30
0.0
 10
305.9529415625653
 20
561.2326587578374
 30
0.0
 10
306.1777806947599
 20
561.0085152406415
 30
0.0
 10
306.4734681264371
 20
560.8154955988565
 30
0.0
 10
306.8154090906441
 20
560.6975860298094
 30
0.0
 10
307.225161624256
 20
560.6677842173489
 30
0.0
 10
307.6642470497427
 20
560.770086791499
 30
0.0
 10
308.0507816461021
 20
561.0213256850146
 30
0.0
 10
308.3436188459547
 20
561.3620326832287
 30
0.0
 10
308.5243893518855
 20
561.7175017602103
 30
0.0
 10
308.6303083516926
 20
562.1444427422085
 30
0.0
 10
308.5980378713051
 20
562.4395127467028
 30
0.0
 10
308.5813164045058
 20
562.5924080003329
 30
0.0
  0
SPLINE
  5
2DD
330
1F
100
AcDbEntity
  8
0
  6
Continuous
 62
     7
370
    15
100
AcDbSpline
210
0.0
220
0.0
230
1.0
 70
     8
 71
     3
 72
    11
 73
     7
 74
     0
 42
0.00000001
 43
0.00000001
 40
0.0
 40
0.0
 40
0.0
 40
0.0
 40
0.2477426046789121
 40
0.4969454115246919
 40
0.7476720314340733
 40
1.0
 40
1.0
 40
1.0
 40
1.0
 10
308.6050986577711
 20
562.4247252334185
 30
0.0
 10
308.5986544450187
 20
562.4893504015913
 30
0.0
 10
308.585728037135
 20
562.6189816405707
 30
0.0
 10
308.5498072870663
 20
562.9768606524906
 30
0.0
 10
308.5047893564495
 20
563.4231810190468
 30
0.0
 10
308.4693586438598
 20
563.7740466390175
 30
0.0
 10
308.4515868951522
 20
563.9500378955431
 30
0.0
  0
LINE
  5
2DE
330
1F
100
AcDbEntity
  8
0
  6
Continuous
 62
     7
370
    15
100
AcDbLine
 10
308.7353944113
 20
573.6048429597
 30
0.0
 11
308.7353944113
 21
573.904654323
 31
0.0
  0
LINE
  5
2DF
330
1F
100
AcDbEntity
  8
0
  6
Continuous
 62
     7
370
    15
100
AcDbLine
 10
307.9353808691
 20
573.904654323
 30
0.0
 11
307.9353808691
 21
573.6072867502
 31
0.0
  0
SPLINE
  5
2E0
330
1F
100
AcDbEntity
  8
0
  6
Continuous
 62
     7
370
    15
100
AcDbSpline
210
0.0
220
0.0
230
1.0
 70
    24
 71
     3
 72
    11
 73
     7
 74
     0
 42
0.00000001
 43
0.00000001
 40
0.0
 40
0.0
 40
0.0
 40
0.0
 40
0.0207850328835332
 40
0.3465561843128634
 40
0.6711381646362238
 40
0.9999999999999999
 40
0.9999999999999999
 40
0.9999999999999999
 40
0.9999999999999999
 10
307.9353808690749
 20
574.1909801353045
 30
0.0
 10
307.9353808690749
 20
574.1876584312637
 30
0.0
 10
307.9353808690748
 20
574.1322744881996
 30
0.0
 10
307.935380869075
 20
574.0390363230239
 30
0.0
 10
307.9353808690747
 20
573.9263241877374
 30
0.0
 10
307.9353808690748
 20
573.8917966886634
 30
0.0
 10
307.9353808690749
 20
573.8744198669024
 30
0.0
  0
SPLINE
  5
2E1
330
1F
100
AcDbEntity
  8
0
  6
Continuous
 62
     7
370
    15
100
AcDbSpline
210
0.0
220
0.0
230
1.0
 70
    24
 71
     3
 72
    11
 73
     7
 74
     0
 42
0.00000001
 43
0.00000001
 40
0.0
 40
0.0
 40
0.0
 40
0.0
 40
0.2504877331241812
 40
0.4977261212757707
 40
0.7458640449708547
 40
0.9999999999999999
 40
0.9999999999999999
 40
0.9999999999999999
 40
0.9999999999999999
 10
308.7353944112502
 20
573.8719760764666
 30
0.0
 10
308.7353944112502
 20
573.8881932081779
 30
0.0
 10
308.7353944112502
 20
573.9204171017959
 30
0.0
 10
308.7353944112501
 20
574.0291926381966
 30
0.0
 10
308.7353944112502
 20
574.168023069129
 30
0.0
 10
308.7353944112502
 20
574.2750505288537
 30
0.0
 10
308.7353944112502
 20
574.3292033065386
 30
0.0
  0
LINE
  5
2E2
330
1F
100
AcDbEntity
  8
0
  6
Continuous
 62
     7
370
    15
100
AcDbLine
 10
307.7286421587
 20
574.4331687082
 30
0.0
 11
307.9375564386
 21
574.1859435428
 31
0.0
  0
LINE
  5
2E3
330
1F
100
AcDbEntity
  8
0
  6
Continuous
 62
     7
370
    15
100
AcDbLine
 10
308.7353944113
 20
574.3292033065
 30
0.0
 11
308.7353944113
 21
574.4331687082
 31
0.0
  0
LINE
  5
2E4
330
1F
100
AcDbEntity
  8
0
  6
Continuous
 62
     7
370
    15
100
AcDbLine
 10
303.4590124418
 20
583.571186601
 30
0.0
 11
303.4433960249
 21
584.0304254879
 31
0.0
  0
SPLINE
  5
2E5
330
1F
100
AcDbEntity
  8
0
  6
Continuous
 62
     7
370
    15
100
AcDbSpline
210
0.0
220
0.0
230
1.0
 70
     8
 71
     3
 72
    11
 73
     7
 74
     0
 42
0.00000001
 43
0.00000001
 40
0.0
 40
0.0
 40
0.0
 40
0.0
 40
0.1207593991991965
 40
0.4133931855089905
 40
0.706356666582437
 40
1.0
 40
1.0
 40
1.0
 40
1.0
 10
305.491679840251
 20
563.4077548373766
 30
0.0
 10
305.5016035267094
 20
563.3094542545441
 30
0.0
 10
305.5355750799318
 20
562.9729438765196
 30
0.0
 10
305.5829092638222
 20
562.5040347735975
 30
0.0
 10
305.6258075081519
 20
562.079292024088
 30
0.0
 10
305.6333430405987
 20
562.0047517368379
 30
0.0
 10
305.637115173503
 20
561.9674383987017
 30
0.0
  0
LINE
  5
2E6
330
1F
100
AcDbEntity
  8
0
  6
Continuous
 62
     7
370
    15
100
AcDbLine
 10
303.8198291589
 20
614.4331752647
 30
0.0
 11
303.068095379
 21
614.1595601429
 31
0.0
  0
LINE
  5
2E7
330
1F
100
AcDbEntity
  8
0
  6
Continuous
 62
     7
370
    15
100
AcDbLine
 10
309.2680811216
 20
613.4331732381
 30
0.0
 11
308.9680909445
 21
613.4331732381
 31
0.0
  0
LINE
  5
2E8
330
1F
100
AcDbEntity
  8
0
  6
Continuous
 62
     7
370
    15
100
AcDbLine
 10
308.9680909445
 20
612.4331712116
 30
0.0
 11
308.8680743505
 21
612.4331712116
 31
0.0
  0
LINE
  5
2E9
330
1F
100
AcDbEntity
  8
0
  6
Continuous
 62
     7
370
    15
100
AcDbLine
 10
308.8680743505
 20
606.4331739534
 30
0.0
 11
308.9680909445
 21
606.4331739534
 31
0.0
  0
LINE
  5
2EA
330
1F
100
AcDbEntity
  8
0
  6
Continuous
 62
     7
370
    15
100
AcDbLine
 10
308.9680909445
 20
589.4331693042
 30
0.0
 11
308.8680743505
 21
589.4331693042
 31
0.0
  0
LINE
  5
2EB
330
1F
100
AcDbEntity
  8
0
  6
Continuous
 62
     7
370
    15
100
AcDbLine
 10
308.8680743505
 20
583.433172046
 30
0.0
 11
308.9680909445
 21
583.433172046
 31
0.0
  0
LINE
  5
2EC
330
1F
100
AcDbEntity
  8
0
  6
Continuous
 62
     7
370
    15
100
AcDbLine
 10
309.2680811216
 20
557.4331789602
 30
0.0
 11
309.2680811216
 21
552.4331688274
 31
0.0
  0
LINE
  5
2ED
330
1F
100
AcDbEntity
  8
0
  6
Continuous
 62
     7
370
    15
100
AcDbLine
 10
309.2680811216
 20
557.4331789602
 30
0.0
 11
324.2680817177
 21
557.4331789602
 31
0.0
  0
LINE
  5
2EE
330
1F
100
AcDbEntity
  8
0
  6
Continuous
 62
     7
370
    15
100
AcDbLine
 10
324.2680817177
 20
557.4331789602
 30
0.0
 11
324.2680817177
 21
552.4331688274
 31
0.0
  0
LINE
  5
2EF
330
1F
100
AcDbEntity
  8
0
  6
Continuous
 62
     7
370
    15
100
AcDbLine
 10
309.2680811216
 20
552.4331688274
 30
0.0
 11
324.2680817177
 21
552.4331688274
 31
0.0
  0
LINE
  5
2F0
330
1F
100
AcDbEntity
  8
0
  6
Continuous
 62
     7
370
    15
100
AcDbLine
 10
794.2680805256
 20
557.4331789602
 30
0.0
 11
794.2680805256
 21
552.4331688274
 31
0.0
  0
LINE
  5
2F1
330
1F
100
AcDbEntity
  8
0
  6
Continuous
 62
     7
370
    15
100
AcDbLine
 10
324.2680817177
 20
552.4331688274
 30
0.0
 11
794.2680805256
 21
552.4331688274
 31
0.0
  0
LINE
  5
2F2
330
1F
100
AcDbEntity
  8
0
  6
Continuous
 62
     7
370
    15
100
AcDbLine
 10
324.2680817177
 20
557.4331789602
 30
0.0
 11
794.2680805256
 21
557.4331789602
 31
0.0
  0
LINE
  5
2F3
330
1F
100
AcDbEntity
  8
0
  6
Continuous
 62
     7
370
    15
100
AcDbLine
 10
324.2680817177
 20
537.4331682314
 30
0.0
 11
324.2680817177
 21
552.4331688274
 31
0.0
  0
LINE
  5
2F4
330
1F
100
AcDbEntity
  8
0
  6
Continuous
 62
     7
370
    15
100
AcDbLine
 10
794.2680805256
 20
552.4331688274
 30
0.0
 11
794.2680805256
 21
537.4331682314
 31
0.0
  0
LINE
  5
2F5
330
1F
100
AcDbEntity
  8
0
  6
Continuous
 62
     7
370
    15
100
AcDbLine
 10
324.2680817177
 20
537.4331682314
 30
0.0
 11
794.2680805256
 21
537.4331682314
 31
0.0
  0
ARC
  5
2F6
330
1F
100
AcDbEntity
  8
0
  6
Continuous
 62
     7
370
    15
100
AcDbCircle
 10
324.2680811216
 20
552.4331719745
 30
0.0
 40
15.0
100
AcDbArc
 50
180.0
 51
270.0
  0
LINE
  5
2F7
330
1F
100
AcDbEntity
  8
0
  6
Continuous
 62
     7
370
    15
100
AcDbLine
 10
809.2680811216
 20
552.4331688274
 30
0.0
 11
794.2680805256
 21
552.4331688274
 31
0.0
  0
ARC
  5
2F8
330
1F
100
AcDbEntity
  8
0
  6
Continuous
 62
     7
370
    15
100
AcDbCircle
 10
794.2680811216
 20
552.4331719745
 30
0.0
 40
15.00000000000011
100
AcDbArc
 50
270.0
 51
0.0
  0
LINE
  5
2F9
330
1F
100
AcDbEntity
  8
0
  6
Continuous
 62
     7
370
    15
100
AcDbLine
 10
809.2680811216
 20
557.4331789602
 30
0.0
 11
809.2680811216
 21
552.4331688274
 31
0.0
  0
LINE
  5
2FA
330
1F
100
AcDbEntity
  8
0
  6
Continuous
 62
     7
370
    15
100
AcDbLine
 10
809.2680811216
 20
557.4331789602
 30
0.0
 11
794.2680805256
 21
557.4331789602
 31
0.0
  0
LINE
  5
2FB
330
1F
100
AcDbEntity
  8
0
  6
Continuous
 62
     7
370
    15
100
AcDbLine
 10
308.0680906107
 20
553.3469676364
 30
0.0
 11
308.0680906107
 21
555.4509370912
 31
0.0
  0
LINE
  5
2FC
330
1F
100
AcDbEntity
  8
0
  6
Continuous
 62
     7
370
    15
100
AcDbLine
 10
308.0680906107
 20
555.4509370912
 30
0.0
 11
309.2680811216
 21
555.4509370912
 31
0.0
  0
LINE
  5
2FD
330
1F
100
AcDbEntity
  8
0
  6
Continuous
 62
     7
370
    15
100
AcDbLine
 10
308.0680906107
 20
553.3469676364
 30
0.0
 11
309.2680811216
 21
553.3469676364
 31
0.0
  0
LINE
  5
2FE
330
1F
100
AcDbEntity
  8
0
  6
Continuous
 62
     7
370
    15
100
AcDbLine
 10
308.0680906107
 20
560.4331701387
 30
0.0
 11
309.2680811216
 21
560.4331701387
 31
0.0
  0
LINE
  5
2FF
330
1F
100
AcDbEntity
  8
0
  6
Continuous
 62
     7
370
    15
100
AcDbLine
 10
309.2680811216
 20
557.4331789602
 30
0.0
 11
309.2680811216
 21
560.4331701387
 31
0.0
  0
LINE
  5
300
330
1F
100
AcDbEntity
  8
0
  6
Continuous
 62
     7
370
    15
100
AcDbLine
 10
308.0680906107
 20
560.4331701387
 30
0.0
 11
308.0680906107
 21
555.4509370912
 31
0.0
  0
LINE
  5
301
330
1F
100
AcDbEntity
  8
0
  6
Continuous
 62
     7
370
    15
100
AcDbLine
 10
309.2680811216
 20
552.4331688274
 30
0.0
 11
309.2680811216
 21
548.933169185
 31
0.0
  0
LINE
  5
302
330
1F
100
AcDbEntity
  8
0
  6
Continuous
 62
     7
370
    15
100
AcDbLine
 10
308.0680906107
 20
548.933169185
 30
0.0
 11
308.0680906107
 21
553.3469676364
 31
0.0
  0
LINE
  5
303
330
1F
100
AcDbEntity
  8
0
  6
Continuous
 62
     7
370
    15
100
AcDbLine
 10
307.9680740167
 20
551.4331668008
 30
0.0
 11
307.9680740167
 21
557.4331789602
 31
0.0
  0
LINE
  5
304
330
1F
100
AcDbEntity
  8
0
  6
Continuous
 62
     7
370
    15
100
AcDbLine
 10
301.2201129724
 20
561.6355746378
 30
0.0
 11
301.9506274988
 21
560.6835543502
 31
0.0
  0
LWPOLYLINE
  5
305
330
1F
100
AcDbEntity
  8
0
  6
Continuous
 62
     7
370
    15
100
AcDbPolyline
 90
        9
 70
   128
 43
0.0
 10
301.9506274988
 20
560.6835543502
 10
301.7648994257
 20
560.5410396446
 10
301.5862941076
 20
560.4040085662
 10
301.4216958811
 20
560.277706324
 10
301.2774228384
 20
560.1670055975
 10
301.1590480139
 20
560.0761532177
 10
301.0710715582
 20
560.0086509574
 10
301.0168909361
 20
559.9670767177
 10
300.9985923101
 20
559.9530398239
  0
LINE
  5
306
330
1F
100
AcDbEntity
  8
0
  6
Continuous
 62
     7
370
    15
100
AcDbLine
 10
300.9985923101
 20
559.9530398239
 30
0.0
 11
300.2680777837
 21
560.9050601114
 31
0.0
  0
LWPOLYLINE
  5
307
330
1F
100
AcDbEntity
  8
0
  6
Continuous
 62
     7
370
    15
100
AcDbPolyline
 90
        9
 70
   128
 43
0.0
 10
300.2680777837
 20
560.9050601114
 10
300.2863764097
 20
560.9190970052
 10
300.3405570318
 20
560.960671245
 10
300.4285334875
 20
561.0281884063
 10
300.546908312
 20
561.119025885
 10
300.6911813547
 20
561.2297266115
 10
300.8557795812
 20
561.3560288538
 10
301.0343848993
 20
561.4930599321
 10
301.2201129724
 20
561.6355746378
  0
LINE
  5
308
330
1F
100
AcDbEntity
  8
0
  6
Continuous
 62
     7
370
    15
100
AcDbLine
 10
301.9506274988
 20
560.6835543502
 30
0.0
 11
305.494064026
 21
563.402539431
 31
0.0
  0
LINE
  5
309
330
1F
100
AcDbEntity
  8
0
  6
Continuous
 62
     7
370
    15
100
AcDbLine
 10
304.7635494997
 20
564.3545597185
 30
0.0
 11
301.2201129724
 21
561.6355746378
 31
0.0
  0
ARC
  5
30A
330
1F
100
AcDbEntity
  8
0
  6
Continuous
 62
     7
370
    15
100
AcDbCircle
 10
306.4680811216
 20
562.1331719745
 30
0.0
 40
2.800000000000011
100
AcDbArc
 50
0.0
 51
45.7322600129
  0
LINE
  5
30B
330
1F
100
AcDbEntity
  8
0
  6
Continuous
 62
     7
370
    15
100
AcDbLine
 10
305.3604304125
 20
564.7047668089
 30
0.0
 11
304.7635494997
 21
564.3545597185
 31
0.0
  0
LINE
  5
30C
330
1F
100
AcDbEntity
  8
0
  6
Continuous
 62
     7
370
    15
100
AcDbLine
 10
309.2680811216
 20
560.4331701387
 30
0.0
 11
309.2680811216
 21
561.4331721653
 31
0.0
  0
LINE
  5
30D
330
1F
100
AcDbEntity
  8
0
  6
Continuous
 62
     7
370
    15
100
AcDbLine
 10
308.0680906107
 20
561.0741137851
 30
0.0
 11
308.0680906107
 21
560.4331701387
 31
0.0
  0
SPLINE
  5
30E
330
1F
100
AcDbEntity
  8
0
  6
Continuous
 62
     7
370
    15
100
AcDbSpline
210
0.0
220
0.0
230
1.0
 70
     8
 71
     3
 72
    12
 73
     8
 74
     0
 42
0.00000001
 43
0.00000001
 40
0.0
 40
0.0
 40
0.0
 40
0.0
 40
0.234046632303745
 40
0.4681100834887106
 40
0.7021601909409557
 40
0.9362164682326188
 40
1.0
 40
1.0
 40
1.0
 40
1.0
 10
305.5650531579695
 20
579.1102855790682
 30
0.0
 10
305.3686665875074
 20
579.0909069564678
 30
0.0
 10
304.9758793340006
 20
579.052148318695
 30
0.0
 10
304.4383687712562
 20
579.0468923444271
 30
0.0
 10
304.0649205534211
 20
579.0853765487709
 30
0.0
 10
303.8856577606379
 20
579.1400371925183
 30
0.0
 10
303.9144047344636
 20
579.1839913134634
 30
0.0
 10
303.9205610086165
 20
579.1934042562075
 30
0.0
  0
SPLINE
  5
30F
330
1F
100
AcDbEntity
  8
0
  6
Continuous
 62
     7
370
    15
100
AcDbSpline
210
0.0
220
0.0
230
1.0
 70
     8
 71
     3
 72
    11
 73
     7
 74
     0
 42
0.00000001
 43
0.00000001
 40
0.0
 40
0.0
 40
0.0
 40
0.0
 40
0.1986858933163891
 40
0.4657907755952836
 40
0.7328920409508484
 40
1.0
 40
1.0
 40
1.0
 40
1.0
 10
306.8609773446761
 20
579.4891774047442
 30
0.0
 10
306.8597945120781
 20
579.4646837770009
 30
0.0
 10
306.8570215295375
 20
579.4072619556867
 30
0.0
 10
306.5874827469838
 20
579.3001888012889
 30
0.0
 10
306.1404318483386
 20
579.1893640725473
 30
0.0
 10
305.756847656875
 20
579.1366452970851
 30
0.0
 10
305.5650531579695
 20
579.1102855790682
 30
0.0
  0
SPLINE
  5
310
330
1F
100
AcDbEntity
  8
0
  6
Continuous
 62
     7
370
    15
100
AcDbSpline
210
0.0
220
0.0
230
1.0
 70
     8
 71
     3
 72
    12
 73
     8
 74
     0
 42
0.00000001
 43
0.00000001
 40
0.0
 40
0.0
 40
0.0
 40
0.0
 40
0.2339746063686035
 40
0.4679314347940849
 40
0.7019014784153117
 40
0.9358644000539801
 40
1.0
 40
1.0
 40
1.0
 40
1.0
 10
304.9580990602217
 20
585.122159062726
 30
0.0
 10
304.7620072734733
 20
585.0996588798646
 30
0.0
 10
304.3698385994937
 20
585.0546602237588
 30
0.0
 10
303.8669141631186
 20
584.7071484839432
 30
0.0
 10
303.5470729520159
 20
584.2136729941127
 30
0.0
 10
303.4191907896985
 20
583.7600832561667
 30
0.0
 10
303.4769534331231
 20
583.5170875050396
 30
0.0
 10
303.4893810083113
 20
583.4648072112627
 30
0.0
  0
SPLINE
  5
311
330
1F
100
AcDbEntity
  8
0
  6
Continuous
 62
     7
370
    15
100
AcDbSpline
210
0.0
220
0.0
230
1.0
 70
     8
 71
     3
 72
    11
 73
     7
 74
     0
 42
0.00000001
 43
0.00000001
 40
0.0
 40
0.0
 40
0.0
 40
0.0
 40
0.1976869012946596
 40
0.465132349840553
 40
0.7325626924186095
 40
1.0
 40
1.0
 40
1.0
 40
1.0
 10
306.4283072282515
 20
583.7718754399843
 30
0.0
 10
306.4100270922938
 20
583.9166242426505
 30
0.0
 10
306.3670162375645
 20
584.2571999220698
 30
0.0
 10
306.0415451000998
 20
584.7069610262496
 30
0.0
 10
305.5482654394785
 20
585.0547010432956
 30
0.0
 10
305.154822894433
 20
585.0996728610428
 30
0.0
 10
304.9580990602217
 20
585.122159062726
 30
0.0
  0
SPLINE
  5
312
330
1F
100
AcDbEntity
  8
0
  6
Continuous
 62
     7
370
    15
100
AcDbSpline
210
0.0
220
0.0
230
1.0
 70
     8
 71
     3
 72
    12
 73
     8
 74
     0
 42
0.00000001
 43
0.00000001
 40
0.0
 40
0.0
 40
0.0
 40
0.0
 40
0.2350193850730122
 40
0.4700326152068836
 40
0.7050507835947478
 40
0.9400637437707898
 40
1.0
 40
1.0
 40
1.0
 40
1.0
 10
307.1341454316816
 20
563.5693132270403
 30
0.0
 10
306.9377542124586
 20
563.5499352656155
 30
0.0
 10
306.5449769173158
 20
563.5111798502568
 30
0.0
 10
306.0073758966606
 20
563.5059115731423
 30
0.0
 10
305.634288800804
 20
563.5444365647234
 30
0.0
 10
305.4553149923859
 20
563.5985577758315
 30
0.0
 10
305.4831603894718
 20
563.6418593982237
 30
0.0
 10
305.4888188173018
 20
563.6506586659975
 30
0.0
  0
SPLINE
  5
313
330
1F
100
AcDbEntity
  8
0
  6
Continuous
 62
     7
370
    15
100
AcDbSpline
210
0.0
220
0.0
230
1.0
 70
     8
 71
     3
 72
    11
 73
     7
 74
     0
 42
0.00000001
 43
0.00000001
 40
0.0
 40
0.0
 40
0.0
 40
0.0
 40
0.1989201846168
 40
0.4659430756912897
 40
0.7329787924530475
 40
1.0
 40
1.0
 40
1.0
 40
1.0
 10
308.4300994207106
 20
563.9483093608446
 30
0.0
 10
308.4289171895253
 20
563.9237831658309
 30
0.0
 10
308.426147976156
 20
563.8663339393391
 30
0.0
 10
308.156592468796
 20
563.7592114353846
 30
0.0
 10
307.7094964395065
 20
563.6483968029395
 30
0.0
 10
307.3259256273498
 20
563.59567394155
 30
0.0
 10
307.1341454316817
 20
563.5693132270403
 30
0.0
  0
LINE
  5
314
330
1F
100
AcDbEntity
  8
0
  6
Continuous
 62
     7
370
    15
100
AcDbLine
 10
305.6572317411
 20
561.9668870557
 30
0.0
 11
305.6562184622
 21
562.1704220165
 31
0.0
  0
ELLIPSE
  5
315
330
1F
100
AcDbEntity
  8
0
  6
Continuous
 62
     7
370
    15
100
AcDbEllipse
 10
308.3353805219
 20
573.6060635808
 30
0.0
 11
0.3991830274374024
 21
-0.02624604221159644
 31
0.0
210
0.0
220
0.0
230
0.9999999999999998
 40
0.9763157485
 41
0.0
 42
6.283185307179586
  0
ARC
  5
316
330
1F
100
AcDbEntity
  8
0
  6
Continuous
 62
     7
370
    15
100
AcDbCircle
 10
308.3353807524
 20
573.8709431583
 30
0.0
 40
0.400014992437484
100
AcDbArc
 50
0.1479492488
 51
179.5020105704
  0
SPLINE
  5
317
330
1F
100
AcDbEntity
  8
0
  6
Continuous
 62
     7
370
    15
100
AcDbSpline
210
0.0
220
0.0
230
1.0
 70
     8
 71
     3
 72
    13
 73
     9
 74
     0
 42
0.00000001
 43
0.00000001
 40
0.0
 40
0.0
 40
0.0
 40
0.0
 40
0.0081673482661725
 40
0.2391720229758519
 40
0.4710975916652696
 40
0.6931339172904684
 40
0.9042391238103681
 40
1.0
 40
1.0
 40
1.0
 40
1.0
 10
308.3353876401625
 20
574.3348955501147
 30
0.0
 10
308.3337287290263
 20
574.334503282142
 30
0.0
 10
308.2851492979254
 20
574.323016135822
 30
0.0
 10
308.1890325375884
 20
574.2997348156892
 30
0.0
 10
308.0662029953633
 20
574.2561038186748
 30
0.0
 10
307.9805382084249
 20
574.2186664629312
 30
0.0
 10
307.9365110984201
 20
574.197500607775
 30
0.0
 10
307.9397609409557
 20
574.1925309657771
 30
0.0
 10
307.9407750894271
 20
574.1909801353045
 30
0.0
  0
SPLINE
  5
318
330
1F
100
AcDbEntity
  8
0
  6
Continuous
 62
     7
370
    15
100
AcDbSpline
210
0.0
220
0.0
230
1.0
 70
     8
 71
     3
 72
    13
 73
     9
 74
     0
 42
0.00000001
 43
0.00000001
 40
0.0
 40
0.0
 40
0.0
 40
0.0
 40
0.1252375854664854
 40
0.2499792362847393
 40
0.4999837015097632
 40
0.7499971743710292
 40
0.8747791224957145
 40
1.0
 40
1.0
 40
1.0
 40
1.0
 10
308.7353944112502
 20
574.3292033065386
 30
0.0
 10
308.7336724605619
 20
574.3292252944004
 30
0.0
 10
308.730235378025
 20
574.329269183053
 30
0.0
 10
308.6958924192759
 20
574.3297812666996
 30
0.0
 10
308.6205865227241
 20
574.3308299703101
 30
0.0
 10
308.5119491214373
 20
574.3323880087654
 30
0.0
 10
308.4132335547721
 20
574.333783255131
 30
0.0
 10
308.3613666325773
 20
574.3345243514066
 30
0.0
 10
308.3353876401625
 20
574.3348955501147
 30
0.0
  0
SPLINE
  5
319
330
1F
100
AcDbEntity
  8
0
  6
Continuous
 62
     7
370
    15
100
AcDbSpline
210
0.0
220
0.0
230
1.0
 70
     8
 71
     3
 72
    10
 73
     6
 74
     0
 42
0.00000001
 43
0.00000001
 40
0.0
 40
0.0
 40
0.0
 40
0.0
 40
0.018973590868354
 40
0.5252901025967246
 40
1.0
 40
1.0
 40
1.0
 40
1.0
 10
308.3353876401625
 20
574.3348955501147
 30
0.0
 10
308.3369069842197
 20
574.3356358135377
 30
0.0
 10
308.3789705240732
 20
574.3561302498376
 30
0.0
 10
308.4615616450728
 20
574.3943909648359
 30
0.0
 10
308.5317007149088
 20
574.4205234382408
 30
0.0
 10
308.5656403829299
 20
574.4331687081881
 30
0.0
  0
LINE
  5
31A
330
1F
100
AcDbEntity
  8
0
  6
Continuous
 62
     7
370
    15
100
AcDbLine
 10
303.4588932325
 20
583.5730194439
 30
0.0
 11
303.4713208009
 21
583.423367082
 31
0.0
  0
LINE
  5
31B
330
1F
100
AcDbEntity
  8
0
  6
Continuous
 62
     7
370
    15
100
AcDbLine
 10
306.4510762026
 20
583.7668686498
 30
0.0
 11
306.4154922296
 21
583.9770346273
 31
0.0
  0
ARC
  5
31C
330
1F
100
AcDbEntity
  8
0
  6
Continuous
 62
     7
370
    15
100
AcDbCircle
 10
304.3680811216
 20
577.4531719745
 30
0.0
 40
2.200000000000049
100
AcDbArc
 50
103.5934783353
 51
268.1042765976
  0
LINE
  5
31D
330
1F
100
AcDbEntity
  8
0
  6
Continuous
 62
     7
370
    15
100
AcDbLine
 10
300.8212684919
 20
578.8309335102
 30
0.0
 11
301.154905491
 21
580.7231723655
 31
0.0
  0
LWPOLYLINE
  5
31E
330
1F
100
AcDbEntity
  8
0
  6
Continuous
 62
     7
370
    15
100
AcDbPolyline
 90
        9
 70
   128
 43
0.0
 10
301.154905491
 20
580.7231723655
 10
301.0106622507
 20
580.7486086477
 10
300.8736311723
 20
580.77276343
 10
300.748521023
 20
580.7948320497
 10
300.6396829416
 20
580.8140247453
 10
300.5508422186
 20
580.8296858657
 10
300.4850982954
 20
580.8412789692
 10
300.4447459509
 20
580.848386823
 10
300.4311262895
 20
580.8508008112
  0
LINE
  5
31F
330
1F
100
AcDbEntity
  8
0
  6
Continuous
 62
     7
370
    15
100
AcDbLine
 10
300.4311262895
 20
580.8508008112
 30
0.0
 11
304.8061668207
 21
605.662903129
 31
0.0
  0
LWPOLYLINE
  5
320
330
1F
100
AcDbEntity
  8
0
  6
Continuous
 62
     7
370
    15
100
AcDbPolyline
 90
        9
 70
   128
 43
0.0
 10
304.8061668207
 20
605.662903129
 10
304.8213064005
 20
605.6602358211
 10
304.8661290933
 20
605.6523233045
 10
304.9389361669
 20
605.6394934047
 10
305.0369262029
 20
605.6222229589
 10
305.1563143064
 20
605.6011676181
 10
305.2925109197
 20
605.5771469463
 10
305.4403006365
 20
605.5510848154
 10
305.5940210153
 20
605.5239796032
  0
LINE
  5
321
330
1F
100
AcDbEntity
  8
0
  6
Continuous
 62
     7
370
    15
100
AcDbLine
 10
305.5940210153
 20
605.5239796032
 30
0.0
 11
300.7686971952
 21
578.1581758846
 31
0.0
  0
LINE
  5
322
330
1F
100
AcDbEntity
  8
0
  6
Continuous
 62
     7
370
    15
100
AcDbLine
 10
300.7686971952
 20
578.1581758846
 30
0.0
 11
300.8212684919
 21
578.8309335102
 31
0.0
  0
LWPOLYLINE
  5
323
330
1F
100
AcDbEntity
  8
0
  6
Continuous
 62
     7
370
    15
100
AcDbPolyline
 90
        5
 70
   128
 43
0.0
 10
303.6534725954
 20
612.5512331117
 10
303.4000038435
 20
613.2476388801
 10
303.2164513399
 20
613.7519537796
 10
303.1052886774
 20
614.0573083747
 10
303.068095379
 20
614.1595601429
  0
LWPOLYLINE
  5
324
330
1F
100
AcDbEntity
  8
0
  6
Continuous
 62
     7
370
    15
100
AcDbPolyline
 90
        5
 70
   128
 43
0.0
 10
304.4131039907
 20
612.8032117475
 10
304.1562377741
 20
613.5088860382
 10
303.9702116777
 20
614.0200107683
 10
303.8575588991
 20
614.3295227874
 10
303.8198291589
 20
614.4331752647
  0
LINE
  5
325
330
1F
100
AcDbEntity
  8
0
  6
Continuous
 62
     7
370
    15
100
AcDbLine
 10
304.6351908972
 20
612.4487727274
 30
0.0
 11
304.4131039907
 21
612.8032117475
 31
0.0
  0
LINE
  5
326
330
1F
100
AcDbEntity
  8
0
  6
Continuous
 62
     7
370
    15
100
AcDbLine
 10
304.552996092
 20
612.4188511957
 30
0.0
 11
304.6351908972
 21
612.4487727274
 31
0.0
  0
SPLINE
  5
327
330
1F
100
AcDbEntity
  8
0
  6
Continuous
 62
     7
370
    15
100
AcDbSpline
210
0.0
220
0.0
230
1.0
 70
     8
 71
     3
 72
    12
 73
     8
 74
     0
 42
0.00000001
 43
0.00000001
 40
0.0
 40
0.0
 40
0.0
 40
0.0
 40
0.2510129086054094
 40
0.502399626882728
 40
0.7402756306463418
 40
0.9473068991405539
 40
1.0
 40
1.0
 40
1.0
 40
1.0
 10
303.653472595378
 20
612.551233111722
 30
0.0
 10
303.68117542757
 20
612.5069145938286
 30
0.0
 10
303.7366223471493
 20
612.4182115586841
 30
0.0
 10
303.943633218013
 20
612.3432299087244
 30
0.0
 10
304.2050261141952
 20
612.3317202206575
 30
0.0
 10
304.4216077153033
 20
612.3733692865206
 30
0.0
 10
304.5308358044246
 20
612.4111801047322
 30
0.0
 10
304.5529960920058
 20
612.4188511956759
 30
0.0
  0
LINE
  5
328
330
1F
100
AcDbEntity
  8
0
  6
Continuous
 62
     7
370
    15
100
AcDbLine
 10
304.552996092
 20
612.4188511957
 30
0.0
 11
305.1293134023
 21
610.8353644003
 31
0.0
  0
LWPOLYLINE
  5
329
330
1F
100
AcDbEntity
  8
0
  6
Continuous
 62
     7
370
    15
100
AcDbPolyline
 90
        9
 70
   128
 43
0.0
 10
304.3775796224
 20
610.5617492784
 10
304.3920039465
 20
610.5670093883
 10
304.4348000814
 20
610.5825811018
 10
304.5042692949
 20
610.6078683723
 10
304.5977591802
 20
610.6418877233
 10
304.7116636564
 20
610.6833576549
 10
304.8416315843
 20
610.7306688417
 10
304.9826561739
 20
610.7819884409
 10
305.1293134023
 20
610.8353644003
  0
LINE
  5
32A
330
1F
100
AcDbEntity
  8
0
  6
Continuous
 62
     7
370
    15
100
AcDbLine
 10
304.3775796224
 20
610.5617492784
 30
0.0
 11
303.6534725954
 21
612.5512331117
 31
0.0
  0
ARC
  5
32B
330
1F
100
AcDbEntity
  8
0
  6
Continuous
 62
     7
370
    15
100
AcDbCircle
 10
304.9580866278
 20
583.622162893
 30
0.0
 40
1.599999999999978
100
AcDbArc
 50
347.034367059
 51
204.5950707184
  0
ARC
  5
32C
330
1F
100
AcDbEntity
  8
0
  6
Continuous
 62
     7
370
    15
100
AcDbCircle
 10
305.470795593
 20
611.6452368289
 30
0.0
 40
0.5
100
AcDbArc
 50
36.8410865503
 51
90.0
  0
ARC
  5
32D
330
1F
100
AcDbEntity
  8
0
  6
Continuous
 62
     7
370
    15
100
AcDbCircle
 10
298.2680811216
 20
606.2488580205
 30
0.0
 40
9.5
100
AcDbArc
 50
0.0
 51
36.8410865502
  0
LINE
  5
32E
330
1F
100
AcDbEntity
  8
0
  6
Continuous
 62
     7
370
    15
100
AcDbLine
 10
307.7680706312
 20
606.2488614906
 30
0.0
 11
307.7680706312
 21
578.2231747497
 31
0.0
  0
ARC
  5
32F
330
1F
100
AcDbEntity
  8
0
  6
Continuous
 62
     7
370
    15
100
AcDbCircle
 10
295.4504940811
 20
607.3125624428
 30
0.0
 40
10.3000000000002
100
AcDbArc
 50
350.0
 51
20.0
  0
ARC
  5
330
330
1F
100
AcDbEntity
  8
0
  6
Continuous
 62
     7
370
    15
100
AcDbCircle
 10
305.3527830474
 20
613.1452368289
 30
0.0
 40
1.0
100
AcDbArc
 50
224.1440002858
 51
270.0
  0
LINE
  5
331
330
1F
100
AcDbEntity
  8
0
  6
Continuous
 62
     7
370
    15
100
AcDbLine
 10
305.3527712156
 20
612.1452360738
 30
0.0
 11
305.4707884123
 21
612.1452360738
 31
0.0
  0
LWPOLYLINE
  5
332
330
1F
100
AcDbEntity
  8
0
  6
Continuous
 62
     7
370
    15
100
AcDbPolyline
 90
        3
 70
   128
 43
0.0
 10
307.7680706312
 20
578.2231747497
 10
307.5594543745
 20
577.0328848947
 10
307.2032868196
 20
576.3167350877
  0
ARC
  5
333
330
1F
100
AcDbEntity
  8
0
  6
Continuous
 62
     7
370
    15
100
AcDbCircle
 10
304.2680811216
 20
578.2231719745
 30
0.0
 40
3.500000000000008
100
AcDbArc
 50
181.0639402281
 51
271.3221928089
  0
ARC
  5
334
330
1F
100
AcDbEntity
  8
0
  6
Continuous
 62
     7
370
    15
100
AcDbCircle
 10
295.4504940811
 20
607.3125624428
 30
0.0
 40
9.500000000000039
100
AcDbArc
 50
350.0
 51
20.0
  0
ARC
  5
335
330
1F
100
AcDbEntity
  8
0
  6
Continuous
 62
     7
370
    15
100
AcDbCircle
 10
304.861698915
 20
578.9206675013
 30
0.0
 40
4.698428302688391
100
AcDbArc
 50
170.0
 51
264.3261771657
  0
LINE
  5
336
330
1F
100
AcDbEntity
  8
0
  6
Continuous
 62
     7
370
    15
100
AcDbLine
 10
300.4311262895
 20
580.8508008112
 30
0.0
 11
300.234639578
 21
579.7365366806
 31
0.0
  0
LINE
  5
337
330
1F
100
AcDbEntity
  8
0
  6
Continuous
 62
     7
370
    15
100
AcDbLine
 10
794.2680805256
 20
772.4331722919
 30
0.0
 11
809.2680811216
 21
772.4331722919
 31
0.0
  0
LINE
  5
338
330
1F
100
AcDbEntity
  8
0
  6
Continuous
 62
     7
370
    15
100
AcDbLine
 10
794.2680805256
 20
772.4331722919
 30
0.0
 11
794.2680805256
 21
787.4331719566
 31
0.0
  0
ARC
  5
339
330
1F
100
AcDbEntity
  8
0
  6
Continuous
 62
     7
370
    15
100
AcDbCircle
 10
794.2680811216
 20
772.4331719745
 30
0.0
 40
15.00000000000011
100
AcDbArc
 50
0.0
 51
90.0
  0
LINE
  5
33A
330
1F
100
AcDbEntity
  8
0
  6
Continuous
 62
     7
370
    15
100
AcDbLine
 10
324.2680817177
 20
772.4331722919
 30
0.0
 11
794.2680805256
 21
772.4331722919
 31
0.0
  0
LINE
  5
33B
330
1F
100
AcDbEntity
  8
0
  6
Continuous
 62
     7
370
    15
100
AcDbLine
 10
324.2680817177
 20
772.4331722919
 30
0.0
 11
324.2680817177
 21
787.4331719566
 31
0.0
  0
LINE
  5
33C
330
1F
100
AcDbEntity
  8
0
  6
Continuous
 62
     7
370
    15
100
AcDbLine
 10
324.2680817177
 20
787.4331719566
 30
0.0
 11
794.2680805256
 21
787.4331719566
 31
0.0
  0
LINE
  5
33D
330
1F
100
AcDbEntity
  8
0
  6
Continuous
 62
     7
370
    15
100
AcDbLine
 10
794.2680805256
 20
561.4331721653
 30
0.0
 11
794.2680805256
 21
772.4331722919
 31
0.0
  0
LINE
  5
33E
330
1F
100
AcDbEntity
  8
0
  6
Continuous
 62
     7
370
    15
100
AcDbLine
 10
794.2680805256
 20
561.4331721653
 30
0.0
 11
324.2680817177
 21
561.4331721653
 31
0.0
  0
LINE
  5
33F
330
1F
100
AcDbEntity
  8
0
  6
Continuous
 62
     7
370
    15
100
AcDbLine
 10
324.2680817177
 20
561.4331721653
 30
0.0
 11
324.2680817177
 21
772.4331722919
 31
0.0
  0
LINE
  5
340
330
1F
100
AcDbEntity
  8
0
  6
Continuous
 62
     7
370
    15
100
AcDbLine
 10
329.2680769493
 20
581.4331679929
 30
0.0
 11
329.2680769493
 21
767.4331724037
 31
0.0
  0
LINE
  5
341
330
1F
100
AcDbEntity
  8
0
  6
Continuous
 62
     7
370
    15
100
AcDbLine
 10
329.2680769493
 20
581.4331679929
 30
0.0
 11
789.2680852939
 21
581.4331679929
 31
0.0
  0
LINE
  5
342
330
1F
100
AcDbEntity
  8
0
  6
Continuous
 62
     7
370
    15
100
AcDbLine
 10
789.2680852939
 20
767.4331724037
 30
0.0
 11
789.2680852939
 21
581.4331679929
 31
0.0
  0
LINE
  5
343
330
1F
100
AcDbEntity
  8
0
  6
Continuous
 62
     7
370
    15
100
AcDbLine
 10
789.2680852939
 20
767.4331724037
 30
0.0
 11
329.2680769493
 21
767.4331724037
 31
0.0
  0
LINE
  5
344
330
1F
100
AcDbEntity
  8
0
  6
Continuous
 62
     7
370
    15
100
AcDbLine
 10
809.2680811216
 20
561.4331721653
 30
0.0
 11
809.2680811216
 21
772.4331722919
 31
0.0
  0
LINE
  5
345
330
1F
100
AcDbEntity
  8
0
  6
Continuous
 62
     7
370
    15
100
AcDbLine
 10
809.2680811216
 20
561.4331721653
 30
0.0
 11
794.2680805256
 21
561.4331721653
 31
0.0
  0
LINE
  5
346
330
1F
100
AcDbEntity
  8
0
  6
Continuous
 62
     7
370
    15
100
AcDbLine
 10
324.2680817177
 20
772.4331722919
 30
0.0
 11
309.2680811216
 21
772.4331722919
 31
0.0
  0
ARC
  5
347
330
1F
100
AcDbEntity
  8
0
  6
Continuous
 62
     7
370
    15
100
AcDbCircle
 10
324.2680811216
 20
772.4331719745
 30
0.0
 40
15.0
100
AcDbArc
 50
90.0
 51
180.0
  0
LINE
  5
348
330
1F
100
AcDbEntity
  8
0
  6
Continuous
 62
     7
370
    15
100
AcDbLine
 10
324.2680817177
 20
561.4331721653
 30
0.0
 11
309.2680811216
 21
561.4331721653
 31
0.0
  0
LINE
  5
349
330
1F
100
AcDbEntity
  8
0
  6
Continuous
 62
     7
370
    15
100
AcDbLine
 10
309.2680811216
 20
561.4331721653
 30
0.0
 11
309.2680811216
 21
772.4331722919
 31
0.0
  0
LINE
  5
34A
330
1F
100
AcDbEntity
  8
0
  6
Continuous
 62
     7
370
    15
100
AcDbLine
 10
789.2680852939
 20
557.4331789602
 30
0.0
 11
789.2680852939
 21
561.4331721653
 31
0.0
  0
LINE
  5
34B
330
1F
100
AcDbEntity
  8
0
  6
Continuous
 62
     7
370
    15
100
AcDbLine
 10
329.2680769493
 20
557.4331789602
 30
0.0
 11
329.2680769493
 21
561.4331721653
 31
0.0
  0
LINE
  5
34C
330
1F
100
AcDbEntity
  8
0
  6
Continuous
 62
     7
370
    15
100
AcDbLine
 10
804.26808589
 20
557.4331789602
 30
0.0
 11
804.26808589
 21
561.4331721653
 31
0.0
  0
LINE
  5
34D
330
1F
100
AcDbEntity
  8
0
  6
Continuous
 62
     7
370
    15
100
AcDbLine
 10
314.2680763532
 20
557.4331789602
 30
0.0
 11
314.2680763532
 21
561.4331721653
 31
0.0
  0
ARC
  5
34E
330
1F
100
AcDbEntity
  8
0
  6
Continuous
 62
     7
370
    15
100
AcDbCircle
 10
815.2680811216
 20
559.1831719745
 30
0.0
 40
5.500000000000115
100
AcDbArc
 50
202.024312837
 51
152.720387264
  0
ARC
  5
34F
330
1F
100
AcDbEntity
  8
0
  6
Continuous
 62
     7
370
    15
100
AcDbCircle
 10
809.7059322563
 20
556.9331719745
 30
0.0
 40
0.500000000000081
100
AcDbArc
 50
22.024312837
 51
90.0
  0
ARC
  5
350
330
1F
100
AcDbEntity
  8
0
  6
Continuous
 62
     7
370
    15
100
AcDbCircle
 10
809.9353988697
 20
561.9331719745
 30
0.0
 40
0.5000000000000541
100
AcDbArc
 50
270.0
 51
332.720387264
  0
LINE
  5
351
330
1F
100
AcDbEntity
  8
0
  6
Continuous
 62
     7
370
    15
100
AcDbLine
 10
809.2680811216
 20
561.4331721653
 30
0.0
 11
809.9353849222
 21
561.4331721653
 31
0.0
  0
LINE
  5
352
330
1F
100
AcDbEntity
  8
0
  6
Continuous
 62
     7
370
    15
100
AcDbLine
 10
809.7059368421
 20
557.4331789602
 30
0.0
 11
809.2680811216
 21
557.4331789602
 31
0.0
  0
LINE
  5
353
330
1F
100
AcDbEntity
  8
0
  6
Continuous
 62
     7
370
    15
100
AcDbLine
 10
308.9680909445
 20
580.6331693519
 30
0.0
 11
309.2680811216
 21
580.6342273344
 31
0.0
  0
LINE
  5
354
330
1F
100
AcDbEntity
  8
0
  6
Continuous
 62
     7
370
    15
100
AcDbLine
 10
309.2680811216
 20
582.633173405
 30
0.0
 11
308.9680909445
 21
582.633173405
 31
0.0
  0
LINE
  5
355
330
1F
100
AcDbEntity
  8
0
  6
Continuous
 62
     7
370
    15
100
AcDbLine
 10
308.9680909445
 20
580.6331693519
 30
0.0
 11
308.9680909445
 21
582.633173405
 31
0.0
  0
LINE
  5
356
330
1F
100
AcDbEntity
  8
0
  6
Continuous
 62
     7
370
    15
100
AcDbLine
 10
308.9680909445
 20
574.4331687082
 30
0.0
 11
308.9680909445
 21
580.6331693519
 31
0.0
  0
LINE
  5
357
330
1F
100
AcDbEntity
  8
0
  6
Continuous
 62
     7
370
    15
100
AcDbLine
 10
309.2680811216
 20
574.4331687082
 30
0.0
 11
308.9680909445
 21
574.4331687082
 31
0.0
  0
ARC
  5
358
330
1F
100
AcDbEntity
  8
0
  6
Continuous
 62
     7
370
    15
100
AcDbCircle
 10
304.0680811216
 20
577.5331719745
 30
0.0
 40
3.100000000000023
100
AcDbArc
 50
192.3149196472
 51
270.0
  0
LINE
  5
359
330
1F
100
AcDbEntity
  8
0
  6
Continuous
 62
     7
370
    15
100
AcDbLine
 10
304.0680825044
 20
574.4331687082
 30
0.0
 11
304.3782054712
 21
574.4331687082
 31
0.0
  0
LINE
  5
35A
330
1F
100
AcDbEntity
  8
0
  6
Continuous
 62
     7
370
    15
100
AcDbLine
 10
307.3934554388
 20
574.4331687082
 30
0.0
 11
308.9680909445
 21
574.4331687082
 31
0.0
  0
LINE
  5
35B
330
1F
100
AcDbEntity
  8
0
  6
Continuous
 62
     7
370
    15
100
AcDbLine
 10
308.9680909445
 20
580.6331693519
 30
0.0
 11
307.7680706312
 21
580.6331693519
 31
0.0
  0
LINE
  5
35C
330
1F
100
AcDbEntity
  8
0
  6
Continuous
 62
     7
370
    15
100
AcDbLine
 10
308.9680909445
 20
613.4331732381
 30
0.0
 11
308.9680909445
 21
606.6831707347
 31
0.0
  0
LINE
  5
35D
330
1F
100
AcDbEntity
  8
0
  6
Continuous
 62
     7
370
    15
100
AcDbLine
 10
308.9680909445
 20
582.633173405
 30
0.0
 11
308.9680909445
 21
606.6831707347
 31
0.0
  0
LINE
  5
35E
330
1F
100
AcDbEntity
  8
0
  6
Continuous
 62
     7
370
    15
100
AcDbLine
 10
308.8680743505
 20
606.4331739534
 30
0.0
 11
308.8680743505
 21
612.4331712116
 31
0.0
  0
LINE
  5
35F
330
1F
100
AcDbEntity
  8
0
  6
Continuous
 62
     7
370
    15
100
AcDbLine
 10
308.8680743505
 20
583.433172046
 30
0.0
 11
308.8680743505
 21
589.4331693042
 31
0.0
  0
LINE
  5
360
330
1F
100
AcDbEntity
  8
0
  6
Continuous
 62
     7
370
    15
100
AcDbLine
 10
308.9680909445
 20
597.4331706155
 30
0.0
 11
307.7680706312
 21
597.7547078718
 31
0.0
  0
LINE
  5
361
330
1F
100
AcDbEntity
  8
0
  6
Continuous
 62
     7
370
    15
100
AcDbLine
 10
307.7680706312
 20
598.7899809469
 30
0.0
 11
308.9680909445
 21
598.4684436906
 31
0.0
  0
LINE
  5
362
330
1F
100
AcDbEntity
  8
0
  6
Continuous
 62
     8
370
    15
100
AcDbLine
 10
309.2680811216
 20
606.6831707347
 30
0.0
 11
308.9680909445
 21
606.6831707347
 31
0.0
  0
ENDSEC
  0
SECTION
  2
OBJECTS
  0
DICTIONARY
  5
C
330
0
100
AcDbDictionary
281
     1
  3
ACAD_GROUP
350
D
  3
ACAD_LAYOUT
350
1A
  3
ACAD_MLINESTYLE
350
17
  3
ACAD_PLOTSETTINGS
350
19
  3
ACAD_PLOTSTYLENAME
350
E
  0
DICTIONARY
  5
D
102
{ACAD_REACTORS
330
C
102
}
330
C
100
AcDbDictionary
281
     1
  0
DICTIONARY
  5
1A
102
{ACAD_REACTORS
330
C
102
}
330
C
100
AcDbDictionary
281
     1
  3
Layout1
350
1E
  3
Layout2
350
26
  3
Model
350
22
  0
DICTIONARY
  5
17
102
{ACAD_REACTORS
330
C
102
}
330
C
100
AcDbDictionary
281
     1
  3
Standard
350
18
  0
DICTIONARY
  5
19
102
{ACAD_REACTORS
330
C
102
}
330
C
100
AcDbDictionary
281
     1
  0
ACDBDICTIONARYWDFLT
  5
E
102
{ACAD_REACTORS
330
C
102
}
330
C
100
AcDbDictionary
281
     1
  3
Normal
350
F
100
AcDbDictionaryWithDefault
340
F
  0
LAYOUT
  5
1E
102
{ACAD_REACTORS
330
1A
102
}
330
1A
100
AcDbPlotSettings
  1

  2
none_device
  4

  6

 40
0.0
 41
0.0
 42
0.0
 43
0.0
 44
0.0
 45
0.0
 46
0.0
 47
0.0
 48
0.0
 49
0.0
140
0.0
141
0.0
142
1.0
143
1.0
 70
   688
 72
     0
 73
     0
 74
     5
  7

 75
    16
147
1.0
148
0.0
149
0.0
100
AcDbLayout
  1
Layout1
 70
     1
 71
     1
 10
0.0
 20
0.0
 11
420.0
 21
297.0
 12
0.0
 22
0.0
 32
0.0
 14
1.0000000000E+20
 24
1.0000000000E+20
 34
1.0000000000E+20
 15
-1.0000000000E+20
 25
-1.0000000000E+20
 35
-1.0000000000E+20
146
0.0
 13
0.0
 23
0.0
 33
0.0
 16
1.0
 26
0.0
 36
0.0
 17
0.0
 27
1.0
 37
0.0
 76
     0
330
1B
  0
LAYOUT
  5
26
102
{ACAD_REACTORS
330
1A
102
}
330
1A
100
AcDbPlotSettings
  1

  2
none_device
  4

  6

 40
0.0
 41
0.0
 42
0.0
 43
0.0
 44
0.0
 45
0.0
 46
0.0
 47
0.0
 48
0.0
 49
0.0
140
0.0
141
0.0
142
1.0
143
1.0
 70
   688
 72
     0
 73
     0
 74
     5
  7

 75
    16
147
1.0
148
0.0
149
0.0
100
AcDbLayout
  1
Layout2
 70
     1
 71
     2
 10
0.0
 20
0.0
 11
0.0
 21
0.0
 12
0.0
 22
0.0
 32
0.0
 14
0.0
 24
0.0
 34
0.0
 15
0.0
 25
0.0
 35
0.0
146
0.0
 13
0.0
 23
0.0
 33
0.0
 16
1.0
 26
0.0
 36
0.0
 17
0.0
 27
1.0
 37
0.0
 76
     0
330
23
  0
LAYOUT
  5
22
102
{ACAD_REACTORS
330
1A
102
}
330
1A
100
AcDbPlotSettings
  1

  2
none_device
  4

  6

 40
0.0
 41
0.0
 42
0.0
 43
0.0
 44
0.0
 45
0.0
 46
0.0
 47
0.0
 48
0.0
 49
0.0
140
0.0
141
0.0
142
1.0
143
1.0
 70
  1712
 72
     0
 73
     0
 74
     0
  7

 75
     0
147
1.0
148
0.0
149
0.0
100
AcDbLayout
  1
Model
 70
     1
 71
     0
 10
0.0
 20
0.0
 11
840.0
 21
594.0
 12
0.0
 22
0.0
 32
0.0
 14
0.0
 24
0.0
 34
0.0
 15
840.0
 25
594.0
 35
0.0
146
0.0
 13
0.0
 23
0.0
 33
0.0
 16
1.0
 26
0.0
 36
0.0
 17
0.0
 27
1.0
 37
0.0
 76
     0
330
1F
331
29
  0
MLINESTYLE
  5
18
102
{ACAD_REACTORS
330
17
102
}
330
17
100
AcDbMlineStyle
  2
Standard
 70
     0
  3

 62
   256
 51
90.0
 52
90.0
 71
     2
 49
0.5
 62
   256
  6
BYLAYER
 49
-0.5
 62
   256
  6
BYLAYER
  0
ACDBPLACEHOLDER
  5
F
102
{ACAD_REACTORS
330
E
102
}
330
E
  0
ENDSEC
  0
EOF
