  0
SECTION
  2
HEADER
  9
$ACADVER
  1
AC1015
  9
$ACADMAINTVER
 70
     6
  9
$DWGCODEPAGE
  3
DOS932
  9
$INSBASE
 10
0.0
 20
0.0
 30
0.0
  9
$EXTMIN
 10
0.0
 20
0.0
 30
0.0
  9
$EXTMAX
 10
840.0
 20
594.0
 30
0.0
  9
$LIMMIN
 10
0.0
 20
0.0
  9
$LIMMAX
 10
840.0
 20
594.0
  9
$ORTHOMODE
 70
     0
  9
$REGENMODE
 70
     1
  9
$FILLMODE
 70
     1
  9
$QTEXTMODE
 70
     0
  9
$MIRRTEXT
 70
     1
  9
$LTSCALE
 40
2.0
  9
$ATTMODE
 70
     1
  9
$TEXTSIZE
 40
7.0
  9
$TRACEWID
 40
1.0
  9
$TEXTSTYLE
  7
Standard
  9
$CLAYER
  8
0
  9
$CELTYPE
  6
ByLayer
  9
$CECOLOR
 62
   256
  9
$CELTSCALE
 40
1.0
  9
$DISPSILH
 70
     0
  9
$DIMSCALE
 40
1.0
  9
$DIMASZ
 40
6.0
  9
$DIMEXO
 40
2.0
  9
$DIMDLI
 40
3.75
  9
$DIMRND
 40
0.0
  9
$DIMDLE
 40
0.0
  9
$DIMEXE
 40
2.0
  9
$DIMTP
 40
0.0
  9
$DIMTM
 40
0.0
  9
$DIMTXT
 40
7.0
  9
$DIMCEN
 40
2.5
  9
$DIMTSZ
 40
0.0
  9
$DIMTOL
 70
     0
  9
$DIMLIM
 70
     0
  9
$DIMTIH
 70
     1
  9
$DIMTOH
 70
     1
  9
$DIMSE1
 70
     0
  9
$DIMSE2
 70
     0
  9
$DIMTAD
 70
     1
  9
$DIMZIN
 70
     0
  9
$DIMBLK
  1

  9
$DIMASO
 70
     1
  9
$DIMSHO
 70
     1
  9
$DIMPOST
  1

  9
$DIMAPOST
  1

  9
$DIMALT
 70
     0
  9
$DIMALTD
 70
     3
  9
$DIMALTF
 40
0.0393700787
  9
$DIMLFAC
 40
1.0
  9
$DIMTOFL
 70
     1
  9
$DIMTVP
 40
0.0
  9
$DIMTIX
 70
     0
  9
$DIMSOXD
 70
     0
  9
$DIMSAH
 70
     0
  9
$DIMBLK1
  1

  9
$DIMBLK2
  1

  9
$DIMSTYLE
  2
ISO-25
  9
$DIMCLRD
 70
     0
  9
$DIMCLRE
 70
     0
  9
$DIMCLRT
 70
     0
  9
$DIMTFAC
 40
1.0
  9
$DIMGAP
 40
3.048
  9
$DIMJUST
 70
     0
  9
$DIMSD1
 70
     0
  9
$DIMSD2
 70
     0
  9
$DIMTOLJ
 70
     0
  9
$DIMTZIN
 70
     0
  9
$DIMALTZ
 70
     0
  9
$DIMALTTZ
 70
     0
  9
$DIMUPT
 70
     0
  9
$DIMDEC
 70
     1
  9
$DIMTDEC
 70
     1
  9
$DIMALTU
 70
     2
  9
$DIMALTTD
 70
     3
  9
$DIMTXSTY
  7
Standard
  9
$DIMAUNIT
 70
     0
  9
$DIMADEC
 70
     2
  9
$DIMALTRND
 40
0.0
  9
$DIMAZIN
 70
     0
  9
$DIMDSEP
 70
    44
  9
$DIMATFIT
 70
     3
  9
$DIMFRAC
 70
     0
  9
$DIMLDRBLK
  1

  9
$DIMLUNIT
 70
     2
  9
$DIMLWD
 70
    -2
  9
$DIMLWE
 70
    -2
  9
$DIMTMOVE
 70
     0
  9
$LUNITS
 70
     2
  9
$LUPREC
 70
     1
  9
$SKETCHINC
 40
1.0
  9
$FILLETRAD
 40
10.0
  9
$AUNITS
 70
     0
  9
$AUPREC
 70
     2
  9
$MENU
  1
.
  9
$ELEVATION
 40
0.0
  9
$PELEVATION
 40
0.0
  9
$THICKNESS
 40
0.0
  9
$LIMCHECK
 70
     0
  9
$CHAMFERA
 40
10.0
  9
$CHAMFERB
 40
10.0
  9
$CHAMFERC
 40
20.0
  9
$CHAMFERD
 40
0.0
  9
$SKPOLY
 70
     0
  9
$TDCREATE
 40
2460451.608627697
  9
$TDUCREATE
 40
2460451.233627697
  9
$TDUPDATE
 40
2460451.608627708
  9
$TDUUPDATE
 40
2460451.233627708
  9
$TDINDWG
 40
0.0000000116
  9
$TDUSRTIMER
 40
0.0000000116
  9
$USRTIMER
 70
     1
  9
$ANGBASE
 50
0.0
  9
$ANGDIR
 70
     0
  9
$PDMODE
 70
     0
  9
$PDSIZE
 40
-1.0
  9
$PLINEWID
 40
0.0
  9
$SPLFRAME
 70
     0
  9
$SPLINETYPE
 70
     6
  9
$SPLINESEGS
 70
     8
  9
$HANDSEED
  5
362
  9
$SURFTAB1
 70
     6
  9
$SURFTAB2
 70
     6
  9
$SURFTYPE
 70
     6
  9
$SURFU
 70
     6
  9
$SURFV
 70
     6
  9
$UCSBASE
  2

  9
$UCSNAME
  2

  9
$UCSORG
 10
0.0
 20
0.0
 30
0.0
  9
$UCSXDIR
 10
1.0
 20
0.0
 30
0.0
  9
$UCSYDIR
 10
0.0
 20
1.0
 30
0.0
  9
$UCSORTHOREF
  2

  9
$UCSORTHOVIEW
 70
     0
  9
$UCSORGTOP
 10
0.0
 20
0.0
 30
0.0
  9
$UCSORGBOTTOM
 10
0.0
 20
0.0
 30
0.0
  9
$UCSORGLEFT
 10
0.0
 20
0.0
 30
0.0
  9
$UCSORGRIGHT
 10
0.0
 20
0.0
 30
0.0
  9
$UCSORGFRONT
 10
0.0
 20
0.0
 30
0.0
  9
$UCSORGBACK
 10
0.0
 20
0.0
 30
0.0
  9
$PUCSBASE
  2

  9
$PUCSNAME
  2

  9
$PUCSORG
 10
0.0
 20
0.0
 30
0.0
  9
$PUCSXDIR
 10
1.0
 20
0.0
 30
0.0
  9
$PUCSYDIR
 10
0.0
 20
1.0
 30
0.0
  9
$PUCSORTHOREF
  2

  9
$PUCSORTHOVIEW
 70
     0
  9
$PUCSORGTOP
 10
0.0
 20
0.0
 30
0.0
  9
$PUCSORGBOTTOM
 10
0.0
 20
0.0
 30
0.0
  9
$PUCSORGLEFT
 10
0.0
 20
0.0
 30
0.0
  9
$PUCSORGRIGHT
 10
0.0
 20
0.0
 30
0.0
  9
$PUCSORGFRONT
 10
0.0
 20
0.0
 30
0.0
  9
$PUCSORGBACK
 10
0.0
 20
0.0
 30
0.0
  9
$USERI1
 70
     0
  9
$USERI2
 70
     0
  9
$USERI3
 70
     0
  9
$USERI4
 70
     0
  9
$USERI5
 70
     0
  9
$USERR1
 40
0.0
  9
$USERR2
 40
0.0
  9
$USERR3
 40
0.0
  9
$USERR4
 40
0.0
  9
$USERR5
 40
0.0
  9
$WORLDVIEW
 70
     1
  9
$SHADEDGE
 70
     3
  9
$SHADEDIF
 70
    70
  9
$TILEMODE
 70
     1
  9
$MAXACTVP
 70
    64
  9
$PINSBASE
 10
0.0
 20
0.0
 30
0.0
  9
$PLIMCHECK
 70
     0
  9
$PEXTMIN
 10
1.0000000000E+20
 20
1.0000000000E+20
 30
1.0000000000E+20
  9
$PEXTMAX
 10
-1.0000000000E+20
 20
-1.0000000000E+20
 30
-1.0000000000E+20
  9
$PLIMMIN
 10
0.0
 20
0.0
  9
$PLIMMAX
 10
420.0
 20
297.0
  9
$UNITMODE
 70
     0
  9
$VISRETAIN
 70
     1
  9
$PLINEGEN
 70
     0
  9
$PSLTSCALE
 70
     1
  9
$TREEDEPTH
 70
  3020
  9
$CMLSTYLE
  2
Standard
  9
$CMLJUST
 70
     0
  9
$CMLSCALE
 40
20.0
  9
$PROXYGRAPHICS
 70
     1
  9
$MEASUREMENT
 70
     1
  9
$CELWEIGHT
370
    -1
  9
$ENDCAPS
280
     0
  9
$JOINSTYLE
280
     0
  9
$LWDISPLAY
290
     1
  9
$INSUNITS
 70
     4
  9
$HYPERLINKBASE
  1

  9
$STYLESHEET
  1

  9
$XEDIT
290
     1
  9
$CEPSNTYPE
380
     0
  9
$PSTYLEMODE
290
     1
  9
$FINGERPRINTGUID
  2
{B2F38ED5-0E09-412D-821F-F57089BCF0D8}
  9
$VERSIONGUID
  2
{FAEB1C32-E019-11D5-929B-00C0DF256EC4}
  9
$EXTNAMES
290
     1
  9
$PSVPSCALE
 40
0.0
  9
$OLESTARTUP
290
     0
  0
ENDSEC
  0
SECTION
  2
CLASSES
  0
CLASS
  1
ACDBDICTIONARYWDFLT
  2
AcDbDictionaryWithDefault
  3
ObjectDBX Classes
 90
        0
280
     0
281
     0
  0
CLASS
  1
VISUALSTYLE
  2
AcDbVisualStyle
  3
ObjectDBX Classes
 90
     4095
280
     0
281
     0
  0
CLASS
  1
MATERIAL
  2
AcDbMaterial
  3
ObjectDBX Classes
 90
     1153
280
     0
281
     0
  0
CLASS
  1
ACDBPLACEHOLDER
  2
AcDbPlaceHolder
  3
ObjectDBX Classes
 90
        0
280
     0
281
     0
  0
CLASS
  1
LAYOUT
  2
AcDbLayout
  3
ObjectDBX Classes
 90
        0
280
     0
281
     0
  0
ENDSEC
  0
SECTION
  2
TABLES
  0
TABLE
  2
VPORT
  5
8
330
0
100
AcDbSymbolTable
 70
     1
  0
VPORT
  5
29
330
8
100
AcDbSymbolTableRecord
100
AcDbViewportTableRecord
  2
*Active
 70
     0
 10
0.0
 20
0.0
 11
1.0
 21
1.0
 12
420.0
 22
297.0
 13
0.0
 23
0.0
 14
10.0
 24
10.0
 15
10.0
 25
10.0
 16
0.0
 26
0.0
 36
1.0
 17
0.0
 27
0.0
 37
0.0
 40
594.0
 41
1.4141414141
 42
50.0
 43
0.0
 44
0.0
 50
0.0
 51
0.0
 71
     0
 72
  2000
 73
     1
 74
     3
 75
     0
 76
     0
 77
     0
 78
     0
281
     0
 65
     1
110
0.0
120
0.0
130
0.0
111
1.0
121
0.0
131
0.0
112
0.0
122
1.0
132
0.0
 79
     0
146
0.0
  0
ENDTAB
  0
TABLE
  2
LTYPE
  5
5
330
0
100
AcDbSymbolTable
 70
     6
  0
LTYPE
  5
14
330
5
100
AcDbSymbolTableRecord
100
AcDbLinetypeTableRecord
  2
ByBlock
 70
     0
  3

 72
    65
 73
     0
 40
0.0
  0
LTYPE
  5
15
330
5
100
AcDbSymbolTableRecord
100
AcDbLinetypeTableRecord
  2
ByLayer
 70
     0
  3

 72
    65
 73
     0
 40
0.0
  0
LTYPE
  5
16
330
5
100
AcDbSymbolTableRecord
100
AcDbLinetypeTableRecord
  2
Continuous
 70
     0
  3
Solid line
 72
    65
 73
     0
 40
0.0
  0
LTYPE
  5
3F
330
5
100
AcDbSymbolTableRecord
100
AcDbLinetypeTableRecord
  2
HIDDEN
 70
     0
  3
Hidden __ __ __ __ __ __ __ __ __ __ __ __ __ __
 72
    65
 73
     2
 40
1.905
 49
1.27
 74
     0
 49
-0.635
 74
     0
  0
LTYPE
  5
40
330
5
100
AcDbSymbolTableRecord
100
AcDbLinetypeTableRecord
  2
PHANTOM
 70
     0
  3
Phantom ______  __  __  ______  __  __  ______
 72
    65
 73
     6
 40
12.7
 49
6.35
 74
     0
 49
-1.27
 74
     0
 49
1.27
 74
     0
 49
-1.27
 74
     0
 49
1.27
 74
     0
 49
-1.27
 74
     0
  0
LTYPE
  5
41
330
5
100
AcDbSymbolTableRecord
100
AcDbLinetypeTableRecord
  2
CENTER
 70
     0
  3
Center ____ _ ____ _ ____ _ ____ _ ____ _ ____
 72
    65
 73
     4
 40
10.16
 49
6.35
 74
     0
 49
-1.27
 74
     0
 49
1.27
 74
     0
 49
-1.27
 74
     0
  0
LTYPE
  5
42
330
5
100
AcDbSymbolTableRecord
100
AcDbLinetypeTableRecord
  2
CENTERX2
 70
     0
  3
Center (2x) ________  __  ________  __  _____
 72
    65
 73
     4
 40
20.32
 49
12.7
 74
     0
 49
-2.54
 74
     0
 49
2.54
 74
     0
 49
-2.54
 74
     0
  0
LTYPE
  5
43
330
5
100
AcDbSymbolTableRecord
100
AcDbLinetypeTableRecord
  2
DOT2
 70
     0
  3
Dot (.5x) ........................................
 72
    65
 73
     2
 40
0.635
 49
0.0
 74
     0
 49
-0.635
 74
     0
  0
ENDTAB
  0
TABLE
  2
LAYER
  5
2
330
0
100
AcDbSymbolTable
 70
     1
  0
LAYER
  5
10
330
2
100
AcDbSymbolTableRecord
100
AcDbLayerTableRecord
  2
0
 70
     0
 62
     7
  6
Continuous
370
    -3
390
F
  0
ENDTAB
  0
TABLE
  2
STYLE
  5
3
330
0
100
AcDbSymbolTable
 70
     2
  0
STYLE
  5
11
330
3
100
AcDbSymbolTableRecord
100
AcDbTextStyleTableRecord
  2
Standard
 70
     0
 40
0.0
 41
1.0
 50
0.0
 71
     0
 42
2.5
  3
txt
  4
bigfont
  0
STYLE
  5
44
330
3
100
AcDbSymbolTableRecord
100
AcDbTextStyleTableRecord
  2
SLDTEXTSTYLE0
 70
     0
 40
0.0
 41
0.7
 50
0.0
 71
     0
 42
0.2
  3
TXT
  4
bigfont
  0
ENDTAB
  0
TABLE
  2
VIEW
  5
6
330
0
100
AcDbSymbolTable
 70
     0
  0
ENDTAB
  0
TABLE
  2
UCS
  5
7
330
0
100
AcDbSymbolTable
 70
     0
  0
ENDTAB
  0
TABLE
  2
APPID
  5
9
330
0
100
AcDbSymbolTable
 70
     1
  0
APPID
  5
12
330
9
100
AcDbSymbolTableRecord
100
AcDbRegAppTableRecord
  2
ACAD
 70
     0
  0
ENDTAB
  0
TABLE
  2
DIMSTYLE
  5
A
330
0
100
AcDbSymbolTable
 70
     1
100
AcDbDimStyleTable
  0
DIMSTYLE
105
27
330
A
100
AcDbSymbolTableRecord
100
AcDbDimStyleTableRecord
  2
ISO-25
 70
     0
 41
2.5
 42
0.625
 43
3.75
 44
1.25
 73
     0
 74
     0
 77
     1
 78
     8
140
2.5
141
2.5
143
0.0393700787
147
0.625
171
     3
172
     1
178
     0
271
     2
272
     2
274
     3
278
    44
283
     0
284
     8
340
11
  0
ENDTAB
  0
TABLE
  2
BLOCK_RECORD
  5
1
330
0
100
AcDbSymbolTable
 70
     1
  0
BLOCK_RECORD
  5
1F
330
1
100
AcDbSymbolTableRecord
100
AcDbBlockTableRecord
  2
*Model_Space
340
22
  0
BLOCK_RECORD
  5
1B
330
1
100
AcDbSymbolTableRecord
100
AcDbBlockTableRecord
  2
*Paper_Space
340
1E
  0
BLOCK_RECORD
  5
23
330
1
100
AcDbSymbolTableRecord
100
AcDbBlockTableRecord
  2
*Paper_Space0
340
26
  0
ENDTAB
  0
ENDSEC
  0
SECTION
  2
BLOCKS
  0
BLOCK
  5
20
330
1F
100
AcDbEntity
  8
0
100
AcDbBlockBegin
  2
*Model_Space
 70
     0
 10
0.0
 20
0.0
 30
0.0
  3
*Model_Space
  1

  0
ENDBLK
  5
21
330
1F
100
AcDbEntity
  8
0
100
AcDbBlockEnd
  0
BLOCK
  5
1C
330
1B
100
AcDbEntity
 67
     1
  8
0
100
AcDbBlockBegin
  2
*Paper_Space
 70
     0
 10
0.0
 20
0.0
 30
0.0
  3
*Paper_Space
  1

  0
ENDBLK
  5
1D
330
1B
100
AcDbEntity
 67
     1
  8
0
100
AcDbBlockEnd
  0
BLOCK
  5
24
330
23
100
AcDbEntity
  8
0
100
AcDbBlockBegin
  2
*Paper_Space0
 70
     0
 10
0.0
 20
0.0
 30
0.0
  3
*Paper_Space0
  1

  0
ENDBLK
  5
25
330
23
100
AcDbEntity
  8
0
100
AcDbBlockEnd
  0
ENDSEC
  0
SECTION
  2
ENTITIES
  0
MTEXT
  5
45
330
1F
100
AcDbEntity
  8
0
  6
Continuous
 62
     7
370
     0
100
AcDbMText
 10
145.6540184006
 20
563.958709769
 30
0.0
 40
7.0
 41
0.0
 71
     1
 72
     1
  1
CHB-514P
  7
SLDTEXTSTYLE0
 73
     1
 44
1.0
  0
LINE
  5
46
330
1F
100
AcDbEntity
  8
0
  6
Continuous
 62
     7
370
    15
100
AcDbLine
 10
398.8955650601
 20
85.5709457595
 30
0.0
 11
398.9955667529
 21
85.5709457595
 31
0.0
  0
LINE
  5
47
330
1F
100
AcDbEntity
  8
0
  6
Continuous
 62
     7
370
    15
100
AcDbLine
 10
398.9955667529
 20
91.5709430177
 30
0.0
 11
398.8955650601
 21
91.5709430177
 31
0.0
  0
LINE
  5
48
330
1F
100
AcDbEntity
  8
0
  6
Continuous
 62
     7
370
    15
100
AcDbLine
 10
398.8955650601
 20
75.5709403951
 30
0.0
 11
398.9955667529
 21
75.5709403951
 31
0.0
  0
LINE
  5
49
330
1F
100
AcDbEntity
  8
0
  6
Continuous
 62
     7
370
    15
100
AcDbLine
 10
398.9955667529
 20
81.5709376533
 30
0.0
 11
398.8955650601
 21
81.5709376533
 31
0.0
  0
LINE
  5
4A
330
1F
100
AcDbEntity
  8
0
  6
Continuous
 62
     7
370
    15
100
AcDbLine
 10
398.8955650601
 20
455.5709505279
 30
0.0
 11
398.9955667529
 21
455.5709505279
 31
0.0
  0
LINE
  5
4B
330
1F
100
AcDbEntity
  8
0
  6
Continuous
 62
     7
370
    15
100
AcDbLine
 10
398.9955667529
 20
461.5709477861
 30
0.0
 11
398.8955650601
 21
461.5709477861
 31
0.0
  0
LINE
  5
4C
330
1F
100
AcDbEntity
  8
0
  6
Continuous
 62
     7
370
    15
100
AcDbLine
 10
398.8955650601
 20
445.5709451635
 30
0.0
 11
398.9955667529
 21
445.5709451635
 31
0.0
  0
LINE
  5
4D
330
1F
100
AcDbEntity
  8
0
  6
Continuous
 62
     7
370
    15
100
AcDbLine
 10
398.9955667529
 20
451.5709424217
 30
0.0
 11
398.8955650601
 21
451.5709424217
 31
0.0
  0
LINE
  5
4E
330
1F
100
AcDbEntity
  8
0
  6
Continuous
 62
     7
370
    15
100
AcDbLine
 10
400.1955572638
 20
95.0709426601
 30
0.0
 11
398.9955667529
 21
95.0709426601
 31
0.0
  0
LINE
  5
4F
330
1F
100
AcDbEntity
  8
0
  6
Continuous
 62
     7
370
    15
100
AcDbLine
 10
400.1955572638
 20
465.0709474284
 30
0.0
 11
398.9955667529
 21
465.0709474284
 31
0.0
  0
LINE
  5
50
330
1F
100
AcDbEntity
  8
0
  6
Continuous
 62
     7
370
    15
100
AcDbLine
 10
398.9955667529
 20
72.0709407527
 30
0.0
 11
400.1955572638
 21
72.0709407527
 31
0.0
  0
LINE
  5
51
330
1F
100
AcDbEntity
  8
0
  6
Continuous
 62
     7
370
    15
100
AcDbLine
 10
398.9955667529
 20
442.0709455211
 30
0.0
 11
400.1955572638
 21
442.0709455211
 31
0.0
  0
LINE
  5
52
330
1F
100
AcDbEntity
  8
0
  6
Continuous
 62
     7
370
    15
100
AcDbLine
 10
811.6955641779
 20
74.5709383685
 30
0.0
 11
811.6955641779
 21
109.5709496934
 31
0.0
  0
LINE
  5
53
330
1F
100
AcDbEntity
  8
0
  6
Continuous
 62
     7
370
    15
100
AcDbLine
 10
811.6955641779
 20
427.5709384878
 30
0.0
 11
811.6955641779
 21
462.5709498126
 31
0.0
  0
LINE
  5
54
330
1F
100
AcDbEntity
  8
0
  6
Continuous
 62
     7
370
    15
100
AcDbLine
 10
391.0907540593
 20
87.4709481199
 30
0.0
 11
391.0907540593
 21
78.8709366519
 31
0.0
  0
LINE
  5
55
330
1F
100
AcDbEntity
  8
0
  6
Continuous
 62
     7
370
    15
100
AcDbLine
 10
391.6955623898
 20
76.3709390361
 30
0.0
 11
391.6955623898
 21
75.5711937148
 31
0.0
  0
LINE
  5
56
330
1F
100
AcDbEntity
  8
0
  6
Continuous
 62
     7
370
    15
100
AcDbLine
 10
391.6955623898
 20
91.570689698
 30
0.0
 11
391.6955623898
 21
90.7709443767
 31
0.0
  0
ARC
  5
57
330
1F
100
AcDbEntity
  8
0
  6
Continuous
 62
     7
370
    15
100
AcDbCircle
 10
395.295560244
 20
88.7638012335
 30
0.0
 40
3.807142857143182
100
AcDbArc
 50
77.9663271603
 51
90.0
  0
ARC
  5
58
330
1F
100
AcDbEntity
  8
0
  6
Continuous
 62
     7
370
    15
100
AcDbCircle
 10
395.295560244
 20
88.7638012335
 30
0.0
 40
3.807142857143277
100
AcDbArc
 50
90.0
 51
125.3002484399
  0
LINE
  5
59
330
1F
100
AcDbEntity
  8
0
  6
Continuous
 62
     7
370
    15
100
AcDbLine
 10
393.0955562863
 20
91.870948096
 30
0.0
 11
393.0955562863
 21
91.5709430177
 31
0.0
  0
LINE
  5
5A
330
1F
100
AcDbEntity
  8
0
  6
Continuous
 62
     7
370
    15
100
AcDbLine
 10
393.1955579791
 20
75.1709485252
 30
0.0
 11
393.1955579791
 21
74.7709417541
 31
0.0
  0
ARC
  5
5B
330
1F
100
AcDbEntity
  8
0
  6
Continuous
 62
     7
370
    15
100
AcDbCircle
 10
393.395560244
 20
75.5709440906
 30
0.0
 40
0.4000000000007731
100
AcDbArc
 50
270.0
 51
0.0
  0
LINE
  5
5C
330
1F
100
AcDbEntity
  8
0
  6
Continuous
 62
     7
370
    15
100
AcDbLine
 10
393.7955532345
 20
90.7709443767
 30
0.0
 11
393.7955532345
 21
90.3209442098
 31
0.0
  0
LINE
  5
5D
330
1F
100
AcDbEntity
  8
0
  6
Continuous
 62
     7
370
    15
100
AcDbLine
 10
393.7955532345
 20
76.820939203
 30
0.0
 11
393.7955532345
 21
76.3709390361
 31
0.0
  0
SPLINE
  5
5E
330
1F
100
AcDbEntity
  8
0
  6
Continuous
 62
     7
370
    15
100
AcDbSpline
210
0.0
220
0.0
230
1.0
 70
     8
 71
     3
 72
    11
 73
     7
 74
     0
 42
0.00000001
 43
0.00000001
 40
0.0
 40
0.0
 40
0.0
 40
0.0
 40
0.2262215839525792
 40
0.4679438737890425
 40
0.7254849024831278
 40
1.0
 40
1.0
 40
1.0
 40
1.0
 10
396.5160731348573
 20
91.8013745744058
 30
0.0
 10
396.5188924632242
 20
91.7784746320344
 30
0.0
 10
396.5247243003745
 20
91.73110564294157
 30
0.0
 10
396.5415150152287
 20
91.40632851510155
 30
0.0
 10
396.5551075492208
 20
90.90582944853715
 30
0.0
 10
396.5556427185373
 20
90.48200772678516
 30
0.0
 10
396.5559188398897
 20
90.26333632062162
 30
0.0
  0
SPLINE
  5
5F
330
1F
100
AcDbEntity
  8
0
  6
Continuous
 62
     7
370
    15
100
AcDbSpline
210
0.0
220
0.0
230
1.0
 70
     8
 71
     3
 72
    12
 73
     8
 74
     0
 42
0.00000001
 43
0.00000001
 40
0.0
 40
0.0
 40
0.0
 40
0.0
 40
0.2489469272997727
 40
0.4822949499668513
 40
0.6998133322848473
 40
0.9035365115921212
 40
1.0
 40
1.0
 40
1.0
 40
1.0
 10
396.5559188398896
 20
76.70471014569483
 30
0.0
 10
396.554492968387
 20
76.56737421660084
 30
0.0
 10
396.551730569861
 20
76.30130776713919
 30
0.0
 10
396.5408296981885
 20
75.96550724289366
 30
0.0
 10
396.538319173306
 20
75.73231914538705
 30
0.0
 10
396.5431087032927
 20
75.6122388423163
 30
0.0
 10
396.5695389387614
 20
75.61088002317746
 30
0.0
 10
396.5780321631013
 20
75.61044337342466
 30
0.0
  0
LINE
  5
60
330
1F
100
AcDbEntity
  8
0
  6
Continuous
 62
     7
370
    15
100
AcDbLine
 10
396.5550694737
 20
90.3133446176
 30
0.0
 11
396.5550694737
 21
76.6547018487
 31
0.0
  0
LINE
  5
61
330
1F
100
AcDbEntity
  8
0
  6
Continuous
 62
     7
370
    15
100
AcDbLine
 10
395.031455544
 20
94.2512297828
 30
0.0
 11
396.5188149485
 21
91.7710805137
 31
0.0
  0
LINE
  5
62
330
1F
100
AcDbEntity
  8
0
  6
Continuous
 62
     7
370
    15
100
AcDbLine
 10
398.9955667529
 20
93.4741938312
 30
0.0
 11
397.6042751345
 21
95.7941556175
 31
0.0
  0
LINE
  5
63
330
1F
100
AcDbEntity
  8
0
  6
Continuous
 62
     7
370
    15
100
AcDbLine
 10
396.5833071742
 20
75.4783594806
 30
0.0
 11
395.0142298016
 21
72.8619390924
 31
0.0
  0
LINE
  5
64
330
1F
100
AcDbEntity
  8
0
  6
Continuous
 62
     7
370
    15
100
AcDbLine
 10
397.5870493922
 20
71.3190132577
 30
0.0
 11
398.9955667529
 21
73.6677044828
 31
0.0
  0
LINE
  5
65
330
1F
100
AcDbEntity
  8
0
  6
Continuous
 62
     7
370
    15
100
AcDbLine
 10
397.6241681847
 20
95.7586461503
 30
0.0
 11
397.5342098746
 21
95.8724314172
 31
0.0
  0
SPLINE
  5
66
330
1F
100
AcDbEntity
  8
0
  6
Continuous
 62
     7
370
    15
100
AcDbSpline
210
0.0
220
0.0
230
1.0
 70
     8
 71
     3
 72
    20
 73
    16
 74
     0
 42
0.00000001
 43
0.00000001
 40
0.0
 40
0.0
 40
0.0
 40
0.0
 40
0.0337801161870618
 40
0.1101061415154275
 40
0.1739278464845517
 40
0.2252735690579396
 40
0.2665361591167194
 40
0.3037742937449505
 40
0.3388587019050663
 40
0.3726397103524258
 40
0.4139172414996349
 40
0.6259828726423703
 40
0.8390272788950416
 40
0.9659476431248617
 40
1.0
 40
1.0
 40
1.0
 40
1.0
 10
397.4218998226701
 20
96.0144990880319
 30
0.0
 10
397.3812389981071
 20
96.07068249193033
 30
0.0
 10
397.2487052176225
 20
96.253812052119
 30
0.0
 10
396.9388440848434
 20
96.43100142033889
 30
0.0
 10
396.55158020889
 20
96.5539468062429
 30
0.0
 10
396.1817332884082
 20
96.56874922013859
 30
0.0
 10
395.8474161567736
 20
96.51815893254287
 30
0.0
 10
395.5729298140216
 20
96.41710768849721
 30
0.0
 10
395.3454301849294
 20
96.28238737685824
 30
0.0
 10
395.1393933337073
 20
96.10621154059817
 30
0.0
 10
394.7948707450272
 20
95.66372014950669
 30
0.0
 10
394.6137835878585
 20
94.97704550348595
 30
0.0
 10
394.4639812983613
 20
93.7962197131883
 30
0.0
 10
394.408862974012
 20
92.89157431215264
 30
0.0
 10
394.4023010294331
 20
92.4769872236385
 30
0.0
 10
394.4009129080354
 20
92.38928498814786
 30
0.0
  0
SPLINE
  5
67
330
1F
100
AcDbEntity
  8
0
  6
Continuous
 62
     7
370
    15
100
AcDbSpline
210
0.0
220
0.0
230
1.0
 70
     8
 71
     3
 72
    19
 73
    15
 74
     0
 42
0.00000001
 43
0.00000001
 40
0.0
 40
0.0
 40
0.0
 40
0.0
 40
0.0102732000476272
 40
0.1295973450528628
 40
0.3268129782787392
 40
0.552508948704817
 40
0.5858540660348889
 40
0.618601546414499
 40
0.6529067349695111
 40
0.6960073439970937
 40
0.7523130927984815
 40
0.822314953407058
 40
0.9054608392297367
 40
1.0
 40
1.0
 40
1.0
 40
1.0
 10
394.3980667862473
 20
74.77094175408564
 30
0.0
 10
394.3983899940466
 20
74.74374434937597
 30
0.0
 10
394.4024672895821
 20
74.40064663626202
 30
0.0
 10
394.4422288877733
 20
73.58065155408289
 30
0.0
 10
394.5772314969591
 20
72.35821315364142
 30
0.0
 10
394.6676384739816
 20
71.71488139926213
 30
0.0
 10
395.0185282462307
 20
71.17476529835301
 30
0.0
 10
395.1877537138857
 20
70.98692783747082
 30
0.0
 10
395.4244514213476
 20
70.81042651513245
 30
0.0
 10
395.7380897608483
 20
70.65697280481089
 30
0.0
 10
396.1415704407984
 20
70.55518645632856
 30
0.0
 10
396.6274392343868
 20
70.57834372420315
 30
0.0
 10
397.1571857338916
 20
70.7886735721488
 30
0.0
 10
397.422406836752
 20
71.11048993685465
 30
0.0
 10
397.5635204586565
 20
71.28171565125669
 30
0.0
  0
SPLINE
  5
68
330
1F
100
AcDbEntity
  8
0
  6
Continuous
 62
     7
370
    15
100
AcDbSpline
210
0.0
220
0.0
230
1.0
 70
     8
 71
     3
 72
    11
 73
     7
 74
     0
 42
0.00000001
 43
0.00000001
 40
0.0
 40
0.0
 40
0.0
 40
0.0
 40
0.2262215839525792
 40
0.4679438737890425
 40
0.7254849024831278
 40
1.0
 40
1.0
 40
1.0
 40
1.0
 10
396.5160731348573
 20
461.8013793427774
 30
0.0
 10
396.5188924632242
 20
461.778479400406
 30
0.0
 10
396.5247243003745
 20
461.731110411313
 30
0.0
 10
396.5415150152287
 20
461.4063332834734
 30
0.0
 10
396.5551075492208
 20
460.9058342169087
 30
0.0
 10
396.5556427185373
 20
460.4820124951569
 30
0.0
 10
396.5559188398897
 20
460.2633410889932
 30
0.0
  0
SPLINE
  5
69
330
1F
100
AcDbEntity
  8
0
  6
Continuous
 62
     7
370
    15
100
AcDbSpline
210
0.0
220
0.0
230
1.0
 70
     8
 71
     3
 72
    12
 73
     8
 74
     0
 42
0.00000001
 43
0.00000001
 40
0.0
 40
0.0
 40
0.0
 40
0.0
 40
0.248946245326258
 40
0.4822936287519815
 40
0.699811415192867
 40
0.9035372363555159
 40
1.0
 40
1.0
 40
1.0
 40
1.0
 10
396.5559188398897
 20
446.7047149140664
 30
0.0
 10
396.554492972832
 20
446.5673792362446
 30
0.0
 10
396.5517305829175
 20
446.3013132735827
 30
0.0
 10
396.5408296511171
 20
445.9655093503669
 30
0.0
 10
396.5383193202242
 20
445.732331772764
 30
0.0
 10
396.5431083363746
 20
445.6122179342534
 30
0.0
 10
396.5695389388724
 20
445.610878542631
 30
0.0
 10
396.5780321631013
 20
445.6104481417962
 30
0.0
  0
LINE
  5
6A
330
1F
100
AcDbEntity
  8
0
  6
Continuous
 62
     7
370
    15
100
AcDbLine
 10
396.5550694737
 20
460.3133344848
 30
0.0
 11
396.5550694737
 21
446.6547066171
 31
0.0
  0
LINE
  5
6B
330
1F
100
AcDbEntity
  8
0
  6
Continuous
 62
     7
370
    15
100
AcDbLine
 10
395.031455544
 20
464.2512345512
 30
0.0
 11
396.5188149485
 21
461.7710852821
 31
0.0
  0
LINE
  5
6C
330
1F
100
AcDbEntity
  8
0
  6
Continuous
 62
     7
370
    15
100
AcDbLine
 10
398.9955667529
 20
463.4741836984
 30
0.0
 11
397.6042751345
 21
465.7941603858
 31
0.0
  0
LINE
  5
6D
330
1F
100
AcDbEntity
  8
0
  6
Continuous
 62
     7
370
    15
100
AcDbLine
 10
396.5833071742
 20
445.478364249
 30
0.0
 11
395.0142298016
 21
442.8619438608
 31
0.0
  0
LINE
  5
6E
330
1F
100
AcDbEntity
  8
0
  6
Continuous
 62
     7
370
    15
100
AcDbLine
 10
397.5870493922
 20
441.3190180261
 30
0.0
 11
398.9955667529
 21
443.66769435
 31
0.0
  0
LINE
  5
6F
330
1F
100
AcDbEntity
  8
0
  6
Continuous
 62
     7
370
    15
100
AcDbLine
 10
397.6241681847
 20
465.7586509187
 30
0.0
 11
397.5342098746
 21
465.8724361856
 31
0.0
  0
SPLINE
  5
70
330
1F
100
AcDbEntity
  8
0
  6
Continuous
 62
     7
370
    15
100
AcDbSpline
210
0.0
220
0.0
230
1.0
 70
     8
 71
     3
 72
    20
 73
    16
 74
     0
 42
0.00000001
 43
0.00000001
 40
0.0
 40
0.0
 40
0.0
 40
0.0
 40
0.0337800717946074
 40
0.1101059968184157
 40
0.1739276179156516
 40
0.2252732730125797
 40
0.2665361123801736
 40
0.3037735423157453
 40
0.3388579043693592
 40
0.3726388684230917
 40
0.4139163453250487
 40
0.6259816977797589
 40
0.839027386110905
 40
0.9659457676375942
 40
1.0
 40
1.0
 40
1.0
 40
1.0
 10
397.4218998226701
 20
466.0145038564035
 30
0.0
 10
397.3812390038417
 20
466.0706872321337
 30
0.0
 10
397.2487052420493
 20
466.2538167005081
 30
0.0
 10
396.9388438500705
 20
466.4310073419007
 30
0.0
 10
396.5515808561258
 20
466.5539483954299
 30
0.0
 10
396.1817308216444
 20
466.5687626087981
 30
0.0
 10
395.8474212006643
 20
466.5181393750694
 30
0.0
 10
395.5729265891648
 20
466.4171172789988
 30
0.0
 10
395.3454306362707
 20
466.2823907418916
 30
0.0
 10
395.1393931885995
 20
466.1062167606
 30
0.0
 10
394.7948710188294
 20
465.6637240602302
 30
0.0
 10
394.6137822279413
 20
464.977050456297
 30
0.0
 10
394.4639829488518
 20
463.7962148851905
 30
0.0
 10
394.4088623157644
 20
462.8915699644007
 30
0.0
 10
394.4023009783608
 20
462.4769821361076
 30
0.0
 10
394.4009129080354
 20
462.3892748553582
 30
0.0
  0
SPLINE
  5
71
330
1F
100
AcDbEntity
  8
0
  6
Continuous
 62
     7
370
    15
100
AcDbSpline
210
0.0
220
0.0
230
1.0
 70
     8
 71
     3
 72
    19
 73
    15
 74
     0
 42
0.00000001
 43
0.00000001
 40
0.0
 40
0.0
 40
0.0
 40
0.0
 40
0.010273195004654
 40
0.1295972814353018
 40
0.3268128178507259
 40
0.5525098710901095
 40
0.5858536744480033
 40
0.6186024282451602
 40
0.6529064822931058
 40
0.69600707016319
 40
0.7523132143845905
 40
0.8223150406302128
 40
0.9054608856377154
 40
1.0
 40
1.0
 40
1.0
 40
1.0
 10
394.3980667862474
 20
444.7709465224572
 30
0.0
 10
394.3983899951839
 20
444.7437491196702
 30
0.0
 10
394.4024673050657
 20
444.4006514308099
 30
0.0
 10
394.4422275702493
 20
443.5806540950963
 30
0.0
 10
394.5772403175752
 20
442.3582296405172
 30
0.0
 10
394.6676157679127
 20
441.7148459677695
 30
0.0
 10
395.01853626814
 20
441.1747711098786
 30
0.0
 10
395.1877440235443
 20
440.986915210649
 30
0.0
 10
395.424457967343
 20
440.8104348181159
 30
0.0
 10
395.7380899672033
 20
440.6569787839621
 30
0.0
 10
396.1415686208968
 20
440.5551704494391
 30
0.0
 10
396.6274395281487
 20
440.5783356328974
 30
0.0
 10
397.1571856426715
 20
440.7886628054299
 30
0.0
 10
397.4224068050728
 20
441.1104795839113
 30
0.0
 10
397.5635204586565
 20
441.281705518467
 30
0.0
  0
LINE
  5
72
330
1F
100
AcDbEntity
  8
0
  6
Continuous
 62
     7
370
    15
100
AcDbLine
 10
391.0907540593
 20
457.4709379871
 30
0.0
 11
391.0907540593
 21
448.8709414203
 31
0.0
  0
LINE
  5
73
330
1F
100
AcDbEntity
  8
0
  6
Continuous
 62
     7
370
    15
100
AcDbLine
 10
391.6955623898
 20
446.3709438045
 30
0.0
 11
391.6955623898
 21
445.5711984832
 31
0.0
  0
LINE
  5
74
330
1F
100
AcDbEntity
  8
0
  6
Continuous
 62
     7
370
    15
100
AcDbLine
 10
391.6955623898
 20
461.5706944663
 30
0.0
 11
391.6955623898
 21
460.7709491451
 31
0.0
  0
ARC
  5
75
330
1F
100
AcDbEntity
  8
0
  6
Continuous
 62
     7
370
    15
100
AcDbCircle
 10
395.295560244
 20
458.7638012335
 30
0.0
 40
3.807142857143235
100
AcDbArc
 50
77.9663271603
 51
90.0
  0
ARC
  5
76
330
1F
100
AcDbEntity
  8
0
  6
Continuous
 62
     7
370
    15
100
AcDbCircle
 10
395.295560244
 20
458.7638012335
 30
0.0
 40
3.807142857143289
100
AcDbArc
 50
90.0
 51
125.3002484399
  0
LINE
  5
77
330
1F
100
AcDbEntity
  8
0
  6
Continuous
 62
     7
370
    15
100
AcDbLine
 10
393.0955562863
 20
461.8709379632
 30
0.0
 11
393.0955562863
 21
461.5709477861
 31
0.0
  0
LINE
  5
78
330
1F
100
AcDbEntity
  8
0
  6
Continuous
 62
     7
370
    15
100
AcDbLine
 10
393.1955579791
 20
445.1709383924
 30
0.0
 11
393.1955579791
 21
444.7709465225
 31
0.0
  0
ARC
  5
79
330
1F
100
AcDbEntity
  8
0
  6
Continuous
 62
     7
370
    15
100
AcDbCircle
 10
393.395560244
 20
445.5709440906
 30
0.0
 40
0.4000000000007731
100
AcDbArc
 50
270.0
 51
0.0
  0
LINE
  5
7A
330
1F
100
AcDbEntity
  8
0
  6
Continuous
 62
     7
370
    15
100
AcDbLine
 10
393.7955532345
 20
460.7709491451
 30
0.0
 11
393.7955532345
 21
460.3209489782
 31
0.0
  0
LINE
  5
7B
330
1F
100
AcDbEntity
  8
0
  6
Continuous
 62
     7
370
    15
100
AcDbLine
 10
393.7955532345
 20
446.8209439714
 30
0.0
 11
393.7955532345
 21
446.3709438045
 31
0.0
  0
LINE
  5
7C
330
1F
100
AcDbEntity
  8
0
  6
Continuous
 62
     7
370
    15
100
AcDbLine
 10
811.6955641779
 20
38.5709399183
 30
0.0
 11
811.6955641779
 21
73.5709512431
 31
0.0
  0
LINE
  5
7D
330
1F
100
AcDbEntity
  8
0
  6
Continuous
 62
     7
370
    15
100
AcDbLine
 10
811.6955641779
 20
463.570936938
 30
0.0
 11
811.6955641779
 21
498.5709482629
 31
0.0
  0
LINE
  5
7E
330
1F
100
AcDbEntity
  8
0
  6
Continuous
 62
     7
370
    15
100
AcDbLine
 10
808.6955580983
 20
73.5709512431
 30
0.0
 11
808.6955580983
 21
74.5709383685
 31
0.0
  0
LINE
  5
7F
330
1F
100
AcDbEntity
  8
0
  6
Continuous
 62
     7
370
    15
100
AcDbLine
 10
808.6955580983
 20
109.5709496934
 30
0.0
 11
808.6955580983
 21
110.5709368188
 31
0.0
  0
LINE
  5
80
330
1F
100
AcDbEntity
  8
0
  6
Continuous
 62
     7
370
    15
100
AcDbLine
 10
803.6955628666
 20
110.5709368188
 30
0.0
 11
803.6955628666
 21
109.5709496934
 31
0.0
  0
LINE
  5
81
330
1F
100
AcDbEntity
  8
0
  6
Continuous
 62
     7
370
    15
100
AcDbLine
 10
803.6955628666
 20
74.5709383685
 30
0.0
 11
803.6955628666
 21
73.5709512431
 31
0.0
  0
LINE
  5
82
330
1F
100
AcDbEntity
  8
0
  6
Continuous
 62
     7
370
    15
100
AcDbLine
 10
803.6955628666
 20
463.570936938
 30
0.0
 11
803.6955628666
 21
462.5709498126
 31
0.0
  0
LINE
  5
83
330
1F
100
AcDbEntity
  8
0
  6
Continuous
 62
     7
370
    15
100
AcDbLine
 10
803.6955628666
 20
427.5709384878
 30
0.0
 11
803.6955628666
 21
426.5709513624
 31
0.0
  0
LINE
  5
84
330
1F
100
AcDbEntity
  8
0
  6
Continuous
 62
     7
370
    15
100
AcDbLine
 10
808.6955580983
 20
426.5709513624
 30
0.0
 11
808.6955580983
 21
427.5709384878
 31
0.0
  0
LINE
  5
85
330
1F
100
AcDbEntity
  8
0
  6
Continuous
 62
     7
370
    15
100
AcDbLine
 10
808.6955580983
 20
462.5709498126
 30
0.0
 11
808.6955580983
 21
463.570936938
 31
0.0
  0
LINE
  5
86
330
1F
100
AcDbEntity
  8
0
  6
Continuous
 62
     7
370
    15
100
AcDbLine
 10
391.8955657754
 20
77.1137619216
 30
0.0
 11
391.8955657754
 21
76.820939203
 31
0.0
  0
LINE
  5
87
330
1F
100
AcDbEntity
  8
0
  6
Continuous
 62
     7
370
    15
100
AcDbLine
 10
391.8955657754
 20
90.3209442098
 30
0.0
 11
391.8955657754
 21
90.0281363923
 31
0.0
  0
LINE
  5
88
330
1F
100
AcDbEntity
  8
0
  6
Continuous
 62
     7
370
    15
100
AcDbLine
 10
391.8955657754
 20
447.1137517888
 30
0.0
 11
391.8955657754
 21
446.8209439714
 31
0.0
  0
LINE
  5
89
330
1F
100
AcDbEntity
  8
0
  6
Continuous
 62
     7
370
    15
100
AcDbLine
 10
391.8955657754
 20
460.3209489782
 30
0.0
 11
391.8955657754
 21
460.0281262595
 31
0.0
  0
ARC
  5
8A
330
1F
100
AcDbEntity
  8
0
  6
Continuous
 62
     7
370
    15
100
AcDbCircle
 10
415.195560244
 20
33.5709440906
 30
0.0
 40
15.0
100
AcDbArc
 50
180.0
 51
270.0
  0
LINE
  5
8B
330
1F
100
AcDbEntity
  8
0
  6
Continuous
 62
     7
370
    15
100
AcDbLine
 10
400.1955572638
 20
33.5709446866
 30
0.0
 11
415.1955578599
 21
33.5709446866
 31
0.0
  0
LINE
  5
8C
330
1F
100
AcDbEntity
  8
0
  6
Continuous
 62
     7
370
    15
100
AcDbLine
 10
415.1955578599
 20
18.5709440906
 30
0.0
 11
415.1955578599
 21
33.5709446866
 31
0.0
  0
LINE
  5
8D
330
1F
100
AcDbEntity
  8
0
  6
Continuous
 62
     7
370
    15
100
AcDbLine
 10
785.1955626282
 20
33.5709446866
 30
0.0
 11
785.1955626282
 21
18.5709440906
 31
0.0
  0
LINE
  5
8E
330
1F
100
AcDbEntity
  8
0
  6
Continuous
 62
     7
370
    15
100
AcDbLine
 10
785.1955626282
 20
18.5709440906
 30
0.0
 11
415.1955578599
 21
18.5709440906
 31
0.0
  0
LINE
  5
8F
330
1F
100
AcDbEntity
  8
0
  6
Continuous
 62
     7
370
    15
100
AcDbLine
 10
785.1955626282
 20
33.5709446866
 30
0.0
 11
415.1955578599
 21
33.5709446866
 31
0.0
  0
LINE
  5
90
330
1F
100
AcDbEntity
  8
0
  6
Continuous
 62
     7
370
    15
100
AcDbLine
 10
415.1955578599
 20
33.5709446866
 30
0.0
 11
415.1955578599
 21
503.5709434945
 31
0.0
  0
LINE
  5
91
330
1F
100
AcDbEntity
  8
0
  6
Continuous
 62
     7
370
    15
100
AcDbLine
 10
400.1955572638
 20
33.5709446866
 30
0.0
 11
400.1955572638
 21
73.5834533174
 31
0.0
  0
LINE
  5
92
330
1F
100
AcDbEntity
  8
0
  6
Continuous
 62
     7
370
    15
100
AcDbLine
 10
400.1955572638
 20
93.5584300954
 30
0.0
 11
400.1955572638
 21
443.5834580858
 31
0.0
  0
LINE
  5
93
330
1F
100
AcDbEntity
  8
0
  6
Continuous
 62
     7
370
    15
100
AcDbLine
 10
400.1955572638
 20
463.5584348638
 30
0.0
 11
400.1955572638
 21
503.5709434945
 31
0.0
  0
LINE
  5
94
330
1F
100
AcDbEntity
  8
0
  6
Continuous
 62
     7
370
    15
100
AcDbLine
 10
400.1955572638
 20
503.5709434945
 30
0.0
 11
415.1955578599
 21
503.5709434945
 31
0.0
  0
LINE
  5
95
330
1F
100
AcDbEntity
  8
0
  6
Continuous
 62
     7
370
    15
100
AcDbLine
 10
780.1955673966
 20
38.5709399183
 30
0.0
 11
780.1955673966
 21
498.5709482629
 31
0.0
  0
LINE
  5
96
330
1F
100
AcDbEntity
  8
0
  6
Continuous
 62
     7
370
    15
100
AcDbLine
 10
420.1955530915
 20
498.5709482629
 30
0.0
 11
780.1955673966
 21
498.5709482629
 31
0.0
  0
LINE
  5
97
330
1F
100
AcDbEntity
  8
0
  6
Continuous
 62
     7
370
    15
100
AcDbLine
 10
785.1955626282
 20
503.5709434945
 30
0.0
 11
415.1955578599
 21
503.5709434945
 31
0.0
  0
LINE
  5
98
330
1F
100
AcDbEntity
  8
0
  6
Continuous
 62
     7
370
    15
100
AcDbLine
 10
785.1955626282
 20
33.5709446866
 30
0.0
 11
785.1955626282
 21
503.5709434945
 31
0.0
  0
LINE
  5
99
330
1F
100
AcDbEntity
  8
0
  6
Continuous
 62
     7
370
    15
100
AcDbLine
 10
420.1955530915
 20
38.5709399183
 30
0.0
 11
420.1955530915
 21
498.5709482629
 31
0.0
  0
LINE
  5
9A
330
1F
100
AcDbEntity
  8
0
  6
Continuous
 62
     7
370
    15
100
AcDbLine
 10
780.1955673966
 20
38.5709399183
 30
0.0
 11
420.1955530915
 21
38.5709399183
 31
0.0
  0
LINE
  5
9B
330
1F
100
AcDbEntity
  8
0
  6
Continuous
 62
     7
370
    15
100
AcDbLine
 10
785.1955626282
 20
33.5709446866
 30
0.0
 11
800.1955632243
 21
33.5709446866
 31
0.0
  0
ARC
  5
9C
330
1F
100
AcDbEntity
  8
0
  6
Continuous
 62
     7
370
    15
100
AcDbCircle
 10
785.195560244
 20
33.5709440906
 30
0.0
 40
15.00000000000011
100
AcDbArc
 50
270.0
 51
0.0
  0
LINE
  5
9D
330
1F
100
AcDbEntity
  8
0
  6
Continuous
 62
     7
370
    15
100
AcDbLine
 10
800.1955632243
 20
33.5709446866
 30
0.0
 11
800.1955632243
 21
503.5709434945
 31
0.0
  0
LINE
  5
9E
330
1F
100
AcDbEntity
  8
0
  6
Continuous
 62
     7
370
    15
100
AcDbLine
 10
800.1955632243
 20
503.5709434945
 30
0.0
 11
785.1955626282
 21
503.5709434945
 31
0.0
  0
LINE
  5
9F
330
1F
100
AcDbEntity
  8
0
  6
Continuous
 62
     7
370
    15
100
AcDbLine
 10
785.1955626282
 20
518.5709440906
 30
0.0
 11
415.1955578599
 21
518.5709440906
 31
0.0
  0
LINE
  5
A0
330
1F
100
AcDbEntity
  8
0
  6
Continuous
 62
     7
370
    15
100
AcDbLine
 10
785.1955626282
 20
518.5709440906
 30
0.0
 11
785.1955626282
 21
503.5709434945
 31
0.0
  0
LINE
  5
A1
330
1F
100
AcDbEntity
  8
0
  6
Continuous
 62
     7
370
    15
100
AcDbLine
 10
415.1955578599
 20
503.5709434945
 30
0.0
 11
415.1955578599
 21
518.5709440906
 31
0.0
  0
ARC
  5
A2
330
1F
100
AcDbEntity
  8
0
  6
Continuous
 62
     7
370
    15
100
AcDbCircle
 10
415.195560244
 20
503.5709440906
 30
0.0
 40
15.0
100
AcDbArc
 50
90.0
 51
180.0
  0
ARC
  5
A3
330
1F
100
AcDbEntity
  8
0
  6
Continuous
 62
     7
370
    15
100
AcDbCircle
 10
785.195560244
 20
503.5709440906
 30
0.0
 40
15.00000000000011
100
AcDbArc
 50
0.0
 51
90.0
  0
LINE
  5
A4
330
1F
100
AcDbEntity
  8
0
  6
Continuous
 62
     7
370
    15
100
AcDbLine
 10
398.9955667529
 20
94.6054303844
 30
0.0
 11
400.1955572638
 21
94.6054303844
 31
0.0
  0
LINE
  5
A5
330
1F
100
AcDbEntity
  8
0
  6
Continuous
 62
     7
370
    15
100
AcDbLine
 10
398.9955667529
 20
72.5364679296
 30
0.0
 11
400.1955572638
 21
72.5364679296
 31
0.0
  0
LINE
  5
A6
330
1F
100
AcDbEntity
  8
0
  6
Continuous
 62
     7
370
    15
100
AcDbLine
 10
400.1955572638
 20
93.5584300954
 30
0.0
 11
400.1955572638
 21
73.5834533174
 31
0.0
  0
LINE
  5
A7
330
1F
100
AcDbEntity
  8
0
  6
Continuous
 62
     7
370
    15
100
AcDbLine
 10
398.9955667529
 20
72.5364679296
 30
0.0
 11
398.9955667529
 21
94.6054303844
 31
0.0
  0
LINE
  5
A8
330
1F
100
AcDbEntity
  8
0
  6
Continuous
 62
     7
370
    15
100
AcDbLine
 10
398.9955667529
 20
464.6054202516
 30
0.0
 11
400.1955572638
 21
464.6054202516
 31
0.0
  0
LINE
  5
A9
330
1F
100
AcDbEntity
  8
0
  6
Continuous
 62
     7
370
    15
100
AcDbLine
 10
400.1955572638
 20
463.5584348638
 30
0.0
 11
400.1955572638
 21
443.5834580858
 31
0.0
  0
LINE
  5
AA
330
1F
100
AcDbEntity
  8
0
  6
Continuous
 62
     7
370
    15
100
AcDbLine
 10
398.9955667529
 20
442.5364577968
 30
0.0
 11
400.1955572638
 21
442.5364577968
 31
0.0
  0
LINE
  5
AB
330
1F
100
AcDbEntity
  8
0
  6
Continuous
 62
     7
370
    15
100
AcDbLine
 10
398.9955667529
 20
442.5364577968
 30
0.0
 11
398.9955667529
 21
464.6054202516
 31
0.0
  0
LINE
  5
AC
330
1F
100
AcDbEntity
  8
0
  6
Continuous
 62
     7
370
    15
100
AcDbLine
 10
398.8955650601
 20
88.570936938
 30
0.0
 11
398.8955650601
 21
91.5709430177
 31
0.0
  0
LINE
  5
AD
330
1F
100
AcDbEntity
  8
0
  6
Continuous
 62
     7
370
    15
100
AcDbLine
 10
398.8955650601
 20
85.5709457595
 30
0.0
 11
398.8955650601
 21
88.570936938
 31
0.0
  0
LINE
  5
AE
330
1F
100
AcDbEntity
  8
0
  6
Continuous
 62
     7
370
    15
100
AcDbLine
 10
398.8955650601
 20
75.5709403951
 30
0.0
 11
398.8955650601
 21
81.5709376533
 31
0.0
  0
LINE
  5
AF
330
1F
100
AcDbEntity
  8
0
  6
Continuous
 62
     7
370
    15
100
AcDbLine
 10
398.8955650601
 20
458.5709417064
 30
0.0
 11
398.8955650601
 21
461.5709477861
 31
0.0
  0
LINE
  5
B0
330
1F
100
AcDbEntity
  8
0
  6
Continuous
 62
     7
370
    15
100
AcDbLine
 10
398.8955650601
 20
455.5709505279
 30
0.0
 11
398.8955650601
 21
458.5709417064
 31
0.0
  0
LINE
  5
B1
330
1F
100
AcDbEntity
  8
0
  6
Continuous
 62
     7
370
    15
100
AcDbLine
 10
398.8955650601
 20
445.5709451635
 30
0.0
 11
398.8955650601
 21
451.5709424217
 31
0.0
  0
LINE
  5
B2
330
1F
100
AcDbEntity
  8
0
  6
Continuous
 62
     7
370
    15
100
AcDbLine
 10
398.9955667529
 20
94.6054303844
 30
0.0
 11
398.9955667529
 21
95.0709426601
 31
0.0
  0
LINE
  5
B3
330
1F
100
AcDbEntity
  8
0
  6
Continuous
 62
     7
370
    15
100
AcDbLine
 10
398.9955667529
 20
464.6054202516
 30
0.0
 11
398.9955667529
 21
465.0709474284
 31
0.0
  0
LINE
  5
B4
330
1F
100
AcDbEntity
  8
0
  6
Continuous
 62
     7
370
    15
100
AcDbLine
 10
398.9955667529
 20
72.0709407527
 30
0.0
 11
398.9955667529
 21
72.5364679296
 31
0.0
  0
LINE
  5
B5
330
1F
100
AcDbEntity
  8
0
  6
Continuous
 62
     7
370
    15
100
AcDbLine
 10
398.9955667529
 20
442.0709455211
 30
0.0
 11
398.9955667529
 21
442.5364577968
 31
0.0
  0
LINE
  5
B6
330
1F
100
AcDbEntity
  8
0
  6
Continuous
 62
     7
370
    15
100
AcDbLine
 10
801.0969195637
 20
109.5709496934
 30
0.0
 11
801.0969195637
 21
74.5709383685
 31
0.0
  0
LINE
  5
B7
330
1F
100
AcDbEntity
  8
0
  6
Continuous
 62
     7
370
    15
100
AcDbLine
 10
801.0969195637
 20
109.5709496934
 30
0.0
 11
811.6955641779
 21
109.5709496934
 31
0.0
  0
LINE
  5
B8
330
1F
100
AcDbEntity
  8
0
  6
Continuous
 62
     7
370
    15
100
AcDbLine
 10
801.0969195637
 20
74.5709383685
 30
0.0
 11
811.6955641779
 21
74.5709383685
 31
0.0
  0
LINE
  5
B9
330
1F
100
AcDbEntity
  8
0
  6
Continuous
 62
     7
370
    15
100
AcDbLine
 10
801.0969195637
 20
427.5709384878
 30
0.0
 11
811.6955641779
 21
427.5709384878
 31
0.0
  0
LINE
  5
BA
330
1F
100
AcDbEntity
  8
0
  6
Continuous
 62
     7
370
    15
100
AcDbLine
 10
801.0969195637
 20
462.5709498126
 30
0.0
 11
801.0969195637
 21
427.5709384878
 31
0.0
  0
LINE
  5
BB
330
1F
100
AcDbEntity
  8
0
  6
Continuous
 62
     7
370
    15
100
AcDbLine
 10
801.0969195637
 20
462.5709498126
 30
0.0
 11
811.6955641779
 21
462.5709498126
 31
0.0
  0
LINE
  5
BC
330
1F
100
AcDbEntity
  8
0
  6
Continuous
 62
     7
370
    15
100
AcDbLine
 10
800.6334040436
 20
109.5709496934
 30
0.0
 11
800.6334040436
 21
74.5709383685
 31
0.0
  0
LINE
  5
BD
330
1F
100
AcDbEntity
  8
0
  6
Continuous
 62
     7
370
    15
100
AcDbLine
 10
800.6334040436
 20
109.5709496934
 30
0.0
 11
801.0969195637
 21
109.5709496934
 31
0.0
  0
LINE
  5
BE
330
1F
100
AcDbEntity
  8
0
  6
Continuous
 62
     7
370
    15
100
AcDbLine
 10
800.6334040436
 20
74.5709383685
 30
0.0
 11
801.0969195637
 21
74.5709383685
 31
0.0
  0
LINE
  5
BF
330
1F
100
AcDbEntity
  8
0
  6
Continuous
 62
     7
370
    15
100
AcDbLine
 10
800.6334040436
 20
462.5709498126
 30
0.0
 11
800.6334040436
 21
427.5709384878
 31
0.0
  0
LINE
  5
C0
330
1F
100
AcDbEntity
  8
0
  6
Continuous
 62
     7
370
    15
100
AcDbLine
 10
800.6334040436
 20
462.5709498126
 30
0.0
 11
801.0969195637
 21
462.5709498126
 31
0.0
  0
LINE
  5
C1
330
1F
100
AcDbEntity
  8
0
  6
Continuous
 62
     7
370
    15
100
AcDbLine
 10
800.6334040436
 20
427.5709384878
 30
0.0
 11
801.0969195637
 21
427.5709384878
 31
0.0
  0
LINE
  5
C2
330
1F
100
AcDbEntity
  8
0
  6
Continuous
 62
     7
370
    15
100
AcDbLine
 10
800.1955632243
 20
109.5709496934
 30
0.0
 11
800.6334040436
 21
109.5709496934
 31
0.0
  0
LINE
  5
C3
330
1F
100
AcDbEntity
  8
0
  6
Continuous
 62
     7
370
    15
100
AcDbLine
 10
800.1955632243
 20
74.5709383685
 30
0.0
 11
800.6334040436
 21
74.5709383685
 31
0.0
  0
LINE
  5
C4
330
1F
100
AcDbEntity
  8
0
  6
Continuous
 62
     7
370
    15
100
AcDbLine
 10
800.1955632243
 20
462.5709498126
 30
0.0
 11
800.6334040436
 21
462.5709498126
 31
0.0
  0
LINE
  5
C5
330
1F
100
AcDbEntity
  8
0
  6
Continuous
 62
     7
370
    15
100
AcDbLine
 10
800.1955632243
 20
427.5709384878
 30
0.0
 11
800.6334040436
 21
427.5709384878
 31
0.0
  0
ARC
  5
C6
330
1F
100
AcDbEntity
  8
0
  6
Continuous
 62
     7
370
    15
100
AcDbCircle
 10
393.0182442461
 20
88.9821100207
 30
0.0
 40
1.097818878412346
100
AcDbArc
 50
97.334027639
 51
185.8118817724
  0
LINE
  5
C7
330
1F
100
AcDbEntity
  8
0
  6
Continuous
 62
     7
370
    15
100
AcDbLine
 10
392.878103641
 20
90.0709474284
 30
0.0
 11
396.4215401682
 21
90.0709474284
 31
0.0
  0
LINE
  5
C8
330
1F
100
AcDbEntity
  8
0
  6
Continuous
 62
     7
370
    15
100
AcDbLine
 10
396.4215401682
 20
90.0709474284
 30
0.0
 11
396.4215401682
 21
77.0709508855
 31
0.0
  0
LINE
  5
C9
330
1F
100
AcDbEntity
  8
0
  6
Continuous
 62
     7
370
    15
100
AcDbLine
 10
396.4215401682
 20
77.0709508855
 30
0.0
 11
392.878103641
 21
77.0709508855
 31
0.0
  0
ARC
  5
CA
330
1F
100
AcDbEntity
  8
0
  6
Continuous
 62
     7
370
    15
100
AcDbCircle
 10
393.0182268431
 20
78.1597731059
 30
0.0
 40
1.097801593831414
100
AcDbArc
 50
174.1880113907
 51
262.6667720331
  0
LINE
  5
CB
330
1F
100
AcDbEntity
  8
0
  6
Continuous
 62
     7
370
    15
100
AcDbLine
 10
391.9260684523
 20
88.8709420163
 30
0.0
 11
391.9260684523
 21
78.2709413965
 31
0.0
  0
LINE
  5
CC
330
1F
100
AcDbEntity
  8
0
  6
Continuous
 62
     7
370
    15
100
AcDbLine
 10
391.9260684523
 20
88.8709420163
 30
0.0
 11
391.1955539259
 21
88.8709420163
 31
0.0
  0
LINE
  5
CD
330
1F
100
AcDbEntity
  8
0
  6
Continuous
 62
     7
370
    15
100
AcDbLine
 10
391.1955539259
 20
78.2709413965
 30
0.0
 11
391.9260684523
 21
78.2709413965
 31
0.0
  0
LINE
  5
CE
330
1F
100
AcDbEntity
  8
0
  6
Continuous
 62
     7
370
    15
100
AcDbLine
 10
391.1955539259
 20
88.8709420163
 30
0.0
 11
391.1955539259
 21
78.2709413965
 31
0.0
  0
LINE
  5
CF
330
1F
100
AcDbEntity
  8
0
  6
Continuous
 62
     7
370
    15
100
AcDbLine
 10
392.1475891146
 20
90.0709474284
 30
0.0
 11
392.878103641
 21
90.0709474284
 31
0.0
  0
ARC
  5
D0
330
1F
100
AcDbEntity
  8
0
  6
Continuous
 62
     7
370
    15
100
AcDbCircle
 10
392.2877297198
 20
88.9821100207
 30
0.0
 40
1.097818878412346
100
AcDbArc
 50
97.334027639
 51
185.8118817724
  0
LINE
  5
D1
330
1F
100
AcDbEntity
  8
0
  6
Continuous
 62
     7
370
    15
100
AcDbLine
 10
392.878103641
 20
77.0709508855
 30
0.0
 11
392.1475891146
 21
77.0709508855
 31
0.0
  0
ARC
  5
D2
330
1F
100
AcDbEntity
  8
0
  6
Continuous
 62
     7
370
    15
100
AcDbCircle
 10
392.2877123168
 20
78.1597731059
 30
0.0
 40
1.097801593831414
100
AcDbArc
 50
174.1880113907
 51
262.6667720331
  0
ARC
  5
D3
330
1F
100
AcDbEntity
  8
0
  6
Continuous
 62
     7
370
    15
100
AcDbCircle
 10
393.0182268431
 20
458.9821150753
 30
0.0
 40
1.097801593831411
100
AcDbArc
 50
97.3332279669
 51
185.8119886093
  0
LINE
  5
D4
330
1F
100
AcDbEntity
  8
0
  6
Continuous
 62
     7
370
    15
100
AcDbLine
 10
392.878103641
 20
460.0709372957
 30
0.0
 11
396.4215401682
 21
460.0709372957
 31
0.0
  0
LINE
  5
D5
330
1F
100
AcDbEntity
  8
0
  6
Continuous
 62
     7
370
    15
100
AcDbLine
 10
396.4215401682
 20
460.0709372957
 30
0.0
 11
396.4215401682
 21
447.0709407527
 31
0.0
  0
LINE
  5
D6
330
1F
100
AcDbEntity
  8
0
  6
Continuous
 62
     7
370
    15
100
AcDbLine
 10
396.4215401682
 20
447.0709407527
 30
0.0
 11
392.878103641
 21
447.0709407527
 31
0.0
  0
ARC
  5
D7
330
1F
100
AcDbEntity
  8
0
  6
Continuous
 62
     7
370
    15
100
AcDbCircle
 10
393.0182442461
 20
448.1597781605
 30
0.0
 40
1.097818878412345
100
AcDbArc
 50
174.1881182277
 51
262.665972361
  0
LINE
  5
D8
330
1F
100
AcDbEntity
  8
0
  6
Continuous
 62
     7
370
    15
100
AcDbLine
 10
391.9260684523
 20
458.8709467847
 30
0.0
 11
391.9260684523
 21
448.2709461648
 31
0.0
  0
LINE
  5
D9
330
1F
100
AcDbEntity
  8
0
  6
Continuous
 62
     7
370
    15
100
AcDbLine
 10
392.1475891146
 20
460.0709372957
 30
0.0
 11
392.878103641
 21
460.0709372957
 31
0.0
  0
LINE
  5
DA
330
1F
100
AcDbEntity
  8
0
  6
Continuous
 62
     7
370
    15
100
AcDbLine
 10
391.9260684523
 20
458.8709467847
 30
0.0
 11
391.1955539259
 21
458.8709467847
 31
0.0
  0
ARC
  5
DB
330
1F
100
AcDbEntity
  8
0
  6
Continuous
 62
     7
370
    15
100
AcDbCircle
 10
392.2877123168
 20
458.9821150753
 30
0.0
 40
1.097801593831411
100
AcDbArc
 50
97.3332279669
 51
185.8119886093
  0
LINE
  5
DC
330
1F
100
AcDbEntity
  8
0
  6
Continuous
 62
     7
370
    15
100
AcDbLine
 10
391.1955539259
 20
448.2709461648
 30
0.0
 11
391.9260684523
 21
448.2709461648
 31
0.0
  0
LINE
  5
DD
330
1F
100
AcDbEntity
  8
0
  6
Continuous
 62
     7
370
    15
100
AcDbLine
 10
391.1955539259
 20
458.8709467847
 30
0.0
 11
391.1955539259
 21
448.2709461648
 31
0.0
  0
LINE
  5
DE
330
1F
100
AcDbEntity
  8
0
  6
Continuous
 62
     7
370
    15
100
AcDbLine
 10
392.878103641
 20
447.0709407527
 30
0.0
 11
392.1475891146
 21
447.0709407527
 31
0.0
  0
ARC
  5
DF
330
1F
100
AcDbEntity
  8
0
  6
Continuous
 62
     7
370
    15
100
AcDbCircle
 10
392.2877297198
 20
448.1597781605
 30
0.0
 40
1.097818878412345
100
AcDbArc
 50
174.1881182277
 51
262.665972361
  0
LINE
  5
E0
330
1F
100
AcDbEntity
  8
0
  6
Continuous
 62
     7
370
    15
100
AcDbLine
 10
396.5030793223
 20
90.0709474284
 30
0.0
 11
396.4215401682
 21
90.0709474284
 31
0.0
  0
LINE
  5
E1
330
1F
100
AcDbEntity
  8
0
  6
Continuous
 62
     7
370
    15
100
AcDbLine
 10
396.4215401682
 20
77.0709508855
 30
0.0
 11
396.5550694737
 21
77.0709508855
 31
0.0
  0
LINE
  5
E2
330
1F
100
AcDbEntity
  8
0
  6
Continuous
 62
     7
370
    15
100
AcDbLine
 10
396.5214971575
 20
460.0709372957
 30
0.0
 11
396.4215401682
 21
460.0709372957
 31
0.0
  0
LINE
  5
E3
330
1F
100
AcDbEntity
  8
0
  6
Continuous
 62
     7
370
    15
100
AcDbLine
 10
396.4215401682
 20
447.0709407527
 30
0.0
 11
396.5550694737
 21
447.0709407527
 31
0.0
  0
LINE
  5
E4
330
1F
100
AcDbEntity
  8
0
  6
Continuous
 62
     7
370
    15
100
AcDbLine
 10
391.1955539259
 20
87.4709481199
 30
0.0
 11
391.0907540593
 21
87.4709481199
 31
0.0
  0
LINE
  5
E5
330
1F
100
AcDbEntity
  8
0
  6
Continuous
 62
     7
370
    15
100
AcDbLine
 10
391.1955539259
 20
78.8709366519
 30
0.0
 11
391.0907540593
 21
78.8709366519
 31
0.0
  0
LINE
  5
E6
330
1F
100
AcDbEntity
  8
0
  6
Continuous
 62
     7
370
    15
100
AcDbLine
 10
396.5614471707
 20
76.3709390361
 30
0.0
 11
391.6955623898
 21
76.3709390361
 31
0.0
  0
LINE
  5
E7
330
1F
100
AcDbEntity
  8
0
  6
Continuous
 62
     7
370
    15
100
AcDbLine
 10
396.5697173152
 20
75.5709403951
 30
0.0
 11
391.6961584363
 21
75.5709403951
 31
0.0
  0
LINE
  5
E8
330
1F
100
AcDbEntity
  8
0
  6
Continuous
 62
     7
370
    15
100
AcDbLine
 10
396.5240303549
 20
91.5709430177
 30
0.0
 11
391.6961584363
 21
91.5709430177
 31
0.0
  0
LINE
  5
E9
330
1F
100
AcDbEntity
  8
0
  6
Continuous
 62
     7
370
    15
100
AcDbLine
 10
396.5637121472
 20
90.7709443767
 30
0.0
 11
391.6955623898
 21
90.7709443767
 31
0.0
  0
LINE
  5
EA
330
1F
100
AcDbEntity
  8
0
  6
Continuous
 62
     7
370
    15
100
AcDbLine
 10
395.295563725
 20
91.870948096
 30
0.0
 11
396.4589122805
 21
91.870948096
 31
0.0
  0
LINE
  5
EB
330
1F
100
AcDbEntity
  8
0
  6
Continuous
 62
     7
370
    15
100
AcDbLine
 10
396.6220650944
 20
91.870948096
 30
0.0
 11
396.6844115529
 21
91.870948096
 31
0.0
  0
LINE
  5
EC
330
1F
100
AcDbEntity
  8
0
  6
Continuous
 62
     7
370
    15
100
AcDbLine
 10
393.0955562863
 20
91.870948096
 30
0.0
 11
395.295563725
 21
91.870948096
 31
0.0
  0
LINE
  5
ED
330
1F
100
AcDbEntity
  8
0
  6
Continuous
 62
     7
370
    15
100
AcDbLine
 10
395.295563725
 20
75.1709485252
 30
0.0
 11
396.3989500079
 21
75.1709485252
 31
0.0
  0
LINE
  5
EE
330
1F
100
AcDbEntity
  8
0
  6
Continuous
 62
     7
370
    15
100
AcDbLine
 10
393.1955579791
 20
75.1709485252
 30
0.0
 11
395.295563725
 21
75.1709485252
 31
0.0
  0
LINE
  5
EF
330
1F
100
AcDbEntity
  8
0
  6
Continuous
 62
     7
370
    15
100
AcDbLine
 10
395.295563725
 20
74.7709417541
 30
0.0
 11
396.159071115
 21
74.7709417541
 31
0.0
  0
LINE
  5
F0
330
1F
100
AcDbEntity
  8
0
  6
Continuous
 62
     7
370
    15
100
AcDbLine
 10
393.1955579791
 20
74.7709417541
 30
0.0
 11
395.295563725
 21
74.7709417541
 31
0.0
  0
ARC
  5
F1
330
1F
100
AcDbEntity
  8
0
  6
Continuous
 62
     7
370
    15
100
AcDbCircle
 10
392.1612951602
 20
76.3686842476
 30
0.0
 40
0.802695895376158
100
AcDbArc
 50
179.8390548171
 51
234.5346344588
  0
ARC
  5
F2
330
1F
100
AcDbEntity
  8
0
  6
Continuous
 62
     7
370
    15
100
AcDbCircle
 10
392.1613070057
 20
90.7732079308
 30
0.0
 40
0.8027077655064436
100
AcDbArc
 50
125.4658000801
 51
180.1615684768
  0
LINE
  5
F3
330
1F
100
AcDbEntity
  8
0
  6
Continuous
 62
     7
370
    15
100
AcDbLine
 10
392.1464417252
 20
76.820939203
 30
0.0
 11
392.1464417252
 21
76.3709390361
 31
0.0
  0
LINE
  5
F4
330
1F
100
AcDbEntity
  8
0
  6
Continuous
 62
     7
370
    15
100
AcDbLine
 10
392.1464417252
 20
90.7709443767
 30
0.0
 11
392.1464417252
 21
90.3209442098
 31
0.0
  0
LINE
  5
F5
330
1F
100
AcDbEntity
  8
0
  6
Continuous
 62
     7
370
    15
100
AcDbLine
 10
391.3586024317
 20
76.3709390361
 30
0.0
 11
391.3586024317
 21
77.5993907649
 31
0.0
  0
LINE
  5
F6
330
1F
100
AcDbEntity
  8
0
  6
Continuous
 62
     7
370
    15
100
AcDbLine
 10
391.3586024317
 20
89.542507549
 30
0.0
 11
391.3586024317
 21
90.7709443767
 31
0.0
  0
SPLINE
  5
F7
330
1F
100
AcDbEntity
  8
0
  6
Continuous
 62
     7
370
    15
100
AcDbSpline
210
0.0
220
0.0
230
1.0
 70
    24
 71
     3
 72
    12
 73
     8
 74
     0
 42
0.00000001
 43
0.00000001
 40
0.0
 40
0.0
 40
0.0
 40
0.0
 40
0.2185046622498982
 40
0.4370159030206627
 40
0.6555180100117202
 40
0.8740243431496125
 40
0.9999999999999999
 40
0.9999999999999999
 40
0.9999999999999999
 40
0.9999999999999999
 10
398.3549062285005
 20
90.26333632062162
 30
0.0
 10
398.1581865618729
 20
90.26333632062162
 30
0.0
 10
397.7647413059779
 20
90.26333632062162
 30
0.0
 10
397.2039852640995
 20
90.26333632062163
 30
0.0
 10
396.7863196285327
 20
90.26333632062159
 30
0.0
 10
396.5597569095927
 20
90.26333632062163
 30
0.0
 10
396.5772847461213
 20
90.26333632062162
 30
0.0
 10
396.583694604355
 20
90.26333632062162
 30
0.0
  0
SPLINE
  5
F8
330
1F
100
AcDbEntity
  8
0
  6
Continuous
 62
     7
370
    15
100
AcDbSpline
210
0.0
220
0.0
230
1.0
 70
    24
 71
     3
 72
     9
 73
     5
 74
     0
 42
0.00000001
 43
0.00000001
 40
0.0
 40
0.0
 40
0.0
 40
0.0
 40
0.1970130322720919
 40
1.0
 40
1.0
 40
1.0
 40
1.0
 10
398.9955667528688
 20
90.26333632062162
 30
0.0
 10
398.9629145569442
 20
90.26333632062162
 30
0.0
 10
398.7971783335686
 20
90.26333632062163
 30
0.0
 10
398.5518786653045
 20
90.26333632062156
 30
0.0
 10
398.3549062285005
 20
90.26333632062162
 30
0.0
  0
SPLINE
  5
F9
330
1F
100
AcDbEntity
  8
0
  6
Continuous
 62
     7
370
    15
100
AcDbSpline
210
0.0
220
0.0
230
1.0
 70
     8
 71
     3
 72
    13
 73
     9
 74
     0
 42
0.00000001
 43
0.00000001
 40
0.0
 40
0.0
 40
0.0
 40
0.0
 40
0.1877388176084382
 40
0.375470506460641
 40
0.5632083521533752
 40
0.7509480126769308
 40
0.9386855053317378
 40
1.0
 40
1.0
 40
1.0
 40
1.0
 10
398.0616215738831
 20
93.8781792123147
 30
0.0
 10
397.8649252387445
 20
93.87547628216971
 30
0.0
 10
397.4715400373554
 20
93.87007052451446
 30
0.0
 10
396.9385173930078
 20
93.5795500178681
 30
0.0
 10
396.5480015772467
 20
93.1246433339733
 30
0.0
 10
396.3750314306459
 20
92.56296480286741
 30
0.0
 10
396.3783270271177
 20
92.0897625153044
 30
0.0
 10
396.5056607739073
 20
91.868331490989
 30
0.0
 10
396.5370092663347
 20
91.81381704400266
 30
0.0
  0
SPLINE
  5
FA
330
1F
100
AcDbEntity
  8
0
  6
Continuous
 62
     7
370
    15
100
AcDbSpline
210
0.0
220
0.0
230
1.0
 70
     8
 71
     3
 72
    10
 73
     6
 74
     0
 42
0.00000001
 43
0.00000001
 40
0.0
 40
0.0
 40
0.0
 40
0.0
 40
0.209346108695261
 40
0.6046682537540696
 40
1.0
 40
1.0
 40
1.0
 40
1.0
 10
399.1987887892305
 20
93.07205619404996
 30
0.0
 10
399.1570872121774
 20
93.1651250358329
 30
0.0
 10
399.0366377806945
 20
93.43394194573662
 30
0.0
 10
398.6299208852603
 20
93.75058474098466
 30
0.0
 10
398.2510562112377
 20
93.83564737755623
 30
0.0
 10
398.0616215738832
 20
93.87817921231473
 30
0.0
  0
SPLINE
  5
FB
330
1F
100
AcDbEntity
  8
0
  6
Continuous
 62
     7
370
    15
100
AcDbSpline
210
0.0
220
0.0
230
1.0
 70
     8
 71
     3
 72
    13
 73
     9
 74
     0
 42
0.00000001
 43
0.00000001
 40
0.0
 40
0.0
 40
0.0
 40
0.0
 40
0.1768619017638906
 40
0.3537276298646171
 40
0.5305930828689958
 40
0.707454616377492
 40
0.8843193829289175
 40
1.0
 40
1.0
 40
1.0
 40
1.0
 10
398.0443958315431
 20
73.23498966286863
 30
0.0
 10
397.8477287289235
 20
73.23768347737975
 30
0.0
 10
397.4543902688698
 20
73.24307116468165
 30
0.0
 10
396.9210051566324
 20
73.53374504487545
 30
0.0
 10
396.5318763864978
 20
73.98810846236536
 30
0.0
 10
396.3537137174221
 20
74.55179820890365
 30
0.0
 10
396.3746759068754
 20
75.08495020108522
 30
0.0
 10
396.5407703104162
 20
75.35821722412656
 30
0.0
 10
396.606448677498
 20
75.46627463887418
 30
0.0
  0
SPLINE
  5
FC
330
1F
100
AcDbEntity
  8
0
  6
Continuous
 62
     7
370
    15
100
AcDbSpline
210
0.0
220
0.0
230
1.0
 70
     8
 71
     3
 72
    10
 73
     6
 74
     0
 42
0.00000001
 43
0.00000001
 40
0.0
 40
0.0
 40
0.0
 40
0.0
 40
0.0588283164912342
 40
0.5294084437569221
 40
1.0
 40
1.0
 40
1.0
 40
1.0
 10
399.0745131048737
 20
73.83489551137171
 30
0.0
 10
399.0638734663639
 20
73.81341459533955
 30
0.0
 10
398.968125112482
 20
73.62010329552129
 30
0.0
 10
398.6072821881792
 20
73.3659222542627
 30
0.0
 10
398.2320261360437
 20
73.278634213323
 30
0.0
 10
398.0443958315431
 20
73.2349896628686
 30
0.0
  0
SPLINE
  5
FD
330
1F
100
AcDbEntity
  8
0
  6
Continuous
 62
     7
370
    15
100
AcDbSpline
210
0.0
220
0.0
230
1.0
 70
    24
 71
     3
 72
    12
 73
     8
 74
     0
 42
0.00000001
 43
0.00000001
 40
0.0
 40
0.0
 40
0.0
 40
0.0
 40
0.2193540129458531
 40
0.4387146299839778
 40
0.6580660777384292
 40
0.8774217680671946
 40
1.0
 40
1.0
 40
1.0
 40
1.0
 10
398.3549062285005
 20
76.70471014569486
 30
0.0
 10
398.1581911899256
 20
76.70471014569483
 30
0.0
 10
397.7647551902751
 20
76.70471014569488
 30
0.0
 10
397.2039297259271
 20
76.70471014569475
 30
0.0
 10
396.7865278884493
 20
76.70471014569488
 30
0.0
 10
396.5606825992176
 20
76.70471014569486
 30
0.0
 10
396.5776549663387
 20
76.70471014569483
 30
0.0
 10
396.5837393078386
 20
76.70471014569486
 30
0.0
  0
SPLINE
  5
FE
330
1F
100
AcDbEntity
  8
0
  6
Continuous
 62
     7
370
    15
100
AcDbSpline
210
0.0
220
0.0
230
1.0
 70
    24
 71
     3
 72
     9
 73
     5
 74
     0
 42
0.00000001
 43
0.00000001
 40
0.0
 40
0.0
 40
0.0
 40
0.0
 40
0.1970130322720919
 40
1.0
 40
1.0
 40
1.0
 40
1.0
 10
398.9955667528688
 20
76.70471014569486
 30
0.0
 10
398.9629145569442
 20
76.70471014569486
 30
0.0
 10
398.7971783335686
 20
76.70471014569486
 30
0.0
 10
398.5518786653045
 20
76.70471014569483
 30
0.0
 10
398.3549062285005
 20
76.70471014569486
 30
0.0
  0
SPLINE
  5
FF
330
1F
100
AcDbEntity
  8
0
  6
Continuous
 62
     7
370
    15
100
AcDbSpline
210
0.0
220
0.0
230
1.0
 70
     8
 71
     3
 72
    13
 73
     9
 74
     0
 42
0.00000001
 43
0.00000001
 40
0.0
 40
0.0
 40
0.0
 40
0.0
 40
0.1768619017638906
 40
0.3537276298646171
 40
0.5305930828689958
 40
0.707454616377492
 40
0.8843193829289175
 40
1.0
 40
1.0
 40
1.0
 40
1.0
 10
396.4925442013322
 20
96.49459960053647
 30
0.0
 10
396.2958770987126
 20
96.49190578602531
 30
0.0
 10
395.9025386386589
 20
96.4865180987235
 30
0.0
 10
395.3691535264216
 20
96.19584421852961
 30
0.0
 10
394.9800247562869
 20
95.74148080103984
 30
0.0
 10
394.8018620872112
 20
95.17779105450133
 30
0.0
 10
394.8228242766645
 20
94.64463906231983
 30
0.0
 10
394.9889186802053
 20
94.37137203927855
 30
0.0
 10
395.0545970472871
 20
94.26331462453092
 30
0.0
  0
SPLINE
  5
100
330
1F
100
AcDbEntity
  8
0
  6
Continuous
 62
     7
370
    15
100
AcDbSpline
210
0.0
220
0.0
230
1.0
 70
     8
 71
     3
 72
    10
 73
     6
 74
     0
 42
0.00000001
 43
0.00000001
 40
0.0
 40
0.0
 40
0.0
 40
0.0
 40
0.1474578521452845
 40
0.5737271550776858
 40
0.9999999999999999
 40
0.9999999999999999
 40
0.9999999999999999
 40
0.9999999999999999
 10
397.5811336311875
 20
95.78207077573023
 30
0.0
 10
397.5530712655494
 20
95.8423625612308
 30
0.0
 10
397.4438865665448
 20
96.07694508136488
 30
0.0
 10
397.0588377435586
 20
96.36576679284734
 30
0.0
 10
396.681309238237
 20
96.4516552123621
 30
0.0
 10
396.4925442013322
 20
96.49459960053645
 30
0.0
  0
SPLINE
  5
101
330
1F
100
AcDbEntity
  8
0
  6
Continuous
 62
     7
370
    15
100
AcDbSpline
210
0.0
220
0.0
230
1.0
 70
     8
 71
     3
 72
    13
 73
     9
 74
     0
 42
0.00000001
 43
0.00000001
 40
0.0
 40
0.0
 40
0.0
 40
0.0
 40
0.1768618655720593
 40
0.3537275574801715
 40
0.5305929742919921
 40
0.7074538962369241
 40
0.8843194066010218
 40
1.0
 40
1.0
 40
1.0
 40
1.0
 10
396.4753184589921
 20
70.61856927464689
 30
0.0
 10
396.2786513584813
 20
70.6212630680525
 30
0.0
 10
395.8853129026452
 20
70.62665071314284
 30
0.0
 10
395.3519277587753
 20
70.91732490992794
 30
0.0
 10
394.9627995308131
 20
71.37168663166857
 30
0.0
 10
394.7846360006953
 20
71.93538091326998
 30
0.0
 10
394.8055981746614
 20
72.46852842923529
 30
0.0
 10
394.971692961439
 20
72.74179665028835
 30
0.0
 10
395.037371304947
 20
72.84985425065241
 30
0.0
  0
SPLINE
  5
102
330
1F
100
AcDbEntity
  8
0
  6
Continuous
 62
     7
370
    15
100
AcDbSpline
210
0.0
220
0.0
230
1.0
 70
     8
 71
     3
 72
    10
 73
     6
 74
     0
 42
0.00000001
 43
0.00000001
 40
0.0
 40
0.0
 40
0.0
 40
0.0
 40
0.1474545267915011
 40
0.5737286121614119
 40
1.0
 40
1.0
 40
1.0
 40
1.0
 10
397.5639078888475
 20
71.3310980994531
 30
0.0
 10
397.5358511749338
 20
71.27080611539225
 30
0.0
 10
397.426685726536
 20
71.03621693666479
 30
0.0
 10
397.0416074629194
 20
70.74740609577849
 30
0.0
 10
396.6640810621253
 20
70.66151479110144
 30
0.0
 10
396.4753184589921
 20
70.61856927464689
 30
0.0
  0
SPLINE
  5
103
330
1F
100
AcDbEntity
  8
0
  6
Continuous
 62
     7
370
    15
100
AcDbSpline
210
0.0
220
0.0
230
1.0
 70
    24
 71
     3
 72
    12
 73
     8
 74
     0
 42
0.00000001
 43
0.00000001
 40
0.0
 40
0.0
 40
0.0
 40
0.0
 40
0.2185046622498982
 40
0.4370159030206627
 40
0.6555180100117202
 40
0.8740243431496125
 40
0.9999999999999999
 40
0.9999999999999999
 40
0.9999999999999999
 40
0.9999999999999999
 10
398.3549062285005
 20
460.2633410889932
 30
0.0
 10
398.1581865618729
 20
460.2633410889932
 30
0.0
 10
397.7647413059779
 20
460.2633410889932
 30
0.0
 10
397.2039852640995
 20
460.2633410889932
 30
0.0
 10
396.7863196285327
 20
460.2633410889931
 30
0.0
 10
396.5597569095927
 20
460.2633410889931
 30
0.0
 10
396.5772847461213
 20
460.2633410889932
 30
0.0
 10
396.583694604355
 20
460.2633410889932
 30
0.0
  0
SPLINE
  5
104
330
1F
100
AcDbEntity
  8
0
  6
Continuous
 62
     7
370
    15
100
AcDbSpline
210
0.0
220
0.0
230
1.0
 70
    24
 71
     3
 72
     9
 73
     5
 74
     0
 42
0.00000001
 43
0.00000001
 40
0.0
 40
0.0
 40
0.0
 40
0.0
 40
0.1970130322720919
 40
1.0
 40
1.0
 40
1.0
 40
1.0
 10
398.9955667528688
 20
460.2633410889932
 30
0.0
 10
398.9629145569442
 20
460.2633410889932
 30
0.0
 10
398.7971783335686
 20
460.2633410889931
 30
0.0
 10
398.5518786653045
 20
460.2633410889932
 30
0.0
 10
398.3549062285005
 20
460.2633410889932
 30
0.0
  0
SPLINE
  5
105
330
1F
100
AcDbEntity
  8
0
  6
Continuous
 62
     7
370
    15
100
AcDbSpline
210
0.0
220
0.0
230
1.0
 70
     8
 71
     3
 72
    13
 73
     9
 74
     0
 42
0.00000001
 43
0.00000001
 40
0.0
 40
0.0
 40
0.0
 40
0.0
 40
0.1877392486070275
 40
0.3754735804977203
 40
0.5632118571868127
 40
0.7509474409195469
 40
0.9386853645699014
 40
1.0
 40
1.0
 40
1.0
 40
1.0
 10
398.0616215738832
 20
463.8781839806863
 30
0.0
 10
397.8649245990683
 20
463.875482269365
 30
0.0
 10
397.4715358007496
 20
463.8700789174777
 30
0.0
 10
396.9385209939524
 20
463.5795373240984
 30
0.0
 10
396.5480051377866
 20
463.1246376660756
 30
0.0
 10
396.3750295219639
 20
462.5629651401621
 30
0.0
 10
396.3783271588983
 20
462.0897672529831
 30
0.0
 10
396.5056607999413
 20
461.8683362532971
 30
0.0
 10
396.5370092663347
 20
461.8138218123742
 30
0.0
  0
SPLINE
  5
106
330
1F
100
AcDbEntity
  8
0
  6
Continuous
 62
     7
370
    15
100
AcDbSpline
210
0.0
220
0.0
230
1.0
 70
     8
 71
     3
 72
    10
 73
     6
 74
     0
 42
0.00000001
 43
0.00000001
 40
0.0
 40
0.0
 40
0.0
 40
0.0
 40
0.2093378553024356
 40
0.6046672852002561
 40
1.0
 40
1.0
 40
1.0
 40
1.0
 10
399.1987887892305
 20
463.0720609624215
 30
0.0
 10
399.1570861545778
 20
463.1651239835924
 30
0.0
 10
399.0366291123257
 20
463.433934248619
 30
0.0
 10
398.6299270587103
 20
463.7505922166742
 30
0.0
 10
398.251057260179
 20
463.8356532748835
 30
0.0
 10
398.0616215738831
 20
463.8781839806863
 30
0.0
  0
SPLINE
  5
107
330
1F
100
AcDbEntity
  8
0
  6
Continuous
 62
     7
370
    15
100
AcDbSpline
210
0.0
220
0.0
230
1.0
 70
     8
 71
     3
 72
    13
 73
     9
 74
     0
 42
0.00000001
 43
0.00000001
 40
0.0
 40
0.0
 40
0.0
 40
0.0
 40
0.1768608012637254
 40
0.3537258533392639
 40
0.530590630319506
 40
0.7074557345593472
 40
0.8843198250892601
 40
1.0
 40
1.0
 40
1.0
 40
1.0
 10
398.0443958315431
 20
443.2349944312402
 30
0.0
 10
397.8477285921003
 20
443.2376820066679
 30
0.0
 10
397.4543893863591
 20
443.2430572221184
 30
0.0
 10
396.9210055410161
 20
443.5337360861787
 30
0.0
 10
396.5318721902478
 20
443.9881013121936
 30
0.0
 10
396.3537156523346
 20
444.5517989789429
 30
0.0
 10
396.3746755836964
 20
445.0849548439414
 30
0.0
 10
396.5407702188356
 20
445.3582219569304
 30
0.0
 10
396.606448677498
 20
445.4662794072458
 30
0.0
  0
SPLINE
  5
108
330
1F
100
AcDbEntity
  8
0
  6
Continuous
 62
     7
370
    15
100
AcDbSpline
210
0.0
220
0.0
230
1.0
 70
     8
 71
     3
 72
    10
 73
     6
 74
     0
 42
0.00000001
 43
0.00000001
 40
0.0
 40
0.0
 40
0.0
 40
0.0
 40
0.0588280775976518
 40
0.5294138126066582
 40
1.0
 40
1.0
 40
1.0
 40
1.0
 10
399.0745131048738
 20
443.8349002797433
 30
0.0
 10
399.0638734349135
 20
443.813419406549
 30
0.0
 10
398.9681234381679
 20
443.6201057468083
 30
0.0
 10
398.607290391256
 20
443.3659063178763
 30
0.0
 10
398.2320274115721
 20
443.2786317407687
 30
0.0
 10
398.0443958315431
 20
443.2349944312402
 30
0.0
  0
SPLINE
  5
109
330
1F
100
AcDbEntity
  8
0
  6
Continuous
 62
     7
370
    15
100
AcDbSpline
210
0.0
220
0.0
230
1.0
 70
    24
 71
     3
 72
    12
 73
     8
 74
     0
 42
0.00000001
 43
0.00000001
 40
0.0
 40
0.0
 40
0.0
 40
0.0
 40
0.2193540129458531
 40
0.4387146299839778
 40
0.6580660777384292
 40
0.8774217680671946
 40
1.0
 40
1.0
 40
1.0
 40
1.0
 10
398.3549062285005
 20
446.7047149140664
 30
0.0
 10
398.1581911899256
 20
446.7047149140664
 30
0.0
 10
397.7647551902751
 20
446.7047149140664
 30
0.0
 10
397.2039297259271
 20
446.7047149140665
 30
0.0
 10
396.7865278884493
 20
446.7047149140664
 30
0.0
 10
396.5606825992176
 20
446.7047149140664
 30
0.0
 10
396.5776549663387
 20
446.7047149140665
 30
0.0
 10
396.5837393078386
 20
446.7047149140664
 30
0.0
  0
SPLINE
  5
10A
330
1F
100
AcDbEntity
  8
0
  6
Continuous
 62
     7
370
    15
100
AcDbSpline
210
0.0
220
0.0
230
1.0
 70
    24
 71
     3
 72
     9
 73
     5
 74
     0
 42
0.00000001
 43
0.00000001
 40
0.0
 40
0.0
 40
0.0
 40
0.0
 40
0.1970130322720919
 40
1.0
 40
1.0
 40
1.0
 40
1.0
 10
398.9955667528688
 20
446.7047149140664
 30
0.0
 10
398.9629145569442
 20
446.7047149140664
 30
0.0
 10
398.7971783335686
 20
446.7047149140665
 30
0.0
 10
398.5518786653045
 20
446.7047149140665
 30
0.0
 10
398.3549062285005
 20
446.7047149140664
 30
0.0
  0
SPLINE
  5
10B
330
1F
100
AcDbEntity
  8
0
  6
Continuous
 62
     7
370
    15
100
AcDbSpline
210
0.0
220
0.0
230
1.0
 70
     8
 71
     3
 72
    13
 73
     9
 74
     0
 42
0.00000001
 43
0.00000001
 40
0.0
 40
0.0
 40
0.0
 40
0.0
 40
0.1768608587238816
 40
0.3537259682609574
 40
0.5305908027026474
 40
0.7074517176621629
 40
0.8843158656533007
 40
1.0
 40
1.0
 40
1.0
 40
1.0
 10
396.4925442013322
 20
466.4945894677468
 30
0.0
 10
396.2958769913199
 20
466.4919018875886
 30
0.0
 10
395.9025378444404
 20
466.4865266626766
 30
0.0
 10
395.369153557627
 20
466.1958478695777
 30
0.0
 10
394.9800249989591
 20
465.7414860105296
 30
0.0
 10
394.8018610853361
 20
465.1777951757039
 30
0.0
 10
394.8228276670771
 20
464.6446412015878
 30
0.0
 10
394.9889186762861
 20
464.3713669712756
 30
0.0
 10
395.0545970472871
 20
464.2633044917413
 30
0.0
  0
SPLINE
  5
10C
330
1F
100
AcDbEntity
  8
0
  6
Continuous
 62
     7
370
    15
100
AcDbSpline
210
0.0
220
0.0
230
1.0
 70
     8
 71
     3
 72
    10
 73
     6
 74
     0
 42
0.00000001
 43
0.00000001
 40
0.0
 40
0.0
 40
0.0
 40
0.0
 40
0.1474583140153851
 40
0.5737289521160597
 40
1.0
 40
1.0
 40
1.0
 40
1.0
 10
397.5811336311875
 20
465.7820755441019
 30
0.0
 10
397.5530712481867
 20
465.8423672714119
 30
0.0
 10
397.4438864816281
 20
466.0769495651389
 30
0.0
 10
397.0588401213209
 20
466.3657745835379
 30
0.0
 10
396.6813095684831
 20
466.4516511592514
 30
0.0
 10
396.4925442013322
 20
466.4945894677468
 30
0.0
  0
SPLINE
  5
10D
330
1F
100
AcDbEntity
  8
0
  6
Continuous
 62
     7
370
    15
100
AcDbSpline
210
0.0
220
0.0
230
1.0
 70
     8
 71
     3
 72
    13
 73
     9
 74
     0
 42
0.00000001
 43
0.00000001
 40
0.0
 40
0.0
 40
0.0
 40
0.0
 40
0.1768607650698142
 40
0.3537257809505717
 40
0.530590521736089
 40
0.7074550144253445
 40
0.8843198487627815
 40
0.9999999999999999
 40
0.9999999999999999
 40
0.9999999999999999
 40
0.9999999999999999
 10
396.4753184589921
 20
440.6185740430184
 30
0.0
 10
396.2786512216578
 20
440.6212615973415
 30
0.0
 10
395.8853120201337
 20
440.6266367705823
 30
0.0
 10
395.3519281431627
 20
440.9173159512214
 30
0.0
 10
394.9627953345414
 20
441.3716794815375
 30
0.0
 10
394.784637935636
 20
441.9353816832942
 30
0.0
 10
394.8055978514786
 20
442.4685330720981
 30
0.0
 10
394.9716928698575
 20
442.7418013830941
 30
0.0
 10
395.037371304947
 20
442.849859019024
 30
0.0
  0
SPLINE
  5
10E
330
1F
100
AcDbEntity
  8
0
  6
Continuous
 62
     7
370
    15
100
AcDbSpline
210
0.0
220
0.0
230
1.0
 70
     8
 71
     3
 72
    10
 73
     6
 74
     0
 42
0.00000001
 43
0.00000001
 40
0.0
 40
0.0
 40
0.0
 40
0.0
 40
0.1474630470485704
 40
0.5737344383701368
 40
1.0
 40
1.0
 40
1.0
 40
1.0
 10
397.5639078888475
 20
441.3311028678247
 30
0.0
 10
397.5358517055183
 20
441.2708056380646
 30
0.0
 10
397.4266935204178
 20
441.0362072220949
 30
0.0
 10
397.0416083840429
 20
440.7473938328041
 30
0.0
 10
396.6640809068249
 20
440.6615137771962
 30
0.0
 10
396.4753184589921
 20
440.6185740430184
 30
0.0
  0
LINE
  5
10F
330
1F
100
AcDbEntity
  8
0
  6
Continuous
 62
     7
370
    15
100
AcDbLine
 10
391.1955539259
 20
448.8709414203
 30
0.0
 11
391.0907540593
 21
448.8709414203
 31
0.0
  0
LINE
  5
110
330
1F
100
AcDbEntity
  8
0
  6
Continuous
 62
     7
370
    15
100
AcDbLine
 10
391.1955539259
 20
457.4709379871
 30
0.0
 11
391.0907540593
 21
457.4709379871
 31
0.0
  0
LINE
  5
111
330
1F
100
AcDbEntity
  8
0
  6
Continuous
 62
     7
370
    15
100
AcDbLine
 10
396.5214971575
 20
446.3709438045
 30
0.0
 11
391.6955623898
 21
446.3709438045
 31
0.0
  0
LINE
  5
112
330
1F
100
AcDbEntity
  8
0
  6
Continuous
 62
     7
370
    15
100
AcDbLine
 10
396.5697173152
 20
445.5709451635
 30
0.0
 11
391.6961584363
 21
445.5709451635
 31
0.0
  0
LINE
  5
113
330
1F
100
AcDbEntity
  8
0
  6
Continuous
 62
     7
370
    15
100
AcDbLine
 10
396.5214971575
 20
460.7709491451
 30
0.0
 11
391.6955623898
 21
460.7709491451
 31
0.0
  0
LINE
  5
114
330
1F
100
AcDbEntity
  8
0
  6
Continuous
 62
     7
370
    15
100
AcDbLine
 10
396.625626472
 20
461.5709477861
 30
0.0
 11
391.6961584363
 21
461.5709477861
 31
0.0
  0
LINE
  5
115
330
1F
100
AcDbEntity
  8
0
  6
Continuous
 62
     7
370
    15
100
AcDbLine
 10
395.295563725
 20
461.8709379632
 30
0.0
 11
396.4589122805
 21
461.8709379632
 31
0.0
  0
LINE
  5
116
330
1F
100
AcDbEntity
  8
0
  6
Continuous
 62
     7
370
    15
100
AcDbLine
 10
393.0955562863
 20
461.8709379632
 30
0.0
 11
395.295563725
 21
461.8709379632
 31
0.0
  0
LINE
  5
117
330
1F
100
AcDbEntity
  8
0
  6
Continuous
 62
     7
370
    15
100
AcDbLine
 10
395.295563725
 20
444.7709465225
 30
0.0
 11
396.159071115
 21
444.7709465225
 31
0.0
  0
LINE
  5
118
330
1F
100
AcDbEntity
  8
0
  6
Continuous
 62
     7
370
    15
100
AcDbLine
 10
393.1955579791
 20
444.7709465225
 30
0.0
 11
395.295563725
 21
444.7709465225
 31
0.0
  0
LINE
  5
119
330
1F
100
AcDbEntity
  8
0
  6
Continuous
 62
     7
370
    15
100
AcDbLine
 10
395.295563725
 20
445.1709383924
 30
0.0
 11
396.3989500079
 21
445.1709383924
 31
0.0
  0
LINE
  5
11A
330
1F
100
AcDbEntity
  8
0
  6
Continuous
 62
     7
370
    15
100
AcDbLine
 10
393.1955579791
 20
445.1709383924
 30
0.0
 11
395.295563725
 21
445.1709383924
 31
0.0
  0
ARC
  5
11B
330
1F
100
AcDbEntity
  8
0
  6
Continuous
 62
     7
370
    15
100
AcDbCircle
 10
392.1613070057
 20
446.3686802503
 30
0.0
 40
0.8027077655064205
100
AcDbArc
 50
179.8384315232
 51
234.5341999199
  0
ARC
  5
11C
330
1F
100
AcDbEntity
  8
0
  6
Continuous
 62
     7
370
    15
100
AcDbCircle
 10
392.1612951602
 20
460.7732039336
 30
0.0
 40
0.802695895376158
100
AcDbArc
 50
125.4653655412
 51
180.1609451829
  0
LINE
  5
11D
330
1F
100
AcDbEntity
  8
0
  6
Continuous
 62
     7
370
    15
100
AcDbLine
 10
392.1464417252
 20
446.8209439714
 30
0.0
 11
392.1464417252
 21
446.3709438045
 31
0.0
  0
LINE
  5
11E
330
1F
100
AcDbEntity
  8
0
  6
Continuous
 62
     7
370
    15
100
AcDbLine
 10
392.1464417252
 20
460.7709491451
 30
0.0
 11
392.1464417252
 21
460.3209489782
 31
0.0
  0
LINE
  5
11F
330
1F
100
AcDbEntity
  8
0
  6
Continuous
 62
     7
370
    15
100
AcDbLine
 10
391.3586024317
 20
446.3709438045
 30
0.0
 11
391.3586024317
 21
447.5993806321
 31
0.0
  0
LINE
  5
120
330
1F
100
AcDbEntity
  8
0
  6
Continuous
 62
     7
370
    15
100
AcDbLine
 10
391.3586024317
 20
459.5424974162
 30
0.0
 11
391.3586024317
 21
460.7709491451
 31
0.0
  0
LINE
  5
121
330
1F
100
AcDbEntity
  8
0
  6
Continuous
 62
     7
370
    15
100
AcDbLine
 10
801.0969195637
 20
73.5709512431
 30
0.0
 11
801.0969195637
 21
38.5709399183
 31
0.0
  0
LINE
  5
122
330
1F
100
AcDbEntity
  8
0
  6
Continuous
 62
     7
370
    15
100
AcDbLine
 10
811.6955641779
 20
73.5709512431
 30
0.0
 11
801.0969195637
 21
73.5709512431
 31
0.0
  0
LINE
  5
123
330
1F
100
AcDbEntity
  8
0
  6
Continuous
 62
     7
370
    15
100
AcDbLine
 10
811.6955641779
 20
38.5709399183
 30
0.0
 11
801.0969195637
 21
38.5709399183
 31
0.0
  0
LINE
  5
124
330
1F
100
AcDbEntity
  8
0
  6
Continuous
 62
     7
370
    15
100
AcDbLine
 10
801.0969195637
 20
498.5709482629
 30
0.0
 11
801.0969195637
 21
463.570936938
 31
0.0
  0
LINE
  5
125
330
1F
100
AcDbEntity
  8
0
  6
Continuous
 62
     7
370
    15
100
AcDbLine
 10
811.6955641779
 20
498.5709482629
 30
0.0
 11
801.0969195637
 21
498.5709482629
 31
0.0
  0
LINE
  5
126
330
1F
100
AcDbEntity
  8
0
  6
Continuous
 62
     7
370
    15
100
AcDbLine
 10
811.6955641779
 20
463.570936938
 30
0.0
 11
801.0969195637
 21
463.570936938
 31
0.0
  0
LINE
  5
127
330
1F
100
AcDbEntity
  8
0
  6
Continuous
 62
     7
370
    15
100
AcDbLine
 10
808.6955580983
 20
110.5709368188
 30
0.0
 11
803.6955628666
 21
110.5709368188
 31
0.0
  0
LINE
  5
128
330
1F
100
AcDbEntity
  8
0
  6
Continuous
 62
     7
370
    15
100
AcDbLine
 10
803.6955628666
 20
426.5709513624
 30
0.0
 11
808.6955580983
 21
426.5709513624
 31
0.0
  0
LINE
  5
129
330
1F
100
AcDbEntity
  8
0
  6
Continuous
 62
     7
370
    15
100
AcDbLine
 10
800.6334040436
 20
38.5709399183
 30
0.0
 11
800.6334040436
 21
73.5709512431
 31
0.0
  0
LINE
  5
12A
330
1F
100
AcDbEntity
  8
0
  6
Continuous
 62
     7
370
    15
100
AcDbLine
 10
800.6334040436
 20
73.5709512431
 30
0.0
 11
801.0969195637
 21
73.5709512431
 31
0.0
  0
LINE
  5
12B
330
1F
100
AcDbEntity
  8
0
  6
Continuous
 62
     7
370
    15
100
AcDbLine
 10
801.0969195637
 20
38.5709399183
 30
0.0
 11
800.6334040436
 21
38.5709399183
 31
0.0
  0
LINE
  5
12C
330
1F
100
AcDbEntity
  8
0
  6
Continuous
 62
     7
370
    15
100
AcDbLine
 10
800.6334040436
 20
463.570936938
 30
0.0
 11
800.6334040436
 21
498.5709482629
 31
0.0
  0
LINE
  5
12D
330
1F
100
AcDbEntity
  8
0
  6
Continuous
 62
     7
370
    15
100
AcDbLine
 10
800.6334040436
 20
498.5709482629
 30
0.0
 11
801.0969195637
 21
498.5709482629
 31
0.0
  0
LINE
  5
12E
330
1F
100
AcDbEntity
  8
0
  6
Continuous
 62
     7
370
    15
100
AcDbLine
 10
801.0969195637
 20
463.570936938
 30
0.0
 11
800.6334040436
 21
463.570936938
 31
0.0
  0
LINE
  5
12F
330
1F
100
AcDbEntity
  8
0
  6
Continuous
 62
     7
370
    15
100
AcDbLine
 10
800.6334040436
 20
498.5709482629
 30
0.0
 11
800.1955632243
 21
498.5709482629
 31
0.0
  0
LINE
  5
130
330
1F
100
AcDbEntity
  8
0
  6
Continuous
 62
     7
370
    15
100
AcDbLine
 10
800.6334040436
 20
463.570936938
 30
0.0
 11
800.1955632243
 21
463.570936938
 31
0.0
  0
LINE
  5
131
330
1F
100
AcDbEntity
  8
0
  6
Continuous
 62
     7
370
    15
100
AcDbLine
 10
800.6334040436
 20
73.5709512431
 30
0.0
 11
800.1955632243
 21
73.5709512431
 31
0.0
  0
LINE
  5
132
330
1F
100
AcDbEntity
  8
0
  6
Continuous
 62
     7
370
    15
100
AcDbLine
 10
800.6334040436
 20
38.5709399183
 30
0.0
 11
800.1955632243
 21
38.5709399183
 31
0.0
  0
LINE
  5
133
330
1F
100
AcDbEntity
  8
0
  6
Continuous
 62
     7
370
    15
100
AcDbLine
 10
394.9955586466
 20
76.820939203
 30
0.0
 11
396.5550694737
 21
76.820939203
 31
0.0
  0
LINE
  5
134
330
1F
100
AcDbEntity
  8
0
  6
Continuous
 62
     7
370
    15
100
AcDbLine
 10
394.9955586466
 20
90.3209442098
 30
0.0
 11
396.5556357178
 21
90.3209442098
 31
0.0
  0
LINE
  5
135
330
1F
100
AcDbEntity
  8
0
  6
Continuous
 62
     7
370
    15
100
AcDbLine
 10
394.9955586466
 20
76.820939203
 30
0.0
 11
391.8955657754
 21
76.820939203
 31
0.0
  0
LINE
  5
136
330
1F
100
AcDbEntity
  8
0
  6
Continuous
 62
     7
370
    15
100
AcDbLine
 10
394.9955586466
 20
90.3209442098
 30
0.0
 11
391.8955657754
 21
90.3209442098
 31
0.0
  0
LINE
  5
137
330
1F
100
AcDbEntity
  8
0
  6
Continuous
 62
     7
370
    15
100
AcDbLine
 10
394.9955586466
 20
446.8209439714
 30
0.0
 11
391.8955657754
 21
446.8209439714
 31
0.0
  0
LINE
  5
138
330
1F
100
AcDbEntity
  8
0
  6
Continuous
 62
     7
370
    15
100
AcDbLine
 10
394.9955586466
 20
460.3209489782
 30
0.0
 11
396.5556357178
 21
460.3209489782
 31
0.0
  0
LINE
  5
139
330
1F
100
AcDbEntity
  8
0
  6
Continuous
 62
     7
370
    15
100
AcDbLine
 10
394.9955586466
 20
446.8209439714
 30
0.0
 11
396.5550694737
 21
446.8209439714
 31
0.0
  0
LINE
  5
13A
330
1F
100
AcDbEntity
  8
0
  6
Continuous
 62
     7
370
    15
100
AcDbLine
 10
394.9955586466
 20
460.3209489782
 30
0.0
 11
391.8955657754
 21
460.3209489782
 31
0.0
  0
LINE
  5
13B
330
1F
100
AcDbEntity
  8
0
  6
Continuous
 62
     8
370
    15
100
AcDbLine
 10
394.9955586466
 20
77.0709508855
 30
0.0
 11
394.9955586466
 21
76.820939203
 31
0.0
  0
LINE
  5
13C
330
1F
100
AcDbEntity
  8
0
  6
Continuous
 62
     8
370
    15
100
AcDbLine
 10
394.9955586466
 20
90.3209442098
 30
0.0
 11
394.9955586466
 21
90.0709474284
 31
0.0
  0
LINE
  5
13D
330
1F
100
AcDbEntity
  8
0
  6
Continuous
 62
     8
370
    15
100
AcDbLine
 10
394.9955586466
 20
447.0709407527
 30
0.0
 11
394.9955586466
 21
446.8209439714
 31
0.0
  0
LINE
  5
13E
330
1F
100
AcDbEntity
  8
0
  6
Continuous
 62
     8
370
    15
100
AcDbLine
 10
394.9955586466
 20
460.3209489782
 30
0.0
 11
394.9955586466
 21
460.0709372957
 31
0.0
  0
LINE
  5
13F
330
1F
100
AcDbEntity
  8
0
  6
Continuous
 62
     7
370
    15
100
AcDbLine
 10
264.0063101457
 20
460.0709372957
 30
0.0
 11
264.0063101457
 21
447.0709407527
 31
0.0
  0
LINE
  5
140
330
1F
100
AcDbEntity
  8
0
  6
Continuous
 62
     7
370
    15
100
AcDbLine
 10
264.0063101457
 20
90.0709474284
 30
0.0
 11
264.0063101457
 21
77.0709508855
 31
0.0
  0
LINE
  5
141
330
1F
100
AcDbEntity
  8
0
  6
Continuous
 62
     7
370
    15
100
AcDbLine
 10
254.2163068459
 20
90.7709443767
 30
0.0
 11
254.2163068459
 21
91.5709430177
 31
0.0
  0
LINE
  5
142
330
1F
100
AcDbEntity
  8
0
  6
Continuous
 62
     7
370
    15
100
AcDbLine
 10
254.2163068459
 20
75.5709403951
 30
0.0
 11
254.2163068459
 21
76.3709390361
 31
0.0
  0
LINE
  5
143
330
1F
100
AcDbEntity
  8
0
  6
Continuous
 62
     7
370
    15
100
AcDbLine
 10
249.2863172696
 20
91.870948096
 30
0.0
 11
249.2863172696
 21
91.5709430177
 31
0.0
  0
LINE
  5
144
330
1F
100
AcDbEntity
  8
0
  6
Continuous
 62
     7
370
    15
100
AcDbLine
 10
253.6863172458
 20
91.5709430177
 30
0.0
 11
253.6863172458
 21
91.870948096
 31
0.0
  0
ARC
  5
145
330
1F
100
AcDbEntity
  8
0
  6
Continuous
 62
     7
370
    15
100
AcDbCircle
 10
251.4863099788
 20
88.7638012335
 30
0.0
 40
3.807142857143293
100
AcDbArc
 50
54.6997515601
 51
125.3002484399
  0
LINE
  5
146
330
1F
100
AcDbEntity
  8
0
  6
Continuous
 62
     7
370
    15
100
AcDbLine
 10
249.3863040612
 20
75.1709485252
 30
0.0
 11
249.3863040612
 21
74.7709417541
 31
0.0
  0
LINE
  5
147
330
1F
100
AcDbEntity
  8
0
  6
Continuous
 62
     7
370
    15
100
AcDbLine
 10
253.586315553
 20
74.7709417541
 30
0.0
 11
253.586315553
 21
75.1709485252
 31
0.0
  0
ARC
  5
148
330
1F
100
AcDbEntity
  8
0
  6
Continuous
 62
     7
370
    15
100
AcDbCircle
 10
249.5863099788
 20
75.5709440906
 30
0.0
 40
0.4000000000008015
100
AcDbArc
 50
270.0
 51
0.0
  0
ARC
  5
149
330
1F
100
AcDbEntity
  8
0
  6
Continuous
 62
     7
370
    15
100
AcDbCircle
 10
253.3863099788
 20
75.5709440906
 30
0.0
 40
0.4000000000008015
100
AcDbArc
 50
180.0
 51
270.0
  0
LINE
  5
14A
330
1F
100
AcDbEntity
  8
0
  6
Continuous
 62
     7
370
    15
100
AcDbLine
 10
249.9863142179
 20
90.7709443767
 30
0.0
 11
249.9863142179
 21
90.3209442098
 31
0.0
  0
LINE
  5
14B
330
1F
100
AcDbEntity
  8
0
  6
Continuous
 62
     7
370
    15
100
AcDbLine
 10
249.9863142179
 20
89.3209421832
 30
0.0
 11
249.9863142179
 21
88.8322437007
 31
0.0
  0
LINE
  5
14C
330
1F
100
AcDbEntity
  8
0
  6
Continuous
 62
     7
370
    15
100
AcDbLine
 10
249.9863142179
 20
88.0361193616
 30
0.0
 11
249.9863142179
 21
87.8804320295
 31
0.0
  0
LINE
  5
14D
330
1F
100
AcDbEntity
  8
0
  6
Continuous
 62
     7
370
    15
100
AcDbLine
 10
249.9863142179
 20
78.581317683
 30
0.0
 11
249.9863142179
 21
77.8209412296
 31
0.0
  0
LINE
  5
14E
330
1F
100
AcDbEntity
  8
0
  6
Continuous
 62
     7
370
    15
100
AcDbLine
 10
249.9863142179
 20
76.820939203
 30
0.0
 11
249.9863142179
 21
76.3709390361
 31
0.0
  0
LINE
  5
14F
330
1F
100
AcDbEntity
  8
0
  6
Continuous
 62
     7
370
    15
100
AcDbLine
 10
252.9863053964
 20
76.3709390361
 30
0.0
 11
252.9863053964
 21
76.820939203
 31
0.0
  0
LINE
  5
150
330
1F
100
AcDbEntity
  8
0
  6
Continuous
 62
     7
370
    15
100
AcDbLine
 10
252.9863053964
 20
77.8209412296
 30
0.0
 11
252.9863053964
 21
78.3080899913
 31
0.0
  0
LINE
  5
151
330
1F
100
AcDbEntity
  8
0
  6
Continuous
 62
     7
370
    15
100
AcDbLine
 10
252.9863053964
 20
87.6160109241
 30
0.0
 11
252.9863053964
 21
87.8039443691
 31
0.0
  0
LINE
  5
152
330
1F
100
AcDbEntity
  8
0
  6
Continuous
 62
     7
370
    15
100
AcDbLine
 10
252.9863053964
 20
88.5590160091
 30
0.0
 11
252.9863053964
 21
89.3209421832
 31
0.0
  0
LINE
  5
153
330
1F
100
AcDbEntity
  8
0
  6
Continuous
 62
     7
370
    15
100
AcDbLine
 10
252.9863053964
 20
90.3209442098
 30
0.0
 11
252.9863053964
 21
90.7709443767
 31
0.0
  0
SPLINE
  5
154
330
1F
100
AcDbEntity
  8
0
  6
Continuous
 62
     7
370
    15
100
AcDbSpline
210
0.0
220
0.0
230
1.0
 70
     8
 71
     3
 72
    15
 73
    11
 74
     0
 42
0.00000001
 43
0.00000001
 40
0.0
 40
0.0
 40
0.0
 40
0.0
 40
0.1356024572950179
 40
0.2953305714495502
 40
0.4038104853344925
 40
0.5319618081968823
 40
0.6738452966783458
 40
0.8261133063493578
 40
0.9126143386647737
 40
1.0
 40
1.0
 40
1.0
 40
1.0
 10
252.9863053963633
 20
78.1369948584863
 30
0.0
 10
253.0306870684298
 20
78.12966817886735
 30
0.0
 10
253.1273465599664
 20
78.11371129636055
 30
0.0
 10
253.3341954868551
 20
78.1613849498479
 30
0.0
 10
253.5274660470011
 20
78.24910693927507
 30
0.0
 10
253.6740448602394
 20
78.36877079275249
 30
0.0
 10
253.7727512640057
 20
78.51967331133086
 30
0.0
 10
253.8024126763109
 20
78.64151238113712
 30
0.0
 10
253.7812335310881
 20
78.77076848219158
 30
0.0
 10
253.7349820279804
 20
78.83743421054793
 30
0.0
 10
253.7117386267634
 20
78.87093665192808
 30
0.0
  0
SPLINE
  5
155
330
1F
100
AcDbEntity
  8
0
  6
Continuous
 62
     7
370
    15
100
AcDbSpline
210
0.0
220
0.0
230
1.0
 70
     8
 71
     3
 72
    20
 73
    16
 74
     0
 42
0.00000001
 43
0.00000001
 40
0.0
 40
0.0
 40
0.0
 40
0.0
 40
0.060708135410005
 40
0.2265336634687164
 40
0.3908030075664746
 40
0.4705944238620196
 40
0.5476200665419776
 40
0.6228569631889666
 40
0.7003368802155423
 40
0.7786470553240675
 40
0.8566573914950292
 40
0.9330982965666872
 40
0.9703706402705808
 40
0.9892322431262632
 40
0.9999999999999999
 40
0.9999999999999999
 40
0.9999999999999999
 40
0.9999999999999999
 10
249.2501074479075
 20
78.87093665192808
 30
0.0
 10
249.2963820855821
 20
78.81760521295833
 30
0.0
 10
249.4690568535896
 20
78.61859784489678
 30
0.0
 10
249.8860286348013
 20
78.60066733714349
 30
0.0
 10
250.4509832833539
 20
78.52564414167095
 30
0.0
 10
250.9705963895681
 20
78.48270609075055
 30
0.0
 10
251.3644890551038
 20
78.45214534981221
 30
0.0
 10
251.7574007799362
 20
78.424473603492
 30
0.0
 10
252.1385617668239
 20
78.39316402674399
 30
0.0
 10
252.4942851187739
 20
78.36068540449514
 30
0.0
 10
252.7969106277815
 20
78.32986975251153
 30
0.0
 10
252.9894168935267
 20
78.30697625924263
 30
0.0
 10
253.0775484822954
 20
78.29893517171352
 30
0.0
 10
253.1229669465739
 20
78.2911435646928
 30
0.0
 10
253.1224182809777
 20
78.29510276000804
 30
0.0
 10
253.1222188876124
 20
78.29654159138883
 30
0.0
  0
SPLINE
  5
156
330
1F
100
AcDbEntity
  8
0
  6
Continuous
 62
     7
370
    15
100
AcDbSpline
210
0.0
220
0.0
230
1.0
 70
     8
 71
     3
 72
    18
 73
    14
 74
     0
 42
0.00000001
 43
0.00000001
 40
0.0
 40
0.0
 40
0.0
 40
0.0
 40
0.0449148486155344
 40
0.1504717363051189
 40
0.2683911200474808
 40
0.3845437978046378
 40
0.4963568568094915
 40
0.6034716643188085
 40
0.7163627425698812
 40
0.8333325802072019
 40
0.8935120145196762
 40
0.9536918241283596
 40
1.0
 40
1.0
 40
1.0
 40
1.0
 10
253.592559139535
 20
87.45561482499326
 30
0.0
 10
253.5552509605102
 20
87.48142680227237
 30
0.0
 10
253.4302627517264
 20
87.56790094519756
 30
0.0
 10
253.1736553624771
 20
87.59069663405722
 30
0.0
 10
252.7808234606201
 20
87.64423654259771
 30
0.0
 10
252.2693346281043
 20
87.69131158128197
 30
0.0
 10
251.7182038832834
 20
87.73708674138852
 30
0.0
 10
251.1561113637433
 20
87.77606690032391
 30
0.0
 10
250.6218320491202
 20
87.82079083276089
 30
0.0
 10
250.2241849703145
 20
87.86184080661191
 30
0.0
 10
250.0094713167446
 20
87.88298669332158
 30
0.0
 10
249.913402857723
 20
87.88525470604044
 30
0.0
 10
249.8979602844045
 20
87.86919273869842
 30
0.0
 10
249.891244809434
 20
87.86220790932859
 30
0.0
  0
SPLINE
  5
157
330
1F
100
AcDbEntity
  8
0
  6
Continuous
 62
     7
370
    15
100
AcDbSpline
210
0.0
220
0.0
230
1.0
 70
     8
 71
     3
 72
    12
 73
     8
 74
     0
 42
0.00000001
 43
0.00000001
 40
0.0
 40
0.0
 40
0.0
 40
0.0
 40
0.2236730604834461
 40
0.4523097327060074
 40
0.6822366315877159
 40
0.9102239717680954
 40
1.0
 40
1.0
 40
1.0
 40
1.0
 10
249.1920078204127
 20
88.67280127595151
 30
0.0
 10
249.1792755881983
 20
88.63025243064168
 30
0.0
 10
249.1535285780881
 20
88.54421052283465
 30
0.0
 10
249.2746480635595
 20
88.45259251984103
 30
0.0
 10
249.5063321607849
 20
88.35629674971138
 30
0.0
 10
249.7511811858239
 20
88.29379349360502
 30
0.0
 10
249.9345172384781
 20
88.29901933405814
 30
0.0
 10
249.9863142178508
 20
88.30049576352323
 30
0.0
  0
SPLINE
  5
158
330
1F
100
AcDbEntity
  8
0
  6
Continuous
 62
     7
370
    15
100
AcDbSpline
210
0.0
220
0.0
230
1.0
 70
     8
 71
     3
 72
    19
 73
    15
 74
     0
 42
0.00000001
 43
0.00000001
 40
0.0
 40
0.0
 40
0.0
 40
0.0
 40
0.0979035768871104
 40
0.17537693964058
 40
0.2884814917255052
 40
0.3734519301201603
 40
0.4570026746706707
 40
0.6168869677815608
 40
0.6796661388919025
 40
0.7634256853780543
 40
0.8137534464230227
 40
0.8702970845472501
 40
0.9323987705732711
 40
1.0
 40
1.0
 40
1.0
 40
1.0
 10
249.3682438538524
 20
88.17766549180234
 30
0.0
 10
249.4187540071732
 20
88.15129049198006
 30
0.0
 10
249.509234012009
 20
88.10404434532315
 30
0.0
 10
249.8838755029281
 20
88.04339484028051
 30
0.0
 10
250.3703828633063
 20
87.98951093637284
 30
0.0
 10
250.9617113095119
 20
87.93626115605255
 30
0.0
 10
251.7158169368827
 20
87.88471866936275
 30
0.0
 10
252.3569100750381
 20
87.81777758969741
 30
0.0
 10
253.0061862124259
 20
87.78226082679683
 30
0.0
 10
253.3845110825157
 20
87.86043915836237
 30
0.0
 10
253.6363697248855
 20
87.96864821946296
 30
0.0
 10
253.769952974913
 20
88.056988204979
 30
0.0
 10
253.8317289872159
 20
88.13082777536887
 30
0.0
 10
253.7602851661487
 20
88.2113405069411
 30
0.0
 10
253.7230486081096
 20
88.25330378602231
 30
0.0
  0
SPLINE
  5
159
330
1F
100
AcDbEntity
  8
0
  6
Continuous
 62
     7
370
    15
100
AcDbSpline
210
0.0
220
0.0
230
1.0
 70
     8
 71
     3
 72
    25
 73
    21
 74
     0
 42
0.00000001
 43
0.00000001
 40
0.0
 40
0.0
 40
0.0
 40
0.0
 40
0.017626673779114
 40
0.0344971350985797
 40
0.0503141430960013
 40
0.0649736519368622
 40
0.0909457470999843
 40
0.1134387078192503
 40
0.1538398385779795
 40
0.191234732063483
 40
0.2995709866453132
 40
0.3999637394160109
 40
0.5012959913544792
 40
0.5949064152872093
 40
0.678487417767604
 40
0.7336304507562215
 40
0.8075203650299767
 40
0.8952854288188483
 40
0.945308759455925
 40
1.0
 40
1.0
 40
1.0
 40
1.0
 10
253.3657336638423
 20
87.6277232367822
 30
0.0
 10
253.4054448957383
 20
87.63211274646171
 30
0.0
 10
253.4831636842525
 20
87.64070344884416
 30
0.0
 10
253.5850351167803
 20
87.68671994933247
 30
0.0
 10
253.6660535906372
 20
87.74567265802244
 30
0.0
 10
253.7422501453242
 20
87.82926140089813
 30
0.0
 10
253.7952984213561
 20
87.9329057789139
 30
0.0
 10
253.8194766799802
 20
88.06522853485171
 30
0.0
 10
253.7965661589918
 20
88.19709806519785
 30
0.0
 10
253.6253420639956
 20
88.44232218837226
 30
0.0
 10
253.2825464987314
 20
88.52938589091991
 30
0.0
 10
252.787435763212
 20
88.5879477641596
 30
0.0
 10
252.1742234299581
 20
88.64631188783056
 30
0.0
 10
251.5247553477529
 20
88.69593780774323
 30
0.0
 10
250.9850524643213
 20
88.73540258587845
 30
0.0
 10
250.5390392809634
 20
88.77458315249035
 30
0.0
 10
250.1503375444143
 20
88.81280385363064
 30
0.0
 10
249.8901818423669
 20
88.8406653136129
 30
0.0
 10
249.7597335306046
 20
88.8631503922385
 30
0.0
 10
249.7510761740265
 20
88.8756102460175
 30
0.0
 10
249.7465545342418
 20
88.88211788724149
 30
0.0
  0
SPLINE
  5
15A
330
1F
100
AcDbEntity
  8
0
  6
Continuous
 62
     7
370
    15
100
AcDbSpline
210
0.0
220
0.0
230
1.0
 70
     8
 71
     3
 72
    12
 73
     8
 74
     0
 42
0.00000001
 43
0.00000001
 40
0.0
 40
0.0
 40
0.0
 40
0.0
 40
0.1756426290597795
 40
0.5723149747442026
 40
0.7586182879331986
 40
0.920748543883814
 40
0.9999999999999999
 40
0.9999999999999999
 40
0.9999999999999999
 40
0.9999999999999999
 10
249.8348737166377
 20
88.06364180634702
 30
0.0
 10
249.7693160517196
 20
88.05446433383874
 30
0.0
 10
249.5557025710816
 20
88.02456040348355
 30
0.0
 10
249.3397646288416
 20
87.95066991919693
 30
0.0
 10
249.1786300388616
 20
87.73570208641479
 30
0.0
 10
249.1474033883797
 20
87.57550534813971
 30
0.0
 10
249.1783802860488
 20
87.49683658332525
 30
0.0
 10
249.1885507510158
 20
87.4710077245065
 30
0.0
  0
LINE
  5
15B
330
1F
100
AcDbEntity
  8
0
  6
Continuous
 62
     7
370
    15
100
AcDbLine
 10
249.346070926
 20
78.7731999357
 30
0.0
 11
248.2276046679
 21
78.7731999357
 31
0.0
  0
LINE
  5
15C
330
1F
100
AcDbEntity
  8
0
  6
Continuous
 62
     7
370
    15
100
AcDbLine
 10
248.2276046679
 20
77.9732012946
 30
0.0
 11
249.9863142179
 21
77.9732012946
 31
0.0
  0
LINE
  5
15D
330
1F
100
AcDbEntity
  8
0
  6
Continuous
 62
     7
370
    15
100
AcDbLine
 10
246.8173140691
 20
91.5709430177
 30
0.0
 11
246.8173140691
 21
91.6244083841
 31
0.0
  0
LINE
  5
15E
330
1F
100
AcDbEntity
  8
0
  6
Continuous
 62
     7
370
    15
100
AcDbLine
 10
243.8173228906
 20
91.6244083841
 30
0.0
 11
243.8173228906
 21
91.5709430177
 31
0.0
  0
SPLINE
  5
15F
330
1F
100
AcDbEntity
  8
0
  6
Continuous
 62
     7
370
    15
100
AcDbSpline
210
0.0
220
0.0
230
1.0
 70
     8
 71
     3
 72
    15
 73
    11
 74
     0
 42
0.00000001
 43
0.00000001
 40
0.0
 40
0.0
 40
0.0
 40
0.0
 40
0.1077555912139558
 40
0.2352512867497204
 40
0.3627904866428148
 40
0.4902569396959399
 40
0.6176632283804692
 40
0.7450970579680405
 40
0.8724965220050076
 40
1.0
 40
1.0
 40
1.0
 40
1.0
 10
243.8333714411708
 20
75.57094039509974
 30
0.0
 10
243.8499105679245
 20
75.2584181602574
 30
0.0
 10
243.8860186789439
 20
74.5761217053238
 30
0.0
 10
244.2222313696042
 20
73.56697367274148
 30
0.0
 10
244.780311229144
 20
72.60349462373809
 30
0.0
 10
245.5351357581239
 20
71.78256785066658
 30
0.0
 10
246.4503004398378
 20
71.14730199715808
 30
0.0
 10
247.4775548316326
 20
70.72714141051695
 30
0.0
 10
248.5735348698312
 20
70.5133400753625
 30
0.0
 10
249.3092940398757
 20
70.57886460241791
 30
0.0
 10
249.6773237393352
 20
70.61164023469175
 30
0.0
  0
SPLINE
  5
160
330
1F
100
AcDbEntity
  8
0
  6
Continuous
 62
     7
370
    15
100
AcDbSpline
210
0.0
220
0.0
230
1.0
 70
     8
 71
     3
 72
    15
 73
    11
 74
     0
 42
0.00000001
 43
0.00000001
 40
0.0
 40
0.0
 40
0.0
 40
0.0
 40
0.1316514916964465
 40
0.2633123971468175
 40
0.3951923558794883
 40
0.5266713868594767
 40
0.657547277092802
 40
0.7882153818671157
 40
0.9184602873307803
 40
0.9999999999999999
 40
0.9999999999999999
 40
0.9999999999999999
 40
0.9999999999999999
 10
249.1796398566218
 20
73.56932701657499
 30
0.0
 10
249.0274560436689
 20
73.55751200518229
 30
0.0
 10
248.7230775358433
 20
73.53388113756323
 30
0.0
 10
248.2722137516041
 20
73.63535517409555
 30
0.0
 10
247.8531870630402
 20
73.82222080747086
 30
0.0
 10
247.4827864246902
 20
74.09480988937136
 30
0.0
 10
247.180535725058
 20
74.44072913414443
 30
0.0
 10
246.9613663020615
 20
74.84242970319252
 30
0.0
 10
246.8440088718215
 20
75.22874612449215
 30
0.0
 10
246.8338260596506
 20
75.47581558078214
 30
0.0
 10
246.8299055502864
 20
75.57094039509974
 30
0.0
  0
SPLINE
  5
161
330
1F
100
AcDbEntity
  8
0
  6
Continuous
 62
     7
370
    15
100
AcDbSpline
210
0.0
220
0.0
230
1.0
 70
     8
 71
     3
 72
    15
 73
    11
 74
     0
 42
0.00000001
 43
0.00000001
 40
0.0
 40
0.0
 40
0.0
 40
0.0
 40
0.1249271926751148
 40
0.2499158519817552
 40
0.374966316928686
 40
0.4999576335864058
 40
0.6249203544108276
 40
0.7499168777925931
 40
0.8748745982847124
 40
1.0
 40
1.0
 40
1.0
 40
1.0
 10
249.848195354745
 20
96.50146903584684
 30
0.0
 10
249.4818185787433
 20
96.54480158151155
 30
0.0
 10
248.7488847621732
 20
96.63148799330426
 30
0.0
 10
247.6448631558305
 20
96.4662892245424
 30
0.0
 10
246.6040606944904
 20
96.07736609889103
 30
0.0
 10
245.6688721001775
 20
95.4723465588807
 30
0.0
 10
244.8882342527429
 20
94.67614703185289
 30
0.0
 10
244.3002569111197
 20
93.73179260549804
 30
0.0
 10
243.9044383495682
 20
92.68334310533704
 30
0.0
 10
243.8463743542403
 20
91.94422288780495
 30
0.0
 10
243.817322890565
 20
91.5744149882623
 30
0.0
  0
SPLINE
  5
162
330
1F
100
AcDbEntity
  8
0
  6
Continuous
 62
     7
370
    15
100
AcDbSpline
210
0.0
220
0.0
230
1.0
 70
     8
 71
     3
 72
    15
 73
    11
 74
     0
 42
0.00000001
 43
0.00000001
 40
0.0
 40
0.0
 40
0.0
 40
0.0
 40
0.1242549332243164
 40
0.2486322739173478
 40
0.37354107226262
 40
0.4985810669353217
 40
0.6236633937315582
 40
0.7490698040492028
 40
0.8744362875141214
 40
1.0
 40
1.0
 40
1.0
 40
1.0
 10
246.8173140690776
 20
91.5744149882623
 30
0.0
 10
246.830877031841
 20
91.72637287291649
 30
0.0
 10
246.8580163186718
 20
92.03043834074809
 30
0.0
 10
247.0324763259606
 20
92.45775605747386
 30
0.0
 10
247.2858049528976
 20
92.83939219439722
 30
0.0
 10
247.6156248643188
 20
93.15932847525532
 30
0.0
 10
248.0065558604122
 20
93.39989869704388
 30
0.0
 10
248.439251088317
 20
93.55152977704617
 30
0.0
 10
248.8967839685806
 20
93.60499162130597
 30
0.0
 10
249.1987030976513
 20
93.56429537978673
 30
0.0
 10
249.3497813151332
 20
93.54393126557554
 30
0.0
  0
LINE
  5
163
330
1F
100
AcDbEntity
  8
0
  6
Continuous
 62
     7
370
    15
100
AcDbLine
 10
264.7203737901
 20
76.1860752303
 30
0.0
 11
249.1794163392
 21
73.5696697433
 31
0.0
  0
LINE
  5
164
330
1F
100
AcDbEntity
  8
0
  6
Continuous
 62
     7
370
    15
100
AcDbLine
 10
249.6774727509
 20
70.611297508
 30
0.0
 11
265.218445103
 21
73.2277178962
 31
0.0
  0
LINE
  5
165
330
1F
100
AcDbEntity
  8
0
  6
Continuous
 62
     7
370
    15
100
AcDbLine
 10
249.3499899314
 20
93.5435140331
 30
0.0
 11
264.8909622834
 21
90.9270936448
 31
0.0
  0
LINE
  5
166
330
1F
100
AcDbEntity
  8
0
  6
Continuous
 62
     7
370
    15
100
AcDbLine
 10
265.3890186952
 20
93.885450979
 30
0.0
 11
249.8480612443
 21
96.5018713672
 31
0.0
  0
SPLINE
  5
167
330
1F
100
AcDbEntity
  8
0
  6
Continuous
 62
     7
370
    15
100
AcDbSpline
210
0.0
220
0.0
230
1.0
 70
     8
 71
     3
 72
    12
 73
     8
 74
     0
 42
0.00000001
 43
0.00000001
 40
0.0
 40
0.0
 40
0.0
 40
0.0
 40
0.152614372147587
 40
0.2973901043391633
 40
0.5623703041980945
 40
0.7966014804334398
 40
1.0
 40
1.0
 40
1.0
 40
1.0
 10
265.2180874751064
 20
73.22801591942991
 30
0.0
 10
265.46930628321
 20
73.28076108081041
 30
0.0
 10
265.9588406992848
 20
73.38354228565768
 30
0.0
 10
266.8083736820022
 20
73.81276505130107
 30
0.0
 10
267.620355641488
 20
74.55717075156527
 30
0.0
 10
268.1848075181542
 20
75.62820629849986
 30
0.0
 10
268.2664946853945
 20
76.36313502688152
 30
0.0
 10
268.3044606850597
 20
76.70471014569483
 30
0.0
  0
SPLINE
  5
168
330
1F
100
AcDbEntity
  8
0
  6
Continuous
 62
     7
370
    15
100
AcDbSpline
210
0.0
220
0.0
230
1.0
 70
     8
 71
     3
 72
    11
 73
     7
 74
     0
 42
0.00000001
 43
0.00000001
 40
0.0
 40
0.0
 40
0.0
 40
0.0
 40
0.2003612183303601
 40
0.4328064177399985
 40
0.6990203462100683
 40
1.0
 40
1.0
 40
1.0
 40
1.0
 10
265.3061384366008
 20
76.70471014569483
 30
0.0
 10
265.2929114200517
 20
76.64828135338107
 30
0.0
 10
265.264339335605
 20
76.52638778703997
 30
0.0
 10
265.1484495713007
 20
76.36069505892229
 30
0.0
 10
264.9637097867775
 20
76.22177120347867
 30
0.0
 10
264.8060870868301
 20
76.19839195485615
 30
0.0
 10
264.7224450514766
 20
76.18598582337583
 30
0.0
  0
SPLINE
  5
169
330
1F
100
AcDbEntity
  8
0
  6
Continuous
 62
     7
370
    15
100
AcDbSpline
210
0.0
220
0.0
230
1.0
 70
     8
 71
     3
 72
    12
 73
     8
 74
     0
 42
0.00000001
 43
0.00000001
 40
0.0
 40
0.0
 40
0.0
 40
0.0
 40
0.2034077841212749
 40
0.4376399470235733
 40
0.7026160420113715
 40
0.8473893916167878
 40
1.0
 40
1.0
 40
1.0
 40
1.0
 10
268.3044606850597
 20
90.26333632062162
 30
0.0
 10
268.2830199852046
 20
90.60634691061637
 30
0.0
 10
268.23688946572
 20
91.34434785331547
 30
0.0
 10
267.7247900041384
 20
92.4414570921917
 30
0.0
 10
266.9495916749972
 20
93.2242199713858
 30
0.0
 10
266.1217319855606
 20
93.69393541449652
 30
0.0
 10
265.6377465291698
 20
93.82020519604306
 30
0.0
 10
265.3893763230296
 20
93.88500394414152
 30
0.0
  0
SPLINE
  5
16A
330
1F
100
AcDbEntity
  8
0
  6
Continuous
 62
     7
370
    15
100
AcDbSpline
210
0.0
220
0.0
230
1.0
 70
     8
 71
     3
 72
    12
 73
     8
 74
     0
 42
0.00000001
 43
0.00000001
 40
0.0
 40
0.0
 40
0.0
 40
0.0
 40
0.155560948770158
 40
0.3022070936722985
 40
0.56796849615778
 40
0.7999357583981019
 40
1.0
 40
1.0
 40
1.0
 40
1.0
 10
264.8890400336238
 20
90.9280026156732
 30
0.0
 10
264.9295869044694
 20
90.91225286243959
 30
0.0
 10
265.0083570077161
 20
90.88165593442898
 30
0.0
 10
265.1379897530603
 20
90.78661439070041
 30
0.0
 10
265.2524213470518
 20
90.64044450983097
 30
0.0
 10
265.3165577972859
 20
90.44618988872921
 30
0.0
 10
265.3094362621414
 20
90.32121119272968
 30
0.0
 10
265.3061384366008
 20
90.26333632062159
 30
0.0
  0
LINE
  5
16B
330
1F
100
AcDbEntity
  8
0
  6
Continuous
 62
     7
370
    15
100
AcDbLine
 10
265.3053039716
 20
90.3133446176
 30
0.0
 11
265.3053039716
 21
90.0709474284
 31
0.0
  0
LINE
  5
16C
330
1F
100
AcDbEntity
  8
0
  6
Continuous
 62
     7
370
    15
100
AcDbLine
 10
265.3053039716
 20
77.0709508855
 30
0.0
 11
265.3053039716
 21
76.6547018487
 31
0.0
  0
LINE
  5
16D
330
1F
100
AcDbEntity
  8
0
  6
Continuous
 62
     7
370
    15
100
AcDbLine
 10
268.3052951501
 20
76.6547018487
 30
0.0
 11
268.3052951501
 21
77.0736926992
 31
0.0
  0
LINE
  5
16E
330
1F
100
AcDbEntity
  8
0
  6
Continuous
 62
     7
370
    15
100
AcDbLine
 10
268.3052951501
 20
90.0682056148
 30
0.0
 11
268.3052951501
 21
90.3133446176
 31
0.0
  0
LINE
  5
16F
330
1F
100
AcDbEntity
  8
0
  6
Continuous
 62
     7
370
    15
100
AcDbLine
 10
254.6045864032
 20
89.1709470947
 30
0.0
 11
252.9863053964
 21
89.1709470947
 31
0.0
  0
LINE
  5
170
330
1F
100
AcDbEntity
  8
0
  6
Continuous
 62
     7
370
    15
100
AcDbLine
 10
253.6132270501
 20
88.3709484536
 30
0.0
 11
254.6045864032
 21
88.3709484536
 31
0.0
  0
LINE
  5
171
330
1F
100
AcDbEntity
  8
0
  6
Continuous
 62
     7
370
    15
100
AcDbLine
 10
254.94281296
 20
90.4390806157
 30
0.0
 11
254.6762907908
 21
89.2308348615
 31
0.0
  0
LINE
  5
172
330
1F
100
AcDbEntity
  8
0
  6
Continuous
 62
     7
370
    15
100
AcDbLine
 10
255.4444456504
 20
88.9992857177
 30
0.0
 11
255.7240212367
 21
90.2667486865
 31
0.0
  0
SPLINE
  5
173
330
1F
100
AcDbEntity
  8
0
  6
Continuous
 62
     7
370
    15
100
AcDbSpline
210
0.0
220
0.0
230
1.0
 70
     8
 71
     3
 72
    11
 73
     7
 74
     0
 42
0.00000001
 43
0.00000001
 40
0.0
 40
0.0
 40
0.0
 40
0.0
 40
0.2541311630691059
 40
0.5022676364033828
 40
0.7495179365131207
 40
1.0
 40
1.0
 40
1.0
 40
1.0
 10
254.6045864031764
 20
88.37094845364774
 30
0.0
 10
254.7046748364719
 20
88.38119357790006
 30
0.0
 10
254.9024907210549
 20
88.40144215458275
 30
0.0
 10
255.1606423082041
 20
88.55546779148635
 30
0.0
 10
255.3640837254765
 20
88.7745490227342
 30
0.0
 10
255.4258197051058
 20
88.96159904812473
 30
0.0
 10
255.4568881199809
 20
89.05573131631101
 30
0.0
  0
SPLINE
  5
174
330
1F
100
AcDbEntity
  8
0
  6
Continuous
 62
     7
370
    15
100
AcDbSpline
210
0.0
220
0.0
230
1.0
 70
     8
 71
     3
 72
    15
 73
    11
 74
     0
 42
0.00000001
 43
0.00000001
 40
0.0
 40
0.0
 40
0.0
 40
0.0
 40
0.1356021060610673
 40
0.2953301951074361
 40
0.4038100919400804
 40
0.5319613946579616
 40
0.6738407583735175
 40
0.8261087441090432
 40
0.9126143524011999
 40
0.9999999999999999
 40
0.9999999999999999
 40
0.9999999999999999
 40
0.9999999999999999
 10
252.9863053963633
 20
448.1369847256967
 30
0.0
 10
253.030687116943
 20
448.1296642514343
 30
0.0
 10
253.1273468413286
 20
448.1137208626848
 30
0.0
 10
253.334195401307
 20
448.1613890700903
 30
0.0
 10
253.5274662283091
 20
448.2491113120954
 30
0.0
 10
253.6740424285555
 20
448.3687772158405
 30
0.0
 10
253.7727533111446
 20
448.5196620862767
 30
0.0
 10
253.8024117509766
 20
448.6414981186321
 30
0.0
 10
253.7812348889321
 20
448.7707744389973
 30
0.0
 10
253.7349820738274
 20
448.8374399649005
 30
0.0
 10
253.7117386267634
 20
448.8709414202996
 30
0.0
  0
SPLINE
  5
175
330
1F
100
AcDbEntity
  8
0
  6
Continuous
 62
     7
370
    15
100
AcDbSpline
210
0.0
220
0.0
230
1.0
 70
     8
 71
     3
 72
    20
 73
    16
 74
     0
 42
0.00000001
 43
0.00000001
 40
0.0
 40
0.0
 40
0.0
 40
0.0
 40
0.0607081407044129
 40
0.2265336832249089
 40
0.3908030416487357
 40
0.4705944649029576
 40
0.5476201143003872
 40
0.6228570175088496
 40
0.7003369412925144
 40
0.7786471232305363
 40
0.8566576901760383
 40
0.9330986019141723
 40
0.9703708135221807
 40
0.9892324180227995
 40
1.0
 40
1.0
 40
1.0
 40
1.0
 10
249.2501074479075
 20
448.8709414202996
 30
0.0
 10
249.2963820855769
 20
448.8176099812463
 30
0.0
 10
249.4690568535654
 20
448.6186026128728
 30
0.0
 10
249.886028635113
 20
448.6006721106048
 30
0.0
 10
250.450983282478
 20
448.5256488957344
 30
0.0
 10
250.9705963910164
 20
448.4827108827806
 30
0.0
 10
251.3644890498395
 20
448.4521500321872
 30
0.0
 10
251.7574007993697
 20
448.4244786893314
 30
0.0
 10
252.1385616914699
 20
448.3931675641214
 30
0.0
 10
252.4942857434034
 20
448.3606947789564
 30
0.0
 10
252.7969101404686
 20
448.3298573833795
 30
0.0
 10
252.9894165833941
 20
448.3069577218247
 30
0.0
 10
253.0775485997531
 20
448.298937346536
 30
0.0
 10
253.1229668499453
 20
448.2911554220843
 30
0.0
 10
253.1224182537014
 20
448.2950984995755
 30
0.0
 10
253.1222188876124
 20
448.2965314585992
 30
0.0
  0
SPLINE
  5
176
330
1F
100
AcDbEntity
  8
0
  6
Continuous
 62
     7
370
    15
100
AcDbSpline
210
0.0
220
0.0
230
1.0
 70
     8
 71
     3
 72
    18
 73
    14
 74
     0
 42
0.00000001
 43
0.00000001
 40
0.0
 40
0.0
 40
0.0
 40
0.0
 40
0.0057533556670899
 40
0.1156383816400919
 40
0.2383928018287083
 40
0.3593080759670753
 40
0.4757057944087255
 40
0.5872126194286886
 40
0.7047325590295922
 40
0.8264984989712173
 40
0.8891454644815437
 40
0.9517928206763114
 40
1.0
 40
1.0
 40
1.0
 40
1.0
 10
253.492929975793
 20
457.5177723367044
 30
0.0
 10
253.4882828097117
 20
457.5207245360596
 30
0.0
 10
253.3948780567378
 20
457.5800616560771
 30
0.0
 10
253.1725131725233
 20
457.5862761714396
 30
0.0
 10
252.7811388217874
 20
457.6454631255825
 30
0.0
 10
252.2692540460611
 20
457.6910041529902
 30
0.0
 10
251.7182240981343
 20
457.7371698095898
 30
0.0
 10
251.1561057229271
 20
457.7760498847935
 30
0.0
 10
250.6218336907159
 20
457.8208016774158
 30
0.0
 10
250.2241847535377
 20
457.8618456085762
 30
0.0
 10
250.009471363585
 20
457.8829900832662
 30
0.0
 10
249.9134027006507
 20
457.8852647425845
 30
0.0
 10
249.8979602496415
 20
457.8691887320289
 30
0.0
 10
249.891244809434
 20
457.8621977765389
 30
0.0
  0
SPLINE
  5
177
330
1F
100
AcDbEntity
  8
0
  6
Continuous
 62
     7
370
    15
100
AcDbSpline
210
0.0
220
0.0
230
1.0
 70
     8
 71
     3
 72
    12
 73
     8
 74
     0
 42
0.00000001
 43
0.00000001
 40
0.0
 40
0.0
 40
0.0
 40
0.0
 40
0.2236733383107278
 40
0.4523085175496912
 40
0.6822373586558739
 40
0.9102239108752651
 40
1.0
 40
1.0
 40
1.0
 40
1.0
 10
249.1920078204127
 20
458.6727911431619
 30
0.0
 10
249.1792753873459
 20
458.630240108731
 30
0.0
 10
249.1535280722265
 20
458.5441941121494
 30
0.0
 10
249.2746500118458
 20
458.4526098055011
 30
0.0
 10
249.5063298417923
 20
458.3562702535333
 30
0.0
 10
249.7511819203862
 20
458.2938117192843
 30
0.0
 10
249.9345172804922
 20
458.2990154448978
 30
0.0
 10
249.9863142178508
 20
458.3004856307336
 30
0.0
  0
SPLINE
  5
178
330
1F
100
AcDbEntity
  8
0
  6
Continuous
 62
     7
370
    15
100
AcDbSpline
210
0.0
220
0.0
230
1.0
 70
     8
 71
     3
 72
    19
 73
    15
 74
     0
 42
0.00000001
 43
0.00000001
 40
0.0
 40
0.0
 40
0.0
 40
0.0
 40
0.097903768600572
 40
0.1753770836047057
 40
0.2884815659796423
 40
0.3734517719707434
 40
0.4570024650262312
 40
0.61688683569538
 40
0.6796659681128907
 40
0.7634257896372468
 40
0.8137529937153108
 40
0.8702965969898676
 40
0.9323982447406137
 40
1.0
 40
1.0
 40
1.0
 40
1.0
 10
249.3682438538524
 20
458.1776702601739
 30
0.0
 10
249.4187538955242
 20
458.1512887106427
 30
0.0
 10
249.509233597458
 20
458.1040308850871
 30
0.0
 10
249.8838756333388
 20
458.0433872255993
 30
0.0
 10
250.3703819779125
 20
457.9894933338629
 30
0.0
 10
250.9617120327186
 20
457.9362705299306
 30
0.0
 10
251.7158174494969
 20
457.8847228903619
 30
0.0
 10
252.3569090673665
 20
457.8177697118828
 30
0.0
 10
253.0061876731758
 20
457.782245069665
 30
0.0
 10
253.3845080525938
 20
457.8604554941356
 30
0.0
 10
253.636371128336
 20
457.9686320088143
 30
0.0
 10
253.7699527329112
 20
458.0569807709217
 30
0.0
 10
253.8317289711211
 20
458.1308139487209
 30
0.0
 10
253.7602852590225
 20
458.2113387933094
 30
0.0
 10
253.7230486081096
 20
458.2533085543939
 30
0.0
  0
SPLINE
  5
179
330
1F
100
AcDbEntity
  8
0
  6
Continuous
 62
     7
370
    15
100
AcDbSpline
210
0.0
220
0.0
230
1.0
 70
     8
 71
     3
 72
    25
 73
    21
 74
     0
 42
0.00000001
 43
0.00000001
 40
0.0
 40
0.0
 40
0.0
 40
0.0
 40
0.0176266847775876
 40
0.0344971566236749
 40
0.0503141744903973
 40
0.0649723448164466
 40
0.0909444561853151
 40
0.113438805966247
 40
0.1538399619339735
 40
0.1912337409430235
 40
0.299570582960891
 40
0.3999633983734154
 40
0.5012955358876848
 40
0.5949060182302881
 40
0.6784872333106985
 40
0.7336303007067829
 40
0.8075202610854518
 40
0.8952852538036823
 40
0.9453087253303619
 40
1.0
 40
1.0
 40
1.0
 40
1.0
 10
253.3657336638423
 20
457.6277280051538
 30
0.0
 10
253.4054448467785
 20
457.6321175981348
 30
0.0
 10
253.4831635394734
 20
457.6407084635466
 30
0.0
 10
253.5850356527776
 20
457.6867238057453
 30
0.0
 10
253.6660494691303
 20
457.7456788372218
 30
0.0
 10
253.7422551819406
 20
457.8292478537813
 30
0.0
 10
253.7952987667531
 20
457.9328961373392
 30
0.0
 10
253.8194761611225
 20
458.0652359111368
 30
0.0
 10
253.7965679215341
 20
458.1971039715931
 30
0.0
 10
253.6253366607174
 20
458.442301072714
 30
0.0
 10
253.2825490085866
 20
458.5293979861389
 30
0.0
 10
252.7874359581692
 20
458.5879550359235
 30
0.0
 10
252.1742229267672
 20
458.6462993825568
 30
0.0
 10
251.5247545515484
 20
458.6959221274099
 30
0.0
 10
250.9850530585922
 20
458.735411018081
 30
0.0
 10
250.5390391771008
 20
458.7745856158256
 30
0.0
 10
250.1503379597204
 20
458.8128165182445
 30
0.0
 10
249.8901814000652
 20
458.8406424375462
 30
0.0
 10
249.7597336581903
 20
458.8631609919622
 30
0.0
 10
249.7510762146894
 20
458.8756170195694
 30
0.0
 10
249.7465545342418
 20
458.8821226556131
 30
0.0
  0
SPLINE
  5
17A
330
1F
100
AcDbEntity
  8
0
  6
Continuous
 62
     7
370
    15
100
AcDbSpline
210
0.0
220
0.0
230
1.0
 70
     8
 71
     3
 72
    12
 73
     8
 74
     0
 42
0.00000001
 43
0.00000001
 40
0.0
 40
0.0
 40
0.0
 40
0.0
 40
0.1756422252521359
 40
0.5723181378072759
 40
0.7586171593006853
 40
0.9207540157513876
 40
1.0
 40
1.0
 40
1.0
 40
1.0
 10
249.8348737166377
 20
458.0636316735574
 30
0.0
 10
249.7693158843036
 20
458.0544608811129
 30
0.0
 10
249.5557001864482
 20
458.0245784832641
 30
0.0
 10
249.3397689403174
 20
457.9506441987002
 30
0.0
 10
249.1786277540071
 20
457.7357130397411
 30
0.0
 10
249.1474019442982
 20
457.5754921792176
 30
0.0
 10
249.1783804935864
 20
457.4968354848667
 30
0.0
 10
249.1885507510158
 20
457.4710124928781
 30
0.0
  0
LINE
  5
17B
330
1F
100
AcDbEntity
  8
0
  6
Continuous
 62
     7
370
    15
100
AcDbLine
 10
249.346070926
 20
448.773204704
 30
0.0
 11
248.2276046679
 21
448.773204704
 31
0.0
  0
LINE
  5
17C
330
1F
100
AcDbEntity
  8
0
  6
Continuous
 62
     7
370
    15
100
AcDbLine
 10
248.2276046679
 20
447.973206063
 30
0.0
 11
249.9863142179
 21
447.973206063
 31
0.0
  0
LINE
  5
17D
330
1F
100
AcDbEntity
  8
0
  6
Continuous
 62
     7
370
    15
100
AcDbLine
 10
246.8173140691
 20
461.5709477861
 30
0.0
 11
246.8173140691
 21
461.6244131524
 31
0.0
  0
LINE
  5
17E
330
1F
100
AcDbEntity
  8
0
  6
Continuous
 62
     7
370
    15
100
AcDbLine
 10
243.8173228906
 20
461.6244131524
 30
0.0
 11
243.8173228906
 21
461.5709477861
 31
0.0
  0
SPLINE
  5
17F
330
1F
100
AcDbEntity
  8
0
  6
Continuous
 62
     7
370
    15
100
AcDbSpline
210
0.0
220
0.0
230
1.0
 70
     8
 71
     3
 72
    15
 73
    11
 74
     0
 42
0.00000001
 43
0.00000001
 40
0.0
 40
0.0
 40
0.0
 40
0.0
 40
0.1077555507154688
 40
0.2352511983336943
 40
0.362790350292899
 40
0.4902567554394754
 40
0.6176629962400678
 40
0.7450967779333516
 40
0.8724964982314105
 40
1.0
 40
1.0
 40
1.0
 40
1.0
 10
243.8333714411708
 20
445.5709451634713
 30
0.0
 10
243.8499105676246
 20
445.2584229265288
 30
0.0
 10
243.8860186779895
 20
444.5761264670098
 30
0.0
 10
244.2222313742518
 20
443.5669784736692
 30
0.0
 10
244.7803112118105
 20
442.6034992706905
 30
0.0
 10
245.5351358227551
 20
441.7825730717707
 30
0.0
 10
246.4503001987323
 20
441.1473050766187
 30
0.0
 10
247.477556548952
 20
440.7271521485843
 30
0.0
 10
248.5735334874752
 20
440.5133210178208
 30
0.0
 10
249.3092938027308
 20
440.578861446591
 30
0.0
 10
249.6773237393352
 20
440.6116450030633
 30
0.0
  0
SPLINE
  5
180
330
1F
100
AcDbEntity
  8
0
  6
Continuous
 62
     7
370
    15
100
AcDbSpline
210
0.0
220
0.0
230
1.0
 70
     8
 71
     3
 72
    15
 73
    11
 74
     0
 42
0.00000001
 43
0.00000001
 40
0.0
 40
0.0
 40
0.0
 40
0.0
 40
0.1316513409149725
 40
0.2633120955730877
 40
0.3951901755030931
 40
0.5266715618178756
 40
0.6575473021580293
 40
0.7882115409835325
 40
0.9184603807188456
 40
1.0
 40
1.0
 40
1.0
 40
1.0
 10
249.1796398566218
 20
443.5693317849465
 30
0.0
 10
249.0274558313367
 20
443.5575163328084
 30
0.0
 10
248.7230768988316
 20
443.5338845836668
 30
0.0
 10
248.2722182727699
 20
443.6353647919786
 30
0.0
 10
247.853178433331
 20
443.8222050796014
 30
0.0
 10
247.4827909377103
 20
444.0948170587599
 30
0.0
 10
247.1805400834726
 20
444.4407305491216
 30
0.0
 10
246.9613592334321
 20
444.8424265207855
 30
0.0
 10
246.8440104154354
 20
445.2287465659314
 30
0.0
 10
246.8338264341682
 20
445.4758204705885
 30
0.0
 10
246.8299055502864
 20
445.5709451634714
 30
0.0
  0
SPLINE
  5
181
330
1F
100
AcDbEntity
  8
0
  6
Continuous
 62
     7
370
    15
100
AcDbSpline
210
0.0
220
0.0
230
1.0
 70
     8
 71
     3
 72
    15
 73
    11
 74
     0
 42
0.00000001
 43
0.00000001
 40
0.0
 40
0.0
 40
0.0
 40
0.0
 40
0.1249272622636897
 40
0.2499157582683642
 40
0.3749668820430542
 40
0.4999573550462825
 40
0.6249201454790695
 40
0.7499167384880293
 40
0.8748745285857286
 40
1.0
 40
1.0
 40
1.0
 40
1.0
 10
249.848195354745
 20
466.5014589030573
 30
0.0
 10
249.4818190062769
 20
466.5447893430649
 30
0.0
 10
248.7488867280868
 20
466.6314714617187
 30
0.0
 10
247.644857658839
 20
466.4663044209404
 30
0.0
 10
246.6040691152421
 20
466.0773478740967
 30
0.0
 10
245.6688670666822
 20
465.4723550736978
 30
0.0
 10
244.8882350918711
 20
464.6761502769227
 30
0.0
 10
244.3002566874142
 20
463.7317977799707
 30
0.0
 10
243.9044384055749
 20
462.6833477720375
 30
0.0
 10
243.8463743729175
 20
461.9442276222711
 30
0.0
 10
243.817322890565
 20
461.5744197566339
 30
0.0
  0
SPLINE
  5
182
330
1F
100
AcDbEntity
  8
0
  6
Continuous
 62
     7
370
    15
100
AcDbSpline
210
0.0
220
0.0
230
1.0
 70
     8
 71
     3
 72
    15
 73
    11
 74
     0
 42
0.00000001
 43
0.00000001
 40
0.0
 40
0.0
 40
0.0
 40
0.0
 40
0.1242511625658423
 40
0.2486325123120668
 40
0.3735415526078879
 40
0.4985817894852682
 40
0.6236643585681813
 40
0.749069687415585
 40
0.8744364137175966
 40
1.0
 40
1.0
 40
1.0
 40
1.0
 10
246.8173140690776
 20
461.5744197566339
 30
0.0
 10
246.8308782461834
 20
461.7263723088631
 30
0.0
 10
246.8580208125919
 20
462.0304366253073
 30
0.0
 10
247.0324722587652
 20
462.457757498611
 30
0.0
 10
247.2858052459852
 20
462.8393971352529
 30
0.0
 10
247.6156252138993
 20
463.1593320364688
 30
0.0
 10
248.0065527877804
 20
463.3999072794743
 30
0.0
 10
248.4392544092994
 20
463.5515161453407
 30
0.0
 10
248.8967827588419
 20
463.6049786998753
 30
0.0
 10
249.198702842202
 20
463.5642942285241
 30
0.0
 10
249.3497813151332
 20
463.5439360339471
 30
0.0
  0
LINE
  5
183
330
1F
100
AcDbEntity
  8
0
  6
Continuous
 62
     7
370
    15
100
AcDbLine
 10
264.7203737901
 20
446.1860799987
 30
0.0
 11
249.1794163392
 21
443.5696596105
 31
0.0
  0
LINE
  5
184
330
1F
100
AcDbEntity
  8
0
  6
Continuous
 62
     7
370
    15
100
AcDbLine
 10
249.6774727509
 20
440.6113022764
 30
0.0
 11
265.218445103
 21
443.2277077634
 31
0.0
  0
LINE
  5
185
330
1F
100
AcDbEntity
  8
0
  6
Continuous
 62
     7
370
    15
100
AcDbLine
 10
249.3499899314
 20
463.5435039003
 30
0.0
 11
264.8909622834
 21
460.9270835121
 31
0.0
  0
LINE
  5
186
330
1F
100
AcDbEntity
  8
0
  6
Continuous
 62
     7
370
    15
100
AcDbLine
 10
265.3890186952
 20
463.8854557473
 30
0.0
 11
249.8480612443
 21
466.5018761356
 31
0.0
  0
SPLINE
  5
187
330
1F
100
AcDbEntity
  8
0
  6
Continuous
 62
     7
370
    15
100
AcDbSpline
210
0.0
220
0.0
230
1.0
 70
     8
 71
     3
 72
    12
 73
     8
 74
     0
 42
0.00000001
 43
0.00000001
 40
0.0
 40
0.0
 40
0.0
 40
0.0
 40
0.1526135502442328
 40
0.2973905062034102
 40
0.5623705545044584
 40
0.7966015967691097
 40
1.0
 40
1.0
 40
1.0
 40
1.0
 10
265.2180874751064
 20
443.2280206878015
 30
0.0
 10
265.4693072241126
 20
443.2807584035823
 30
0.0
 10
265.958846771589
 20
443.3835257919758
 30
0.0
 10
266.8083673926467
 20
443.8127785986346
 30
0.0
 10
267.6203569865646
 20
444.5571725384543
 30
0.0
 10
268.1848072479924
 20
445.6282116657088
 30
0.0
 10
268.266494599672
 20
446.3631399852645
 30
0.0
 10
268.3044606850597
 20
446.7047149140664
 30
0.0
  0
SPLINE
  5
188
330
1F
100
AcDbEntity
  8
0
  6
Continuous
 62
     7
370
    15
100
AcDbSpline
210
0.0
220
0.0
230
1.0
 70
     8
 71
     3
 72
    11
 73
     7
 74
     0
 42
0.00000001
 43
0.00000001
 40
0.0
 40
0.0
 40
0.0
 40
0.0
 40
0.2003604523961388
 40
0.432804763221977
 40
0.6990176740182689
 40
1.0
 40
1.0
 40
1.0
 40
1.0
 10
265.3061384366008
 20
446.7047149140664
 30
0.0
 10
265.2929114095114
 20
446.6482861689519
 30
0.0
 10
265.2643393022963
 20
446.5263927045673
 30
0.0
 10
265.1484497395227
 20
446.3606990740004
 30
0.0
 10
264.9637081327313
 20
446.2217787596509
 30
0.0
 10
264.8060868391527
 20
446.1983880028442
 30
0.0
 10
264.7224450514766
 20
446.1859756905862
 30
0.0
  0
SPLINE
  5
189
330
1F
100
AcDbEntity
  8
0
  6
Continuous
 62
     7
370
    15
100
AcDbSpline
210
0.0
220
0.0
230
1.0
 70
     8
 71
     3
 72
    12
 73
     8
 74
     0
 42
0.00000001
 43
0.00000001
 40
0.0
 40
0.0
 40
0.0
 40
0.0
 40
0.2034079614312687
 40
0.4376403285130852
 40
0.7026166544798007
 40
0.8473901302837391
 40
1.0
 40
1.0
 40
1.0
 40
1.0
 10
268.3044606850597
 20
460.2633410889932
 30
0.0
 10
268.2830199750379
 20
460.6063516461422
 30
0.0
 10
268.2368894336792
 20
461.3443525181723
 30
0.0
 10
267.7247901636532
 20
462.4414623759119
 30
0.0
 10
266.9495911245149
 20
463.2242229612994
 30
0.0
 10
266.1217343398372
 20
463.6939429150073
 30
0.0
 10
265.6377468711765
 20
463.820201162456
 30
0.0
 10
265.3893763230296
 20
463.8849938113519
 30
0.0
  0
SPLINE
  5
18A
330
1F
100
AcDbEntity
  8
0
  6
Continuous
 62
     7
370
    15
100
AcDbSpline
210
0.0
220
0.0
230
1.0
 70
     8
 71
     3
 72
    12
 73
     8
 74
     0
 42
0.00000001
 43
0.00000001
 40
0.0
 40
0.0
 40
0.0
 40
0.0
 40
0.155561090840467
 40
0.3022073696712271
 40
0.5679690148706087
 40
0.7999527754730017
 40
0.9999999999999999
 40
0.9999999999999999
 40
0.9999999999999999
 40
0.9999999999999999
 10
264.8890400336238
 20
460.9280073840447
 30
0.0
 10
264.9295869153129
 20
460.9122576350777
 30
0.0
 10
265.008357039625
 20
460.8816607153555
 30
0.0
 10
265.1379895938232
 20
460.7866190964183
 30
0.0
 10
265.2524253355992
 20
460.6404460151304
 30
0.0
 10
265.3165553905691
 20
460.4461887577599
 30
0.0
 10
265.3094353114139
 20
460.3212107767773
 30
0.0
 10
265.3061384366008
 20
460.2633410889932
 30
0.0
  0
LINE
  5
18B
330
1F
100
AcDbEntity
  8
0
  6
Continuous
 62
     7
370
    15
100
AcDbLine
 10
265.3053039716
 20
460.3133344848
 30
0.0
 11
265.3053039716
 21
460.0709372957
 31
0.0
  0
LINE
  5
18C
330
1F
100
AcDbEntity
  8
0
  6
Continuous
 62
     7
370
    15
100
AcDbLine
 10
265.3053039716
 20
447.0709407527
 30
0.0
 11
265.3053039716
 21
446.6547066171
 31
0.0
  0
LINE
  5
18D
330
1F
100
AcDbEntity
  8
0
  6
Continuous
 62
     7
370
    15
100
AcDbLine
 10
268.3052951501
 20
446.6547066171
 30
0.0
 11
268.3052951501
 21
447.0736825664
 31
0.0
  0
LINE
  5
18E
330
1F
100
AcDbEntity
  8
0
  6
Continuous
 62
     7
370
    15
100
AcDbLine
 10
268.3052951501
 20
460.068195482
 30
0.0
 11
268.3052951501
 21
460.3133344848
 31
0.0
  0
LINE
  5
18F
330
1F
100
AcDbEntity
  8
0
  6
Continuous
 62
     7
370
    15
100
AcDbLine
 10
254.6045864032
 20
459.1709369619
 30
0.0
 11
252.9863053964
 21
459.1709369619
 31
0.0
  0
LINE
  5
190
330
1F
100
AcDbEntity
  8
0
  6
Continuous
 62
     7
370
    15
100
AcDbLine
 10
253.6132270501
 20
458.3709383209
 30
0.0
 11
254.6045864032
 21
458.3709383209
 31
0.0
  0
LINE
  5
191
330
1F
100
AcDbEntity
  8
0
  6
Continuous
 62
     7
370
    15
100
AcDbLine
 10
254.94281296
 20
460.4390853841
 30
0.0
 11
254.6762907908
 21
459.2308396299
 31
0.0
  0
LINE
  5
192
330
1F
100
AcDbEntity
  8
0
  6
Continuous
 62
     7
370
    15
100
AcDbLine
 10
255.4444456504
 20
458.9992904861
 30
0.0
 11
255.7240212367
 21
460.2667534549
 31
0.0
  0
SPLINE
  5
193
330
1F
100
AcDbEntity
  8
0
  6
Continuous
 62
     7
370
    15
100
AcDbSpline
210
0.0
220
0.0
230
1.0
 70
     8
 71
     3
 72
    11
 73
     7
 74
     0
 42
0.00000001
 43
0.00000001
 40
0.0
 40
0.0
 40
0.0
 40
0.0
 40
0.2541322396080093
 40
0.5022676065307782
 40
0.7495073204938133
 40
1.0
 40
1.0
 40
1.0
 40
1.0
 10
254.6045864031764
 20
458.3709383208581
 30
0.0
 10
254.70467485919
 20
458.3811894392503
 30
0.0
 10
254.9024899389329
 20
458.4014497757863
 30
0.0
 10
255.1606366049764
 20
458.5554717646617
 30
0.0
 10
255.3640918954771
 20
458.7745433461414
 30
0.0
 10
255.425821565593
 20
458.9615976695467
 30
0.0
 10
255.4568881199809
 20
459.0557360846826
 30
0.0
  0
LINE
  5
194
330
1F
100
AcDbEntity
  8
0
  6
Continuous
 62
     7
370
    15
100
AcDbLine
 10
254.2163068459
 20
445.5709451635
 30
0.0
 11
254.2163068459
 21
446.3709438045
 31
0.0
  0
LINE
  5
195
330
1F
100
AcDbEntity
  8
0
  6
Continuous
 62
     7
370
    15
100
AcDbLine
 10
254.2163068459
 20
460.7709491451
 30
0.0
 11
254.2163068459
 21
461.5709477861
 31
0.0
  0
ARC
  5
196
330
1F
100
AcDbEntity
  8
0
  6
Continuous
 62
     7
370
    15
100
AcDbCircle
 10
251.4863099788
 20
458.7638012335
 30
0.0
 40
3.807142857143322
100
AcDbArc
 50
54.6997515601
 51
125.3002484399
  0
LINE
  5
197
330
1F
100
AcDbEntity
  8
0
  6
Continuous
 62
     7
370
    15
100
AcDbLine
 10
249.2863172696
 20
461.8709379632
 30
0.0
 11
249.2863172696
 21
461.5709477861
 31
0.0
  0
LINE
  5
198
330
1F
100
AcDbEntity
  8
0
  6
Continuous
 62
     7
370
    15
100
AcDbLine
 10
253.6863172458
 20
461.5709477861
 30
0.0
 11
253.6863172458
 21
461.8709379632
 31
0.0
  0
LINE
  5
199
330
1F
100
AcDbEntity
  8
0
  6
Continuous
 62
     7
370
    15
100
AcDbLine
 10
249.3863040612
 20
445.1709383924
 30
0.0
 11
249.3863040612
 21
444.7709465225
 31
0.0
  0
LINE
  5
19A
330
1F
100
AcDbEntity
  8
0
  6
Continuous
 62
     7
370
    15
100
AcDbLine
 10
253.586315553
 20
444.7709465225
 30
0.0
 11
253.586315553
 21
445.1709383924
 31
0.0
  0
ARC
  5
19B
330
1F
100
AcDbEntity
  8
0
  6
Continuous
 62
     7
370
    15
100
AcDbCircle
 10
249.5863099788
 20
445.5709440906
 30
0.0
 40
0.4000000000008015
100
AcDbArc
 50
270.0
 51
0.0
  0
ARC
  5
19C
330
1F
100
AcDbEntity
  8
0
  6
Continuous
 62
     7
370
    15
100
AcDbCircle
 10
253.3863099788
 20
445.5709440906
 30
0.0
 40
0.4000000000007446
100
AcDbArc
 50
180.0
 51
270.0
  0
LINE
  5
19D
330
1F
100
AcDbEntity
  8
0
  6
Continuous
 62
     7
370
    15
100
AcDbLine
 10
249.9863142179
 20
460.7709491451
 30
0.0
 11
249.9863142179
 21
460.3209489782
 31
0.0
  0
LINE
  5
19E
330
1F
100
AcDbEntity
  8
0
  6
Continuous
 62
     7
370
    15
100
AcDbLine
 10
249.9863142179
 20
459.3209469516
 30
0.0
 11
249.9863142179
 21
458.8322335679
 31
0.0
  0
LINE
  5
19F
330
1F
100
AcDbEntity
  8
0
  6
Continuous
 62
     7
370
    15
100
AcDbLine
 10
249.9863142179
 20
458.03612413
 30
0.0
 11
249.9863142179
 21
457.8804218967
 31
0.0
  0
LINE
  5
1A0
330
1F
100
AcDbEntity
  8
0
  6
Continuous
 62
     7
370
    15
100
AcDbLine
 10
249.9863142179
 20
448.5813224513
 30
0.0
 11
249.9863142179
 21
447.8209459979
 31
0.0
  0
LINE
  5
1A1
330
1F
100
AcDbEntity
  8
0
  6
Continuous
 62
     7
370
    15
100
AcDbLine
 10
249.9863142179
 20
446.8209439714
 30
0.0
 11
249.9863142179
 21
446.3709438045
 31
0.0
  0
LINE
  5
1A2
330
1F
100
AcDbEntity
  8
0
  6
Continuous
 62
     7
370
    15
100
AcDbLine
 10
252.9863053964
 20
446.3709438045
 30
0.0
 11
252.9863053964
 21
446.8209439714
 31
0.0
  0
LINE
  5
1A3
330
1F
100
AcDbEntity
  8
0
  6
Continuous
 62
     7
370
    15
100
AcDbLine
 10
252.9863053964
 20
447.8209459979
 30
0.0
 11
252.9863053964
 21
448.3080798585
 31
0.0
  0
LINE
  5
1A4
330
1F
100
AcDbEntity
  8
0
  6
Continuous
 62
     7
370
    15
100
AcDbLine
 10
252.9863053964
 20
457.6160007913
 30
0.0
 11
252.9863053964
 21
457.8039491374
 31
0.0
  0
LINE
  5
1A5
330
1F
100
AcDbEntity
  8
0
  6
Continuous
 62
     7
370
    15
100
AcDbLine
 10
252.9863053964
 20
458.5590207774
 30
0.0
 11
252.9863053964
 21
459.3209469516
 31
0.0
  0
LINE
  5
1A6
330
1F
100
AcDbEntity
  8
0
  6
Continuous
 62
     7
370
    15
100
AcDbLine
 10
252.9863053964
 20
460.3209489782
 30
0.0
 11
252.9863053964
 21
460.7709491451
 31
0.0
  0
LINE
  5
1A7
330
1F
100
AcDbEntity
  8
0
  6
Continuous
 62
     7
370
    15
100
AcDbLine
 10
268.2559276031
 20
447.0709407527
 30
0.0
 11
267.3039073155
 21
447.0709407527
 31
0.0
  0
LWPOLYLINE
  5
1A8
330
1F
100
AcDbEntity
  8
0
  6
Continuous
 62
     7
370
    15
100
AcDbPolyline
 90
        9
 70
   128
 43
0.0
 10
267.3039073155
 20
447.0709407527
 10
267.4464220212
 20
447.0940077503
 10
267.5834530995
 20
447.1622848708
 10
267.7097553418
 20
447.2731793125
 10
267.8204560683
 20
447.4224144418
 10
267.911293547
 20
447.6042533119
 10
267.9788107083
 20
447.8117221792
 10
268.0203849481
 20
448.0368340213
 10
268.0344218419
 20
448.2709461648
  0
LINE
  5
1A9
330
1F
100
AcDbEntity
  8
0
  6
Continuous
 62
     7
370
    15
100
AcDbLine
 10
268.0344218419
 20
448.2709461648
 30
0.0
 11
268.9864421294
 21
448.2709461648
 31
0.0
  0
LWPOLYLINE
  5
1AA
330
1F
100
AcDbEntity
  8
0
  6
Continuous
 62
     7
370
    15
100
AcDbPolyline
 90
        9
 70
   128
 43
0.0
 10
268.9864421294
 20
448.2709461648
 10
268.9724052356
 20
448.0368340213
 10
268.9308309958
 20
447.8117221792
 10
268.8633287356
 20
447.6042533119
 10
268.7724763558
 20
447.4224144418
 10
268.6617756293
 20
447.2731793125
 10
268.535473387
 20
447.1622848708
 10
268.3984423087
 20
447.0940077503
 10
268.2559276031
 20
447.0709407527
  0
LINE
  5
1AB
330
1F
100
AcDbEntity
  8
0
  6
Continuous
 62
     7
370
    15
100
AcDbLine
 10
268.9864421294
 20
458.8709467847
 30
0.0
 11
268.0344218419
 21
458.8709467847
 31
0.0
  0
LINE
  5
1AC
330
1F
100
AcDbEntity
  8
0
  6
Continuous
 62
     7
370
    15
100
AcDbLine
 10
268.9864421294
 20
458.8709467847
 30
0.0
 11
268.9864421294
 21
448.2709461648
 31
0.0
  0
LINE
  5
1AD
330
1F
100
AcDbEntity
  8
0
  6
Continuous
 62
     7
370
    15
100
AcDbLine
 10
268.0344218419
 20
458.8709467847
 30
0.0
 11
268.0344218419
 21
448.2709461648
 31
0.0
  0
LINE
  5
1AE
330
1F
100
AcDbEntity
  8
0
  6
Continuous
 62
     7
370
    15
100
AcDbLine
 10
267.3039073155
 20
460.0709372957
 30
0.0
 11
268.2559276031
 21
460.0709372957
 31
0.0
  0
LWPOLYLINE
  5
1AF
330
1F
100
AcDbEntity
  8
0
  6
Continuous
 62
     7
370
    15
100
AcDbPolyline
 90
        9
 70
   128
 43
0.0
 10
268.2559276031
 20
460.0709372957
 10
268.3984423087
 20
460.0478851993
 10
268.535473387
 20
459.9795931775
 10
268.6617756293
 20
459.8687136371
 10
268.7724763558
 20
459.7194785077
 10
268.8633287356
 20
459.5376247365
 10
268.9308309958
 20
459.3301707704
 10
268.9724052356
 20
459.1050589282
 10
268.9864421294
 20
458.8709467847
  0
LWPOLYLINE
  5
1B0
330
1F
100
AcDbEntity
  8
0
  6
Continuous
 62
     7
370
    15
100
AcDbPolyline
 90
        9
 70
   128
 43
0.0
 10
268.0344218419
 20
458.8709467847
 10
268.0203849481
 20
459.1050589282
 10
267.9788107083
 20
459.3301707704
 10
267.911293547
 20
459.5376247365
 10
267.8204560683
 20
459.7194785077
 10
267.7097553418
 20
459.8687136371
 10
267.5834530995
 20
459.9795931775
 10
267.4464220212
 20
460.0478851993
 10
267.3039073155
 20
460.0709372957
  0
LINE
  5
1B1
330
1F
100
AcDbEntity
  8
0
  6
Continuous
 62
     7
370
    15
100
AcDbLine
 10
264.5849222348
 20
460.0709372957
 30
0.0
 11
264.5849222348
 21
447.0709407527
 31
0.0
  0
LINE
  5
1B2
330
1F
100
AcDbEntity
  8
0
  6
Continuous
 62
     7
370
    15
100
AcDbLine
 10
264.5849222348
 20
460.0709372957
 30
0.0
 11
267.3039073155
 21
460.0709372957
 31
0.0
  0
LINE
  5
1B3
330
1F
100
AcDbEntity
  8
0
  6
Continuous
 62
     7
370
    15
100
AcDbLine
 10
267.3039073155
 20
447.0709407527
 30
0.0
 11
264.5849222348
 21
447.0709407527
 31
0.0
  0
LINE
  5
1B4
330
1F
100
AcDbEntity
  8
0
  6
Continuous
 62
     7
370
    15
100
AcDbLine
 10
268.9864421294
 20
88.8709420163
 30
0.0
 11
268.0344218419
 21
88.8709420163
 31
0.0
  0
LINE
  5
1B5
330
1F
100
AcDbEntity
  8
0
  6
Continuous
 62
     7
370
    15
100
AcDbLine
 10
268.9864421294
 20
88.8709420163
 30
0.0
 11
268.9864421294
 21
78.2709413965
 31
0.0
  0
LINE
  5
1B6
330
1F
100
AcDbEntity
  8
0
  6
Continuous
 62
     7
370
    15
100
AcDbLine
 10
268.0344218419
 20
78.2709413965
 30
0.0
 11
268.9864421294
 21
78.2709413965
 31
0.0
  0
LINE
  5
1B7
330
1F
100
AcDbEntity
  8
0
  6
Continuous
 62
     7
370
    15
100
AcDbLine
 10
268.0344218419
 20
88.8709420163
 30
0.0
 11
268.0344218419
 21
78.2709413965
 31
0.0
  0
LINE
  5
1B8
330
1F
100
AcDbEntity
  8
0
  6
Continuous
 62
     7
370
    15
100
AcDbLine
 10
268.2559276031
 20
77.0709508855
 30
0.0
 11
267.3039073155
 21
77.0709508855
 31
0.0
  0
LWPOLYLINE
  5
1B9
330
1F
100
AcDbEntity
  8
0
  6
Continuous
 62
     7
370
    15
100
AcDbPolyline
 90
        9
 70
   128
 43
0.0
 10
267.3039073155
 20
77.0709508855
 10
267.4464220212
 20
77.0940029819
 10
267.5834530995
 20
77.1622950036
 10
267.7097553418
 20
77.2731745441
 10
267.8204560683
 20
77.4224096734
 10
267.911293547
 20
77.6042634446
 10
267.9788107083
 20
77.8117174108
 10
268.0203849481
 20
78.0368292529
 10
268.0344218419
 20
78.2709413965
  0
LWPOLYLINE
  5
1BA
330
1F
100
AcDbEntity
  8
0
  6
Continuous
 62
     7
370
    15
100
AcDbPolyline
 90
        9
 70
   128
 43
0.0
 10
268.9864421294
 20
78.2709413965
 10
268.9724052356
 20
78.0368292529
 10
268.9308309958
 20
77.8117174108
 10
268.8633287356
 20
77.6042634446
 10
268.7724763558
 20
77.4224096734
 10
268.6617756293
 20
77.2731745441
 10
268.535473387
 20
77.1622950036
 10
268.3984423087
 20
77.0940029819
 10
268.2559276031
 20
77.0709508855
  0
LINE
  5
1BB
330
1F
100
AcDbEntity
  8
0
  6
Continuous
 62
     7
370
    15
100
AcDbLine
 10
267.3039073155
 20
90.0709474284
 30
0.0
 11
268.2559276031
 21
90.0709474284
 31
0.0
  0
LWPOLYLINE
  5
1BC
330
1F
100
AcDbEntity
  8
0
  6
Continuous
 62
     7
370
    15
100
AcDbPolyline
 90
        9
 70
   128
 43
0.0
 10
268.2559276031
 20
90.0709474284
 10
268.3984423087
 20
90.0478804309
 10
268.535473387
 20
89.9796033103
 10
268.6617756293
 20
89.8687088687
 10
268.7724763558
 20
89.7194737394
 10
268.8633287356
 20
89.5376348693
 10
268.9308309958
 20
89.330166002
 10
268.9724052356
 20
89.1050541599
 10
268.9864421294
 20
88.8709420163
  0
LWPOLYLINE
  5
1BD
330
1F
100
AcDbEntity
  8
0
  6
Continuous
 62
     7
370
    15
100
AcDbPolyline
 90
        9
 70
   128
 43
0.0
 10
268.0344218419
 20
88.8709420163
 10
268.0203849481
 20
89.1050541599
 10
267.9788107083
 20
89.330166002
 10
267.911293547
 20
89.5376348693
 10
267.8204560683
 20
89.7194737394
 10
267.7097553418
 20
89.8687088687
 10
267.5834530995
 20
89.9796033103
 10
267.4464220212
 20
90.0478804309
 10
267.3039073155
 20
90.0709474284
  0
LINE
  5
1BE
330
1F
100
AcDbEntity
  8
0
  6
Continuous
 62
     7
370
    15
100
AcDbLine
 10
264.5849222348
 20
90.0709474284
 30
0.0
 11
264.5849222348
 21
77.0709508855
 31
0.0
  0
LINE
  5
1BF
330
1F
100
AcDbEntity
  8
0
  6
Continuous
 62
     7
370
    15
100
AcDbLine
 10
264.5849222348
 20
90.0709474284
 30
0.0
 11
267.3039073155
 21
90.0709474284
 31
0.0
  0
LINE
  5
1C0
330
1F
100
AcDbEntity
  8
0
  6
Continuous
 62
     7
370
    15
100
AcDbLine
 10
267.3039073155
 20
77.0709508855
 30
0.0
 11
264.5849222348
 21
77.0709508855
 31
0.0
  0
LINE
  5
1C1
330
1F
100
AcDbEntity
  8
0
  6
Continuous
 62
     7
370
    15
100
AcDbLine
 10
264.0063101457
 20
460.0709372957
 30
0.0
 11
264.5849222348
 21
460.0709372957
 31
0.0
  0
LINE
  5
1C2
330
1F
100
AcDbEntity
  8
0
  6
Continuous
 62
     7
370
    15
100
AcDbLine
 10
264.5849222348
 20
447.0709407527
 30
0.0
 11
264.0063101457
 21
447.0709407527
 31
0.0
  0
LINE
  5
1C3
330
1F
100
AcDbEntity
  8
0
  6
Continuous
 62
     7
370
    15
100
AcDbLine
 10
264.0063101457
 20
90.0709474284
 30
0.0
 11
264.5849222348
 21
90.0709474284
 31
0.0
  0
LINE
  5
1C4
330
1F
100
AcDbEntity
  8
0
  6
Continuous
 62
     7
370
    15
100
AcDbLine
 10
264.5849222348
 20
77.0709508855
 30
0.0
 11
264.0063101457
 21
77.0709508855
 31
0.0
  0
LINE
  5
1C5
330
1F
100
AcDbEntity
  8
0
  6
Continuous
 62
     7
370
    15
100
AcDbLine
 10
274.1063172029
 20
446.6709488828
 30
0.0
 11
274.9063158439
 21
446.6709488828
 31
0.0
  0
LINE
  5
1C6
330
1F
100
AcDbEntity
  8
0
  6
Continuous
 62
     7
370
    15
100
AcDbLine
 10
274.9063158439
 20
446.6709488828
 30
0.0
 11
274.9063158439
 21
448.1709444721
 31
0.0
  0
LINE
  5
1C7
330
1F
100
AcDbEntity
  8
0
  6
Continuous
 62
     7
370
    15
100
AcDbLine
 10
274.9063158439
 20
448.1709444721
 30
0.0
 11
276.4063114331
 21
448.1709444721
 31
0.0
  0
LINE
  5
1C8
330
1F
100
AcDbEntity
  8
0
  6
Continuous
 62
     7
370
    15
100
AcDbLine
 10
276.4063114331
 20
448.1709444721
 30
0.0
 11
276.4063114331
 21
448.9709431131
 31
0.0
  0
LINE
  5
1C9
330
1F
100
AcDbEntity
  8
0
  6
Continuous
 62
     7
370
    15
100
AcDbLine
 10
276.4063114331
 20
448.9709431131
 30
0.0
 11
274.9063158439
 21
448.9709431131
 31
0.0
  0
LINE
  5
1CA
330
1F
100
AcDbEntity
  8
0
  6
Continuous
 62
     7
370
    15
100
AcDbLine
 10
274.9063158439
 20
448.9709431131
 30
0.0
 11
274.9063158439
 21
450.4709387023
 31
0.0
  0
LINE
  5
1CB
330
1F
100
AcDbEntity
  8
0
  6
Continuous
 62
     7
370
    15
100
AcDbLine
 10
274.9063158439
 20
450.4709387023
 30
0.0
 11
274.1063172029
 21
450.4709387023
 31
0.0
  0
LINE
  5
1CC
330
1F
100
AcDbEntity
  8
0
  6
Continuous
 62
     7
370
    15
100
AcDbLine
 10
274.1063172029
 20
448.9709431131
 30
0.0
 11
272.6063067124
 21
448.9709431131
 31
0.0
  0
LINE
  5
1CD
330
1F
100
AcDbEntity
  8
0
  6
Continuous
 62
     7
370
    15
100
AcDbLine
 10
272.6063067124
 20
448.9709431131
 30
0.0
 11
272.6063067124
 21
448.1709444721
 31
0.0
  0
LINE
  5
1CE
330
1F
100
AcDbEntity
  8
0
  6
Continuous
 62
     7
370
    15
100
AcDbLine
 10
272.6063067124
 20
448.1709444721
 30
0.0
 11
274.1063172029
 21
448.1709444721
 31
0.0
  0
CIRCLE
  5
1CF
330
1F
100
AcDbEntity
  8
0
  6
Continuous
 62
     7
370
    15
100
AcDbCircle
 10
274.5063099788
 20
448.5709440906
 30
0.0
 40
3.0
  0
LINE
  5
1D0
330
1F
100
AcDbEntity
  8
0
  6
Continuous
 62
     7
370
    15
100
AcDbLine
 10
274.1063172029
 20
450.4709387023
 30
0.0
 11
274.1063172029
 21
448.9709431131
 31
0.0
  0
LINE
  5
1D1
330
1F
100
AcDbEntity
  8
0
  6
Continuous
 62
     7
370
    15
100
AcDbLine
 10
274.1063172029
 20
448.1709444721
 30
0.0
 11
274.1063172029
 21
446.6709488828
 31
0.0
  0
LINE
  5
1D2
330
1F
100
AcDbEntity
  8
0
  6
Continuous
 62
     7
370
    15
100
AcDbLine
 10
274.1063172029
 20
458.1709498365
 30
0.0
 11
274.1063172029
 21
456.6709393461
 31
0.0
  0
LINE
  5
1D3
330
1F
100
AcDbEntity
  8
0
  6
Continuous
 62
     7
370
    15
100
AcDbLine
 10
274.1063172029
 20
456.6709393461
 30
0.0
 11
274.9063158439
 21
456.6709393461
 31
0.0
  0
LINE
  5
1D4
330
1F
100
AcDbEntity
  8
0
  6
Continuous
 62
     7
370
    15
100
AcDbLine
 10
274.9063158439
 20
456.6709393461
 30
0.0
 11
274.9063158439
 21
458.1709498365
 31
0.0
  0
LINE
  5
1D5
330
1F
100
AcDbEntity
  8
0
  6
Continuous
 62
     7
370
    15
100
AcDbLine
 10
274.9063158439
 20
458.1709498365
 30
0.0
 11
276.4063114331
 21
458.1709498365
 31
0.0
  0
LINE
  5
1D6
330
1F
100
AcDbEntity
  8
0
  6
Continuous
 62
     7
370
    15
100
AcDbLine
 10
274.9063158439
 20
458.9709484775
 30
0.0
 11
274.9063158439
 21
460.4709440667
 31
0.0
  0
LINE
  5
1D7
330
1F
100
AcDbEntity
  8
0
  6
Continuous
 62
     7
370
    15
100
AcDbLine
 10
274.9063158439
 20
460.4709440667
 30
0.0
 11
274.1063172029
 21
460.4709440667
 31
0.0
  0
LINE
  5
1D8
330
1F
100
AcDbEntity
  8
0
  6
Continuous
 62
     7
370
    15
100
AcDbLine
 10
274.1063172029
 20
460.4709440667
 30
0.0
 11
274.1063172029
 21
458.9709484775
 31
0.0
  0
LINE
  5
1D9
330
1F
100
AcDbEntity
  8
0
  6
Continuous
 62
     7
370
    15
100
AcDbLine
 10
274.1063172029
 20
458.9709484775
 30
0.0
 11
272.6063067124
 21
458.9709484775
 31
0.0
  0
LINE
  5
1DA
330
1F
100
AcDbEntity
  8
0
  6
Continuous
 62
     7
370
    15
100
AcDbLine
 10
272.6063067124
 20
458.9709484775
 30
0.0
 11
272.6063067124
 21
458.1709498365
 31
0.0
  0
LINE
  5
1DB
330
1F
100
AcDbEntity
  8
0
  6
Continuous
 62
     7
370
    15
100
AcDbLine
 10
272.6063067124
 20
458.1709498365
 30
0.0
 11
274.1063172029
 21
458.1709498365
 31
0.0
  0
LINE
  5
1DC
330
1F
100
AcDbEntity
  8
0
  6
Continuous
 62
     7
370
    15
100
AcDbLine
 10
276.4063114331
 20
458.9709484775
 30
0.0
 11
274.9063158439
 21
458.9709484775
 31
0.0
  0
LINE
  5
1DD
330
1F
100
AcDbEntity
  8
0
  6
Continuous
 62
     7
370
    15
100
AcDbLine
 10
276.4063114331
 20
458.1709498365
 30
0.0
 11
276.4063114331
 21
458.9709484775
 31
0.0
  0
CIRCLE
  5
1DE
330
1F
100
AcDbEntity
  8
0
  6
Continuous
 62
     7
370
    15
100
AcDbCircle
 10
274.5063099788
 20
458.5709440906
 30
0.0
 40
3.0
  0
LINE
  5
1DF
330
1F
100
AcDbEntity
  8
0
  6
Continuous
 62
     7
370
    15
100
AcDbLine
 10
274.1063172029
 20
76.6709441144
 30
0.0
 11
274.9063158439
 21
76.6709441144
 31
0.0
  0
LINE
  5
1E0
330
1F
100
AcDbEntity
  8
0
  6
Continuous
 62
     7
370
    15
100
AcDbLine
 10
274.9063158439
 20
76.6709441144
 30
0.0
 11
274.9063158439
 21
78.1709397037
 31
0.0
  0
LINE
  5
1E1
330
1F
100
AcDbEntity
  8
0
  6
Continuous
 62
     7
370
    15
100
AcDbLine
 10
274.9063158439
 20
78.1709397037
 30
0.0
 11
276.4063114331
 21
78.1709397037
 31
0.0
  0
LINE
  5
1E2
330
1F
100
AcDbEntity
  8
0
  6
Continuous
 62
     7
370
    15
100
AcDbLine
 10
276.4063114331
 20
78.1709397037
 30
0.0
 11
276.4063114331
 21
78.9709383447
 31
0.0
  0
LINE
  5
1E3
330
1F
100
AcDbEntity
  8
0
  6
Continuous
 62
     7
370
    15
100
AcDbLine
 10
276.4063114331
 20
78.9709383447
 30
0.0
 11
274.9063158439
 21
78.9709383447
 31
0.0
  0
LINE
  5
1E4
330
1F
100
AcDbEntity
  8
0
  6
Continuous
 62
     7
370
    15
100
AcDbLine
 10
274.9063158439
 20
78.9709383447
 30
0.0
 11
274.9063158439
 21
80.4709488351
 31
0.0
  0
LINE
  5
1E5
330
1F
100
AcDbEntity
  8
0
  6
Continuous
 62
     7
370
    15
100
AcDbLine
 10
274.1063172029
 20
80.4709488351
 30
0.0
 11
274.1063172029
 21
78.9709383447
 31
0.0
  0
LINE
  5
1E6
330
1F
100
AcDbEntity
  8
0
  6
Continuous
 62
     7
370
    15
100
AcDbLine
 10
274.9063158439
 20
80.4709488351
 30
0.0
 11
274.1063172029
 21
80.4709488351
 31
0.0
  0
CIRCLE
  5
1E7
330
1F
100
AcDbEntity
  8
0
  6
Continuous
 62
     7
370
    15
100
AcDbCircle
 10
274.5063099788
 20
78.5709440906
 30
0.0
 40
3.0
  0
LINE
  5
1E8
330
1F
100
AcDbEntity
  8
0
  6
Continuous
 62
     7
370
    15
100
AcDbLine
 10
272.6063067124
 20
78.1709397037
 30
0.0
 11
274.1063172029
 21
78.1709397037
 31
0.0
  0
LINE
  5
1E9
330
1F
100
AcDbEntity
  8
0
  6
Continuous
 62
     7
370
    15
100
AcDbLine
 10
274.1063172029
 20
78.1709397037
 30
0.0
 11
274.1063172029
 21
76.6709441144
 31
0.0
  0
LINE
  5
1EA
330
1F
100
AcDbEntity
  8
0
  6
Continuous
 62
     7
370
    15
100
AcDbLine
 10
274.1063172029
 20
78.9709383447
 30
0.0
 11
272.6063067124
 21
78.9709383447
 31
0.0
  0
LINE
  5
1EB
330
1F
100
AcDbEntity
  8
0
  6
Continuous
 62
     7
370
    15
100
AcDbLine
 10
272.6063067124
 20
78.9709383447
 30
0.0
 11
272.6063067124
 21
78.1709397037
 31
0.0
  0
LINE
  5
1EC
330
1F
100
AcDbEntity
  8
0
  6
Continuous
 62
     7
370
    15
100
AcDbLine
 10
272.6063067124
 20
88.1709450681
 30
0.0
 11
274.1063172029
 21
88.1709450681
 31
0.0
  0
LINE
  5
1ED
330
1F
100
AcDbEntity
  8
0
  6
Continuous
 62
     7
370
    15
100
AcDbLine
 10
274.9063158439
 20
88.1709450681
 30
0.0
 11
276.4063114331
 21
88.1709450681
 31
0.0
  0
LINE
  5
1EE
330
1F
100
AcDbEntity
  8
0
  6
Continuous
 62
     7
370
    15
100
AcDbLine
 10
274.9063158439
 20
88.9709437091
 30
0.0
 11
274.9063158439
 21
90.4709392984
 31
0.0
  0
LINE
  5
1EF
330
1F
100
AcDbEntity
  8
0
  6
Continuous
 62
     7
370
    15
100
AcDbLine
 10
274.1063172029
 20
90.4709392984
 30
0.0
 11
274.1063172029
 21
88.9709437091
 31
0.0
  0
LINE
  5
1F0
330
1F
100
AcDbEntity
  8
0
  6
Continuous
 62
     7
370
    15
100
AcDbLine
 10
276.4063114331
 20
88.1709450681
 30
0.0
 11
276.4063114331
 21
88.9709437091
 31
0.0
  0
CIRCLE
  5
1F1
330
1F
100
AcDbEntity
  8
0
  6
Continuous
 62
     7
370
    15
100
AcDbCircle
 10
274.5063099788
 20
88.5709440906
 30
0.0
 40
3.0
  0
LINE
  5
1F2
330
1F
100
AcDbEntity
  8
0
  6
Continuous
 62
     7
370
    15
100
AcDbLine
 10
274.9063158439
 20
86.6709494788
 30
0.0
 11
274.9063158439
 21
88.1709450681
 31
0.0
  0
LINE
  5
1F3
330
1F
100
AcDbEntity
  8
0
  6
Continuous
 62
     7
370
    15
100
AcDbLine
 10
274.9063158439
 20
90.4709392984
 30
0.0
 11
274.1063172029
 21
90.4709392984
 31
0.0
  0
LINE
  5
1F4
330
1F
100
AcDbEntity
  8
0
  6
Continuous
 62
     7
370
    15
100
AcDbLine
 10
274.1063172029
 20
88.9709437091
 30
0.0
 11
272.6063067124
 21
88.9709437091
 31
0.0
  0
LINE
  5
1F5
330
1F
100
AcDbEntity
  8
0
  6
Continuous
 62
     7
370
    15
100
AcDbLine
 10
276.4063114331
 20
88.9709437091
 30
0.0
 11
274.9063158439
 21
88.9709437091
 31
0.0
  0
LINE
  5
1F6
330
1F
100
AcDbEntity
  8
0
  6
Continuous
 62
     7
370
    15
100
AcDbLine
 10
272.6063067124
 20
88.9709437091
 30
0.0
 11
272.6063067124
 21
88.1709450681
 31
0.0
  0
LINE
  5
1F7
330
1F
100
AcDbEntity
  8
0
  6
Continuous
 62
     7
370
    15
100
AcDbLine
 10
274.1063172029
 20
88.1709450681
 30
0.0
 11
274.1063172029
 21
86.6709494788
 31
0.0
  0
LINE
  5
1F8
330
1F
100
AcDbEntity
  8
0
  6
Continuous
 62
     7
370
    15
100
AcDbLine
 10
274.1063172029
 20
86.6709494788
 30
0.0
 11
274.9063158439
 21
86.6709494788
 31
0.0
  0
LINE
  5
1F9
330
1F
100
AcDbEntity
  8
0
  6
Continuous
 62
     7
370
    15
100
AcDbLine
 10
273.4885448621
 20
442.4690598447
 30
0.0
 11
268.5063118146
 21
447.0709407527
 31
0.0
  0
LINE
  5
1FA
330
1F
100
AcDbEntity
  8
0
  6
Continuous
 62
     7
370
    15
100
AcDbLine
 10
268.5063118146
 20
460.0709372957
 30
0.0
 11
273.4885448621
 21
464.6728331048
 31
0.0
  0
ARC
  5
1FB
330
1F
100
AcDbEntity
  8
0
  6
Continuous
 62
     7
370
    15
100
AcDbCircle
 10
274.5063099788
 20
463.5709440906
 30
0.0
 40
1.49999999999991
100
AcDbArc
 50
43.6028189726
 51
132.7273953127
  0
ARC
  5
1FC
330
1F
100
AcDbEntity
  8
0
  6
Continuous
 62
     7
370
    15
100
AcDbCircle
 10
264.0063099788
 20
453.5709440906
 30
0.0
 40
16.00000000000013
100
AcDbArc
 50
316.3971810272
 51
43.6028189726
  0
ARC
  5
1FD
330
1F
100
AcDbEntity
  8
0
  6
Continuous
 62
     7
370
    15
100
AcDbCircle
 10
274.5063099787
 20
443.5709440906
 30
0.0
 40
1.500000000000178
100
AcDbArc
 50
227.2726046868
 51
316.3971810272
  0
LINE
  5
1FE
330
1F
100
AcDbEntity
  8
0
  6
Continuous
 62
     7
370
    15
100
AcDbLine
 10
268.3052951501
 20
460.0709372957
 30
0.0
 11
268.5063118146
 21
460.0709372957
 31
0.0
  0
LINE
  5
1FF
330
1F
100
AcDbEntity
  8
0
  6
Continuous
 62
     7
370
    15
100
AcDbLine
 10
268.5063118146
 20
447.0709407527
 30
0.0
 11
268.3052951501
 21
447.0709407527
 31
0.0
  0
ARC
  5
200
330
1F
100
AcDbEntity
  8
0
  6
Continuous
 62
     7
370
    15
100
AcDbCircle
 10
274.5063099788
 20
93.5709440906
 30
0.0
 40
1.499999999999978
100
AcDbArc
 50
43.6028189726
 51
132.7273953127
  0
ARC
  5
201
330
1F
100
AcDbEntity
  8
0
  6
Continuous
 62
     7
370
    15
100
AcDbCircle
 10
264.0063099788
 20
83.5709440906
 30
0.0
 40
16.00000000000017
100
AcDbArc
 50
316.3971810272
 51
43.6028189726
  0
ARC
  5
202
330
1F
100
AcDbEntity
  8
0
  6
Continuous
 62
     7
370
    15
100
AcDbCircle
 10
274.5063099787
 20
73.5709440906
 30
0.0
 40
1.499999999999781
100
AcDbArc
 50
227.2726046868
 51
316.3971810272
  0
LINE
  5
203
330
1F
100
AcDbEntity
  8
0
  6
Continuous
 62
     7
370
    15
100
AcDbLine
 10
268.5063118146
 20
90.0709474284
 30
0.0
 11
273.4885448621
 21
94.6728283365
 31
0.0
  0
LINE
  5
204
330
1F
100
AcDbEntity
  8
0
  6
Continuous
 62
     7
370
    15
100
AcDbLine
 10
273.4885448621
 20
72.4690550763
 30
0.0
 11
268.5063118146
 21
77.0709508855
 31
0.0
  0
LINE
  5
205
330
1F
100
AcDbEntity
  8
0
  6
Continuous
 62
     7
370
    15
100
AcDbLine
 10
268.3052951501
 20
90.0709474284
 30
0.0
 11
268.5063118146
 21
90.0709474284
 31
0.0
  0
LINE
  5
206
330
1F
100
AcDbEntity
  8
0
  6
Continuous
 62
     7
370
    15
100
AcDbLine
 10
268.5063118146
 20
77.0709508855
 30
0.0
 11
268.3052951501
 21
77.0709508855
 31
0.0
  0
LINE
  5
207
330
1F
100
AcDbEntity
  8
0
  6
Continuous
 62
     7
370
    15
100
AcDbLine
 10
271.5063029931
 20
503.5709434945
 30
0.0
 11
276.5063131259
 21
503.5709434945
 31
0.0
  0
LINE
  5
208
330
1F
100
AcDbEntity
  8
0
  6
Continuous
 62
     7
370
    15
100
AcDbLine
 10
271.5063029931
 20
503.5709434945
 30
0.0
 11
271.5063029931
 21
518.5709440906
 31
0.0
  0
LINE
  5
209
330
1F
100
AcDbEntity
  8
0
  6
Continuous
 62
     7
370
    15
100
AcDbLine
 10
271.5063029931
 20
518.5709440906
 30
0.0
 11
276.5063131259
 21
518.5709440906
 31
0.0
  0
LINE
  5
20A
330
1F
100
AcDbEntity
  8
0
  6
Continuous
 62
     7
370
    15
100
AcDbLine
 10
276.5063131259
 20
503.5709434945
 30
0.0
 11
276.5063131259
 21
518.5709440906
 31
0.0
  0
LINE
  5
20B
330
1F
100
AcDbEntity
  8
0
  6
Continuous
 62
     7
370
    15
100
AcDbLine
 10
276.5063131259
 20
503.5709434945
 30
0.0
 11
291.5063137219
 21
503.5709434945
 31
0.0
  0
ARC
  5
20C
330
1F
100
AcDbEntity
  8
0
  6
Continuous
 62
     7
370
    15
100
AcDbCircle
 10
276.5063099788
 20
503.5709440906
 30
0.0
 40
15.0
100
AcDbArc
 50
0.0
 51
90.0
  0
LINE
  5
20D
330
1F
100
AcDbEntity
  8
0
  6
Continuous
 62
     7
370
    15
100
AcDbLine
 10
276.5063131259
 20
463.5584348638
 30
0.0
 11
276.5063131259
 21
503.5709434945
 31
0.0
  0
LINE
  5
20E
330
1F
100
AcDbEntity
  8
0
  6
Continuous
 62
     7
370
    15
100
AcDbLine
 10
271.5063029931
 20
462.8419274289
 30
0.0
 11
271.5063029931
 21
503.5709434945
 31
0.0
  0
LINE
  5
20F
330
1F
100
AcDbEntity
  8
0
  6
Continuous
 62
     7
370
    15
100
AcDbLine
 10
291.5063137219
 20
33.5709446866
 30
0.0
 11
291.5063137219
 21
503.5709434945
 31
0.0
  0
LINE
  5
210
330
1F
100
AcDbEntity
  8
0
  6
Continuous
 62
     7
370
    15
100
AcDbLine
 10
276.5063131259
 20
33.5709446866
 30
0.0
 11
291.5063137219
 21
33.5709446866
 31
0.0
  0
LINE
  5
211
330
1F
100
AcDbEntity
  8
0
  6
Continuous
 62
     7
370
    15
100
AcDbLine
 10
276.5063131259
 20
33.5709446866
 30
0.0
 11
276.5063131259
 21
73.5834533174
 31
0.0
  0
LINE
  5
212
330
1F
100
AcDbEntity
  8
0
  6
Continuous
 62
     7
370
    15
100
AcDbLine
 10
276.5063131259
 20
93.5584300954
 30
0.0
 11
276.5063131259
 21
443.5834580858
 31
0.0
  0
LINE
  5
213
330
1F
100
AcDbEntity
  8
0
  6
Continuous
 62
     7
370
    15
100
AcDbLine
 10
271.5063029931
 20
92.8419226606
 30
0.0
 11
271.5063029931
 21
444.2999655206
 31
0.0
  0
LINE
  5
214
330
1F
100
AcDbEntity
  8
0
  6
Continuous
 62
     7
370
    15
100
AcDbLine
 10
271.5063029931
 20
33.5709446866
 30
0.0
 11
276.5063131259
 21
33.5709446866
 31
0.0
  0
LINE
  5
215
330
1F
100
AcDbEntity
  8
0
  6
Continuous
 62
     7
370
    15
100
AcDbLine
 10
271.5063029931
 20
33.5709446866
 30
0.0
 11
271.5063029931
 21
74.2999607522
 31
0.0
  0
LINE
  5
216
330
1F
100
AcDbEntity
  8
0
  6
Continuous
 62
     7
370
    15
100
AcDbLine
 10
276.5063131259
 20
33.5709446866
 30
0.0
 11
276.5063131259
 21
18.5709440906
 31
0.0
  0
ARC
  5
217
330
1F
100
AcDbEntity
  8
0
  6
Continuous
 62
     7
370
    15
100
AcDbCircle
 10
276.5063099788
 20
33.5709440906
 30
0.0
 40
15.0
100
AcDbArc
 50
270.0
 51
0.0
  0
LINE
  5
218
330
1F
100
AcDbEntity
  8
0
  6
Continuous
 62
     7
370
    15
100
AcDbLine
 10
271.5063029931
 20
18.5709440906
 30
0.0
 11
276.5063131259
 21
18.5709440906
 31
0.0
  0
LINE
  5
219
330
1F
100
AcDbEntity
  8
0
  6
Continuous
 62
     7
370
    15
100
AcDbLine
 10
271.5063029931
 20
33.5709446866
 30
0.0
 11
271.5063029931
 21
18.5709440906
 31
0.0
  0
LINE
  5
21A
330
1F
100
AcDbEntity
  8
0
  6
Continuous
 62
     7
370
    15
100
AcDbLine
 10
254.7172391818
 20
78.8709366519
 30
0.0
 11
254.7172391818
 21
87.4709481199
 31
0.0
  0
LINE
  5
21B
330
1F
100
AcDbEntity
  8
0
  6
Continuous
 62
     7
370
    15
100
AcDbLine
 10
254.7172391818
 20
78.8709366519
 30
0.0
 11
249.2029452727
 21
78.8709366519
 31
0.0
  0
LINE
  5
21C
330
1F
100
AcDbEntity
  8
0
  6
Continuous
 62
     7
370
    15
100
AcDbLine
 10
249.2029452727
 20
78.8709366519
 30
0.0
 11
249.2029452727
 21
87.4709481199
 31
0.0
  0
LINE
  5
21D
330
1F
100
AcDbEntity
  8
0
  6
Continuous
 62
     7
370
    15
100
AcDbLine
 10
254.7172391818
 20
87.4709481199
 30
0.0
 11
249.2029452727
 21
87.4709481199
 31
0.0
  0
LINE
  5
21E
330
1F
100
AcDbEntity
  8
0
  6
Continuous
 62
     7
370
    15
100
AcDbLine
 10
248.0886811421
 20
90.7709443767
 30
0.0
 11
223.2765788243
 21
90.7709443767
 31
0.0
  0
LINE
  5
21F
330
1F
100
AcDbEntity
  8
0
  6
Continuous
 62
     7
370
    15
100
AcDbLine
 10
248.0886811421
 20
87.4709481199
 30
0.0
 11
248.0886811421
 21
90.7709443767
 31
0.0
  0
LINE
  5
220
330
1F
100
AcDbEntity
  8
0
  6
Continuous
 62
     7
370
    15
100
AcDbLine
 10
248.0886811421
 20
76.3709390361
 30
0.0
 11
248.0886811421
 21
78.8709366519
 31
0.0
  0
LINE
  5
221
330
1F
100
AcDbEntity
  8
0
  6
Continuous
 62
     7
370
    15
100
AcDbLine
 10
223.2765788243
 20
76.3709390361
 30
0.0
 11
248.0886811421
 21
76.3709390361
 31
0.0
  0
LINE
  5
222
330
1F
100
AcDbEntity
  8
0
  6
Continuous
 62
     7
370
    15
100
AcDbLine
 10
223.2765788243
 20
76.3709390361
 30
0.0
 11
223.2765788243
 21
90.7709443767
 31
0.0
  0
LINE
  5
223
330
1F
100
AcDbEntity
  8
0
  6
Continuous
 62
     7
370
    15
100
AcDbLine
 10
248.0886811421
 20
78.8709366519
 30
0.0
 11
249.2029452727
 21
78.8709366519
 31
0.0
  0
LINE
  5
224
330
1F
100
AcDbEntity
  8
0
  6
Continuous
 62
     7
370
    15
100
AcDbLine
 10
248.0886811421
 20
87.4709481199
 30
0.0
 11
249.2029452727
 21
87.4709481199
 31
0.0
  0
LINE
  5
225
330
1F
100
AcDbEntity
  8
0
  6
Continuous
 62
     7
370
    15
100
AcDbLine
 10
250.1085484431
 20
91.568290611
 30
0.0
 11
248.2163095878
 21
91.568290611
 31
0.0
  0
ARC
  5
226
330
1F
100
AcDbEntity
  8
0
  6
Continuous
 62
     7
370
    15
100
AcDbCircle
 10
249.5629675883
 20
90.9438480982
 30
0.0
 40
1.484390858944876
100
AcDbArc
 50
155.1229432741
 51
186.6890693855
  0
ARC
  5
227
330
1F
100
AcDbEntity
  8
0
  6
Continuous
 62
     7
370
    15
100
AcDbCircle
 10
224.5325016213
 20
90.9649091596
 30
0.0
 40
1.270812499494413
100
AcDbArc
 50
151.5177215739
 51
188.7794004158
  0
LINE
  5
228
330
1F
100
AcDbEntity
  8
0
  6
Continuous
 62
     7
370
    15
100
AcDbLine
 10
223.4155023501
 20
91.5709430177
 30
0.0
 11
250.7813060687
 21
91.5709430177
 31
0.0
  0
LINE
  5
229
330
1F
100
AcDbEntity
  8
0
  6
Continuous
 62
     7
370
    15
100
AcDbLine
 10
250.7813060687
 20
91.5709430177
 30
0.0
 11
250.1085484431
 21
91.568290611
 31
0.0
  0
LINE
  5
22A
330
1F
100
AcDbEntity
  8
0
  6
Continuous
 62
     7
370
    15
100
AcDbLine
 10
248.2163095878
 20
75.5735928018
 30
0.0
 11
250.1085484431
 21
75.5735928018
 31
0.0
  0
LINE
  5
22B
330
1F
100
AcDbEntity
  8
0
  6
Continuous
 62
     7
370
    15
100
AcDbLine
 10
250.1085484431
 20
75.5735928018
 30
0.0
 11
250.7813060687
 21
75.5709403951
 31
0.0
  0
LINE
  5
22C
330
1F
100
AcDbEntity
  8
0
  6
Continuous
 62
     7
370
    15
100
AcDbLine
 10
250.7813060687
 20
75.5709403951
 30
0.0
 11
223.4155023501
 21
75.5709403951
 31
0.0
  0
ARC
  5
22D
330
1F
100
AcDbEntity
  8
0
  6
Continuous
 62
     7
370
    15
100
AcDbCircle
 10
224.5325016213
 20
76.1769742532
 30
0.0
 40
1.270812499494409
100
AcDbArc
 50
171.2205995842
 51
208.4822784261
  0
ARC
  5
22E
330
1F
100
AcDbEntity
  8
0
  6
Continuous
 62
     7
370
    15
100
AcDbCircle
 10
249.5629961307
 20
76.1980398833
 30
0.0
 40
1.48441867497081
100
AcDbArc
 50
173.3112340828
 51
204.8767532576
  0
LINE
  5
22F
330
1F
100
AcDbEntity
  8
0
  6
Continuous
 62
     7
370
    15
100
AcDbLine
 10
248.2163095878
 20
75.5735928018
 30
0.0
 11
248.2163095878
 21
76.3709390361
 31
0.0
  0
LINE
  5
230
330
1F
100
AcDbEntity
  8
0
  6
Continuous
 62
     7
370
    15
100
AcDbLine
 10
248.2276046679
 20
78.8709366519
 30
0.0
 11
248.2276046679
 21
76.3709390361
 31
0.0
  0
LINE
  5
231
330
1F
100
AcDbEntity
  8
0
  6
Continuous
 62
     7
370
    15
100
AcDbLine
 10
248.2163095878
 20
90.7709443767
 30
0.0
 11
248.2163095878
 21
91.568290611
 31
0.0
  0
LINE
  5
232
330
1F
100
AcDbEntity
  8
0
  6
Continuous
 62
     7
370
    15
100
AcDbLine
 10
248.2276046679
 20
90.7709443767
 30
0.0
 11
248.2276046679
 21
87.4709481199
 31
0.0
  0
LINE
  5
233
330
1F
100
AcDbEntity
  8
0
  6
Continuous
 62
     7
370
    15
100
AcDbLine
 10
250.1085484431
 20
90.7709443767
 30
0.0
 11
250.1085484431
 21
91.568290611
 31
0.0
  0
LINE
  5
234
330
1F
100
AcDbEntity
  8
0
  6
Continuous
 62
     7
370
    15
100
AcDbLine
 10
254.2163068459
 20
91.5709430177
 30
0.0
 11
250.7813060687
 21
91.5709430177
 31
0.0
  0
LINE
  5
235
330
1F
100
AcDbEntity
  8
0
  6
Continuous
 62
     7
370
    15
100
AcDbLine
 10
254.2163068459
 20
90.7709443767
 30
0.0
 11
250.1085484431
 21
90.7709443767
 31
0.0
  0
LINE
  5
236
330
1F
100
AcDbEntity
  8
0
  6
Continuous
 62
     7
370
    15
100
AcDbLine
 10
254.2163068459
 20
75.5709403951
 30
0.0
 11
250.7813060687
 21
75.5709403951
 31
0.0
  0
LINE
  5
237
330
1F
100
AcDbEntity
  8
0
  6
Continuous
 62
     7
370
    15
100
AcDbLine
 10
250.1085484431
 20
75.5735928018
 30
0.0
 11
250.1085484431
 21
76.3709390361
 31
0.0
  0
LINE
  5
238
330
1F
100
AcDbEntity
  8
0
  6
Continuous
 62
     7
370
    15
100
AcDbLine
 10
254.2163068459
 20
76.3709390361
 30
0.0
 11
250.1085484431
 21
76.3709390361
 31
0.0
  0
LINE
  5
239
330
1F
100
AcDbEntity
  8
0
  6
Continuous
 62
     7
370
    15
100
AcDbLine
 10
248.2163095878
 20
90.7709443767
 30
0.0
 11
250.1085484431
 21
90.7709443767
 31
0.0
  0
LINE
  5
23A
330
1F
100
AcDbEntity
  8
0
  6
Continuous
 62
     7
370
    15
100
AcDbLine
 10
248.2163095878
 20
76.3709390361
 30
0.0
 11
250.1085484431
 21
76.3709390361
 31
0.0
  0
LINE
  5
23B
330
1F
100
AcDbEntity
  8
0
  6
Continuous
 62
     7
370
    15
100
AcDbLine
 10
249.2863172696
 20
91.870948096
 30
0.0
 11
253.6863172458
 21
91.870948096
 31
0.0
  0
LINE
  5
23C
330
1F
100
AcDbEntity
  8
0
  6
Continuous
 62
     7
370
    15
100
AcDbLine
 10
249.3863040612
 20
75.1709485252
 30
0.0
 11
253.586315553
 21
75.1709485252
 31
0.0
  0
LINE
  5
23D
330
1F
100
AcDbEntity
  8
0
  6
Continuous
 62
     7
370
    15
100
AcDbLine
 10
249.3863040612
 20
74.7709417541
 30
0.0
 11
253.586315553
 21
74.7709417541
 31
0.0
  0
ARC
  5
23E
330
1F
100
AcDbEntity
  8
0
  6
Continuous
 62
     7
370
    15
100
AcDbCircle
 10
231.6822232643
 20
83.5709417064
 30
0.0
 40
16.90401408232907
100
AcDbArc
 50
154.7901718738
 51
205.2098281262
  0
SPLINE
  5
23F
330
1F
100
AcDbEntity
  8
0
  6
Continuous
 62
     7
370
    15
100
AcDbSpline
210
0.0
220
0.0
230
1.0
 70
     8
 71
     3
 72
    12
 73
     8
 74
     0
 42
0.00000001
 43
0.00000001
 40
0.0
 40
0.0
 40
0.0
 40
0.0
 40
0.1818720044743273
 40
0.3633445717081783
 40
0.5550834080130418
 40
0.7712674782110184
 40
1.0
 40
1.0
 40
1.0
 40
1.0
 10
216.5206307576152
 20
75.57094039509977
 30
0.0
 10
216.544487924861
 20
75.57826419089791
 30
0.0
 10
216.5921498629377
 20
75.5928956975733
 30
0.0
 10
216.6068972391333
 20
75.7048824741887
 30
0.0
 10
216.5796640338656
 20
75.87428336278454
 30
0.0
 10
216.5079880958486
 20
76.10268908210946
 30
0.0
 10
216.4289054104391
 20
76.27985676910804
 30
0.0
 10
216.388248841569
 20
76.37093903611387
 30
0.0
  0
LINE
  5
240
330
1F
100
AcDbEntity
  8
0
  6
Continuous
 62
     7
370
    15
100
AcDbLine
 10
216.1362702058
 20
76.325445791
 30
0.0
 11
216.4907092259
 21
75.5709403951
 31
0.0
  0
ARC
  5
241
330
1F
100
AcDbEntity
  8
0
  6
Continuous
 62
     7
370
    15
100
AcDbCircle
 10
231.4068058546
 20
83.5709417064
 30
0.0
 40
16.90226227646349
100
AcDbArc
 50
154.6168036234
 51
205.3831963766
  0
LINE
  5
242
330
1F
100
AcDbEntity
  8
0
  6
Continuous
 62
     7
370
    15
100
AcDbLine
 10
216.4907092259
 20
91.5709430177
 30
0.0
 11
216.1362702058
 21
90.8164376218
 31
0.0
  0
SPLINE
  5
243
330
1F
100
AcDbEntity
  8
0
  6
Continuous
 62
     7
370
    15
100
AcDbSpline
210
0.0
220
0.0
230
1.0
 70
     8
 71
     3
 72
    12
 73
     8
 74
     0
 42
0.00000001
 43
0.00000001
 40
0.0
 40
0.0
 40
0.0
 40
0.0
 40
0.2510252402609854
 40
0.5023957643688018
 40
0.7402770716234871
 40
0.9473075824591383
 40
1.0
 40
1.0
 40
1.0
 40
1.0
 10
216.388248841569
 20
90.77094437669004
 30
0.0
 10
216.4325666191437
 20
90.87082895818781
 30
0.0
 10
216.521263133154
 20
91.07073551187963
 30
0.0
 10
216.5962553361331
 20
91.32946463685698
 30
0.0
 10
216.6077613010338
 20
91.50669735204566
 30
0.0
 10
216.5661130115926
 20
91.56715800125396
 30
0.0
 10
216.5283018593987
 20
91.57030463143475
 30
0.0
 10
216.5206307576152
 20
91.57094301770414
 30
0.0
  0
LINE
  5
244
330
1F
100
AcDbEntity
  8
0
  6
Continuous
 62
     7
370
    15
100
AcDbLine
 10
216.5206307576
 20
91.5709430177
 30
0.0
 11
216.4907092259
 21
91.5709430177
 31
0.0
  0
LINE
  5
245
330
1F
100
AcDbEntity
  8
0
  6
Continuous
 62
     7
370
    15
100
AcDbLine
 10
216.5206307576
 20
75.5709403951
 30
0.0
 11
216.4907092259
 21
75.5709403951
 31
0.0
  0
LINE
  5
246
330
1F
100
AcDbEntity
  8
0
  6
Continuous
 62
     7
370
    15
100
AcDbLine
 10
218.3777326749
 20
90.7709443767
 30
0.0
 11
216.3882488416
 21
90.7709443767
 31
0.0
  0
LINE
  5
247
330
1F
100
AcDbEntity
  8
0
  6
Continuous
 62
     7
370
    15
100
AcDbLine
 10
218.3777326749
 20
76.3709390361
 30
0.0
 11
218.3777326749
 21
90.7709443767
 31
0.0
  0
LINE
  5
248
330
1F
100
AcDbEntity
  8
0
  6
Continuous
 62
     7
370
    15
100
AcDbLine
 10
216.3882488416
 20
76.3709390361
 30
0.0
 11
218.3777326749
 21
76.3709390361
 31
0.0
  0
LWPOLYLINE
  5
249
330
1F
100
AcDbEntity
  8
0
  6
Continuous
 62
     7
370
    15
100
AcDbPolyline
 90
        9
 70
   128
 43
0.0
 10
218.3777326749
 20
90.7709443767
 10
218.372472565
 20
90.927019139
 10
218.3569008515
 20
91.0770887334
 10
218.331613581
 20
91.2154013116
 10
218.29759423
 20
91.3366222579
 10
218.2561242984
 20
91.4361173112
 10
218.2088131116
 20
91.5100419719
 10
218.1574935124
 20
91.5555650194
 10
218.104117553
 20
91.5709430177
  0
LINE
  5
24A
330
1F
100
AcDbEntity
  8
0
  6
Continuous
 62
     7
370
    15
100
AcDbLine
 10
216.5206307576
 20
91.5709430177
 30
0.0
 11
218.104117553
 21
91.5709430177
 31
0.0
  0
LWPOLYLINE
  5
24B
330
1F
100
AcDbEntity
  8
0
  6
Continuous
 62
     7
370
    15
100
AcDbPolyline
 90
        9
 70
   128
 43
0.0
 10
218.3777326749
 20
76.3709390361
 10
218.372472565
 20
76.2148791749
 10
218.3569008515
 20
76.0647946794
 10
218.331613581
 20
75.9264821012
 10
218.29759423
 20
75.8052611549
 10
218.2561242984
 20
75.7057661016
 10
218.2088131116
 20
75.6318414409
 10
218.1574935124
 20
75.5863183935
 10
218.104117553
 20
75.5709403951
  0
LINE
  5
24C
330
1F
100
AcDbEntity
  8
0
  6
Continuous
 62
     7
370
    15
100
AcDbLine
 10
218.104117553
 20
75.5709403951
 30
0.0
 11
216.5206307576
 21
75.5709403951
 31
0.0
  0
LINE
  5
24D
330
1F
100
AcDbEntity
  8
0
  6
Continuous
 62
     7
370
    15
100
AcDbLine
 10
218.3777326749
 20
76.3709390361
 30
0.0
 11
223.2765788243
 21
76.3709390361
 31
0.0
  0
LINE
  5
24E
330
1F
100
AcDbEntity
  8
0
  6
Continuous
 62
     7
370
    15
100
AcDbLine
 10
223.4155023501
 20
75.5709403951
 30
0.0
 11
218.104117553
 21
75.5709403951
 31
0.0
  0
LINE
  5
24F
330
1F
100
AcDbEntity
  8
0
  6
Continuous
 62
     7
370
    15
100
AcDbLine
 10
223.2765788243
 20
90.7709443767
 30
0.0
 11
218.3777326749
 21
90.7709443767
 31
0.0
  0
LINE
  5
250
330
1F
100
AcDbEntity
  8
0
  6
Continuous
 62
     7
370
    15
100
AcDbLine
 10
218.104117553
 20
91.5709430177
 30
0.0
 11
223.4155023501
 21
91.5709430177
 31
0.0
  0
SPLINE
  5
251
330
1F
100
AcDbEntity
  8
0
  6
Continuous
 62
     7
370
    15
100
AcDbSpline
210
0.0
220
0.0
230
1.0
 70
     8
 71
     3
 72
    16
 73
    12
 74
     0
 42
0.00000001
 43
0.00000001
 40
0.0
 40
0.0
 40
0.0
 40
0.0
 40
0.1207046558348496
 40
0.2414119230668756
 40
0.3621190025512315
 40
0.4828230143796003
 40
0.6035301577114983
 40
0.7242365842041318
 40
0.8449450923082902
 40
0.9656513900487388
 40
1.0
 40
1.0
 40
1.0
 40
1.0
 10
249.6586078808757
 20
70.61856927464689
 30
0.0
 10
249.6780088322926
 20
70.62124504961942
 30
0.0
 10
249.7168111548584
 20
70.6265966574538
 30
0.0
 10
249.7217334370089
 20
70.91754113800187
 30
0.0
 10
249.6845200230735
 20
71.37087578708513
 30
0.0
 10
249.6076185162078
 20
71.93840801390868
 30
0.0
 10
249.5037864453307
 20
72.52672253579843
 30
0.0
 10
249.3876958028797
 20
73.05343625340444
 30
0.0
 10
249.2806854634147
 20
73.41671464986446
 30
0.0
 10
249.2081128773188
 20
73.58718188865302
 30
0.0
 10
249.1885607158566
 20
73.55402282780955
 30
0.0
 10
249.1842294142695
 20
73.54667725156034
 30
0.0
  0
SPLINE
  5
252
330
1F
100
AcDbEntity
  8
0
  6
Continuous
 62
     7
370
    15
100
AcDbSpline
210
0.0
220
0.0
230
1.0
 70
     8
 71
     3
 72
    16
 73
    12
 74
     0
 42
0.00000001
 43
0.00000001
 40
0.0
 40
0.0
 40
0.0
 40
0.0
 40
0.1205802892929417
 40
0.2411631872924392
 40
0.36174589773771
 40
0.4823259359627758
 40
0.6029081784005513
 40
0.7234902365269016
 40
0.8440743741200142
 40
0.964653397711311
 40
1.0
 40
1.0
 40
1.0
 40
1.0
 10
249.8291963742228
 20
96.49459960053647
 30
0.0
 10
249.8485974733832
 20
96.49192378662549
 30
0.0
 10
249.8874000914389
 20
96.48657210091358
 30
0.0
 10
249.8923201573789
 20
96.1956282044573
 30
0.0
 10
249.8551151246523
 20
95.74229084424036
 30
0.0
 10
249.7781821133372
 20
95.17476694447963
 30
0.0
 10
249.6743798883681
 20
94.58643310382833
 30
0.0
 10
249.5582885274964
 20
94.05977524671003
 30
0.0
 10
249.4512527707716
 20
93.69629910494348
 30
0.0
 10
249.3784896257553
 20
93.52576432739676
 30
0.0
 10
249.3588522495237
 20
93.5593418983563
 30
0.0
 10
249.3544006751033
 20
93.56695355962003
 30
0.0
  0
SPLINE
  5
253
330
1F
100
AcDbEntity
  8
0
  6
Continuous
 62
     7
370
    15
100
AcDbSpline
210
0.0
220
0.0
230
1.0
 70
     8
 71
     3
 72
    16
 73
    12
 74
     0
 42
0.00000001
 43
0.00000001
 40
0.0
 40
0.0
 40
0.0
 40
0.0
 40
0.1205151259077762
 40
0.2410328591123244
 40
0.361550404864003
 40
0.4820652798395842
 40
0.6025823578366858
 40
0.7230992516219666
 40
0.8436162982530805
 40
0.9641310447155514
 40
1.0
 40
1.0
 40
1.0
 40
1.0
 10
265.1995802329036
 20
73.23498966286863
 30
0.0
 10
265.2189813301706
 20
73.23766548352559
 30
0.0
 10
265.2577839444397
 20
73.24301718272989
 30
0.0
 10
265.2627040387798
 20
73.53396097799256
 30
0.0
 10
265.2254988981331
 20
73.98729872274338
 30
0.0
 10
265.148566290092
 20
74.55482118558437
 30
0.0
 10
265.0447625599271
 20
75.14316038945421
 30
0.0
 10
264.9286774348359
 20
75.66979542579166
 30
0.0
 10
264.8216209488802
 20
76.03334652594774
 30
0.0
 10
264.748767887855
 20
76.20395550984126
 30
0.0
 10
264.7290773398564
 20
76.17013876366136
 30
0.0
 10
264.7245610163661
 20
76.16238238404478
 30
0.0
  0
SPLINE
  5
254
330
1F
100
AcDbEntity
  8
0
  6
Continuous
 62
     7
370
    15
100
AcDbSpline
210
0.0
220
0.0
230
1.0
 70
     8
 71
     3
 72
    16
 73
    12
 74
     0
 42
0.00000001
 43
0.00000001
 40
0.0
 40
0.0
 40
0.0
 40
0.0
 40
0.1205177365614203
 40
0.2410308968632427
 40
0.3615480095095758
 40
0.4820662871749796
 40
0.602583173190867
 40
0.7231002238868999
 40
0.8436139559377118
 40
0.9641311736182451
 40
1.0
 40
1.0
 40
1.0
 40
1.0
 10
265.3701687262508
 20
93.87817921231473
 30
0.0
 10
265.3895698411263
 20
93.87550372355794
 30
0.0
 10
265.4283713341846
 20
93.87015284763712
 30
0.0
 10
265.433292613201
 20
93.57922073546577
 30
0.0
 10
265.3960863844619
 20
93.12587819480672
 30
0.0
 10
265.319154831078
 20
92.5583546332539
 30
0.0
 10
265.2153572425972
 20
91.9700063021724
 30
0.0
 10
265.0992425274724
 20
91.4433823802272
 30
0.0
 10
264.9922131227987
 20
91.079812399138
 30
0.0
 10
264.9193565881319
 20
90.90921356767775
 30
0.0
 10
264.899665803584
 20
90.94303026644393
 30
0.0
 10
264.8951495097133
 20
90.95078649113859
 30
0.0
  0
SPLINE
  5
255
330
1F
100
AcDbEntity
  8
0
  6
Continuous
 62
     7
370
    15
100
AcDbSpline
210
0.0
220
0.0
230
1.0
 70
    24
 71
     3
 72
    16
 73
    12
 74
     0
 42
0.00000001
 43
0.00000001
 40
0.0
 40
0.0
 40
0.0
 40
0.0
 40
0.0611070751413885
 40
0.1864721046263345
 40
0.3118318938474008
 40
0.4371941077081365
 40
0.5625585703108704
 40
0.6879206450485429
 40
0.8132849480526685
 40
0.9386471619134042
 40
1.0
 40
1.0
 40
1.0
 40
1.0
 10
268.2764912054988
 20
76.70471014569483
 30
0.0
 10
268.2822642312396
 20
76.70471014569483
 30
0.0
 10
268.2998809844133
 20
76.70471014569488
 30
0.0
 10
268.0814561378695
 20
76.70471014569478
 30
0.0
 10
267.6687046470437
 20
76.70471014569486
 30
0.0
 10
267.1122446881134
 20
76.70471014569486
 30
0.0
 10
266.5131369918769
 20
76.70471014569488
 30
0.0
 10
265.954433089975
 20
76.70471014569486
 30
0.0
 10
265.5374858625856
 20
76.70471014569483
 30
0.0
 10
265.3144839143219
 20
76.70471014569486
 30
0.0
 10
265.3292993166972
 20
76.70471014569488
 30
0.0
 10
265.3341675208064
 20
76.70471014569486
 30
0.0
  0
SPLINE
  5
256
330
1F
100
AcDbEntity
  8
0
  6
Continuous
 62
     7
370
    15
100
AcDbSpline
210
0.0
220
0.0
230
1.0
 70
    24
 71
     3
 72
    16
 73
    12
 74
     0
 42
0.00000001
 43
0.00000001
 40
0.0
 40
0.0
 40
0.0
 40
0.0
 40
0.0610095156596923
 40
0.1861743956976048
 40
0.3113340438378937
 40
0.4364961127468339
 40
0.5616604268075805
 40
0.6868223568155721
 40
0.8119865115325152
 40
0.9371485804414553
 40
1.0
 40
1.0
 40
1.0
 40
1.0
 10
268.2764912054988
 20
90.26333632062162
 30
0.0
 10
268.2822642250269
 20
90.26333632062163
 30
0.0
 10
268.2998809592422
 20
90.26333632062166
 30
0.0
 10
268.0814563712315
 20
90.26333632062162
 30
0.0
 10
267.6687037920721
 20
90.26333632062163
 30
0.0
 10
267.1122478747438
 20
90.26333632062159
 30
0.0
 10
266.513125100218
 20
90.26333632062159
 30
0.0
 10
265.9544774693085
 20
90.26333632062159
 30
0.0
 10
265.5373202345323
 20
90.26333632062162
 30
0.0
 10
265.3138293190877
 20
90.26333632062162
 30
0.0
 10
265.3290496743209
 20
90.26333632062159
 30
0.0
 10
265.334137718484
 20
90.26333632062162
 30
0.0
  0
SPLINE
  5
257
330
1F
100
AcDbEntity
  8
0
  6
Continuous
 62
     7
370
    15
100
AcDbSpline
210
0.0
220
0.0
230
1.0
 70
     8
 71
     3
 72
    19
 73
    15
 74
     0
 42
0.00000001
 43
0.00000001
 40
0.0
 40
0.0
 40
0.0
 40
0.0
 40
0.0039536601721293
 40
0.1157662517051606
 40
0.2280452910934559
 40
0.3355204119818876
 40
0.4377005098679779
 40
0.5348770937136277
 40
0.6283018334643067
 40
0.7302839624027609
 40
0.8413278046249414
 40
0.9641214204500345
 40
0.993768885657681
 40
1.0
 40
1.0
 40
1.0
 40
1.0
 10
254.6045864031764
 20
89.17094709466184
 30
0.0
 10
254.6049786626696
 20
89.17094005531138
 30
0.0
 10
254.6164643263946
 20
89.1707339376428
 30
0.0
 10
254.6397876193494
 20
89.15566103001571
 30
0.0
 10
254.6832530498158
 20
89.08873638868886
 30
0.0
 10
254.7212335132573
 20
88.98404654809988
 30
0.0
 10
254.74473714905
 20
88.85897652956629
 30
0.0
 10
254.756078647185
 20
88.73054198684984
 30
0.0
 10
254.7566568661503
 20
88.60936926947771
 30
0.0
 10
254.7408905711968
 20
88.50014149646366
 30
0.0
 10
254.700499798719
 20
88.41070800389245
 30
0.0
 10
254.648670345203
 20
88.37566590650941
 30
0.0
 10
254.6139248866805
 20
88.371051350697
 30
0.0
 10
254.6059682502791
 20
88.37096367967337
 30
0.0
 10
254.6045864031764
 20
88.37094845364774
 30
0.0
  0
SPLINE
  5
258
330
1F
100
AcDbEntity
  8
0
  6
Continuous
 62
     7
370
    15
100
AcDbSpline
210
0.0
220
0.0
230
1.0
 70
     8
 71
     3
 72
    30
 73
    26
 74
     0
 42
0.00000001
 43
0.00000001
 40
0.0
 40
0.0
 40
0.0
 40
0.0
 40
0.1247094671210291
 40
0.2494211977845736
 40
0.3741280256643086
 40
0.4367794643574038
 40
0.4681510616177929
 40
0.4838383444393747
 40
0.4916899423063887
 40
0.4956091688949146
 40
0.4975671087553281
 40
0.498546132980753
 40
0.4990370186072248
 40
0.4992824614204608
 40
0.4994155714750697
 40
0.4994762790003092
 40
0.499502901011231
 40
0.4995148067364547
 40
0.4995414287473765
 40
0.5609141858683863
 40
0.6646216534479444
 40
0.7325827763610651
 40
0.8111443143528192
 40
0.9002987635092488
 40
1.0
 40
1.0
 40
1.0
 40
1.0
 10
254.6762907908412
 20
89.23083486149991
 30
0.0
 10
254.6820557832104
 20
89.22904326117373
 30
0.0
 10
254.6935858725865
 20
89.22546002800289
 30
0.0
 10
254.7834220944061
 20
89.20360710819408
 30
0.0
 10
254.8909053924495
 20
89.1779397419609
 30
0.0
 10
254.9764548049727
 20
89.1575249266666
 30
0.0
 10
255.0205517132602
 20
89.14699815638046
 30
0.0
 10
255.0427779810631
 20
89.14165823675374
 30
0.0
 10
255.0539162932293
 20
89.13901457601645
 30
0.0
 10
255.0594826904688
 20
89.13766789151359
 30
0.0
 10
255.0622649537358
 20
89.13700474951494
 30
0.0
 10
255.063658083275
 20
89.13668049067603
 30
0.0
 10
255.064351603889
 20
89.136506139638
 30
0.0
 10
255.0647039216166
 20
89.13641648368986
 30
0.0
 10
255.0648811489199
 20
89.1363747840588
 30
0.0
 10
255.0649766330394
 20
89.13637432959085
 30
0.0
 10
255.0650106421854
 20
89.13634412056054
 30
0.0
 10
255.0650389809173
 20
89.1363489295154
 30
0.0
 10
255.0868176432725
 20
89.12010232570455
 30
0.0
 10
255.1598908056735
 20
89.12394230148779
 30
0.0
 10
255.2477411571931
 20
89.0945880712993
 30
0.0
 10
255.3319116320951
 20
89.07934835511594
 30
0.0
 10
255.3952909198558
 20
89.0659711495449
 30
0.0
 10
255.4458621044929
 20
89.05647362555608
 30
0.0
 10
255.4530784474575
 20
89.05598779655428
 30
0.0
 10
255.4568881199809
 20
89.05573131631101
 30
0.0
  0
ELLIPSE
  5
259
330
1F
100
AcDbEntity
  8
0
  6
Continuous
 62
     7
370
    15
100
AcDbEllipse
 10
255.3334183725
 20
90.3529192693
 30
0.0
 11
0.3906095144045594
 21
-0.08616383961160068
 31
0.0
210
0.0
220
0.0
230
1.0
 40
0.0142285888
 41
0.0
 42
6.283185307179586
  0
SPLINE
  5
25A
330
1F
100
AcDbEntity
  8
0
  6
Continuous
 62
     7
370
    15
100
AcDbSpline
210
0.0
220
0.0
230
1.0
 70
     8
 71
     3
 72
    16
 73
    12
 74
     0
 42
0.00000001
 43
0.00000001
 40
0.0
 40
0.0
 40
0.0
 40
0.0
 40
0.1207042672742141
 40
0.2414114356498681
 40
0.3621184162780058
 40
0.4828252275849405
 40
0.603532272060568
 40
0.7242359231048475
 40
0.8449443323516175
 40
0.9656514181794309
 40
1.0
 40
1.0
 40
1.0
 40
1.0
 10
249.6586078808757
 20
440.6185740430185
 30
0.0
 10
249.6780088172399
 20
440.6212435807686
 30
0.0
 10
249.7168111562656
 20
440.6265827204304
 30
0.0
 10
249.7217336081485
 20
440.9175321577511
 30
0.0
 10
249.6845190431991
 20
441.3708687095895
 30
0.0
 10
249.6076196833162
 20
441.9384085629602
 30
0.0
 10
249.5037879717087
 20
442.5267238419735
 30
0.0
 10
249.3876941927328
 20
443.0534294284232
 30
0.0
 10
249.2806852018649
 20
443.4166998672077
 30
0.0
 10
249.2081130368412
 20
443.5871878825385
 30
0.0
 10
249.1885607245034
 20
443.5540277840309
 30
0.0
 10
249.1842294142695
 20
443.5466820199319
 30
0.0
  0
SPLINE
  5
25B
330
1F
100
AcDbEntity
  8
0
  6
Continuous
 62
     7
370
    15
100
AcDbSpline
210
0.0
220
0.0
230
1.0
 70
     8
 71
     3
 72
    16
 73
    12
 74
     0
 42
0.00000001
 43
0.00000001
 40
0.0
 40
0.0
 40
0.0
 40
0.0
 40
0.1205800347816419
 40
0.2411629676788222
 40
0.3617457130217215
 40
0.4823257861436425
 40
0.6029080634789111
 40
0.7234901565027011
 40
0.8440743289938553
 40
0.9646533874817135
 40
1.0
 40
1.0
 40
1.0
 40
1.0
 10
249.8291963742229
 20
466.4945894677469
 30
0.0
 10
249.8485974735543
 20
466.4919198847335
 30
0.0
 10
249.8874001385186
 20
466.4865806545438
 30
0.0
 10
249.8923201458186
 20
466.195631896193
 30
0.0
 10
249.8551151277497
 20
465.7422959010884
 30
0.0
 10
249.7781821125073
 20
465.1747716355524
 30
0.0
 10
249.6743798885905
 20
464.5864378929157
 30
0.0
 10
249.5582885274368
 20
464.0597800095176
 30
0.0
 10
249.451252770788
 20
463.6963038748549
 30
0.0
 10
249.3784896257544
 20
463.525769095676
 30
0.0
 10
249.3588522495235
 20
463.5593466667108
 30
0.0
 10
249.3544006751033
 20
463.5669583279916
 30
0.0
  0
SPLINE
  5
25C
330
1F
100
AcDbEntity
  8
0
  6
Continuous
 62
     7
370
    15
100
AcDbSpline
210
0.0
220
0.0
230
1.0
 70
     8
 71
     3
 72
    16
 73
    12
 74
     0
 42
0.00000001
 43
0.00000001
 40
0.0
 40
0.0
 40
0.0
 40
0.0
 40
0.1205146127847613
 40
0.2410321221126572
 40
0.3615494439880318
 40
0.4820669888611739
 40
0.6025838429828403
 40
0.7230978405059076
 40
0.8436165887552223
 40
0.9641311113465891
 40
1.0
 40
1.0
 40
1.0
 40
1.0
 10
265.1995802329036
 20
443.2349944312402
 30
0.0
 10
265.2189813154035
 20
443.237664016877
 30
0.0
 10
265.2577839467045
 20
443.2430032523138
 30
0.0
 10
265.2627042064843
 20
443.533951971311
 30
0.0
 10
265.2254979312063
 20
443.9872917443697
 30
0.0
 10
265.1485674084654
 20
444.5548213643756
 30
0.0
 10
265.0447642678787
 20
445.1431630768961
 30
0.0
 10
264.928674527836
 20
445.6697862512608
 30
0.0
 10
264.8216223650205
 20
446.0333535335906
 30
0.0
 10
264.7487678323897
 20
446.2039600693105
 30
0.0
 10
264.7290773295081
 20
446.1701434930576
 30
0.0
 10
264.7245610163661
 20
446.1623871524163
 30
0.0
  0
SPLINE
  5
25D
330
1F
100
AcDbEntity
  8
0
  6
Continuous
 62
     7
370
    15
100
AcDbSpline
210
0.0
220
0.0
230
1.0
 70
     8
 71
     3
 72
    16
 73
    12
 74
     0
 42
0.00000001
 43
0.00000001
 40
0.0
 40
0.0
 40
0.0
 40
0.0
 40
0.1205177888348841
 40
0.2410324214209531
 40
0.3615495863404793
 40
0.4820650225370662
 40
0.6025819608260484
 40
0.7230990637952476
 40
0.843614773654894
 40
0.9641311580604702
 40
1.0
 40
1.0
 40
1.0
 40
1.0
 10
265.3701687262508
 20
463.8781839806863
 30
0.0
 10
265.3895698475341
 20
463.8755097086475
 30
0.0
 10
265.4283715820032
 20
463.8701612346067
 30
0.0
 10
265.4332924703317
 20
463.5792080627598
 30
0.0
 10
265.3960874690526
 20
463.1258724186667
 30
0.0
 10
265.319153363342
 20
462.5583554494424
 30
0.0
 10
265.215357581938
 20
461.9700095868197
 30
0.0
 10
265.0992411886874
 20
461.4433895220088
 30
0.0
 10
264.9922148112587
 20
461.0797953910821
 30
0.0
 10
264.9193563704341
 20
460.9092198266711
 30
0.0
 10
264.8996657837708
 20
460.9430352771946
 30
0.0
 10
264.8951495097133
 20
460.9507912595102
 30
0.0
  0
SPLINE
  5
25E
330
1F
100
AcDbEntity
  8
0
  6
Continuous
 62
     7
370
    15
100
AcDbSpline
210
0.0
220
0.0
230
1.0
 70
    24
 71
     3
 72
    16
 73
    12
 74
     0
 42
0.00000001
 43
0.00000001
 40
0.0
 40
0.0
 40
0.0
 40
0.0
 40
0.0611070751413885
 40
0.1864721046263345
 40
0.3118318938474008
 40
0.4371941077081365
 40
0.5625585703108704
 40
0.6879206450485429
 40
0.8132849480526685
 40
0.9386471619134042
 40
1.0
 40
1.0
 40
1.0
 40
1.0
 10
268.2764912054988
 20
446.7047149140665
 30
0.0
 10
268.2822642312396
 20
446.7047149140665
 30
0.0
 10
268.2998809844133
 20
446.7047149140665
 30
0.0
 10
268.0814561378695
 20
446.7047149140665
 30
0.0
 10
267.6687046470437
 20
446.7047149140664
 30
0.0
 10
267.1122446881134
 20
446.7047149140664
 30
0.0
 10
266.5131369918769
 20
446.7047149140665
 30
0.0
 10
265.954433089975
 20
446.7047149140664
 30
0.0
 10
265.5374858625856
 20
446.7047149140664
 30
0.0
 10
265.3144839143219
 20
446.7047149140665
 30
0.0
 10
265.3292993166972
 20
446.7047149140664
 30
0.0
 10
265.3341675208064
 20
446.7047149140664
 30
0.0
  0
SPLINE
  5
25F
330
1F
100
AcDbEntity
  8
0
  6
Continuous
 62
     7
370
    15
100
AcDbSpline
210
0.0
220
0.0
230
1.0
 70
    24
 71
     3
 72
    16
 73
    12
 74
     0
 42
0.00000001
 43
0.00000001
 40
0.0
 40
0.0
 40
0.0
 40
0.0
 40
0.0610095156596923
 40
0.1861743956976048
 40
0.3113340438378937
 40
0.4364961127468339
 40
0.5616604268075805
 40
0.6868223568155721
 40
0.8119865115325152
 40
0.9371485804414553
 40
1.0
 40
1.0
 40
1.0
 40
1.0
 10
268.2764912054988
 20
460.2633410889932
 30
0.0
 10
268.2822642250269
 20
460.2633410889932
 30
0.0
 10
268.2998809592422
 20
460.2633410889932
 30
0.0
 10
268.0814563712315
 20
460.2633410889931
 30
0.0
 10
267.6687037920721
 20
460.2633410889931
 30
0.0
 10
267.1122478747438
 20
460.2633410889931
 30
0.0
 10
266.513125100218
 20
460.2633410889932
 30
0.0
 10
265.9544774693085
 20
460.2633410889932
 30
0.0
 10
265.5373202345323
 20
460.2633410889932
 30
0.0
 10
265.3138293190877
 20
460.2633410889931
 30
0.0
 10
265.3290496743209
 20
460.2633410889932
 30
0.0
 10
265.334137718484
 20
460.2633410889932
 30
0.0
  0
SPLINE
  5
260
330
1F
100
AcDbEntity
  8
0
  6
Continuous
 62
     7
370
    15
100
AcDbSpline
210
0.0
220
0.0
230
1.0
 70
     8
 71
     3
 72
    19
 73
    15
 74
     0
 42
0.00000001
 43
0.00000001
 40
0.0
 40
0.0
 40
0.0
 40
0.0
 40
0.003953600922138
 40
0.1157659405726567
 40
0.2280447270276627
 40
0.3355196058046905
 40
0.4377101469650414
 40
0.5348865118990125
 40
0.6283001161441861
 40
0.7302914215166427
 40
0.8413280449461988
 40
0.9641213841516012
 40
0.9937687825717962
 40
0.9999999999999999
 40
0.9999999999999999
 40
0.9999999999999999
 40
0.9999999999999999
 10
254.6045864031764
 20
459.1709369618722
 30
0.0
 10
254.6049786627569
 20
459.1709349869114
 30
0.0
 10
254.6164644702961
 20
459.1708771578088
 30
0.0
 10
254.6397876264693
 20
459.155602811572
 30
0.0
 10
254.6832528216332
 20
459.088757173438
 30
0.0
 10
254.721235615518
 20
458.98404426407
 30
0.0
 10
254.7447356501567
 20
458.8589716679348
 30
0.0
 10
254.7560788562208
 20
458.7305350329813
 30
0.0
 10
254.7566555414019
 20
458.6093700277736
 30
0.0
 10
254.74089343591
 20
458.5001278608621
 30
0.0
 10
254.7004973356685
 20
458.4107300875665
 30
0.0
 10
254.6486706141937
 20
458.375631376731
 30
0.0
 10
254.6139247463041
 20
458.3710778385969
 30
0.0
 10
254.6059682477936
 20
458.3709589660447
 30
0.0
 10
254.6045864031764
 20
458.3709383208581
 30
0.0
  0
SPLINE
  5
261
330
1F
100
AcDbEntity
  8
0
  6
Continuous
 62
     7
370
    15
100
AcDbSpline
210
0.0
220
0.0
230
1.0
 70
     8
 71
     3
 72
    30
 73
    26
 74
     0
 42
0.00000001
 43
0.00000001
 40
0.0
 40
0.0
 40
0.0
 40
0.0
 40
0.1247090800611971
 40
0.2494204236578843
 40
0.3741268644859788
 40
0.4367807546096541
 40
0.468149518560692
 40
0.4838367526937726
 40
0.4916883261918416
 40
0.4956075406162934
 40
0.4975682596419737
 40
0.4985472808288085
 40
0.499035414047963
 40
0.49928085609942
 40
0.4994166018312869
 40
0.4994773091681088
 40
0.499501120544653
 40
0.4995179577304766
 40
0.4995417691070207
 40
0.5609169374428851
 40
0.6646240831463587
 40
0.7325830314232905
 40
0.8111458727264116
 40
0.9002990729512241
 40
1.0
 40
1.0
 40
1.0
 40
1.0
 10
254.6762907908412
 20
459.2308396298715
 30
0.0
 10
254.682055905208
 20
459.2290485655717
 30
0.0
 10
254.6935862385814
 20
459.2254664044635
 30
0.0
 10
254.7834206304196
 20
459.2036054441791
 30
0.0
 10
254.890910640108
 20
459.1779633455812
 30
0.0
 10
254.9764497608495
 20
459.1575028059417
 30
0.0
 10
255.0205529653913
 20
459.1470031399474
 30
0.0
 10
255.0427785361717
 20
459.1416656151936
 30
0.0
 10
255.0539154418143
 20
459.139015366054
 30
0.0
 10
255.0594850253837
 20
459.1376780180506
 30
0.0
 10
255.0622655117064
 20
459.1370010266297
 30
0.0
 10
255.0636538637703
 20
459.1366589630493
 30
0.0
 10
255.0643538143916
 20
459.1365132567613
 30
0.0
 10
255.0647041200659
 20
459.1364202087481
 30
0.0
 10
255.0648845319127
 20
459.1363799119765
 30
0.0
 10
255.0649695441051
 20
459.1363438545803
 30
0.0
 10
255.0650174872129
 20
459.1363587635793
 30
0.0
 10
255.0650322505107
 20
459.1363293213054
 30
0.0
 10
255.0934599474231
 20
459.143139200166
 30
0.0
 10
255.1545143672992
 20
459.1052852497833
 30
0.0
 10
255.2488283667168
 20
459.098346184244
 30
0.0
 10
255.3316337577307
 20
459.0783923632537
 30
0.0
 10
255.3953802371611
 20
459.0662636088957
 30
0.0
 10
255.4458354374556
 20
459.056392237716
 30
0.0
 10
255.4530692206837
 20
459.0559627972794
 30
0.0
 10
255.4568881199809
 20
459.0557360846826
 30
0.0
  0
ELLIPSE
  5
262
330
1F
100
AcDbEntity
  8
0
  6
Continuous
 62
     7
370
    15
100
AcDbEllipse
 10
255.3334183725
 20
460.3529192693
 30
0.0
 11
0.3906095144045594
 21
-0.0861638396116291
 31
0.0
210
0.0
220
0.0
230
1.0
 40
0.0142285888
 41
0.0
 42
6.283185307179586
  0
LINE
  5
263
330
1F
100
AcDbEntity
  8
0
  6
Continuous
 62
     7
370
    15
100
AcDbLine
 10
254.7172391818
 20
448.8709414203
 30
0.0
 11
254.7172391818
 21
457.4709379871
 31
0.0
  0
LINE
  5
264
330
1F
100
AcDbEntity
  8
0
  6
Continuous
 62
     7
370
    15
100
AcDbLine
 10
249.2029452727
 20
448.8709414203
 30
0.0
 11
249.2029452727
 21
457.4709379871
 31
0.0
  0
LINE
  5
265
330
1F
100
AcDbEntity
  8
0
  6
Continuous
 62
     7
370
    15
100
AcDbLine
 10
254.7172391818
 20
457.4709379871
 30
0.0
 11
249.2029452727
 21
457.4709379871
 31
0.0
  0
LINE
  5
266
330
1F
100
AcDbEntity
  8
0
  6
Continuous
 62
     7
370
    15
100
AcDbLine
 10
254.7172391818
 20
448.8709414203
 30
0.0
 11
249.2029452727
 21
448.8709414203
 31
0.0
  0
LINE
  5
267
330
1F
100
AcDbEntity
  8
0
  6
Continuous
 62
     7
370
    15
100
AcDbLine
 10
248.0886811421
 20
460.7709491451
 30
0.0
 11
223.2765788243
 21
460.7709491451
 31
0.0
  0
LINE
  5
268
330
1F
100
AcDbEntity
  8
0
  6
Continuous
 62
     7
370
    15
100
AcDbLine
 10
248.0886811421
 20
457.4709379871
 30
0.0
 11
248.0886811421
 21
460.7709491451
 31
0.0
  0
LINE
  5
269
330
1F
100
AcDbEntity
  8
0
  6
Continuous
 62
     7
370
    15
100
AcDbLine
 10
248.0886811421
 20
446.3709438045
 30
0.0
 11
248.0886811421
 21
448.8709414203
 31
0.0
  0
LINE
  5
26A
330
1F
100
AcDbEntity
  8
0
  6
Continuous
 62
     7
370
    15
100
AcDbLine
 10
223.2765788243
 20
446.3709438045
 30
0.0
 11
248.0886811421
 21
446.3709438045
 31
0.0
  0
LINE
  5
26B
330
1F
100
AcDbEntity
  8
0
  6
Continuous
 62
     7
370
    15
100
AcDbLine
 10
223.2765788243
 20
446.3709438045
 30
0.0
 11
223.2765788243
 21
460.7709491451
 31
0.0
  0
LINE
  5
26C
330
1F
100
AcDbEntity
  8
0
  6
Continuous
 62
     7
370
    15
100
AcDbLine
 10
248.0886811421
 20
457.4709379871
 30
0.0
 11
249.2029452727
 21
457.4709379871
 31
0.0
  0
LINE
  5
26D
330
1F
100
AcDbEntity
  8
0
  6
Continuous
 62
     7
370
    15
100
AcDbLine
 10
248.0886811421
 20
448.8709414203
 30
0.0
 11
249.2029452727
 21
448.8709414203
 31
0.0
  0
LINE
  5
26E
330
1F
100
AcDbEntity
  8
0
  6
Continuous
 62
     7
370
    15
100
AcDbLine
 10
248.2163095878
 20
445.5735975702
 30
0.0
 11
250.1085484431
 21
445.5735975702
 31
0.0
  0
LINE
  5
26F
330
1F
100
AcDbEntity
  8
0
  6
Continuous
 62
     7
370
    15
100
AcDbLine
 10
250.1085484431
 20
445.5735975702
 30
0.0
 11
250.7813060687
 21
445.5709451635
 31
0.0
  0
LINE
  5
270
330
1F
100
AcDbEntity
  8
0
  6
Continuous
 62
     7
370
    15
100
AcDbLine
 10
250.7813060687
 20
445.5709451635
 30
0.0
 11
223.4155023501
 21
445.5709451635
 31
0.0
  0
ARC
  5
271
330
1F
100
AcDbEntity
  8
0
  6
Continuous
 62
     7
370
    15
100
AcDbCircle
 10
224.5325016213
 20
446.1769790216
 30
0.0
 40
1.270812499494411
100
AcDbArc
 50
171.2205995842
 51
208.4822784261
  0
ARC
  5
272
330
1F
100
AcDbEntity
  8
0
  6
Continuous
 62
     7
370
    15
100
AcDbCircle
 10
249.5629675883
 20
446.198040083
 30
0.0
 40
1.48439085894487
100
AcDbArc
 50
173.3109306145
 51
204.8770567259
  0
LINE
  5
273
330
1F
100
AcDbEntity
  8
0
  6
Continuous
 62
     7
370
    15
100
AcDbLine
 10
250.1085484431
 20
461.5682953794
 30
0.0
 11
248.2163095878
 21
461.5682953794
 31
0.0
  0
ARC
  5
274
330
1F
100
AcDbEntity
  8
0
  6
Continuous
 62
     7
370
    15
100
AcDbCircle
 10
249.5629961307
 20
460.9438482979
 30
0.0
 40
1.484418674970813
100
AcDbArc
 50
155.1232467424
 51
186.6887659172
  0
ARC
  5
275
330
1F
100
AcDbEntity
  8
0
  6
Continuous
 62
     7
370
    15
100
AcDbCircle
 10
224.5325016213
 20
460.964913928
 30
0.0
 40
1.270812499494411
100
AcDbArc
 50
151.5177215739
 51
188.7794004158
  0
LINE
  5
276
330
1F
100
AcDbEntity
  8
0
  6
Continuous
 62
     7
370
    15
100
AcDbLine
 10
223.4155023501
 20
461.5709477861
 30
0.0
 11
250.7813060687
 21
461.5709477861
 31
0.0
  0
LINE
  5
277
330
1F
100
AcDbEntity
  8
0
  6
Continuous
 62
     7
370
    15
100
AcDbLine
 10
250.7813060687
 20
461.5709477861
 30
0.0
 11
250.1085484431
 21
461.5682953794
 31
0.0
  0
LINE
  5
278
330
1F
100
AcDbEntity
  8
0
  6
Continuous
 62
     7
370
    15
100
AcDbLine
 10
248.2163095878
 20
460.7709491451
 30
0.0
 11
248.2163095878
 21
461.5682953794
 31
0.0
  0
LINE
  5
279
330
1F
100
AcDbEntity
  8
0
  6
Continuous
 62
     7
370
    15
100
AcDbLine
 10
248.2276046679
 20
460.7709491451
 30
0.0
 11
248.2276046679
 21
457.4709379871
 31
0.0
  0
LINE
  5
27A
330
1F
100
AcDbEntity
  8
0
  6
Continuous
 62
     7
370
    15
100
AcDbLine
 10
248.2163095878
 20
445.5735975702
 30
0.0
 11
248.2163095878
 21
446.3709438045
 31
0.0
  0
LINE
  5
27B
330
1F
100
AcDbEntity
  8
0
  6
Continuous
 62
     7
370
    15
100
AcDbLine
 10
248.2276046679
 20
448.8709414203
 30
0.0
 11
248.2276046679
 21
446.3709438045
 31
0.0
  0
LINE
  5
27C
330
1F
100
AcDbEntity
  8
0
  6
Continuous
 62
     7
370
    15
100
AcDbLine
 10
254.2163068459
 20
445.5709451635
 30
0.0
 11
250.7813060687
 21
445.5709451635
 31
0.0
  0
LINE
  5
27D
330
1F
100
AcDbEntity
  8
0
  6
Continuous
 62
     7
370
    15
100
AcDbLine
 10
250.1085484431
 20
445.5735975702
 30
0.0
 11
250.1085484431
 21
446.3709438045
 31
0.0
  0
LINE
  5
27E
330
1F
100
AcDbEntity
  8
0
  6
Continuous
 62
     7
370
    15
100
AcDbLine
 10
254.2163068459
 20
446.3709438045
 30
0.0
 11
250.1085484431
 21
446.3709438045
 31
0.0
  0
LINE
  5
27F
330
1F
100
AcDbEntity
  8
0
  6
Continuous
 62
     7
370
    15
100
AcDbLine
 10
250.1085484431
 20
460.7709491451
 30
0.0
 11
250.1085484431
 21
461.5682953794
 31
0.0
  0
LINE
  5
280
330
1F
100
AcDbEntity
  8
0
  6
Continuous
 62
     7
370
    15
100
AcDbLine
 10
254.2163068459
 20
461.5709477861
 30
0.0
 11
250.7813060687
 21
461.5709477861
 31
0.0
  0
LINE
  5
281
330
1F
100
AcDbEntity
  8
0
  6
Continuous
 62
     7
370
    15
100
AcDbLine
 10
254.2163068459
 20
460.7709491451
 30
0.0
 11
250.1085484431
 21
460.7709491451
 31
0.0
  0
LINE
  5
282
330
1F
100
AcDbEntity
  8
0
  6
Continuous
 62
     7
370
    15
100
AcDbLine
 10
248.2163095878
 20
446.3709438045
 30
0.0
 11
250.1085484431
 21
446.3709438045
 31
0.0
  0
LINE
  5
283
330
1F
100
AcDbEntity
  8
0
  6
Continuous
 62
     7
370
    15
100
AcDbLine
 10
248.2163095878
 20
460.7709491451
 30
0.0
 11
250.1085484431
 21
460.7709491451
 31
0.0
  0
LINE
  5
284
330
1F
100
AcDbEntity
  8
0
  6
Continuous
 62
     7
370
    15
100
AcDbLine
 10
249.2863172696
 20
461.8709379632
 30
0.0
 11
253.6863172458
 21
461.8709379632
 31
0.0
  0
LINE
  5
285
330
1F
100
AcDbEntity
  8
0
  6
Continuous
 62
     7
370
    15
100
AcDbLine
 10
249.3863040612
 20
445.1709383924
 30
0.0
 11
253.586315553
 21
445.1709383924
 31
0.0
  0
LINE
  5
286
330
1F
100
AcDbEntity
  8
0
  6
Continuous
 62
     7
370
    15
100
AcDbLine
 10
249.3863040612
 20
444.7709465225
 30
0.0
 11
253.586315553
 21
444.7709465225
 31
0.0
  0
LINE
  5
287
330
1F
100
AcDbEntity
  8
0
  6
Continuous
 62
     7
370
    15
100
AcDbLine
 10
218.3777326749
 20
460.7709491451
 30
0.0
 11
216.3882488416
 21
460.7709491451
 31
0.0
  0
LINE
  5
288
330
1F
100
AcDbEntity
  8
0
  6
Continuous
 62
     7
370
    15
100
AcDbLine
 10
218.3777326749
 20
446.3709438045
 30
0.0
 11
218.3777326749
 21
460.7709491451
 31
0.0
  0
LINE
  5
289
330
1F
100
AcDbEntity
  8
0
  6
Continuous
 62
     7
370
    15
100
AcDbLine
 10
216.3882488416
 20
446.3709438045
 30
0.0
 11
218.3777326749
 21
446.3709438045
 31
0.0
  0
ARC
  5
28A
330
1F
100
AcDbEntity
  8
0
  6
Continuous
 62
     7
370
    15
100
AcDbCircle
 10
231.6822232643
 20
453.5709464748
 30
0.0
 40
16.90401408232907
100
AcDbArc
 50
154.7901718738
 51
205.2098281262
  0
SPLINE
  5
28B
330
1F
100
AcDbEntity
  8
0
  6
Continuous
 62
     7
370
    15
100
AcDbSpline
210
0.0
220
0.0
230
1.0
 70
     8
 71
     3
 72
    12
 73
     8
 74
     0
 42
0.00000001
 43
0.00000001
 40
0.0
 40
0.0
 40
0.0
 40
0.0
 40
0.1818716922340392
 40
0.3633439479133611
 40
0.5550753532075972
 40
0.7712678709020692
 40
1.0
 40
1.0
 40
1.0
 40
1.0
 10
216.5206307576152
 20
445.5709451634713
 30
0.0
 10
216.5444878650187
 20
445.5782686996496
 30
0.0
 10
216.592149683542
 20
445.5928996876553
 30
0.0
 10
216.6068977830529
 20
445.7048889880909
 30
0.0
 10
216.5796615023511
 20
445.8742728700195
 30
0.0
 10
216.5079906353347
 20
446.1026935969899
 30
0.0
 10
216.428905740468
 20
446.279862643741
 30
0.0
 10
216.388248841569
 20
446.3709438044854
 30
0.0
  0
LINE
  5
28C
330
1F
100
AcDbEntity
  8
0
  6
Continuous
 62
     7
370
    15
100
AcDbLine
 10
216.1362702058
 20
446.3254505594
 30
0.0
 11
216.4907092259
 21
445.5709451635
 31
0.0
  0
ARC
  5
28D
330
1F
100
AcDbEntity
  8
0
  6
Continuous
 62
     7
370
    15
100
AcDbCircle
 10
231.4068058546
 20
453.5709464748
 30
0.0
 40
16.90226227646349
100
AcDbArc
 50
154.6168036234
 51
205.3831963766
  0
LINE
  5
28E
330
1F
100
AcDbEntity
  8
0
  6
Continuous
 62
     7
370
    15
100
AcDbLine
 10
216.4907092259
 20
461.5709477861
 30
0.0
 11
216.1362702058
 21
460.8164423902
 31
0.0
  0
SPLINE
  5
28F
330
1F
100
AcDbEntity
  8
0
  6
Continuous
 62
     7
370
    15
100
AcDbSpline
210
0.0
220
0.0
230
1.0
 70
     8
 71
     3
 72
    12
 73
     8
 74
     0
 42
0.00000001
 43
0.00000001
 40
0.0
 40
0.0
 40
0.0
 40
0.0
 40
0.2510171967448785
 40
0.5023980142766835
 40
0.7402747889406065
 40
0.9473067283745789
 40
1.0
 40
1.0
 40
1.0
 40
1.0
 10
216.388248841569
 20
460.7709491450616
 30
0.0
 10
216.4325670925932
 20
460.8708274244248
 30
0.0
 10
216.5212677935788
 20
461.0707286657425
 30
0.0
 10
216.5962531466166
 20
461.3294690300329
 30
0.0
 10
216.60776150173
 20
461.5066924380517
 30
0.0
 10
216.5661126777873
 20
461.5671302423918
 30
0.0
 10
216.528301850417
 20
461.570303909745
 30
0.0
 10
216.5206307576152
 20
461.5709477860757
 30
0.0
  0
LINE
  5
290
330
1F
100
AcDbEntity
  8
0
  6
Continuous
 62
     7
370
    15
100
AcDbLine
 10
216.5206307576
 20
461.5709477861
 30
0.0
 11
216.4907092259
 21
461.5709477861
 31
0.0
  0
LINE
  5
291
330
1F
100
AcDbEntity
  8
0
  6
Continuous
 62
     7
370
    15
100
AcDbLine
 10
216.5206307576
 20
445.5709451635
 30
0.0
 11
216.4907092259
 21
445.5709451635
 31
0.0
  0
LWPOLYLINE
  5
292
330
1F
100
AcDbEntity
  8
0
  6
Continuous
 62
     7
370
    15
100
AcDbPolyline
 90
        9
 70
   128
 43
0.0
 10
218.3777326749
 20
460.7709491451
 10
218.372472565
 20
460.9270090062
 10
218.3569008515
 20
461.0770935018
 10
218.331613581
 20
461.21540608
 10
218.29759423
 20
461.3366270263
 10
218.2561242984
 20
461.4361220796
 10
218.2088131116
 20
461.5100467403
 10
218.1574935124
 20
461.5555697877
 10
218.104117553
 20
461.5709477861
  0
LINE
  5
293
330
1F
100
AcDbEntity
  8
0
  6
Continuous
 62
     7
370
    15
100
AcDbLine
 10
216.5206307576
 20
461.5709477861
 30
0.0
 11
218.104117553
 21
461.5709477861
 31
0.0
  0
LWPOLYLINE
  5
294
330
1F
100
AcDbEntity
  8
0
  6
Continuous
 62
     7
370
    15
100
AcDbPolyline
 90
        9
 70
   128
 43
0.0
 10
218.3777326749
 20
446.3709438045
 10
218.372472565
 20
446.2148690421
 10
218.3569008515
 20
446.0647994478
 10
218.331613581
 20
445.9264868696
 10
218.29759423
 20
445.8052659232
 10
218.2561242984
 20
445.70577087
 10
218.2088131116
 20
445.6318462093
 10
218.1574935124
 20
445.5863231618
 10
218.104117553
 20
445.5709451635
  0
LINE
  5
295
330
1F
100
AcDbEntity
  8
0
  6
Continuous
 62
     7
370
    15
100
AcDbLine
 10
218.104117553
 20
445.5709451635
 30
0.0
 11
216.5206307576
 21
445.5709451635
 31
0.0
  0
LINE
  5
296
330
1F
100
AcDbEntity
  8
0
  6
Continuous
 62
     7
370
    15
100
AcDbLine
 10
223.2765788243
 20
460.7709491451
 30
0.0
 11
218.3777326749
 21
460.7709491451
 31
0.0
  0
LINE
  5
297
330
1F
100
AcDbEntity
  8
0
  6
Continuous
 62
     7
370
    15
100
AcDbLine
 10
218.104117553
 20
461.5709477861
 30
0.0
 11
223.4155023501
 21
461.5709477861
 31
0.0
  0
LINE
  5
298
330
1F
100
AcDbEntity
  8
0
  6
Continuous
 62
     7
370
    15
100
AcDbLine
 10
218.3777326749
 20
446.3709438045
 30
0.0
 11
223.2765788243
 21
446.3709438045
 31
0.0
  0
LINE
  5
299
330
1F
100
AcDbEntity
  8
0
  6
Continuous
 62
     7
370
    15
100
AcDbLine
 10
223.4155023501
 20
445.5709451635
 30
0.0
 11
218.104117553
 21
445.5709451635
 31
0.0
  0
LINE
  5
29A
330
1F
100
AcDbEntity
  8
0
  6
Continuous
 62
     7
370
    15
100
AcDbLine
 10
254.5063132451
 20
90.3209442098
 30
0.0
 11
248.3063126014
 21
90.3209442098
 31
0.0
  0
LINE
  5
29B
330
1F
100
AcDbEntity
  8
0
  6
Continuous
 62
     7
370
    15
100
AcDbLine
 10
254.5063132451
 20
90.3209442098
 30
0.0
 11
254.5063132451
 21
89.3209421832
 31
0.0
  0
LINE
  5
29C
330
1F
100
AcDbEntity
  8
0
  6
Continuous
 62
     7
370
    15
100
AcDbLine
 10
254.5063132451
 20
89.3209421832
 30
0.0
 11
248.3063126014
 21
89.3209421832
 31
0.0
  0
LINE
  5
29D
330
1F
100
AcDbEntity
  8
0
  6
Continuous
 62
     7
370
    15
100
AcDbLine
 10
248.3063126014
 20
90.3209442098
 30
0.0
 11
248.3063126014
 21
89.3209421832
 31
0.0
  0
LINE
  5
29E
330
1F
100
AcDbEntity
  8
0
  6
Continuous
 62
     7
370
    15
100
AcDbLine
 10
254.5063132451
 20
460.3209489782
 30
0.0
 11
248.3063126014
 21
460.3209489782
 31
0.0
  0
LINE
  5
29F
330
1F
100
AcDbEntity
  8
0
  6
Continuous
 62
     7
370
    15
100
AcDbLine
 10
254.5063132451
 20
460.3209489782
 30
0.0
 11
254.5063132451
 21
459.3209469516
 31
0.0
  0
LINE
  5
2A0
330
1F
100
AcDbEntity
  8
0
  6
Continuous
 62
     7
370
    15
100
AcDbLine
 10
248.3063126014
 20
460.3209489782
 30
0.0
 11
248.3063126014
 21
459.3209469516
 31
0.0
  0
LINE
  5
2A1
330
1F
100
AcDbEntity
  8
0
  6
Continuous
 62
     7
370
    15
100
AcDbLine
 10
254.5063132451
 20
459.3209469516
 30
0.0
 11
248.3063126014
 21
459.3209469516
 31
0.0
  0
LINE
  5
2A2
330
1F
100
AcDbEntity
  8
0
  6
Continuous
 62
     7
370
    15
100
AcDbLine
 10
254.5063132451
 20
447.8209459979
 30
0.0
 11
254.5063132451
 21
446.8209439714
 31
0.0
  0
LINE
  5
2A3
330
1F
100
AcDbEntity
  8
0
  6
Continuous
 62
     7
370
    15
100
AcDbLine
 10
254.5063132451
 20
446.8209439714
 30
0.0
 11
248.3063126014
 21
446.8209439714
 31
0.0
  0
LINE
  5
2A4
330
1F
100
AcDbEntity
  8
0
  6
Continuous
 62
     7
370
    15
100
AcDbLine
 10
248.3063126014
 20
447.8209459979
 30
0.0
 11
248.3063126014
 21
446.8209439714
 31
0.0
  0
LINE
  5
2A5
330
1F
100
AcDbEntity
  8
0
  6
Continuous
 62
     7
370
    15
100
AcDbLine
 10
254.5063132451
 20
447.8209459979
 30
0.0
 11
248.3063126014
 21
447.8209459979
 31
0.0
  0
LINE
  5
2A6
330
1F
100
AcDbEntity
  8
0
  6
Continuous
 62
     7
370
    15
100
AcDbLine
 10
254.5063132451
 20
77.8209412296
 30
0.0
 11
254.5063132451
 21
76.820939203
 31
0.0
  0
LINE
  5
2A7
330
1F
100
AcDbEntity
  8
0
  6
Continuous
 62
     7
370
    15
100
AcDbLine
 10
248.3063126014
 20
77.8209412296
 30
0.0
 11
248.3063126014
 21
76.820939203
 31
0.0
  0
LINE
  5
2A8
330
1F
100
AcDbEntity
  8
0
  6
Continuous
 62
     7
370
    15
100
AcDbLine
 10
254.5063132451
 20
77.8209412296
 30
0.0
 11
248.3063126014
 21
77.8209412296
 31
0.0
  0
LINE
  5
2A9
330
1F
100
AcDbEntity
  8
0
  6
Continuous
 62
     7
370
    15
100
AcDbLine
 10
254.5063132451
 20
76.820939203
 30
0.0
 11
248.3063126014
 21
76.820939203
 31
0.0
  0
LWPOLYLINE
  5
2AA
330
1F
100
AcDbEntity
  8
0
  6
Continuous
 62
     7
370
    15
100
AcDbPolyline
 90
        3
 70
   128
 43
0.0
 10
248.2276046679
 20
77.2097999055
 10
248.2301825688
 20
77.2036308248
 10
248.3063126014
 20
76.820939203
  0
LWPOLYLINE
  5
2AB
330
1F
100
AcDbEntity
  8
0
  6
Continuous
 62
     7
370
    15
100
AcDbPolyline
 90
        3
 70
   128
 43
0.0
 10
248.3063126014
 20
90.3209442098
 10
248.2301825688
 20
89.9382674892
 10
248.2276046679
 20
89.9320835073
  0
LINE
  5
2AC
330
1F
100
AcDbEntity
  8
0
  6
Continuous
 62
     7
370
    15
100
AcDbLine
 10
254.5063132451
 20
89.3209421832
 30
0.0
 11
254.5063132451
 21
89.1709470947
 31
0.0
  0
LINE
  5
2AD
330
1F
100
AcDbEntity
  8
0
  6
Continuous
 62
     7
370
    15
100
AcDbLine
 10
254.5063132451
 20
88.3709484536
 30
0.0
 11
254.5063132451
 21
87.4709481199
 31
0.0
  0
LINE
  5
2AE
330
1F
100
AcDbEntity
  8
0
  6
Continuous
 62
     7
370
    15
100
AcDbLine
 10
254.5063132451
 20
78.8709366519
 30
0.0
 11
254.5063132451
 21
77.8209412296
 31
0.0
  0
LWPOLYLINE
  5
2AF
330
1F
100
AcDbEntity
  8
0
  6
Continuous
 62
     7
370
    15
100
AcDbPolyline
 90
        3
 70
   128
 43
0.0
 10
248.2276046679
 20
447.2098046739
 10
248.2301825688
 20
447.203620692
 10
248.3063126014
 20
446.8209439714
  0
LWPOLYLINE
  5
2B0
330
1F
100
AcDbEntity
  8
0
  6
Continuous
 62
     7
370
    15
100
AcDbPolyline
 90
        3
 70
   128
 43
0.0
 10
248.3063126014
 20
460.3209489782
 10
248.2301825688
 20
459.9382573564
 10
248.2276046679
 20
459.9320882757
  0
LINE
  5
2B1
330
1F
100
AcDbEntity
  8
0
  6
Continuous
 62
     7
370
    15
100
AcDbLine
 10
254.5063132451
 20
459.3209469516
 30
0.0
 11
254.5063132451
 21
459.1709369619
 31
0.0
  0
LINE
  5
2B2
330
1F
100
AcDbEntity
  8
0
  6
Continuous
 62
     7
370
    15
100
AcDbLine
 10
254.5063132451
 20
458.3709383209
 30
0.0
 11
254.5063132451
 21
457.4709379871
 31
0.0
  0
LINE
  5
2B3
330
1F
100
AcDbEntity
  8
0
  6
Continuous
 62
     7
370
    15
100
AcDbLine
 10
254.5063132451
 20
448.8709414203
 30
0.0
 11
254.5063132451
 21
447.8209459979
 31
0.0
  0
ARC
  5
2B4
330
1F
100
AcDbEntity
  8
0
  6
Continuous
 62
     7
370
    15
100
AcDbCircle
 10
56.5063099788
 20
503.5709440906
 30
0.0
 40
14.99999999999997
100
AcDbArc
 50
90.0
 51
180.0
  0
LINE
  5
2B5
330
1F
100
AcDbEntity
  8
0
  6
Continuous
 62
     7
370
    15
100
AcDbLine
 10
56.5063096614
 20
518.5709440906
 30
0.0
 11
56.5063096614
 21
503.5709434945
 31
0.0
  0
LINE
  5
2B6
330
1F
100
AcDbEntity
  8
0
  6
Continuous
 62
     7
370
    15
100
AcDbLine
 10
41.5063099966
 20
503.5709434945
 30
0.0
 11
56.5063096614
 21
503.5709434945
 31
0.0
  0
LINE
  5
2B7
330
1F
100
AcDbEntity
  8
0
  6
Continuous
 62
     7
370
    15
100
AcDbLine
 10
56.5063096614
 20
33.5709446866
 30
0.0
 11
41.5063099966
 21
33.5709446866
 31
0.0
  0
LINE
  5
2B8
330
1F
100
AcDbEntity
  8
0
  6
Continuous
 62
     7
370
    15
100
AcDbLine
 10
56.5063096614
 20
33.5709446866
 30
0.0
 11
56.5063096614
 21
18.5709440906
 31
0.0
  0
ARC
  5
2B9
330
1F
100
AcDbEntity
  8
0
  6
Continuous
 62
     7
370
    15
100
AcDbCircle
 10
56.5063099788
 20
33.5709440906
 30
0.0
 40
15.00000000000001
100
AcDbArc
 50
180.0
 51
270.0
  0
LINE
  5
2BA
330
1F
100
AcDbEntity
  8
0
  6
Continuous
 62
     7
370
    15
100
AcDbLine
 10
56.5063096614
 20
503.5709434945
 30
0.0
 11
56.5063096614
 21
33.5709446866
 31
0.0
  0
LINE
  5
2BB
330
1F
100
AcDbEntity
  8
0
  6
Continuous
 62
     7
370
    15
100
AcDbLine
 10
41.5063099966
 20
503.5709434945
 30
0.0
 11
41.5063099966
 21
33.5709446866
 31
0.0
  0
LINE
  5
2BC
330
1F
100
AcDbEntity
  8
0
  6
Continuous
 62
     7
370
    15
100
AcDbLine
 10
61.5063095496
 20
498.5709482629
 30
0.0
 11
61.5063095496
 21
38.5709399183
 31
0.0
  0
LINE
  5
2BD
330
1F
100
AcDbEntity
  8
0
  6
Continuous
 62
     7
370
    15
100
AcDbLine
 10
247.5063139604
 20
38.5709399183
 30
0.0
 11
61.5063095496
 21
38.5709399183
 31
0.0
  0
LINE
  5
2BE
330
1F
100
AcDbEntity
  8
0
  6
Continuous
 62
     7
370
    15
100
AcDbLine
 10
247.5063139604
 20
38.5709399183
 30
0.0
 11
247.5063139604
 21
70.7584017713
 31
0.0
  0
LINE
  5
2BF
330
1F
100
AcDbEntity
  8
0
  6
Continuous
 62
     7
370
    15
100
AcDbLine
 10
247.5063139604
 20
74.0981841285
 30
0.0
 11
247.5063139604
 21
75.5709403951
 31
0.0
  0
LINE
  5
2C0
330
1F
100
AcDbEntity
  8
0
  6
Continuous
 62
     7
370
    15
100
AcDbLine
 10
247.5063139604
 20
91.5709430177
 30
0.0
 11
247.5063139604
 21
93.0303478439
 31
0.0
  0
LINE
  5
2C1
330
1F
100
AcDbEntity
  8
0
  6
Continuous
 62
     7
370
    15
100
AcDbLine
 10
247.5063139604
 20
96.3730657298
 30
0.0
 11
247.5063139604
 21
440.7583916385
 31
0.0
  0
LINE
  5
2C2
330
1F
100
AcDbEntity
  8
0
  6
Continuous
 62
     7
370
    15
100
AcDbLine
 10
247.5063139604
 20
444.0981888969
 30
0.0
 11
247.5063139604
 21
445.5709451635
 31
0.0
  0
LINE
  5
2C3
330
1F
100
AcDbEntity
  8
0
  6
Continuous
 62
     7
370
    15
100
AcDbLine
 10
247.5063139604
 20
461.5709477861
 30
0.0
 11
247.5063139604
 21
463.0303526122
 31
0.0
  0
LINE
  5
2C4
330
1F
100
AcDbEntity
  8
0
  6
Continuous
 62
     7
370
    15
100
AcDbLine
 10
247.5063139604
 20
466.373055597
 30
0.0
 11
247.5063139604
 21
498.5709482629
 31
0.0
  0
LINE
  5
2C5
330
1F
100
AcDbEntity
  8
0
  6
Continuous
 62
     7
370
    15
100
AcDbLine
 10
247.5063139604
 20
498.5709482629
 30
0.0
 11
61.5063095496
 21
498.5709482629
 31
0.0
  0
LINE
  5
2C6
330
1F
100
AcDbEntity
  8
0
  6
Continuous
 62
     7
370
    15
100
AcDbLine
 10
267.506309788
 20
503.5709434945
 30
0.0
 11
56.5063096614
 21
503.5709434945
 31
0.0
  0
LINE
  5
2C7
330
1F
100
AcDbEntity
  8
0
  6
Continuous
 62
     7
370
    15
100
AcDbLine
 10
267.506309788
 20
33.5709446866
 30
0.0
 11
267.506309788
 21
74.5630407531
 31
0.0
  0
LINE
  5
2C8
330
1F
100
AcDbEntity
  8
0
  6
Continuous
 62
     7
370
    15
100
AcDbLine
 10
267.506309788
 20
92.5468796689
 30
0.0
 11
267.506309788
 21
444.5630306203
 31
0.0
  0
LINE
  5
2C9
330
1F
100
AcDbEntity
  8
0
  6
Continuous
 62
     7
370
    15
100
AcDbLine
 10
267.506309788
 20
462.5468695361
 30
0.0
 11
267.506309788
 21
503.5709434945
 31
0.0
  0
LINE
  5
2CA
330
1F
100
AcDbEntity
  8
0
  6
Continuous
 62
     7
370
    15
100
AcDbLine
 10
267.506309788
 20
33.5709446866
 30
0.0
 11
56.5063096614
 21
33.5709446866
 31
0.0
  0
LINE
  5
2CB
330
1F
100
AcDbEntity
  8
0
  6
Continuous
 62
     7
370
    15
100
AcDbLine
 10
267.506309788
 20
518.5709440906
 30
0.0
 11
56.5063096614
 21
518.5709440906
 31
0.0
  0
LINE
  5
2CC
330
1F
100
AcDbEntity
  8
0
  6
Continuous
 62
     7
370
    15
100
AcDbLine
 10
267.506309788
 20
518.5709440906
 30
0.0
 11
267.506309788
 21
503.5709434945
 31
0.0
  0
LINE
  5
2CD
330
1F
100
AcDbEntity
  8
0
  6
Continuous
 62
     7
370
    15
100
AcDbLine
 10
267.506309788
 20
33.5709446866
 30
0.0
 11
267.506309788
 21
18.5709440906
 31
0.0
  0
LINE
  5
2CE
330
1F
100
AcDbEntity
  8
0
  6
Continuous
 62
     7
370
    15
100
AcDbLine
 10
267.506309788
 20
18.5709440906
 30
0.0
 11
56.5063096614
 21
18.5709440906
 31
0.0
  0
LINE
  5
2CF
330
1F
100
AcDbEntity
  8
0
  6
Continuous
 62
     7
370
    15
100
AcDbLine
 10
271.5063029931
 20
38.5709399183
 30
0.0
 11
267.506309788
 21
38.5709399183
 31
0.0
  0
LINE
  5
2D0
330
1F
100
AcDbEntity
  8
0
  6
Continuous
 62
     7
370
    15
100
AcDbLine
 10
271.5063029931
 20
23.5709393222
 30
0.0
 11
267.506309788
 21
23.5709393222
 31
0.0
  0
LINE
  5
2D1
330
1F
100
AcDbEntity
  8
0
  6
Continuous
 62
     7
370
    15
100
AcDbLine
 10
271.5063029931
 20
513.570948859
 30
0.0
 11
267.506309788
 21
513.570948859
 31
0.0
  0
LINE
  5
2D2
330
1F
100
AcDbEntity
  8
0
  6
Continuous
 62
     7
370
    15
100
AcDbLine
 10
271.5063029931
 20
498.5709482629
 30
0.0
 11
267.506309788
 21
498.5709482629
 31
0.0
  0
LINE
  5
2D3
330
1F
100
AcDbEntity
  8
0
  6
Continuous
 62
     7
370
    15
100
AcDbLine
 10
398.9955667529
 20
556.930864868
 30
0.0
 11
400.1955572638
 21
556.930864868
 31
0.0
  0
LINE
  5
2D4
330
1F
100
AcDbEntity
  8
0
  6
Continuous
 62
     7
370
    15
100
AcDbLine
 10
398.8955650601
 20
559.4308624838
 30
0.0
 11
398.9955667529
 21
559.4308624838
 31
0.0
  0
LINE
  5
2D5
330
1F
100
AcDbEntity
  8
0
  6
Continuous
 62
     7
370
    15
100
AcDbLine
 10
398.9955667529
 20
565.4308746431
 30
0.0
 11
398.8955650601
 21
565.4308746431
 31
0.0
  0
SPLINE
  5
2D6
330
1F
100
AcDbEntity
  8
0
  6
Continuous
 62
     7
370
    15
100
AcDbSpline
210
0.0
220
0.0
230
1.0
 70
     8
 71
     3
 72
    15
 73
    11
 74
     0
 42
0.00000001
 43
0.00000001
 40
0.0
 40
0.0
 40
0.0
 40
0.0
 40
0.1250767031831793
 40
0.2501513460785652
 40
0.3752924375015012
 40
0.500306240832659
 40
0.6252891952557975
 40
0.7502634087331911
 40
0.8750791288795793
 40
1.0
 40
1.0
 40
1.0
 40
1.0
 10
397.8100005659639
 20
587.4886910293542
 30
0.0
 10
397.7838759068971
 20
587.7474575828297
 30
0.0
 10
397.731627019094
 20
588.2649864273278
 30
0.0
 10
397.6527561282185
 20
589.0461017435376
 30
0.0
 10
397.578330568522
 20
589.78328389073
 30
0.0
 10
397.5113171176601
 20
590.4468596043712
 30
0.0
 10
397.4552088397066
 20
591.0026175003595
 30
0.0
 10
397.412691535496
 20
591.4237277361248
 30
0.0
 10
397.3838588198154
 20
591.7093187750453
 30
0.0
 10
397.3795171164267
 20
591.7523618570707
 30
0.0
 10
397.3773453507005
 20
591.7738924596749
 30
0.0
  0
SPLINE
  5
2D7
330
1F
100
AcDbEntity
  8
0
  6
Continuous
 62
     7
370
    15
100
AcDbSpline
210
0.0
220
0.0
230
1.0
 70
     8
 71
     3
 72
    15
 73
    11
 74
     0
 42
0.00000001
 43
0.00000001
 40
0.0
 40
0.0
 40
0.0
 40
0.0
 40
0.1249399584907139
 40
0.249767829046851
 40
0.3747497598039748
 40
0.4997377185127649
 40
0.6247475377849071
 40
0.7498803348357548
 40
0.8749433268323796
 40
1.0
 40
1.0
 40
1.0
 40
1.0
 10
394.3930897984087
 20
591.4725015733682
 30
0.0
 10
394.3952722076875
 20
591.4509269942912
 30
0.0
 10
394.3996350683305
 20
591.4077971914342
 30
0.0
 10
394.4284849205803
 20
591.1220812382204
 30
0.0
 10
394.4709901570589
 20
590.7008972567158
 30
0.0
 10
394.5271290207439
 20
590.1451178295547
 30
0.0
 10
394.5941144421981
 20
589.4815940866848
 30
0.0
 10
394.6685356472339
 20
588.7445482266214
 30
0.0
 10
394.7473631777983
 20
587.963634836098
 30
0.0
 10
394.7996082408995
 20
587.4462826336595
 30
0.0
 10
394.8257301125108
 20
587.1876130674325
 30
0.0
  0
LINE
  5
2D8
330
1F
100
AcDbEntity
  8
0
  6
Continuous
 62
     7
370
    15
100
AcDbLine
 10
394.8254469904
 20
587.187478957
 30
0.0
 11
396.394524363
 21
571.646506605
 31
0.0
  0
LINE
  5
2D9
330
1F
100
AcDbEntity
  8
0
  6
Continuous
 62
     7
370
    15
100
AcDbLine
 10
399.3793461594
 20
571.9478676889
 30
0.0
 11
397.8102687869
 21
587.4888251398
 31
0.0
  0
SPLINE
  5
2DA
330
1F
100
AcDbEntity
  8
0
  6
Continuous
 62
     7
370
    15
100
AcDbSpline
210
0.0
220
0.0
230
1.0
 70
     8
 71
     3
 72
     9
 73
     5
 74
     0
 42
0.00000001
 43
0.00000001
 40
0.0
 40
0.0
 40
0.0
 40
0.0
 40
0.4837449781797253
 40
1.0
 40
1.0
 40
1.0
 40
1.0
 10
396.5646062168656
 20
569.965134081646
 30
0.0
 10
396.57406668241
 20
569.9009032245564
 30
0.0
 10
396.59362340335
 20
569.768124880621
 30
0.0
 10
396.627466637353
 20
569.7319697336555
 30
0.0
 10
396.6449383768617
 20
569.71330445747
 30
0.0
  0
SPLINE
  5
2DB
330
1F
100
AcDbEntity
  8
0
  6
Continuous
 62
     7
370
    15
100
AcDbSpline
210
0.0
220
0.0
230
1.0
 70
     8
 71
     3
 72
    11
 73
     7
 74
     0
 42
0.00000001
 43
0.00000001
 40
0.0
 40
0.0
 40
0.0
 40
0.0
 40
0.2484390262851725
 40
0.4978833160729399
 40
0.7483837072911377
 40
1.0
 40
1.0
 40
1.0
 40
1.0
 10
396.3947925839006
 20
571.6466556165658
 30
0.0
 10
396.4128051892062
 20
571.4681833197625
 30
0.0
 10
396.448903284561
 20
571.110516570346
 30
0.0
 10
396.4959294621381
 20
570.6456911966072
 30
0.0
 10
396.5347214323231
 20
570.2628071492522
 30
0.0
 10
396.5497657645464
 20
570.1155089998695
 30
0.0
 10
396.5573046478807
 20
570.04169624786
 30
0.0
  0
SPLINE
  5
2DC
330
1F
100
AcDbEntity
  8
0
  6
Continuous
 62
     7
370
    15
100
AcDbSpline
210
0.0
220
0.0
230
1.0
 70
     8
 71
     3
 72
    19
 73
    15
 74
     0
 42
0.00000001
 43
0.00000001
 40
0.0
 40
0.0
 40
0.0
 40
0.0
 40
0.0802803775144158
 40
0.1534391281143523
 40
0.2193400876177822
 40
0.2779458009536975
 40
0.3728434167243814
 40
0.4421527346419943
 40
0.5315366155302124
 40
0.6554807468712034
 40
0.7303539283324194
 40
0.813076816600313
 40
0.9031424629954415
 40
0.9999999999999999
 40
0.9999999999999999
 40
0.9999999999999999
 40
0.9999999999999999
 10
396.5802524361192
 20
569.8824773405038
 30
0.0
 10
396.615611826321
 20
569.7596026374579
 30
0.0
 10
396.6831938952051
 20
569.5247533768238
 30
0.0
 10
396.8804316149299
 20
569.2303528638579
 30
0.0
 10
397.105268989313
 20
569.0062218510193
 30
0.0
 10
397.4009351960447
 20
568.8131760126582
 30
0.0
 10
397.742886927775
 20
568.6952844535502
 30
0.0
 10
398.152642947838
 20
568.6654777916398
 30
0.0
 10
398.5917264742995
 20
568.7677864282161
 30
0.0
 10
398.9782601532846
 20
569.0190201541172
 30
0.0
 10
399.2710913095224
 20
569.3597323758842
 30
0.0
 10
399.4518894568635
 20
569.7151907841416
 30
0.0
 10
399.5577741948013
 20
570.1421410079755
 30
0.0
 10
399.5255203468149
 20
570.4372090069303
 30
0.0
 10
399.5088074478684
 20
570.5901036832772
 30
0.0
  0
SPLINE
  5
2DD
330
1F
100
AcDbEntity
  8
0
  6
Continuous
 62
     7
370
    15
100
AcDbSpline
210
0.0
220
0.0
230
1.0
 70
     8
 71
     3
 72
    11
 73
     7
 74
     0
 42
0.00000001
 43
0.00000001
 40
0.0
 40
0.0
 40
0.0
 40
0.0
 40
0.2477424580650241
 40
0.4969462587121884
 40
0.7476718993370176
 40
1.0
 40
1.0
 40
1.0
 40
1.0
 10
399.5325747999727
 20
570.4224209163629
 30
0.0
 10
399.5261410651991
 20
570.4870463323355
 30
0.0
 10
399.5132356453923
 20
570.6166783660858
 30
0.0
 10
399.4772463803301
 20
570.9745541480982
 30
0.0
 10
399.4322934201139
 20
571.4208782178085
 30
0.0
 10
399.3968540626576
 20
571.7717425695682
 30
0.0
 10
399.3790779385149
 20
571.9477335784875
 30
0.0
  0
LINE
  5
2DE
330
1F
100
AcDbEntity
  8
0
  6
Continuous
 62
     7
370
    15
100
AcDbLine
 10
399.6628705535
 20
581.6025386427
 30
0.0
 11
399.6628556523
 21
581.9023500059
 31
0.0
  0
LINE
  5
2DF
330
1F
100
AcDbEntity
  8
0
  6
Continuous
 62
     7
370
    15
100
AcDbLine
 10
398.8628570113
 20
581.9023500059
 30
0.0
 11
398.8628570113
 21
581.6049824331
 31
0.0
  0
SPLINE
  5
2E0
330
1F
100
AcDbEntity
  8
0
  6
Continuous
 62
     7
370
    15
100
AcDbSpline
210
0.0
220
0.0
230
1.0
 70
    24
 71
     3
 72
    11
 73
     7
 74
     0
 42
0.00000001
 43
0.00000001
 40
0.0
 40
0.0
 40
0.0
 40
0.0
 40
0.0207850328835332
 40
0.3465561843128634
 40
0.6711381646362238
 40
0.9999999999999999
 40
0.9999999999999999
 40
0.9999999999999999
 40
0.9999999999999999
 10
398.8628570112764
 20
582.1886758182488
 30
0.0
 10
398.8628570112764
 20
582.185354114208
 30
0.0
 10
398.8628570112763
 20
582.129970171144
 30
0.0
 10
398.8628570112764
 20
582.0367320059681
 30
0.0
 10
398.8628570112763
 20
581.9240198706816
 30
0.0
 10
398.8628570112764
 20
581.8894923716077
 30
0.0
 10
398.8628570112764
 20
581.8721155498467
 30
0.0
  0
SPLINE
  5
2E1
330
1F
100
AcDbEntity
  8
0
  6
Continuous
 62
     7
370
    15
100
AcDbSpline
210
0.0
220
0.0
230
1.0
 70
    24
 71
     3
 72
    11
 73
     7
 74
     0
 42
0.00000001
 43
0.00000001
 40
0.0
 40
0.0
 40
0.0
 40
0.0
 40
0.2504877331241812
 40
0.4977261212757707
 40
0.7458640449708547
 40
0.9999999999999999
 40
0.9999999999999999
 40
0.9999999999999999
 40
0.9999999999999999
 10
399.6628705534517
 20
581.869671759411
 30
0.0
 10
399.6628705534517
 20
581.8858888911221
 30
0.0
 10
399.6628705534517
 20
581.9181127847403
 30
0.0
 10
399.6628705534516
 20
582.026888321141
 30
0.0
 10
399.6628705534517
 20
582.1657187520734
 30
0.0
 10
399.6628705534517
 20
582.2727462117981
 30
0.0
 10
399.6628705534517
 20
582.326898989483
 30
0.0
  0
LINE
  5
2E2
330
1F
100
AcDbEntity
  8
0
  6
Continuous
 62
     7
370
    15
100
AcDbLine
 10
399.6628705535
 20
582.3268989895
 30
0.0
 11
399.6628705535
 21
582.4308643911
 31
0.0
  0
LINE
  5
2E3
330
1F
100
AcDbEntity
  8
0
  6
Continuous
 62
     7
370
    15
100
AcDbLine
 10
398.6561183009
 20
582.4308643911
 30
0.0
 11
398.8650325808
 21
582.1836392258
 31
0.0
  0
LINE
  5
2E4
330
1F
100
AcDbEntity
  8
0
  6
Continuous
 62
     7
370
    15
100
AcDbLine
 10
394.3864736828
 20
591.568882284
 30
0.0
 11
394.3708572659
 21
592.0281211708
 31
0.0
  0
SPLINE
  5
2E5
330
1F
100
AcDbEntity
  8
0
  6
Continuous
 62
     7
370
    15
100
AcDbSpline
210
0.0
220
0.0
230
1.0
 70
     8
 71
     3
 72
    11
 73
     7
 74
     0
 42
0.00000001
 43
0.00000001
 40
0.0
 40
0.0
 40
0.0
 40
0.0
 40
0.120759325720469
 40
0.4133934097010463
 40
0.7063567125143827
 40
1.0
 40
1.0
 40
1.0
 40
1.0
 10
396.4191410812913
 20
571.405450520321
 30
0.0
 10
396.4290643296417
 20
571.3071499130067
 30
0.0
 10
396.4630344221908
 20
570.9706390639201
 30
0.0
 10
396.5103923807558
 20
570.5017310947156
 30
0.0
 10
396.5532781868879
 20
570.0769875337743
 30
0.0
 10
396.5608272899412
 20
570.0024473675987
 30
0.0
 10
396.5646062168657
 20
569.965134081646
 30
0.0
  0
LINE
  5
2E6
330
1F
100
AcDbEntity
  8
0
  6
Continuous
 62
     7
370
    15
100
AcDbLine
 10
394.7473202023
 20
622.4308709476
 30
0.0
 11
393.9955566201
 21
622.1572558258
 31
0.0
  0
LINE
  5
2E7
330
1F
100
AcDbEntity
  8
0
  6
Continuous
 62
     7
370
    15
100
AcDbLine
 10
400.1955572638
 20
621.4308689211
 30
0.0
 11
399.8955670867
 21
621.4308689211
 31
0.0
  0
LINE
  5
2E8
330
1F
100
AcDbEntity
  8
0
  6
Continuous
 62
     7
370
    15
100
AcDbLine
 10
399.8955670867
 20
620.4308668945
 30
0.0
 11
399.7955653939
 21
620.4308668945
 31
0.0
  0
LINE
  5
2E9
330
1F
100
AcDbEntity
  8
0
  6
Continuous
 62
     7
370
    15
100
AcDbLine
 10
399.7955653939
 20
614.4308696363
 30
0.0
 11
399.8955670867
 21
614.4308696363
 31
0.0
  0
LINE
  5
2EA
330
1F
100
AcDbEntity
  8
0
  6
Continuous
 62
     7
370
    15
100
AcDbLine
 10
399.8955670867
 20
597.4308649872
 30
0.0
 11
399.7955653939
 21
597.4308649872
 31
0.0
  0
LINE
  5
2EB
330
1F
100
AcDbEntity
  8
0
  6
Continuous
 62
     7
370
    15
100
AcDbLine
 10
399.7955653939
 20
591.430867729
 30
0.0
 11
399.8955670867
 21
591.430867729
 31
0.0
  0
LINE
  5
2EC
330
1F
100
AcDbEntity
  8
0
  6
Continuous
 62
     7
370
    15
100
AcDbLine
 10
800.1955632243
 20
560.4308645103
 30
0.0
 11
785.1955626282
 21
560.4308645103
 31
0.0
  0
ARC
  5
2ED
330
1F
100
AcDbEntity
  8
0
  6
Continuous
 62
     7
370
    15
100
AcDbCircle
 10
785.195560244
 20
560.4308676575
 30
0.0
 40
15.00000000000011
100
AcDbArc
 50
270.0
 51
0.0
  0
LINE
  5
2EE
330
1F
100
AcDbEntity
  8
0
  6
Continuous
 62
     7
370
    15
100
AcDbLine
 10
785.1955626282
 20
560.4308645103
 30
0.0
 11
785.1955626282
 21
545.4308639143
 31
0.0
  0
LINE
  5
2EF
330
1F
100
AcDbEntity
  8
0
  6
Continuous
 62
     7
370
    15
100
AcDbLine
 10
785.1955626282
 20
565.4308746431
 30
0.0
 11
785.1955626282
 21
560.4308645103
 31
0.0
  0
LINE
  5
2F0
330
1F
100
AcDbEntity
  8
0
  6
Continuous
 62
     7
370
    15
100
AcDbLine
 10
800.1955632243
 20
565.4308746431
 30
0.0
 11
785.1955626282
 21
565.4308746431
 31
0.0
  0
LINE
  5
2F1
330
1F
100
AcDbEntity
  8
0
  6
Continuous
 62
     7
370
    15
100
AcDbLine
 10
800.1955632243
 20
565.4308746431
 30
0.0
 11
800.1955632243
 21
560.4308645103
 31
0.0
  0
LINE
  5
2F2
330
1F
100
AcDbEntity
  8
0
  6
Continuous
 62
     7
370
    15
100
AcDbLine
 10
785.1955626282
 20
560.4308645103
 30
0.0
 11
415.1955578599
 21
560.4308645103
 31
0.0
  0
LINE
  5
2F3
330
1F
100
AcDbEntity
  8
0
  6
Continuous
 62
     7
370
    15
100
AcDbLine
 10
415.1955578599
 20
565.4308746431
 30
0.0
 11
415.1955578599
 21
560.4308645103
 31
0.0
  0
LINE
  5
2F4
330
1F
100
AcDbEntity
  8
0
  6
Continuous
 62
     7
370
    15
100
AcDbLine
 10
785.1955626282
 20
565.4308746431
 30
0.0
 11
415.1955578599
 21
565.4308746431
 31
0.0
  0
LINE
  5
2F5
330
1F
100
AcDbEntity
  8
0
  6
Continuous
 62
     7
370
    15
100
AcDbLine
 10
785.1955626282
 20
545.4308639143
 30
0.0
 11
415.1955578599
 21
545.4308639143
 31
0.0
  0
LINE
  5
2F6
330
1F
100
AcDbEntity
  8
0
  6
Continuous
 62
     7
370
    15
100
AcDbLine
 10
415.1955578599
 20
545.4308639143
 30
0.0
 11
415.1955578599
 21
560.4308645103
 31
0.0
  0
ARC
  5
2F7
330
1F
100
AcDbEntity
  8
0
  6
Continuous
 62
     7
370
    15
100
AcDbCircle
 10
415.195560244
 20
560.4308676575
 30
0.0
 40
15.0
100
AcDbArc
 50
180.0
 51
270.0
  0
LINE
  5
2F8
330
1F
100
AcDbEntity
  8
0
  6
Continuous
 62
     7
370
    15
100
AcDbLine
 10
400.1955572638
 20
560.4308645103
 30
0.0
 11
415.1955578599
 21
560.4308645103
 31
0.0
  0
LINE
  5
2F9
330
1F
100
AcDbEntity
  8
0
  6
Continuous
 62
     7
370
    15
100
AcDbLine
 10
400.1955572638
 20
565.4308746431
 30
0.0
 11
400.1955572638
 21
560.4308645103
 31
0.0
  0
LINE
  5
2FA
330
1F
100
AcDbEntity
  8
0
  6
Continuous
 62
     7
370
    15
100
AcDbLine
 10
400.1955572638
 20
565.4308746431
 30
0.0
 11
415.1955578599
 21
565.4308746431
 31
0.0
  0
LINE
  5
2FB
330
1F
100
AcDbEntity
  8
0
  6
Continuous
 62
     7
370
    15
100
AcDbLine
 10
398.9955667529
 20
563.4486327742
 30
0.0
 11
400.1955572638
 21
563.4486327742
 31
0.0
  0
LINE
  5
2FC
330
1F
100
AcDbEntity
  8
0
  6
Continuous
 62
     7
370
    15
100
AcDbLine
 10
398.9955667529
 20
561.3446633194
 30
0.0
 11
400.1955572638
 21
561.3446633194
 31
0.0
  0
LINE
  5
2FD
330
1F
100
AcDbEntity
  8
0
  6
Continuous
 62
     7
370
    15
100
AcDbLine
 10
398.9955667529
 20
561.3446633194
 30
0.0
 11
398.9955667529
 21
563.4486327742
 31
0.0
  0
LINE
  5
2FE
330
1F
100
AcDbEntity
  8
0
  6
Continuous
 62
     7
370
    15
100
AcDbLine
 10
398.9955667529
 20
568.4308658216
 30
0.0
 11
400.1955572638
 21
568.4308658216
 31
0.0
  0
LINE
  5
2FF
330
1F
100
AcDbEntity
  8
0
  6
Continuous
 62
     7
370
    15
100
AcDbLine
 10
400.1955572638
 20
565.4308746431
 30
0.0
 11
400.1955572638
 21
568.4308658216
 31
0.0
  0
LINE
  5
300
330
1F
100
AcDbEntity
  8
0
  6
Continuous
 62
     7
370
    15
100
AcDbLine
 10
398.9955667529
 20
568.4308658216
 30
0.0
 11
398.9955667529
 21
563.4486327742
 31
0.0
  0
LINE
  5
301
330
1F
100
AcDbEntity
  8
0
  6
Continuous
 62
     7
370
    15
100
AcDbLine
 10
400.1955572638
 20
560.4308645103
 30
0.0
 11
400.1955572638
 21
556.930864868
 31
0.0
  0
LINE
  5
302
330
1F
100
AcDbEntity
  8
0
  6
Continuous
 62
     7
370
    15
100
AcDbLine
 10
398.9955667529
 20
556.930864868
 30
0.0
 11
398.9955667529
 21
561.3446633194
 31
0.0
  0
LINE
  5
303
330
1F
100
AcDbEntity
  8
0
  6
Continuous
 62
     7
370
    15
100
AcDbLine
 10
398.8955650601
 20
559.4308624838
 30
0.0
 11
398.8955650601
 21
565.4308746431
 31
0.0
  0
LINE
  5
304
330
1F
100
AcDbEntity
  8
0
  6
Continuous
 62
     7
370
    15
100
AcDbLine
 10
392.878103641
 20
568.6812500332
 30
0.0
 11
396.4215401682
 21
571.4002351139
 31
0.0
  0
LINE
  5
305
330
1F
100
AcDbEntity
  8
0
  6
Continuous
 62
     7
370
    15
100
AcDbLine
 10
392.1475891146
 20
569.6332703207
 30
0.0
 11
392.878103641
 21
568.6812500332
 31
0.0
  0
LINE
  5
306
330
1F
100
AcDbEntity
  8
0
  6
Continuous
 62
     7
370
    15
100
AcDbLine
 10
395.6910256419
 20
572.3522554014
 30
0.0
 11
392.1475891146
 21
569.6332703207
 31
0.0
  0
ARC
  5
307
330
1F
100
AcDbEntity
  8
0
  6
Continuous
 62
     7
370
    15
100
AcDbCircle
 10
397.395560244
 20
570.1308676575
 30
0.0
 40
2.800000000000009
100
AcDbArc
 50
0.0
 51
45.4024529621
  0
LINE
  5
308
330
1F
100
AcDbEntity
  8
0
  6
Continuous
 62
     7
370
    15
100
AcDbLine
 10
396.2879065547
 20
572.7024624918
 30
0.0
 11
395.6910256419
 21
572.3522554014
 31
0.0
  0
LINE
  5
309
330
1F
100
AcDbEntity
  8
0
  6
Continuous
 62
     7
370
    15
100
AcDbLine
 10
400.1955572638
 20
568.4308658216
 30
0.0
 11
400.1955572638
 21
569.4308678482
 31
0.0
  0
LINE
  5
30A
330
1F
100
AcDbEntity
  8
0
  6
Continuous
 62
     7
370
    15
100
AcDbLine
 10
398.9955667529
 20
569.0718094681
 30
0.0
 11
398.9955667529
 21
568.4308658216
 31
0.0
  0
LINE
  5
30B
330
1F
100
AcDbEntity
  8
0
  6
Continuous
 62
     7
370
    15
100
AcDbLine
 10
391.9260684523
 20
567.9507355068
 30
0.0
 11
391.1955539259
 21
568.9027557943
 31
0.0
  0
LWPOLYLINE
  5
30C
330
1F
100
AcDbEntity
  8
0
  6
Continuous
 62
     7
370
    15
100
AcDbPolyline
 90
        9
 70
   128
 43
0.0
 10
391.1955539259
 20
568.9027557943
 10
391.2138525519
 20
568.9167926882
 10
391.268033174
 20
568.9583669279
 10
391.3560096297
 20
569.0258840893
 10
391.4743993554
 20
569.1167215679
 10
391.618672398
 20
569.2274222944
 10
391.7832557234
 20
569.3537245367
 10
391.9618461403
 20
569.490755615
 10
392.1475891146
 20
569.6332703207
  0
LWPOLYLINE
  5
30D
330
1F
100
AcDbEntity
  8
0
  6
Continuous
 62
     7
370
    15
100
AcDbPolyline
 90
        9
 70
   128
 43
0.0
 10
392.878103641
 20
568.6812500332
 10
392.6923606667
 20
568.5387353275
 10
392.5137702498
 20
568.4017042492
 10
392.3491869244
 20
568.2754020069
 10
392.2049138817
 20
568.1647012804
 10
392.0865241561
 20
568.0738489006
 10
391.9985477004
 20
568.0063466404
 10
391.9443670783
 20
567.9647724007
 10
391.9260684523
 20
567.9507355068
  0
SPLINE
  5
30E
330
1F
100
AcDbEntity
  8
0
  6
Continuous
 62
     7
370
    15
100
AcDbSpline
210
0.0
220
0.0
230
1.0
 70
     8
 71
     3
 72
    12
 73
     8
 74
     0
 42
0.00000001
 43
0.00000001
 40
0.0
 40
0.0
 40
0.0
 40
0.0
 40
0.2340515608573606
 40
0.4681087470943003
 40
0.702165569279494
 40
0.9362172045571531
 40
1.0
 40
1.0
 40
1.0
 40
1.0
 10
396.4925442013322
 20
587.1079812620126
 30
0.0
 10
396.2961511444518
 20
587.0886025629379
 30
0.0
 10
395.9033603104255
 20
587.0498446990258
 30
0.0
 10
395.3658636035686
 20
587.0445886778178
 30
0.0
 10
394.9923621799279
 20
587.0830705437415
 30
0.0
 10
394.8131680578027
 20
587.1377332197104
 30
0.0
 10
394.8418868679605
 20
587.1816870066273
 30
0.0
 10
394.848037150818
 20
587.1910999391519
 30
0.0
  0
SPLINE
  5
30F
330
1F
100
AcDbEntity
  8
0
  6
Continuous
 62
     7
370
    15
100
AcDbSpline
210
0.0
220
0.0
230
1.0
 70
     8
 71
     3
 72
    11
 73
     7
 74
     0
 42
0.00000001
 43
0.00000001
 40
0.0
 40
0.0
 40
0.0
 40
0.0
 40
0.19868717225048
 40
0.4657937738740854
 40
0.7328967585510789
 40
1.0
 40
1.0
 40
1.0
 40
1.0
 10
397.7884534868775
 20
587.4868730876885
 30
0.0
 10
397.7872706522951
 20
587.4623794667334
 30
0.0
 10
397.7844976651025
 20
587.404957661333
 30
0.0
 10
397.5149589267105
 20
587.297884355871
 30
0.0
 10
397.0679114423417
 20
587.1870611223792
 30
0.0
 10
396.6843333431257
 20
587.1343412239149
 30
0.0
 10
396.4925442013322
 20
587.1079812620126
 30
0.0
  0
SPLINE
  5
310
330
1F
100
AcDbEntity
  8
0
  6
Continuous
 62
     7
370
    15
100
AcDbSpline
210
0.0
220
0.0
230
1.0
 70
     8
 71
     3
 72
    12
 73
     8
 74
     0
 42
0.00000001
 43
0.00000001
 40
0.0
 40
0.0
 40
0.0
 40
0.0
 40
0.2339647271648549
 40
0.4679283139645976
 40
0.7018968537062504
 40
0.9358627429943501
 40
1.0
 40
1.0
 40
1.0
 40
1.0
 10
395.885560301262
 20
593.1198547456704
 30
0.0
 10
395.6894800975347
 20
593.0973517336876
 30
0.0
 10
395.2973206457927
 20
593.0523458194037
 30
0.0
 10
394.7943863900095
 20
592.7048541761254
 30
0.0
 10
394.4745787908782
 20
592.2113619949016
 30
0.0
 10
394.3466494683127
 20
591.7577761482027
 30
0.0
 10
394.4044386405039
 20
591.5147831379511
 30
0.0
 10
394.416872051674
 20
591.4625028942071
 30
0.0
  0
SPLINE
  5
311
330
1F
100
AcDbEntity
  8
0
  6
Continuous
 62
     7
370
    15
100
AcDbSpline
210
0.0
220
0.0
230
1.0
 70
     8
 71
     3
 72
    11
 73
     7
 74
     0
 42
0.00000001
 43
0.00000001
 40
0.0
 40
0.0
 40
0.0
 40
0.0
 40
0.1976852097385363
 40
0.4651245869200603
 40
0.7325583026066619
 40
1.0
 40
1.0
 40
1.0
 40
1.0
 10
397.355783370453
 20
591.7695711229287
 30
0.0
 10
397.337502505787
 20
591.9143193583178
 30
0.0
 10
397.2944902863219
 20
592.254890933105
 30
0.0
 10
396.9690367706737
 20
592.7046666312004
 30
0.0
 10
396.4757387717176
 20
593.052395729399
 30
0.0
 10
396.0822884151751
 20
593.097368183212
 30
0.0
 10
395.885560301262
 20
593.1198547456704
 30
0.0
  0
SPLINE
  5
312
330
1F
100
AcDbEntity
  8
0
  6
Continuous
 62
     7
370
    15
100
AcDbSpline
210
0.0
220
0.0
230
1.0
 70
     8
 71
     3
 72
    12
 73
     8
 74
     0
 42
0.00000001
 43
0.00000001
 40
0.0
 40
0.0
 40
0.0
 40
0.0
 40
0.2350187323561774
 40
0.4700313097903079
 40
0.7050488254647164
 40
0.9400629699996629
 40
1.0
 40
1.0
 40
1.0
 40
1.0
 10
398.0616215738832
 20
571.5670089099847
 30
0.0
 10
397.8652307897528
 20
571.5476309501621
 30
0.0
 10
397.4724543647841
 20
571.5088755380077
 30
0.0
 10
396.934846817909
 20
571.5036072368607
 30
0.0
 10
396.5617835498219
 20
571.5421324201468
 30
0.0
 10
396.3827395401005
 20
571.5962537567042
 30
0.0
 10
396.4106401729007
 20
571.6395550856244
 30
0.0
 10
396.4163098606645
 20
571.6483543489419
 30
0.0
  0
SPLINE
  5
313
330
1F
100
AcDbEntity
  8
0
  6
Continuous
 62
     7
370
    15
100
AcDbSpline
210
0.0
220
0.0
230
1.0
 70
     8
 71
     3
 72
    11
 73
     7
 74
     0
 42
0.00000001
 43
0.00000001
 40
0.0
 40
0.0
 40
0.0
 40
0.0
 40
0.1989193009382574
 40
0.4659478716240108
 40
0.7329728264197857
 40
1.0
 40
1.0
 40
1.0
 40
1.0
 10
399.3575755629121
 20
571.946005043789
 30
0.0
 10
399.3564011911566
 20
571.921478551993
 30
0.0
 10
399.3536503468823
 20
571.864027783783
 30
0.0
 10
399.0840459944563
 20
571.7569120202534
 30
0.0
 10
398.6369841999089
 20
571.6460883592603
 30
0.0
 10
398.2534096470941
 20
571.5933687994197
 30
0.0
 10
398.0616215738832
 20
571.5670089099847
 30
0.0
  0
ARC
  5
314
330
1F
100
AcDbEntity
  8
0
  6
Continuous
 62
     7
370
    15
100
AcDbCircle
 10
399.2628494428
 20
581.8686384642
 30
0.0
 40
0.4000075441357933
100
AcDbArc
 50
0.1480060145
 51
179.5019472847
  0
ELLIPSE
  5
315
330
1F
100
AcDbEntity
  8
0
  6
Continuous
 62
     7
370
    15
100
AcDbEllipse
 10
399.2628596444
 20
581.6037592637
 30
0.0
 11
0.3991830274372887
 21
-0.02624604221136906
 31
0.0
210
0.0
220
0.0
230
1.0
 40
0.9763157485
 41
0.0
 42
6.283185307179586
  0
SPLINE
  5
316
330
1F
100
AcDbEntity
  8
0
  6
Continuous
 62
     7
370
    15
100
AcDbSpline
210
0.0
220
0.0
230
1.0
 70
     8
 71
     3
 72
    13
 73
     9
 74
     0
 42
0.00000001
 43
0.00000001
 40
0.0
 40
0.0
 40
0.0
 40
0.0
 40
0.0081674924330527
 40
0.2391534862150625
 40
0.4711030827534204
 40
0.6931285922679031
 40
0.9042375251354532
 40
1.0
 40
1.0
 40
1.0
 40
1.0
 10
399.262863782364
 20
582.332591233059
 30
0.0
 10
399.2612048702803
 20
582.3321989664908
 30
0.0
 10
399.2126300339526
 20
582.320712954342
 30
0.0
 10
399.1165186370703
 20
582.2974248006541
 30
0.0
 10
398.9936801094183
 20
582.2538041561589
 30
0.0
 10
398.9080279029542
 20
582.2163602045
 30
0.0
 10
398.8640113803011
 20
582.1951964277681
 30
0.0
 10
398.8672428250495
 20
582.1902266805389
 30
0.0
 10
398.8682512316286
 20
582.1886758182488
 30
0.0
  0
SPLINE
  5
317
330
1F
100
AcDbEntity
  8
0
  6
Continuous
 62
     7
370
    15
100
AcDbSpline
210
0.0
220
0.0
230
1.0
 70
     8
 71
     3
 72
    13
 73
     9
 74
     0
 42
0.00000001
 43
0.00000001
 40
0.0
 40
0.0
 40
0.0
 40
0.0
 40
0.1252341819125004
 40
0.2499826518092939
 40
0.4999856190845975
 40
0.7499975939421724
 40
0.8747560349490069
 40
1.0
 40
1.0
 40
1.0
 40
1.0
 10
399.6628705534517
 20
582.326898989483
 30
0.0
 10
399.6611561781266
 20
582.3269209814314
 30
0.0
 10
399.6577340765611
 20
582.3269648800338
 30
0.0
 10
399.6233568153727
 20
582.3274769155036
 30
0.0
 10
399.548067365422
 20
582.3285257204884
 30
0.0
 10
399.4394277875349
 20
582.3300834548204
 30
0.0
 10
399.3407157980033
 20
582.3314791859248
 30
0.0
 10
399.2888480313177
 20
582.3322200710621
 30
0.0
 10
399.262863782364
 20
582.332591233059
 30
0.0
  0
SPLINE
  5
318
330
1F
100
AcDbEntity
  8
0
  6
Continuous
 62
     7
370
    15
100
AcDbSpline
210
0.0
220
0.0
230
1.0
 70
     8
 71
     3
 72
    10
 73
     6
 74
     0
 42
0.00000001
 43
0.00000001
 40
0.0
 40
0.0
 40
0.0
 40
0.0
 40
0.0190227725338933
 40
0.5253139011644135
 40
1.0
 40
1.0
 40
1.0
 40
1.0
 10
399.262863782364
 20
582.332591233059
 30
0.0
 10
399.2643881101596
 20
582.3333314569388
 30
0.0
 10
399.3064824252509
 20
582.3537727408424
 30
0.0
 10
399.3890429692303
 20
582.3921065825285
 30
0.0
 10
399.4591885888769
 20
582.4182256218284
 30
0.0
 10
399.4931314262926
 20
582.4308643911324
 30
0.0
  0
LINE
  5
319
330
1F
100
AcDbEntity
  8
0
  6
Continuous
 62
     7
370
    15
100
AcDbLine
 10
394.3863395724
 20
591.5718327139
 30
0.0
 11
394.3987969431
 21
591.4210627649
 31
0.0
  0
LINE
  5
31A
330
1F
100
AcDbEntity
  8
0
  6
Continuous
 62
     7
370
    15
100
AcDbLine
 10
397.3785672459
 20
591.7645643328
 30
0.0
 11
397.342983273
 21
591.9747303102
 31
0.0
  0
ARC
  5
31B
330
1F
100
AcDbEntity
  8
0
  6
Continuous
 62
     7
370
    15
100
AcDbCircle
 10
395.295560244
 20
585.4508676575
 30
0.0
 40
2.200000000000049
100
AcDbArc
 50
103.5934783353
 51
268.1042765976
  0
LINE
  5
31C
330
1F
100
AcDbEntity
  8
0
  6
Continuous
 62
     7
370
    15
100
AcDbLine
 10
391.7487297329
 20
586.8286291931
 30
0.0
 11
392.0823816332
 21
588.7208680485
 31
0.0
  0
LWPOLYLINE
  5
31D
330
1F
100
AcDbEntity
  8
0
  6
Continuous
 62
     7
370
    15
100
AcDbPolyline
 90
        9
 70
   128
 43
0.0
 10
392.0823816332
 20
588.7208680485
 10
391.9381383929
 20
588.7463043306
 10
391.8011073145
 20
588.7704591129
 10
391.6759971652
 20
588.7925277327
 10
391.5671441826
 20
588.8117204283
 10
391.4783183608
 20
588.8273815487
 10
391.4125893387
 20
588.8389746521
 10
391.3722220931
 20
588.846082506
 10
391.3586024317
 20
588.8484964941
  0
LINE
  5
31E
330
1F
100
AcDbEntity
  8
0
  6
Continuous
 62
     7
370
    15
100
AcDbLine
 10
391.3586024317
 20
588.8484964941
 30
0.0
 11
395.7336429629
 21
613.6605988119
 31
0.0
  0
LWPOLYLINE
  5
31F
330
1F
100
AcDbEntity
  8
0
  6
Continuous
 62
     7
370
    15
100
AcDbPolyline
 90
        9
 70
   128
 43
0.0
 10
395.7336429629
 20
613.6605988119
 10
395.7487825427
 20
613.6579315041
 10
395.7936201367
 20
613.6500189875
 10
395.8664272103
 20
613.6371890877
 10
395.9644023451
 20
613.6199186418
 10
396.0837904486
 20
613.5988633011
 10
396.2200019631
 20
613.5748426292
 10
396.3677916798
 20
613.5487804983
 10
396.5214971575
 20
613.5216752861
  0
LINE
  5
320
330
1F
100
AcDbEntity
  8
0
  6
Continuous
 62
     7
370
    15
100
AcDbLine
 10
396.5214971575
 20
613.5216752861
 30
0.0
 11
391.6961584363
 21
586.1558715675
 31
0.0
  0
LINE
  5
321
330
1F
100
AcDbEntity
  8
0
  6
Continuous
 62
     7
370
    15
100
AcDbLine
 10
391.6961584363
 20
586.1558715675
 30
0.0
 11
391.7487297329
 21
586.8286291931
 31
0.0
  0
LWPOLYLINE
  5
322
330
1F
100
AcDbEntity
  8
0
  6
Continuous
 62
     7
370
    15
100
AcDbPolyline
 90
        5
 70
   128
 43
0.0
 10
394.5809487376
 20
620.5489287947
 10
394.3274650845
 20
621.2453345631
 10
394.1439125809
 20
621.7496494625
 10
394.0327797207
 20
622.0550040577
 10
393.9955566201
 20
622.1572558258
  0
LWPOLYLINE
  5
323
330
1F
100
AcDbEntity
  8
0
  6
Continuous
 62
     7
370
    15
100
AcDbPolyline
 90
        5
 70
   128
 43
0.0
 10
395.3405652318
 20
620.8009074305
 10
395.0837288174
 20
621.5065817211
 10
394.8976878199
 20
622.0177064512
 10
394.7850350413
 20
622.3272184704
 10
394.7473202023
 20
622.4308709476
  0
LINE
  5
324
330
1F
100
AcDbEntity
  8
0
  6
Continuous
 62
     7
370
    15
100
AcDbLine
 10
395.5626670394
 20
620.4464684103
 30
0.0
 11
395.3405652318
 21
620.8009074305
 31
0.0
  0
LINE
  5
325
330
1F
100
AcDbEntity
  8
0
  6
Continuous
 62
     7
370
    15
100
AcDbLine
 10
395.4804722342
 20
620.4165468786
 30
0.0
 11
395.5626670394
 21
620.4464684103
 31
0.0
  0
SPLINE
  5
326
330
1F
100
AcDbEntity
  8
0
  6
Continuous
 62
     7
370
    15
100
AcDbSpline
210
0.0
220
0.0
230
1.0
 70
     8
 71
     3
 72
    12
 73
     8
 74
     0
 42
0.00000001
 43
0.00000001
 40
0.0
 40
0.0
 40
0.0
 40
0.0
 40
0.2510171967448785
 40
0.5023980142766835
 40
0.7402747889406065
 40
0.9473067283745789
 40
1.0
 40
1.0
 40
1.0
 40
1.0
 10
394.5809487375795
 20
620.5489287946664
 30
0.0
 10
394.6086585809163
 20
620.5046105436422
 30
0.0
 10
394.6641184077683
 20
620.4159098426566
 30
0.0
 10
394.8711074450148
 20
620.3409244896187
 30
0.0
 10
395.1325032899879
 20
620.3294161345054
 30
0.0
 10
395.3490838081902
 20
620.3710649584481
 30
0.0
 10
395.4583119383085
 20
620.4088757858185
 30
0.0
 10
395.4804722342073
 20
620.4165468786202
 30
0.0
  0
LINE
  5
327
330
1F
100
AcDbEntity
  8
0
  6
Continuous
 62
     7
370
    15
100
AcDbLine
 10
395.4804722342
 20
620.4165468786
 30
0.0
 11
396.0568044457
 21
618.8330600832
 31
0.0
  0
LWPOLYLINE
  5
328
330
1F
100
AcDbEntity
  8
0
  6
Continuous
 62
     7
370
    15
100
AcDbPolyline
 90
        9
 70
   128
 43
0.0
 10
395.3050557646
 20
618.5594449614
 10
395.3194949898
 20
618.5647050713
 10
395.3622762236
 20
618.5802767847
 10
395.4317454371
 20
618.6055640552
 10
395.5252353224
 20
618.6395834063
 10
395.6391546998
 20
618.6810533379
 10
395.7691226277
 20
618.7283645246
 10
395.9101472172
 20
618.7796841238
 10
396.0568044457
 20
618.8330600832
  0
LINE
  5
329
330
1F
100
AcDbEntity
  8
0
  6
Continuous
 62
     7
370
    15
100
AcDbLine
 10
395.3050557646
 20
618.5594449614
 30
0.0
 11
394.5809487376
 21
620.5489287947
 31
0.0
  0
ARC
  5
32A
330
1F
100
AcDbEntity
  8
0
  6
Continuous
 62
     7
370
    15
100
AcDbCircle
 10
395.8855657502
 20
591.6198585759
 30
0.0
 40
1.600000000000067
100
AcDbArc
 50
347.034367059
 51
204.5950707184
  0
ARC
  5
32B
330
1F
100
AcDbEntity
  8
0
  6
Continuous
 62
     7
370
    15
100
AcDbCircle
 10
396.3982747154
 20
619.6429325118
 30
0.0
 40
0.500000000000036
100
AcDbArc
 50
36.8410865503
 51
90.0
  0
LINE
  5
32C
330
1F
100
AcDbEntity
  8
0
  6
Continuous
 62
     7
370
    15
100
AcDbLine
 10
398.6955616746
 20
614.2465571735
 30
0.0
 11
398.6955616746
 21
586.2208704327
 31
0.0
  0
ARC
  5
32D
330
1F
100
AcDbEntity
  8
0
  6
Continuous
 62
     7
370
    15
100
AcDbCircle
 10
386.3779732035
 20
615.3102581258
 30
0.0
 40
10.30000000000018
100
AcDbArc
 50
350.0
 51
20.0
  0
LINE
  5
32E
330
1F
100
AcDbEntity
  8
0
  6
Continuous
 62
     7
370
    15
100
AcDbLine
 10
396.280262259
 20
620.1429317568
 30
0.0
 11
396.3982794556
 21
620.1429317568
 31
0.0
  0
ARC
  5
32F
330
1F
100
AcDbEntity
  8
0
  6
Continuous
 62
     7
370
    15
100
AcDbCircle
 10
396.2802621698
 20
621.1429325118
 30
0.0
 40
1.0
100
AcDbArc
 50
224.1440002858
 51
270.0
  0
ARC
  5
330
330
1F
100
AcDbEntity
  8
0
  6
Continuous
 62
     7
370
    15
100
AcDbCircle
 10
389.195560244
 20
614.2465537034
 30
0.0
 40
9.5
100
AcDbArc
 50
0.0
 51
36.8410865502
  0
LWPOLYLINE
  5
331
330
1F
100
AcDbEntity
  8
0
  6
Continuous
 62
     7
370
    15
100
AcDbPolyline
 90
        3
 70
   128
 43
0.0
 10
398.6955616746
 20
586.2208704327
 10
398.4869454178
 20
585.0305805777
 10
398.130777863
 20
584.3144307707
  0
ARC
  5
332
330
1F
100
AcDbEntity
  8
0
  6
Continuous
 62
     7
370
    15
100
AcDbCircle
 10
395.195560244
 20
586.2208676575
 30
0.0
 40
3.50000000000001
100
AcDbArc
 50
181.0639402281
 51
271.3221928089
  0
ARC
  5
333
330
1F
100
AcDbEntity
  8
0
  6
Continuous
 62
     7
370
    15
100
AcDbCircle
 10
386.3779732035
 20
615.3102581258
 30
0.0
 40
9.500000000000059
100
AcDbArc
 50
350.0
 51
20.0
  0
ARC
  5
334
330
1F
100
AcDbEntity
  8
0
  6
Continuous
 62
     7
370
    15
100
AcDbCircle
 10
395.7891780374
 20
586.9183631843
 30
0.0
 40
4.69842830268837
100
AcDbArc
 50
170.0
 51
264.3261771657
  0
LINE
  5
335
330
1F
100
AcDbEntity
  8
0
  6
Continuous
 62
     7
370
    15
100
AcDbLine
 10
391.3586024317
 20
588.8484964941
 30
0.0
 11
391.1621306214
 21
587.7342323635
 31
0.0
  0
LINE
  5
336
330
1F
100
AcDbEntity
  8
0
  6
Continuous
 62
     7
370
    15
100
AcDbLine
 10
785.1955626282
 20
780.4308679749
 30
0.0
 11
415.1955578599
 21
780.4308679749
 31
0.0
  0
LINE
  5
337
330
1F
100
AcDbEntity
  8
0
  6
Continuous
 62
     7
370
    15
100
AcDbLine
 10
415.1955578599
 20
780.4308679749
 30
0.0
 11
415.1955578599
 21
795.4308676396
 31
0.0
  0
LINE
  5
338
330
1F
100
AcDbEntity
  8
0
  6
Continuous
 62
     7
370
    15
100
AcDbLine
 10
785.1955626282
 20
795.4308676396
 30
0.0
 11
415.1955578599
 21
795.4308676396
 31
0.0
  0
LINE
  5
339
330
1F
100
AcDbEntity
  8
0
  6
Continuous
 62
     7
370
    15
100
AcDbLine
 10
785.1955626282
 20
780.4308679749
 30
0.0
 11
785.1955626282
 21
795.4308676396
 31
0.0
  0
LINE
  5
33A
330
1F
100
AcDbEntity
  8
0
  6
Continuous
 62
     7
370
    15
100
AcDbLine
 10
415.1955578599
 20
780.4308679749
 30
0.0
 11
400.1955572638
 21
780.4308679749
 31
0.0
  0
ARC
  5
33B
330
1F
100
AcDbEntity
  8
0
  6
Continuous
 62
     7
370
    15
100
AcDbCircle
 10
415.195560244
 20
780.4308676575
 30
0.0
 40
15.0
100
AcDbArc
 50
90.0
 51
180.0
  0
LINE
  5
33C
330
1F
100
AcDbEntity
  8
0
  6
Continuous
 62
     7
370
    15
100
AcDbLine
 10
415.1955578599
 20
569.4308678482
 30
0.0
 11
415.1955578599
 21
780.4308679749
 31
0.0
  0
LINE
  5
33D
330
1F
100
AcDbEntity
  8
0
  6
Continuous
 62
     7
370
    15
100
AcDbLine
 10
415.1955578599
 20
569.4308678482
 30
0.0
 11
400.1955572638
 21
569.4308678482
 31
0.0
  0
LINE
  5
33E
330
1F
100
AcDbEntity
  8
0
  6
Continuous
 62
     7
370
    15
100
AcDbLine
 10
400.1955572638
 20
569.4308678482
 30
0.0
 11
400.1955572638
 21
780.4308679749
 31
0.0
  0
LINE
  5
33F
330
1F
100
AcDbEntity
  8
0
  6
Continuous
 62
     7
370
    15
100
AcDbLine
 10
785.1955626282
 20
780.4308679749
 30
0.0
 11
800.1955632243
 21
780.4308679749
 31
0.0
  0
ARC
  5
340
330
1F
100
AcDbEntity
  8
0
  6
Continuous
 62
     7
370
    15
100
AcDbCircle
 10
785.195560244
 20
780.4308676575
 30
0.0
 40
15.00000000000011
100
AcDbArc
 50
0.0
 51
90.0
  0
LINE
  5
341
330
1F
100
AcDbEntity
  8
0
  6
Continuous
 62
     7
370
    15
100
AcDbLine
 10
800.1955632243
 20
569.4308678482
 30
0.0
 11
800.1955632243
 21
780.4308679749
 31
0.0
  0
LINE
  5
342
330
1F
100
AcDbEntity
  8
0
  6
Continuous
 62
     7
370
    15
100
AcDbLine
 10
800.1955632243
 20
569.4308678482
 30
0.0
 11
785.1955626282
 21
569.4308678482
 31
0.0
  0
LINE
  5
343
330
1F
100
AcDbEntity
  8
0
  6
Continuous
 62
     7
370
    15
100
AcDbLine
 10
785.1955626282
 20
569.4308678482
 30
0.0
 11
785.1955626282
 21
780.4308679749
 31
0.0
  0
LINE
  5
344
330
1F
100
AcDbEntity
  8
0
  6
Continuous
 62
     7
370
    15
100
AcDbLine
 10
780.1955673966
 20
775.4308680866
 30
0.0
 11
420.1955530915
 21
775.4308680866
 31
0.0
  0
LINE
  5
345
330
1F
100
AcDbEntity
  8
0
  6
Continuous
 62
     7
370
    15
100
AcDbLine
 10
420.1955530915
 20
589.4308636759
 30
0.0
 11
420.1955530915
 21
775.4308680866
 31
0.0
  0
LINE
  5
346
330
1F
100
AcDbEntity
  8
0
  6
Continuous
 62
     7
370
    15
100
AcDbLine
 10
420.1955530915
 20
589.4308636759
 30
0.0
 11
780.1955673966
 21
589.4308636759
 31
0.0
  0
LINE
  5
347
330
1F
100
AcDbEntity
  8
0
  6
Continuous
 62
     7
370
    15
100
AcDbLine
 10
780.1955673966
 20
775.4308680866
 30
0.0
 11
780.1955673966
 21
589.4308636759
 31
0.0
  0
LINE
  5
348
330
1F
100
AcDbEntity
  8
0
  6
Continuous
 62
     7
370
    15
100
AcDbLine
 10
415.1955578599
 20
569.4308678482
 30
0.0
 11
785.1955626282
 21
569.4308678482
 31
0.0
  0
LINE
  5
349
330
1F
100
AcDbEntity
  8
0
  6
Continuous
 62
     7
370
    15
100
AcDbLine
 10
420.1955530915
 20
565.4308746431
 30
0.0
 11
420.1955530915
 21
569.4308678482
 31
0.0
  0
LINE
  5
34A
330
1F
100
AcDbEntity
  8
0
  6
Continuous
 62
     7
370
    15
100
AcDbLine
 10
405.1955673966
 20
565.4308746431
 30
0.0
 11
405.1955673966
 21
569.4308678482
 31
0.0
  0
LINE
  5
34B
330
1F
100
AcDbEntity
  8
0
  6
Continuous
 62
     7
370
    15
100
AcDbLine
 10
795.1955530915
 20
565.4308746431
 30
0.0
 11
795.1955530915
 21
569.4308678482
 31
0.0
  0
LINE
  5
34C
330
1F
100
AcDbEntity
  8
0
  6
Continuous
 62
     7
370
    15
100
AcDbLine
 10
780.1955673966
 20
565.4308746431
 30
0.0
 11
780.1955673966
 21
569.4308678482
 31
0.0
  0
ARC
  5
34D
330
1F
100
AcDbEntity
  8
0
  6
Continuous
 62
     7
370
    15
100
AcDbCircle
 10
800.6334113787
 20
564.9308676575
 30
0.0
 40
0.500000000000081
100
AcDbArc
 50
22.024312837
 51
90.0
  0
ARC
  5
34E
330
1F
100
AcDbEntity
  8
0
  6
Continuous
 62
     7
370
    15
100
AcDbCircle
 10
806.195560244
 20
567.1808676575
 30
0.0
 40
5.500000000000115
100
AcDbArc
 50
202.024312837
 51
152.720387264
  0
ARC
  5
34F
330
1F
100
AcDbEntity
  8
0
  6
Continuous
 62
     7
370
    15
100
AcDbCircle
 10
800.8628779921
 20
569.9308676575
 30
0.0
 40
0.5000000000000541
100
AcDbArc
 50
270.0
 51
332.720387264
  0
LINE
  5
350
330
1F
100
AcDbEntity
  8
0
  6
Continuous
 62
     7
370
    15
100
AcDbLine
 10
800.1955632243
 20
569.4308678482
 30
0.0
 11
800.862881926
 21
569.4308678482
 31
0.0
  0
LINE
  5
351
330
1F
100
AcDbEntity
  8
0
  6
Continuous
 62
     7
370
    15
100
AcDbLine
 10
800.6334040436
 20
565.4308746431
 30
0.0
 11
800.1955632243
 21
565.4308746431
 31
0.0
  0
LINE
  5
352
330
1F
100
AcDbEntity
  8
0
  6
Continuous
 62
     7
370
    15
100
AcDbLine
 10
399.8955670867
 20
588.6308650349
 30
0.0
 11
400.1955572638
 21
588.6319230173
 31
0.0
  0
LINE
  5
353
330
1F
100
AcDbEntity
  8
0
  6
Continuous
 62
     7
370
    15
100
AcDbLine
 10
400.1955572638
 20
590.630869088
 30
0.0
 11
399.8955670867
 21
590.630869088
 31
0.0
  0
LINE
  5
354
330
1F
100
AcDbEntity
  8
0
  6
Continuous
 62
     7
370
    15
100
AcDbLine
 10
399.8955670867
 20
588.6308650349
 30
0.0
 11
399.8955670867
 21
590.630869088
 31
0.0
  0
ARC
  5
355
330
1F
100
AcDbEntity
  8
0
  6
Continuous
 62
     7
370
    15
100
AcDbCircle
 10
394.995560244
 20
585.5308676575
 30
0.0
 40
3.100000000000136
100
AcDbArc
 50
192.3149284104
 51
270.0
  0
LINE
  5
356
330
1F
100
AcDbEntity
  8
0
  6
Continuous
 62
     7
370
    15
100
AcDbLine
 10
399.8955670867
 20
588.6308650349
 30
0.0
 11
398.6955616746
 21
588.6308650349
 31
0.0
  0
LINE
  5
357
330
1F
100
AcDbEntity
  8
0
  6
Continuous
 62
     7
370
    15
100
AcDbLine
 10
399.8955670867
 20
582.4308643911
 30
0.0
 11
399.8955670867
 21
588.6308650349
 31
0.0
  0
LINE
  5
358
330
1F
100
AcDbEntity
  8
0
  6
Continuous
 62
     7
370
    15
100
AcDbLine
 10
394.9955586466
 20
582.4308643911
 30
0.0
 11
395.3056965146
 21
582.4308643911
 31
0.0
  0
LINE
  5
359
330
1F
100
AcDbEntity
  8
0
  6
Continuous
 62
     7
370
    15
100
AcDbLine
 10
398.3209464821
 20
582.4308643911
 30
0.0
 11
399.8955670867
 21
582.4308643911
 31
0.0
  0
LINE
  5
35A
330
1F
100
AcDbEntity
  8
0
  6
Continuous
 62
     7
370
    15
100
AcDbLine
 10
400.1955572638
 20
582.4308643911
 30
0.0
 11
399.8955670867
 21
582.4308643911
 31
0.0
  0
LINE
  5
35B
330
1F
100
AcDbEntity
  8
0
  6
Continuous
 62
     7
370
    15
100
AcDbLine
 10
399.8955670867
 20
621.4308689211
 30
0.0
 11
399.8955670867
 21
614.6808664177
 31
0.0
  0
LINE
  5
35C
330
1F
100
AcDbEntity
  8
0
  6
Continuous
 62
     7
370
    15
100
AcDbLine
 10
399.8955670867
 20
590.630869088
 30
0.0
 11
399.8955670867
 21
614.6808664177
 31
0.0
  0
LINE
  5
35D
330
1F
100
AcDbEntity
  8
0
  6
Continuous
 62
     7
370
    15
100
AcDbLine
 10
399.7955653939
 20
614.4308696363
 30
0.0
 11
399.7955653939
 21
620.4308668945
 31
0.0
  0
LINE
  5
35E
330
1F
100
AcDbEntity
  8
0
  6
Continuous
 62
     7
370
    15
100
AcDbLine
 10
399.7955653939
 20
591.430867729
 30
0.0
 11
399.7955653939
 21
597.4308649872
 31
0.0
  0
LINE
  5
35F
330
1F
100
AcDbEntity
  8
0
  6
Continuous
 62
     7
370
    15
100
AcDbLine
 10
399.8955670867
 20
605.4308662985
 30
0.0
 11
398.6955616746
 21
605.7524035547
 31
0.0
  0
LINE
  5
360
330
1F
100
AcDbEntity
  8
0
  6
Continuous
 62
     7
370
    15
100
AcDbLine
 10
398.6955616746
 20
606.7876766298
 30
0.0
 11
399.8955670867
 21
606.4661393736
 31
0.0
  0
LINE
  5
361
330
1F
100
AcDbEntity
  8
0
  6
Continuous
 62
     8
370
    15
100
AcDbLine
 10
400.1955572638
 20
614.6808664177
 30
0.0
 11
399.8955670867
 21
614.6808664177
 31
0.0
  0
ENDSEC
  0
SECTION
  2
OBJECTS
  0
DICTIONARY
  5
C
330
0
100
AcDbDictionary
281
     1
  3
ACAD_GROUP
350
D
  3
ACAD_LAYOUT
350
1A
  3
ACAD_MLINESTYLE
350
17
  3
ACAD_PLOTSETTINGS
350
19
  3
ACAD_PLOTSTYLENAME
350
E
  0
DICTIONARY
  5
D
102
{ACAD_REACTORS
330
C
102
}
330
C
100
AcDbDictionary
281
     1
  0
DICTIONARY
  5
1A
102
{ACAD_REACTORS
330
C
102
}
330
C
100
AcDbDictionary
281
     1
  3
Layout1
350
1E
  3
Layout2
350
26
  3
Model
350
22
  0
DICTIONARY
  5
17
102
{ACAD_REACTORS
330
C
102
}
330
C
100
AcDbDictionary
281
     1
  3
Standard
350
18
  0
DICTIONARY
  5
19
102
{ACAD_REACTORS
330
C
102
}
330
C
100
AcDbDictionary
281
     1
  0
ACDBDICTIONARYWDFLT
  5
E
102
{ACAD_REACTORS
330
C
102
}
330
C
100
AcDbDictionary
281
     1
  3
Normal
350
F
100
AcDbDictionaryWithDefault
340
F
  0
LAYOUT
  5
1E
102
{ACAD_REACTORS
330
1A
102
}
330
1A
100
AcDbPlotSettings
  1

  2
none_device
  4

  6

 40
0.0
 41
0.0
 42
0.0
 43
0.0
 44
0.0
 45
0.0
 46
0.0
 47
0.0
 48
0.0
 49
0.0
140
0.0
141
0.0
142
1.0
143
1.0
 70
   688
 72
     0
 73
     0
 74
     5
  7

 75
    16
147
1.0
148
0.0
149
0.0
100
AcDbLayout
  1
Layout1
 70
     1
 71
     1
 10
0.0
 20
0.0
 11
420.0
 21
297.0
 12
0.0
 22
0.0
 32
0.0
 14
1.0000000000E+20
 24
1.0000000000E+20
 34
1.0000000000E+20
 15
-1.0000000000E+20
 25
-1.0000000000E+20
 35
-1.0000000000E+20
146
0.0
 13
0.0
 23
0.0
 33
0.0
 16
1.0
 26
0.0
 36
0.0
 17
0.0
 27
1.0
 37
0.0
 76
     0
330
1B
  0
LAYOUT
  5
26
102
{ACAD_REACTORS
330
1A
102
}
330
1A
100
AcDbPlotSettings
  1

  2
none_device
  4

  6

 40
0.0
 41
0.0
 42
0.0
 43
0.0
 44
0.0
 45
0.0
 46
0.0
 47
0.0
 48
0.0
 49
0.0
140
0.0
141
0.0
142
1.0
143
1.0
 70
   688
 72
     0
 73
     0
 74
     5
  7

 75
    16
147
1.0
148
0.0
149
0.0
100
AcDbLayout
  1
Layout2
 70
     1
 71
     2
 10
0.0
 20
0.0
 11
0.0
 21
0.0
 12
0.0
 22
0.0
 32
0.0
 14
0.0
 24
0.0
 34
0.0
 15
0.0
 25
0.0
 35
0.0
146
0.0
 13
0.0
 23
0.0
 33
0.0
 16
1.0
 26
0.0
 36
0.0
 17
0.0
 27
1.0
 37
0.0
 76
     0
330
23
  0
LAYOUT
  5
22
102
{ACAD_REACTORS
330
1A
102
}
330
1A
100
AcDbPlotSettings
  1

  2
none_device
  4

  6

 40
0.0
 41
0.0
 42
0.0
 43
0.0
 44
0.0
 45
0.0
 46
0.0
 47
0.0
 48
0.0
 49
0.0
140
0.0
141
0.0
142
1.0
143
1.0
 70
  1712
 72
     0
 73
     0
 74
     0
  7

 75
     0
147
1.0
148
0.0
149
0.0
100
AcDbLayout
  1
Model
 70
     1
 71
     0
 10
0.0
 20
0.0
 11
840.0
 21
594.0
 12
0.0
 22
0.0
 32
0.0
 14
0.0
 24
0.0
 34
0.0
 15
840.0
 25
594.0
 35
0.0
146
0.0
 13
0.0
 23
0.0
 33
0.0
 16
1.0
 26
0.0
 36
0.0
 17
0.0
 27
1.0
 37
0.0
 76
     0
330
1F
331
29
  0
MLINESTYLE
  5
18
102
{ACAD_REACTORS
330
17
102
}
330
17
100
AcDbMlineStyle
  2
Standard
 70
     0
  3

 62
   256
 51
90.0
 52
90.0
 71
     2
 49
0.5
 62
   256
  6
BYLAYER
 49
-0.5
 62
   256
  6
BYLAYER
  0
ACDBPLACEHOLDER
  5
F
102
{ACAD_REACTORS
330
E
102
}
330
E
  0
ENDSEC
  0
EOF
