  0
SECTION
  2
HEADER
  9
$ACADVER
  1
AC1015
  9
$ACADMAINTVER
 70
     6
  9
$DWGCODEPAGE
  3
DOS932
  9
$INSBASE
 10
0.0
 20
0.0
 30
0.0
  9
$EXTMIN
 10
0.0
 20
0.0
 30
0.0
  9
$EXTMAX
 10
840.0
 20
594.0
 30
0.0
  9
$LIMMIN
 10
0.0
 20
0.0
  9
$LIMMAX
 10
840.0
 20
594.0
  9
$ORTHOMODE
 70
     0
  9
$REGENMODE
 70
     1
  9
$FILLMODE
 70
     1
  9
$QTEXTMODE
 70
     0
  9
$MIRRTEXT
 70
     1
  9
$LTSCALE
 40
2.0
  9
$ATTMODE
 70
     1
  9
$TEXTSIZE
 40
7.0
  9
$TRACEWID
 40
1.0
  9
$TEXTSTYLE
  7
Standard
  9
$CLAYER
  8
0
  9
$CELTYPE
  6
ByLayer
  9
$CECOLOR
 62
   256
  9
$CELTSCALE
 40
1.0
  9
$DISPSILH
 70
     0
  9
$DIMSCALE
 40
1.0
  9
$DIMASZ
 40
6.0
  9
$DIMEXO
 40
2.0
  9
$DIMDLI
 40
3.75
  9
$DIMRND
 40
0.0
  9
$DIMDLE
 40
0.0
  9
$DIMEXE
 40
2.0
  9
$DIMTP
 40
0.0
  9
$DIMTM
 40
0.0
  9
$DIMTXT
 40
7.0
  9
$DIMCEN
 40
2.5
  9
$DIMTSZ
 40
0.0
  9
$DIMTOL
 70
     0
  9
$DIMLIM
 70
     0
  9
$DIMTIH
 70
     1
  9
$DIMTOH
 70
     1
  9
$DIMSE1
 70
     0
  9
$DIMSE2
 70
     0
  9
$DIMTAD
 70
     1
  9
$DIMZIN
 70
     0
  9
$DIMBLK
  1

  9
$DIMASO
 70
     1
  9
$DIMSHO
 70
     1
  9
$DIMPOST
  1

  9
$DIMAPOST
  1

  9
$DIMALT
 70
     0
  9
$DIMALTD
 70
     3
  9
$DIMALTF
 40
0.0393700787
  9
$DIMLFAC
 40
1.0
  9
$DIMTOFL
 70
     1
  9
$DIMTVP
 40
0.0
  9
$DIMTIX
 70
     0
  9
$DIMSOXD
 70
     0
  9
$DIMSAH
 70
     0
  9
$DIMBLK1
  1

  9
$DIMBLK2
  1

  9
$DIMSTYLE
  2
ISO-25
  9
$DIMCLRD
 70
     0
  9
$DIMCLRE
 70
     0
  9
$DIMCLRT
 70
     0
  9
$DIMTFAC
 40
1.0
  9
$DIMGAP
 40
3.048
  9
$DIMJUST
 70
     0
  9
$DIMSD1
 70
     0
  9
$DIMSD2
 70
     0
  9
$DIMTOLJ
 70
     0
  9
$DIMTZIN
 70
     0
  9
$DIMALTZ
 70
     0
  9
$DIMALTTZ
 70
     0
  9
$DIMUPT
 70
     0
  9
$DIMDEC
 70
     1
  9
$DIMTDEC
 70
     1
  9
$DIMALTU
 70
     2
  9
$DIMALTTD
 70
     3
  9
$DIMTXSTY
  7
Standard
  9
$DIMAUNIT
 70
     0
  9
$DIMADEC
 70
     2
  9
$DIMALTRND
 40
0.0
  9
$DIMAZIN
 70
     0
  9
$DIMDSEP
 70
    44
  9
$DIMATFIT
 70
     3
  9
$DIMFRAC
 70
     0
  9
$DIMLDRBLK
  1

  9
$DIMLUNIT
 70
     2
  9
$DIMLWD
 70
    -2
  9
$DIMLWE
 70
    -2
  9
$DIMTMOVE
 70
     0
  9
$LUNITS
 70
     2
  9
$LUPREC
 70
     1
  9
$SKETCHINC
 40
1.0
  9
$FILLETRAD
 40
10.0
  9
$AUNITS
 70
     0
  9
$AUPREC
 70
     2
  9
$MENU
  1
.
  9
$ELEVATION
 40
0.0
  9
$PELEVATION
 40
0.0
  9
$THICKNESS
 40
0.0
  9
$LIMCHECK
 70
     0
  9
$CHAMFERA
 40
10.0
  9
$CHAMFERB
 40
10.0
  9
$CHAMFERC
 40
20.0
  9
$CHAMFERD
 40
0.0
  9
$SKPOLY
 70
     0
  9
$TDCREATE
 40
2460451.604467164
  9
$TDUCREATE
 40
2460451.229467164
  9
$TDUPDATE
 40
2460451.604467176
  9
$TDUUPDATE
 40
2460451.229467176
  9
$TDINDWG
 40
0.0000000116
  9
$TDUSRTIMER
 40
0.0000000116
  9
$USRTIMER
 70
     1
  9
$ANGBASE
 50
0.0
  9
$ANGDIR
 70
     0
  9
$PDMODE
 70
     0
  9
$PDSIZE
 40
-1.0
  9
$PLINEWID
 40
0.0
  9
$SPLFRAME
 70
     0
  9
$SPLINETYPE
 70
     6
  9
$SPLINESEGS
 70
     8
  9
$HANDSEED
  5
362
  9
$SURFTAB1
 70
     6
  9
$SURFTAB2
 70
     6
  9
$SURFTYPE
 70
     6
  9
$SURFU
 70
     6
  9
$SURFV
 70
     6
  9
$UCSBASE
  2

  9
$UCSNAME
  2

  9
$UCSORG
 10
0.0
 20
0.0
 30
0.0
  9
$UCSXDIR
 10
1.0
 20
0.0
 30
0.0
  9
$UCSYDIR
 10
0.0
 20
1.0
 30
0.0
  9
$UCSORTHOREF
  2

  9
$UCSORTHOVIEW
 70
     0
  9
$UCSORGTOP
 10
0.0
 20
0.0
 30
0.0
  9
$UCSORGBOTTOM
 10
0.0
 20
0.0
 30
0.0
  9
$UCSORGLEFT
 10
0.0
 20
0.0
 30
0.0
  9
$UCSORGRIGHT
 10
0.0
 20
0.0
 30
0.0
  9
$UCSORGFRONT
 10
0.0
 20
0.0
 30
0.0
  9
$UCSORGBACK
 10
0.0
 20
0.0
 30
0.0
  9
$PUCSBASE
  2

  9
$PUCSNAME
  2

  9
$PUCSORG
 10
0.0
 20
0.0
 30
0.0
  9
$PUCSXDIR
 10
1.0
 20
0.0
 30
0.0
  9
$PUCSYDIR
 10
0.0
 20
1.0
 30
0.0
  9
$PUCSORTHOREF
  2

  9
$PUCSORTHOVIEW
 70
     0
  9
$PUCSORGTOP
 10
0.0
 20
0.0
 30
0.0
  9
$PUCSORGBOTTOM
 10
0.0
 20
0.0
 30
0.0
  9
$PUCSORGLEFT
 10
0.0
 20
0.0
 30
0.0
  9
$PUCSORGRIGHT
 10
0.0
 20
0.0
 30
0.0
  9
$PUCSORGFRONT
 10
0.0
 20
0.0
 30
0.0
  9
$PUCSORGBACK
 10
0.0
 20
0.0
 30
0.0
  9
$USERI1
 70
     0
  9
$USERI2
 70
     0
  9
$USERI3
 70
     0
  9
$USERI4
 70
     0
  9
$USERI5
 70
     0
  9
$USERR1
 40
0.0
  9
$USERR2
 40
0.0
  9
$USERR3
 40
0.0
  9
$USERR4
 40
0.0
  9
$USERR5
 40
0.0
  9
$WORLDVIEW
 70
     1
  9
$SHADEDGE
 70
     3
  9
$SHADEDIF
 70
    70
  9
$TILEMODE
 70
     1
  9
$MAXACTVP
 70
    64
  9
$PINSBASE
 10
0.0
 20
0.0
 30
0.0
  9
$PLIMCHECK
 70
     0
  9
$PEXTMIN
 10
1.0000000000E+20
 20
1.0000000000E+20
 30
1.0000000000E+20
  9
$PEXTMAX
 10
-1.0000000000E+20
 20
-1.0000000000E+20
 30
-1.0000000000E+20
  9
$PLIMMIN
 10
0.0
 20
0.0
  9
$PLIMMAX
 10
420.0
 20
297.0
  9
$UNITMODE
 70
     0
  9
$VISRETAIN
 70
     1
  9
$PLINEGEN
 70
     0
  9
$PSLTSCALE
 70
     1
  9
$TREEDEPTH
 70
  3020
  9
$CMLSTYLE
  2
Standard
  9
$CMLJUST
 70
     0
  9
$CMLSCALE
 40
20.0
  9
$PROXYGRAPHICS
 70
     1
  9
$MEASUREMENT
 70
     1
  9
$CELWEIGHT
370
    -1
  9
$ENDCAPS
280
     0
  9
$JOINSTYLE
280
     0
  9
$LWDISPLAY
290
     1
  9
$INSUNITS
 70
     4
  9
$HYPERLINKBASE
  1

  9
$STYLESHEET
  1

  9
$XEDIT
290
     1
  9
$CEPSNTYPE
380
     0
  9
$PSTYLEMODE
290
     1
  9
$FINGERPRINTGUID
  2
{EB9E3C55-E5F1-488A-8580-2FD94DA60349}
  9
$VERSIONGUID
  2
{FAEB1C32-E019-11D5-929B-00C0DF256EC4}
  9
$EXTNAMES
290
     1
  9
$PSVPSCALE
 40
0.0
  9
$OLESTARTUP
290
     0
  0
ENDSEC
  0
SECTION
  2
CLASSES
  0
CLASS
  1
ACDBDICTIONARYWDFLT
  2
AcDbDictionaryWithDefault
  3
ObjectDBX Classes
 90
        0
280
     0
281
     0
  0
CLASS
  1
VISUALSTYLE
  2
AcDbVisualStyle
  3
ObjectDBX Classes
 90
     4095
280
     0
281
     0
  0
CLASS
  1
MATERIAL
  2
AcDbMaterial
  3
ObjectDBX Classes
 90
     1153
280
     0
281
     0
  0
CLASS
  1
ACDBPLACEHOLDER
  2
AcDbPlaceHolder
  3
ObjectDBX Classes
 90
        0
280
     0
281
     0
  0
CLASS
  1
LAYOUT
  2
AcDbLayout
  3
ObjectDBX Classes
 90
        0
280
     0
281
     0
  0
ENDSEC
  0
SECTION
  2
TABLES
  0
TABLE
  2
VPORT
  5
8
330
0
100
AcDbSymbolTable
 70
     1
  0
VPORT
  5
29
330
8
100
AcDbSymbolTableRecord
100
AcDbViewportTableRecord
  2
*Active
 70
     0
 10
0.0
 20
0.0
 11
1.0
 21
1.0
 12
420.0
 22
297.0
 13
0.0
 23
0.0
 14
10.0
 24
10.0
 15
10.0
 25
10.0
 16
0.0
 26
0.0
 36
1.0
 17
0.0
 27
0.0
 37
0.0
 40
594.0
 41
1.4141414141
 42
50.0
 43
0.0
 44
0.0
 50
0.0
 51
0.0
 71
     0
 72
  2000
 73
     1
 74
     3
 75
     0
 76
     0
 77
     0
 78
     0
281
     0
 65
     1
110
0.0
120
0.0
130
0.0
111
1.0
121
0.0
131
0.0
112
0.0
122
1.0
132
0.0
 79
     0
146
0.0
  0
ENDTAB
  0
TABLE
  2
LTYPE
  5
5
330
0
100
AcDbSymbolTable
 70
     6
  0
LTYPE
  5
14
330
5
100
AcDbSymbolTableRecord
100
AcDbLinetypeTableRecord
  2
ByBlock
 70
     0
  3

 72
    65
 73
     0
 40
0.0
  0
LTYPE
  5
15
330
5
100
AcDbSymbolTableRecord
100
AcDbLinetypeTableRecord
  2
ByLayer
 70
     0
  3

 72
    65
 73
     0
 40
0.0
  0
LTYPE
  5
16
330
5
100
AcDbSymbolTableRecord
100
AcDbLinetypeTableRecord
  2
Continuous
 70
     0
  3
Solid line
 72
    65
 73
     0
 40
0.0
  0
LTYPE
  5
3F
330
5
100
AcDbSymbolTableRecord
100
AcDbLinetypeTableRecord
  2
HIDDEN
 70
     0
  3
Hidden __ __ __ __ __ __ __ __ __ __ __ __ __ __
 72
    65
 73
     2
 40
1.905
 49
1.27
 74
     0
 49
-0.635
 74
     0
  0
LTYPE
  5
40
330
5
100
AcDbSymbolTableRecord
100
AcDbLinetypeTableRecord
  2
PHANTOM
 70
     0
  3
Phantom ______  __  __  ______  __  __  ______
 72
    65
 73
     6
 40
12.7
 49
6.35
 74
     0
 49
-1.27
 74
     0
 49
1.27
 74
     0
 49
-1.27
 74
     0
 49
1.27
 74
     0
 49
-1.27
 74
     0
  0
LTYPE
  5
41
330
5
100
AcDbSymbolTableRecord
100
AcDbLinetypeTableRecord
  2
CENTER
 70
     0
  3
Center ____ _ ____ _ ____ _ ____ _ ____ _ ____
 72
    65
 73
     4
 40
10.16
 49
6.35
 74
     0
 49
-1.27
 74
     0
 49
1.27
 74
     0
 49
-1.27
 74
     0
  0
LTYPE
  5
42
330
5
100
AcDbSymbolTableRecord
100
AcDbLinetypeTableRecord
  2
CENTERX2
 70
     0
  3
Center (2x) ________  __  ________  __  _____
 72
    65
 73
     4
 40
20.32
 49
12.7
 74
     0
 49
-2.54
 74
     0
 49
2.54
 74
     0
 49
-2.54
 74
     0
  0
LTYPE
  5
43
330
5
100
AcDbSymbolTableRecord
100
AcDbLinetypeTableRecord
  2
DOT2
 70
     0
  3
Dot (.5x) ........................................
 72
    65
 73
     2
 40
0.635
 49
0.0
 74
     0
 49
-0.635
 74
     0
  0
ENDTAB
  0
TABLE
  2
LAYER
  5
2
330
0
100
AcDbSymbolTable
 70
     1
  0
LAYER
  5
10
330
2
100
AcDbSymbolTableRecord
100
AcDbLayerTableRecord
  2
0
 70
     0
 62
     7
  6
Continuous
370
    -3
390
F
  0
ENDTAB
  0
TABLE
  2
STYLE
  5
3
330
0
100
AcDbSymbolTable
 70
     2
  0
STYLE
  5
11
330
3
100
AcDbSymbolTableRecord
100
AcDbTextStyleTableRecord
  2
Standard
 70
     0
 40
0.0
 41
1.0
 50
0.0
 71
     0
 42
2.5
  3
txt
  4
bigfont
  0
STYLE
  5
44
330
3
100
AcDbSymbolTableRecord
100
AcDbTextStyleTableRecord
  2
SLDTEXTSTYLE0
 70
     0
 40
0.0
 41
0.7
 50
0.0
 71
     0
 42
0.2
  3
TXT
  4
bigfont
  0
ENDTAB
  0
TABLE
  2
VIEW
  5
6
330
0
100
AcDbSymbolTable
 70
     0
  0
ENDTAB
  0
TABLE
  2
UCS
  5
7
330
0
100
AcDbSymbolTable
 70
     0
  0
ENDTAB
  0
TABLE
  2
APPID
  5
9
330
0
100
AcDbSymbolTable
 70
     1
  0
APPID
  5
12
330
9
100
AcDbSymbolTableRecord
100
AcDbRegAppTableRecord
  2
ACAD
 70
     0
  0
ENDTAB
  0
TABLE
  2
DIMSTYLE
  5
A
330
0
100
AcDbSymbolTable
 70
     1
100
AcDbDimStyleTable
  0
DIMSTYLE
105
27
330
A
100
AcDbSymbolTableRecord
100
AcDbDimStyleTableRecord
  2
ISO-25
 70
     0
 41
2.5
 42
0.625
 43
3.75
 44
1.25
 73
     0
 74
     0
 77
     1
 78
     8
140
2.5
141
2.5
143
0.0393700787
147
0.625
171
     3
172
     1
178
     0
271
     2
272
     2
274
     3
278
    44
283
     0
284
     8
340
11
  0
ENDTAB
  0
TABLE
  2
BLOCK_RECORD
  5
1
330
0
100
AcDbSymbolTable
 70
     1
  0
BLOCK_RECORD
  5
1F
330
1
100
AcDbSymbolTableRecord
100
AcDbBlockTableRecord
  2
*Model_Space
340
22
  0
BLOCK_RECORD
  5
1B
330
1
100
AcDbSymbolTableRecord
100
AcDbBlockTableRecord
  2
*Paper_Space
340
1E
  0
BLOCK_RECORD
  5
23
330
1
100
AcDbSymbolTableRecord
100
AcDbBlockTableRecord
  2
*Paper_Space0
340
26
  0
ENDTAB
  0
ENDSEC
  0
SECTION
  2
BLOCKS
  0
BLOCK
  5
20
330
1F
100
AcDbEntity
  8
0
100
AcDbBlockBegin
  2
*Model_Space
 70
     0
 10
0.0
 20
0.0
 30
0.0
  3
*Model_Space
  1

  0
ENDBLK
  5
21
330
1F
100
AcDbEntity
  8
0
100
AcDbBlockEnd
  0
BLOCK
  5
1C
330
1B
100
AcDbEntity
 67
     1
  8
0
100
AcDbBlockBegin
  2
*Paper_Space
 70
     0
 10
0.0
 20
0.0
 30
0.0
  3
*Paper_Space
  1

  0
ENDBLK
  5
1D
330
1B
100
AcDbEntity
 67
     1
  8
0
100
AcDbBlockEnd
  0
BLOCK
  5
24
330
23
100
AcDbEntity
  8
0
100
AcDbBlockBegin
  2
*Paper_Space0
 70
     0
 10
0.0
 20
0.0
 30
0.0
  3
*Paper_Space0
  1

  0
ENDBLK
  5
25
330
23
100
AcDbEntity
  8
0
100
AcDbBlockEnd
  0
ENDSEC
  0
SECTION
  2
ENTITIES
  0
MTEXT
  5
45
330
1F
100
AcDbEntity
  8
0
  6
Continuous
 62
     7
370
     0
100
AcDbMText
 10
197.8754094834
 20
558.5966919346
 30
0.0
 40
7.0
 41
0.0
 71
     1
 72
     1
  1
CHB-514N
  7
SLDTEXTSTYLE0
 73
     1
 44
1.0
  0
LINE
  5
46
330
1F
100
AcDbEntity
  8
0
  6
Continuous
 62
     7
370
    15
100
AcDbLine
 10
379.2089295329
 20
84.606041584
 30
0.0
 11
379.3089312256
 21
84.606041584
 31
0.0
  0
LINE
  5
47
330
1F
100
AcDbEntity
  8
0
  6
Continuous
 62
     7
370
    15
100
AcDbLine
 10
379.3089312256
 20
90.6060388422
 30
0.0
 11
379.2089295329
 21
90.6060388422
 31
0.0
  0
LINE
  5
48
330
1F
100
AcDbEntity
  8
0
  6
Continuous
 62
     7
370
    15
100
AcDbLine
 10
379.2089295329
 20
74.6060362196
 30
0.0
 11
379.3089312256
 21
74.6060362196
 31
0.0
  0
LINE
  5
49
330
1F
100
AcDbEntity
  8
0
  6
Continuous
 62
     7
370
    15
100
AcDbLine
 10
379.3089312256
 20
80.6060334778
 30
0.0
 11
379.2089295329
 21
80.6060334778
 31
0.0
  0
LINE
  5
4A
330
1F
100
AcDbEntity
  8
0
  6
Continuous
 62
     7
370
    15
100
AcDbLine
 10
379.2089295329
 20
444.606040988
 30
0.0
 11
379.3089312256
 21
444.606040988
 31
0.0
  0
LINE
  5
4B
330
1F
100
AcDbEntity
  8
0
  6
Continuous
 62
     7
370
    15
100
AcDbLine
 10
379.3089312256
 20
450.6060382461
 30
0.0
 11
379.2089295329
 21
450.6060382461
 31
0.0
  0
LINE
  5
4C
330
1F
100
AcDbEntity
  8
0
  6
Continuous
 62
     7
370
    15
100
AcDbLine
 10
379.2089295329
 20
454.6060463524
 30
0.0
 11
379.3089312256
 21
454.6060463524
 31
0.0
  0
LINE
  5
4D
330
1F
100
AcDbEntity
  8
0
  6
Continuous
 62
     7
370
    15
100
AcDbLine
 10
379.3089312256
 20
460.6060436106
 30
0.0
 11
379.2089295329
 21
460.6060436106
 31
0.0
  0
LINE
  5
4E
330
1F
100
AcDbEntity
  8
0
  6
Continuous
 62
     7
370
    15
100
AcDbLine
 10
380.5089217366
 20
94.1060384846
 30
0.0
 11
379.3089312256
 21
94.1060384846
 31
0.0
  0
LINE
  5
4F
330
1F
100
AcDbEntity
  8
0
  6
Continuous
 62
     7
370
    15
100
AcDbLine
 10
380.5089217366
 20
464.1060432529
 30
0.0
 11
379.3089312256
 21
464.1060432529
 31
0.0
  0
LINE
  5
50
330
1F
100
AcDbEntity
  8
0
  6
Continuous
 62
     7
370
    15
100
AcDbLine
 10
379.3089312256
 20
71.1060365772
 30
0.0
 11
380.5089217366
 21
71.1060365772
 31
0.0
  0
LINE
  5
51
330
1F
100
AcDbEntity
  8
0
  6
Continuous
 62
     7
370
    15
100
AcDbLine
 10
379.3089312256
 20
441.1060413456
 30
0.0
 11
380.5089217366
 21
441.1060413456
 31
0.0
  0
LINE
  5
52
330
1F
100
AcDbEntity
  8
0
  6
Continuous
 62
     7
370
    15
100
AcDbLine
 10
792.0089286507
 20
73.606034193
 30
0.0
 11
792.0089286507
 21
108.6060455179
 31
0.0
  0
LINE
  5
53
330
1F
100
AcDbEntity
  8
0
  6
Continuous
 62
     7
370
    15
100
AcDbLine
 10
792.0089286507
 20
426.6060343122
 30
0.0
 11
792.0089286507
 21
461.6060456371
 31
0.0
  0
LINE
  5
54
330
1F
100
AcDbEntity
  8
0
  6
Continuous
 62
     7
370
    15
100
AcDbLine
 10
371.404118532
 20
86.5060439443
 30
0.0
 11
371.404118532
 21
77.9060324764
 31
0.0
  0
LINE
  5
55
330
1F
100
AcDbEntity
  8
0
  6
Continuous
 62
     7
370
    15
100
AcDbLine
 10
372.0089268626
 20
75.4060348606
 30
0.0
 11
372.0089268626
 21
74.6062895393
 31
0.0
  0
LINE
  5
56
330
1F
100
AcDbEntity
  8
0
  6
Continuous
 62
     7
370
    15
100
AcDbLine
 10
372.0089268626
 20
90.6057855225
 30
0.0
 11
372.0089268626
 21
89.8060402012
 31
0.0
  0
LINE
  5
57
330
1F
100
AcDbEntity
  8
0
  6
Continuous
 62
     7
370
    15
100
AcDbLine
 10
373.408920759
 20
90.9060439205
 30
0.0
 11
373.408920759
 21
90.6060388422
 31
0.0
  0
ARC
  5
58
330
1F
100
AcDbEntity
  8
0
  6
Continuous
 62
     7
370
    15
100
AcDbCircle
 10
375.6089247168
 20
87.798897058
 30
0.0
 40
3.807142857143194
100
AcDbArc
 50
77.9663271603
 51
90.0
  0
ARC
  5
59
330
1F
100
AcDbEntity
  8
0
  6
Continuous
 62
     7
370
    15
100
AcDbCircle
 10
375.6089247168
 20
87.798897058
 30
0.0
 40
3.807142857143245
100
AcDbArc
 50
90.0
 51
125.3002484399
  0
LINE
  5
5A
330
1F
100
AcDbEntity
  8
0
  6
Continuous
 62
     7
370
    15
100
AcDbLine
 10
373.5089224518
 20
74.2060443497
 30
0.0
 11
373.5089224518
 21
73.8060375786
 31
0.0
  0
ARC
  5
5B
330
1F
100
AcDbEntity
  8
0
  6
Continuous
 62
     7
370
    15
100
AcDbCircle
 10
373.7089247168
 20
74.6060399151
 30
0.0
 40
0.4000000000007731
100
AcDbArc
 50
270.0
 51
0.0
  0
LINE
  5
5C
330
1F
100
AcDbEntity
  8
0
  6
Continuous
 62
     7
370
    15
100
AcDbLine
 10
374.1089177073
 20
89.8060402012
 30
0.0
 11
374.1089177073
 21
89.3560400343
 31
0.0
  0
LINE
  5
5D
330
1F
100
AcDbEntity
  8
0
  6
Continuous
 62
     7
370
    15
100
AcDbLine
 10
374.1089177073
 20
75.8560350275
 30
0.0
 11
374.1089177073
 21
75.4060348606
 31
0.0
  0
SPLINE
  5
5E
330
1F
100
AcDbEntity
  8
0
  6
Continuous
 62
     7
370
    15
100
AcDbSpline
210
0.0
220
0.0
230
1.0
 70
     8
 71
     3
 72
    11
 73
     7
 74
     0
 42
0.00000001
 43
0.00000001
 40
0.0
 40
0.0
 40
0.0
 40
0.0
 40
0.2262215839525792
 40
0.4679438737890425
 40
0.7254849024831278
 40
1.0
 40
1.0
 40
1.0
 40
1.0
 10
376.8294376076105
 20
90.83647039889203
 30
0.0
 10
376.8322569359775
 20
90.81357045652064
 30
0.0
 10
376.8380887731278
 20
90.7662014674278
 30
0.0
 10
376.8548794879819
 20
90.4414243395878
 30
0.0
 10
376.8684720219741
 20
89.94092527302338
 30
0.0
 10
376.8690071912905
 20
89.5171035512714
 30
0.0
 10
376.8692833126428
 20
89.29843214510785
 30
0.0
  0
SPLINE
  5
5F
330
1F
100
AcDbEntity
  8
0
  6
Continuous
 62
     7
370
    15
100
AcDbSpline
210
0.0
220
0.0
230
1.0
 70
     8
 71
     3
 72
    12
 73
     8
 74
     0
 42
0.00000001
 43
0.00000001
 40
0.0
 40
0.0
 40
0.0
 40
0.0
 40
0.2489469272997727
 40
0.4822949499668513
 40
0.6998133322848473
 40
0.9035365115921212
 40
1.0
 40
1.0
 40
1.0
 40
1.0
 10
376.8692833126428
 20
75.73980597018107
 30
0.0
 10
376.8678574411401
 20
75.60247004108709
 30
0.0
 10
376.8650950426142
 20
75.33640359162544
 30
0.0
 10
376.8541941709417
 20
75.00060306737991
 30
0.0
 10
376.8516836460591
 20
74.7674149698733
 30
0.0
 10
376.8564731760459
 20
74.64733466680254
 30
0.0
 10
376.8829034115146
 20
74.64597584766369
 30
0.0
 10
376.8913966358545
 20
74.64553919791089
 30
0.0
  0
LINE
  5
60
330
1F
100
AcDbEntity
  8
0
  6
Continuous
 62
     7
370
    15
100
AcDbLine
 10
376.8684339465
 20
89.3484404421
 30
0.0
 11
376.8684339465
 21
75.6897976732
 31
0.0
  0
LINE
  5
61
330
1F
100
AcDbEntity
  8
0
  6
Continuous
 62
     7
370
    15
100
AcDbLine
 10
375.3448200167
 20
93.2863256073
 30
0.0
 11
376.8321794213
 21
90.8061763382
 31
0.0
  0
LINE
  5
62
330
1F
100
AcDbEntity
  8
0
  6
Continuous
 62
     7
370
    15
100
AcDbLine
 10
379.3089312256
 20
92.5092896557
 30
0.0
 11
377.9176396073
 21
94.8292514419
 31
0.0
  0
LINE
  5
63
330
1F
100
AcDbEntity
  8
0
  6
Continuous
 62
     7
370
    15
100
AcDbLine
 10
376.8966716469
 20
74.5134553051
 30
0.0
 11
375.3275942744
 21
71.8970349169
 31
0.0
  0
LINE
  5
64
330
1F
100
AcDbEntity
  8
0
  6
Continuous
 62
     7
370
    15
100
AcDbLine
 10
377.9004138649
 20
70.3541090822
 30
0.0
 11
379.3089312256
 21
72.7028003073
 31
0.0
  0
LINE
  5
65
330
1F
100
AcDbEntity
  8
0
  6
Continuous
 62
     7
370
    15
100
AcDbLine
 10
377.9375326575
 20
94.7937419748
 30
0.0
 11
377.8475743473
 21
94.9075272417
 31
0.0
  0
SPLINE
  5
66
330
1F
100
AcDbEntity
  8
0
  6
Continuous
 62
     7
370
    15
100
AcDbSpline
210
0.0
220
0.0
230
1.0
 70
     8
 71
     3
 72
    20
 73
    16
 74
     0
 42
0.00000001
 43
0.00000001
 40
0.0
 40
0.0
 40
0.0
 40
0.0
 40
0.0337801161870618
 40
0.1101061415154275
 40
0.1739278464845517
 40
0.2252735690579396
 40
0.2665361591167194
 40
0.3037742937449505
 40
0.3388587019050663
 40
0.3726397103524258
 40
0.4139172414996349
 40
0.6259828726423703
 40
0.8390272788950416
 40
0.9659476431248617
 40
1.0
 40
1.0
 40
1.0
 40
1.0
 10
377.7352642954233
 20
95.04959491251813
 30
0.0
 10
377.6946034708603
 20
95.10577831641656
 30
0.0
 10
377.5620696903757
 20
95.28890787660524
 30
0.0
 10
377.2522085575965
 20
95.46609724482514
 30
0.0
 10
376.8649446816432
 20
95.58904263072915
 30
0.0
 10
376.4950977611614
 20
95.60384504462482
 30
0.0
 10
376.1607806295269
 20
95.55325475702911
 30
0.0
 10
375.8862942867748
 20
95.45220351298344
 30
0.0
 10
375.6587946576826
 20
95.31748320134447
 30
0.0
 10
375.4527578064605
 20
95.14130736508442
 30
0.0
 10
375.1082352177804
 20
94.69881597399294
 30
0.0
 10
374.9271480606117
 20
94.0121413279722
 30
0.0
 10
374.7773457711144
 20
92.83131553767454
 30
0.0
 10
374.7222274467652
 20
91.92667013663888
 30
0.0
 10
374.7156655021863
 20
91.51208304812475
 30
0.0
 10
374.7142773807886
 20
91.4243808126341
 30
0.0
  0
SPLINE
  5
67
330
1F
100
AcDbEntity
  8
0
  6
Continuous
 62
     7
370
    15
100
AcDbSpline
210
0.0
220
0.0
230
1.0
 70
     8
 71
     3
 72
    19
 73
    15
 74
     0
 42
0.00000001
 43
0.00000001
 40
0.0
 40
0.0
 40
0.0
 40
0.0
 40
0.0102732000476272
 40
0.1295973450528628
 40
0.3268129782787392
 40
0.552508948704817
 40
0.5858540660348889
 40
0.618601546414499
 40
0.6529067349695111
 40
0.6960073439970937
 40
0.7523130927984815
 40
0.822314953407058
 40
0.9054608392297367
 40
1.0
 40
1.0
 40
1.0
 40
1.0
 10
374.7114312590005
 20
73.80603757857187
 30
0.0
 10
374.7117544667998
 20
73.77884017386222
 30
0.0
 10
374.7158317623354
 20
73.43574246074827
 30
0.0
 10
374.7555933605265
 20
72.61574737856913
 30
0.0
 10
374.8905959697124
 20
71.39330897812765
 30
0.0
 10
374.9810029467347
 20
70.74997722374837
 30
0.0
 10
375.3318927189839
 20
70.20986112283926
 30
0.0
 10
375.5011181866389
 20
70.02202366195706
 30
0.0
 10
375.7378158941008
 20
69.84552233961868
 30
0.0
 10
376.0514542336015
 20
69.69206862929714
 30
0.0
 10
376.4549349135517
 20
69.59028228081479
 30
0.0
 10
376.94080370714
 20
69.6134395486894
 30
0.0
 10
377.4705502066448
 20
69.82376939663504
 30
0.0
 10
377.7357713095052
 20
70.1455857613409
 30
0.0
 10
377.8768849314096
 20
70.31681147574292
 30
0.0
  0
SPLINE
  5
68
330
1F
100
AcDbEntity
  8
0
  6
Continuous
 62
     7
370
    15
100
AcDbSpline
210
0.0
220
0.0
230
1.0
 70
     8
 71
     3
 72
    11
 73
     7
 74
     0
 42
0.00000001
 43
0.00000001
 40
0.0
 40
0.0
 40
0.0
 40
0.0
 40
0.2262215839525792
 40
0.4679438737890425
 40
0.7254849024831278
 40
1.0
 40
1.0
 40
1.0
 40
1.0
 10
376.8294376076105
 20
460.8364751672636
 30
0.0
 10
376.8322569359775
 20
460.8135752248922
 30
0.0
 10
376.8380887731278
 20
460.7662062357992
 30
0.0
 10
376.8548794879819
 20
460.4414291079596
 30
0.0
 10
376.8684720219741
 20
459.9409300413949
 30
0.0
 10
376.8690071912905
 20
459.5171083196431
 30
0.0
 10
376.8692833126428
 20
459.2984369134795
 30
0.0
  0
SPLINE
  5
69
330
1F
100
AcDbEntity
  8
0
  6
Continuous
 62
     7
370
    15
100
AcDbSpline
210
0.0
220
0.0
230
1.0
 70
     8
 71
     3
 72
    12
 73
     8
 74
     0
 42
0.00000001
 43
0.00000001
 40
0.0
 40
0.0
 40
0.0
 40
0.0
 40
0.248946245326258
 40
0.4822936287519815
 40
0.699811415192867
 40
0.9035372363555159
 40
1.0
 40
1.0
 40
1.0
 40
1.0
 10
376.8692833126428
 20
445.7398107385527
 30
0.0
 10
376.8678574455852
 20
445.6024750607309
 30
0.0
 10
376.8650950556707
 20
445.3364090980689
 30
0.0
 10
376.8541941238703
 20
445.0006051748531
 30
0.0
 10
376.8516837929774
 20
444.7674275972503
 30
0.0
 10
376.8564728091278
 20
444.6473137587396
 30
0.0
 10
376.8829034116255
 20
444.6459743671173
 30
0.0
 10
376.8913966358545
 20
444.6455439662825
 30
0.0
  0
LINE
  5
6A
330
1F
100
AcDbEntity
  8
0
  6
Continuous
 62
     7
370
    15
100
AcDbLine
 10
376.8684339465
 20
459.3484303093
 30
0.0
 11
376.8684339465
 21
445.6898024416
 31
0.0
  0
LINE
  5
6B
330
1F
100
AcDbEntity
  8
0
  6
Continuous
 62
     7
370
    15
100
AcDbLine
 10
375.3448200167
 20
463.2863303757
 30
0.0
 11
376.8321794213
 21
460.8061811066
 31
0.0
  0
LINE
  5
6C
330
1F
100
AcDbEntity
  8
0
  6
Continuous
 62
     7
370
    15
100
AcDbLine
 10
379.3089312256
 20
462.5092795229
 30
0.0
 11
377.9176396073
 21
464.8292562103
 31
0.0
  0
LINE
  5
6D
330
1F
100
AcDbEntity
  8
0
  6
Continuous
 62
     7
370
    15
100
AcDbLine
 10
376.8966716469
 20
444.5134600735
 30
0.0
 11
375.3275942744
 21
441.8970396852
 31
0.0
  0
LINE
  5
6E
330
1F
100
AcDbEntity
  8
0
  6
Continuous
 62
     7
370
    15
100
AcDbLine
 10
377.9004138649
 20
440.3541138506
 30
0.0
 11
379.3089312256
 21
442.7027901745
 31
0.0
  0
LINE
  5
6F
330
1F
100
AcDbEntity
  8
0
  6
Continuous
 62
     7
370
    15
100
AcDbLine
 10
377.9375326575
 20
464.7937467432
 30
0.0
 11
377.8475743473
 21
464.9075320101
 31
0.0
  0
SPLINE
  5
70
330
1F
100
AcDbEntity
  8
0
  6
Continuous
 62
     7
370
    15
100
AcDbSpline
210
0.0
220
0.0
230
1.0
 70
     8
 71
     3
 72
    20
 73
    16
 74
     0
 42
0.00000001
 43
0.00000001
 40
0.0
 40
0.0
 40
0.0
 40
0.0
 40
0.0337800717946074
 40
0.1101059968184157
 40
0.1739276179156516
 40
0.2252732730125797
 40
0.2665361123801736
 40
0.3037735423157453
 40
0.3388579043693592
 40
0.3726388684230917
 40
0.4139163453250487
 40
0.6259816977797589
 40
0.839027386110905
 40
0.9659457676375942
 40
1.0
 40
1.0
 40
1.0
 40
1.0
 10
377.7352642954233
 20
465.0495996808897
 30
0.0
 10
377.6946034765949
 20
465.1057830566199
 30
0.0
 10
377.5620697148024
 20
465.2889125249944
 30
0.0
 10
377.2522083228237
 20
465.4661031663869
 30
0.0
 10
376.864945328879
 20
465.5890442199161
 30
0.0
 10
376.4950952943976
 20
465.6038584332844
 30
0.0
 10
376.1607856734175
 20
465.5532351995556
 30
0.0
 10
375.886291061918
 20
465.4522131034851
 30
0.0
 10
375.658795109024
 20
465.3174865663779
 30
0.0
 10
375.4527576613527
 20
465.1413125850863
 30
0.0
 10
375.1082354915825
 20
464.6988198847164
 30
0.0
 10
374.9271467006945
 20
464.0121462807833
 30
0.0
 10
374.7773474216049
 20
462.8313107096768
 30
0.0
 10
374.7222267885176
 20
461.926665788887
 30
0.0
 10
374.715665451114
 20
461.5120779605938
 30
0.0
 10
374.7142773807886
 20
461.4243706798445
 30
0.0
  0
SPLINE
  5
71
330
1F
100
AcDbEntity
  8
0
  6
Continuous
 62
     7
370
    15
100
AcDbSpline
210
0.0
220
0.0
230
1.0
 70
     8
 71
     3
 72
    19
 73
    15
 74
     0
 42
0.00000001
 43
0.00000001
 40
0.0
 40
0.0
 40
0.0
 40
0.0
 40
0.010273195004654
 40
0.1295972814353018
 40
0.3268128178507259
 40
0.5525098710901095
 40
0.5858536744480033
 40
0.6186024282451602
 40
0.6529064822931058
 40
0.69600707016319
 40
0.7523132143845905
 40
0.8223150406302128
 40
0.9054608856377154
 40
1.0
 40
1.0
 40
1.0
 40
1.0
 10
374.7114312590006
 20
443.8060423469435
 30
0.0
 10
374.7117544679372
 20
443.7788449441564
 30
0.0
 10
374.7158317778189
 20
443.4357472552962
 30
0.0
 10
374.7555920430025
 20
442.6157499195826
 30
0.0
 10
374.8906047903284
 20
441.3933254650034
 30
0.0
 10
374.9809802406659
 20
440.7499417922557
 30
0.0
 10
375.3319007408932
 20
440.2098669343648
 30
0.0
 10
375.5011084962975
 20
440.0220110351353
 30
0.0
 10
375.7378224400962
 20
439.8455306426021
 30
0.0
 10
376.0514544399564
 20
439.6920746084484
 30
0.0
 10
376.45493309365
 20
439.5902662739253
 30
0.0
 10
376.9408040009019
 20
439.6134314573836
 30
0.0
 10
377.4705501154247
 20
439.8237586299161
 30
0.0
 10
377.735771277826
 20
440.1455754083976
 30
0.0
 10
377.8768849314096
 20
440.3168013429533
 30
0.0
  0
LINE
  5
72
330
1F
100
AcDbEntity
  8
0
  6
Continuous
 62
     7
370
    15
100
AcDbLine
 10
371.404118532
 20
456.5060338116
 30
0.0
 11
371.404118532
 21
447.9060372448
 31
0.0
  0
LINE
  5
73
330
1F
100
AcDbEntity
  8
0
  6
Continuous
 62
     7
370
    15
100
AcDbLine
 10
372.0089268626
 20
445.406039629
 30
0.0
 11
372.0089268626
 21
444.6062943077
 31
0.0
  0
LINE
  5
74
330
1F
100
AcDbEntity
  8
0
  6
Continuous
 62
     7
370
    15
100
AcDbLine
 10
372.0089268626
 20
460.6057902908
 30
0.0
 11
372.0089268626
 21
459.8060449695
 31
0.0
  0
ARC
  5
75
330
1F
100
AcDbEntity
  8
0
  6
Continuous
 62
     7
370
    15
100
AcDbCircle
 10
375.6089247168
 20
457.798897058
 30
0.0
 40
3.807142857143247
100
AcDbArc
 50
77.9663271603
 51
90.0
  0
ARC
  5
76
330
1F
100
AcDbEntity
  8
0
  6
Continuous
 62
     7
370
    15
100
AcDbCircle
 10
375.6089247168
 20
457.798897058
 30
0.0
 40
3.807142857143302
100
AcDbArc
 50
90.0
 51
125.3002484399
  0
LINE
  5
77
330
1F
100
AcDbEntity
  8
0
  6
Continuous
 62
     7
370
    15
100
AcDbLine
 10
373.408920759
 20
460.9060337877
 30
0.0
 11
373.408920759
 21
460.6060436106
 31
0.0
  0
LINE
  5
78
330
1F
100
AcDbEntity
  8
0
  6
Continuous
 62
     7
370
    15
100
AcDbLine
 10
373.5089224518
 20
444.2060342169
 30
0.0
 11
373.5089224518
 21
443.8060423469
 31
0.0
  0
ARC
  5
79
330
1F
100
AcDbEntity
  8
0
  6
Continuous
 62
     7
370
    15
100
AcDbCircle
 10
373.7089247168
 20
444.6060399151
 30
0.0
 40
0.4000000000007731
100
AcDbArc
 50
270.0
 51
0.0
  0
LINE
  5
7A
330
1F
100
AcDbEntity
  8
0
  6
Continuous
 62
     7
370
    15
100
AcDbLine
 10
374.1089177073
 20
459.8060449695
 30
0.0
 11
374.1089177073
 21
459.3560448027
 31
0.0
  0
LINE
  5
7B
330
1F
100
AcDbEntity
  8
0
  6
Continuous
 62
     7
370
    15
100
AcDbLine
 10
374.1089177073
 20
445.8560397959
 30
0.0
 11
374.1089177073
 21
445.406039629
 31
0.0
  0
LINE
  5
7C
330
1F
100
AcDbEntity
  8
0
  6
Continuous
 62
     7
370
    15
100
AcDbLine
 10
792.0089286507
 20
37.6060357427
 30
0.0
 11
792.0089286507
 21
72.6060470676
 31
0.0
  0
LINE
  5
7D
330
1F
100
AcDbEntity
  8
0
  6
Continuous
 62
     7
370
    15
100
AcDbLine
 10
792.0089286507
 20
462.6060327625
 30
0.0
 11
792.0089286507
 21
497.6060440874
 31
0.0
  0
LINE
  5
7E
330
1F
100
AcDbEntity
  8
0
  6
Continuous
 62
     7
370
    15
100
AcDbLine
 10
789.008922571
 20
72.6060470676
 30
0.0
 11
789.008922571
 21
73.606034193
 31
0.0
  0
LINE
  5
7F
330
1F
100
AcDbEntity
  8
0
  6
Continuous
 62
     7
370
    15
100
AcDbLine
 10
789.008922571
 20
108.6060455179
 30
0.0
 11
789.008922571
 21
109.6060326433
 31
0.0
  0
LINE
  5
80
330
1F
100
AcDbEntity
  8
0
  6
Continuous
 62
     7
370
    15
100
AcDbLine
 10
784.0089273394
 20
109.6060326433
 30
0.0
 11
784.0089273394
 21
108.6060455179
 31
0.0
  0
LINE
  5
81
330
1F
100
AcDbEntity
  8
0
  6
Continuous
 62
     7
370
    15
100
AcDbLine
 10
784.0089273394
 20
73.606034193
 30
0.0
 11
784.0089273394
 21
72.6060470676
 31
0.0
  0
LINE
  5
82
330
1F
100
AcDbEntity
  8
0
  6
Continuous
 62
     7
370
    15
100
AcDbLine
 10
784.0089273394
 20
462.6060327625
 30
0.0
 11
784.0089273394
 21
461.6060456371
 31
0.0
  0
LINE
  5
83
330
1F
100
AcDbEntity
  8
0
  6
Continuous
 62
     7
370
    15
100
AcDbLine
 10
784.0089273394
 20
426.6060343122
 30
0.0
 11
784.0089273394
 21
425.6060471868
 31
0.0
  0
LINE
  5
84
330
1F
100
AcDbEntity
  8
0
  6
Continuous
 62
     7
370
    15
100
AcDbLine
 10
789.008922571
 20
425.6060471868
 30
0.0
 11
789.008922571
 21
426.6060343122
 31
0.0
  0
LINE
  5
85
330
1F
100
AcDbEntity
  8
0
  6
Continuous
 62
     7
370
    15
100
AcDbLine
 10
789.008922571
 20
461.6060456371
 30
0.0
 11
789.008922571
 21
462.6060327625
 31
0.0
  0
LINE
  5
86
330
1F
100
AcDbEntity
  8
0
  6
Continuous
 62
     7
370
    15
100
AcDbLine
 10
372.2089302481
 20
76.1488577461
 30
0.0
 11
372.2089302481
 21
75.8560350275
 31
0.0
  0
LINE
  5
87
330
1F
100
AcDbEntity
  8
0
  6
Continuous
 62
     7
370
    15
100
AcDbLine
 10
372.2089302481
 20
89.3560400343
 30
0.0
 11
372.2089302481
 21
89.0632322168
 31
0.0
  0
LINE
  5
88
330
1F
100
AcDbEntity
  8
0
  6
Continuous
 62
     7
370
    15
100
AcDbLine
 10
372.2089302481
 20
446.1488476133
 30
0.0
 11
372.2089302481
 21
445.8560397959
 31
0.0
  0
LINE
  5
89
330
1F
100
AcDbEntity
  8
0
  6
Continuous
 62
     7
370
    15
100
AcDbLine
 10
372.2089302481
 20
459.3560448027
 30
0.0
 11
372.2089302481
 21
459.063222084
 31
0.0
  0
ARC
  5
8A
330
1F
100
AcDbEntity
  8
0
  6
Continuous
 62
     7
370
    15
100
AcDbCircle
 10
395.5089247168
 20
32.6060399151
 30
0.0
 40
15.0
100
AcDbArc
 50
180.0
 51
270.0
  0
LINE
  5
8B
330
1F
100
AcDbEntity
  8
0
  6
Continuous
 62
     7
370
    15
100
AcDbLine
 10
380.5089217366
 20
32.6060405111
 30
0.0
 11
395.5089223326
 21
32.6060405111
 31
0.0
  0
LINE
  5
8C
330
1F
100
AcDbEntity
  8
0
  6
Continuous
 62
     7
370
    15
100
AcDbLine
 10
395.5089223326
 20
17.6060399151
 30
0.0
 11
395.5089223326
 21
32.6060405111
 31
0.0
  0
LINE
  5
8D
330
1F
100
AcDbEntity
  8
0
  6
Continuous
 62
     7
370
    15
100
AcDbLine
 10
765.508927101
 20
32.6060405111
 30
0.0
 11
765.508927101
 21
17.6060399151
 31
0.0
  0
LINE
  5
8E
330
1F
100
AcDbEntity
  8
0
  6
Continuous
 62
     7
370
    15
100
AcDbLine
 10
765.508927101
 20
17.6060399151
 30
0.0
 11
395.5089223326
 21
17.6060399151
 31
0.0
  0
LINE
  5
8F
330
1F
100
AcDbEntity
  8
0
  6
Continuous
 62
     7
370
    15
100
AcDbLine
 10
765.508927101
 20
32.6060405111
 30
0.0
 11
395.5089223326
 21
32.6060405111
 31
0.0
  0
LINE
  5
90
330
1F
100
AcDbEntity
  8
0
  6
Continuous
 62
     7
370
    15
100
AcDbLine
 10
395.5089223326
 20
32.6060405111
 30
0.0
 11
395.5089223326
 21
502.606039319
 31
0.0
  0
LINE
  5
91
330
1F
100
AcDbEntity
  8
0
  6
Continuous
 62
     7
370
    15
100
AcDbLine
 10
380.5089217366
 20
32.6060405111
 30
0.0
 11
380.5089217366
 21
72.6185491419
 31
0.0
  0
LINE
  5
92
330
1F
100
AcDbEntity
  8
0
  6
Continuous
 62
     7
370
    15
100
AcDbLine
 10
380.5089217366
 20
92.5935259199
 30
0.0
 11
380.5089217366
 21
442.6185539102
 31
0.0
  0
LINE
  5
93
330
1F
100
AcDbEntity
  8
0
  6
Continuous
 62
     7
370
    15
100
AcDbLine
 10
380.5089217366
 20
462.5935306883
 30
0.0
 11
380.5089217366
 21
502.606039319
 31
0.0
  0
LINE
  5
94
330
1F
100
AcDbEntity
  8
0
  6
Continuous
 62
     7
370
    15
100
AcDbLine
 10
380.5089217366
 20
502.606039319
 30
0.0
 11
395.5089223326
 21
502.606039319
 31
0.0
  0
LINE
  5
95
330
1F
100
AcDbEntity
  8
0
  6
Continuous
 62
     7
370
    15
100
AcDbLine
 10
760.5089318694
 20
37.6060357427
 30
0.0
 11
760.5089318694
 21
497.6060440874
 31
0.0
  0
LINE
  5
96
330
1F
100
AcDbEntity
  8
0
  6
Continuous
 62
     7
370
    15
100
AcDbLine
 10
400.5089175642
 20
497.6060440874
 30
0.0
 11
760.5089318694
 21
497.6060440874
 31
0.0
  0
LINE
  5
97
330
1F
100
AcDbEntity
  8
0
  6
Continuous
 62
     7
370
    15
100
AcDbLine
 10
765.508927101
 20
502.606039319
 30
0.0
 11
395.5089223326
 21
502.606039319
 31
0.0
  0
LINE
  5
98
330
1F
100
AcDbEntity
  8
0
  6
Continuous
 62
     7
370
    15
100
AcDbLine
 10
765.508927101
 20
32.6060405111
 30
0.0
 11
765.508927101
 21
502.606039319
 31
0.0
  0
LINE
  5
99
330
1F
100
AcDbEntity
  8
0
  6
Continuous
 62
     7
370
    15
100
AcDbLine
 10
400.5089175642
 20
37.6060357427
 30
0.0
 11
400.5089175642
 21
497.6060440874
 31
0.0
  0
LINE
  5
9A
330
1F
100
AcDbEntity
  8
0
  6
Continuous
 62
     7
370
    15
100
AcDbLine
 10
760.5089318694
 20
37.6060357427
 30
0.0
 11
400.5089175642
 21
37.6060357427
 31
0.0
  0
LINE
  5
9B
330
1F
100
AcDbEntity
  8
0
  6
Continuous
 62
     7
370
    15
100
AcDbLine
 10
765.508927101
 20
517.6060399151
 30
0.0
 11
395.5089223326
 21
517.6060399151
 31
0.0
  0
LINE
  5
9C
330
1F
100
AcDbEntity
  8
0
  6
Continuous
 62
     7
370
    15
100
AcDbLine
 10
765.508927101
 20
517.6060399151
 30
0.0
 11
765.508927101
 21
502.606039319
 31
0.0
  0
LINE
  5
9D
330
1F
100
AcDbEntity
  8
0
  6
Continuous
 62
     7
370
    15
100
AcDbLine
 10
395.5089223326
 20
502.606039319
 30
0.0
 11
395.5089223326
 21
517.6060399151
 31
0.0
  0
LINE
  5
9E
330
1F
100
AcDbEntity
  8
0
  6
Continuous
 62
     7
370
    15
100
AcDbLine
 10
765.508927101
 20
32.6060405111
 30
0.0
 11
780.508927697
 21
32.6060405111
 31
0.0
  0
ARC
  5
9F
330
1F
100
AcDbEntity
  8
0
  6
Continuous
 62
     7
370
    15
100
AcDbCircle
 10
765.5089247168
 20
32.6060399151
 30
0.0
 40
15.00000000000001
100
AcDbArc
 50
270.0
 51
0.0
  0
ARC
  5
A0
330
1F
100
AcDbEntity
  8
0
  6
Continuous
 62
     7
370
    15
100
AcDbCircle
 10
395.5089247168
 20
502.6060399151
 30
0.0
 40
15.00000000000006
100
AcDbArc
 50
90.0
 51
180.0
  0
LINE
  5
A1
330
1F
100
AcDbEntity
  8
0
  6
Continuous
 62
     7
370
    15
100
AcDbLine
 10
780.508927697
 20
32.6060405111
 30
0.0
 11
780.508927697
 21
502.606039319
 31
0.0
  0
LINE
  5
A2
330
1F
100
AcDbEntity
  8
0
  6
Continuous
 62
     7
370
    15
100
AcDbLine
 10
780.508927697
 20
502.606039319
 30
0.0
 11
765.508927101
 21
502.606039319
 31
0.0
  0
ARC
  5
A3
330
1F
100
AcDbEntity
  8
0
  6
Continuous
 62
     7
370
    15
100
AcDbCircle
 10
765.5089247168
 20
502.6060399151
 30
0.0
 40
15.0
100
AcDbArc
 50
0.0
 51
90.0
  0
LINE
  5
A4
330
1F
100
AcDbEntity
  8
0
  6
Continuous
 62
     7
370
    15
100
AcDbLine
 10
379.3089312256
 20
93.6405262089
 30
0.0
 11
380.5089217366
 21
93.6405262089
 31
0.0
  0
LINE
  5
A5
330
1F
100
AcDbEntity
  8
0
  6
Continuous
 62
     7
370
    15
100
AcDbLine
 10
379.3089312256
 20
71.5715637541
 30
0.0
 11
380.5089217366
 21
71.5715637541
 31
0.0
  0
LINE
  5
A6
330
1F
100
AcDbEntity
  8
0
  6
Continuous
 62
     7
370
    15
100
AcDbLine
 10
380.5089217366
 20
92.5935259199
 30
0.0
 11
380.5089217366
 21
72.6185491419
 31
0.0
  0
LINE
  5
A7
330
1F
100
AcDbEntity
  8
0
  6
Continuous
 62
     7
370
    15
100
AcDbLine
 10
379.3089312256
 20
71.5715637541
 30
0.0
 11
379.3089312256
 21
93.6405262089
 31
0.0
  0
LINE
  5
A8
330
1F
100
AcDbEntity
  8
0
  6
Continuous
 62
     7
370
    15
100
AcDbLine
 10
379.3089312256
 20
463.6405160761
 30
0.0
 11
380.5089217366
 21
463.6405160761
 31
0.0
  0
LINE
  5
A9
330
1F
100
AcDbEntity
  8
0
  6
Continuous
 62
     7
370
    15
100
AcDbLine
 10
379.3089312256
 20
441.5715536213
 30
0.0
 11
380.5089217366
 21
441.5715536213
 31
0.0
  0
LINE
  5
AA
330
1F
100
AcDbEntity
  8
0
  6
Continuous
 62
     7
370
    15
100
AcDbLine
 10
380.5089217366
 20
462.5935306883
 30
0.0
 11
380.5089217366
 21
442.6185539102
 31
0.0
  0
LINE
  5
AB
330
1F
100
AcDbEntity
  8
0
  6
Continuous
 62
     7
370
    15
100
AcDbLine
 10
379.3089312256
 20
441.5715536213
 30
0.0
 11
379.3089312256
 21
463.6405160761
 31
0.0
  0
LINE
  5
AC
330
1F
100
AcDbEntity
  8
0
  6
Continuous
 62
     7
370
    15
100
AcDbLine
 10
379.2089295329
 20
87.6060327625
 30
0.0
 11
379.2089295329
 21
90.6060388422
 31
0.0
  0
LINE
  5
AD
330
1F
100
AcDbEntity
  8
0
  6
Continuous
 62
     7
370
    15
100
AcDbLine
 10
379.2089295329
 20
84.606041584
 30
0.0
 11
379.2089295329
 21
87.6060327625
 31
0.0
  0
LINE
  5
AE
330
1F
100
AcDbEntity
  8
0
  6
Continuous
 62
     7
370
    15
100
AcDbLine
 10
379.2089295329
 20
74.6060362196
 30
0.0
 11
379.2089295329
 21
80.6060334778
 31
0.0
  0
LINE
  5
AF
330
1F
100
AcDbEntity
  8
0
  6
Continuous
 62
     7
370
    15
100
AcDbLine
 10
379.2089295329
 20
444.606040988
 30
0.0
 11
379.2089295329
 21
450.6060382461
 31
0.0
  0
LINE
  5
B0
330
1F
100
AcDbEntity
  8
0
  6
Continuous
 62
     7
370
    15
100
AcDbLine
 10
379.2089295329
 20
457.6060375309
 30
0.0
 11
379.2089295329
 21
460.6060436106
 31
0.0
  0
LINE
  5
B1
330
1F
100
AcDbEntity
  8
0
  6
Continuous
 62
     7
370
    15
100
AcDbLine
 10
379.2089295329
 20
454.6060463524
 30
0.0
 11
379.2089295329
 21
457.6060375309
 31
0.0
  0
LINE
  5
B2
330
1F
100
AcDbEntity
  8
0
  6
Continuous
 62
     7
370
    15
100
AcDbLine
 10
379.3089312256
 20
93.6405262089
 30
0.0
 11
379.3089312256
 21
94.1060384846
 31
0.0
  0
LINE
  5
B3
330
1F
100
AcDbEntity
  8
0
  6
Continuous
 62
     7
370
    15
100
AcDbLine
 10
379.3089312256
 20
463.6405160761
 30
0.0
 11
379.3089312256
 21
464.1060432529
 31
0.0
  0
LINE
  5
B4
330
1F
100
AcDbEntity
  8
0
  6
Continuous
 62
     7
370
    15
100
AcDbLine
 10
379.3089312256
 20
71.1060365772
 30
0.0
 11
379.3089312256
 21
71.5715637541
 31
0.0
  0
LINE
  5
B5
330
1F
100
AcDbEntity
  8
0
  6
Continuous
 62
     7
370
    15
100
AcDbLine
 10
379.3089312256
 20
441.1060413456
 30
0.0
 11
379.3089312256
 21
441.5715536213
 31
0.0
  0
LINE
  5
B6
330
1F
100
AcDbEntity
  8
0
  6
Continuous
 62
     7
370
    15
100
AcDbLine
 10
781.4102840365
 20
108.6060455179
 30
0.0
 11
781.4102840365
 21
73.606034193
 31
0.0
  0
LINE
  5
B7
330
1F
100
AcDbEntity
  8
0
  6
Continuous
 62
     7
370
    15
100
AcDbLine
 10
781.4102840365
 20
108.6060455179
 30
0.0
 11
792.0089286507
 21
108.6060455179
 31
0.0
  0
LINE
  5
B8
330
1F
100
AcDbEntity
  8
0
  6
Continuous
 62
     7
370
    15
100
AcDbLine
 10
781.4102840365
 20
73.606034193
 30
0.0
 11
792.0089286507
 21
73.606034193
 31
0.0
  0
LINE
  5
B9
330
1F
100
AcDbEntity
  8
0
  6
Continuous
 62
     7
370
    15
100
AcDbLine
 10
781.4102840365
 20
426.6060343122
 30
0.0
 11
792.0089286507
 21
426.6060343122
 31
0.0
  0
LINE
  5
BA
330
1F
100
AcDbEntity
  8
0
  6
Continuous
 62
     7
370
    15
100
AcDbLine
 10
781.4102840365
 20
461.6060456371
 30
0.0
 11
781.4102840365
 21
426.6060343122
 31
0.0
  0
LINE
  5
BB
330
1F
100
AcDbEntity
  8
0
  6
Continuous
 62
     7
370
    15
100
AcDbLine
 10
781.4102840365
 20
461.6060456371
 30
0.0
 11
792.0089286507
 21
461.6060456371
 31
0.0
  0
LINE
  5
BC
330
1F
100
AcDbEntity
  8
0
  6
Continuous
 62
     7
370
    15
100
AcDbLine
 10
780.9467685164
 20
108.6060455179
 30
0.0
 11
780.9467685164
 21
73.606034193
 31
0.0
  0
LINE
  5
BD
330
1F
100
AcDbEntity
  8
0
  6
Continuous
 62
     7
370
    15
100
AcDbLine
 10
780.9467685164
 20
108.6060455179
 30
0.0
 11
781.4102840365
 21
108.6060455179
 31
0.0
  0
LINE
  5
BE
330
1F
100
AcDbEntity
  8
0
  6
Continuous
 62
     7
370
    15
100
AcDbLine
 10
780.9467685164
 20
73.606034193
 30
0.0
 11
781.4102840365
 21
73.606034193
 31
0.0
  0
LINE
  5
BF
330
1F
100
AcDbEntity
  8
0
  6
Continuous
 62
     7
370
    15
100
AcDbLine
 10
780.9467685164
 20
461.6060456371
 30
0.0
 11
780.9467685164
 21
426.6060343122
 31
0.0
  0
LINE
  5
C0
330
1F
100
AcDbEntity
  8
0
  6
Continuous
 62
     7
370
    15
100
AcDbLine
 10
780.9467685164
 20
461.6060456371
 30
0.0
 11
781.4102840365
 21
461.6060456371
 31
0.0
  0
LINE
  5
C1
330
1F
100
AcDbEntity
  8
0
  6
Continuous
 62
     7
370
    15
100
AcDbLine
 10
780.9467685164
 20
426.6060343122
 30
0.0
 11
781.4102840365
 21
426.6060343122
 31
0.0
  0
LINE
  5
C2
330
1F
100
AcDbEntity
  8
0
  6
Continuous
 62
     7
370
    15
100
AcDbLine
 10
780.508927697
 20
108.6060455179
 30
0.0
 11
780.9467685164
 21
108.6060455179
 31
0.0
  0
LINE
  5
C3
330
1F
100
AcDbEntity
  8
0
  6
Continuous
 62
     7
370
    15
100
AcDbLine
 10
780.508927697
 20
73.606034193
 30
0.0
 11
780.9467685164
 21
73.606034193
 31
0.0
  0
LINE
  5
C4
330
1F
100
AcDbEntity
  8
0
  6
Continuous
 62
     7
370
    15
100
AcDbLine
 10
780.508927697
 20
461.6060456371
 30
0.0
 11
780.9467685164
 21
461.6060456371
 31
0.0
  0
LINE
  5
C5
330
1F
100
AcDbEntity
  8
0
  6
Continuous
 62
     7
370
    15
100
AcDbLine
 10
780.508927697
 20
426.6060343122
 30
0.0
 11
780.9467685164
 21
426.6060343122
 31
0.0
  0
LINE
  5
C6
330
1F
100
AcDbEntity
  8
0
  6
Continuous
 62
     7
370
    15
100
AcDbLine
 10
372.4609535874
 20
89.1060432529
 30
0.0
 11
373.1914681137
 21
89.1060432529
 31
0.0
  0
ARC
  5
C7
330
1F
100
AcDbEntity
  8
0
  6
Continuous
 62
     7
370
    15
100
AcDbCircle
 10
373.3316087189
 20
88.0172058452
 30
0.0
 40
1.097818878412346
100
AcDbArc
 50
97.334027639
 51
185.8118817724
  0
LINE
  5
C8
330
1F
100
AcDbEntity
  8
0
  6
Continuous
 62
     7
370
    15
100
AcDbLine
 10
372.2394329251
 20
87.9060378408
 30
0.0
 11
371.5089183987
 21
87.9060378408
 31
0.0
  0
ARC
  5
C9
330
1F
100
AcDbEntity
  8
0
  6
Continuous
 62
     7
370
    15
100
AcDbCircle
 10
372.6010941925
 20
88.0172058452
 30
0.0
 40
1.097818878412346
100
AcDbArc
 50
97.334027639
 51
185.8118817724
  0
LINE
  5
CA
330
1F
100
AcDbEntity
  8
0
  6
Continuous
 62
     7
370
    15
100
AcDbLine
 10
373.1914681137
 20
89.1060432529
 30
0.0
 11
376.734904641
 21
89.1060432529
 31
0.0
  0
LINE
  5
CB
330
1F
100
AcDbEntity
  8
0
  6
Continuous
 62
     7
370
    15
100
AcDbLine
 10
376.734904641
 20
89.1060432529
 30
0.0
 11
376.734904641
 21
76.10604671
 31
0.0
  0
LINE
  5
CC
330
1F
100
AcDbEntity
  8
0
  6
Continuous
 62
     7
370
    15
100
AcDbLine
 10
376.734904641
 20
76.10604671
 30
0.0
 11
373.1914681137
 21
76.10604671
 31
0.0
  0
ARC
  5
CD
330
1F
100
AcDbEntity
  8
0
  6
Continuous
 62
     7
370
    15
100
AcDbCircle
 10
373.3315913159
 20
77.1948689304
 30
0.0
 40
1.097801593831469
100
AcDbArc
 50
174.1880113907
 51
262.6667720331
  0
LINE
  5
CE
330
1F
100
AcDbEntity
  8
0
  6
Continuous
 62
     7
370
    15
100
AcDbLine
 10
372.2394329251
 20
87.9060378408
 30
0.0
 11
372.2394329251
 21
77.3060372209
 31
0.0
  0
LINE
  5
CF
330
1F
100
AcDbEntity
  8
0
  6
Continuous
 62
     7
370
    15
100
AcDbLine
 10
371.5089183987
 20
77.3060372209
 30
0.0
 11
372.2394329251
 21
77.3060372209
 31
0.0
  0
LINE
  5
D0
330
1F
100
AcDbEntity
  8
0
  6
Continuous
 62
     7
370
    15
100
AcDbLine
 10
371.5089183987
 20
87.9060378408
 30
0.0
 11
371.5089183987
 21
77.3060372209
 31
0.0
  0
LINE
  5
D1
330
1F
100
AcDbEntity
  8
0
  6
Continuous
 62
     7
370
    15
100
AcDbLine
 10
373.1914681137
 20
76.10604671
 30
0.0
 11
372.4609535874
 21
76.10604671
 31
0.0
  0
ARC
  5
D2
330
1F
100
AcDbEntity
  8
0
  6
Continuous
 62
     7
370
    15
100
AcDbCircle
 10
372.6010767895
 20
77.1948689304
 30
0.0
 40
1.097801593831469
100
AcDbArc
 50
174.1880113907
 51
262.6667720331
  0
LINE
  5
D3
330
1F
100
AcDbEntity
  8
0
  6
Continuous
 62
     7
370
    15
100
AcDbLine
 10
372.2394329251
 20
457.9060426092
 30
0.0
 11
371.5089183987
 21
457.9060426092
 31
0.0
  0
LINE
  5
D4
330
1F
100
AcDbEntity
  8
0
  6
Continuous
 62
     7
370
    15
100
AcDbLine
 10
372.2394329251
 20
457.9060426092
 30
0.0
 11
372.2394329251
 21
447.3060419893
 31
0.0
  0
LINE
  5
D5
330
1F
100
AcDbEntity
  8
0
  6
Continuous
 62
     7
370
    15
100
AcDbLine
 10
371.5089183987
 20
447.3060419893
 30
0.0
 11
372.2394329251
 21
447.3060419893
 31
0.0
  0
LINE
  5
D6
330
1F
100
AcDbEntity
  8
0
  6
Continuous
 62
     7
370
    15
100
AcDbLine
 10
371.5089183987
 20
457.9060426092
 30
0.0
 11
371.5089183987
 21
447.3060419893
 31
0.0
  0
ARC
  5
D7
330
1F
100
AcDbEntity
  8
0
  6
Continuous
 62
     7
370
    15
100
AcDbCircle
 10
373.3315913159
 20
458.0172108997
 30
0.0
 40
1.097801593831474
100
AcDbArc
 50
97.3332279669
 51
185.8119886093
  0
LINE
  5
D8
330
1F
100
AcDbEntity
  8
0
  6
Continuous
 62
     7
370
    15
100
AcDbLine
 10
373.1914681137
 20
459.1060331201
 30
0.0
 11
376.734904641
 21
459.1060331201
 31
0.0
  0
LINE
  5
D9
330
1F
100
AcDbEntity
  8
0
  6
Continuous
 62
     7
370
    15
100
AcDbLine
 10
376.734904641
 20
459.1060331201
 30
0.0
 11
376.734904641
 21
446.1060365772
 31
0.0
  0
LINE
  5
DA
330
1F
100
AcDbEntity
  8
0
  6
Continuous
 62
     7
370
    15
100
AcDbLine
 10
376.734904641
 20
446.1060365772
 30
0.0
 11
373.1914681137
 21
446.1060365772
 31
0.0
  0
ARC
  5
DB
330
1F
100
AcDbEntity
  8
0
  6
Continuous
 62
     7
370
    15
100
AcDbCircle
 10
373.3316087189
 20
447.194873985
 30
0.0
 40
1.09781887841235
100
AcDbArc
 50
174.1881182276
 51
262.665972361
  0
LINE
  5
DC
330
1F
100
AcDbEntity
  8
0
  6
Continuous
 62
     7
370
    15
100
AcDbLine
 10
372.4609535874
 20
459.1060331201
 30
0.0
 11
373.1914681137
 21
459.1060331201
 31
0.0
  0
ARC
  5
DD
330
1F
100
AcDbEntity
  8
0
  6
Continuous
 62
     7
370
    15
100
AcDbCircle
 10
372.6010767895
 20
458.0172108997
 30
0.0
 40
1.097801593831474
100
AcDbArc
 50
97.3332279669
 51
185.8119886093
  0
LINE
  5
DE
330
1F
100
AcDbEntity
  8
0
  6
Continuous
 62
     7
370
    15
100
AcDbLine
 10
373.1914681137
 20
446.1060365772
 30
0.0
 11
372.4609535874
 21
446.1060365772
 31
0.0
  0
ARC
  5
DF
330
1F
100
AcDbEntity
  8
0
  6
Continuous
 62
     7
370
    15
100
AcDbCircle
 10
372.6010941925
 20
447.194873985
 30
0.0
 40
1.09781887841235
100
AcDbArc
 50
174.1881182276
 51
262.665972361
  0
LINE
  5
E0
330
1F
100
AcDbEntity
  8
0
  6
Continuous
 62
     7
370
    15
100
AcDbLine
 10
376.816443795
 20
89.1060432529
 30
0.0
 11
376.734904641
 21
89.1060432529
 31
0.0
  0
LINE
  5
E1
330
1F
100
AcDbEntity
  8
0
  6
Continuous
 62
     7
370
    15
100
AcDbLine
 10
376.734904641
 20
76.10604671
 30
0.0
 11
376.8684339465
 21
76.10604671
 31
0.0
  0
LINE
  5
E2
330
1F
100
AcDbEntity
  8
0
  6
Continuous
 62
     7
370
    15
100
AcDbLine
 10
376.8348616303
 20
459.1060331201
 30
0.0
 11
376.734904641
 21
459.1060331201
 31
0.0
  0
LINE
  5
E3
330
1F
100
AcDbEntity
  8
0
  6
Continuous
 62
     7
370
    15
100
AcDbLine
 10
376.734904641
 20
446.1060365772
 30
0.0
 11
376.8684339465
 21
446.1060365772
 31
0.0
  0
LINE
  5
E4
330
1F
100
AcDbEntity
  8
0
  6
Continuous
 62
     7
370
    15
100
AcDbLine
 10
371.5089183987
 20
77.9060324764
 30
0.0
 11
371.404118532
 21
77.9060324764
 31
0.0
  0
LINE
  5
E5
330
1F
100
AcDbEntity
  8
0
  6
Continuous
 62
     7
370
    15
100
AcDbLine
 10
371.5089183987
 20
86.5060439443
 30
0.0
 11
371.404118532
 21
86.5060439443
 31
0.0
  0
LINE
  5
E6
330
1F
100
AcDbEntity
  8
0
  6
Continuous
 62
     7
370
    15
100
AcDbLine
 10
376.8830817879
 20
74.6060362196
 30
0.0
 11
372.009522909
 21
74.6060362196
 31
0.0
  0
LINE
  5
E7
330
1F
100
AcDbEntity
  8
0
  6
Continuous
 62
     7
370
    15
100
AcDbLine
 10
376.8748116434
 20
75.4060348606
 30
0.0
 11
372.0089268626
 21
75.4060348606
 31
0.0
  0
LINE
  5
E8
330
1F
100
AcDbEntity
  8
0
  6
Continuous
 62
     7
370
    15
100
AcDbLine
 10
376.8348616303
 20
89.8060402012
 30
0.0
 11
372.0089268626
 21
89.8060402012
 31
0.0
  0
LINE
  5
E9
330
1F
100
AcDbEntity
  8
0
  6
Continuous
 62
     7
370
    15
100
AcDbLine
 10
376.8373948277
 20
90.6060388422
 30
0.0
 11
372.009522909
 21
90.6060388422
 31
0.0
  0
LINE
  5
EA
330
1F
100
AcDbEntity
  8
0
  6
Continuous
 62
     7
370
    15
100
AcDbLine
 10
375.6089281977
 20
90.9060439205
 30
0.0
 11
376.7722767533
 21
90.9060439205
 31
0.0
  0
LINE
  5
EB
330
1F
100
AcDbEntity
  8
0
  6
Continuous
 62
     7
370
    15
100
AcDbLine
 10
376.9354295672
 20
90.9060439205
 30
0.0
 11
376.9977760256
 21
90.9060439205
 31
0.0
  0
LINE
  5
EC
330
1F
100
AcDbEntity
  8
0
  6
Continuous
 62
     7
370
    15
100
AcDbLine
 10
373.408920759
 20
90.9060439205
 30
0.0
 11
375.6089281977
 21
90.9060439205
 31
0.0
  0
LINE
  5
ED
330
1F
100
AcDbEntity
  8
0
  6
Continuous
 62
     7
370
    15
100
AcDbLine
 10
375.6089281977
 20
74.2060443497
 30
0.0
 11
376.7123144806
 21
74.2060443497
 31
0.0
  0
LINE
  5
EE
330
1F
100
AcDbEntity
  8
0
  6
Continuous
 62
     7
370
    15
100
AcDbLine
 10
373.5089224518
 20
74.2060443497
 30
0.0
 11
375.6089281977
 21
74.2060443497
 31
0.0
  0
LINE
  5
EF
330
1F
100
AcDbEntity
  8
0
  6
Continuous
 62
     7
370
    15
100
AcDbLine
 10
375.6089281977
 20
73.8060375786
 30
0.0
 11
376.4724355877
 21
73.8060375786
 31
0.0
  0
LINE
  5
F0
330
1F
100
AcDbEntity
  8
0
  6
Continuous
 62
     7
370
    15
100
AcDbLine
 10
373.5089224518
 20
73.8060375786
 30
0.0
 11
375.6089281977
 21
73.8060375786
 31
0.0
  0
ARC
  5
F1
330
1F
100
AcDbEntity
  8
0
  6
Continuous
 62
     7
370
    15
100
AcDbCircle
 10
372.474659633
 20
75.403780072
 30
0.0
 40
0.8026958953761012
100
AcDbArc
 50
179.8390548171
 51
234.5346344588
  0
ARC
  5
F2
330
1F
100
AcDbEntity
  8
0
  6
Continuous
 62
     7
370
    15
100
AcDbCircle
 10
372.4746714785
 20
89.8083037553
 30
0.0
 40
0.8027077655064321
100
AcDbArc
 50
125.4658000801
 51
180.1615684768
  0
LINE
  5
F3
330
1F
100
AcDbEntity
  8
0
  6
Continuous
 62
     7
370
    15
100
AcDbLine
 10
372.459806198
 20
75.8560350275
 30
0.0
 11
372.459806198
 21
75.4060348606
 31
0.0
  0
LINE
  5
F4
330
1F
100
AcDbEntity
  8
0
  6
Continuous
 62
     7
370
    15
100
AcDbLine
 10
372.459806198
 20
89.8060402012
 30
0.0
 11
372.459806198
 21
89.3560400343
 31
0.0
  0
LINE
  5
F5
330
1F
100
AcDbEntity
  8
0
  6
Continuous
 62
     7
370
    15
100
AcDbLine
 10
371.6719669045
 20
75.4060348606
 30
0.0
 11
371.6719669045
 21
76.6344865894
 31
0.0
  0
LINE
  5
F6
330
1F
100
AcDbEntity
  8
0
  6
Continuous
 62
     7
370
    15
100
AcDbLine
 10
371.6719669045
 20
88.5776033735
 30
0.0
 11
371.6719669045
 21
89.8060402012
 31
0.0
  0
SPLINE
  5
F7
330
1F
100
AcDbEntity
  8
0
  6
Continuous
 62
     7
370
    15
100
AcDbSpline
210
0.0
220
0.0
230
1.0
 70
    24
 71
     3
 72
    12
 73
     8
 74
     0
 42
0.00000001
 43
0.00000001
 40
0.0
 40
0.0
 40
0.0
 40
0.0
 40
0.2185046622498982
 40
0.4370159030206627
 40
0.6555180100117202
 40
0.8740243431496125
 40
0.9999999999999999
 40
0.9999999999999999
 40
0.9999999999999999
 40
0.9999999999999999
 10
378.6682707012537
 20
89.29843214510785
 30
0.0
 10
378.4715510346261
 20
89.29843214510785
 30
0.0
 10
378.078105778731
 20
89.29843214510785
 30
0.0
 10
377.5173497368527
 20
89.29843214510788
 30
0.0
 10
377.0996841012858
 20
89.29843214510782
 30
0.0
 10
376.873121382346
 20
89.29843214510788
 30
0.0
 10
376.8906492188745
 20
89.29843214510785
 30
0.0
 10
376.8970590771082
 20
89.29843214510785
 30
0.0
  0
SPLINE
  5
F8
330
1F
100
AcDbEntity
  8
0
  6
Continuous
 62
     7
370
    15
100
AcDbSpline
210
0.0
220
0.0
230
1.0
 70
    24
 71
     3
 72
     9
 73
     5
 74
     0
 42
0.00000001
 43
0.00000001
 40
0.0
 40
0.0
 40
0.0
 40
0.0
 40
0.0025141086251864
 40
1.0
 40
1.0
 40
1.0
 40
1.0
 10
379.20892953285
 20
89.29843214510785
 30
0.0
 10
379.2085819719138
 20
89.29843214510785
 30
0.0
 10
379.0703377716088
 20
89.298432145105
 30
0.0
 10
378.8690512082887
 20
89.29843214510643
 30
0.0
 10
378.6682707012537
 20
89.29843214510785
 30
0.0
  0
SPLINE
  5
F9
330
1F
100
AcDbEntity
  8
0
  6
Continuous
 62
     7
370
    15
100
AcDbSpline
210
0.0
220
0.0
230
1.0
 70
     8
 71
     3
 72
    13
 73
     9
 74
     0
 42
0.00000001
 43
0.00000001
 40
0.0
 40
0.0
 40
0.0
 40
0.0
 40
0.1877388176084382
 40
0.375470506460641
 40
0.5632083521533752
 40
0.7509480126769308
 40
0.9386855053317378
 40
1.0
 40
1.0
 40
1.0
 40
1.0
 10
378.3749860466363
 20
92.91327503680094
 30
0.0
 10
378.1782897114977
 20
92.91057210665596
 30
0.0
 10
377.7849045101086
 20
92.9051663490007
 30
0.0
 10
377.251881865761
 20
92.61464584235435
 30
0.0
 10
376.8613660499998
 20
92.15973915845954
 30
0.0
 10
376.6883959033991
 20
91.59806062735365
 30
0.0
 10
376.6916914998708
 20
91.12485833979065
 30
0.0
 10
376.8190252466604
 20
90.90342731547524
 30
0.0
 10
376.8503737390878
 20
90.8489128684889
 30
0.0
  0
SPLINE
  5
FA
330
1F
100
AcDbEntity
  8
0
  6
Continuous
 62
     7
370
    15
100
AcDbSpline
210
0.0
220
0.0
230
1.0
 70
     8
 71
     3
 72
    10
 73
     6
 74
     0
 42
0.00000001
 43
0.00000001
 40
0.0
 40
0.0
 40
0.0
 40
0.0
 40
0.209346108695261
 40
0.6046682537540696
 40
1.0
 40
1.0
 40
1.0
 40
1.0
 10
379.5121532619837
 20
92.1071520185362
 30
0.0
 10
379.4704516849305
 20
92.20022086031915
 30
0.0
 10
379.3500022534477
 20
92.46903777022285
 30
0.0
 10
378.9432853580135
 20
92.7856805654709
 30
0.0
 10
378.5644206839909
 20
92.87074320204248
 30
0.0
 10
378.3749860466364
 20
92.91327503680097
 30
0.0
  0
SPLINE
  5
FB
330
1F
100
AcDbEntity
  8
0
  6
Continuous
 62
     7
370
    15
100
AcDbSpline
210
0.0
220
0.0
230
1.0
 70
     8
 71
     3
 72
    13
 73
     9
 74
     0
 42
0.00000001
 43
0.00000001
 40
0.0
 40
0.0
 40
0.0
 40
0.0
 40
0.1768619017638906
 40
0.3537276298646171
 40
0.5305930828689958
 40
0.707454616377492
 40
0.8843193829289175
 40
1.0
 40
1.0
 40
1.0
 40
1.0
 10
378.3577603042963
 20
72.27008548735486
 30
0.0
 10
378.1610932016767
 20
72.27277930186598
 30
0.0
 10
377.7677547416229
 20
72.27816698916789
 30
0.0
 10
377.2343696293856
 20
72.5688408693617
 30
0.0
 10
376.845240859251
 20
73.02320428685161
 30
0.0
 10
376.6670781901753
 20
73.58689403338988
 30
0.0
 10
376.6880403796285
 20
74.12004602557145
 30
0.0
 10
376.8541347831694
 20
74.3933130486128
 30
0.0
 10
376.9198131502512
 20
74.50137046336042
 30
0.0
  0
SPLINE
  5
FC
330
1F
100
AcDbEntity
  8
0
  6
Continuous
 62
     7
370
    15
100
AcDbSpline
210
0.0
220
0.0
230
1.0
 70
     8
 71
     3
 72
    10
 73
     6
 74
     0
 42
0.00000001
 43
0.00000001
 40
0.0
 40
0.0
 40
0.0
 40
0.0
 40
0.0588283164912342
 40
0.5294084437569221
 40
1.0
 40
1.0
 40
1.0
 40
1.0
 10
379.3878775776269
 20
72.86999133585795
 30
0.0
 10
379.377237939117
 20
72.84851041982579
 30
0.0
 10
379.2814895852352
 20
72.65519912000754
 30
0.0
 10
378.9206466609324
 20
72.40101807874893
 30
0.0
 10
378.5453906087968
 20
72.31373003780925
 30
0.0
 10
378.3577603042962
 20
72.27008548735483
 30
0.0
  0
SPLINE
  5
FD
330
1F
100
AcDbEntity
  8
0
  6
Continuous
 62
     7
370
    15
100
AcDbSpline
210
0.0
220
0.0
230
1.0
 70
    24
 71
     3
 72
    12
 73
     8
 74
     0
 42
0.00000001
 43
0.00000001
 40
0.0
 40
0.0
 40
0.0
 40
0.0
 40
0.2193540129458531
 40
0.4387146299839778
 40
0.6580660777384292
 40
0.8774217680671946
 40
1.0
 40
1.0
 40
1.0
 40
1.0
 10
378.6682707012537
 20
75.7398059701811
 30
0.0
 10
378.4715556626788
 20
75.73980597018107
 30
0.0
 10
378.0781196630283
 20
75.73980597018112
 30
0.0
 10
377.5172941986803
 20
75.73980597018098
 30
0.0
 10
377.0998923612024
 20
75.73980597018112
 30
0.0
 10
376.8740470719708
 20
75.7398059701811
 30
0.0
 10
376.8910194390918
 20
75.73980597018107
 30
0.0
 10
376.8971037805917
 20
75.7398059701811
 30
0.0
  0
SPLINE
  5
FE
330
1F
100
AcDbEntity
  8
0
  6
Continuous
 62
     7
370
    15
100
AcDbSpline
210
0.0
220
0.0
230
1.0
 70
    24
 71
     3
 72
     9
 73
     5
 74
     0
 42
0.00000001
 43
0.00000001
 40
0.0
 40
0.0
 40
0.0
 40
0.0
 40
0.0025141086251864
 40
1.0
 40
1.0
 40
1.0
 40
1.0
 10
379.20892953285
 20
75.7398059701811
 30
0.0
 10
379.2085819719138
 20
75.7398059701811
 30
0.0
 10
379.0703377716088
 20
75.73980597017729
 30
0.0
 10
378.8690512082887
 20
75.73980597017918
 30
0.0
 10
378.6682707012537
 20
75.7398059701811
 30
0.0
  0
SPLINE
  5
FF
330
1F
100
AcDbEntity
  8
0
  6
Continuous
 62
     7
370
    15
100
AcDbSpline
210
0.0
220
0.0
230
1.0
 70
     8
 71
     3
 72
    13
 73
     9
 74
     0
 42
0.00000001
 43
0.00000001
 40
0.0
 40
0.0
 40
0.0
 40
0.0
 40
0.1768619017638906
 40
0.3537276298646171
 40
0.5305930828689958
 40
0.707454616377492
 40
0.8843193829289175
 40
1.0
 40
1.0
 40
1.0
 40
1.0
 10
376.8059086740854
 20
95.52969542502271
 30
0.0
 10
376.6092415714658
 20
95.52700161051156
 30
0.0
 10
376.215903111412
 20
95.52161392320974
 30
0.0
 10
375.6825179991748
 20
95.23094004301585
 30
0.0
 10
375.2933892290401
 20
94.77657662552608
 30
0.0
 10
375.1152265599644
 20
94.21288687898758
 30
0.0
 10
375.1361887494177
 20
93.67973488680606
 30
0.0
 10
375.3022831529585
 20
93.4064678637648
 30
0.0
 10
375.3679615200403
 20
93.29841044901715
 30
0.0
  0
SPLINE
  5
100
330
1F
100
AcDbEntity
  8
0
  6
Continuous
 62
     7
370
    15
100
AcDbSpline
210
0.0
220
0.0
230
1.0
 70
     8
 71
     3
 72
    10
 73
     6
 74
     0
 42
0.00000001
 43
0.00000001
 40
0.0
 40
0.0
 40
0.0
 40
0.0
 40
0.1474578521452845
 40
0.5737271550776858
 40
0.9999999999999999
 40
0.9999999999999999
 40
0.9999999999999999
 40
0.9999999999999999
 10
377.8944981039407
 20
94.81716660021647
 30
0.0
 10
377.8664357383026
 20
94.87745838571703
 30
0.0
 10
377.757251039298
 20
95.11204090585113
 30
0.0
 10
377.3722022163117
 20
95.40086261733357
 30
0.0
 10
376.9946737109902
 20
95.48675103684833
 30
0.0
 10
376.8059086740853
 20
95.52969542502268
 30
0.0
  0
SPLINE
  5
101
330
1F
100
AcDbEntity
  8
0
  6
Continuous
 62
     7
370
    15
100
AcDbSpline
210
0.0
220
0.0
230
1.0
 70
     8
 71
     3
 72
    13
 73
     9
 74
     0
 42
0.00000001
 43
0.00000001
 40
0.0
 40
0.0
 40
0.0
 40
0.0
 40
0.1768618655720593
 40
0.3537275574801715
 40
0.5305929742919921
 40
0.7074538962369241
 40
0.8843194066010218
 40
1.0
 40
1.0
 40
1.0
 40
1.0
 10
376.7886829317453
 20
69.65366509913312
 30
0.0
 10
376.5920158312344
 20
69.65635889253873
 30
0.0
 10
376.1986773753983
 20
69.66174653762907
 30
0.0
 10
375.6652922315284
 20
69.95242073441419
 30
0.0
 10
375.2761640035664
 20
70.40678245615482
 30
0.0
 10
375.0980004734485
 20
70.97047673775621
 30
0.0
 10
375.1189626474146
 20
71.50362425372153
 30
0.0
 10
375.2850574341921
 20
71.77689247477458
 30
0.0
 10
375.3507357777002
 20
71.88495007513865
 30
0.0
  0
SPLINE
  5
102
330
1F
100
AcDbEntity
  8
0
  6
Continuous
 62
     7
370
    15
100
AcDbSpline
210
0.0
220
0.0
230
1.0
 70
     8
 71
     3
 72
    10
 73
     6
 74
     0
 42
0.00000001
 43
0.00000001
 40
0.0
 40
0.0
 40
0.0
 40
0.0
 40
0.1474545267915011
 40
0.5737286121614119
 40
1.0
 40
1.0
 40
1.0
 40
1.0
 10
377.8772723616007
 20
70.36619392393933
 30
0.0
 10
377.849215647687
 20
70.30590193987848
 30
0.0
 10
377.7400501992892
 20
70.07131276115103
 30
0.0
 10
377.3549719356726
 20
69.78250192026472
 30
0.0
 10
376.9774455348784
 20
69.69661061558769
 30
0.0
 10
376.7886829317453
 20
69.65366509913312
 30
0.0
  0
SPLINE
  5
103
330
1F
100
AcDbEntity
  8
0
  6
Continuous
 62
     7
370
    15
100
AcDbSpline
210
0.0
220
0.0
230
1.0
 70
    24
 71
     3
 72
    12
 73
     8
 74
     0
 42
0.00000001
 43
0.00000001
 40
0.0
 40
0.0
 40
0.0
 40
0.0
 40
0.2185046622498982
 40
0.4370159030206627
 40
0.6555180100117202
 40
0.8740243431496125
 40
0.9999999999999999
 40
0.9999999999999999
 40
0.9999999999999999
 40
0.9999999999999999
 10
378.6682707012537
 20
459.2984369134795
 30
0.0
 10
378.4715510346261
 20
459.2984369134795
 30
0.0
 10
378.078105778731
 20
459.2984369134795
 30
0.0
 10
377.5173497368527
 20
459.2984369134795
 30
0.0
 10
377.0996841012858
 20
459.2984369134794
 30
0.0
 10
376.873121382346
 20
459.2984369134794
 30
0.0
 10
376.8906492188745
 20
459.2984369134795
 30
0.0
 10
376.8970590771082
 20
459.2984369134795
 30
0.0
  0
SPLINE
  5
104
330
1F
100
AcDbEntity
  8
0
  6
Continuous
 62
     7
370
    15
100
AcDbSpline
210
0.0
220
0.0
230
1.0
 70
    24
 71
     3
 72
     9
 73
     5
 74
     0
 42
0.00000001
 43
0.00000001
 40
0.0
 40
0.0
 40
0.0
 40
0.0
 40
0.0025141086251864
 40
1.0
 40
1.0
 40
1.0
 40
1.0
 10
379.20892953285
 20
459.2984369134795
 30
0.0
 10
379.2085819719138
 20
459.2984369134795
 30
0.0
 10
379.0703377716088
 20
459.2984369134842
 30
0.0
 10
378.8690512082887
 20
459.2984369134818
 30
0.0
 10
378.6682707012537
 20
459.2984369134795
 30
0.0
  0
SPLINE
  5
105
330
1F
100
AcDbEntity
  8
0
  6
Continuous
 62
     7
370
    15
100
AcDbSpline
210
0.0
220
0.0
230
1.0
 70
     8
 71
     3
 72
    13
 73
     9
 74
     0
 42
0.00000001
 43
0.00000001
 40
0.0
 40
0.0
 40
0.0
 40
0.0
 40
0.1877392486070275
 40
0.3754735804977203
 40
0.5632118571868127
 40
0.7509474409195469
 40
0.9386853645699014
 40
1.0
 40
1.0
 40
1.0
 40
1.0
 10
378.3749860466364
 20
462.9132798051726
 30
0.0
 10
378.1782890718216
 20
462.9105780938512
 30
0.0
 10
377.7849002735027
 20
462.9051747419639
 30
0.0
 10
377.2518854667055
 20
462.6146331485846
 30
0.0
 10
376.8613696105398
 20
462.1597334905618
 30
0.0
 10
376.6883939947171
 20
461.5980609646484
 30
0.0
 10
376.6916916316516
 20
461.1248630774693
 30
0.0
 10
376.8190252726944
 20
460.9034320777833
 30
0.0
 10
376.8503737390878
 20
460.8489176368605
 30
0.0
  0
SPLINE
  5
106
330
1F
100
AcDbEntity
  8
0
  6
Continuous
 62
     7
370
    15
100
AcDbSpline
210
0.0
220
0.0
230
1.0
 70
     8
 71
     3
 72
    10
 73
     6
 74
     0
 42
0.00000001
 43
0.00000001
 40
0.0
 40
0.0
 40
0.0
 40
0.0
 40
0.2093378553024356
 40
0.6046672852002561
 40
1.0
 40
1.0
 40
1.0
 40
1.0
 10
379.5121532619837
 20
462.1071567869078
 30
0.0
 10
379.470450627331
 20
462.2002198080787
 30
0.0
 10
379.3499935850789
 20
462.4690300731053
 30
0.0
 10
378.9432915314635
 20
462.7856880411604
 30
0.0
 10
378.5644217329323
 20
462.8707490993697
 30
0.0
 10
378.3749860466363
 20
462.9132798051726
 30
0.0
  0
SPLINE
  5
107
330
1F
100
AcDbEntity
  8
0
  6
Continuous
 62
     7
370
    15
100
AcDbSpline
210
0.0
220
0.0
230
1.0
 70
     8
 71
     3
 72
    13
 73
     9
 74
     0
 42
0.00000001
 43
0.00000001
 40
0.0
 40
0.0
 40
0.0
 40
0.0
 40
0.1768608012637254
 40
0.3537258533392639
 40
0.530590630319506
 40
0.7074557345593472
 40
0.8843198250892601
 40
1.0
 40
1.0
 40
1.0
 40
1.0
 10
378.3577603042963
 20
442.2700902557265
 30
0.0
 10
378.1610930648534
 20
442.2727778311541
 30
0.0
 10
377.7677538591123
 20
442.2781530466046
 30
0.0
 10
377.2343700137693
 20
442.568831910665
 30
0.0
 10
376.8452366630009
 20
443.0231971366798
 30
0.0
 10
376.6670801250878
 20
443.5868948034292
 30
0.0
 10
376.6880400564496
 20
444.1200506684276
 30
0.0
 10
376.8541346915889
 20
444.3933177814166
 30
0.0
 10
376.9198131502511
 20
444.501375231732
 30
0.0
  0
SPLINE
  5
108
330
1F
100
AcDbEntity
  8
0
  6
Continuous
 62
     7
370
    15
100
AcDbSpline
210
0.0
220
0.0
230
1.0
 70
     8
 71
     3
 72
    10
 73
     6
 74
     0
 42
0.00000001
 43
0.00000001
 40
0.0
 40
0.0
 40
0.0
 40
0.0
 40
0.0588280775976518
 40
0.5294138126066582
 40
1.0
 40
1.0
 40
1.0
 40
1.0
 10
379.387877577627
 20
442.8699961042296
 30
0.0
 10
379.3772379076668
 20
442.8485152310353
 30
0.0
 10
379.2814879109211
 20
442.6552015712946
 30
0.0
 10
378.9206548640092
 20
442.4010021423625
 30
0.0
 10
378.5453918843253
 20
442.313727565255
 30
0.0
 10
378.3577603042963
 20
442.2700902557265
 30
0.0
  0
SPLINE
  5
109
330
1F
100
AcDbEntity
  8
0
  6
Continuous
 62
     7
370
    15
100
AcDbSpline
210
0.0
220
0.0
230
1.0
 70
    24
 71
     3
 72
    12
 73
     8
 74
     0
 42
0.00000001
 43
0.00000001
 40
0.0
 40
0.0
 40
0.0
 40
0.0
 40
0.2193540129458531
 40
0.4387146299839778
 40
0.6580660777384292
 40
0.8774217680671946
 40
1.0
 40
1.0
 40
1.0
 40
1.0
 10
378.6682707012537
 20
445.7398107385527
 30
0.0
 10
378.4715556626788
 20
445.7398107385527
 30
0.0
 10
378.0781196630283
 20
445.7398107385526
 30
0.0
 10
377.5172941986803
 20
445.7398107385527
 30
0.0
 10
377.0998923612024
 20
445.7398107385527
 30
0.0
 10
376.8740470719708
 20
445.7398107385527
 30
0.0
 10
376.8910194390918
 20
445.7398107385527
 30
0.0
 10
376.8971037805917
 20
445.7398107385527
 30
0.0
  0
SPLINE
  5
10A
330
1F
100
AcDbEntity
  8
0
  6
Continuous
 62
     7
370
    15
100
AcDbSpline
210
0.0
220
0.0
230
1.0
 70
    24
 71
     3
 72
     9
 73
     5
 74
     0
 42
0.00000001
 43
0.00000001
 40
0.0
 40
0.0
 40
0.0
 40
0.0
 40
0.0025141086251864
 40
1.0
 40
1.0
 40
1.0
 40
1.0
 10
379.20892953285
 20
445.7398107385527
 30
0.0
 10
379.2085819719138
 20
445.7398107385527
 30
0.0
 10
379.0703377716088
 20
445.7398107385565
 30
0.0
 10
378.8690512082887
 20
445.7398107385546
 30
0.0
 10
378.6682707012537
 20
445.7398107385527
 30
0.0
  0
SPLINE
  5
10B
330
1F
100
AcDbEntity
  8
0
  6
Continuous
 62
     7
370
    15
100
AcDbSpline
210
0.0
220
0.0
230
1.0
 70
     8
 71
     3
 72
    13
 73
     9
 74
     0
 42
0.00000001
 43
0.00000001
 40
0.0
 40
0.0
 40
0.0
 40
0.0
 40
0.1768608587238816
 40
0.3537259682609574
 40
0.5305908027026474
 40
0.7074517176621629
 40
0.8843158656533007
 40
1.0
 40
1.0
 40
1.0
 40
1.0
 10
376.8059086740854
 20
465.5296852922331
 30
0.0
 10
376.609241464073
 20
465.5269977120748
 30
0.0
 10
376.2159023171936
 20
465.5216224871629
 30
0.0
 10
375.6825180303802
 20
465.2309436940639
 30
0.0
 10
375.2933894717123
 20
464.7765818350158
 30
0.0
 10
375.1152255580893
 20
464.2128910001902
 30
0.0
 10
375.1361921398303
 20
463.679737026074
 30
0.0
 10
375.3022831490392
 20
463.4064627957619
 30
0.0
 10
375.3679615200403
 20
463.2984003162276
 30
0.0
  0
SPLINE
  5
10C
330
1F
100
AcDbEntity
  8
0
  6
Continuous
 62
     7
370
    15
100
AcDbSpline
210
0.0
220
0.0
230
1.0
 70
     8
 71
     3
 72
    10
 73
     6
 74
     0
 42
0.00000001
 43
0.00000001
 40
0.0
 40
0.0
 40
0.0
 40
0.0
 40
0.1474583140153851
 40
0.5737289521160597
 40
1.0
 40
1.0
 40
1.0
 40
1.0
 10
377.8944981039407
 20
464.8171713685881
 30
0.0
 10
377.8664357209399
 20
464.8774630958982
 30
0.0
 10
377.7572509543813
 20
465.1120453896252
 30
0.0
 10
377.372204594074
 20
465.4008704080242
 30
0.0
 10
376.9946740412363
 20
465.4867469837376
 30
0.0
 10
376.8059086740854
 20
465.5296852922331
 30
0.0
  0
SPLINE
  5
10D
330
1F
100
AcDbEntity
  8
0
  6
Continuous
 62
     7
370
    15
100
AcDbSpline
210
0.0
220
0.0
230
1.0
 70
     8
 71
     3
 72
    13
 73
     9
 74
     0
 42
0.00000001
 43
0.00000001
 40
0.0
 40
0.0
 40
0.0
 40
0.0
 40
0.1768607650698142
 40
0.3537257809505717
 40
0.530590521736089
 40
0.7074550144253445
 40
0.8843198487627815
 40
0.9999999999999999
 40
0.9999999999999999
 40
0.9999999999999999
 40
0.9999999999999999
 10
376.7886829317453
 20
439.6536698675047
 30
0.0
 10
376.5920156944109
 20
439.6563574218277
 30
0.0
 10
376.1986764928869
 20
439.6617325950685
 30
0.0
 10
375.6652926159159
 20
439.9524117757077
 30
0.0
 10
375.2761598072946
 20
440.4067753060237
 30
0.0
 10
375.0980024083892
 20
440.9704775077804
 30
0.0
 10
375.1189623242318
 20
441.5036288965844
 30
0.0
 10
375.2850573426107
 20
441.7768972075804
 30
0.0
 10
375.3507357777002
 20
441.8849548435103
 30
0.0
  0
SPLINE
  5
10E
330
1F
100
AcDbEntity
  8
0
  6
Continuous
 62
     7
370
    15
100
AcDbSpline
210
0.0
220
0.0
230
1.0
 70
     8
 71
     3
 72
    10
 73
     6
 74
     0
 42
0.00000001
 43
0.00000001
 40
0.0
 40
0.0
 40
0.0
 40
0.0
 40
0.1474630470485704
 40
0.5737344383701368
 40
1.0
 40
1.0
 40
1.0
 40
1.0
 10
377.8772723616007
 20
440.3661986923109
 30
0.0
 10
377.8492161782714
 20
440.3059014625508
 30
0.0
 10
377.740057993171
 20
440.0713030465811
 30
0.0
 10
377.3549728567961
 20
439.7824896572903
 30
0.0
 10
376.9774453795781
 20
439.6966096016824
 30
0.0
 10
376.7886829317453
 20
439.6536698675047
 30
0.0
  0
LINE
  5
10F
330
1F
100
AcDbEntity
  8
0
  6
Continuous
 62
     7
370
    15
100
AcDbLine
 10
371.5089183987
 20
447.9060372448
 30
0.0
 11
371.404118532
 21
447.9060372448
 31
0.0
  0
LINE
  5
110
330
1F
100
AcDbEntity
  8
0
  6
Continuous
 62
     7
370
    15
100
AcDbLine
 10
371.5089183987
 20
456.5060338116
 30
0.0
 11
371.404118532
 21
456.5060338116
 31
0.0
  0
LINE
  5
111
330
1F
100
AcDbEntity
  8
0
  6
Continuous
 62
     7
370
    15
100
AcDbLine
 10
376.8348616303
 20
445.406039629
 30
0.0
 11
372.0089268626
 21
445.406039629
 31
0.0
  0
LINE
  5
112
330
1F
100
AcDbEntity
  8
0
  6
Continuous
 62
     7
370
    15
100
AcDbLine
 10
376.8907856882
 20
444.606040988
 30
0.0
 11
372.009522909
 21
444.606040988
 31
0.0
  0
LINE
  5
113
330
1F
100
AcDbEntity
  8
0
  6
Continuous
 62
     7
370
    15
100
AcDbLine
 10
376.9389909447
 20
460.6060436106
 30
0.0
 11
372.009522909
 21
460.6060436106
 31
0.0
  0
LINE
  5
114
330
1F
100
AcDbEntity
  8
0
  6
Continuous
 62
     7
370
    15
100
AcDbLine
 10
376.8348616303
 20
459.8060449695
 30
0.0
 11
372.0089268626
 21
459.8060449695
 31
0.0
  0
LINE
  5
115
330
1F
100
AcDbEntity
  8
0
  6
Continuous
 62
     7
370
    15
100
AcDbLine
 10
375.6089281977
 20
460.9060337877
 30
0.0
 11
376.7722767533
 21
460.9060337877
 31
0.0
  0
LINE
  5
116
330
1F
100
AcDbEntity
  8
0
  6
Continuous
 62
     7
370
    15
100
AcDbLine
 10
373.408920759
 20
460.9060337877
 30
0.0
 11
375.6089281977
 21
460.9060337877
 31
0.0
  0
LINE
  5
117
330
1F
100
AcDbEntity
  8
0
  6
Continuous
 62
     7
370
    15
100
AcDbLine
 10
375.6089281977
 20
443.8060423469
 30
0.0
 11
376.4724355877
 21
443.8060423469
 31
0.0
  0
LINE
  5
118
330
1F
100
AcDbEntity
  8
0
  6
Continuous
 62
     7
370
    15
100
AcDbLine
 10
373.5089224518
 20
443.8060423469
 30
0.0
 11
375.6089281977
 21
443.8060423469
 31
0.0
  0
LINE
  5
119
330
1F
100
AcDbEntity
  8
0
  6
Continuous
 62
     7
370
    15
100
AcDbLine
 10
375.6089281977
 20
444.2060342169
 30
0.0
 11
376.7123144806
 21
444.2060342169
 31
0.0
  0
LINE
  5
11A
330
1F
100
AcDbEntity
  8
0
  6
Continuous
 62
     7
370
    15
100
AcDbLine
 10
373.5089224518
 20
444.2060342169
 30
0.0
 11
375.6089281977
 21
444.2060342169
 31
0.0
  0
ARC
  5
11B
330
1F
100
AcDbEntity
  8
0
  6
Continuous
 62
     7
370
    15
100
AcDbCircle
 10
372.4746714785
 20
445.4037760748
 30
0.0
 40
0.8027077655064667
100
AcDbArc
 50
179.8384315232
 51
234.5341999199
  0
ARC
  5
11C
330
1F
100
AcDbEntity
  8
0
  6
Continuous
 62
     7
370
    15
100
AcDbCircle
 10
372.474659633
 20
459.8082997581
 30
0.0
 40
0.8026958953761126
100
AcDbArc
 50
125.4653655412
 51
180.1609451829
  0
LINE
  5
11D
330
1F
100
AcDbEntity
  8
0
  6
Continuous
 62
     7
370
    15
100
AcDbLine
 10
372.459806198
 20
445.8560397959
 30
0.0
 11
372.459806198
 21
445.406039629
 31
0.0
  0
LINE
  5
11E
330
1F
100
AcDbEntity
  8
0
  6
Continuous
 62
     7
370
    15
100
AcDbLine
 10
372.459806198
 20
459.8060449695
 30
0.0
 11
372.459806198
 21
459.3560448027
 31
0.0
  0
LINE
  5
11F
330
1F
100
AcDbEntity
  8
0
  6
Continuous
 62
     7
370
    15
100
AcDbLine
 10
371.6719669045
 20
445.406039629
 30
0.0
 11
371.6719669045
 21
446.6344764566
 31
0.0
  0
LINE
  5
120
330
1F
100
AcDbEntity
  8
0
  6
Continuous
 62
     7
370
    15
100
AcDbLine
 10
371.6719669045
 20
458.5775932407
 30
0.0
 11
371.6719669045
 21
459.8060449695
 31
0.0
  0
LINE
  5
121
330
1F
100
AcDbEntity
  8
0
  6
Continuous
 62
     7
370
    15
100
AcDbLine
 10
781.4102840365
 20
72.6060470676
 30
0.0
 11
781.4102840365
 21
37.6060357427
 31
0.0
  0
LINE
  5
122
330
1F
100
AcDbEntity
  8
0
  6
Continuous
 62
     7
370
    15
100
AcDbLine
 10
792.0089286507
 20
37.6060357427
 30
0.0
 11
781.4102840365
 21
37.6060357427
 31
0.0
  0
LINE
  5
123
330
1F
100
AcDbEntity
  8
0
  6
Continuous
 62
     7
370
    15
100
AcDbLine
 10
792.0089286507
 20
72.6060470676
 30
0.0
 11
781.4102840365
 21
72.6060470676
 31
0.0
  0
LINE
  5
124
330
1F
100
AcDbEntity
  8
0
  6
Continuous
 62
     7
370
    15
100
AcDbLine
 10
781.4102840365
 20
497.6060440874
 30
0.0
 11
781.4102840365
 21
462.6060327625
 31
0.0
  0
LINE
  5
125
330
1F
100
AcDbEntity
  8
0
  6
Continuous
 62
     7
370
    15
100
AcDbLine
 10
792.0089286507
 20
497.6060440874
 30
0.0
 11
781.4102840365
 21
497.6060440874
 31
0.0
  0
LINE
  5
126
330
1F
100
AcDbEntity
  8
0
  6
Continuous
 62
     7
370
    15
100
AcDbLine
 10
792.0089286507
 20
462.6060327625
 30
0.0
 11
781.4102840365
 21
462.6060327625
 31
0.0
  0
LINE
  5
127
330
1F
100
AcDbEntity
  8
0
  6
Continuous
 62
     7
370
    15
100
AcDbLine
 10
789.008922571
 20
109.6060326433
 30
0.0
 11
784.0089273394
 21
109.6060326433
 31
0.0
  0
LINE
  5
128
330
1F
100
AcDbEntity
  8
0
  6
Continuous
 62
     7
370
    15
100
AcDbLine
 10
784.0089273394
 20
425.6060471868
 30
0.0
 11
789.008922571
 21
425.6060471868
 31
0.0
  0
LINE
  5
129
330
1F
100
AcDbEntity
  8
0
  6
Continuous
 62
     7
370
    15
100
AcDbLine
 10
780.9467685164
 20
37.6060357427
 30
0.0
 11
780.9467685164
 21
72.6060470676
 31
0.0
  0
LINE
  5
12A
330
1F
100
AcDbEntity
  8
0
  6
Continuous
 62
     7
370
    15
100
AcDbLine
 10
781.4102840365
 20
37.6060357427
 30
0.0
 11
780.9467685164
 21
37.6060357427
 31
0.0
  0
LINE
  5
12B
330
1F
100
AcDbEntity
  8
0
  6
Continuous
 62
     7
370
    15
100
AcDbLine
 10
780.9467685164
 20
72.6060470676
 30
0.0
 11
781.4102840365
 21
72.6060470676
 31
0.0
  0
LINE
  5
12C
330
1F
100
AcDbEntity
  8
0
  6
Continuous
 62
     7
370
    15
100
AcDbLine
 10
780.9467685164
 20
462.6060327625
 30
0.0
 11
780.9467685164
 21
497.6060440874
 31
0.0
  0
LINE
  5
12D
330
1F
100
AcDbEntity
  8
0
  6
Continuous
 62
     7
370
    15
100
AcDbLine
 10
780.9467685164
 20
497.6060440874
 30
0.0
 11
781.4102840365
 21
497.6060440874
 31
0.0
  0
LINE
  5
12E
330
1F
100
AcDbEntity
  8
0
  6
Continuous
 62
     7
370
    15
100
AcDbLine
 10
781.4102840365
 20
462.6060327625
 30
0.0
 11
780.9467685164
 21
462.6060327625
 31
0.0
  0
LINE
  5
12F
330
1F
100
AcDbEntity
  8
0
  6
Continuous
 62
     7
370
    15
100
AcDbLine
 10
780.9467685164
 20
497.6060440874
 30
0.0
 11
780.508927697
 21
497.6060440874
 31
0.0
  0
LINE
  5
130
330
1F
100
AcDbEntity
  8
0
  6
Continuous
 62
     7
370
    15
100
AcDbLine
 10
780.9467685164
 20
462.6060327625
 30
0.0
 11
780.508927697
 21
462.6060327625
 31
0.0
  0
LINE
  5
131
330
1F
100
AcDbEntity
  8
0
  6
Continuous
 62
     7
370
    15
100
AcDbLine
 10
780.9467685164
 20
37.6060357427
 30
0.0
 11
780.508927697
 21
37.6060357427
 31
0.0
  0
LINE
  5
132
330
1F
100
AcDbEntity
  8
0
  6
Continuous
 62
     7
370
    15
100
AcDbLine
 10
780.9467685164
 20
72.6060470676
 30
0.0
 11
780.508927697
 21
72.6060470676
 31
0.0
  0
LINE
  5
133
330
1F
100
AcDbEntity
  8
0
  6
Continuous
 62
     7
370
    15
100
AcDbLine
 10
375.3089231194
 20
75.8560350275
 30
0.0
 11
372.2089302481
 21
75.8560350275
 31
0.0
  0
LINE
  5
134
330
1F
100
AcDbEntity
  8
0
  6
Continuous
 62
     7
370
    15
100
AcDbLine
 10
375.3089231194
 20
89.3560400343
 30
0.0
 11
376.8690001906
 21
89.3560400343
 31
0.0
  0
LINE
  5
135
330
1F
100
AcDbEntity
  8
0
  6
Continuous
 62
     7
370
    15
100
AcDbLine
 10
375.3089231194
 20
75.8560350275
 30
0.0
 11
376.8684339465
 21
75.8560350275
 31
0.0
  0
LINE
  5
136
330
1F
100
AcDbEntity
  8
0
  6
Continuous
 62
     7
370
    15
100
AcDbLine
 10
375.3089231194
 20
89.3560400343
 30
0.0
 11
372.2089302481
 21
89.3560400343
 31
0.0
  0
LINE
  5
137
330
1F
100
AcDbEntity
  8
0
  6
Continuous
 62
     7
370
    15
100
AcDbLine
 10
375.3089231194
 20
445.8560397959
 30
0.0
 11
372.2089302481
 21
445.8560397959
 31
0.0
  0
LINE
  5
138
330
1F
100
AcDbEntity
  8
0
  6
Continuous
 62
     7
370
    15
100
AcDbLine
 10
375.3089231194
 20
459.3560448027
 30
0.0
 11
376.8690001906
 21
459.3560448027
 31
0.0
  0
LINE
  5
139
330
1F
100
AcDbEntity
  8
0
  6
Continuous
 62
     7
370
    15
100
AcDbLine
 10
375.3089231194
 20
445.8560397959
 30
0.0
 11
376.8684339465
 21
445.8560397959
 31
0.0
  0
LINE
  5
13A
330
1F
100
AcDbEntity
  8
0
  6
Continuous
 62
     7
370
    15
100
AcDbLine
 10
375.3089231194
 20
459.3560448027
 30
0.0
 11
372.2089302481
 21
459.3560448027
 31
0.0
  0
LINE
  5
13B
330
1F
100
AcDbEntity
  8
0
  6
Continuous
 62
     8
370
    15
100
AcDbLine
 10
375.3089231194
 20
76.10604671
 30
0.0
 11
375.3089231194
 21
75.8560350275
 31
0.0
  0
LINE
  5
13C
330
1F
100
AcDbEntity
  8
0
  6
Continuous
 62
     8
370
    15
100
AcDbLine
 10
375.3089231194
 20
89.3560400343
 30
0.0
 11
375.3089231194
 21
89.1060432529
 31
0.0
  0
LINE
  5
13D
330
1F
100
AcDbEntity
  8
0
  6
Continuous
 62
     8
370
    15
100
AcDbLine
 10
375.3089231194
 20
446.1060365772
 30
0.0
 11
375.3089231194
 21
445.8560397959
 31
0.0
  0
LINE
  5
13E
330
1F
100
AcDbEntity
  8
0
  6
Continuous
 62
     8
370
    15
100
AcDbLine
 10
375.3089231194
 20
459.3560448027
 30
0.0
 11
375.3089231194
 21
459.1060331201
 31
0.0
  0
LINE
  5
13F
330
1F
100
AcDbEntity
  8
0
  6
Continuous
 62
     7
370
    15
100
AcDbLine
 10
284.7001865138
 20
459.1060331201
 30
0.0
 11
284.7001865138
 21
446.1060365772
 31
0.0
  0
LINE
  5
140
330
1F
100
AcDbEntity
  8
0
  6
Continuous
 62
     7
370
    15
100
AcDbLine
 10
284.7001865138
 20
89.1060432529
 30
0.0
 11
284.7001865138
 21
76.10604671
 31
0.0
  0
LINE
  5
141
330
1F
100
AcDbEntity
  8
0
  6
Continuous
 62
     7
370
    15
100
AcDbLine
 10
274.9101832141
 20
74.6060362196
 30
0.0
 11
274.9101832141
 21
75.4060348606
 31
0.0
  0
LINE
  5
142
330
1F
100
AcDbEntity
  8
0
  6
Continuous
 62
     7
370
    15
100
AcDbLine
 10
274.9101832141
 20
89.8060402012
 30
0.0
 11
274.9101832141
 21
90.6060388422
 31
0.0
  0
ARC
  5
143
330
1F
100
AcDbEntity
  8
0
  6
Continuous
 62
     7
370
    15
100
AcDbCircle
 10
272.1801863469
 20
87.798897058
 30
0.0
 40
3.807142857143277
100
AcDbArc
 50
54.6997515601
 51
125.3002484399
  0
LINE
  5
144
330
1F
100
AcDbEntity
  8
0
  6
Continuous
 62
     7
370
    15
100
AcDbLine
 10
269.9801936378
 20
90.9060439205
 30
0.0
 11
269.9801936378
 21
90.6060388422
 31
0.0
  0
LINE
  5
145
330
1F
100
AcDbEntity
  8
0
  6
Continuous
 62
     7
370
    15
100
AcDbLine
 10
274.3801936139
 20
90.6060388422
 30
0.0
 11
274.3801936139
 21
90.9060439205
 31
0.0
  0
LINE
  5
146
330
1F
100
AcDbEntity
  8
0
  6
Continuous
 62
     7
370
    15
100
AcDbLine
 10
270.0801804294
 20
74.2060443497
 30
0.0
 11
270.0801804294
 21
73.8060375786
 31
0.0
  0
LINE
  5
147
330
1F
100
AcDbEntity
  8
0
  6
Continuous
 62
     7
370
    15
100
AcDbLine
 10
274.2801919212
 20
73.8060375786
 30
0.0
 11
274.2801919212
 21
74.2060443497
 31
0.0
  0
ARC
  5
148
330
1F
100
AcDbEntity
  8
0
  6
Continuous
 62
     7
370
    15
100
AcDbCircle
 10
270.2801863469
 20
74.6060399151
 30
0.0
 40
0.4000000000007731
100
AcDbArc
 50
270.0
 51
0.0
  0
ARC
  5
149
330
1F
100
AcDbEntity
  8
0
  6
Continuous
 62
     7
370
    15
100
AcDbCircle
 10
274.0801863469
 20
74.6060399151
 30
0.0
 40
0.4000000000007731
100
AcDbArc
 50
180.0
 51
270.0
  0
LINE
  5
14A
330
1F
100
AcDbEntity
  8
0
  6
Continuous
 62
     7
370
    15
100
AcDbLine
 10
270.680190586
 20
89.8060402012
 30
0.0
 11
270.680190586
 21
89.3560400343
 31
0.0
  0
LINE
  5
14B
330
1F
100
AcDbEntity
  8
0
  6
Continuous
 62
     7
370
    15
100
AcDbLine
 10
270.680190586
 20
88.3560380077
 30
0.0
 11
270.680190586
 21
87.8673395252
 31
0.0
  0
LINE
  5
14C
330
1F
100
AcDbEntity
  8
0
  6
Continuous
 62
     7
370
    15
100
AcDbLine
 10
270.680190586
 20
87.0712151861
 30
0.0
 11
270.680190586
 21
86.915527854
 31
0.0
  0
LINE
  5
14D
330
1F
100
AcDbEntity
  8
0
  6
Continuous
 62
     7
370
    15
100
AcDbLine
 10
270.680190586
 20
77.6164135075
 30
0.0
 11
270.680190586
 21
76.8560370541
 31
0.0
  0
LINE
  5
14E
330
1F
100
AcDbEntity
  8
0
  6
Continuous
 62
     7
370
    15
100
AcDbLine
 10
270.680190586
 20
75.8560350275
 30
0.0
 11
270.680190586
 21
75.4060348606
 31
0.0
  0
LINE
  5
14F
330
1F
100
AcDbEntity
  8
0
  6
Continuous
 62
     7
370
    15
100
AcDbLine
 10
273.6801817645
 20
75.4060348606
 30
0.0
 11
273.6801817645
 21
75.8560350275
 31
0.0
  0
LINE
  5
150
330
1F
100
AcDbEntity
  8
0
  6
Continuous
 62
     7
370
    15
100
AcDbLine
 10
273.6801817645
 20
76.8560370541
 30
0.0
 11
273.6801817645
 21
77.3431858158
 31
0.0
  0
LINE
  5
151
330
1F
100
AcDbEntity
  8
0
  6
Continuous
 62
     7
370
    15
100
AcDbLine
 10
273.6801817645
 20
86.6511067486
 30
0.0
 11
273.6801817645
 21
86.8390401935
 31
0.0
  0
LINE
  5
152
330
1F
100
AcDbEntity
  8
0
  6
Continuous
 62
     7
370
    15
100
AcDbLine
 10
273.6801817645
 20
87.5941118336
 30
0.0
 11
273.6801817645
 21
88.3560380077
 31
0.0
  0
LINE
  5
153
330
1F
100
AcDbEntity
  8
0
  6
Continuous
 62
     7
370
    15
100
AcDbLine
 10
273.6801817645
 20
89.3560400343
 30
0.0
 11
273.6801817645
 21
89.8060402012
 31
0.0
  0
SPLINE
  5
154
330
1F
100
AcDbEntity
  8
0
  6
Continuous
 62
     7
370
    15
100
AcDbSpline
210
0.0
220
0.0
230
1.0
 70
     8
 71
     3
 72
    15
 73
    11
 74
     0
 42
0.00000001
 43
0.00000001
 40
0.0
 40
0.0
 40
0.0
 40
0.0
 40
0.1356024572950179
 40
0.2953305714495502
 40
0.4038104853344925
 40
0.5319618081968823
 40
0.6738452966783458
 40
0.8261133063493578
 40
0.9126143386647737
 40
1.0
 40
1.0
 40
1.0
 40
1.0
 10
273.6801817645241
 20
77.17209068297254
 30
0.0
 10
273.7245634365906
 20
77.1647640033536
 30
0.0
 10
273.8212229281272
 20
77.1488071208468
 30
0.0
 10
274.0280718550159
 20
77.19648077433413
 30
0.0
 10
274.2213424151619
 20
77.2842027637613
 30
0.0
 10
274.3679212284001
 20
77.40386661723872
 30
0.0
 10
274.4666276321665
 20
77.5547691358171
 30
0.0
 10
274.4962890444717
 20
77.67660820562335
 30
0.0
 10
274.4751098992489
 20
77.80586430667782
 30
0.0
 10
274.4288583961412
 20
77.87253003503416
 30
0.0
 10
274.4056149949242
 20
77.90603247641431
 30
0.0
  0
SPLINE
  5
155
330
1F
100
AcDbEntity
  8
0
  6
Continuous
 62
     7
370
    15
100
AcDbSpline
210
0.0
220
0.0
230
1.0
 70
     8
 71
     3
 72
    20
 73
    16
 74
     0
 42
0.00000001
 43
0.00000001
 40
0.0
 40
0.0
 40
0.0
 40
0.0
 40
0.060708135410005
 40
0.2265336634687164
 40
0.3908030075664746
 40
0.4705944238620196
 40
0.5476200665419776
 40
0.6228569631889666
 40
0.7003368802155423
 40
0.7786470553240675
 40
0.8566573914950292
 40
0.9330982965666872
 40
0.9703706402705808
 40
0.9892322431262632
 40
0.9999999999999999
 40
0.9999999999999999
 40
0.9999999999999999
 40
0.9999999999999999
 10
269.9439838160683
 20
77.90603247641431
 30
0.0
 10
269.9902584537429
 20
77.85270103744458
 30
0.0
 10
270.1629332217504
 20
77.65369366938302
 30
0.0
 10
270.5799050029621
 20
77.63576316162974
 30
0.0
 10
271.1448596515147
 20
77.5607399661572
 30
0.0
 10
271.6644727577288
 20
77.5178019152368
 30
0.0
 10
272.0583654232645
 20
77.48724117429845
 30
0.0
 10
272.451277148097
 20
77.45956942797824
 30
0.0
 10
272.8324381349847
 20
77.42825985123022
 30
0.0
 10
273.1881614869347
 20
77.39578122898139
 30
0.0
 10
273.4907869959423
 20
77.36496557699776
 30
0.0
 10
273.6832932616875
 20
77.34207208372887
 30
0.0
 10
273.7714248504561
 20
77.33403099619976
 30
0.0
 10
273.8168433147347
 20
77.32623938917904
 30
0.0
 10
273.8162946491384
 20
77.33019858449427
 30
0.0
 10
273.8160952557732
 20
77.33163741587506
 30
0.0
  0
SPLINE
  5
156
330
1F
100
AcDbEntity
  8
0
  6
Continuous
 62
     7
370
    15
100
AcDbSpline
210
0.0
220
0.0
230
1.0
 70
     8
 71
     3
 72
    18
 73
    14
 74
     0
 42
0.00000001
 43
0.00000001
 40
0.0
 40
0.0
 40
0.0
 40
0.0
 40
0.0057533570136465
 40
0.1156384087049275
 40
0.2383928576238681
 40
0.3593081600621124
 40
0.4757059057463188
 40
0.5872127568641384
 40
0.7047327239702509
 40
0.8264986924108493
 40
0.8891456725835204
 40
0.9517930434407244
 40
1.0
 40
1.0
 40
1.0
 40
1.0
 10
274.1868063439538
 20
86.55286339281903
 30
0.0
 10
274.1821591778724
 20
86.55581559217445
 30
0.0
 10
274.0887544248988
 20
86.61515271219538
 30
0.0
 10
273.8663895406854
 20
86.62136722716998
 30
0.0
 10
273.4750151899424
 20
86.6805541832126
 30
0.0
 10
272.9631304142422
 20
86.72609520367386
 30
0.0
 10
272.4121004662233
 20
86.77226088478696
 30
0.0
 10
271.8499820913495
 20
86.81114087138845
 30
0.0
 10
271.315710057824
 20
86.85589301326726
 30
0.0
 10
270.9180611249383
 20
86.89693580378352
 30
0.0
 10
270.7033477259598
 20
86.9180826768664
 30
0.0
 10
270.6072792183288
 20
86.92035050125656
 30
0.0
 10
270.5918366502755
 20
86.90428855431372
 30
0.0
 10
270.5851211775948
 20
86.8973037338148
 30
0.0
  0
SPLINE
  5
157
330
1F
100
AcDbEntity
  8
0
  6
Continuous
 62
     7
370
    15
100
AcDbSpline
210
0.0
220
0.0
230
1.0
 70
     8
 71
     3
 72
    12
 73
     8
 74
     0
 42
0.00000001
 43
0.00000001
 40
0.0
 40
0.0
 40
0.0
 40
0.0
 40
0.2236730604834461
 40
0.4523097327060074
 40
0.6822366315877159
 40
0.9102239717680954
 40
1.0
 40
1.0
 40
1.0
 40
1.0
 10
269.8858841885735
 20
87.70789710043775
 30
0.0
 10
269.8731519563591
 20
87.66534825512792
 30
0.0
 10
269.8474049462488
 20
87.5793063473209
 30
0.0
 10
269.9685244317203
 20
87.48768834432727
 30
0.0
 10
270.2002085289457
 20
87.39139257419762
 30
0.0
 10
270.4450575539847
 20
87.32888931809127
 30
0.0
 10
270.6283936066389
 20
87.33411515854439
 30
0.0
 10
270.6801905860116
 20
87.33559158800946
 30
0.0
  0
SPLINE
  5
158
330
1F
100
AcDbEntity
  8
0
  6
Continuous
 62
     7
370
    15
100
AcDbSpline
210
0.0
220
0.0
230
1.0
 70
     8
 71
     3
 72
    19
 73
    15
 74
     0
 42
0.00000001
 43
0.00000001
 40
0.0
 40
0.0
 40
0.0
 40
0.0
 40
0.0979035768871104
 40
0.17537693964058
 40
0.2884814917255052
 40
0.3734519301201603
 40
0.4570026746706707
 40
0.6168869677815608
 40
0.6796661388919025
 40
0.7634256853780543
 40
0.8137534464230227
 40
0.8702970845472501
 40
0.9323987705732711
 40
1.0
 40
1.0
 40
1.0
 40
1.0
 10
270.0621202220132
 20
87.21276131628858
 30
0.0
 10
270.112630375334
 20
87.1863863164663
 30
0.0
 10
270.2031103801697
 20
87.1391401698094
 30
0.0
 10
270.5777518710888
 20
87.07849066476675
 30
0.0
 10
271.064259231467
 20
87.02460676085907
 30
0.0
 10
271.6555876776727
 20
86.97135698053879
 30
0.0
 10
272.4096933050435
 20
86.919814493849
 30
0.0
 10
273.0507864431989
 20
86.85287341418366
 30
0.0
 10
273.7000625805866
 20
86.81735665128306
 30
0.0
 10
274.0783874506765
 20
86.8955349828486
 30
0.0
 10
274.3302460930462
 20
87.0037440439492
 30
0.0
 10
274.4638293430738
 20
87.09208402946525
 30
0.0
 10
274.5256053553767
 20
87.16592359985512
 30
0.0
 10
274.4541615343094
 20
87.24643633142735
 30
0.0
 10
274.4169249762704
 20
87.28839961050855
 30
0.0
  0
SPLINE
  5
159
330
1F
100
AcDbEntity
  8
0
  6
Continuous
 62
     7
370
    15
100
AcDbSpline
210
0.0
220
0.0
230
1.0
 70
     8
 71
     3
 72
    25
 73
    21
 74
     0
 42
0.00000001
 43
0.00000001
 40
0.0
 40
0.0
 40
0.0
 40
0.0
 40
0.017626673779114
 40
0.0344971350985797
 40
0.0503141430960013
 40
0.0649736519368622
 40
0.0909457470999843
 40
0.1134387078192503
 40
0.1538398385779795
 40
0.191234732063483
 40
0.2995709866453132
 40
0.3999637394160109
 40
0.5012959913544792
 40
0.5949064152872093
 40
0.678487417767604
 40
0.7336304507562215
 40
0.8075203650299767
 40
0.8952854288188483
 40
0.945308759455925
 40
1.0
 40
1.0
 40
1.0
 40
1.0
 10
274.0596100320031
 20
86.66281906126844
 30
0.0
 10
274.0993212638991
 20
86.66720857094795
 30
0.0
 10
274.1770400524133
 20
86.67579927333041
 30
0.0
 10
274.2789114849411
 20
86.7218157738187
 30
0.0
 10
274.359929958798
 20
86.78076848250868
 30
0.0
 10
274.436126513485
 20
86.86435722538438
 30
0.0
 10
274.4891747895168
 20
86.96800160340015
 30
0.0
 10
274.513353048141
 20
87.10032435933796
 30
0.0
 10
274.4904425271526
 20
87.23219388968408
 30
0.0
 10
274.3192184321563
 20
87.4774180128585
 30
0.0
 10
273.9764228668922
 20
87.56448171540615
 30
0.0
 10
273.4813121313728
 20
87.62304358864584
 30
0.0
 10
272.8680997981189
 20
87.68140771231681
 30
0.0
 10
272.2186317159137
 20
87.73103363222948
 30
0.0
 10
271.6789288324821
 20
87.7704984103647
 30
0.0
 10
271.2329156491242
 20
87.80967897697658
 30
0.0
 10
270.8442139125751
 20
87.84789967811687
 30
0.0
 10
270.5840582105276
 20
87.87576113809914
 30
0.0
 10
270.4536098987654
 20
87.89824621672473
 30
0.0
 10
270.4449525421873
 20
87.91070607050375
 30
0.0
 10
270.4404309024026
 20
87.91721371172773
 30
0.0
  0
SPLINE
  5
15A
330
1F
100
AcDbEntity
  8
0
  6
Continuous
 62
     7
370
    15
100
AcDbSpline
210
0.0
220
0.0
230
1.0
 70
     8
 71
     3
 72
    12
 73
     8
 74
     0
 42
0.00000001
 43
0.00000001
 40
0.0
 40
0.0
 40
0.0
 40
0.0
 40
0.1756426290597795
 40
0.5723149747442026
 40
0.7586182879331986
 40
0.920748543883814
 40
0.9999999999999999
 40
0.9999999999999999
 40
0.9999999999999999
 40
0.9999999999999999
 10
270.5287500847985
 20
87.09873763083326
 30
0.0
 10
270.4631924198804
 20
87.08956015832497
 30
0.0
 10
270.2495789392423
 20
87.0596562279698
 30
0.0
 10
270.0336409970025
 20
86.98576574368316
 30
0.0
 10
269.8725064070225
 20
86.77079791090104
 30
0.0
 10
269.8412797565405
 20
86.61060117262595
 30
0.0
 10
269.8722566542095
 20
86.53193240781148
 30
0.0
 10
269.8824271191766
 20
86.50610354899274
 30
0.0
  0
LINE
  5
15B
330
1F
100
AcDbEntity
  8
0
  6
Continuous
 62
     7
370
    15
100
AcDbLine
 10
270.0399472942
 20
77.8082957601
 30
0.0
 11
268.9214810361
 21
77.8082957601
 31
0.0
  0
LINE
  5
15C
330
1F
100
AcDbEntity
  8
0
  6
Continuous
 62
     7
370
    15
100
AcDbLine
 10
268.9214810361
 20
77.0082971191
 30
0.0
 11
270.680190586
 21
77.0082971191
 31
0.0
  0
LINE
  5
15D
330
1F
100
AcDbEntity
  8
0
  6
Continuous
 62
     7
370
    15
100
AcDbLine
 10
267.5111904372
 20
90.6060388422
 30
0.0
 11
267.5111904372
 21
90.6595042086
 31
0.0
  0
LINE
  5
15E
330
1F
100
AcDbEntity
  8
0
  6
Continuous
 62
     7
370
    15
100
AcDbLine
 10
264.5111992587
 20
90.6595042086
 30
0.0
 11
264.5111992587
 21
90.6060388422
 31
0.0
  0
SPLINE
  5
15F
330
1F
100
AcDbEntity
  8
0
  6
Continuous
 62
     7
370
    15
100
AcDbSpline
210
0.0
220
0.0
230
1.0
 70
     8
 71
     3
 72
    15
 73
    11
 74
     0
 42
0.00000001
 43
0.00000001
 40
0.0
 40
0.0
 40
0.0
 40
0.0
 40
0.1077555912139558
 40
0.2352512867497204
 40
0.3627904866428148
 40
0.4902569396959399
 40
0.6176632283804692
 40
0.7450970579680405
 40
0.8724965220050076
 40
1.0
 40
1.0
 40
1.0
 40
1.0
 10
264.5272478093316
 20
74.60603621958597
 30
0.0
 10
264.5437869360853
 20
74.29351398474365
 30
0.0
 10
264.5798950471047
 20
73.61121752981003
 30
0.0
 10
264.9161077377649
 20
72.60206949722772
 30
0.0
 10
265.4741875973048
 20
71.63859044822432
 30
0.0
 10
266.2290121262847
 20
70.81766367515283
 30
0.0
 10
267.1441768079986
 20
70.18239782164432
 30
0.0
 10
268.1714311997933
 20
69.76223723500318
 30
0.0
 10
269.267411237992
 20
69.54843589984874
 30
0.0
 10
270.0031704080365
 20
69.61396042690416
 30
0.0
 10
270.371200107496
 20
69.64673605917798
 30
0.0
  0
SPLINE
  5
160
330
1F
100
AcDbEntity
  8
0
  6
Continuous
 62
     7
370
    15
100
AcDbSpline
210
0.0
220
0.0
230
1.0
 70
     8
 71
     3
 72
    15
 73
    11
 74
     0
 42
0.00000001
 43
0.00000001
 40
0.0
 40
0.0
 40
0.0
 40
0.0
 40
0.1316514916964465
 40
0.2633123971468175
 40
0.3951923558794883
 40
0.5266713868594767
 40
0.657547277092802
 40
0.7882153818671157
 40
0.9184602873307803
 40
0.9999999999999999
 40
0.9999999999999999
 40
0.9999999999999999
 40
0.9999999999999999
 10
269.8735162247826
 20
72.60442284106122
 30
0.0
 10
269.7213324118297
 20
72.59260782966854
 30
0.0
 10
269.4169539040041
 20
72.56897696204948
 30
0.0
 10
268.9660901197648
 20
72.6704509985818
 30
0.0
 10
268.5470634312009
 20
72.8573166319571
 30
0.0
 10
268.176662792851
 20
73.12990571385761
 30
0.0
 10
267.8744120932188
 20
73.47582495863067
 30
0.0
 10
267.6552426702223
 20
73.87752552767876
 30
0.0
 10
267.5378852399824
 20
74.2638419489784
 30
0.0
 10
267.5277024278114
 20
74.51091140526839
 30
0.0
 10
267.5237819184472
 20
74.60603621958597
 30
0.0
  0
SPLINE
  5
161
330
1F
100
AcDbEntity
  8
0
  6
Continuous
 62
     7
370
    15
100
AcDbSpline
210
0.0
220
0.0
230
1.0
 70
     8
 71
     3
 72
    15
 73
    11
 74
     0
 42
0.00000001
 43
0.00000001
 40
0.0
 40
0.0
 40
0.0
 40
0.0
 40
0.1249271926751148
 40
0.2499158519817552
 40
0.374966316928686
 40
0.4999576335864058
 40
0.6249203544108276
 40
0.7499168777925931
 40
0.8748745982847124
 40
1.0
 40
1.0
 40
1.0
 40
1.0
 10
270.5420717229058
 20
95.53656486033307
 30
0.0
 10
270.1756949469041
 20
95.57989740599778
 30
0.0
 10
269.4427611303341
 20
95.6665838177905
 30
0.0
 10
268.3387395239913
 20
95.50138504902864
 30
0.0
 10
267.2979370626512
 20
95.11246192337727
 30
0.0
 10
266.3627484683383
 20
94.50744238336695
 30
0.0
 10
265.5821106209036
 20
93.71124285633914
 30
0.0
 10
264.9941332792804
 20
92.76688842998429
 30
0.0
 10
264.598314717729
 20
91.7184389298233
 30
0.0
 10
264.5402507224011
 20
90.9793187122912
 30
0.0
 10
264.5111992587258
 20
90.60951081274854
 30
0.0
  0
SPLINE
  5
162
330
1F
100
AcDbEntity
  8
0
  6
Continuous
 62
     7
370
    15
100
AcDbSpline
210
0.0
220
0.0
230
1.0
 70
     8
 71
     3
 72
    15
 73
    11
 74
     0
 42
0.00000001
 43
0.00000001
 40
0.0
 40
0.0
 40
0.0
 40
0.0
 40
0.1242549332243164
 40
0.2486322739173478
 40
0.37354107226262
 40
0.4985810669353217
 40
0.6236633937315582
 40
0.7490698040492028
 40
0.8744362875141214
 40
1.0
 40
1.0
 40
1.0
 40
1.0
 10
267.5111904372384
 20
90.60951081274854
 30
0.0
 10
267.5247534000018
 20
90.76146869740273
 30
0.0
 10
267.5518926868326
 20
91.06553416523433
 30
0.0
 10
267.7263526941214
 20
91.4928518819601
 30
0.0
 10
267.9796813210584
 20
91.87448801888345
 30
0.0
 10
268.3095012324795
 20
92.19442429974156
 30
0.0
 10
268.700432228573
 20
92.43499452153011
 30
0.0
 10
269.1331274564777
 20
92.58662560153242
 30
0.0
 10
269.5906603367413
 20
92.64008744579222
 30
0.0
 10
269.8925794658121
 20
92.59939120427296
 30
0.0
 10
270.043657683294
 20
92.57902709006177
 30
0.0
  0
LINE
  5
163
330
1F
100
AcDbEntity
  8
0
  6
Continuous
 62
     7
370
    15
100
AcDbLine
 10
285.4142501582
 20
75.2211710548
 30
0.0
 11
269.8732927074
 21
72.6047655678
 31
0.0
  0
LINE
  5
164
330
1F
100
AcDbEntity
  8
0
  6
Continuous
 62
     7
370
    15
100
AcDbLine
 10
270.3713491191
 20
69.6463933325
 30
0.0
 11
285.9123214711
 21
72.2628137207
 31
0.0
  0
LINE
  5
165
330
1F
100
AcDbEntity
  8
0
  6
Continuous
 62
     7
370
    15
100
AcDbLine
 10
270.0438662996
 20
92.5786098575
 30
0.0
 11
285.5848386516
 21
89.9621894693
 31
0.0
  0
LINE
  5
166
330
1F
100
AcDbEntity
  8
0
  6
Continuous
 62
     7
370
    15
100
AcDbLine
 10
286.0828950633
 20
92.9205468035
 30
0.0
 11
270.5419376125
 21
95.5369671917
 31
0.0
  0
SPLINE
  5
167
330
1F
100
AcDbEntity
  8
0
  6
Continuous
 62
     7
370
    15
100
AcDbSpline
210
0.0
220
0.0
230
1.0
 70
     8
 71
     3
 72
    12
 73
     8
 74
     0
 42
0.00000001
 43
0.00000001
 40
0.0
 40
0.0
 40
0.0
 40
0.0
 40
0.152614372147587
 40
0.2973901043391633
 40
0.5623703041980945
 40
0.7966014804334398
 40
1.0
 40
1.0
 40
1.0
 40
1.0
 10
285.9119638432671
 20
72.26311174391614
 30
0.0
 10
286.1631826513707
 20
72.31585690529666
 30
0.0
 10
286.6527170674456
 20
72.41863811014393
 30
0.0
 10
287.502250050163
 20
72.84786087578732
 30
0.0
 10
288.3142320096488
 20
73.5922665760515
 30
0.0
 10
288.878683886315
 20
74.66330212298611
 30
0.0
 10
288.9603710535553
 20
75.39823085136777
 30
0.0
 10
288.9983370532204
 20
75.73980597018107
 30
0.0
  0
SPLINE
  5
168
330
1F
100
AcDbEntity
  8
0
  6
Continuous
 62
     7
370
    15
100
AcDbSpline
210
0.0
220
0.0
230
1.0
 70
     8
 71
     3
 72
    11
 73
     7
 74
     0
 42
0.00000001
 43
0.00000001
 40
0.0
 40
0.0
 40
0.0
 40
0.0
 40
0.2003612183303601
 40
0.4328064177399985
 40
0.6990203462100683
 40
1.0
 40
1.0
 40
1.0
 40
1.0
 10
286.0000148047616
 20
75.73980597018107
 30
0.0
 10
285.9867877882125
 20
75.6833771778673
 30
0.0
 10
285.9582157037658
 20
75.5614836115262
 30
0.0
 10
285.8423259394615
 20
75.39579088340854
 30
0.0
 10
285.6575861549383
 20
75.25686702796492
 30
0.0
 10
285.4999634549908
 20
75.23348777934238
 30
0.0
 10
285.4163214196374
 20
75.22108164786206
 30
0.0
  0
SPLINE
  5
169
330
1F
100
AcDbEntity
  8
0
  6
Continuous
 62
     7
370
    15
100
AcDbSpline
210
0.0
220
0.0
230
1.0
 70
     8
 71
     3
 72
    12
 73
     8
 74
     0
 42
0.00000001
 43
0.00000001
 40
0.0
 40
0.0
 40
0.0
 40
0.0
 40
0.2034077841212749
 40
0.4376399470235733
 40
0.7026160420113715
 40
0.8473893916167878
 40
1.0
 40
1.0
 40
1.0
 40
1.0
 10
288.9983370532204
 20
89.29843214510785
 30
0.0
 10
288.9768963533654
 20
89.6414427351026
 30
0.0
 10
288.9307658338808
 20
90.3794436778017
 30
0.0
 10
288.4186663722991
 20
91.47655291667795
 30
0.0
 10
287.643468043158
 20
92.25931579587204
 30
0.0
 10
286.8156083537214
 20
92.72903123898277
 30
0.0
 10
286.3316228973306
 20
92.8553010205293
 30
0.0
 10
286.0832526911904
 20
92.92009976862775
 30
0.0
  0
SPLINE
  5
16A
330
1F
100
AcDbEntity
  8
0
  6
Continuous
 62
     7
370
    15
100
AcDbSpline
210
0.0
220
0.0
230
1.0
 70
     8
 71
     3
 72
    12
 73
     8
 74
     0
 42
0.00000001
 43
0.00000001
 40
0.0
 40
0.0
 40
0.0
 40
0.0
 40
0.155560948770158
 40
0.3022070936722985
 40
0.56796849615778
 40
0.7999357583981019
 40
1.0
 40
1.0
 40
1.0
 40
1.0
 10
285.5829164017846
 20
89.96309844015943
 30
0.0
 10
285.6234632726302
 20
89.94734868692584
 30
0.0
 10
285.7022333758769
 20
89.91675175891523
 30
0.0
 10
285.831866121221
 20
89.82171021518664
 30
0.0
 10
285.9462977152126
 20
89.6755403343172
 30
0.0
 10
286.0104341654467
 20
89.48128571321546
 30
0.0
 10
286.0033126303022
 20
89.35630701721593
 30
0.0
 10
286.0000148047616
 20
89.29843214510782
 30
0.0
  0
LINE
  5
16B
330
1F
100
AcDbEntity
  8
0
  6
Continuous
 62
     7
370
    15
100
AcDbLine
 10
285.9991803397
 20
89.3484404421
 30
0.0
 11
285.9991803397
 21
89.1060432529
 31
0.0
  0
LINE
  5
16C
330
1F
100
AcDbEntity
  8
0
  6
Continuous
 62
     7
370
    15
100
AcDbLine
 10
285.9991803397
 20
76.10604671
 30
0.0
 11
285.9991803397
 21
75.6897976732
 31
0.0
  0
LINE
  5
16D
330
1F
100
AcDbEntity
  8
0
  6
Continuous
 62
     7
370
    15
100
AcDbLine
 10
288.9991715182
 20
75.6897976732
 30
0.0
 11
288.9991715182
 21
76.1087885237
 31
0.0
  0
LINE
  5
16E
330
1F
100
AcDbEntity
  8
0
  6
Continuous
 62
     7
370
    15
100
AcDbLine
 10
288.9991715182
 20
89.1033014393
 30
0.0
 11
288.9991715182
 21
89.3484404421
 31
0.0
  0
LINE
  5
16F
330
1F
100
AcDbEntity
  8
0
  6
Continuous
 62
     7
370
    15
100
AcDbLine
 10
275.2984627713
 20
88.2060429191
 30
0.0
 11
273.6801817645
 21
88.2060429191
 31
0.0
  0
LINE
  5
170
330
1F
100
AcDbEntity
  8
0
  6
Continuous
 62
     7
370
    15
100
AcDbLine
 10
274.3071034183
 20
87.4060442781
 30
0.0
 11
275.2984627713
 21
87.4060442781
 31
0.0
  0
LINE
  5
171
330
1F
100
AcDbEntity
  8
0
  6
Continuous
 62
     7
370
    15
100
AcDbLine
 10
275.6366893281
 20
89.4741764402
 30
0.0
 11
275.370167159
 21
88.265930686
 31
0.0
  0
LINE
  5
172
330
1F
100
AcDbEntity
  8
0
  6
Continuous
 62
     7
370
    15
100
AcDbLine
 10
276.1383220185
 20
88.0343815422
 30
0.0
 11
276.4178976049
 21
89.301844511
 31
0.0
  0
SPLINE
  5
173
330
1F
100
AcDbEntity
  8
0
  6
Continuous
 62
     7
370
    15
100
AcDbSpline
210
0.0
220
0.0
230
1.0
 70
     8
 71
     3
 72
    11
 73
     7
 74
     0
 42
0.00000001
 43
0.00000001
 40
0.0
 40
0.0
 40
0.0
 40
0.0
 40
0.2541311630691059
 40
0.5022676364033828
 40
0.7495179365131207
 40
1.0
 40
1.0
 40
1.0
 40
1.0
 10
275.2984627713372
 20
87.40604427813398
 30
0.0
 10
275.3985512046326
 20
87.4162894023863
 30
0.0
 10
275.5963670892156
 20
87.436537979069
 30
0.0
 10
275.8545186763649
 20
87.59056361597258
 30
0.0
 10
276.0579600936372
 20
87.80964484722045
 30
0.0
 10
276.1196960732666
 20
87.99669487261097
 30
0.0
 10
276.1507644881417
 20
88.09082714079724
 30
0.0
  0
SPLINE
  5
174
330
1F
100
AcDbEntity
  8
0
  6
Continuous
 62
     7
370
    15
100
AcDbSpline
210
0.0
220
0.0
230
1.0
 70
     8
 71
     3
 72
    15
 73
    11
 74
     0
 42
0.00000001
 43
0.00000001
 40
0.0
 40
0.0
 40
0.0
 40
0.0
 40
0.1356021060610673
 40
0.2953301951074361
 40
0.4038100919400804
 40
0.5319613946579616
 40
0.6738407583735175
 40
0.8261087441090432
 40
0.9126143524011999
 40
0.9999999999999999
 40
0.9999999999999999
 40
0.9999999999999999
 40
0.9999999999999999
 10
273.6801817645241
 20
447.172080550183
 30
0.0
 10
273.7245634851038
 20
447.1647600759205
 30
0.0
 10
273.8212232094893
 20
447.1488166871711
 30
0.0
 10
274.0280717694678
 20
447.1964848945765
 30
0.0
 10
274.2213425964699
 20
447.2842071365816
 30
0.0
 10
274.3679187967163
 20
447.4038730403267
 30
0.0
 10
274.4666296793054
 20
447.5547579107629
 30
0.0
 10
274.4962881191373
 20
447.6765939431183
 30
0.0
 10
274.4751112570929
 20
447.8058702634835
 30
0.0
 10
274.4288584419882
 20
447.8725357893867
 30
0.0
 10
274.4056149949242
 20
447.9060372447859
 30
0.0
  0
SPLINE
  5
175
330
1F
100
AcDbEntity
  8
0
  6
Continuous
 62
     7
370
    15
100
AcDbSpline
210
0.0
220
0.0
230
1.0
 70
     8
 71
     3
 72
    20
 73
    16
 74
     0
 42
0.00000001
 43
0.00000001
 40
0.0
 40
0.0
 40
0.0
 40
0.0
 40
0.07565140203122
 40
0.2388388141431318
 40
0.4004947996023988
 40
0.4790168154008594
 40
0.5548170582365031
 40
0.6288570121741532
 40
0.7051043023123518
 40
0.7821686419685857
 40
0.8589381332286311
 40
0.934162941038196
 40
0.9708421863676463
 40
0.9894037202541036
 40
1.0
 40
1.0
 40
1.0
 40
1.0
 10
269.9057027329613
 20
447.9450484847914
 30
0.0
 10
269.9639348723391
 20
447.876519938322
 30
0.0
 10
270.1477793846755
 20
447.6601686700805
 30
0.0
 10
270.5791687123294
 20
447.6337545863678
 30
0.0
 10
271.144947940805
 20
447.5609861450201
 30
0.0
 10
271.6644570508588
 20
447.5177637536993
 30
0.0
 10
272.0583694528145
 20
447.4872568896596
 30
0.0
 10
272.451276061908
 20
447.4595714905513
 30
0.0
 10
272.8324383632183
 20
447.4282642187518
 30
0.0
 10
273.1881620300015
 20
447.3957903804141
 30
0.0
 10
273.4907865304865
 20
447.364953267633
 30
0.0
 10
273.6832929488501
 20
447.3420535389148
 30
0.0
 10
273.7714249681495
 20
447.3340331716666
 30
0.0
 10
273.8168432180847
 20
447.326251246512
 30
0.0
 10
273.8162946218565
 20
447.3301943240461
 30
0.0
 10
273.8160952557732
 20
447.3316272830855
 30
0.0
  0
SPLINE
  5
176
330
1F
100
AcDbEntity
  8
0
  6
Continuous
 62
     7
370
    15
100
AcDbSpline
210
0.0
220
0.0
230
1.0
 70
     8
 71
     3
 72
    18
 73
    14
 74
     0
 42
0.00000001
 43
0.00000001
 40
0.0
 40
0.0
 40
0.0
 40
0.0
 40
0.0355486563377599
 40
0.1421406791040308
 40
0.2612164297401563
 40
0.3785081493318078
 40
0.4914176940510555
 40
0.5995829142516927
 40
0.7135810497256562
 40
0.8316979426097056
 40
0.8924675216746016
 40
0.9532374797160188
 40
1.0
 40
1.0
 40
1.0
 40
1.0
 10
274.2618634928872
 20
456.5060338115584
 30
0.0
 10
274.2325563997101
 20
456.5259982869031
 30
0.0
 10
274.1153725014729
 20
456.6058258915388
 30
0.0
 10
273.8673137798158
 20
456.6249565915384
 30
0.0
 10
273.4747600054882
 20
456.6795692353252
 30
0.0
 10
272.9631956197147
 20
456.7263528723339
 30
0.0
 10
272.4120841088671
 20
456.7722021929572
 30
0.0
 10
271.849986655321
 20
456.8111634113325
 30
0.0
 10
271.3157087313795
 20
456.8558923532985
 30
0.0
 10
270.9180612944887
 20
456.8969421032169
 30
0.0
 10
270.7033476985253
 20
456.9180857789094
 30
0.0
 10
270.6072790749247
 20
456.9203605907808
 30
0.0
 10
270.591836619655
 20
456.904284563701
 30
0.0
 10
270.5851211775948
 20
456.8972936010252
 30
0.0
  0
SPLINE
  5
177
330
1F
100
AcDbEntity
  8
0
  6
Continuous
 62
     7
370
    15
100
AcDbSpline
210
0.0
220
0.0
230
1.0
 70
     8
 71
     3
 72
    12
 73
     8
 74
     0
 42
0.00000001
 43
0.00000001
 40
0.0
 40
0.0
 40
0.0
 40
0.0
 40
0.2236733383107278
 40
0.4523085175496912
 40
0.6822373586558739
 40
0.9102239108752651
 40
1.0
 40
1.0
 40
1.0
 40
1.0
 10
269.8858841885735
 20
457.7078869676482
 30
0.0
 10
269.8731517555066
 20
457.6653359332172
 30
0.0
 10
269.8474044403873
 20
457.5792899366356
 30
0.0
 10
269.9685263800066
 20
457.4877056299873
 30
0.0
 10
270.2002062099531
 20
457.3913660780195
 30
0.0
 10
270.4450582885469
 20
457.3289075437706
 30
0.0
 10
270.628393648653
 20
457.334111269384
 30
0.0
 10
270.6801905860116
 20
457.3355814552199
 30
0.0
  0
SPLINE
  5
178
330
1F
100
AcDbEntity
  8
0
  6
Continuous
 62
     7
370
    15
100
AcDbSpline
210
0.0
220
0.0
230
1.0
 70
     8
 71
     3
 72
    19
 73
    15
 74
     0
 42
0.00000001
 43
0.00000001
 40
0.0
 40
0.0
 40
0.0
 40
0.0
 40
0.097903768600572
 40
0.1753770836047057
 40
0.2884815659796423
 40
0.3734517719707434
 40
0.4570024650262312
 40
0.61688683569538
 40
0.6796659681128907
 40
0.7634257896372468
 40
0.8137529937153108
 40
0.8702965969898676
 40
0.9323982447406137
 40
1.0
 40
1.0
 40
1.0
 40
1.0
 10
270.0621202220132
 20
457.2127660846602
 30
0.0
 10
270.112630263685
 20
457.1863845351289
 30
0.0
 10
270.2031099656188
 20
457.1391267095734
 30
0.0
 10
270.5777520014995
 20
457.0784830500855
 30
0.0
 10
271.0642583460733
 20
457.0245891583491
 30
0.0
 10
271.6555884008793
 20
456.9713663544168
 30
0.0
 10
272.4096938176577
 20
456.9198187148481
 30
0.0
 10
273.0507854355273
 20
456.8528655363691
 30
0.0
 10
273.7000640413366
 20
456.8173408941512
 30
0.0
 10
274.0783844207546
 20
456.8955513186218
 30
0.0
 10
274.3302474964968
 20
457.0037278333006
 30
0.0
 10
274.4638291010719
 20
457.0920765954079
 30
0.0
 10
274.5256053392819
 20
457.1659097732071
 30
0.0
 10
274.4541616271833
 20
457.2464346177957
 30
0.0
 10
274.4169249762704
 20
457.2884043788802
 30
0.0
  0
SPLINE
  5
179
330
1F
100
AcDbEntity
  8
0
  6
Continuous
 62
     7
370
    15
100
AcDbSpline
210
0.0
220
0.0
230
1.0
 70
     8
 71
     3
 72
    25
 73
    21
 74
     0
 42
0.00000001
 43
0.00000001
 40
0.0
 40
0.0
 40
0.0
 40
0.0
 40
0.0176266847775876
 40
0.0344971566236749
 40
0.0503141744903973
 40
0.0649723448164466
 40
0.0909444561853151
 40
0.113438805966247
 40
0.1538399619339735
 40
0.1912337409430235
 40
0.299570582960891
 40
0.3999633983734154
 40
0.5012955358876848
 40
0.5949060182302881
 40
0.6784872333106985
 40
0.7336303007067829
 40
0.8075202610854518
 40
0.8952852538036823
 40
0.9453087253303619
 40
1.0
 40
1.0
 40
1.0
 40
1.0
 10
274.0596100320031
 20
456.66282382964
 30
0.0
 10
274.0993212149393
 20
456.667213422621
 30
0.0
 10
274.1770399076342
 20
456.6758042880328
 30
0.0
 10
274.2789120209383
 20
456.7218196302315
 30
0.0
 10
274.3599258372911
 20
456.7807746617081
 30
0.0
 10
274.4361315501014
 20
456.8643436782676
 30
0.0
 10
274.4891751349139
 20
456.9679919618255
 30
0.0
 10
274.5133525292833
 20
457.1003317356231
 30
0.0
 10
274.4904442896949
 20
457.2321997960793
 30
0.0
 10
274.3192130288782
 20
457.4773968972003
 30
0.0
 10
273.9764253767474
 20
457.5644938106252
 30
0.0
 10
273.48131232633
 20
457.6230508604098
 30
0.0
 10
272.868099294928
 20
457.6813952070431
 30
0.0
 10
272.2186309197091
 20
457.7310179518961
 30
0.0
 10
271.678929426753
 20
457.7705068425673
 30
0.0
 10
271.2329155452616
 20
457.8096814403119
 30
0.0
 10
270.8442143278812
 20
457.8479123427307
 30
0.0
 10
270.584057768226
 20
457.8757382620324
 30
0.0
 10
270.4536100263511
 20
457.8982568164485
 30
0.0
 10
270.4449525828502
 20
457.9107128440556
 30
0.0
 10
270.4404309024026
 20
457.9172184800993
 30
0.0
  0
SPLINE
  5
17A
330
1F
100
AcDbEntity
  8
0
  6
Continuous
 62
     7
370
    15
100
AcDbSpline
210
0.0
220
0.0
230
1.0
 70
     8
 71
     3
 72
    12
 73
     8
 74
     0
 42
0.00000001
 43
0.00000001
 40
0.0
 40
0.0
 40
0.0
 40
0.0
 40
0.1717100814223773
 40
0.5595055169753134
 40
0.7416338184336982
 40
0.9001408789241531
 40
1.0
 40
1.0
 40
1.0
 40
1.0
 10
270.5287500847985
 20
457.0987274980437
 30
0.0
 10
270.4631799147606
 20
457.0895537151781
 30
0.0
 10
270.2495240153442
 20
457.0596615732477
 30
0.0
 10
270.0340603856313
 20
456.9858406298681
 30
0.0
 10
269.8718746540881
 20
456.7706562933278
 30
0.0
 10
269.8413458520558
 20
456.6024307209449
 30
0.0
 10
269.8762414569329
 20
456.5165480812248
 30
0.0
 10
269.8897286881615
 20
456.4833542442213
 30
0.0
  0
LINE
  5
17B
330
1F
100
AcDbEntity
  8
0
  6
Continuous
 62
     7
370
    15
100
AcDbLine
 10
270.0399472942
 20
447.8083005285
 30
0.0
 11
268.9214810361
 21
447.8083005285
 31
0.0
  0
LINE
  5
17C
330
1F
100
AcDbEntity
  8
0
  6
Continuous
 62
     7
370
    15
100
AcDbLine
 10
268.9214810361
 20
447.0083018875
 30
0.0
 11
270.680190586
 21
447.0083018875
 31
0.0
  0
LINE
  5
17D
330
1F
100
AcDbEntity
  8
0
  6
Continuous
 62
     7
370
    15
100
AcDbLine
 10
267.5111904372
 20
460.6060436106
 30
0.0
 11
267.5111904372
 21
460.6595089769
 31
0.0
  0
LINE
  5
17E
330
1F
100
AcDbEntity
  8
0
  6
Continuous
 62
     7
370
    15
100
AcDbLine
 10
264.5111992587
 20
460.6595089769
 30
0.0
 11
264.5111992587
 21
460.6060436106
 31
0.0
  0
SPLINE
  5
17F
330
1F
100
AcDbEntity
  8
0
  6
Continuous
 62
     7
370
    15
100
AcDbSpline
210
0.0
220
0.0
230
1.0
 70
     8
 71
     3
 72
    15
 73
    11
 74
     0
 42
0.00000001
 43
0.00000001
 40
0.0
 40
0.0
 40
0.0
 40
0.0
 40
0.1077555507154688
 40
0.2352511983336943
 40
0.362790350292899
 40
0.4902567554394754
 40
0.6176629962400678
 40
0.7450967779333516
 40
0.8724964982314105
 40
1.0
 40
1.0
 40
1.0
 40
1.0
 10
264.5272478093316
 20
444.6060409879576
 30
0.0
 10
264.5437869357854
 20
444.293518751015
 30
0.0
 10
264.5798950461503
 20
443.6112222914961
 30
0.0
 10
264.9161077424126
 20
442.6020742981554
 30
0.0
 10
265.4741875799713
 20
441.6385950951768
 30
0.0
 10
266.2290121909159
 20
440.8176688962569
 30
0.0
 10
267.1441765668931
 20
440.1824009011049
 30
0.0
 10
268.1714329171128
 20
439.7622479730705
 30
0.0
 10
269.267409855636
 20
439.5484168423071
 30
0.0
 10
270.0031701708916
 20
439.6139572710772
 30
0.0
 10
270.371200107496
 20
439.6467408275496
 30
0.0
  0
SPLINE
  5
180
330
1F
100
AcDbEntity
  8
0
  6
Continuous
 62
     7
370
    15
100
AcDbSpline
210
0.0
220
0.0
230
1.0
 70
     8
 71
     3
 72
    15
 73
    11
 74
     0
 42
0.00000001
 43
0.00000001
 40
0.0
 40
0.0
 40
0.0
 40
0.0
 40
0.1316513409149725
 40
0.2633120955730877
 40
0.3951901755030931
 40
0.5266715618178756
 40
0.6575473021580293
 40
0.7882115409835325
 40
0.9184603807188456
 40
1.0
 40
1.0
 40
1.0
 40
1.0
 10
269.8735162247826
 20
442.6044276094328
 30
0.0
 10
269.7213321994975
 20
442.5926121572946
 30
0.0
 10
269.4169532669923
 20
442.5689804081531
 30
0.0
 10
268.9660946409307
 20
442.6704606164649
 30
0.0
 10
268.5470548014918
 20
442.8573009040876
 30
0.0
 10
268.1766673058711
 20
443.1299128832461
 30
0.0
 10
267.8744164516334
 20
443.4758263736078
 30
0.0
 10
267.6552356015929
 20
443.8775223452718
 30
0.0
 10
267.5378867835963
 20
444.2638423904176
 30
0.0
 10
267.527702802329
 20
444.5109162950748
 30
0.0
 10
267.5237819184472
 20
444.6060409879576
 30
0.0
  0
SPLINE
  5
181
330
1F
100
AcDbEntity
  8
0
  6
Continuous
 62
     7
370
    15
100
AcDbSpline
210
0.0
220
0.0
230
1.0
 70
     8
 71
     3
 72
    15
 73
    11
 74
     0
 42
0.00000001
 43
0.00000001
 40
0.0
 40
0.0
 40
0.0
 40
0.0
 40
0.1249272622636897
 40
0.2499157582683642
 40
0.3749668820430542
 40
0.4999573550462825
 40
0.6249201454790695
 40
0.7499167384880293
 40
0.8748745285857286
 40
1.0
 40
1.0
 40
1.0
 40
1.0
 10
270.5420717229058
 20
465.5365547275435
 30
0.0
 10
270.1756953744377
 20
465.5798851675511
 30
0.0
 10
269.4427630962475
 20
465.666567286205
 30
0.0
 10
268.3387340269998
 20
465.5014002454267
 30
0.0
 10
267.2979454834029
 20
465.112443698583
 30
0.0
 10
266.362743434843
 20
464.5074508981841
 30
0.0
 10
265.5821114600319
 20
463.7112461014089
 30
0.0
 10
264.9941330555749
 20
462.766893604457
 30
0.0
 10
264.5983147737357
 20
461.7184435965237
 30
0.0
 10
264.5402507410783
 20
460.9793234467573
 30
0.0
 10
264.5111992587258
 20
460.6095155811201
 30
0.0
  0
SPLINE
  5
182
330
1F
100
AcDbEntity
  8
0
  6
Continuous
 62
     7
370
    15
100
AcDbSpline
210
0.0
220
0.0
230
1.0
 70
     8
 71
     3
 72
    15
 73
    11
 74
     0
 42
0.00000001
 43
0.00000001
 40
0.0
 40
0.0
 40
0.0
 40
0.0
 40
0.1242511625658423
 40
0.2486325123120668
 40
0.3735415526078879
 40
0.4985817894852682
 40
0.6236643585681813
 40
0.749069687415585
 40
0.8744364137175966
 40
1.0
 40
1.0
 40
1.0
 40
1.0
 10
267.5111904372384
 20
460.6095155811201
 30
0.0
 10
267.5247546143442
 20
460.7614681333493
 30
0.0
 10
267.5518971807527
 20
461.0655324497935
 30
0.0
 10
267.726348626926
 20
461.4928533230973
 30
0.0
 10
267.979681614146
 20
461.8744929597391
 30
0.0
 10
268.30950158206
 20
462.194427860955
 30
0.0
 10
268.7004291559412
 20
462.4350031039606
 30
0.0
 10
269.1331307774602
 20
462.586611969827
 30
0.0
 10
269.5906591270027
 20
462.6400745243615
 30
0.0
 10
269.8925792103628
 20
462.5993900530103
 30
0.0
 10
270.043657683294
 20
462.5790318584334
 30
0.0
  0
LINE
  5
183
330
1F
100
AcDbEntity
  8
0
  6
Continuous
 62
     7
370
    15
100
AcDbLine
 10
285.4142501582
 20
445.2211758232
 30
0.0
 11
269.8732927074
 21
442.604755435
 31
0.0
  0
LINE
  5
184
330
1F
100
AcDbEntity
  8
0
  6
Continuous
 62
     7
370
    15
100
AcDbLine
 10
270.3713491191
 20
439.6463981008
 30
0.0
 11
285.9123214711
 21
442.2628035879
 31
0.0
  0
LINE
  5
185
330
1F
100
AcDbEntity
  8
0
  6
Continuous
 62
     7
370
    15
100
AcDbLine
 10
270.0438662996
 20
462.5785997248
 30
0.0
 11
285.5848386516
 21
459.9621793365
 31
0.0
  0
LINE
  5
186
330
1F
100
AcDbEntity
  8
0
  6
Continuous
 62
     7
370
    15
100
AcDbLine
 10
286.0828950633
 20
462.9205515718
 30
0.0
 11
270.5419376125
 21
465.5369719601
 31
0.0
  0
SPLINE
  5
187
330
1F
100
AcDbEntity
  8
0
  6
Continuous
 62
     7
370
    15
100
AcDbSpline
210
0.0
220
0.0
230
1.0
 70
     8
 71
     3
 72
    12
 73
     8
 74
     0
 42
0.00000001
 43
0.00000001
 40
0.0
 40
0.0
 40
0.0
 40
0.0
 40
0.1526135502442328
 40
0.2973905062034102
 40
0.5623705545044584
 40
0.7966015967691097
 40
1.0
 40
1.0
 40
1.0
 40
1.0
 10
285.9119638432671
 20
442.2631165122878
 30
0.0
 10
286.1631835922734
 20
442.3158542280685
 30
0.0
 10
286.6527231397498
 20
442.4186216164621
 30
0.0
 10
287.5022437608075
 20
442.8478744231208
 30
0.0
 10
288.3142333547254
 20
443.5922683629406
 30
0.0
 10
288.8786836161532
 20
444.663307490195
 30
0.0
 10
288.9603709678328
 20
445.3982358097507
 30
0.0
 10
288.9983370532204
 20
445.7398107385527
 30
0.0
  0
SPLINE
  5
188
330
1F
100
AcDbEntity
  8
0
  6
Continuous
 62
     7
370
    15
100
AcDbSpline
210
0.0
220
0.0
230
1.0
 70
     8
 71
     3
 72
    11
 73
     7
 74
     0
 42
0.00000001
 43
0.00000001
 40
0.0
 40
0.0
 40
0.0
 40
0.0
 40
0.2003604523961388
 40
0.432804763221977
 40
0.6990176740182689
 40
1.0
 40
1.0
 40
1.0
 40
1.0
 10
286.0000148047616
 20
445.7398107385527
 30
0.0
 10
285.9867877776722
 20
445.6833819934382
 30
0.0
 10
285.958215670457
 20
445.5614885290535
 30
0.0
 10
285.8423261076834
 20
445.3957948984867
 30
0.0
 10
285.6575845008921
 20
445.2568745841371
 30
0.0
 10
285.4999632073135
 20
445.2334838273304
 30
0.0
 10
285.4163214196374
 20
445.2210715150725
 30
0.0
  0
SPLINE
  5
189
330
1F
100
AcDbEntity
  8
0
  6
Continuous
 62
     7
370
    15
100
AcDbSpline
210
0.0
220
0.0
230
1.0
 70
     8
 71
     3
 72
    12
 73
     8
 74
     0
 42
0.00000001
 43
0.00000001
 40
0.0
 40
0.0
 40
0.0
 40
0.0
 40
0.2034079614312687
 40
0.4376403285130852
 40
0.7026166544798007
 40
0.8473901302837391
 40
1.0
 40
1.0
 40
1.0
 40
1.0
 10
288.9983370532204
 20
459.2984369134795
 30
0.0
 10
288.9768963431987
 20
459.6414474706284
 30
0.0
 10
288.93076580184
 20
460.3794483426585
 30
0.0
 10
288.4186665318139
 20
461.4765582003981
 30
0.0
 10
287.6434674926757
 20
462.2593187857856
 30
0.0
 10
286.8156107079981
 20
462.7290387394935
 30
0.0
 10
286.3316232393373
 20
462.8552969869423
 30
0.0
 10
286.0832526911904
 20
462.9200896358382
 30
0.0
  0
SPLINE
  5
18A
330
1F
100
AcDbEntity
  8
0
  6
Continuous
 62
     7
370
    15
100
AcDbSpline
210
0.0
220
0.0
230
1.0
 70
     8
 71
     3
 72
    12
 73
     8
 74
     0
 42
0.00000001
 43
0.00000001
 40
0.0
 40
0.0
 40
0.0
 40
0.0
 40
0.155561090840467
 40
0.3022073696712271
 40
0.5679690148706087
 40
0.7999527754730017
 40
0.9999999999999999
 40
0.9999999999999999
 40
0.9999999999999999
 40
0.9999999999999999
 10
285.5829164017846
 20
459.963103208531
 30
0.0
 10
285.6234632834737
 20
459.9473534595639
 30
0.0
 10
285.7022334077857
 20
459.9167565398417
 30
0.0
 10
285.831865961984
 20
459.8217149209045
 30
0.0
 10
285.94630170376
 20
459.6755418396166
 30
0.0
 10
286.0104317587299
 20
459.4812845822461
 30
0.0
 10
286.0033116795747
 20
459.3563066012636
 30
0.0
 10
286.0000148047616
 20
459.2984369134795
 30
0.0
  0
LINE
  5
18B
330
1F
100
AcDbEntity
  8
0
  6
Continuous
 62
     7
370
    15
100
AcDbLine
 10
285.9991803397
 20
459.3484303093
 30
0.0
 11
285.9991803397
 21
459.1060331201
 31
0.0
  0
LINE
  5
18C
330
1F
100
AcDbEntity
  8
0
  6
Continuous
 62
     7
370
    15
100
AcDbLine
 10
285.9991803397
 20
446.1060365772
 30
0.0
 11
285.9991803397
 21
445.6898024416
 31
0.0
  0
LINE
  5
18D
330
1F
100
AcDbEntity
  8
0
  6
Continuous
 62
     7
370
    15
100
AcDbLine
 10
288.9991715182
 20
445.6898024416
 30
0.0
 11
288.9991715182
 21
446.1087783909
 31
0.0
  0
LINE
  5
18E
330
1F
100
AcDbEntity
  8
0
  6
Continuous
 62
     7
370
    15
100
AcDbLine
 10
288.9991715182
 20
459.1032913065
 30
0.0
 11
288.9991715182
 21
459.3484303093
 31
0.0
  0
LINE
  5
18F
330
1F
100
AcDbEntity
  8
0
  6
Continuous
 62
     7
370
    15
100
AcDbLine
 10
275.2984627713
 20
458.2060327864
 30
0.0
 11
273.6801817645
 21
458.2060327864
 31
0.0
  0
LINE
  5
190
330
1F
100
AcDbEntity
  8
0
  6
Continuous
 62
     7
370
    15
100
AcDbLine
 10
274.3071034183
 20
457.4060341453
 30
0.0
 11
275.2984627713
 21
457.4060341453
 31
0.0
  0
LINE
  5
191
330
1F
100
AcDbEntity
  8
0
  6
Continuous
 62
     7
370
    15
100
AcDbLine
 10
275.6366893281
 20
459.4741812086
 30
0.0
 11
275.370167159
 21
458.2659354544
 31
0.0
  0
LINE
  5
192
330
1F
100
AcDbEntity
  8
0
  6
Continuous
 62
     7
370
    15
100
AcDbLine
 10
276.1383220185
 20
458.0343863106
 30
0.0
 11
276.4178976049
 21
459.3018492794
 31
0.0
  0
SPLINE
  5
193
330
1F
100
AcDbEntity
  8
0
  6
Continuous
 62
     7
370
    15
100
AcDbSpline
210
0.0
220
0.0
230
1.0
 70
     8
 71
     3
 72
    11
 73
     7
 74
     0
 42
0.00000001
 43
0.00000001
 40
0.0
 40
0.0
 40
0.0
 40
0.0
 40
0.2541322396080093
 40
0.5022676065307782
 40
0.7495073204938133
 40
1.0
 40
1.0
 40
1.0
 40
1.0
 10
275.2984627713372
 20
457.4060341453444
 30
0.0
 10
275.3985512273508
 20
457.4162852637365
 30
0.0
 10
275.5963663070937
 20
457.4365456002726
 30
0.0
 10
275.8545129731372
 20
457.5905675891479
 30
0.0
 10
276.0579682636379
 20
457.8096391706277
 30
0.0
 10
276.1196979337537
 20
457.9966934940329
 30
0.0
 10
276.1507644881417
 20
458.0908319091689
 30
0.0
  0
LINE
  5
194
330
1F
100
AcDbEntity
  8
0
  6
Continuous
 62
     7
370
    15
100
AcDbLine
 10
274.9101832141
 20
459.8060449695
 30
0.0
 11
274.9101832141
 21
460.6060436106
 31
0.0
  0
LINE
  5
195
330
1F
100
AcDbEntity
  8
0
  6
Continuous
 62
     7
370
    15
100
AcDbLine
 10
274.9101832141
 20
444.606040988
 30
0.0
 11
274.9101832141
 21
445.406039629
 31
0.0
  0
ARC
  5
196
330
1F
100
AcDbEntity
  8
0
  6
Continuous
 62
     7
370
    15
100
AcDbCircle
 10
272.1801863469
 20
457.798897058
 30
0.0
 40
3.807142857143368
100
AcDbArc
 50
54.6997515601
 51
125.3002484399
  0
LINE
  5
197
330
1F
100
AcDbEntity
  8
0
  6
Continuous
 62
     7
370
    15
100
AcDbLine
 10
269.9801936378
 20
460.9060337877
 30
0.0
 11
269.9801936378
 21
460.6060436106
 31
0.0
  0
LINE
  5
198
330
1F
100
AcDbEntity
  8
0
  6
Continuous
 62
     7
370
    15
100
AcDbLine
 10
274.3801936139
 20
460.6060436106
 30
0.0
 11
274.3801936139
 21
460.9060337877
 31
0.0
  0
LINE
  5
199
330
1F
100
AcDbEntity
  8
0
  6
Continuous
 62
     7
370
    15
100
AcDbLine
 10
270.0801804294
 20
444.2060342169
 30
0.0
 11
270.0801804294
 21
443.8060423469
 31
0.0
  0
LINE
  5
19A
330
1F
100
AcDbEntity
  8
0
  6
Continuous
 62
     7
370
    15
100
AcDbLine
 10
274.2801919212
 20
443.8060423469
 30
0.0
 11
274.2801919212
 21
444.2060342169
 31
0.0
  0
ARC
  5
19B
330
1F
100
AcDbEntity
  8
0
  6
Continuous
 62
     7
370
    15
100
AcDbCircle
 10
270.2801863469
 20
444.6060399151
 30
0.0
 40
0.4000000000007162
100
AcDbArc
 50
270.0
 51
0.0
  0
ARC
  5
19C
330
1F
100
AcDbEntity
  8
0
  6
Continuous
 62
     7
370
    15
100
AcDbCircle
 10
274.0801863469
 20
444.6060399151
 30
0.0
 40
0.4000000000007162
100
AcDbArc
 50
180.0
 51
270.0
  0
LINE
  5
19D
330
1F
100
AcDbEntity
  8
0
  6
Continuous
 62
     7
370
    15
100
AcDbLine
 10
270.680190586
 20
459.8060449695
 30
0.0
 11
270.680190586
 21
459.3560448027
 31
0.0
  0
LINE
  5
19E
330
1F
100
AcDbEntity
  8
0
  6
Continuous
 62
     7
370
    15
100
AcDbLine
 10
270.680190586
 20
458.3560427761
 30
0.0
 11
270.680190586
 21
457.8673293924
 31
0.0
  0
LINE
  5
19F
330
1F
100
AcDbEntity
  8
0
  6
Continuous
 62
     7
370
    15
100
AcDbLine
 10
270.680190586
 20
457.0712199545
 30
0.0
 11
270.680190586
 21
456.9015702343
 31
0.0
  0
LINE
  5
1A0
330
1F
100
AcDbEntity
  8
0
  6
Continuous
 62
     7
370
    15
100
AcDbLine
 10
270.680190586
 20
447.6164182758
 30
0.0
 11
270.680190586
 21
446.8560418224
 31
0.0
  0
LINE
  5
1A1
330
1F
100
AcDbEntity
  8
0
  6
Continuous
 62
     7
370
    15
100
AcDbLine
 10
270.680190586
 20
445.8560397959
 30
0.0
 11
270.680190586
 21
445.406039629
 31
0.0
  0
LINE
  5
1A2
330
1F
100
AcDbEntity
  8
0
  6
Continuous
 62
     7
370
    15
100
AcDbLine
 10
273.6801817645
 20
445.406039629
 30
0.0
 11
273.6801817645
 21
445.8560397959
 31
0.0
  0
LINE
  5
1A3
330
1F
100
AcDbEntity
  8
0
  6
Continuous
 62
     7
370
    15
100
AcDbLine
 10
273.6801817645
 20
446.8560418224
 30
0.0
 11
273.6801817645
 21
447.343175683
 31
0.0
  0
LINE
  5
1A4
330
1F
100
AcDbEntity
  8
0
  6
Continuous
 62
     7
370
    15
100
AcDbLine
 10
273.6801817645
 20
456.6510966158
 30
0.0
 11
273.6801817645
 21
456.8390449619
 31
0.0
  0
LINE
  5
1A5
330
1F
100
AcDbEntity
  8
0
  6
Continuous
 62
     7
370
    15
100
AcDbLine
 10
273.6801817645
 20
457.5941166019
 30
0.0
 11
273.6801817645
 21
458.3560427761
 31
0.0
  0
LINE
  5
1A6
330
1F
100
AcDbEntity
  8
0
  6
Continuous
 62
     7
370
    15
100
AcDbLine
 10
273.6801817645
 20
459.3560448027
 30
0.0
 11
273.6801817645
 21
459.8060449695
 31
0.0
  0
LINE
  5
1A7
330
1F
100
AcDbEntity
  8
0
  6
Continuous
 62
     7
370
    15
100
AcDbLine
 10
289.6803184976
 20
457.9060426092
 30
0.0
 11
288.7282982101
 21
457.9060426092
 31
0.0
  0
LINE
  5
1A8
330
1F
100
AcDbEntity
  8
0
  6
Continuous
 62
     7
370
    15
100
AcDbLine
 10
289.6803184976
 20
457.9060426092
 30
0.0
 11
289.6803184976
 21
447.3060419893
 31
0.0
  0
LINE
  5
1A9
330
1F
100
AcDbEntity
  8
0
  6
Continuous
 62
     7
370
    15
100
AcDbLine
 10
288.7282982101
 20
447.3060419893
 30
0.0
 11
289.6803184976
 21
447.3060419893
 31
0.0
  0
LINE
  5
1AA
330
1F
100
AcDbEntity
  8
0
  6
Continuous
 62
     7
370
    15
100
AcDbLine
 10
288.7282982101
 20
457.9060426092
 30
0.0
 11
288.7282982101
 21
447.3060419893
 31
0.0
  0
LINE
  5
1AB
330
1F
100
AcDbEntity
  8
0
  6
Continuous
 62
     7
370
    15
100
AcDbLine
 10
287.9977836837
 20
459.1060331201
 30
0.0
 11
288.9498039712
 21
459.1060331201
 31
0.0
  0
LWPOLYLINE
  5
1AC
330
1F
100
AcDbEntity
  8
0
  6
Continuous
 62
     7
370
    15
100
AcDbPolyline
 90
        9
 70
   128
 43
0.0
 10
288.9498039712
 20
459.1060331201
 10
289.0923186769
 20
459.0829810238
 10
289.2293497552
 20
459.014689002
 10
289.3556519975
 20
458.9038094616
 10
289.466352724
 20
458.7545743322
 10
289.5572051038
 20
458.572720561
 10
289.624707364
 20
458.3652665949
 10
289.6662816037
 20
458.1401547527
 10
289.6803184976
 20
457.9060426092
  0
LWPOLYLINE
  5
1AD
330
1F
100
AcDbEntity
  8
0
  6
Continuous
 62
     7
370
    15
100
AcDbPolyline
 90
        9
 70
   128
 43
0.0
 10
288.7282982101
 20
457.9060426092
 10
288.7142613162
 20
458.1401547527
 10
288.6726870765
 20
458.3652665949
 10
288.6051699151
 20
458.572720561
 10
288.5143324365
 20
458.7545743322
 10
288.40363171
 20
458.9038094616
 10
288.2773294677
 20
459.014689002
 10
288.1402983894
 20
459.0829810238
 10
287.9977836837
 20
459.1060331201
  0
LINE
  5
1AE
330
1F
100
AcDbEntity
  8
0
  6
Continuous
 62
     7
370
    15
100
AcDbLine
 10
285.278798603
 20
459.1060331201
 30
0.0
 11
285.278798603
 21
446.1060365772
 31
0.0
  0
LINE
  5
1AF
330
1F
100
AcDbEntity
  8
0
  6
Continuous
 62
     7
370
    15
100
AcDbLine
 10
285.278798603
 20
459.1060331201
 30
0.0
 11
287.9977836837
 21
459.1060331201
 31
0.0
  0
LWPOLYLINE
  5
1B0
330
1F
100
AcDbEntity
  8
0
  6
Continuous
 62
     7
370
    15
100
AcDbPolyline
 90
        9
 70
   128
 43
0.0
 10
287.9977836837
 20
446.1060365772
 10
288.1402983894
 20
446.1291035747
 10
288.2773294677
 20
446.1973806953
 10
288.40363171
 20
446.3082751369
 10
288.5143324365
 20
446.4575102663
 10
288.6051699151
 20
446.6393491363
 10
288.6726870765
 20
446.8468180036
 10
288.7142613162
 20
447.0719298458
 10
288.7282982101
 20
447.3060419893
  0
LINE
  5
1B1
330
1F
100
AcDbEntity
  8
0
  6
Continuous
 62
     7
370
    15
100
AcDbLine
 10
287.9977836837
 20
446.1060365772
 30
0.0
 11
285.278798603
 21
446.1060365772
 31
0.0
  0
LINE
  5
1B2
330
1F
100
AcDbEntity
  8
0
  6
Continuous
 62
     7
370
    15
100
AcDbLine
 10
288.9498039712
 20
446.1060365772
 30
0.0
 11
287.9977836837
 21
446.1060365772
 31
0.0
  0
LWPOLYLINE
  5
1B3
330
1F
100
AcDbEntity
  8
0
  6
Continuous
 62
     7
370
    15
100
AcDbPolyline
 90
        9
 70
   128
 43
0.0
 10
289.6803184976
 20
447.3060419893
 10
289.6662816037
 20
447.0719298458
 10
289.624707364
 20
446.8468180036
 10
289.5572051038
 20
446.6393491363
 10
289.466352724
 20
446.4575102663
 10
289.3556519975
 20
446.3082751369
 10
289.2293497552
 20
446.1973806953
 10
289.0923186769
 20
446.1291035747
 10
288.9498039712
 20
446.1060365772
  0
LINE
  5
1B4
330
1F
100
AcDbEntity
  8
0
  6
Continuous
 62
     7
370
    15
100
AcDbLine
 10
285.278798603
 20
89.1060432529
 30
0.0
 11
285.278798603
 21
76.10604671
 31
0.0
  0
LINE
  5
1B5
330
1F
100
AcDbEntity
  8
0
  6
Continuous
 62
     7
370
    15
100
AcDbLine
 10
285.278798603
 20
89.1060432529
 30
0.0
 11
287.9977836837
 21
89.1060432529
 31
0.0
  0
LWPOLYLINE
  5
1B6
330
1F
100
AcDbEntity
  8
0
  6
Continuous
 62
     7
370
    15
100
AcDbPolyline
 90
        9
 70
   128
 43
0.0
 10
288.7282982101
 20
87.9060378408
 10
288.7142613162
 20
88.1401499843
 10
288.6726870765
 20
88.3652618265
 10
288.6051699151
 20
88.5727306938
 10
288.5143324365
 20
88.7545695639
 10
288.40363171
 20
88.9038046932
 10
288.2773294677
 20
89.0146991348
 10
288.1402983894
 20
89.0829762554
 10
287.9977836837
 20
89.1060432529
  0
LINE
  5
1B7
330
1F
100
AcDbEntity
  8
0
  6
Continuous
 62
     7
370
    15
100
AcDbLine
 10
288.7282982101
 20
87.9060378408
 30
0.0
 11
288.7282982101
 21
77.3060372209
 31
0.0
  0
LWPOLYLINE
  5
1B8
330
1F
100
AcDbEntity
  8
0
  6
Continuous
 62
     7
370
    15
100
AcDbPolyline
 90
        9
 70
   128
 43
0.0
 10
287.9977836837
 20
76.10604671
 10
288.1402983894
 20
76.1290988064
 10
288.2773294677
 20
76.1973908281
 10
288.40363171
 20
76.3082703686
 10
288.5143324365
 20
76.4575054979
 10
288.6051699151
 20
76.6393592691
 10
288.6726870765
 20
76.8468132353
 10
288.7142613162
 20
77.0719250774
 10
288.7282982101
 20
77.3060372209
  0
LINE
  5
1B9
330
1F
100
AcDbEntity
  8
0
  6
Continuous
 62
     7
370
    15
100
AcDbLine
 10
287.9977836837
 20
76.10604671
 30
0.0
 11
285.278798603
 21
76.10604671
 31
0.0
  0
LINE
  5
1BA
330
1F
100
AcDbEntity
  8
0
  6
Continuous
 62
     7
370
    15
100
AcDbLine
 10
289.6803184976
 20
87.9060378408
 30
0.0
 11
288.7282982101
 21
87.9060378408
 31
0.0
  0
LINE
  5
1BB
330
1F
100
AcDbEntity
  8
0
  6
Continuous
 62
     7
370
    15
100
AcDbLine
 10
289.6803184976
 20
87.9060378408
 30
0.0
 11
289.6803184976
 21
77.3060372209
 31
0.0
  0
LINE
  5
1BC
330
1F
100
AcDbEntity
  8
0
  6
Continuous
 62
     7
370
    15
100
AcDbLine
 10
288.7282982101
 20
77.3060372209
 30
0.0
 11
289.6803184976
 21
77.3060372209
 31
0.0
  0
LINE
  5
1BD
330
1F
100
AcDbEntity
  8
0
  6
Continuous
 62
     7
370
    15
100
AcDbLine
 10
287.9977836837
 20
89.1060432529
 30
0.0
 11
288.9498039712
 21
89.1060432529
 31
0.0
  0
LWPOLYLINE
  5
1BE
330
1F
100
AcDbEntity
  8
0
  6
Continuous
 62
     7
370
    15
100
AcDbPolyline
 90
        9
 70
   128
 43
0.0
 10
288.9498039712
 20
89.1060432529
 10
289.0923186769
 20
89.0829762554
 10
289.2293497552
 20
89.0146991348
 10
289.3556519975
 20
88.9038046932
 10
289.466352724
 20
88.7545695639
 10
289.5572051038
 20
88.5727306938
 10
289.624707364
 20
88.3652618265
 10
289.6662816037
 20
88.1401499843
 10
289.6803184976
 20
87.9060378408
  0
LINE
  5
1BF
330
1F
100
AcDbEntity
  8
0
  6
Continuous
 62
     7
370
    15
100
AcDbLine
 10
288.9498039712
 20
76.10604671
 30
0.0
 11
287.9977836837
 21
76.10604671
 31
0.0
  0
LWPOLYLINE
  5
1C0
330
1F
100
AcDbEntity
  8
0
  6
Continuous
 62
     7
370
    15
100
AcDbPolyline
 90
        9
 70
   128
 43
0.0
 10
289.6803184976
 20
77.3060372209
 10
289.6662816037
 20
77.0719250774
 10
289.624707364
 20
76.8468132353
 10
289.5572051038
 20
76.6393592691
 10
289.466352724
 20
76.4575054979
 10
289.3556519975
 20
76.3082703686
 10
289.2293497552
 20
76.1973908281
 10
289.0923186769
 20
76.1290988064
 10
288.9498039712
 20
76.10604671
  0
LINE
  5
1C1
330
1F
100
AcDbEntity
  8
0
  6
Continuous
 62
     7
370
    15
100
AcDbLine
 10
284.7001865138
 20
459.1060331201
 30
0.0
 11
285.278798603
 21
459.1060331201
 31
0.0
  0
LINE
  5
1C2
330
1F
100
AcDbEntity
  8
0
  6
Continuous
 62
     7
370
    15
100
AcDbLine
 10
285.278798603
 20
446.1060365772
 30
0.0
 11
284.7001865138
 21
446.1060365772
 31
0.0
  0
LINE
  5
1C3
330
1F
100
AcDbEntity
  8
0
  6
Continuous
 62
     7
370
    15
100
AcDbLine
 10
284.7001865138
 20
89.1060432529
 30
0.0
 11
285.278798603
 21
89.1060432529
 31
0.0
  0
LINE
  5
1C4
330
1F
100
AcDbEntity
  8
0
  6
Continuous
 62
     7
370
    15
100
AcDbLine
 10
285.278798603
 20
76.10604671
 30
0.0
 11
284.7001865138
 21
76.10604671
 31
0.0
  0
LINE
  5
1C5
330
1F
100
AcDbEntity
  8
0
  6
Continuous
 62
     7
370
    15
100
AcDbLine
 10
294.800193571
 20
458.006044302
 30
0.0
 11
293.3001830806
 21
458.006044302
 31
0.0
  0
LINE
  5
1C6
330
1F
100
AcDbEntity
  8
0
  6
Continuous
 62
     7
370
    15
100
AcDbLine
 10
293.3001830806
 20
458.006044302
 30
0.0
 11
293.3001830806
 21
457.206045661
 31
0.0
  0
LINE
  5
1C7
330
1F
100
AcDbEntity
  8
0
  6
Continuous
 62
     7
370
    15
100
AcDbLine
 10
294.800193571
 20
457.206045661
 30
0.0
 11
294.800193571
 21
455.7060351705
 31
0.0
  0
LINE
  5
1C8
330
1F
100
AcDbEntity
  8
0
  6
Continuous
 62
     7
370
    15
100
AcDbLine
 10
294.800193571
 20
455.7060351705
 30
0.0
 11
295.600192212
 21
455.7060351705
 31
0.0
  0
LINE
  5
1C9
330
1F
100
AcDbEntity
  8
0
  6
Continuous
 62
     7
370
    15
100
AcDbLine
 10
295.600192212
 20
457.206045661
 30
0.0
 11
297.1001878013
 21
457.206045661
 31
0.0
  0
LINE
  5
1CA
330
1F
100
AcDbEntity
  8
0
  6
Continuous
 62
     7
370
    15
100
AcDbLine
 10
297.1001878013
 20
458.006044302
 30
0.0
 11
295.600192212
 21
458.006044302
 31
0.0
  0
LINE
  5
1CB
330
1F
100
AcDbEntity
  8
0
  6
Continuous
 62
     7
370
    15
100
AcDbLine
 10
295.600192212
 20
458.006044302
 30
0.0
 11
295.600192212
 21
459.5060398912
 31
0.0
  0
LINE
  5
1CC
330
1F
100
AcDbEntity
  8
0
  6
Continuous
 62
     7
370
    15
100
AcDbLine
 10
295.600192212
 20
459.5060398912
 30
0.0
 11
294.800193571
 21
459.5060398912
 31
0.0
  0
LINE
  5
1CD
330
1F
100
AcDbEntity
  8
0
  6
Continuous
 62
     7
370
    15
100
AcDbLine
 10
297.1001878013
 20
457.206045661
 30
0.0
 11
297.1001878013
 21
458.006044302
 31
0.0
  0
LINE
  5
1CE
330
1F
100
AcDbEntity
  8
0
  6
Continuous
 62
     7
370
    15
100
AcDbLine
 10
293.3001830806
 20
457.206045661
 30
0.0
 11
294.800193571
 21
457.206045661
 31
0.0
  0
CIRCLE
  5
1CF
330
1F
100
AcDbEntity
  8
0
  6
Continuous
 62
     7
370
    15
100
AcDbCircle
 10
295.2001863469
 20
457.6060399151
 30
0.0
 40
3.0
  0
LINE
  5
1D0
330
1F
100
AcDbEntity
  8
0
  6
Continuous
 62
     7
370
    15
100
AcDbLine
 10
294.800193571
 20
459.5060398912
 30
0.0
 11
294.800193571
 21
458.006044302
 31
0.0
  0
LINE
  5
1D1
330
1F
100
AcDbEntity
  8
0
  6
Continuous
 62
     7
370
    15
100
AcDbLine
 10
295.600192212
 20
455.7060351705
 30
0.0
 11
295.600192212
 21
457.206045661
 31
0.0
  0
CIRCLE
  5
1D2
330
1F
100
AcDbEntity
  8
0
  6
Continuous
 62
     7
370
    15
100
AcDbCircle
 10
295.2001863469
 20
447.6060399151
 30
0.0
 40
3.0
  0
LINE
  5
1D3
330
1F
100
AcDbEntity
  8
0
  6
Continuous
 62
     7
370
    15
100
AcDbLine
 10
294.800193571
 20
445.7060447073
 30
0.0
 11
295.600192212
 21
445.7060447073
 31
0.0
  0
LINE
  5
1D4
330
1F
100
AcDbEntity
  8
0
  6
Continuous
 62
     7
370
    15
100
AcDbLine
 10
295.600192212
 20
445.7060447073
 30
0.0
 11
295.600192212
 21
447.2060402965
 31
0.0
  0
LINE
  5
1D5
330
1F
100
AcDbEntity
  8
0
  6
Continuous
 62
     7
370
    15
100
AcDbLine
 10
297.1001878013
 20
447.2060402965
 30
0.0
 11
297.1001878013
 21
448.0060389376
 31
0.0
  0
LINE
  5
1D6
330
1F
100
AcDbEntity
  8
0
  6
Continuous
 62
     7
370
    15
100
AcDbLine
 10
297.1001878013
 20
448.0060389376
 30
0.0
 11
295.600192212
 21
448.0060389376
 31
0.0
  0
LINE
  5
1D7
330
1F
100
AcDbEntity
  8
0
  6
Continuous
 62
     7
370
    15
100
AcDbLine
 10
295.600192212
 20
448.0060389376
 30
0.0
 11
295.600192212
 21
449.5060345268
 31
0.0
  0
LINE
  5
1D8
330
1F
100
AcDbEntity
  8
0
  6
Continuous
 62
     7
370
    15
100
AcDbLine
 10
295.600192212
 20
449.5060345268
 30
0.0
 11
294.800193571
 21
449.5060345268
 31
0.0
  0
LINE
  5
1D9
330
1F
100
AcDbEntity
  8
0
  6
Continuous
 62
     7
370
    15
100
AcDbLine
 10
294.800193571
 20
448.0060389376
 30
0.0
 11
293.3001830806
 21
448.0060389376
 31
0.0
  0
LINE
  5
1DA
330
1F
100
AcDbEntity
  8
0
  6
Continuous
 62
     7
370
    15
100
AcDbLine
 10
293.3001830806
 20
448.0060389376
 30
0.0
 11
293.3001830806
 21
447.2060402965
 31
0.0
  0
LINE
  5
1DB
330
1F
100
AcDbEntity
  8
0
  6
Continuous
 62
     7
370
    15
100
AcDbLine
 10
293.3001830806
 20
447.2060402965
 30
0.0
 11
294.800193571
 21
447.2060402965
 31
0.0
  0
LINE
  5
1DC
330
1F
100
AcDbEntity
  8
0
  6
Continuous
 62
     7
370
    15
100
AcDbLine
 10
294.800193571
 20
447.2060402965
 30
0.0
 11
294.800193571
 21
445.7060447073
 31
0.0
  0
LINE
  5
1DD
330
1F
100
AcDbEntity
  8
0
  6
Continuous
 62
     7
370
    15
100
AcDbLine
 10
295.600192212
 20
447.2060402965
 30
0.0
 11
297.1001878013
 21
447.2060402965
 31
0.0
  0
LINE
  5
1DE
330
1F
100
AcDbEntity
  8
0
  6
Continuous
 62
     7
370
    15
100
AcDbLine
 10
294.800193571
 20
449.5060345268
 30
0.0
 11
294.800193571
 21
448.0060389376
 31
0.0
  0
CIRCLE
  5
1DF
330
1F
100
AcDbEntity
  8
0
  6
Continuous
 62
     7
370
    15
100
AcDbCircle
 10
295.2001863469
 20
87.6060399151
 30
0.0
 40
3.0
  0
LINE
  5
1E0
330
1F
100
AcDbEntity
  8
0
  6
Continuous
 62
     7
370
    15
100
AcDbLine
 10
294.800193571
 20
88.0060395336
 30
0.0
 11
293.3001830806
 21
88.0060395336
 31
0.0
  0
LINE
  5
1E1
330
1F
100
AcDbEntity
  8
0
  6
Continuous
 62
     7
370
    15
100
AcDbLine
 10
293.3001830806
 20
87.2060408926
 30
0.0
 11
294.800193571
 21
87.2060408926
 31
0.0
  0
LINE
  5
1E2
330
1F
100
AcDbEntity
  8
0
  6
Continuous
 62
     7
370
    15
100
AcDbLine
 10
294.800193571
 20
87.2060408926
 30
0.0
 11
294.800193571
 21
85.7060453033
 31
0.0
  0
LINE
  5
1E3
330
1F
100
AcDbEntity
  8
0
  6
Continuous
 62
     7
370
    15
100
AcDbLine
 10
294.800193571
 20
85.7060453033
 30
0.0
 11
295.600192212
 21
85.7060453033
 31
0.0
  0
LINE
  5
1E4
330
1F
100
AcDbEntity
  8
0
  6
Continuous
 62
     7
370
    15
100
AcDbLine
 10
295.600192212
 20
85.7060453033
 30
0.0
 11
295.600192212
 21
87.2060408926
 31
0.0
  0
LINE
  5
1E5
330
1F
100
AcDbEntity
  8
0
  6
Continuous
 62
     7
370
    15
100
AcDbLine
 10
297.1001878013
 20
88.0060395336
 30
0.0
 11
295.600192212
 21
88.0060395336
 31
0.0
  0
LINE
  5
1E6
330
1F
100
AcDbEntity
  8
0
  6
Continuous
 62
     7
370
    15
100
AcDbLine
 10
295.600192212
 20
88.0060395336
 30
0.0
 11
295.600192212
 21
89.5060351229
 31
0.0
  0
LINE
  5
1E7
330
1F
100
AcDbEntity
  8
0
  6
Continuous
 62
     7
370
    15
100
AcDbLine
 10
295.600192212
 20
89.5060351229
 30
0.0
 11
294.800193571
 21
89.5060351229
 31
0.0
  0
LINE
  5
1E8
330
1F
100
AcDbEntity
  8
0
  6
Continuous
 62
     7
370
    15
100
AcDbLine
 10
294.800193571
 20
89.5060351229
 30
0.0
 11
294.800193571
 21
88.0060395336
 31
0.0
  0
LINE
  5
1E9
330
1F
100
AcDbEntity
  8
0
  6
Continuous
 62
     7
370
    15
100
AcDbLine
 10
293.3001830806
 20
88.0060395336
 30
0.0
 11
293.3001830806
 21
87.2060408926
 31
0.0
  0
LINE
  5
1EA
330
1F
100
AcDbEntity
  8
0
  6
Continuous
 62
     7
370
    15
100
AcDbLine
 10
295.600192212
 20
87.2060408926
 30
0.0
 11
297.1001878013
 21
87.2060408926
 31
0.0
  0
LINE
  5
1EB
330
1F
100
AcDbEntity
  8
0
  6
Continuous
 62
     7
370
    15
100
AcDbLine
 10
297.1001878013
 20
87.2060408926
 30
0.0
 11
297.1001878013
 21
88.0060395336
 31
0.0
  0
CIRCLE
  5
1EC
330
1F
100
AcDbEntity
  8
0
  6
Continuous
 62
     7
370
    15
100
AcDbCircle
 10
295.2001863469
 20
77.6060399151
 30
0.0
 40
3.0
  0
LINE
  5
1ED
330
1F
100
AcDbEntity
  8
0
  6
Continuous
 62
     7
370
    15
100
AcDbLine
 10
295.600192212
 20
77.2060355282
 30
0.0
 11
297.1001878013
 21
77.2060355282
 31
0.0
  0
LINE
  5
1EE
330
1F
100
AcDbEntity
  8
0
  6
Continuous
 62
     7
370
    15
100
AcDbLine
 10
297.1001878013
 20
77.2060355282
 30
0.0
 11
297.1001878013
 21
78.0060341692
 31
0.0
  0
LINE
  5
1EF
330
1F
100
AcDbEntity
  8
0
  6
Continuous
 62
     7
370
    15
100
AcDbLine
 10
295.600192212
 20
78.0060341692
 30
0.0
 11
295.600192212
 21
79.5060446596
 31
0.0
  0
LINE
  5
1F0
330
1F
100
AcDbEntity
  8
0
  6
Continuous
 62
     7
370
    15
100
AcDbLine
 10
295.600192212
 20
79.5060446596
 30
0.0
 11
294.800193571
 21
79.5060446596
 31
0.0
  0
LINE
  5
1F1
330
1F
100
AcDbEntity
  8
0
  6
Continuous
 62
     7
370
    15
100
AcDbLine
 10
294.800193571
 20
78.0060341692
 30
0.0
 11
293.3001830806
 21
78.0060341692
 31
0.0
  0
LINE
  5
1F2
330
1F
100
AcDbEntity
  8
0
  6
Continuous
 62
     7
370
    15
100
AcDbLine
 10
293.3001830806
 20
78.0060341692
 30
0.0
 11
293.3001830806
 21
77.2060355282
 31
0.0
  0
LINE
  5
1F3
330
1F
100
AcDbEntity
  8
0
  6
Continuous
 62
     7
370
    15
100
AcDbLine
 10
293.3001830806
 20
77.2060355282
 30
0.0
 11
294.800193571
 21
77.2060355282
 31
0.0
  0
LINE
  5
1F4
330
1F
100
AcDbEntity
  8
0
  6
Continuous
 62
     7
370
    15
100
AcDbLine
 10
294.800193571
 20
77.2060355282
 30
0.0
 11
294.800193571
 21
75.7060399389
 31
0.0
  0
LINE
  5
1F5
330
1F
100
AcDbEntity
  8
0
  6
Continuous
 62
     7
370
    15
100
AcDbLine
 10
297.1001878013
 20
78.0060341692
 30
0.0
 11
295.600192212
 21
78.0060341692
 31
0.0
  0
LINE
  5
1F6
330
1F
100
AcDbEntity
  8
0
  6
Continuous
 62
     7
370
    15
100
AcDbLine
 10
294.800193571
 20
75.7060399389
 30
0.0
 11
295.600192212
 21
75.7060399389
 31
0.0
  0
LINE
  5
1F7
330
1F
100
AcDbEntity
  8
0
  6
Continuous
 62
     7
370
    15
100
AcDbLine
 10
295.600192212
 20
75.7060399389
 30
0.0
 11
295.600192212
 21
77.2060355282
 31
0.0
  0
LINE
  5
1F8
330
1F
100
AcDbEntity
  8
0
  6
Continuous
 62
     7
370
    15
100
AcDbLine
 10
294.800193571
 20
79.5060446596
 30
0.0
 11
294.800193571
 21
78.0060341692
 31
0.0
  0
LINE
  5
1F9
330
1F
100
AcDbEntity
  8
0
  6
Continuous
 62
     7
370
    15
100
AcDbLine
 10
294.1824212302
 20
441.5041556692
 30
0.0
 11
289.2001881828
 21
446.1060365772
 31
0.0
  0
ARC
  5
1FA
330
1F
100
AcDbEntity
  8
0
  6
Continuous
 62
     7
370
    15
100
AcDbCircle
 10
295.200186347
 20
462.6060399151
 30
0.0
 40
1.49999999999991
100
AcDbArc
 50
43.6028189726
 51
132.7273953127
  0
ARC
  5
1FB
330
1F
100
AcDbEntity
  8
0
  6
Continuous
 62
     7
370
    15
100
AcDbCircle
 10
284.7001863469
 20
452.6060399151
 30
0.0
 40
16.00000000000013
100
AcDbArc
 50
316.3971810272
 51
43.6028189726
  0
ARC
  5
1FC
330
1F
100
AcDbEntity
  8
0
  6
Continuous
 62
     7
370
    15
100
AcDbCircle
 10
295.2001863469
 20
442.6060399151
 30
0.0
 40
1.500000000000178
100
AcDbArc
 50
227.2726046868
 51
316.3971810272
  0
LINE
  5
1FD
330
1F
100
AcDbEntity
  8
0
  6
Continuous
 62
     7
370
    15
100
AcDbLine
 10
289.2001881828
 20
459.1060331201
 30
0.0
 11
294.1824212302
 21
463.7079289293
 31
0.0
  0
LINE
  5
1FE
330
1F
100
AcDbEntity
  8
0
  6
Continuous
 62
     7
370
    15
100
AcDbLine
 10
288.9991715182
 20
459.1060331201
 30
0.0
 11
289.2001881828
 21
459.1060331201
 31
0.0
  0
LINE
  5
1FF
330
1F
100
AcDbEntity
  8
0
  6
Continuous
 62
     7
370
    15
100
AcDbLine
 10
289.2001881828
 20
446.1060365772
 30
0.0
 11
288.9991715182
 21
446.1060365772
 31
0.0
  0
LINE
  5
200
330
1F
100
AcDbEntity
  8
0
  6
Continuous
 62
     7
370
    15
100
AcDbLine
 10
294.1824212302
 20
71.5041509008
 30
0.0
 11
289.2001881828
 21
76.10604671
 31
0.0
  0
ARC
  5
201
330
1F
100
AcDbEntity
  8
0
  6
Continuous
 62
     7
370
    15
100
AcDbCircle
 10
295.200186347
 20
92.6060399151
 30
0.0
 40
1.499999999999969
100
AcDbArc
 50
43.6028189726
 51
132.7273953127
  0
ARC
  5
202
330
1F
100
AcDbEntity
  8
0
  6
Continuous
 62
     7
370
    15
100
AcDbCircle
 10
284.7001863469
 20
82.6060399151
 30
0.0
 40
16.00000000000017
100
AcDbArc
 50
316.3971810272
 51
43.6028189726
  0
ARC
  5
203
330
1F
100
AcDbEntity
  8
0
  6
Continuous
 62
     7
370
    15
100
AcDbCircle
 10
295.2001863469
 20
72.6060399151
 30
0.0
 40
1.499999999999792
100
AcDbArc
 50
227.2726046868
 51
316.3971810272
  0
LINE
  5
204
330
1F
100
AcDbEntity
  8
0
  6
Continuous
 62
     7
370
    15
100
AcDbLine
 10
289.2001881828
 20
89.1060432529
 30
0.0
 11
294.1824212302
 21
93.7079241609
 31
0.0
  0
LINE
  5
205
330
1F
100
AcDbEntity
  8
0
  6
Continuous
 62
     7
370
    15
100
AcDbLine
 10
288.9991715182
 20
89.1060432529
 30
0.0
 11
289.2001881828
 21
89.1060432529
 31
0.0
  0
LINE
  5
206
330
1F
100
AcDbEntity
  8
0
  6
Continuous
 62
     7
370
    15
100
AcDbLine
 10
289.2001881828
 20
76.10604671
 30
0.0
 11
288.9991715182
 21
76.10604671
 31
0.0
  0
LINE
  5
207
330
1F
100
AcDbEntity
  8
0
  6
Continuous
 62
     7
370
    15
100
AcDbLine
 10
292.2001793613
 20
502.606039319
 30
0.0
 11
297.2001894941
 21
502.606039319
 31
0.0
  0
LINE
  5
208
330
1F
100
AcDbEntity
  8
0
  6
Continuous
 62
     7
370
    15
100
AcDbLine
 10
292.2001793613
 20
517.6060399151
 30
0.0
 11
297.2001894941
 21
517.6060399151
 31
0.0
  0
LINE
  5
209
330
1F
100
AcDbEntity
  8
0
  6
Continuous
 62
     7
370
    15
100
AcDbLine
 10
297.2001894941
 20
502.606039319
 30
0.0
 11
297.2001894941
 21
517.6060399151
 31
0.0
  0
LINE
  5
20A
330
1F
100
AcDbEntity
  8
0
  6
Continuous
 62
     7
370
    15
100
AcDbLine
 10
292.2001793613
 20
502.606039319
 30
0.0
 11
292.2001793613
 21
517.6060399151
 31
0.0
  0
LINE
  5
20B
330
1F
100
AcDbEntity
  8
0
  6
Continuous
 62
     7
370
    15
100
AcDbLine
 10
297.2001894941
 20
502.606039319
 30
0.0
 11
312.2001900901
 21
502.606039319
 31
0.0
  0
ARC
  5
20C
330
1F
100
AcDbEntity
  8
0
  6
Continuous
 62
     7
370
    15
100
AcDbCircle
 10
297.2001863469
 20
502.6060399151
 30
0.0
 40
15.0
100
AcDbArc
 50
0.0
 51
90.0
  0
LINE
  5
20D
330
1F
100
AcDbEntity
  8
0
  6
Continuous
 62
     7
370
    15
100
AcDbLine
 10
297.2001894941
 20
462.5935306883
 30
0.0
 11
297.2001894941
 21
502.606039319
 31
0.0
  0
LINE
  5
20E
330
1F
100
AcDbEntity
  8
0
  6
Continuous
 62
     7
370
    15
100
AcDbLine
 10
292.2001793613
 20
461.8770232534
 30
0.0
 11
292.2001793613
 21
502.606039319
 31
0.0
  0
LINE
  5
20F
330
1F
100
AcDbEntity
  8
0
  6
Continuous
 62
     7
370
    15
100
AcDbLine
 10
312.2001900901
 20
32.6060405111
 30
0.0
 11
312.2001900901
 21
502.606039319
 31
0.0
  0
LINE
  5
210
330
1F
100
AcDbEntity
  8
0
  6
Continuous
 62
     7
370
    15
100
AcDbLine
 10
297.2001894941
 20
32.6060405111
 30
0.0
 11
312.2001900901
 21
32.6060405111
 31
0.0
  0
LINE
  5
211
330
1F
100
AcDbEntity
  8
0
  6
Continuous
 62
     7
370
    15
100
AcDbLine
 10
297.2001894941
 20
32.6060405111
 30
0.0
 11
297.2001894941
 21
72.6185491419
 31
0.0
  0
LINE
  5
212
330
1F
100
AcDbEntity
  8
0
  6
Continuous
 62
     7
370
    15
100
AcDbLine
 10
297.2001894941
 20
92.5935259199
 30
0.0
 11
297.2001894941
 21
442.6185539102
 31
0.0
  0
LINE
  5
213
330
1F
100
AcDbEntity
  8
0
  6
Continuous
 62
     7
370
    15
100
AcDbLine
 10
292.2001793613
 20
91.8770184851
 30
0.0
 11
292.2001793613
 21
443.3350613451
 31
0.0
  0
LINE
  5
214
330
1F
100
AcDbEntity
  8
0
  6
Continuous
 62
     7
370
    15
100
AcDbLine
 10
292.2001793613
 20
32.6060405111
 30
0.0
 11
297.2001894941
 21
32.6060405111
 31
0.0
  0
LINE
  5
215
330
1F
100
AcDbEntity
  8
0
  6
Continuous
 62
     7
370
    15
100
AcDbLine
 10
292.2001793613
 20
32.6060405111
 30
0.0
 11
292.2001793613
 21
73.3350565767
 31
0.0
  0
LINE
  5
216
330
1F
100
AcDbEntity
  8
0
  6
Continuous
 62
     7
370
    15
100
AcDbLine
 10
292.2001793613
 20
17.6060399151
 30
0.0
 11
297.2001894941
 21
17.6060399151
 31
0.0
  0
LINE
  5
217
330
1F
100
AcDbEntity
  8
0
  6
Continuous
 62
     7
370
    15
100
AcDbLine
 10
297.2001894941
 20
32.6060405111
 30
0.0
 11
297.2001894941
 21
17.6060399151
 31
0.0
  0
LINE
  5
218
330
1F
100
AcDbEntity
  8
0
  6
Continuous
 62
     7
370
    15
100
AcDbLine
 10
292.2001793613
 20
32.6060405111
 30
0.0
 11
292.2001793613
 21
17.6060399151
 31
0.0
  0
ARC
  5
219
330
1F
100
AcDbEntity
  8
0
  6
Continuous
 62
     7
370
    15
100
AcDbCircle
 10
297.2001863469
 20
32.6060399151
 30
0.0
 40
14.99999999999996
100
AcDbArc
 50
270.0
 51
0.0
  0
LINE
  5
21A
330
1F
100
AcDbEntity
  8
0
  6
Continuous
 62
     7
370
    15
100
AcDbLine
 10
275.41111555
 20
77.9060324764
 30
0.0
 11
275.41111555
 21
86.5060439443
 31
0.0
  0
LINE
  5
21B
330
1F
100
AcDbEntity
  8
0
  6
Continuous
 62
     7
370
    15
100
AcDbLine
 10
275.41111555
 20
77.9060324764
 30
0.0
 11
269.8968216409
 21
77.9060324764
 31
0.0
  0
LINE
  5
21C
330
1F
100
AcDbEntity
  8
0
  6
Continuous
 62
     7
370
    15
100
AcDbLine
 10
269.8968216409
 20
77.9060324764
 30
0.0
 11
269.8968216409
 21
86.5060439443
 31
0.0
  0
LINE
  5
21D
330
1F
100
AcDbEntity
  8
0
  6
Continuous
 62
     7
370
    15
100
AcDbLine
 10
275.41111555
 20
86.5060439443
 30
0.0
 11
269.8968216409
 21
86.5060439443
 31
0.0
  0
LINE
  5
21E
330
1F
100
AcDbEntity
  8
0
  6
Continuous
 62
     7
370
    15
100
AcDbLine
 10
268.7825575103
 20
89.8060402012
 30
0.0
 11
243.9704551925
 21
89.8060402012
 31
0.0
  0
LINE
  5
21F
330
1F
100
AcDbEntity
  8
0
  6
Continuous
 62
     7
370
    15
100
AcDbLine
 10
268.7825575103
 20
86.5060439443
 30
0.0
 11
268.7825575103
 21
89.8060402012
 31
0.0
  0
LINE
  5
220
330
1F
100
AcDbEntity
  8
0
  6
Continuous
 62
     7
370
    15
100
AcDbLine
 10
268.7825575103
 20
75.4060348606
 30
0.0
 11
268.7825575103
 21
77.9060324764
 31
0.0
  0
LINE
  5
221
330
1F
100
AcDbEntity
  8
0
  6
Continuous
 62
     7
370
    15
100
AcDbLine
 10
243.9704551925
 20
75.4060348606
 30
0.0
 11
268.7825575103
 21
75.4060348606
 31
0.0
  0
LINE
  5
222
330
1F
100
AcDbEntity
  8
0
  6
Continuous
 62
     7
370
    15
100
AcDbLine
 10
243.9704551925
 20
75.4060348606
 30
0.0
 11
243.9704551925
 21
89.8060402012
 31
0.0
  0
LINE
  5
223
330
1F
100
AcDbEntity
  8
0
  6
Continuous
 62
     7
370
    15
100
AcDbLine
 10
268.7825575103
 20
77.9060324764
 30
0.0
 11
269.8968216409
 21
77.9060324764
 31
0.0
  0
LINE
  5
224
330
1F
100
AcDbEntity
  8
0
  6
Continuous
 62
     7
370
    15
100
AcDbLine
 10
268.7825575103
 20
86.5060439443
 30
0.0
 11
269.8968216409
 21
86.5060439443
 31
0.0
  0
LINE
  5
225
330
1F
100
AcDbEntity
  8
0
  6
Continuous
 62
     7
370
    15
100
AcDbLine
 10
268.9101859559
 20
74.6086886263
 30
0.0
 11
270.8024248113
 21
74.6086886263
 31
0.0
  0
LINE
  5
226
330
1F
100
AcDbEntity
  8
0
  6
Continuous
 62
     7
370
    15
100
AcDbLine
 10
270.8024248113
 20
74.6086886263
 30
0.0
 11
271.4751824369
 21
74.6060362196
 31
0.0
  0
LINE
  5
227
330
1F
100
AcDbEntity
  8
0
  6
Continuous
 62
     7
370
    15
100
AcDbLine
 10
271.4751824369
 20
74.6060362196
 30
0.0
 11
244.1093787183
 21
74.6060362196
 31
0.0
  0
ARC
  5
228
330
1F
100
AcDbEntity
  8
0
  6
Continuous
 62
     7
370
    15
100
AcDbCircle
 10
245.2263779894
 20
75.2120700777
 30
0.0
 40
1.270812499494407
100
AcDbArc
 50
171.2205995842
 51
208.4822784261
  0
ARC
  5
229
330
1F
100
AcDbEntity
  8
0
  6
Continuous
 62
     7
370
    15
100
AcDbCircle
 10
270.2568724989
 20
75.2331357078
 30
0.0
 40
1.484418674970809
100
AcDbArc
 50
173.3112340828
 51
204.8767532576
  0
LINE
  5
22A
330
1F
100
AcDbEntity
  8
0
  6
Continuous
 62
     7
370
    15
100
AcDbLine
 10
270.8024248113
 20
90.6033864355
 30
0.0
 11
268.9101859559
 21
90.6033864355
 31
0.0
  0
ARC
  5
22B
330
1F
100
AcDbEntity
  8
0
  6
Continuous
 62
     7
370
    15
100
AcDbCircle
 10
270.2568439564
 20
89.9789439227
 30
0.0
 40
1.484390858944844
100
AcDbArc
 50
155.1229432741
 51
186.6890693855
  0
ARC
  5
22C
330
1F
100
AcDbEntity
  8
0
  6
Continuous
 62
     7
370
    15
100
AcDbCircle
 10
245.2263779894
 20
90.0000049841
 30
0.0
 40
1.270812499494407
100
AcDbArc
 50
151.5177215739
 51
188.7794004158
  0
LINE
  5
22D
330
1F
100
AcDbEntity
  8
0
  6
Continuous
 62
     7
370
    15
100
AcDbLine
 10
244.1093787183
 20
90.6060388422
 30
0.0
 11
271.4751824369
 21
90.6060388422
 31
0.0
  0
LINE
  5
22E
330
1F
100
AcDbEntity
  8
0
  6
Continuous
 62
     7
370
    15
100
AcDbLine
 10
271.4751824369
 20
90.6060388422
 30
0.0
 11
270.8024248113
 21
90.6033864355
 31
0.0
  0
LINE
  5
22F
330
1F
100
AcDbEntity
  8
0
  6
Continuous
 62
     7
370
    15
100
AcDbLine
 10
268.9101859559
 20
74.6086886263
 30
0.0
 11
268.9101859559
 21
75.4060348606
 31
0.0
  0
LINE
  5
230
330
1F
100
AcDbEntity
  8
0
  6
Continuous
 62
     7
370
    15
100
AcDbLine
 10
268.9214810361
 20
77.9060324764
 30
0.0
 11
268.9214810361
 21
75.4060348606
 31
0.0
  0
LINE
  5
231
330
1F
100
AcDbEntity
  8
0
  6
Continuous
 62
     7
370
    15
100
AcDbLine
 10
268.9101859559
 20
89.8060402012
 30
0.0
 11
268.9101859559
 21
90.6033864355
 31
0.0
  0
LINE
  5
232
330
1F
100
AcDbEntity
  8
0
  6
Continuous
 62
     7
370
    15
100
AcDbLine
 10
268.9214810361
 20
89.8060402012
 30
0.0
 11
268.9214810361
 21
86.5060439443
 31
0.0
  0
LINE
  5
233
330
1F
100
AcDbEntity
  8
0
  6
Continuous
 62
     7
370
    15
100
AcDbLine
 10
274.9101832141
 20
74.6060362196
 30
0.0
 11
271.4751824369
 21
74.6060362196
 31
0.0
  0
LINE
  5
234
330
1F
100
AcDbEntity
  8
0
  6
Continuous
 62
     7
370
    15
100
AcDbLine
 10
270.8024248113
 20
74.6086886263
 30
0.0
 11
270.8024248113
 21
75.4060348606
 31
0.0
  0
LINE
  5
235
330
1F
100
AcDbEntity
  8
0
  6
Continuous
 62
     7
370
    15
100
AcDbLine
 10
274.9101832141
 20
75.4060348606
 30
0.0
 11
270.8024248113
 21
75.4060348606
 31
0.0
  0
LINE
  5
236
330
1F
100
AcDbEntity
  8
0
  6
Continuous
 62
     7
370
    15
100
AcDbLine
 10
270.8024248113
 20
89.8060402012
 30
0.0
 11
270.8024248113
 21
90.6033864355
 31
0.0
  0
LINE
  5
237
330
1F
100
AcDbEntity
  8
0
  6
Continuous
 62
     7
370
    15
100
AcDbLine
 10
274.9101832141
 20
90.6060388422
 30
0.0
 11
271.4751824369
 21
90.6060388422
 31
0.0
  0
LINE
  5
238
330
1F
100
AcDbEntity
  8
0
  6
Continuous
 62
     7
370
    15
100
AcDbLine
 10
274.9101832141
 20
89.8060402012
 30
0.0
 11
270.8024248113
 21
89.8060402012
 31
0.0
  0
LINE
  5
239
330
1F
100
AcDbEntity
  8
0
  6
Continuous
 62
     7
370
    15
100
AcDbLine
 10
268.9101859559
 20
75.4060348606
 30
0.0
 11
270.8024248113
 21
75.4060348606
 31
0.0
  0
LINE
  5
23A
330
1F
100
AcDbEntity
  8
0
  6
Continuous
 62
     7
370
    15
100
AcDbLine
 10
268.9101859559
 20
89.8060402012
 30
0.0
 11
270.8024248113
 21
89.8060402012
 31
0.0
  0
LINE
  5
23B
330
1F
100
AcDbEntity
  8
0
  6
Continuous
 62
     7
370
    15
100
AcDbLine
 10
269.9801936378
 20
90.9060439205
 30
0.0
 11
274.3801936139
 21
90.9060439205
 31
0.0
  0
LINE
  5
23C
330
1F
100
AcDbEntity
  8
0
  6
Continuous
 62
     7
370
    15
100
AcDbLine
 10
270.0801804294
 20
73.8060375786
 30
0.0
 11
274.2801919212
 21
73.8060375786
 31
0.0
  0
LINE
  5
23D
330
1F
100
AcDbEntity
  8
0
  6
Continuous
 62
     7
370
    15
100
AcDbLine
 10
270.0801804294
 20
74.2060443497
 30
0.0
 11
274.2801919212
 21
74.2060443497
 31
0.0
  0
LINE
  5
23E
330
1F
100
AcDbEntity
  8
0
  6
Continuous
 62
     7
370
    15
100
AcDbLine
 10
239.071609043
 20
89.8060402012
 30
0.0
 11
237.0821252097
 21
89.8060402012
 31
0.0
  0
LINE
  5
23F
330
1F
100
AcDbEntity
  8
0
  6
Continuous
 62
     7
370
    15
100
AcDbLine
 10
239.071609043
 20
75.4060348606
 30
0.0
 11
239.071609043
 21
89.8060402012
 31
0.0
  0
LINE
  5
240
330
1F
100
AcDbEntity
  8
0
  6
Continuous
 62
     7
370
    15
100
AcDbLine
 10
237.0821252097
 20
75.4060348606
 30
0.0
 11
239.071609043
 21
75.4060348606
 31
0.0
  0
ARC
  5
241
330
1F
100
AcDbEntity
  8
0
  6
Continuous
 62
     7
370
    15
100
AcDbCircle
 10
252.3760996325
 20
82.6060375309
 30
0.0
 40
16.90401408232907
100
AcDbArc
 50
154.7901718738
 51
205.2098281262
  0
SPLINE
  5
242
330
1F
100
AcDbEntity
  8
0
  6
Continuous
 62
     7
370
    15
100
AcDbSpline
210
0.0
220
0.0
230
1.0
 70
     8
 71
     3
 72
    12
 73
     8
 74
     0
 42
0.00000001
 43
0.00000001
 40
0.0
 40
0.0
 40
0.0
 40
0.0
 40
0.1818720044743273
 40
0.3633445717081783
 40
0.5550834080130418
 40
0.7712674782110184
 40
1.0
 40
1.0
 40
1.0
 40
1.0
 10
237.214507125776
 20
74.606036219586
 30
0.0
 10
237.2383642930218
 20
74.61336001538416
 30
0.0
 10
237.2860262310984
 20
74.62799152205955
 30
0.0
 10
237.3007736072941
 20
74.73997829867493
 30
0.0
 10
237.2735404020264
 20
74.90937918727079
 30
0.0
 10
237.2018644640094
 20
75.1377849065957
 30
0.0
 10
237.1227817785999
 20
75.31495259359427
 30
0.0
 10
237.0821252097298
 20
75.4060348606001
 30
0.0
  0
LINE
  5
243
330
1F
100
AcDbEntity
  8
0
  6
Continuous
 62
     7
370
    15
100
AcDbLine
 10
236.8301465739
 20
75.3605416155
 30
0.0
 11
237.1845855941
 21
74.6060362196
 31
0.0
  0
ARC
  5
244
330
1F
100
AcDbEntity
  8
0
  6
Continuous
 62
     7
370
    15
100
AcDbCircle
 10
252.1006822228
 20
82.6060375309
 30
0.0
 40
16.90226227646349
100
AcDbArc
 50
154.6168036234
 51
205.3831963766
  0
LINE
  5
245
330
1F
100
AcDbEntity
  8
0
  6
Continuous
 62
     7
370
    15
100
AcDbLine
 10
237.1845855941
 20
90.6060388422
 30
0.0
 11
236.8301465739
 21
89.8515334463
 31
0.0
  0
SPLINE
  5
246
330
1F
100
AcDbEntity
  8
0
  6
Continuous
 62
     7
370
    15
100
AcDbSpline
210
0.0
220
0.0
230
1.0
 70
     8
 71
     3
 72
    12
 73
     8
 74
     0
 42
0.00000001
 43
0.00000001
 40
0.0
 40
0.0
 40
0.0
 40
0.0
 40
0.2510252402609854
 40
0.5023957643688018
 40
0.7402770716234871
 40
0.9473075824591383
 40
1.0
 40
1.0
 40
1.0
 40
1.0
 10
237.0821252097298
 20
89.80604020117627
 30
0.0
 10
237.1264429873045
 20
89.90592478267406
 30
0.0
 10
237.2151395013148
 20
90.10583133636588
 30
0.0
 10
237.2901317042939
 20
90.36456046134322
 30
0.0
 10
237.3016376691946
 20
90.54179317653191
 30
0.0
 10
237.2599893797534
 20
90.60225382574019
 30
0.0
 10
237.2221782275595
 20
90.605400455921
 30
0.0
 10
237.214507125776
 20
90.60603884219037
 30
0.0
  0
LINE
  5
247
330
1F
100
AcDbEntity
  8
0
  6
Continuous
 62
     7
370
    15
100
AcDbLine
 10
237.2145071258
 20
74.6060362196
 30
0.0
 11
237.1845855941
 21
74.6060362196
 31
0.0
  0
LINE
  5
248
330
1F
100
AcDbEntity
  8
0
  6
Continuous
 62
     7
370
    15
100
AcDbLine
 10
237.2145071258
 20
90.6060388422
 30
0.0
 11
237.1845855941
 21
90.6060388422
 31
0.0
  0
LWPOLYLINE
  5
249
330
1F
100
AcDbEntity
  8
0
  6
Continuous
 62
     7
370
    15
100
AcDbPolyline
 90
        9
 70
   128
 43
0.0
 10
239.071609043
 20
89.8060402012
 10
239.0663489331
 20
89.9621149635
 10
239.0507772197
 20
90.1121845579
 10
239.0254899491
 20
90.2504971361
 10
238.9914705981
 20
90.3717180824
 10
238.9500006665
 20
90.4712131357
 10
238.9026894797
 20
90.5451377964
 10
238.8513698806
 20
90.5906608438
 10
238.7979939212
 20
90.6060388422
  0
LINE
  5
24A
330
1F
100
AcDbEntity
  8
0
  6
Continuous
 62
     7
370
    15
100
AcDbLine
 10
237.2145071258
 20
90.6060388422
 30
0.0
 11
238.7979939212
 21
90.6060388422
 31
0.0
  0
LWPOLYLINE
  5
24B
330
1F
100
AcDbEntity
  8
0
  6
Continuous
 62
     7
370
    15
100
AcDbPolyline
 90
        9
 70
   128
 43
0.0
 10
239.071609043
 20
75.4060348606
 10
239.0663489331
 20
75.2499749994
 10
239.0507772197
 20
75.0998905039
 10
239.0254899491
 20
74.9615779257
 10
238.9914705981
 20
74.8403569794
 10
238.9500006665
 20
74.7408619261
 10
238.9026894797
 20
74.6669372654
 10
238.8513698806
 20
74.6214142179
 10
238.7979939212
 20
74.6060362196
  0
LINE
  5
24C
330
1F
100
AcDbEntity
  8
0
  6
Continuous
 62
     7
370
    15
100
AcDbLine
 10
238.7979939212
 20
74.6060362196
 30
0.0
 11
237.2145071258
 21
74.6060362196
 31
0.0
  0
LINE
  5
24D
330
1F
100
AcDbEntity
  8
0
  6
Continuous
 62
     7
370
    15
100
AcDbLine
 10
243.9704551925
 20
89.8060402012
 30
0.0
 11
239.071609043
 21
89.8060402012
 31
0.0
  0
LINE
  5
24E
330
1F
100
AcDbEntity
  8
0
  6
Continuous
 62
     7
370
    15
100
AcDbLine
 10
239.071609043
 20
75.4060348606
 30
0.0
 11
243.9704551925
 21
75.4060348606
 31
0.0
  0
LINE
  5
24F
330
1F
100
AcDbEntity
  8
0
  6
Continuous
 62
     7
370
    15
100
AcDbLine
 10
238.7979939212
 20
90.6060388422
 30
0.0
 11
244.1093787183
 21
90.6060388422
 31
0.0
  0
LINE
  5
250
330
1F
100
AcDbEntity
  8
0
  6
Continuous
 62
     7
370
    15
100
AcDbLine
 10
244.1093787183
 20
74.6060362196
 30
0.0
 11
238.7979939212
 21
74.6060362196
 31
0.0
  0
SPLINE
  5
251
330
1F
100
AcDbEntity
  8
0
  6
Continuous
 62
     7
370
    15
100
AcDbSpline
210
0.0
220
0.0
230
1.0
 70
     8
 71
     3
 72
    16
 73
    12
 74
     0
 42
0.00000001
 43
0.00000001
 40
0.0
 40
0.0
 40
0.0
 40
0.0
 40
0.1207046558348496
 40
0.2414119230668756
 40
0.3621190025512315
 40
0.4828230143796003
 40
0.6035301577114983
 40
0.7242365842041318
 40
0.8449450923082902
 40
0.9656513900487388
 40
1.0
 40
1.0
 40
1.0
 40
1.0
 10
270.3524842490365
 20
69.65366509913312
 30
0.0
 10
270.3718852004534
 20
69.65634087410567
 30
0.0
 10
270.4106875230191
 20
69.66169248194004
 30
0.0
 10
270.4156098051697
 20
69.9526369624881
 30
0.0
 10
270.3783963912343
 20
70.40597161157136
 30
0.0
 10
270.3014948843686
 20
70.97350383839493
 30
0.0
 10
270.1976628134914
 20
71.56181836028466
 30
0.0
 10
270.0815721710405
 20
72.08853207789068
 30
0.0
 10
269.9745618315756
 20
72.45181047435071
 30
0.0
 10
269.9019892454796
 20
72.62227771313925
 30
0.0
 10
269.8824370840174
 20
72.58911865229578
 30
0.0
 10
269.8781057824303
 20
72.58177307604657
 30
0.0
  0
SPLINE
  5
252
330
1F
100
AcDbEntity
  8
0
  6
Continuous
 62
     7
370
    15
100
AcDbSpline
210
0.0
220
0.0
230
1.0
 70
     8
 71
     3
 72
    16
 73
    12
 74
     0
 42
0.00000001
 43
0.00000001
 40
0.0
 40
0.0
 40
0.0
 40
0.0
 40
0.1205802892929417
 40
0.2411631872924392
 40
0.36174589773771
 40
0.4823259359627758
 40
0.6029081784005513
 40
0.7234902365269016
 40
0.8440743741200142
 40
0.964653397711311
 40
1.0
 40
1.0
 40
1.0
 40
1.0
 10
270.5230727423836
 20
95.52969542502271
 30
0.0
 10
270.5424738415439
 20
95.52701961111174
 30
0.0
 10
270.5812764595997
 20
95.52166792539981
 30
0.0
 10
270.5861965255396
 20
95.23072402894353
 30
0.0
 10
270.548991492813
 20
94.77738666872659
 30
0.0
 10
270.472058481498
 20
94.20986276896586
 30
0.0
 10
270.3682562565289
 20
93.62152892831458
 30
0.0
 10
270.2521648956572
 20
93.09487107119627
 30
0.0
 10
270.1451291389324
 20
92.73139492942973
 30
0.0
 10
270.072365993916
 20
92.560860151883
 30
0.0
 10
270.0527286176845
 20
92.59443772284254
 30
0.0
 10
270.0482770432641
 20
92.60204938410627
 30
0.0
  0
SPLINE
  5
253
330
1F
100
AcDbEntity
  8
0
  6
Continuous
 62
     7
370
    15
100
AcDbSpline
210
0.0
220
0.0
230
1.0
 70
     8
 71
     3
 72
    16
 73
    12
 74
     0
 42
0.00000001
 43
0.00000001
 40
0.0
 40
0.0
 40
0.0
 40
0.0
 40
0.1205151259077762
 40
0.2410328591123244
 40
0.361550404864003
 40
0.4820652798395842
 40
0.6025823578366858
 40
0.7230992516219666
 40
0.8436162982530805
 40
0.9641310447155514
 40
1.0
 40
1.0
 40
1.0
 40
1.0
 10
285.8934566010644
 20
72.27008548735486
 30
0.0
 10
285.9128576983314
 20
72.27276130801182
 30
0.0
 10
285.9516603126005
 20
72.27811300721612
 30
0.0
 10
285.9565804069406
 20
72.5690568024788
 30
0.0
 10
285.9193752662939
 20
73.02239454722961
 30
0.0
 10
285.8424426582528
 20
73.58991701007062
 30
0.0
 10
285.7386389280878
 20
74.17825621394044
 30
0.0
 10
285.6225538029967
 20
74.70489125027791
 30
0.0
 10
285.515497317041
 20
75.06844235043397
 30
0.0
 10
285.4426442560158
 20
75.23905133432751
 30
0.0
 10
285.4229537080171
 20
75.20523458814759
 30
0.0
 10
285.4184373845269
 20
75.19747820853101
 30
0.0
  0
SPLINE
  5
254
330
1F
100
AcDbEntity
  8
0
  6
Continuous
 62
     7
370
    15
100
AcDbSpline
210
0.0
220
0.0
230
1.0
 70
     8
 71
     3
 72
    16
 73
    12
 74
     0
 42
0.00000001
 43
0.00000001
 40
0.0
 40
0.0
 40
0.0
 40
0.0
 40
0.1205177365614203
 40
0.2410308968632427
 40
0.3615480095095758
 40
0.4820662871749796
 40
0.602583173190867
 40
0.7231002238868999
 40
0.8436139559377118
 40
0.9641311736182451
 40
1.0
 40
1.0
 40
1.0
 40
1.0
 10
286.0640450944115
 20
92.91327503680097
 30
0.0
 10
286.083446209287
 20
92.91059954804417
 30
0.0
 10
286.1222477023454
 20
92.90524867212335
 30
0.0
 10
286.1271689813618
 20
92.614316559952
 30
0.0
 10
286.0899627526227
 20
92.16097401929296
 30
0.0
 10
286.0130311992388
 20
91.59345045774015
 30
0.0
 10
285.9092336107581
 20
91.00510212665863
 30
0.0
 10
285.7931188956332
 20
90.47847820471344
 30
0.0
 10
285.6860894909595
 20
90.11490822362425
 30
0.0
 10
285.6132329562927
 20
89.944309392164
 30
0.0
 10
285.5935421717448
 20
89.97812609093017
 30
0.0
 10
285.5890258778741
 20
89.98588231562482
 30
0.0
  0
SPLINE
  5
255
330
1F
100
AcDbEntity
  8
0
  6
Continuous
 62
     7
370
    15
100
AcDbSpline
210
0.0
220
0.0
230
1.0
 70
    24
 71
     3
 72
    16
 73
    12
 74
     0
 42
0.00000001
 43
0.00000001
 40
0.0
 40
0.0
 40
0.0
 40
0.0
 40
0.0611070751413885
 40
0.1864721046263345
 40
0.3118318938474008
 40
0.4371941077081365
 40
0.5625585703108704
 40
0.6879206450485429
 40
0.8132849480526685
 40
0.9386471619134042
 40
1.0
 40
1.0
 40
1.0
 40
1.0
 10
288.9703675736596
 20
75.73980597018107
 30
0.0
 10
288.9761405994004
 20
75.73980597018107
 30
0.0
 10
288.9937573525741
 20
75.73980597018112
 30
0.0
 10
288.7753325060302
 20
75.73980597018101
 30
0.0
 10
288.3625810152045
 20
75.7398059701811
 30
0.0
 10
287.8061210562742
 20
75.7398059701811
 30
0.0
 10
287.2070133600376
 20
75.73980597018112
 30
0.0
 10
286.6483094581358
 20
75.7398059701811
 30
0.0
 10
286.2313622307464
 20
75.73980597018107
 30
0.0
 10
286.0083602824827
 20
75.7398059701811
 30
0.0
 10
286.023175684858
 20
75.73980597018112
 30
0.0
 10
286.0280438889672
 20
75.7398059701811
 30
0.0
  0
SPLINE
  5
256
330
1F
100
AcDbEntity
  8
0
  6
Continuous
 62
     7
370
    15
100
AcDbSpline
210
0.0
220
0.0
230
1.0
 70
    24
 71
     3
 72
    16
 73
    12
 74
     0
 42
0.00000001
 43
0.00000001
 40
0.0
 40
0.0
 40
0.0
 40
0.0
 40
0.0610095156596923
 40
0.1861743956976048
 40
0.3113340438378937
 40
0.4364961127468339
 40
0.5616604268075805
 40
0.6868223568155721
 40
0.8119865115325152
 40
0.9371485804414553
 40
1.0
 40
1.0
 40
1.0
 40
1.0
 10
288.9703675736596
 20
89.29843214510785
 30
0.0
 10
288.9761405931877
 20
89.29843214510788
 30
0.0
 10
288.9937573274029
 20
89.29843214510791
 30
0.0
 10
288.7753327393922
 20
89.29843214510785
 30
0.0
 10
288.3625801602328
 20
89.29843214510788
 30
0.0
 10
287.8061242429046
 20
89.29843214510782
 30
0.0
 10
287.2070014683787
 20
89.29843214510782
 30
0.0
 10
286.6483538374692
 20
89.29843214510782
 30
0.0
 10
286.2311966026932
 20
89.29843214510785
 30
0.0
 10
286.0077056872485
 20
89.29843214510785
 30
0.0
 10
286.0229260424817
 20
89.29843214510782
 30
0.0
 10
286.0280140866448
 20
89.29843214510785
 30
0.0
  0
SPLINE
  5
257
330
1F
100
AcDbEntity
  8
0
  6
Continuous
 62
     7
370
    15
100
AcDbSpline
210
0.0
220
0.0
230
1.0
 70
     8
 71
     3
 72
    19
 73
    15
 74
     0
 42
0.00000001
 43
0.00000001
 40
0.0
 40
0.0
 40
0.0
 40
0.0
 40
0.0039536601721293
 40
0.1157662517051606
 40
0.2280452910934559
 40
0.3355204119818876
 40
0.4377005098679779
 40
0.5348770937136277
 40
0.6283018334643067
 40
0.7302839624027609
 40
0.8413278046249414
 40
0.9641214204500345
 40
0.993768885657681
 40
1.0
 40
1.0
 40
1.0
 40
1.0
 10
275.2984627713372
 20
88.20604291914808
 30
0.0
 10
275.2988550308304
 20
88.20603587979761
 30
0.0
 10
275.3103406945554
 20
88.20582976212904
 30
0.0
 10
275.3336639875102
 20
88.19075685450196
 30
0.0
 10
275.3771294179766
 20
88.1238322131751
 30
0.0
 10
275.4151098814181
 20
88.01914237258612
 30
0.0
 10
275.4386135172108
 20
87.89407235405253
 30
0.0
 10
275.4499550153457
 20
87.76563781133609
 30
0.0
 10
275.4505332343111
 20
87.64446509396396
 30
0.0
 10
275.4347669393576
 20
87.53523732094989
 30
0.0
 10
275.3943761668798
 20
87.44580382837869
 30
0.0
 10
275.3425467133638
 20
87.41076173099566
 30
0.0
 10
275.3078012548412
 20
87.40614717518325
 30
0.0
 10
275.2998446184399
 20
87.40605950415961
 30
0.0
 10
275.2984627713372
 20
87.40604427813398
 30
0.0
  0
SPLINE
  5
258
330
1F
100
AcDbEntity
  8
0
  6
Continuous
 62
     7
370
    15
100
AcDbSpline
210
0.0
220
0.0
230
1.0
 70
     8
 71
     3
 72
    30
 73
    26
 74
     0
 42
0.00000001
 43
0.00000001
 40
0.0
 40
0.0
 40
0.0
 40
0.0
 40
0.1247094671210291
 40
0.2494211977845736
 40
0.3741280256643086
 40
0.4367794643574038
 40
0.4681510616177929
 40
0.4838383444393747
 40
0.4916899423063887
 40
0.4956091688949146
 40
0.4975671087553281
 40
0.498546132980753
 40
0.4990370186072248
 40
0.4992824614204608
 40
0.4994155714750697
 40
0.4994762790003092
 40
0.499502901011231
 40
0.4995148067364547
 40
0.4995414287473765
 40
0.5609141858683863
 40
0.6646216534479444
 40
0.7325827763610651
 40
0.8111443143528192
 40
0.9002987635092488
 40
1.0
 40
1.0
 40
1.0
 40
1.0
 10
275.370167159002
 20
88.26593068598615
 30
0.0
 10
275.3759321513712
 20
88.26413908565998
 30
0.0
 10
275.3874622407473
 20
88.26055585248912
 30
0.0
 10
275.4772984625669
 20
88.23870293268033
 30
0.0
 10
275.5847817606103
 20
88.21303556644713
 30
0.0
 10
275.6703311731334
 20
88.19262075115283
 30
0.0
 10
275.714428081421
 20
88.18209398086671
 30
0.0
 10
275.7366543492239
 20
88.17675406123998
 30
0.0
 10
275.7477926613901
 20
88.17411040050268
 30
0.0
 10
275.7533590586296
 20
88.17276371599984
 30
0.0
 10
275.7561413218966
 20
88.17210057400118
 30
0.0
 10
275.7575344514358
 20
88.17177631516226
 30
0.0
 10
275.7582279720498
 20
88.17160196412424
 30
0.0
 10
275.7585802897774
 20
88.1715123081761
 30
0.0
 10
275.7587575170807
 20
88.17147060854505
 30
0.0
 10
275.7588530012002
 20
88.17147015407708
 30
0.0
 10
275.7588870103462
 20
88.17143994504679
 30
0.0
 10
275.7589153490781
 20
88.17144475400166
 30
0.0
 10
275.7806940114332
 20
88.1551981501908
 30
0.0
 10
275.8537671738342
 20
88.15903812597404
 30
0.0
 10
275.9416175253538
 20
88.12968389578555
 30
0.0
 10
276.0257880002559
 20
88.11444417960217
 30
0.0
 10
276.0891672880166
 20
88.10106697403114
 30
0.0
 10
276.1397384726537
 20
88.09156945004231
 30
0.0
 10
276.1469548156182
 20
88.09108362104051
 30
0.0
 10
276.1507644881417
 20
88.09082714079724
 30
0.0
  0
ELLIPSE
  5
259
330
1F
100
AcDbEntity
  8
0
  6
Continuous
 62
     7
370
    15
100
AcDbEllipse
 10
276.0272947407
 20
89.3880150938
 30
0.0
 11
0.3906095144045594
 21
-0.08616383961160068
 31
0.0
210
0.0
220
0.0
230
1.0
 40
0.0142285888
 41
0.0
 42
6.283185307179586
  0
SPLINE
  5
25A
330
1F
100
AcDbEntity
  8
0
  6
Continuous
 62
     7
370
    15
100
AcDbSpline
210
0.0
220
0.0
230
1.0
 70
     8
 71
     3
 72
    16
 73
    12
 74
     0
 42
0.00000001
 43
0.00000001
 40
0.0
 40
0.0
 40
0.0
 40
0.0
 40
0.1207042672742141
 40
0.2414114356498681
 40
0.3621184162780058
 40
0.4828252275849405
 40
0.603532272060568
 40
0.7242359231048475
 40
0.8449443323516175
 40
0.9656514181794309
 40
1.0
 40
1.0
 40
1.0
 40
1.0
 10
270.3524842490365
 20
439.6536698675047
 30
0.0
 10
270.3718851854007
 20
439.6563394052548
 30
0.0
 10
270.4106875244264
 20
439.6616785449166
 30
0.0
 10
270.4156099763093
 20
439.9526279822373
 30
0.0
 10
270.3783954113599
 20
440.4059645340758
 30
0.0
 10
270.301496051477
 20
440.9735043874464
 30
0.0
 10
270.1976643398694
 20
441.5618196664598
 30
0.0
 10
270.0815705608936
 20
442.0885252529094
 30
0.0
 10
269.9745615700256
 20
442.4517956916939
 30
0.0
 10
269.901989405002
 20
442.6222837070247
 30
0.0
 10
269.8824370926642
 20
442.5891236085172
 30
0.0
 10
269.8781057824303
 20
442.5817778444182
 30
0.0
  0
SPLINE
  5
25B
330
1F
100
AcDbEntity
  8
0
  6
Continuous
 62
     7
370
    15
100
AcDbSpline
210
0.0
220
0.0
230
1.0
 70
     8
 71
     3
 72
    16
 73
    12
 74
     0
 42
0.00000001
 43
0.00000001
 40
0.0
 40
0.0
 40
0.0
 40
0.0
 40
0.1205800347816419
 40
0.2411629676788222
 40
0.3617457130217215
 40
0.4823257861436425
 40
0.6029080634789111
 40
0.7234901565027011
 40
0.8440743289938553
 40
0.9646533874817135
 40
1.0
 40
1.0
 40
1.0
 40
1.0
 10
270.5230727423836
 20
465.5296852922331
 30
0.0
 10
270.5424738417152
 20
465.5270157092197
 30
0.0
 10
270.5812765066794
 20
465.5216764790301
 30
0.0
 10
270.5861965139794
 20
465.2307277206793
 30
0.0
 10
270.5489914959105
 20
464.7773917255747
 30
0.0
 10
270.4720584806681
 20
464.2098674600387
 30
0.0
 10
270.3682562567512
 20
463.621533717402
 30
0.0
 10
270.2521648955976
 20
463.0948758340038
 30
0.0
 10
270.1451291389488
 20
462.7313996993412
 30
0.0
 10
270.0723659939151
 20
462.5608649201623
 30
0.0
 10
270.0527286176842
 20
462.5944424911971
 30
0.0
 10
270.0482770432641
 20
462.6020541524779
 30
0.0
  0
SPLINE
  5
25C
330
1F
100
AcDbEntity
  8
0
  6
Continuous
 62
     7
370
    15
100
AcDbSpline
210
0.0
220
0.0
230
1.0
 70
     8
 71
     3
 72
    16
 73
    12
 74
     0
 42
0.00000001
 43
0.00000001
 40
0.0
 40
0.0
 40
0.0
 40
0.0
 40
0.1205146127847613
 40
0.2410321221126572
 40
0.3615494439880318
 40
0.4820669888611739
 40
0.6025838429828403
 40
0.7230978405059076
 40
0.8436165887552223
 40
0.9641311113465891
 40
1.0
 40
1.0
 40
1.0
 40
1.0
 10
285.8934566010644
 20
442.2700902557265
 30
0.0
 10
285.9128576835643
 20
442.2727598413633
 30
0.0
 10
285.9516603148653
 20
442.2780990768
 30
0.0
 10
285.9565805746451
 20
442.5690477957972
 30
0.0
 10
285.9193742993671
 20
443.0223875688559
 30
0.0
 10
285.8424437766262
 20
443.5899171888618
 30
0.0
 10
285.7386406360395
 20
444.1782589013824
 30
0.0
 10
285.6225508959968
 20
444.704882075747
 30
0.0
 10
285.5154987331812
 20
445.0684493580769
 30
0.0
 10
285.4426442005504
 20
445.2390558937968
 30
0.0
 10
285.4229536976689
 20
445.2052393175438
 30
0.0
 10
285.4184373845269
 20
445.1974829769026
 30
0.0
  0
SPLINE
  5
25D
330
1F
100
AcDbEntity
  8
0
  6
Continuous
 62
     7
370
    15
100
AcDbSpline
210
0.0
220
0.0
230
1.0
 70
     8
 71
     3
 72
    16
 73
    12
 74
     0
 42
0.00000001
 43
0.00000001
 40
0.0
 40
0.0
 40
0.0
 40
0.0
 40
0.1205177888348841
 40
0.2410324214209531
 40
0.3615495863404793
 40
0.4820650225370662
 40
0.6025819608260484
 40
0.7230990637952476
 40
0.843614773654894
 40
0.9641311580604702
 40
1.0
 40
1.0
 40
1.0
 40
1.0
 10
286.0640450944115
 20
462.9132798051726
 30
0.0
 10
286.0834462156948
 20
462.9106055331338
 30
0.0
 10
286.122247950164
 20
462.9052570590929
 30
0.0
 10
286.1271688384925
 20
462.614303887246
 30
0.0
 10
286.0899638372134
 20
462.160968243153
 30
0.0
 10
286.0130297315028
 20
461.5934512739287
 30
0.0
 10
285.9092339500987
 20
461.0051054113059
 30
0.0
 10
285.7931175568482
 20
460.4784853464951
 30
0.0
 10
285.6860911794195
 20
460.1148912155684
 30
0.0
 10
285.6132327385948
 20
459.9443156511573
 30
0.0
 10
285.5935421519316
 20
459.9781311016808
 30
0.0
 10
285.5890258778741
 20
459.9858870839964
 30
0.0
  0
SPLINE
  5
25E
330
1F
100
AcDbEntity
  8
0
  6
Continuous
 62
     7
370
    15
100
AcDbSpline
210
0.0
220
0.0
230
1.0
 70
    24
 71
     3
 72
    16
 73
    12
 74
     0
 42
0.00000001
 43
0.00000001
 40
0.0
 40
0.0
 40
0.0
 40
0.0
 40
0.0611070751413885
 40
0.1864721046263345
 40
0.3118318938474008
 40
0.4371941077081365
 40
0.5625585703108704
 40
0.6879206450485429
 40
0.8132849480526685
 40
0.9386471619134042
 40
1.0
 40
1.0
 40
1.0
 40
1.0
 10
288.9703675736596
 20
445.7398107385527
 30
0.0
 10
288.9761405994004
 20
445.7398107385527
 30
0.0
 10
288.9937573525741
 20
445.7398107385527
 30
0.0
 10
288.7753325060302
 20
445.7398107385527
 30
0.0
 10
288.3625810152045
 20
445.7398107385527
 30
0.0
 10
287.8061210562742
 20
445.7398107385526
 30
0.0
 10
287.2070133600376
 20
445.7398107385527
 30
0.0
 10
286.6483094581358
 20
445.7398107385526
 30
0.0
 10
286.2313622307464
 20
445.7398107385527
 30
0.0
 10
286.0083602824827
 20
445.7398107385527
 30
0.0
 10
286.023175684858
 20
445.7398107385527
 30
0.0
 10
286.0280438889672
 20
445.7398107385527
 30
0.0
  0
SPLINE
  5
25F
330
1F
100
AcDbEntity
  8
0
  6
Continuous
 62
     7
370
    15
100
AcDbSpline
210
0.0
220
0.0
230
1.0
 70
    24
 71
     3
 72
    16
 73
    12
 74
     0
 42
0.00000001
 43
0.00000001
 40
0.0
 40
0.0
 40
0.0
 40
0.0
 40
0.0610095156596923
 40
0.1861743956976048
 40
0.3113340438378937
 40
0.4364961127468339
 40
0.5616604268075805
 40
0.6868223568155721
 40
0.8119865115325152
 40
0.9371485804414553
 40
1.0
 40
1.0
 40
1.0
 40
1.0
 10
288.9703675736596
 20
459.2984369134795
 30
0.0
 10
288.9761405931877
 20
459.2984369134795
 30
0.0
 10
288.9937573274029
 20
459.2984369134795
 30
0.0
 10
288.7753327393922
 20
459.2984369134794
 30
0.0
 10
288.3625801602328
 20
459.2984369134794
 30
0.0
 10
287.8061242429046
 20
459.2984369134794
 30
0.0
 10
287.2070014683787
 20
459.2984369134795
 30
0.0
 10
286.6483538374692
 20
459.2984369134795
 30
0.0
 10
286.2311966026932
 20
459.2984369134795
 30
0.0
 10
286.0077056872485
 20
459.2984369134794
 30
0.0
 10
286.0229260424817
 20
459.2984369134795
 30
0.0
 10
286.0280140866448
 20
459.2984369134795
 30
0.0
  0
SPLINE
  5
260
330
1F
100
AcDbEntity
  8
0
  6
Continuous
 62
     7
370
    15
100
AcDbSpline
210
0.0
220
0.0
230
1.0
 70
     8
 71
     3
 72
    19
 73
    15
 74
     0
 42
0.00000001
 43
0.00000001
 40
0.0
 40
0.0
 40
0.0
 40
0.0
 40
0.003953600922138
 40
0.1157659405726567
 40
0.2280447270276627
 40
0.3355196058046905
 40
0.4377101469650414
 40
0.5348865118990125
 40
0.6283001161441861
 40
0.7302914215166427
 40
0.8413280449461988
 40
0.9641213841516012
 40
0.9937687825717962
 40
0.9999999999999999
 40
0.9999999999999999
 40
0.9999999999999999
 40
0.9999999999999999
 10
275.2984627713372
 20
458.2060327863585
 30
0.0
 10
275.2988550309177
 20
458.2060308113977
 30
0.0
 10
275.3103408384569
 20
458.2059729822951
 30
0.0
 10
275.3336639946301
 20
458.1906986360582
 30
0.0
 10
275.3771291897939
 20
458.1238529979242
 30
0.0
 10
275.4151119836787
 20
458.0191400885562
 30
0.0
 10
275.4386120183174
 20
457.894067492421
 30
0.0
 10
275.4499552243815
 20
457.7656308574675
 30
0.0
 10
275.4505319095627
 20
457.6444658522598
 30
0.0
 10
275.4347698040708
 20
457.5352236853483
 30
0.0
 10
275.3943737038293
 20
457.4458259120527
 30
0.0
 10
275.3425469823545
 20
457.4107272012172
 30
0.0
 10
275.3078011144648
 20
457.4061736630832
 30
0.0
 10
275.2998446159544
 20
457.4060547905309
 30
0.0
 10
275.2984627713372
 20
457.4060341453444
 30
0.0
  0
SPLINE
  5
261
330
1F
100
AcDbEntity
  8
0
  6
Continuous
 62
     7
370
    15
100
AcDbSpline
210
0.0
220
0.0
230
1.0
 70
     8
 71
     3
 72
    30
 73
    26
 74
     0
 42
0.00000001
 43
0.00000001
 40
0.0
 40
0.0
 40
0.0
 40
0.0
 40
0.1247090800611971
 40
0.2494204236578843
 40
0.3741268644859788
 40
0.4367807546096541
 40
0.468149518560692
 40
0.4838367526937726
 40
0.4916883261918416
 40
0.4956075406162934
 40
0.4975682596419737
 40
0.4985472808288085
 40
0.499035414047963
 40
0.49928085609942
 40
0.4994166018312869
 40
0.4994773091681088
 40
0.499501120544653
 40
0.4995179577304766
 40
0.4995417691070207
 40
0.5609169374428851
 40
0.6646240831463587
 40
0.7325830314232905
 40
0.8111458727264116
 40
0.9002990729512241
 40
1.0
 40
1.0
 40
1.0
 40
1.0
 10
275.370167159002
 20
458.2659354543578
 30
0.0
 10
275.3759322733688
 20
458.264144390058
 30
0.0
 10
275.3874626067422
 20
458.2605622289497
 30
0.0
 10
275.4772969985804
 20
458.2387012686654
 30
0.0
 10
275.5847870082688
 20
458.2130591700675
 30
0.0
 10
275.6703261290103
 20
458.1925986304279
 30
0.0
 10
275.7144293335521
 20
458.1820989644336
 30
0.0
 10
275.7366549043325
 20
458.1767614396799
 30
0.0
 10
275.7477918099751
 20
458.1741111905402
 30
0.0
 10
275.7533613935445
 20
458.1727738425369
 30
0.0
 10
275.7561418798672
 20
458.172096851116
 30
0.0
 10
275.7575302319311
 20
458.1717547875356
 30
0.0
 10
275.7582301825524
 20
458.1716090812475
 30
0.0
 10
275.7585804882266
 20
458.1715160332343
 30
0.0
 10
275.7587609000735
 20
458.1714757364628
 30
0.0
 10
275.7588459122658
 20
458.1714396790666
 30
0.0
 10
275.7588938553737
 20
458.1714545880656
 30
0.0
 10
275.7589086186715
 20
458.1714251457917
 30
0.0
 10
275.7873363155839
 20
458.1782350246523
 30
0.0
 10
275.84839073546
 20
458.1403810742696
 30
0.0
 10
275.9427047348776
 20
458.1334420087302
 30
0.0
 10
276.0255101258915
 20
458.1134881877399
 30
0.0
 10
276.0892566053219
 20
458.1013594333819
 30
0.0
 10
276.1397118056163
 20
458.0914880622022
 30
0.0
 10
276.1469455888445
 20
458.0910586217657
 30
0.0
 10
276.1507644881417
 20
458.0908319091689
 30
0.0
  0
ELLIPSE
  5
262
330
1F
100
AcDbEntity
  8
0
  6
Continuous
 62
     7
370
    15
100
AcDbEllipse
 10
276.0272947407
 20
459.3880150938
 30
0.0
 11
0.3906095144045594
 21
-0.0861638396116291
 31
0.0
210
0.0
220
0.0
230
1.0
 40
0.0142285888
 41
0.0
 42
6.283185307179586
  0
LINE
  5
263
330
1F
100
AcDbEntity
  8
0
  6
Continuous
 62
     7
370
    15
100
AcDbLine
 10
275.41111555
 20
447.9060372448
 30
0.0
 11
275.41111555
 21
456.5060338116
 31
0.0
  0
LINE
  5
264
330
1F
100
AcDbEntity
  8
0
  6
Continuous
 62
     7
370
    15
100
AcDbLine
 10
269.8968216409
 20
447.9060372448
 30
0.0
 11
269.8968216409
 21
456.5060338116
 31
0.0
  0
LINE
  5
265
330
1F
100
AcDbEntity
  8
0
  6
Continuous
 62
     7
370
    15
100
AcDbLine
 10
275.41111555
 20
456.5060338116
 30
0.0
 11
269.8968216409
 21
456.5060338116
 31
0.0
  0
LINE
  5
266
330
1F
100
AcDbEntity
  8
0
  6
Continuous
 62
     7
370
    15
100
AcDbLine
 10
275.41111555
 20
447.9060372448
 30
0.0
 11
269.8968216409
 21
447.9060372448
 31
0.0
  0
LINE
  5
267
330
1F
100
AcDbEntity
  8
0
  6
Continuous
 62
     7
370
    15
100
AcDbLine
 10
268.7825575103
 20
459.8060449695
 30
0.0
 11
243.9704551925
 21
459.8060449695
 31
0.0
  0
LINE
  5
268
330
1F
100
AcDbEntity
  8
0
  6
Continuous
 62
     7
370
    15
100
AcDbLine
 10
268.7825575103
 20
456.5060338116
 30
0.0
 11
268.7825575103
 21
459.8060449695
 31
0.0
  0
LINE
  5
269
330
1F
100
AcDbEntity
  8
0
  6
Continuous
 62
     7
370
    15
100
AcDbLine
 10
268.7825575103
 20
445.406039629
 30
0.0
 11
268.7825575103
 21
447.9060372448
 31
0.0
  0
LINE
  5
26A
330
1F
100
AcDbEntity
  8
0
  6
Continuous
 62
     7
370
    15
100
AcDbLine
 10
243.9704551925
 20
445.406039629
 30
0.0
 11
268.7825575103
 21
445.406039629
 31
0.0
  0
LINE
  5
26B
330
1F
100
AcDbEntity
  8
0
  6
Continuous
 62
     7
370
    15
100
AcDbLine
 10
243.9704551925
 20
445.406039629
 30
0.0
 11
243.9704551925
 21
459.8060449695
 31
0.0
  0
LINE
  5
26C
330
1F
100
AcDbEntity
  8
0
  6
Continuous
 62
     7
370
    15
100
AcDbLine
 10
268.7825575103
 20
456.5060338116
 30
0.0
 11
269.8968216409
 21
456.5060338116
 31
0.0
  0
LINE
  5
26D
330
1F
100
AcDbEntity
  8
0
  6
Continuous
 62
     7
370
    15
100
AcDbLine
 10
268.7825575103
 20
447.9060372448
 30
0.0
 11
269.8968216409
 21
447.9060372448
 31
0.0
  0
LINE
  5
26E
330
1F
100
AcDbEntity
  8
0
  6
Continuous
 62
     7
370
    15
100
AcDbLine
 10
270.8024248113
 20
460.6033912039
 30
0.0
 11
268.9101859559
 21
460.6033912039
 31
0.0
  0
ARC
  5
26F
330
1F
100
AcDbEntity
  8
0
  6
Continuous
 62
     7
370
    15
100
AcDbCircle
 10
270.2568724989
 20
459.9789441224
 30
0.0
 40
1.484418674970813
100
AcDbArc
 50
155.1232467424
 51
186.6887659172
  0
ARC
  5
270
330
1F
100
AcDbEntity
  8
0
  6
Continuous
 62
     7
370
    15
100
AcDbCircle
 10
245.2263779894
 20
460.0000097525
 30
0.0
 40
1.270812499494411
100
AcDbArc
 50
151.5177215739
 51
188.7794004158
  0
LINE
  5
271
330
1F
100
AcDbEntity
  8
0
  6
Continuous
 62
     7
370
    15
100
AcDbLine
 10
244.1093787183
 20
460.6060436106
 30
0.0
 11
271.4751824369
 21
460.6060436106
 31
0.0
  0
LINE
  5
272
330
1F
100
AcDbEntity
  8
0
  6
Continuous
 62
     7
370
    15
100
AcDbLine
 10
271.4751824369
 20
460.6060436106
 30
0.0
 11
270.8024248113
 21
460.6033912039
 31
0.0
  0
LINE
  5
273
330
1F
100
AcDbEntity
  8
0
  6
Continuous
 62
     7
370
    15
100
AcDbLine
 10
268.9101859559
 20
444.6086933947
 30
0.0
 11
270.8024248113
 21
444.6086933947
 31
0.0
  0
LINE
  5
274
330
1F
100
AcDbEntity
  8
0
  6
Continuous
 62
     7
370
    15
100
AcDbLine
 10
270.8024248113
 20
444.6086933947
 30
0.0
 11
271.4751824369
 21
444.606040988
 31
0.0
  0
LINE
  5
275
330
1F
100
AcDbEntity
  8
0
  6
Continuous
 62
     7
370
    15
100
AcDbLine
 10
271.4751824369
 20
444.606040988
 30
0.0
 11
244.1093787183
 21
444.606040988
 31
0.0
  0
ARC
  5
276
330
1F
100
AcDbEntity
  8
0
  6
Continuous
 62
     7
370
    15
100
AcDbCircle
 10
245.2263779894
 20
445.2120748461
 30
0.0
 40
1.27081249949442
100
AcDbArc
 50
171.2205995842
 51
208.4822784261
  0
ARC
  5
277
330
1F
100
AcDbEntity
  8
0
  6
Continuous
 62
     7
370
    15
100
AcDbCircle
 10
270.2568439564
 20
445.2331359075
 30
0.0
 40
1.484390858944842
100
AcDbArc
 50
173.3109306145
 51
204.8770567259
  0
LINE
  5
278
330
1F
100
AcDbEntity
  8
0
  6
Continuous
 62
     7
370
    15
100
AcDbLine
 10
268.9101859559
 20
444.6086933947
 30
0.0
 11
268.9101859559
 21
445.406039629
 31
0.0
  0
LINE
  5
279
330
1F
100
AcDbEntity
  8
0
  6
Continuous
 62
     7
370
    15
100
AcDbLine
 10
268.9214810361
 20
447.9060372448
 30
0.0
 11
268.9214810361
 21
445.406039629
 31
0.0
  0
LINE
  5
27A
330
1F
100
AcDbEntity
  8
0
  6
Continuous
 62
     7
370
    15
100
AcDbLine
 10
268.9101859559
 20
459.8060449695
 30
0.0
 11
268.9101859559
 21
460.6033912039
 31
0.0
  0
LINE
  5
27B
330
1F
100
AcDbEntity
  8
0
  6
Continuous
 62
     7
370
    15
100
AcDbLine
 10
268.9214810361
 20
459.8060449695
 30
0.0
 11
268.9214810361
 21
456.5060338116
 31
0.0
  0
LINE
  5
27C
330
1F
100
AcDbEntity
  8
0
  6
Continuous
 62
     7
370
    15
100
AcDbLine
 10
270.8024248113
 20
459.8060449695
 30
0.0
 11
270.8024248113
 21
460.6033912039
 31
0.0
  0
LINE
  5
27D
330
1F
100
AcDbEntity
  8
0
  6
Continuous
 62
     7
370
    15
100
AcDbLine
 10
274.9101832141
 20
460.6060436106
 30
0.0
 11
271.4751824369
 21
460.6060436106
 31
0.0
  0
LINE
  5
27E
330
1F
100
AcDbEntity
  8
0
  6
Continuous
 62
     7
370
    15
100
AcDbLine
 10
274.9101832141
 20
459.8060449695
 30
0.0
 11
270.8024248113
 21
459.8060449695
 31
0.0
  0
LINE
  5
27F
330
1F
100
AcDbEntity
  8
0
  6
Continuous
 62
     7
370
    15
100
AcDbLine
 10
274.9101832141
 20
444.606040988
 30
0.0
 11
271.4751824369
 21
444.606040988
 31
0.0
  0
LINE
  5
280
330
1F
100
AcDbEntity
  8
0
  6
Continuous
 62
     7
370
    15
100
AcDbLine
 10
270.8024248113
 20
444.6086933947
 30
0.0
 11
270.8024248113
 21
445.406039629
 31
0.0
  0
LINE
  5
281
330
1F
100
AcDbEntity
  8
0
  6
Continuous
 62
     7
370
    15
100
AcDbLine
 10
274.9101832141
 20
445.406039629
 30
0.0
 11
270.8024248113
 21
445.406039629
 31
0.0
  0
LINE
  5
282
330
1F
100
AcDbEntity
  8
0
  6
Continuous
 62
     7
370
    15
100
AcDbLine
 10
268.9101859559
 20
459.8060449695
 30
0.0
 11
270.8024248113
 21
459.8060449695
 31
0.0
  0
LINE
  5
283
330
1F
100
AcDbEntity
  8
0
  6
Continuous
 62
     7
370
    15
100
AcDbLine
 10
268.9101859559
 20
445.406039629
 30
0.0
 11
270.8024248113
 21
445.406039629
 31
0.0
  0
LINE
  5
284
330
1F
100
AcDbEntity
  8
0
  6
Continuous
 62
     7
370
    15
100
AcDbLine
 10
269.9801936378
 20
460.9060337877
 30
0.0
 11
274.3801936139
 21
460.9060337877
 31
0.0
  0
LINE
  5
285
330
1F
100
AcDbEntity
  8
0
  6
Continuous
 62
     7
370
    15
100
AcDbLine
 10
270.0801804294
 20
443.8060423469
 30
0.0
 11
274.2801919212
 21
443.8060423469
 31
0.0
  0
LINE
  5
286
330
1F
100
AcDbEntity
  8
0
  6
Continuous
 62
     7
370
    15
100
AcDbLine
 10
270.0801804294
 20
444.2060342169
 30
0.0
 11
274.2801919212
 21
444.2060342169
 31
0.0
  0
ARC
  5
287
330
1F
100
AcDbEntity
  8
0
  6
Continuous
 62
     7
370
    15
100
AcDbCircle
 10
252.3760996325
 20
452.6060422993
 30
0.0
 40
16.90401408232907
100
AcDbArc
 50
154.7901718738
 51
205.2098281262
  0
SPLINE
  5
288
330
1F
100
AcDbEntity
  8
0
  6
Continuous
 62
     7
370
    15
100
AcDbSpline
210
0.0
220
0.0
230
1.0
 70
     8
 71
     3
 72
    12
 73
     8
 74
     0
 42
0.00000001
 43
0.00000001
 40
0.0
 40
0.0
 40
0.0
 40
0.0
 40
0.1818716922340392
 40
0.3633439479133611
 40
0.5550753532075972
 40
0.7712678709020692
 40
1.0
 40
1.0
 40
1.0
 40
1.0
 10
237.214507125776
 20
444.6060409879576
 30
0.0
 10
237.2383642331795
 20
444.6133645241358
 30
0.0
 10
237.2860260517028
 20
444.6279955121415
 30
0.0
 10
237.3007741512137
 20
444.7399848125772
 30
0.0
 10
237.2735378705119
 20
444.9093686945057
 30
0.0
 10
237.2018670034954
 20
445.1377894214761
 30
0.0
 10
237.1227821086288
 20
445.3149584682272
 30
0.0
 10
237.0821252097298
 20
445.4060396289717
 30
0.0
  0
LINE
  5
289
330
1F
100
AcDbEntity
  8
0
  6
Continuous
 62
     7
370
    15
100
AcDbLine
 10
236.8301465739
 20
445.3605463838
 30
0.0
 11
237.1845855941
 21
444.606040988
 31
0.0
  0
ARC
  5
28A
330
1F
100
AcDbEntity
  8
0
  6
Continuous
 62
     7
370
    15
100
AcDbCircle
 10
252.1006822228
 20
452.6060422993
 30
0.0
 40
16.90226227646349
100
AcDbArc
 50
154.6168036234
 51
205.3831963766
  0
LINE
  5
28B
330
1F
100
AcDbEntity
  8
0
  6
Continuous
 62
     7
370
    15
100
AcDbLine
 10
237.1845855941
 20
460.6060436106
 30
0.0
 11
236.8301465739
 21
459.8515382147
 31
0.0
  0
SPLINE
  5
28C
330
1F
100
AcDbEntity
  8
0
  6
Continuous
 62
     7
370
    15
100
AcDbSpline
210
0.0
220
0.0
230
1.0
 70
     8
 71
     3
 72
    12
 73
     8
 74
     0
 42
0.00000001
 43
0.00000001
 40
0.0
 40
0.0
 40
0.0
 40
0.0
 40
0.2510171967448785
 40
0.5023980142766835
 40
0.7402747889406065
 40
0.9473067283745789
 40
1.0
 40
1.0
 40
1.0
 40
1.0
 10
237.0821252097298
 20
459.8060449695479
 30
0.0
 10
237.126443460754
 20
459.905923248911
 30
0.0
 10
237.2151441617396
 20
460.1058244902288
 30
0.0
 10
237.2901295147774
 20
460.3645648545191
 30
0.0
 10
237.3016378698908
 20
460.541788262538
 30
0.0
 10
237.2599890459481
 20
460.6022260668781
 30
0.0
 10
237.2221782185777
 20
460.6053997342312
 30
0.0
 10
237.214507125776
 20
460.606043610562
 30
0.0
  0
LINE
  5
28D
330
1F
100
AcDbEntity
  8
0
  6
Continuous
 62
     7
370
    15
100
AcDbLine
 10
237.2145071258
 20
444.606040988
 30
0.0
 11
237.1845855941
 21
444.606040988
 31
0.0
  0
LINE
  5
28E
330
1F
100
AcDbEntity
  8
0
  6
Continuous
 62
     7
370
    15
100
AcDbLine
 10
237.2145071258
 20
460.6060436106
 30
0.0
 11
237.1845855941
 21
460.6060436106
 31
0.0
  0
LINE
  5
28F
330
1F
100
AcDbEntity
  8
0
  6
Continuous
 62
     7
370
    15
100
AcDbLine
 10
239.071609043
 20
459.8060449695
 30
0.0
 11
237.0821252097
 21
459.8060449695
 31
0.0
  0
LINE
  5
290
330
1F
100
AcDbEntity
  8
0
  6
Continuous
 62
     7
370
    15
100
AcDbLine
 10
239.071609043
 20
445.406039629
 30
0.0
 11
239.071609043
 21
459.8060449695
 31
0.0
  0
LINE
  5
291
330
1F
100
AcDbEntity
  8
0
  6
Continuous
 62
     7
370
    15
100
AcDbLine
 10
237.0821252097
 20
445.406039629
 30
0.0
 11
239.071609043
 21
445.406039629
 31
0.0
  0
LWPOLYLINE
  5
292
330
1F
100
AcDbEntity
  8
0
  6
Continuous
 62
     7
370
    15
100
AcDbPolyline
 90
        9
 70
   128
 43
0.0
 10
239.071609043
 20
459.8060449695
 10
239.0663489331
 20
459.9621048307
 10
239.0507772197
 20
460.1121893263
 10
239.0254899491
 20
460.2505019045
 10
238.9914705981
 20
460.3717228508
 10
238.9500006665
 20
460.4712179041
 10
238.9026894797
 20
460.5451425648
 10
238.8513698806
 20
460.5906656122
 10
238.7979939212
 20
460.6060436106
  0
LINE
  5
293
330
1F
100
AcDbEntity
  8
0
  6
Continuous
 62
     7
370
    15
100
AcDbLine
 10
237.2145071258
 20
460.6060436106
 30
0.0
 11
238.7979939212
 21
460.6060436106
 31
0.0
  0
LWPOLYLINE
  5
294
330
1F
100
AcDbEntity
  8
0
  6
Continuous
 62
     7
370
    15
100
AcDbPolyline
 90
        9
 70
   128
 43
0.0
 10
239.071609043
 20
445.406039629
 10
239.0663489331
 20
445.2499648666
 10
239.0507772197
 20
445.0998952722
 10
239.0254899491
 20
444.961582694
 10
238.9914705981
 20
444.8403617477
 10
238.9500006665
 20
444.7408666944
 10
238.9026894797
 20
444.6669420338
 10
238.8513698806
 20
444.6214189863
 10
238.7979939212
 20
444.606040988
  0
LINE
  5
295
330
1F
100
AcDbEntity
  8
0
  6
Continuous
 62
     7
370
    15
100
AcDbLine
 10
238.7979939212
 20
444.606040988
 30
0.0
 11
237.2145071258
 21
444.606040988
 31
0.0
  0
LINE
  5
296
330
1F
100
AcDbEntity
  8
0
  6
Continuous
 62
     7
370
    15
100
AcDbLine
 10
239.071609043
 20
445.406039629
 30
0.0
 11
243.9704551925
 21
445.406039629
 31
0.0
  0
LINE
  5
297
330
1F
100
AcDbEntity
  8
0
  6
Continuous
 62
     7
370
    15
100
AcDbLine
 10
244.1093787183
 20
444.606040988
 30
0.0
 11
238.7979939212
 21
444.606040988
 31
0.0
  0
LINE
  5
298
330
1F
100
AcDbEntity
  8
0
  6
Continuous
 62
     7
370
    15
100
AcDbLine
 10
243.9704551925
 20
459.8060449695
 30
0.0
 11
239.071609043
 21
459.8060449695
 31
0.0
  0
LINE
  5
299
330
1F
100
AcDbEntity
  8
0
  6
Continuous
 62
     7
370
    15
100
AcDbLine
 10
238.7979939212
 20
460.6060436106
 30
0.0
 11
244.1093787183
 21
460.6060436106
 31
0.0
  0
LINE
  5
29A
330
1F
100
AcDbEntity
  8
0
  6
Continuous
 62
     7
370
    15
100
AcDbLine
 10
275.2001896133
 20
459.3560448027
 30
0.0
 11
269.0001889695
 21
459.3560448027
 31
0.0
  0
LINE
  5
29B
330
1F
100
AcDbEntity
  8
0
  6
Continuous
 62
     7
370
    15
100
AcDbLine
 10
275.2001896133
 20
459.3560448027
 30
0.0
 11
275.2001896133
 21
458.3560427761
 31
0.0
  0
LINE
  5
29C
330
1F
100
AcDbEntity
  8
0
  6
Continuous
 62
     7
370
    15
100
AcDbLine
 10
275.2001896133
 20
458.3560427761
 30
0.0
 11
269.0001889695
 21
458.3560427761
 31
0.0
  0
LINE
  5
29D
330
1F
100
AcDbEntity
  8
0
  6
Continuous
 62
     7
370
    15
100
AcDbLine
 10
269.0001889695
 20
459.3560448027
 30
0.0
 11
269.0001889695
 21
458.3560427761
 31
0.0
  0
LINE
  5
29E
330
1F
100
AcDbEntity
  8
0
  6
Continuous
 62
     7
370
    15
100
AcDbLine
 10
275.2001896133
 20
89.3560400343
 30
0.0
 11
275.2001896133
 21
88.3560380077
 31
0.0
  0
LINE
  5
29F
330
1F
100
AcDbEntity
  8
0
  6
Continuous
 62
     7
370
    15
100
AcDbLine
 10
275.2001896133
 20
88.3560380077
 30
0.0
 11
269.0001889695
 21
88.3560380077
 31
0.0
  0
LINE
  5
2A0
330
1F
100
AcDbEntity
  8
0
  6
Continuous
 62
     7
370
    15
100
AcDbLine
 10
269.0001889695
 20
89.3560400343
 30
0.0
 11
269.0001889695
 21
88.3560380077
 31
0.0
  0
LINE
  5
2A1
330
1F
100
AcDbEntity
  8
0
  6
Continuous
 62
     7
370
    15
100
AcDbLine
 10
275.2001896133
 20
89.3560400343
 30
0.0
 11
269.0001889695
 21
89.3560400343
 31
0.0
  0
LINE
  5
2A2
330
1F
100
AcDbEntity
  8
0
  6
Continuous
 62
     7
370
    15
100
AcDbLine
 10
275.2001896133
 20
446.8560418224
 30
0.0
 11
275.2001896133
 21
445.8560397959
 31
0.0
  0
LINE
  5
2A3
330
1F
100
AcDbEntity
  8
0
  6
Continuous
 62
     7
370
    15
100
AcDbLine
 10
269.0001889695
 20
446.8560418224
 30
0.0
 11
269.0001889695
 21
445.8560397959
 31
0.0
  0
LINE
  5
2A4
330
1F
100
AcDbEntity
  8
0
  6
Continuous
 62
     7
370
    15
100
AcDbLine
 10
275.2001896133
 20
446.8560418224
 30
0.0
 11
269.0001889695
 21
446.8560418224
 31
0.0
  0
LINE
  5
2A5
330
1F
100
AcDbEntity
  8
0
  6
Continuous
 62
     7
370
    15
100
AcDbLine
 10
275.2001896133
 20
445.8560397959
 30
0.0
 11
269.0001889695
 21
445.8560397959
 31
0.0
  0
LINE
  5
2A6
330
1F
100
AcDbEntity
  8
0
  6
Continuous
 62
     7
370
    15
100
AcDbLine
 10
275.2001896133
 20
76.8560370541
 30
0.0
 11
275.2001896133
 21
75.8560350275
 31
0.0
  0
LINE
  5
2A7
330
1F
100
AcDbEntity
  8
0
  6
Continuous
 62
     7
370
    15
100
AcDbLine
 10
269.0001889695
 20
76.8560370541
 30
0.0
 11
269.0001889695
 21
75.8560350275
 31
0.0
  0
LINE
  5
2A8
330
1F
100
AcDbEntity
  8
0
  6
Continuous
 62
     7
370
    15
100
AcDbLine
 10
275.2001896133
 20
76.8560370541
 30
0.0
 11
269.0001889695
 21
76.8560370541
 31
0.0
  0
LINE
  5
2A9
330
1F
100
AcDbEntity
  8
0
  6
Continuous
 62
     7
370
    15
100
AcDbLine
 10
275.2001896133
 20
75.8560350275
 30
0.0
 11
269.0001889695
 21
75.8560350275
 31
0.0
  0
LWPOLYLINE
  5
2AA
330
1F
100
AcDbEntity
  8
0
  6
Continuous
 62
     7
370
    15
100
AcDbPolyline
 90
        3
 70
   128
 43
0.0
 10
268.9214810361
 20
446.2449004984
 10
268.924058937
 20
446.2387165165
 10
269.0001889695
 20
445.8560397959
  0
LWPOLYLINE
  5
2AB
330
1F
100
AcDbEntity
  8
0
  6
Continuous
 62
     7
370
    15
100
AcDbPolyline
 90
        3
 70
   128
 43
0.0
 10
269.0001889695
 20
459.3560448027
 10
268.924058937
 20
458.9733531809
 10
268.9214810361
 20
458.9671841001
  0
LINE
  5
2AC
330
1F
100
AcDbEntity
  8
0
  6
Continuous
 62
     7
370
    15
100
AcDbLine
 10
275.2001896133
 20
458.3560427761
 30
0.0
 11
275.2001896133
 21
458.2060327864
 31
0.0
  0
LINE
  5
2AD
330
1F
100
AcDbEntity
  8
0
  6
Continuous
 62
     7
370
    15
100
AcDbLine
 10
275.2001896133
 20
457.4060341453
 30
0.0
 11
275.2001896133
 21
456.5060338116
 31
0.0
  0
LINE
  5
2AE
330
1F
100
AcDbEntity
  8
0
  6
Continuous
 62
     7
370
    15
100
AcDbLine
 10
275.2001896133
 20
447.9060372448
 30
0.0
 11
275.2001896133
 21
446.8560418224
 31
0.0
  0
LWPOLYLINE
  5
2AF
330
1F
100
AcDbEntity
  8
0
  6
Continuous
 62
     7
370
    15
100
AcDbPolyline
 90
        3
 70
   128
 43
0.0
 10
268.9214810361
 20
76.24489573
 10
268.924058937
 20
76.2387266493
 10
269.0001889695
 20
75.8560350275
  0
LWPOLYLINE
  5
2B0
330
1F
100
AcDbEntity
  8
0
  6
Continuous
 62
     7
370
    15
100
AcDbPolyline
 90
        3
 70
   128
 43
0.0
 10
269.0001889695
 20
89.3560400343
 10
268.924058937
 20
88.9733633137
 10
268.9214810361
 20
88.9671793318
  0
LINE
  5
2B1
330
1F
100
AcDbEntity
  8
0
  6
Continuous
 62
     7
370
    15
100
AcDbLine
 10
275.2001896133
 20
88.3560380077
 30
0.0
 11
275.2001896133
 21
88.2060429191
 31
0.0
  0
LINE
  5
2B2
330
1F
100
AcDbEntity
  8
0
  6
Continuous
 62
     7
370
    15
100
AcDbLine
 10
275.2001896133
 20
87.4060442781
 30
0.0
 11
275.2001896133
 21
86.5060439443
 31
0.0
  0
LINE
  5
2B3
330
1F
100
AcDbEntity
  8
0
  6
Continuous
 62
     7
370
    15
100
AcDbLine
 10
275.2001896133
 20
77.9060324764
 30
0.0
 11
275.2001896133
 21
76.8560370541
 31
0.0
  0
LINE
  5
2B4
330
1F
100
AcDbEntity
  8
0
  6
Continuous
 62
     7
370
    15
100
AcDbLine
 10
77.2001860295
 20
502.606039319
 30
0.0
 11
77.2001860295
 21
32.6060405111
 31
0.0
  0
LINE
  5
2B5
330
1F
100
AcDbEntity
  8
0
  6
Continuous
 62
     7
370
    15
100
AcDbLine
 10
77.2001860295
 20
32.6060405111
 30
0.0
 11
62.2001863648
 21
32.6060405111
 31
0.0
  0
LINE
  5
2B6
330
1F
100
AcDbEntity
  8
0
  6
Continuous
 62
     7
370
    15
100
AcDbLine
 10
62.2001863648
 20
502.606039319
 30
0.0
 11
62.2001863648
 21
32.6060405111
 31
0.0
  0
LINE
  5
2B7
330
1F
100
AcDbEntity
  8
0
  6
Continuous
 62
     7
370
    15
100
AcDbLine
 10
62.2001863648
 20
502.606039319
 30
0.0
 11
77.2001860295
 21
502.606039319
 31
0.0
  0
LINE
  5
2B8
330
1F
100
AcDbEntity
  8
0
  6
Continuous
 62
     7
370
    15
100
AcDbLine
 10
77.2001860295
 20
32.6060405111
 30
0.0
 11
77.2001860295
 21
17.6060399151
 31
0.0
  0
ARC
  5
2B9
330
1F
100
AcDbEntity
  8
0
  6
Continuous
 62
     7
370
    15
100
AcDbCircle
 10
77.2001863469
 20
32.6060399151
 30
0.0
 40
15.00000000000001
100
AcDbArc
 50
180.0
 51
270.0
  0
ARC
  5
2BA
330
1F
100
AcDbEntity
  8
0
  6
Continuous
 62
     7
370
    15
100
AcDbCircle
 10
77.2001863469
 20
502.6060399151
 30
0.0
 40
14.99999999999997
100
AcDbArc
 50
90.0
 51
180.0
  0
LINE
  5
2BB
330
1F
100
AcDbEntity
  8
0
  6
Continuous
 62
     7
370
    15
100
AcDbLine
 10
77.2001860295
 20
517.6060399151
 30
0.0
 11
77.2001860295
 21
502.606039319
 31
0.0
  0
LINE
  5
2BC
330
1F
100
AcDbEntity
  8
0
  6
Continuous
 62
     7
370
    15
100
AcDbLine
 10
288.2001861562
 20
517.6060399151
 30
0.0
 11
77.2001860295
 21
517.6060399151
 31
0.0
  0
LINE
  5
2BD
330
1F
100
AcDbEntity
  8
0
  6
Continuous
 62
     7
370
    15
100
AcDbLine
 10
288.2001861562
 20
517.6060399151
 30
0.0
 11
288.2001861562
 21
502.606039319
 31
0.0
  0
LINE
  5
2BE
330
1F
100
AcDbEntity
  8
0
  6
Continuous
 62
     7
370
    15
100
AcDbLine
 10
288.2001861562
 20
502.606039319
 30
0.0
 11
77.2001860295
 21
502.606039319
 31
0.0
  0
LINE
  5
2BF
330
1F
100
AcDbEntity
  8
0
  6
Continuous
 62
     7
370
    15
100
AcDbLine
 10
288.2001861562
 20
32.6060405111
 30
0.0
 11
77.2001860295
 21
32.6060405111
 31
0.0
  0
LINE
  5
2C0
330
1F
100
AcDbEntity
  8
0
  6
Continuous
 62
     7
370
    15
100
AcDbLine
 10
288.2001861562
 20
32.6060405111
 30
0.0
 11
288.2001861562
 21
17.6060399151
 31
0.0
  0
LINE
  5
2C1
330
1F
100
AcDbEntity
  8
0
  6
Continuous
 62
     7
370
    15
100
AcDbLine
 10
288.2001861562
 20
17.6060399151
 30
0.0
 11
77.2001860295
 21
17.6060399151
 31
0.0
  0
LINE
  5
2C2
330
1F
100
AcDbEntity
  8
0
  6
Continuous
 62
     7
370
    15
100
AcDbLine
 10
82.2001859178
 20
497.6060440874
 30
0.0
 11
82.2001859178
 21
37.6060357427
 31
0.0
  0
LINE
  5
2C3
330
1F
100
AcDbEntity
  8
0
  6
Continuous
 62
     7
370
    15
100
AcDbLine
 10
268.2001903285
 20
37.6060357427
 30
0.0
 11
82.2001859178
 21
37.6060357427
 31
0.0
  0
LINE
  5
2C4
330
1F
100
AcDbEntity
  8
0
  6
Continuous
 62
     7
370
    15
100
AcDbLine
 10
268.2001903285
 20
37.6060357427
 30
0.0
 11
268.2001903285
 21
69.7934975958
 31
0.0
  0
LINE
  5
2C5
330
1F
100
AcDbEntity
  8
0
  6
Continuous
 62
     7
370
    15
100
AcDbLine
 10
268.2001903285
 20
73.133279953
 30
0.0
 11
268.2001903285
 21
74.6060362196
 31
0.0
  0
LINE
  5
2C6
330
1F
100
AcDbEntity
  8
0
  6
Continuous
 62
     7
370
    15
100
AcDbLine
 10
268.2001903285
 20
90.6060388422
 30
0.0
 11
268.2001903285
 21
92.0654436684
 31
0.0
  0
LINE
  5
2C7
330
1F
100
AcDbEntity
  8
0
  6
Continuous
 62
     7
370
    15
100
AcDbLine
 10
268.2001903285
 20
95.4081615543
 30
0.0
 11
268.2001903285
 21
439.793487463
 31
0.0
  0
LINE
  5
2C8
330
1F
100
AcDbEntity
  8
0
  6
Continuous
 62
     7
370
    15
100
AcDbLine
 10
268.2001903285
 20
443.1332847214
 30
0.0
 11
268.2001903285
 21
444.606040988
 31
0.0
  0
LINE
  5
2C9
330
1F
100
AcDbEntity
  8
0
  6
Continuous
 62
     7
370
    15
100
AcDbLine
 10
268.2001903285
 20
460.6060436106
 30
0.0
 11
268.2001903285
 21
462.0654484367
 31
0.0
  0
LINE
  5
2CA
330
1F
100
AcDbEntity
  8
0
  6
Continuous
 62
     7
370
    15
100
AcDbLine
 10
268.2001903285
 20
465.4081514215
 30
0.0
 11
268.2001903285
 21
497.6060440874
 31
0.0
  0
LINE
  5
2CB
330
1F
100
AcDbEntity
  8
0
  6
Continuous
 62
     7
370
    15
100
AcDbLine
 10
268.2001903285
 20
497.6060440874
 30
0.0
 11
82.2001859178
 21
497.6060440874
 31
0.0
  0
LINE
  5
2CC
330
1F
100
AcDbEntity
  8
0
  6
Continuous
 62
     7
370
    15
100
AcDbLine
 10
288.2001861562
 20
32.6060405111
 30
0.0
 11
288.2001861562
 21
73.5981365776
 31
0.0
  0
LINE
  5
2CD
330
1F
100
AcDbEntity
  8
0
  6
Continuous
 62
     7
370
    15
100
AcDbLine
 10
288.2001861562
 20
91.5819754934
 30
0.0
 11
288.2001861562
 21
443.5981264448
 31
0.0
  0
LINE
  5
2CE
330
1F
100
AcDbEntity
  8
0
  6
Continuous
 62
     7
370
    15
100
AcDbLine
 10
288.2001861562
 20
461.5819653606
 30
0.0
 11
288.2001861562
 21
502.606039319
 31
0.0
  0
LINE
  5
2CF
330
1F
100
AcDbEntity
  8
0
  6
Continuous
 62
     7
370
    15
100
AcDbLine
 10
292.2001793613
 20
497.6060440874
 30
0.0
 11
288.2001861562
 21
497.6060440874
 31
0.0
  0
LINE
  5
2D0
330
1F
100
AcDbEntity
  8
0
  6
Continuous
 62
     7
370
    15
100
AcDbLine
 10
292.2001793613
 20
37.6060357427
 30
0.0
 11
288.2001861562
 21
37.6060357427
 31
0.0
  0
LINE
  5
2D1
330
1F
100
AcDbEntity
  8
0
  6
Continuous
 62
     7
370
    15
100
AcDbLine
 10
292.2001793613
 20
22.6060351467
 30
0.0
 11
288.2001861562
 21
22.6060351467
 31
0.0
  0
LINE
  5
2D2
330
1F
100
AcDbEntity
  8
0
  6
Continuous
 62
     7
370
    15
100
AcDbLine
 10
292.2001793613
 20
512.6060446834
 30
0.0
 11
288.2001861562
 21
512.6060446834
 31
0.0
  0
LINE
  5
2D3
330
1F
100
AcDbEntity
  8
0
  6
Continuous
 62
     7
370
    15
100
AcDbLine
 10
379.3089312256
 20
549.1015417257
 30
0.0
 11
380.5089217366
 21
549.1015417257
 31
0.0
  0
LINE
  5
2D4
330
1F
100
AcDbEntity
  8
0
  6
Continuous
 62
     7
370
    15
100
AcDbLine
 10
379.2089295329
 20
551.6015393415
 30
0.0
 11
379.3089312256
 21
551.6015393415
 31
0.0
  0
LINE
  5
2D5
330
1F
100
AcDbEntity
  8
0
  6
Continuous
 62
     7
370
    15
100
AcDbLine
 10
379.3089312256
 20
557.6015515009
 30
0.0
 11
379.2089295329
 21
557.6015515009
 31
0.0
  0
SPLINE
  5
2D6
330
1F
100
AcDbEntity
  8
0
  6
Continuous
 62
     7
370
    15
100
AcDbSpline
210
0.0
220
0.0
230
1.0
 70
     8
 71
     3
 72
    15
 73
    11
 74
     0
 42
0.00000001
 43
0.00000001
 40
0.0
 40
0.0
 40
0.0
 40
0.0
 40
0.1250767031831793
 40
0.2501513460785652
 40
0.3752924375015012
 40
0.500306240832659
 40
0.6252891952557975
 40
0.7502634087331911
 40
0.8750791288795793
 40
1.0
 40
1.0
 40
1.0
 40
1.0
 10
378.1233650387171
 20
579.6593678871038
 30
0.0
 10
378.0972403796503
 20
579.9181344405794
 30
0.0
 10
378.0449914918472
 20
580.4356632850775
 30
0.0
 10
377.9661206009717
 20
581.2167786012873
 30
0.0
 10
377.8916950412752
 20
581.9539607484796
 30
0.0
 10
377.8246815904133
 20
582.6175364621208
 30
0.0
 10
377.7685733124598
 20
583.1732943581092
 30
0.0
 10
377.7260560082492
 20
583.5944045938744
 30
0.0
 10
377.6972232925686
 20
583.8799956327949
 30
0.0
 10
377.6928815891799
 20
583.9230387148203
 30
0.0
 10
377.6907098234537
 20
583.9445693174246
 30
0.0
  0
SPLINE
  5
2D7
330
1F
100
AcDbEntity
  8
0
  6
Continuous
 62
     7
370
    15
100
AcDbSpline
210
0.0
220
0.0
230
1.0
 70
     8
 71
     3
 72
    15
 73
    11
 74
     0
 42
0.00000001
 43
0.00000001
 40
0.0
 40
0.0
 40
0.0
 40
0.0
 40
0.1249399584907139
 40
0.249767829046851
 40
0.3747497598039748
 40
0.4997377185127649
 40
0.6247475377849071
 40
0.7498803348357548
 40
0.8749433268323796
 40
1.0
 40
1.0
 40
1.0
 40
1.0
 10
374.7064542711618
 20
583.6431784311178
 30
0.0
 10
374.7086366804406
 20
583.6216038520407
 30
0.0
 10
374.7129995410837
 20
583.5784740491837
 30
0.0
 10
374.7418493933334
 20
583.29275809597
 30
0.0
 10
374.7843546298121
 20
582.8715741144655
 30
0.0
 10
374.8404934934971
 20
582.3157946873043
 30
0.0
 10
374.9074789149512
 20
581.6522709444343
 30
0.0
 10
374.9819001199871
 20
580.915225084371
 30
0.0
 10
375.0607276505514
 20
580.1343116938476
 30
0.0
 10
375.1129727136527
 20
579.6169594914091
 30
0.0
 10
375.139094585264
 20
579.3582899251821
 30
0.0
  0
LINE
  5
2D8
330
1F
100
AcDbEntity
  8
0
  6
Continuous
 62
     7
370
    15
100
AcDbLine
 10
375.1388114632
 20
579.3581558147
 30
0.0
 11
376.7078888358
 21
563.8171834627
 31
0.0
  0
LINE
  5
2D9
330
1F
100
AcDbEntity
  8
0
  6
Continuous
 62
     7
370
    15
100
AcDbLine
 10
379.6927106322
 20
564.1185445467
 30
0.0
 11
378.1236332596
 21
579.6595019976
 31
0.0
  0
SPLINE
  5
2DA
330
1F
100
AcDbEntity
  8
0
  6
Continuous
 62
     7
370
    15
100
AcDbSpline
210
0.0
220
0.0
230
1.0
 70
     8
 71
     3
 72
     9
 73
     5
 74
     0
 42
0.00000001
 43
0.00000001
 40
0.0
 40
0.0
 40
0.0
 40
0.0
 40
0.4837449781797253
 40
1.0
 40
1.0
 40
1.0
 40
1.0
 10
376.8779706896188
 20
562.1358109393957
 30
0.0
 10
376.8874311551632
 20
562.0715800823059
 30
0.0
 10
376.9069878761032
 20
561.9388017383707
 30
0.0
 10
376.9408311101062
 20
561.9026465914052
 30
0.0
 10
376.9583028496149
 20
561.8839813152197
 30
0.0
  0
SPLINE
  5
2DB
330
1F
100
AcDbEntity
  8
0
  6
Continuous
 62
     7
370
    15
100
AcDbSpline
210
0.0
220
0.0
230
1.0
 70
     8
 71
     3
 72
    11
 73
     7
 74
     0
 42
0.00000001
 43
0.00000001
 40
0.0
 40
0.0
 40
0.0
 40
0.0
 40
0.2484390262851725
 40
0.4978833160729399
 40
0.7483837072911377
 40
1.0
 40
1.0
 40
1.0
 40
1.0
 10
376.7081570566538
 20
563.8173324743154
 30
0.0
 10
376.7261696619594
 20
563.6388601775121
 30
0.0
 10
376.7622677573141
 20
563.2811934280957
 30
0.0
 10
376.8092939348913
 20
562.8163680543569
 30
0.0
 10
376.8480859050762
 20
562.4334840070019
 30
0.0
 10
376.8631302372996
 20
562.2861858576191
 30
0.0
 10
376.8706691206339
 20
562.2123731056097
 30
0.0
  0
SPLINE
  5
2DC
330
1F
100
AcDbEntity
  8
0
  6
Continuous
 62
     7
370
    15
100
AcDbSpline
210
0.0
220
0.0
230
1.0
 70
     8
 71
     3
 72
    19
 73
    15
 74
     0
 42
0.00000001
 43
0.00000001
 40
0.0
 40
0.0
 40
0.0
 40
0.0
 40
0.0802803775144158
 40
0.1534391281143523
 40
0.2193400876177822
 40
0.2779458009536975
 40
0.3728434167243814
 40
0.4421527346419943
 40
0.5315366155302124
 40
0.6554807468712034
 40
0.7303539283324194
 40
0.813076816600313
 40
0.9031424629954415
 40
0.9999999999999999
 40
0.9999999999999999
 40
0.9999999999999999
 40
0.9999999999999999
 10
376.8936169088724
 20
562.0531541982534
 30
0.0
 10
376.9289762990742
 20
561.9302794952075
 30
0.0
 10
376.9965583679583
 20
561.6954302345735
 30
0.0
 10
377.1937960876831
 20
561.4010297216075
 30
0.0
 10
377.4186334620662
 20
561.1768987087689
 30
0.0
 10
377.7142996687979
 20
560.9838528704079
 30
0.0
 10
378.0562514005283
 20
560.8659613112999
 30
0.0
 10
378.4660074205912
 20
560.8361546493894
 30
0.0
 10
378.9050909470527
 20
560.9384632859658
 30
0.0
 10
379.2916246260378
 20
561.1896970118669
 30
0.0
 10
379.5844557822756
 20
561.5304092336337
 30
0.0
 10
379.7652539296166
 20
561.8858676418912
 30
0.0
 10
379.8711386675545
 20
562.3128178657252
 30
0.0
 10
379.8388848195681
 20
562.6078858646799
 30
0.0
 10
379.8221719206216
 20
562.7607805410269
 30
0.0
  0
SPLINE
  5
2DD
330
1F
100
AcDbEntity
  8
0
  6
Continuous
 62
     7
370
    15
100
AcDbSpline
210
0.0
220
0.0
230
1.0
 70
     8
 71
     3
 72
    11
 73
     7
 74
     0
 42
0.00000001
 43
0.00000001
 40
0.0
 40
0.0
 40
0.0
 40
0.0
 40
0.2477424580650241
 40
0.4969462587121884
 40
0.7476718993370176
 40
1.0
 40
1.0
 40
1.0
 40
1.0
 10
379.8459392727258
 20
562.5930977741125
 30
0.0
 10
379.8395055379523
 20
562.6577231900851
 30
0.0
 10
379.8266001181455
 20
562.7873552238353
 30
0.0
 10
379.7906108530833
 20
563.1452310058478
 30
0.0
 10
379.7456578928671
 20
563.5915550755582
 30
0.0
 10
379.7102185354108
 20
563.9424194273179
 30
0.0
 10
379.692442411268
 20
564.1184104362371
 30
0.0
  0
LINE
  5
2DE
330
1F
100
AcDbEntity
  8
0
  6
Continuous
 62
     7
370
    15
100
AcDbLine
 10
379.9762350262
 20
573.7732155004
 30
0.0
 11
379.976220125
 21
574.0730268637
 31
0.0
  0
LINE
  5
2DF
330
1F
100
AcDbEntity
  8
0
  6
Continuous
 62
     7
370
    15
100
AcDbLine
 10
379.176221484
 20
574.0730268637
 30
0.0
 11
379.176221484
 21
573.7756592909
 31
0.0
  0
SPLINE
  5
2E0
330
1F
100
AcDbEntity
  8
0
  6
Continuous
 62
     7
370
    15
100
AcDbSpline
210
0.0
220
0.0
230
1.0
 70
    24
 71
     3
 72
    11
 73
     7
 74
     0
 42
0.00000001
 43
0.00000001
 40
0.0
 40
0.0
 40
0.0
 40
0.0
 40
0.0207850328835332
 40
0.3465561843128634
 40
0.6711381646362238
 40
0.9999999999999999
 40
0.9999999999999999
 40
0.9999999999999999
 40
0.9999999999999999
 10
379.1762214840296
 20
574.3593526759985
 30
0.0
 10
379.1762214840296
 20
574.3560309719577
 30
0.0
 10
379.1762214840295
 20
574.3006470288936
 30
0.0
 10
379.1762214840296
 20
574.2074088637178
 30
0.0
 10
379.1762214840295
 20
574.0946967284312
 30
0.0
 10
379.1762214840296
 20
574.0601692293574
 30
0.0
 10
379.1762214840296
 20
574.0427924075964
 30
0.0
  0
SPLINE
  5
2E1
330
1F
100
AcDbEntity
  8
0
  6
Continuous
 62
     7
370
    15
100
AcDbSpline
210
0.0
220
0.0
230
1.0
 70
    24
 71
     3
 72
    11
 73
     7
 74
     0
 42
0.00000001
 43
0.00000001
 40
0.0
 40
0.0
 40
0.0
 40
0.0
 40
0.2504877331241812
 40
0.4977261212757707
 40
0.7458640449708547
 40
0.9999999999999999
 40
0.9999999999999999
 40
0.9999999999999999
 40
0.9999999999999999
 10
379.9762350262048
 20
574.0403486171606
 30
0.0
 10
379.9762350262049
 20
574.0565657488718
 30
0.0
 10
379.9762350262049
 20
574.0887896424899
 30
0.0
 10
379.9762350262048
 20
574.1975651788906
 30
0.0
 10
379.9762350262049
 20
574.3363956098231
 30
0.0
 10
379.9762350262049
 20
574.4434230695477
 30
0.0
 10
379.9762350262048
 20
574.4975758472326
 30
0.0
  0
LINE
  5
2E2
330
1F
100
AcDbEntity
  8
0
  6
Continuous
 62
     7
370
    15
100
AcDbLine
 10
378.9694827736
 20
574.6015412489
 30
0.0
 11
379.1783970536
 21
574.3543160835
 31
0.0
  0
LINE
  5
2E3
330
1F
100
AcDbEntity
  8
0
  6
Continuous
 62
     7
370
    15
100
AcDbLine
 10
379.9762350262
 20
574.4975758472
 30
0.0
 11
379.9762350262
 21
574.6015412489
 31
0.0
  0
LINE
  5
2E4
330
1F
100
AcDbEntity
  8
0
  6
Continuous
 62
     7
370
    15
100
AcDbLine
 10
374.6998381556
 20
583.7395591417
 30
0.0
 11
374.6842217387
 21
584.1987980286
 31
0.0
  0
SPLINE
  5
2E5
330
1F
100
AcDbEntity
  8
0
  6
Continuous
 62
     7
370
    15
100
AcDbSpline
210
0.0
220
0.0
230
1.0
 70
     8
 71
     3
 72
    11
 73
     7
 74
     0
 42
0.00000001
 43
0.00000001
 40
0.0
 40
0.0
 40
0.0
 40
0.0
 40
0.120759325720469
 40
0.4133934097010463
 40
0.7063567125143827
 40
1.0
 40
1.0
 40
1.0
 40
1.0
 10
376.7325055540445
 20
563.5761273780706
 30
0.0
 10
376.7424288023949
 20
563.4778267707563
 30
0.0
 10
376.776398894944
 20
563.1413159216697
 30
0.0
 10
376.8237568535089
 20
562.6724079524653
 30
0.0
 10
376.8666426596411
 20
562.2476643915239
 30
0.0
 10
376.8741917626944
 20
562.1731242253484
 30
0.0
 10
376.8779706896188
 20
562.1358109393957
 30
0.0
  0
LINE
  5
2E6
330
1F
100
AcDbEntity
  8
0
  6
Continuous
 62
     7
370
    15
100
AcDbLine
 10
375.0606846751
 20
614.6015478054
 30
0.0
 11
374.3089210928
 21
614.3279326836
 31
0.0
  0
LINE
  5
2E7
330
1F
100
AcDbEntity
  8
0
  6
Continuous
 62
     7
370
    15
100
AcDbLine
 10
380.5089217366
 20
613.6015457788
 30
0.0
 11
380.2089315594
 21
613.6015457788
 31
0.0
  0
LINE
  5
2E8
330
1F
100
AcDbEntity
  8
0
  6
Continuous
 62
     7
370
    15
100
AcDbLine
 10
380.2089315594
 20
612.6015437523
 30
0.0
 11
380.1089298666
 21
612.6015437523
 31
0.0
  0
LINE
  5
2E9
330
1F
100
AcDbEntity
  8
0
  6
Continuous
 62
     7
370
    15
100
AcDbLine
 10
380.1089298666
 20
606.6015464941
 30
0.0
 11
380.2089315594
 21
606.6015464941
 31
0.0
  0
LINE
  5
2EA
330
1F
100
AcDbEntity
  8
0
  6
Continuous
 62
     7
370
    15
100
AcDbLine
 10
380.2089315594
 20
589.6015418449
 30
0.0
 11
380.1089298666
 21
589.6015418449
 31
0.0
  0
LINE
  5
2EB
330
1F
100
AcDbEntity
  8
0
  6
Continuous
 62
     7
370
    15
100
AcDbLine
 10
380.1089298666
 20
583.6015445867
 30
0.0
 11
380.2089315594
 21
583.6015445867
 31
0.0
  0
LINE
  5
2EC
330
1F
100
AcDbEntity
  8
0
  6
Continuous
 62
     7
370
    15
100
AcDbLine
 10
765.508927101
 20
557.6015515009
 30
0.0
 11
765.508927101
 21
552.6015413681
 31
0.0
  0
LINE
  5
2ED
330
1F
100
AcDbEntity
  8
0
  6
Continuous
 62
     7
370
    15
100
AcDbLine
 10
780.508927697
 20
557.6015515009
 30
0.0
 11
780.508927697
 21
552.6015413681
 31
0.0
  0
LINE
  5
2EE
330
1F
100
AcDbEntity
  8
0
  6
Continuous
 62
     7
370
    15
100
AcDbLine
 10
780.508927697
 20
552.6015413681
 30
0.0
 11
765.508927101
 21
552.6015413681
 31
0.0
  0
LINE
  5
2EF
330
1F
100
AcDbEntity
  8
0
  6
Continuous
 62
     7
370
    15
100
AcDbLine
 10
780.508927697
 20
557.6015515009
 30
0.0
 11
765.508927101
 21
557.6015515009
 31
0.0
  0
ARC
  5
2F0
330
1F
100
AcDbEntity
  8
0
  6
Continuous
 62
     7
370
    15
100
AcDbCircle
 10
765.5089247168
 20
552.6015445152
 30
0.0
 40
15.0
100
AcDbArc
 50
270.0
 51
0.0
  0
LINE
  5
2F1
330
1F
100
AcDbEntity
  8
0
  6
Continuous
 62
     7
370
    15
100
AcDbLine
 10
765.508927101
 20
552.6015413681
 30
0.0
 11
765.508927101
 21
537.601540772
 31
0.0
  0
LINE
  5
2F2
330
1F
100
AcDbEntity
  8
0
  6
Continuous
 62
     7
370
    15
100
AcDbLine
 10
765.508927101
 20
552.6015413681
 30
0.0
 11
395.5089223326
 21
552.6015413681
 31
0.0
  0
LINE
  5
2F3
330
1F
100
AcDbEntity
  8
0
  6
Continuous
 62
     7
370
    15
100
AcDbLine
 10
395.5089223326
 20
557.6015515009
 30
0.0
 11
395.5089223326
 21
552.6015413681
 31
0.0
  0
LINE
  5
2F4
330
1F
100
AcDbEntity
  8
0
  6
Continuous
 62
     7
370
    15
100
AcDbLine
 10
765.508927101
 20
557.6015515009
 30
0.0
 11
395.5089223326
 21
557.6015515009
 31
0.0
  0
LINE
  5
2F5
330
1F
100
AcDbEntity
  8
0
  6
Continuous
 62
     7
370
    15
100
AcDbLine
 10
765.508927101
 20
537.601540772
 30
0.0
 11
395.5089223326
 21
537.601540772
 31
0.0
  0
LINE
  5
2F6
330
1F
100
AcDbEntity
  8
0
  6
Continuous
 62
     7
370
    15
100
AcDbLine
 10
395.5089223326
 20
537.601540772
 30
0.0
 11
395.5089223326
 21
552.6015413681
 31
0.0
  0
LINE
  5
2F7
330
1F
100
AcDbEntity
  8
0
  6
Continuous
 62
     7
370
    15
100
AcDbLine
 10
380.5089217366
 20
557.6015515009
 30
0.0
 11
380.5089217366
 21
552.6015413681
 31
0.0
  0
LINE
  5
2F8
330
1F
100
AcDbEntity
  8
0
  6
Continuous
 62
     7
370
    15
100
AcDbLine
 10
380.5089217366
 20
552.6015413681
 30
0.0
 11
395.5089223326
 21
552.6015413681
 31
0.0
  0
LINE
  5
2F9
330
1F
100
AcDbEntity
  8
0
  6
Continuous
 62
     7
370
    15
100
AcDbLine
 10
380.5089217366
 20
557.6015515009
 30
0.0
 11
395.5089223326
 21
557.6015515009
 31
0.0
  0
ARC
  5
2FA
330
1F
100
AcDbEntity
  8
0
  6
Continuous
 62
     7
370
    15
100
AcDbCircle
 10
395.5089247168
 20
552.6015445152
 30
0.0
 40
15.00000000000011
100
AcDbArc
 50
180.0
 51
270.0
  0
LINE
  5
2FB
330
1F
100
AcDbEntity
  8
0
  6
Continuous
 62
     7
370
    15
100
AcDbLine
 10
379.3089312256
 20
555.6193096319
 30
0.0
 11
380.5089217366
 21
555.6193096319
 31
0.0
  0
LINE
  5
2FC
330
1F
100
AcDbEntity
  8
0
  6
Continuous
 62
     7
370
    15
100
AcDbLine
 10
379.3089312256
 20
553.5153401771
 30
0.0
 11
380.5089217366
 21
553.5153401771
 31
0.0
  0
LINE
  5
2FD
330
1F
100
AcDbEntity
  8
0
  6
Continuous
 62
     7
370
    15
100
AcDbLine
 10
379.3089312256
 20
553.5153401771
 30
0.0
 11
379.3089312256
 21
555.6193096319
 31
0.0
  0
LINE
  5
2FE
330
1F
100
AcDbEntity
  8
0
  6
Continuous
 62
     7
370
    15
100
AcDbLine
 10
379.3089312256
 20
560.6015426794
 30
0.0
 11
380.5089217366
 21
560.6015426794
 31
0.0
  0
LINE
  5
2FF
330
1F
100
AcDbEntity
  8
0
  6
Continuous
 62
     7
370
    15
100
AcDbLine
 10
380.5089217366
 20
557.6015515009
 30
0.0
 11
380.5089217366
 21
560.6015426794
 31
0.0
  0
LINE
  5
300
330
1F
100
AcDbEntity
  8
0
  6
Continuous
 62
     7
370
    15
100
AcDbLine
 10
379.3089312256
 20
560.6015426794
 30
0.0
 11
379.3089312256
 21
555.6193096319
 31
0.0
  0
LINE
  5
301
330
1F
100
AcDbEntity
  8
0
  6
Continuous
 62
     7
370
    15
100
AcDbLine
 10
380.5089217366
 20
552.6015413681
 30
0.0
 11
380.5089217366
 21
549.1015417257
 31
0.0
  0
LINE
  5
302
330
1F
100
AcDbEntity
  8
0
  6
Continuous
 62
     7
370
    15
100
AcDbLine
 10
379.3089312256
 20
549.1015417257
 30
0.0
 11
379.3089312256
 21
553.5153401771
 31
0.0
  0
LINE
  5
303
330
1F
100
AcDbEntity
  8
0
  6
Continuous
 62
     7
370
    15
100
AcDbLine
 10
379.2089295329
 20
551.6015393415
 30
0.0
 11
379.2089295329
 21
557.6015515009
 31
0.0
  0
LINE
  5
304
330
1F
100
AcDbEntity
  8
0
  6
Continuous
 62
     7
370
    15
100
AcDbLine
 10
373.1914681137
 20
560.8519268909
 30
0.0
 11
376.734904641
 21
563.5709119717
 31
0.0
  0
LINE
  5
305
330
1F
100
AcDbEntity
  8
0
  6
Continuous
 62
     7
370
    15
100
AcDbLine
 10
372.4609535874
 20
561.8039471784
 30
0.0
 11
373.1914681137
 21
560.8519268909
 31
0.0
  0
LINE
  5
306
330
1F
100
AcDbEntity
  8
0
  6
Continuous
 62
     7
370
    15
100
AcDbLine
 10
376.0043901146
 20
564.5229322592
 30
0.0
 11
372.4609535874
 21
561.8039471784
 31
0.0
  0
ARC
  5
307
330
1F
100
AcDbEntity
  8
0
  6
Continuous
 62
     7
370
    15
100
AcDbCircle
 10
377.7089247168
 20
562.3015445152
 30
0.0
 40
2.800000000000048
100
AcDbArc
 50
0.0
 51
45.4024529621
  0
LINE
  5
308
330
1F
100
AcDbEntity
  8
0
  6
Continuous
 62
     7
370
    15
100
AcDbLine
 10
376.6012710274
 20
564.8731393495
 30
0.0
 11
376.0043901146
 21
564.5229322592
 31
0.0
  0
LINE
  5
309
330
1F
100
AcDbEntity
  8
0
  6
Continuous
 62
     7
370
    15
100
AcDbLine
 10
380.5089217366
 20
560.6015426794
 30
0.0
 11
380.5089217366
 21
561.601544706
 31
0.0
  0
LINE
  5
30A
330
1F
100
AcDbEntity
  8
0
  6
Continuous
 62
     7
370
    15
100
AcDbLine
 10
379.3089312256
 20
561.2424863258
 30
0.0
 11
379.3089312256
 21
560.6015426794
 31
0.0
  0
LINE
  5
30B
330
1F
100
AcDbEntity
  8
0
  6
Continuous
 62
     7
370
    15
100
AcDbLine
 10
372.2394329251
 20
560.1214123646
 30
0.0
 11
371.5089183987
 21
561.0734326521
 31
0.0
  0
LWPOLYLINE
  5
30C
330
1F
100
AcDbEntity
  8
0
  6
Continuous
 62
     7
370
    15
100
AcDbPolyline
 90
        9
 70
   128
 43
0.0
 10
373.1914681137
 20
560.8519268909
 10
373.0057251395
 20
560.7094121853
 10
372.8271347226
 20
560.5723811069
 10
372.6625513972
 20
560.4460788647
 10
372.5182783545
 20
560.3353781381
 10
372.3998886288
 20
560.2445257584
 10
372.3119121731
 20
560.1770234981
 10
372.257731551
 20
560.1354492584
 10
372.2394329251
 20
560.1214123646
  0
LWPOLYLINE
  5
30D
330
1F
100
AcDbEntity
  8
0
  6
Continuous
 62
     7
370
    15
100
AcDbPolyline
 90
        9
 70
   128
 43
0.0
 10
371.5089183987
 20
561.0734326521
 10
371.5272170246
 20
561.0874695459
 10
371.5813976467
 20
561.1290437857
 10
371.6693741024
 20
561.196560947
 10
371.7877638281
 20
561.2873984257
 10
371.9320368708
 20
561.3980991522
 10
372.0966201962
 20
561.5244013945
 10
372.2752106131
 20
561.6614324728
 10
372.4609535874
 20
561.8039471784
  0
SPLINE
  5
30E
330
1F
100
AcDbEntity
  8
0
  6
Continuous
 62
     7
370
    15
100
AcDbSpline
210
0.0
220
0.0
230
1.0
 70
     8
 71
     3
 72
    12
 73
     8
 74
     0
 42
0.00000001
 43
0.00000001
 40
0.0
 40
0.0
 40
0.0
 40
0.0
 40
0.2340515608573606
 40
0.4681087470943003
 40
0.702165569279494
 40
0.9362172045571531
 40
1.0
 40
1.0
 40
1.0
 40
1.0
 10
376.8059086740854
 20
579.2786581197622
 30
0.0
 10
376.609515617205
 20
579.2592794206876
 30
0.0
 10
376.2167247831787
 20
579.2205215567753
 30
0.0
 10
375.6792280763218
 20
579.2152655355675
 30
0.0
 10
375.305726652681
 20
579.2537474014912
 30
0.0
 10
375.1265325305559
 20
579.30841007746
 30
0.0
 10
375.1552513407137
 20
579.3523638643769
 30
0.0
 10
375.1614016235712
 20
579.3617767969015
 30
0.0
  0
SPLINE
  5
30F
330
1F
100
AcDbEntity
  8
0
  6
Continuous
 62
     7
370
    15
100
AcDbSpline
210
0.0
220
0.0
230
1.0
 70
     8
 71
     3
 72
    11
 73
     7
 74
     0
 42
0.00000001
 43
0.00000001
 40
0.0
 40
0.0
 40
0.0
 40
0.0
 40
0.19868717225048
 40
0.4657937738740854
 40
0.7328967585510789
 40
1.0
 40
1.0
 40
1.0
 40
1.0
 10
378.1018179596307
 20
579.6575499454382
 30
0.0
 10
378.1006351250483
 20
579.633056324483
 30
0.0
 10
378.0978621378557
 20
579.5756345190827
 30
0.0
 10
377.8283233994637
 20
579.4685612136207
 30
0.0
 10
377.3812759150949
 20
579.3577379801288
 30
0.0
 10
376.9976978158789
 20
579.3050180816646
 30
0.0
 10
376.8059086740854
 20
579.2786581197622
 30
0.0
  0
SPLINE
  5
310
330
1F
100
AcDbEntity
  8
0
  6
Continuous
 62
     7
370
    15
100
AcDbSpline
210
0.0
220
0.0
230
1.0
 70
     8
 71
     3
 72
    12
 73
     8
 74
     0
 42
0.00000001
 43
0.00000001
 40
0.0
 40
0.0
 40
0.0
 40
0.0
 40
0.2339647271648549
 40
0.4679283139645976
 40
0.7018968537062504
 40
0.9358627429943501
 40
1.0
 40
1.0
 40
1.0
 40
1.0
 10
376.1989247740152
 20
585.29053160342
 30
0.0
 10
376.0028445702879
 20
585.2680285914372
 30
0.0
 10
375.6106851185459
 20
585.2230226771533
 30
0.0
 10
375.1077508627627
 20
584.8755310338751
 30
0.0
 10
374.7879432636314
 20
584.3820388526512
 30
0.0
 10
374.6600139410659
 20
583.9284530059523
 30
0.0
 10
374.7178031132571
 20
583.6854599957007
 30
0.0
 10
374.7302365244272
 20
583.6331797519567
 30
0.0
  0
SPLINE
  5
311
330
1F
100
AcDbEntity
  8
0
  6
Continuous
 62
     7
370
    15
100
AcDbSpline
210
0.0
220
0.0
230
1.0
 70
     8
 71
     3
 72
    11
 73
     7
 74
     0
 42
0.00000001
 43
0.00000001
 40
0.0
 40
0.0
 40
0.0
 40
0.0
 40
0.1976852097385363
 40
0.4651245869200603
 40
0.7325583026066619
 40
1.0
 40
1.0
 40
1.0
 40
1.0
 10
377.6691478432061
 20
583.9402479806784
 30
0.0
 10
377.6508669785403
 20
584.0849962160675
 30
0.0
 10
377.6078547590752
 20
584.4255677908546
 30
0.0
 10
377.2824012434268
 20
584.8753434889501
 30
0.0
 10
376.7891032444708
 20
585.2230725871485
 30
0.0
 10
376.3956528879283
 20
585.2680450409616
 30
0.0
 10
376.1989247740152
 20
585.29053160342
 30
0.0
  0
SPLINE
  5
312
330
1F
100
AcDbEntity
  8
0
  6
Continuous
 62
     7
370
    15
100
AcDbSpline
210
0.0
220
0.0
230
1.0
 70
     8
 71
     3
 72
    12
 73
     8
 74
     0
 42
0.00000001
 43
0.00000001
 40
0.0
 40
0.0
 40
0.0
 40
0.0
 40
0.2350187323561774
 40
0.4700313097903079
 40
0.7050488254647164
 40
0.9400629699996629
 40
1.0
 40
1.0
 40
1.0
 40
1.0
 10
378.3749860466364
 20
563.7376857677343
 30
0.0
 10
378.178595262506
 20
563.7183078079117
 30
0.0
 10
377.7858188375372
 20
563.6795523957572
 30
0.0
 10
377.2482112906622
 20
563.6742840946102
 30
0.0
 10
376.875148022575
 20
563.7128092778964
 30
0.0
 10
376.6961040128538
 20
563.7669306144538
 30
0.0
 10
376.7240046456539
 20
563.810231943374
 30
0.0
 10
376.7296743334177
 20
563.8190312066915
 30
0.0
  0
SPLINE
  5
313
330
1F
100
AcDbEntity
  8
0
  6
Continuous
 62
     7
370
    15
100
AcDbSpline
210
0.0
220
0.0
230
1.0
 70
     8
 71
     3
 72
    11
 73
     7
 74
     0
 42
0.00000001
 43
0.00000001
 40
0.0
 40
0.0
 40
0.0
 40
0.0
 40
0.1989193009382574
 40
0.4659478716240108
 40
0.7329728264197857
 40
1.0
 40
1.0
 40
1.0
 40
1.0
 10
379.6709400356652
 20
564.1166819015386
 30
0.0
 10
379.6697656639097
 20
564.0921554097426
 30
0.0
 10
379.6670148196355
 20
564.0347046415326
 30
0.0
 10
379.3974104672095
 20
563.927588878003
 30
0.0
 10
378.9503486726621
 20
563.8167652170099
 30
0.0
 10
378.5667741198473
 20
563.7640456571694
 30
0.0
 10
378.3749860466364
 20
563.7376857677343
 30
0.0
  0
ARC
  5
314
330
1F
100
AcDbEntity
  8
0
  6
Continuous
 62
     7
370
    15
100
AcDbCircle
 10
379.5762139155
 20
574.0393153219
 30
0.0
 40
0.4000075441357933
100
AcDbArc
 50
0.1480060145
 51
179.5019472847
  0
ELLIPSE
  5
315
330
1F
100
AcDbEntity
  8
0
  6
Continuous
 62
     7
370
    15
100
AcDbEllipse
 10
379.5762241171
 20
573.7744361215
 30
0.0
 11
0.3991830274373456
 21
-0.02624604221148275
 31
0.0
210
0.0
220
0.0
230
1.0
 40
0.9763157485
 41
0.0
 42
6.283185307179586
  0
SPLINE
  5
316
330
1F
100
AcDbEntity
  8
0
  6
Continuous
 62
     7
370
    15
100
AcDbSpline
210
0.0
220
0.0
230
1.0
 70
     8
 71
     3
 72
    13
 73
     9
 74
     0
 42
0.00000001
 43
0.00000001
 40
0.0
 40
0.0
 40
0.0
 40
0.0
 40
0.0081674924330527
 40
0.2391534862150625
 40
0.4711030827534204
 40
0.6931285922679031
 40
0.9042375251354532
 40
1.0
 40
1.0
 40
1.0
 40
1.0
 10
379.5762282551172
 20
574.5032680908087
 30
0.0
 10
379.5745693430335
 20
574.5028758242404
 30
0.0
 10
379.5259945067058
 20
574.4913898120916
 30
0.0
 10
379.4298831098235
 20
574.4681016584037
 30
0.0
 10
379.3070445821714
 20
574.4244810139086
 30
0.0
 10
379.2213923757074
 20
574.3870370622495
 30
0.0
 10
379.1773758530543
 20
574.3658732855176
 30
0.0
 10
379.1806072978027
 20
574.3609035382885
 30
0.0
 10
379.1816157043817
 20
574.3593526759985
 30
0.0
  0
SPLINE
  5
317
330
1F
100
AcDbEntity
  8
0
  6
Continuous
 62
     7
370
    15
100
AcDbSpline
210
0.0
220
0.0
230
1.0
 70
     8
 71
     3
 72
    13
 73
     9
 74
     0
 42
0.00000001
 43
0.00000001
 40
0.0
 40
0.0
 40
0.0
 40
0.0
 40
0.1252341819125004
 40
0.2499826518092939
 40
0.4999856190845975
 40
0.7499975939421724
 40
0.8747560349490069
 40
1.0
 40
1.0
 40
1.0
 40
1.0
 10
379.9762350262048
 20
574.4975758472326
 30
0.0
 10
379.9745206508798
 20
574.497597839181
 30
0.0
 10
379.9710985493143
 20
574.4976417377834
 30
0.0
 10
379.936721288126
 20
574.4981537732532
 30
0.0
 10
379.8614318381752
 20
574.499202578238
 30
0.0
 10
379.7527922602881
 20
574.50076031257
 30
0.0
 10
379.6540802707564
 20
574.5021560436744
 30
0.0
 10
379.6022125040709
 20
574.5028969288118
 30
0.0
 10
379.5762282551172
 20
574.5032680908087
 30
0.0
  0
SPLINE
  5
318
330
1F
100
AcDbEntity
  8
0
  6
Continuous
 62
     7
370
    15
100
AcDbSpline
210
0.0
220
0.0
230
1.0
 70
     8
 71
     3
 72
    10
 73
     6
 74
     0
 42
0.00000001
 43
0.00000001
 40
0.0
 40
0.0
 40
0.0
 40
0.0
 40
0.0190227725338933
 40
0.5253139011644135
 40
1.0
 40
1.0
 40
1.0
 40
1.0
 10
379.5762282551172
 20
574.5032680908087
 30
0.0
 10
379.5777525829128
 20
574.5040083146883
 30
0.0
 10
379.6198468980041
 20
574.5244495985919
 30
0.0
 10
379.7024074419835
 20
574.5627834402782
 30
0.0
 10
379.77255306163
 20
574.588902479578
 30
0.0
 10
379.8064958990457
 20
574.6015412488821
 30
0.0
  0
LINE
  5
319
330
1F
100
AcDbEntity
  8
0
  6
Continuous
 62
     7
370
    15
100
AcDbLine
 10
374.6997040451
 20
583.7425095716
 30
0.0
 11
374.7121614159
 21
583.5917396227
 31
0.0
  0
LINE
  5
31A
330
1F
100
AcDbEntity
  8
0
  6
Continuous
 62
     7
370
    15
100
AcDbLine
 10
377.6919317187
 20
583.9352411905
 30
0.0
 11
377.6563477457
 21
584.145407168
 31
0.0
  0
ARC
  5
31B
330
1F
100
AcDbEntity
  8
0
  6
Continuous
 62
     7
370
    15
100
AcDbCircle
 10
375.6089247168
 20
577.6215445152
 30
0.0
 40
2.200000000000036
100
AcDbArc
 50
103.5934783352
 51
268.1042765976
  0
LINE
  5
31C
330
1F
100
AcDbEntity
  8
0
  6
Continuous
 62
     7
370
    15
100
AcDbLine
 10
372.0620942057
 20
578.9993060509
 30
0.0
 11
372.395746106
 21
580.8915449062
 31
0.0
  0
LWPOLYLINE
  5
31D
330
1F
100
AcDbEntity
  8
0
  6
Continuous
 62
     7
370
    15
100
AcDbPolyline
 90
        9
 70
   128
 43
0.0
 10
372.395746106
 20
580.8915449062
 10
372.2515028656
 20
580.9169811884
 10
372.1144717873
 20
580.9411359707
 10
371.9893616379
 20
580.9632045904
 10
371.8805086554
 20
580.982397286
 10
371.7916828335
 20
580.9980584064
 10
371.7259538115
 20
581.0096515098
 10
371.6855865658
 20
581.0167593637
 10
371.6719669045
 20
581.0191733518
  0
LINE
  5
31E
330
1F
100
AcDbEntity
  8
0
  6
Continuous
 62
     7
370
    15
100
AcDbLine
 10
371.6719669045
 20
581.0191733518
 30
0.0
 11
376.0470074356
 21
605.8312756697
 31
0.0
  0
LWPOLYLINE
  5
31F
330
1F
100
AcDbEntity
  8
0
  6
Continuous
 62
     7
370
    15
100
AcDbPolyline
 90
        9
 70
   128
 43
0.0
 10
376.0470074356
 20
605.8312756697
 10
376.0621470154
 20
605.8286083618
 10
376.1069846094
 20
605.8206958452
 10
376.179791683
 20
605.8078659454
 10
376.2777668179
 20
605.7905954996
 10
376.3971549214
 20
605.7695401588
 10
376.5333664358
 20
605.745519487
 10
376.6811561526
 20
605.7194573561
 10
376.8348616303
 20
605.6923521438
  0
LINE
  5
320
330
1F
100
AcDbEntity
  8
0
  6
Continuous
 62
     7
370
    15
100
AcDbLine
 10
376.8348616303
 20
605.6923521438
 30
0.0
 11
372.009522909
 21
578.3265484253
 31
0.0
  0
LINE
  5
321
330
1F
100
AcDbEntity
  8
0
  6
Continuous
 62
     7
370
    15
100
AcDbLine
 10
372.009522909
 20
578.3265484253
 30
0.0
 11
372.0620942057
 21
578.9993060509
 31
0.0
  0
LWPOLYLINE
  5
322
330
1F
100
AcDbEntity
  8
0
  6
Continuous
 62
     7
370
    15
100
AcDbPolyline
 90
        5
 70
   128
 43
0.0
 10
374.8943132103
 20
612.7196056524
 10
374.6408295573
 20
613.4160114208
 10
374.4572770537
 20
613.9203263203
 10
374.3461441935
 20
614.2256809154
 10
374.3089210928
 20
614.3279326836
  0
LWPOLYLINE
  5
323
330
1F
100
AcDbEntity
  8
0
  6
Continuous
 62
     7
370
    15
100
AcDbPolyline
 90
        5
 70
   128
 43
0.0
 10
375.6539297045
 20
612.9715842882
 10
375.3970932902
 20
613.6772585789
 10
375.2110522927
 20
614.188383309
 10
375.098399514
 20
614.4978953281
 10
375.0606846751
 20
614.6015478054
  0
LINE
  5
324
330
1F
100
AcDbEntity
  8
0
  6
Continuous
 62
     7
370
    15
100
AcDbLine
 10
375.8760315121
 20
612.617145268
 30
0.0
 11
375.6539297045
 21
612.9715842882
 31
0.0
  0
LINE
  5
325
330
1F
100
AcDbEntity
  8
0
  6
Continuous
 62
     7
370
    15
100
AcDbLine
 10
375.793836707
 20
612.5872237364
 30
0.0
 11
375.8760315121
 21
612.617145268
 31
0.0
  0
SPLINE
  5
326
330
1F
100
AcDbEntity
  8
0
  6
Continuous
 62
     7
370
    15
100
AcDbSpline
210
0.0
220
0.0
230
1.0
 70
     8
 71
     3
 72
    12
 73
     8
 74
     0
 42
0.00000001
 43
0.00000001
 40
0.0
 40
0.0
 40
0.0
 40
0.0
 40
0.2510171967448785
 40
0.5023980142766835
 40
0.7402747889406065
 40
0.9473067283745789
 40
1.0
 40
1.0
 40
1.0
 40
1.0
 10
374.8943132103327
 20
612.719605652416
 30
0.0
 10
374.9220230536695
 20
612.6752874013919
 30
0.0
 10
374.9774828805214
 20
612.5865867004062
 30
0.0
 10
375.1844719177681
 20
612.5116013473684
 30
0.0
 10
375.4458677627412
 20
612.5000929922551
 30
0.0
 10
375.6624482809434
 20
612.5417418161977
 30
0.0
 10
375.7716764110617
 20
612.5795526435681
 30
0.0
 10
375.7938367069605
 20
612.5872237363699
 30
0.0
  0
LINE
  5
327
330
1F
100
AcDbEntity
  8
0
  6
Continuous
 62
     7
370
    15
100
AcDbLine
 10
375.793836707
 20
612.5872237364
 30
0.0
 11
376.3701689185
 21
611.0037369409
 31
0.0
  0
LWPOLYLINE
  5
328
330
1F
100
AcDbEntity
  8
0
  6
Continuous
 62
     7
370
    15
100
AcDbPolyline
 90
        9
 70
   128
 43
0.0
 10
375.6184202374
 20
610.7301218191
 10
375.6328594626
 20
610.735381929
 10
375.6756406964
 20
610.7509536425
 10
375.7451099099
 20
610.776240913
 10
375.8385997952
 20
610.810260264
 10
375.9525191725
 20
610.8517301956
 10
376.0824871004
 20
610.8990413824
 10
376.22351169
 20
610.9503609815
 10
376.3701689185
 20
611.0037369409
  0
LINE
  5
329
330
1F
100
AcDbEntity
  8
0
  6
Continuous
 62
     7
370
    15
100
AcDbLine
 10
375.6184202374
 20
610.7301218191
 30
0.0
 11
374.8943132103
 21
612.7196056524
 31
0.0
  0
ARC
  5
32A
330
1F
100
AcDbEntity
  8
0
  6
Continuous
 62
     7
370
    15
100
AcDbCircle
 10
366.6913376763
 20
607.4809349835
 30
0.0
 40
9.500000000000059
100
AcDbArc
 50
350.0
 51
20.0
  0
ARC
  5
32B
330
1F
100
AcDbEntity
  8
0
  6
Continuous
 62
     7
370
    15
100
AcDbCircle
 10
366.6913376763
 20
607.4809349835
 30
0.0
 40
10.30000000000015
100
AcDbArc
 50
350.0
 51
20.0
  0
ARC
  5
32C
330
1F
100
AcDbEntity
  8
0
  6
Continuous
 62
     7
370
    15
100
AcDbCircle
 10
376.198930223
 20
583.7905354337
 30
0.0
 40
1.600000000000011
100
AcDbArc
 50
347.034367059
 51
204.5705045339
  0
ARC
  5
32D
330
1F
100
AcDbEntity
  8
0
  6
Continuous
 62
     7
370
    15
100
AcDbCircle
 10
369.5089247168
 20
606.4172305612
 30
0.0
 40
9.5
100
AcDbArc
 50
0.0
 51
36.8410865502
  0
LINE
  5
32E
330
1F
100
AcDbEntity
  8
0
  6
Continuous
 62
     7
370
    15
100
AcDbLine
 10
379.0089261473
 20
606.4172340313
 30
0.0
 11
379.0089261473
 21
578.3915472904
 31
0.0
  0
ARC
  5
32F
330
1F
100
AcDbEntity
  8
0
  6
Continuous
 62
     7
370
    15
100
AcDbCircle
 10
376.7116391882
 20
611.8136093696
 30
0.0
 40
0.500000000000036
100
AcDbArc
 50
36.8410865503
 51
90.0
  0
LINE
  5
330
330
1F
100
AcDbEntity
  8
0
  6
Continuous
 62
     7
370
    15
100
AcDbLine
 10
376.5936267317
 20
612.3136086145
 30
0.0
 11
376.7116439284
 21
612.3136086145
 31
0.0
  0
ARC
  5
331
330
1F
100
AcDbEntity
  8
0
  6
Continuous
 62
     7
370
    15
100
AcDbCircle
 10
376.5936266426
 20
613.3136093696
 30
0.0
 40
1.0
100
AcDbArc
 50
224.1440002858
 51
270.0
  0
LWPOLYLINE
  5
332
330
1F
100
AcDbEntity
  8
0
  6
Continuous
 62
     7
370
    15
100
AcDbPolyline
 90
        3
 70
   128
 43
0.0
 10
379.0089261473
 20
578.3915472904
 10
378.8003098906
 20
577.2012574354
 10
378.4441423357
 20
576.4851076284
  0
ARC
  5
333
330
1F
100
AcDbEntity
  8
0
  6
Continuous
 62
     7
370
    15
100
AcDbCircle
 10
375.5089247168
 20
578.3915445152
 30
0.0
 40
3.499999999999999
100
AcDbArc
 50
181.0639402281
 51
271.3221928089
  0
ARC
  5
334
330
1F
100
AcDbEntity
  8
0
  6
Continuous
 62
     7
370
    15
100
AcDbCircle
 10
376.1025425102
 20
579.089040042
 30
0.0
 40
4.698428302688314
100
AcDbArc
 50
170.0
 51
264.3261771657
  0
LINE
  5
335
330
1F
100
AcDbEntity
  8
0
  6
Continuous
 62
     7
370
    15
100
AcDbLine
 10
371.6719669045
 20
581.0191733518
 30
0.0
 11
371.4754950941
 21
579.9049092213
 31
0.0
  0
LINE
  5
336
330
1F
100
AcDbEntity
  8
0
  6
Continuous
 62
     7
370
    15
100
AcDbLine
 10
765.508927101
 20
772.6015448326
 30
0.0
 11
780.508927697
 21
772.6015448326
 31
0.0
  0
LINE
  5
337
330
1F
100
AcDbEntity
  8
0
  6
Continuous
 62
     7
370
    15
100
AcDbLine
 10
765.508927101
 20
772.6015448326
 30
0.0
 11
765.508927101
 21
787.6015444973
 31
0.0
  0
ARC
  5
338
330
1F
100
AcDbEntity
  8
0
  6
Continuous
 62
     7
370
    15
100
AcDbCircle
 10
765.5089247168
 20
772.6015445152
 30
0.0
 40
15.0
100
AcDbArc
 50
0.0
 51
90.0
  0
LINE
  5
339
330
1F
100
AcDbEntity
  8
0
  6
Continuous
 62
     7
370
    15
100
AcDbLine
 10
395.5089223326
 20
772.6015448326
 30
0.0
 11
395.5089223326
 21
787.6015444973
 31
0.0
  0
LINE
  5
33A
330
1F
100
AcDbEntity
  8
0
  6
Continuous
 62
     7
370
    15
100
AcDbLine
 10
395.5089223326
 20
772.6015448326
 30
0.0
 11
380.5089217366
 21
772.6015448326
 31
0.0
  0
ARC
  5
33B
330
1F
100
AcDbEntity
  8
0
  6
Continuous
 62
     7
370
    15
100
AcDbCircle
 10
395.5089247168
 20
772.6015445152
 30
0.0
 40
15.0
100
AcDbArc
 50
90.0
 51
180.0
  0
LINE
  5
33C
330
1F
100
AcDbEntity
  8
0
  6
Continuous
 62
     7
370
    15
100
AcDbLine
 10
765.508927101
 20
772.6015448326
 30
0.0
 11
395.5089223326
 21
772.6015448326
 31
0.0
  0
LINE
  5
33D
330
1F
100
AcDbEntity
  8
0
  6
Continuous
 62
     7
370
    15
100
AcDbLine
 10
765.508927101
 20
787.6015444973
 30
0.0
 11
395.5089223326
 21
787.6015444973
 31
0.0
  0
LINE
  5
33E
330
1F
100
AcDbEntity
  8
0
  6
Continuous
 62
     7
370
    15
100
AcDbLine
 10
760.5089318694
 20
767.6015449444
 30
0.0
 11
400.5089175642
 21
767.6015449444
 31
0.0
  0
LINE
  5
33F
330
1F
100
AcDbEntity
  8
0
  6
Continuous
 62
     7
370
    15
100
AcDbLine
 10
400.5089175642
 20
581.6015405336
 30
0.0
 11
400.5089175642
 21
767.6015449444
 31
0.0
  0
LINE
  5
340
330
1F
100
AcDbEntity
  8
0
  6
Continuous
 62
     7
370
    15
100
AcDbLine
 10
400.5089175642
 20
581.6015405336
 30
0.0
 11
760.5089318694
 21
581.6015405336
 31
0.0
  0
LINE
  5
341
330
1F
100
AcDbEntity
  8
0
  6
Continuous
 62
     7
370
    15
100
AcDbLine
 10
760.5089318694
 20
767.6015449444
 30
0.0
 11
760.5089318694
 21
581.6015405336
 31
0.0
  0
LINE
  5
342
330
1F
100
AcDbEntity
  8
0
  6
Continuous
 62
     7
370
    15
100
AcDbLine
 10
765.508927101
 20
561.601544706
 30
0.0
 11
765.508927101
 21
772.6015448326
 31
0.0
  0
LINE
  5
343
330
1F
100
AcDbEntity
  8
0
  6
Continuous
 62
     7
370
    15
100
AcDbLine
 10
395.5089223326
 20
561.601544706
 30
0.0
 11
765.508927101
 21
561.601544706
 31
0.0
  0
LINE
  5
344
330
1F
100
AcDbEntity
  8
0
  6
Continuous
 62
     7
370
    15
100
AcDbLine
 10
395.5089223326
 20
561.601544706
 30
0.0
 11
395.5089223326
 21
772.6015448326
 31
0.0
  0
LINE
  5
345
330
1F
100
AcDbEntity
  8
0
  6
Continuous
 62
     7
370
    15
100
AcDbLine
 10
395.5089223326
 20
561.601544706
 30
0.0
 11
380.5089217366
 21
561.601544706
 31
0.0
  0
LINE
  5
346
330
1F
100
AcDbEntity
  8
0
  6
Continuous
 62
     7
370
    15
100
AcDbLine
 10
380.5089217366
 20
561.601544706
 30
0.0
 11
380.5089217366
 21
772.6015448326
 31
0.0
  0
LINE
  5
347
330
1F
100
AcDbEntity
  8
0
  6
Continuous
 62
     7
370
    15
100
AcDbLine
 10
780.508927697
 20
561.601544706
 30
0.0
 11
780.508927697
 21
772.6015448326
 31
0.0
  0
LINE
  5
348
330
1F
100
AcDbEntity
  8
0
  6
Continuous
 62
     7
370
    15
100
AcDbLine
 10
780.508927697
 20
561.601544706
 30
0.0
 11
765.508927101
 21
561.601544706
 31
0.0
  0
LINE
  5
349
330
1F
100
AcDbEntity
  8
0
  6
Continuous
 62
     7
370
    15
100
AcDbLine
 10
400.5089175642
 20
557.6015515009
 30
0.0
 11
400.5089175642
 21
561.601544706
 31
0.0
  0
LINE
  5
34A
330
1F
100
AcDbEntity
  8
0
  6
Continuous
 62
     7
370
    15
100
AcDbLine
 10
385.5089318694
 20
557.6015515009
 30
0.0
 11
385.5089318694
 21
561.601544706
 31
0.0
  0
LINE
  5
34B
330
1F
100
AcDbEntity
  8
0
  6
Continuous
 62
     7
370
    15
100
AcDbLine
 10
775.5089175642
 20
557.6015515009
 30
0.0
 11
775.5089175642
 21
561.601544706
 31
0.0
  0
LINE
  5
34C
330
1F
100
AcDbEntity
  8
0
  6
Continuous
 62
     7
370
    15
100
AcDbLine
 10
760.5089318694
 20
557.6015515009
 30
0.0
 11
760.5089318694
 21
561.601544706
 31
0.0
  0
ARC
  5
34D
330
1F
100
AcDbEntity
  8
0
  6
Continuous
 62
     7
370
    15
100
AcDbCircle
 10
781.1762424649
 20
562.1015445152
 30
0.0
 40
0.5000000000000541
100
AcDbArc
 50
270.0
 51
332.720387264
  0
ARC
  5
34E
330
1F
100
AcDbEntity
  8
0
  6
Continuous
 62
     7
370
    15
100
AcDbCircle
 10
786.5089247168
 20
559.3515445152
 30
0.0
 40
5.500000000000167
100
AcDbArc
 50
202.024312837
 51
152.720387264
  0
ARC
  5
34F
330
1F
100
AcDbEntity
  8
0
  6
Continuous
 62
     7
370
    15
100
AcDbCircle
 10
780.9467758515
 20
557.1015445152
 30
0.0
 40
0.5
100
AcDbArc
 50
22.024312837
 51
90.0
  0
LINE
  5
350
330
1F
100
AcDbEntity
  8
0
  6
Continuous
 62
     7
370
    15
100
AcDbLine
 10
780.508927697
 20
561.601544706
 30
0.0
 11
781.1762463988
 21
561.601544706
 31
0.0
  0
LINE
  5
351
330
1F
100
AcDbEntity
  8
0
  6
Continuous
 62
     7
370
    15
100
AcDbLine
 10
780.9467685164
 20
557.6015515009
 30
0.0
 11
780.508927697
 21
557.6015515009
 31
0.0
  0
LINE
  5
352
330
1F
100
AcDbEntity
  8
0
  6
Continuous
 62
     7
370
    15
100
AcDbLine
 10
380.2089315594
 20
580.8015418926
 30
0.0
 11
380.5089217366
 21
580.8025998751
 31
0.0
  0
LINE
  5
353
330
1F
100
AcDbEntity
  8
0
  6
Continuous
 62
     7
370
    15
100
AcDbLine
 10
380.5089217366
 20
582.8015459457
 30
0.0
 11
380.2089315594
 21
582.8015459457
 31
0.0
  0
LINE
  5
354
330
1F
100
AcDbEntity
  8
0
  6
Continuous
 62
     7
370
    15
100
AcDbLine
 10
380.2089315594
 20
580.8015418926
 30
0.0
 11
380.2089315594
 21
582.8015459457
 31
0.0
  0
LINE
  5
355
330
1F
100
AcDbEntity
  8
0
  6
Continuous
 62
     7
370
    15
100
AcDbLine
 10
380.2089315594
 20
574.6015412489
 30
0.0
 11
380.2089315594
 21
580.8015418926
 31
0.0
  0
LINE
  5
356
330
1F
100
AcDbEntity
  8
0
  6
Continuous
 62
     7
370
    15
100
AcDbLine
 10
380.5089217366
 20
574.6015412489
 30
0.0
 11
380.2089315594
 21
574.6015412489
 31
0.0
  0
ARC
  5
357
330
1F
100
AcDbEntity
  8
0
  6
Continuous
 62
     7
370
    15
100
AcDbCircle
 10
375.3089247168
 20
577.7015445152
 30
0.0
 40
3.100000000000136
100
AcDbArc
 50
192.3149284104
 51
270.0
  0
LINE
  5
358
330
1F
100
AcDbEntity
  8
0
  6
Continuous
 62
     7
370
    15
100
AcDbLine
 10
380.2089315594
 20
580.8015418926
 30
0.0
 11
379.0089261473
 21
580.8015418926
 31
0.0
  0
LINE
  5
359
330
1F
100
AcDbEntity
  8
0
  6
Continuous
 62
     7
370
    15
100
AcDbLine
 10
375.3089231194
 20
574.6015412489
 30
0.0
 11
375.6190609873
 21
574.6015412489
 31
0.0
  0
LINE
  5
35A
330
1F
100
AcDbEntity
  8
0
  6
Continuous
 62
     7
370
    15
100
AcDbLine
 10
378.6343109549
 20
574.6015412489
 30
0.0
 11
380.2089315594
 21
574.6015412489
 31
0.0
  0
LINE
  5
35B
330
1F
100
AcDbEntity
  8
0
  6
Continuous
 62
     7
370
    15
100
AcDbLine
 10
380.2089315594
 20
613.6015457788
 30
0.0
 11
380.2089315594
 21
606.8515432754
 31
0.0
  0
LINE
  5
35C
330
1F
100
AcDbEntity
  8
0
  6
Continuous
 62
     7
370
    15
100
AcDbLine
 10
380.2089315594
 20
582.8015459457
 30
0.0
 11
380.2089315594
 21
606.8515432754
 31
0.0
  0
LINE
  5
35D
330
1F
100
AcDbEntity
  8
0
  6
Continuous
 62
     7
370
    15
100
AcDbLine
 10
380.1089298666
 20
606.6015464941
 30
0.0
 11
380.1089298666
 21
612.6015437523
 31
0.0
  0
LINE
  5
35E
330
1F
100
AcDbEntity
  8
0
  6
Continuous
 62
     7
370
    15
100
AcDbLine
 10
380.1089298666
 20
583.6015445867
 30
0.0
 11
380.1089298666
 21
589.6015418449
 31
0.0
  0
LINE
  5
35F
330
1F
100
AcDbEntity
  8
0
  6
Continuous
 62
     7
370
    15
100
AcDbLine
 10
379.0089261473
 20
598.9583534876
 30
0.0
 11
380.2089315594
 21
598.6368162313
 31
0.0
  0
LINE
  5
360
330
1F
100
AcDbEntity
  8
0
  6
Continuous
 62
     7
370
    15
100
AcDbLine
 10
380.2089315594
 20
597.6015431562
 30
0.0
 11
379.0089261473
 21
597.9230804125
 31
0.0
  0
LINE
  5
361
330
1F
100
AcDbEntity
  8
0
  6
Continuous
 62
     8
370
    15
100
AcDbLine
 10
380.5089217366
 20
606.8515432754
 30
0.0
 11
380.2089315594
 21
606.8515432754
 31
0.0
  0
ENDSEC
  0
SECTION
  2
OBJECTS
  0
DICTIONARY
  5
C
330
0
100
AcDbDictionary
281
     1
  3
ACAD_GROUP
350
D
  3
ACAD_LAYOUT
350
1A
  3
ACAD_MLINESTYLE
350
17
  3
ACAD_PLOTSETTINGS
350
19
  3
ACAD_PLOTSTYLENAME
350
E
  0
DICTIONARY
  5
D
102
{ACAD_REACTORS
330
C
102
}
330
C
100
AcDbDictionary
281
     1
  0
DICTIONARY
  5
1A
102
{ACAD_REACTORS
330
C
102
}
330
C
100
AcDbDictionary
281
     1
  3
Layout1
350
1E
  3
Layout2
350
26
  3
Model
350
22
  0
DICTIONARY
  5
17
102
{ACAD_REACTORS
330
C
102
}
330
C
100
AcDbDictionary
281
     1
  3
Standard
350
18
  0
DICTIONARY
  5
19
102
{ACAD_REACTORS
330
C
102
}
330
C
100
AcDbDictionary
281
     1
  0
ACDBDICTIONARYWDFLT
  5
E
102
{ACAD_REACTORS
330
C
102
}
330
C
100
AcDbDictionary
281
     1
  3
Normal
350
F
100
AcDbDictionaryWithDefault
340
F
  0
LAYOUT
  5
1E
102
{ACAD_REACTORS
330
1A
102
}
330
1A
100
AcDbPlotSettings
  1

  2
none_device
  4

  6

 40
0.0
 41
0.0
 42
0.0
 43
0.0
 44
0.0
 45
0.0
 46
0.0
 47
0.0
 48
0.0
 49
0.0
140
0.0
141
0.0
142
1.0
143
1.0
 70
   688
 72
     0
 73
     0
 74
     5
  7

 75
    16
147
1.0
148
0.0
149
0.0
100
AcDbLayout
  1
Layout1
 70
     1
 71
     1
 10
0.0
 20
0.0
 11
420.0
 21
297.0
 12
0.0
 22
0.0
 32
0.0
 14
1.0000000000E+20
 24
1.0000000000E+20
 34
1.0000000000E+20
 15
-1.0000000000E+20
 25
-1.0000000000E+20
 35
-1.0000000000E+20
146
0.0
 13
0.0
 23
0.0
 33
0.0
 16
1.0
 26
0.0
 36
0.0
 17
0.0
 27
1.0
 37
0.0
 76
     0
330
1B
  0
LAYOUT
  5
26
102
{ACAD_REACTORS
330
1A
102
}
330
1A
100
AcDbPlotSettings
  1

  2
none_device
  4

  6

 40
0.0
 41
0.0
 42
0.0
 43
0.0
 44
0.0
 45
0.0
 46
0.0
 47
0.0
 48
0.0
 49
0.0
140
0.0
141
0.0
142
1.0
143
1.0
 70
   688
 72
     0
 73
     0
 74
     5
  7

 75
    16
147
1.0
148
0.0
149
0.0
100
AcDbLayout
  1
Layout2
 70
     1
 71
     2
 10
0.0
 20
0.0
 11
0.0
 21
0.0
 12
0.0
 22
0.0
 32
0.0
 14
0.0
 24
0.0
 34
0.0
 15
0.0
 25
0.0
 35
0.0
146
0.0
 13
0.0
 23
0.0
 33
0.0
 16
1.0
 26
0.0
 36
0.0
 17
0.0
 27
1.0
 37
0.0
 76
     0
330
23
  0
LAYOUT
  5
22
102
{ACAD_REACTORS
330
1A
102
}
330
1A
100
AcDbPlotSettings
  1

  2
none_device
  4

  6

 40
0.0
 41
0.0
 42
0.0
 43
0.0
 44
0.0
 45
0.0
 46
0.0
 47
0.0
 48
0.0
 49
0.0
140
0.0
141
0.0
142
1.0
143
1.0
 70
  1712
 72
     0
 73
     0
 74
     0
  7

 75
     0
147
1.0
148
0.0
149
0.0
100
AcDbLayout
  1
Model
 70
     1
 71
     0
 10
0.0
 20
0.0
 11
840.0
 21
594.0
 12
0.0
 22
0.0
 32
0.0
 14
0.0
 24
0.0
 34
0.0
 15
840.0
 25
594.0
 35
0.0
146
0.0
 13
0.0
 23
0.0
 33
0.0
 16
1.0
 26
0.0
 36
0.0
 17
0.0
 27
1.0
 37
0.0
 76
     0
330
1F
331
29
  0
MLINESTYLE
  5
18
102
{ACAD_REACTORS
330
17
102
}
330
17
100
AcDbMlineStyle
  2
Standard
 70
     0
  3

 62
   256
 51
90.0
 52
90.0
 71
     2
 49
0.5
 62
   256
  6
BYLAYER
 49
-0.5
 62
   256
  6
BYLAYER
  0
ACDBPLACEHOLDER
  5
F
102
{ACAD_REACTORS
330
E
102
}
330
E
  0
ENDSEC
  0
EOF
