  0
SECTION
  2
HEADER
  9
$ACADVER
  1
AC1015
  9
$ACADMAINTVER
 70
     6
  9
$DWGCODEPAGE
  3
DOS932
  9
$INSBASE
 10
0.0
 20
0.0
 30
0.0
  9
$EXTMIN
 10
0.0
 20
0.0
 30
0.0
  9
$EXTMAX
 10
840.0
 20
594.0
 30
0.0
  9
$LIMMIN
 10
0.0
 20
0.0
  9
$LIMMAX
 10
840.0
 20
594.0
  9
$ORTHOMODE
 70
     0
  9
$REGENMODE
 70
     1
  9
$FILLMODE
 70
     1
  9
$QTEXTMODE
 70
     0
  9
$MIRRTEXT
 70
     1
  9
$LTSCALE
 40
2.0
  9
$ATTMODE
 70
     1
  9
$TEXTSIZE
 40
7.0
  9
$TRACEWID
 40
1.0
  9
$TEXTSTYLE
  7
Standard
  9
$CLAYER
  8
0
  9
$CELTYPE
  6
ByLayer
  9
$CECOLOR
 62
   256
  9
$CELTSCALE
 40
1.0
  9
$DISPSILH
 70
     0
  9
$DIMSCALE
 40
1.0
  9
$DIMASZ
 40
6.0
  9
$DIMEXO
 40
2.0
  9
$DIMDLI
 40
3.75
  9
$DIMRND
 40
0.0
  9
$DIMDLE
 40
0.0
  9
$DIMEXE
 40
2.0
  9
$DIMTP
 40
0.0
  9
$DIMTM
 40
0.0
  9
$DIMTXT
 40
7.0
  9
$DIMCEN
 40
2.5
  9
$DIMTSZ
 40
0.0
  9
$DIMTOL
 70
     0
  9
$DIMLIM
 70
     0
  9
$DIMTIH
 70
     1
  9
$DIMTOH
 70
     1
  9
$DIMSE1
 70
     0
  9
$DIMSE2
 70
     0
  9
$DIMTAD
 70
     1
  9
$DIMZIN
 70
     0
  9
$DIMBLK
  1

  9
$DIMASO
 70
     1
  9
$DIMSHO
 70
     1
  9
$DIMPOST
  1

  9
$DIMAPOST
  1

  9
$DIMALT
 70
     0
  9
$DIMALTD
 70
     3
  9
$DIMALTF
 40
0.0393700787
  9
$DIMLFAC
 40
1.0
  9
$DIMTOFL
 70
     1
  9
$DIMTVP
 40
0.0
  9
$DIMTIX
 70
     0
  9
$DIMSOXD
 70
     0
  9
$DIMSAH
 70
     0
  9
$DIMBLK1
  1

  9
$DIMBLK2
  1

  9
$DIMSTYLE
  2
ISO-25
  9
$DIMCLRD
 70
     0
  9
$DIMCLRE
 70
     0
  9
$DIMCLRT
 70
     0
  9
$DIMTFAC
 40
1.0
  9
$DIMGAP
 40
3.048
  9
$DIMJUST
 70
     0
  9
$DIMSD1
 70
     0
  9
$DIMSD2
 70
     0
  9
$DIMTOLJ
 70
     0
  9
$DIMTZIN
 70
     0
  9
$DIMALTZ
 70
     0
  9
$DIMALTTZ
 70
     0
  9
$DIMUPT
 70
     0
  9
$DIMDEC
 70
     1
  9
$DIMTDEC
 70
     1
  9
$DIMALTU
 70
     2
  9
$DIMALTTD
 70
     3
  9
$DIMTXSTY
  7
Standard
  9
$DIMAUNIT
 70
     0
  9
$DIMADEC
 70
     2
  9
$DIMALTRND
 40
0.0
  9
$DIMAZIN
 70
     0
  9
$DIMDSEP
 70
    44
  9
$DIMATFIT
 70
     3
  9
$DIMFRAC
 70
     0
  9
$DIMLDRBLK
  1

  9
$DIMLUNIT
 70
     2
  9
$DIMLWD
 70
    -2
  9
$DIMLWE
 70
    -2
  9
$DIMTMOVE
 70
     0
  9
$LUNITS
 70
     2
  9
$LUPREC
 70
     1
  9
$SKETCHINC
 40
1.0
  9
$FILLETRAD
 40
10.0
  9
$AUNITS
 70
     0
  9
$AUPREC
 70
     2
  9
$MENU
  1
.
  9
$ELEVATION
 40
0.0
  9
$PELEVATION
 40
0.0
  9
$THICKNESS
 40
0.0
  9
$LIMCHECK
 70
     0
  9
$CHAMFERA
 40
10.0
  9
$CHAMFERB
 40
10.0
  9
$CHAMFERC
 40
20.0
  9
$CHAMFERD
 40
0.0
  9
$SKPOLY
 70
     0
  9
$TDCREATE
 40
2460451.595750602
  9
$TDUCREATE
 40
2460451.220750602
  9
$TDUPDATE
 40
2460451.595750614
  9
$TDUUPDATE
 40
2460451.220750614
  9
$TDINDWG
 40
0.0000000116
  9
$TDUSRTIMER
 40
0.0000000116
  9
$USRTIMER
 70
     1
  9
$ANGBASE
 50
0.0
  9
$ANGDIR
 70
     0
  9
$PDMODE
 70
     0
  9
$PDSIZE
 40
-1.0
  9
$PLINEWID
 40
0.0
  9
$SPLFRAME
 70
     0
  9
$SPLINETYPE
 70
     6
  9
$SPLINESEGS
 70
     8
  9
$HANDSEED
  5
252
  9
$SURFTAB1
 70
     6
  9
$SURFTAB2
 70
     6
  9
$SURFTYPE
 70
     6
  9
$SURFU
 70
     6
  9
$SURFV
 70
     6
  9
$UCSBASE
  2

  9
$UCSNAME
  2

  9
$UCSORG
 10
0.0
 20
0.0
 30
0.0
  9
$UCSXDIR
 10
1.0
 20
0.0
 30
0.0
  9
$UCSYDIR
 10
0.0
 20
1.0
 30
0.0
  9
$UCSORTHOREF
  2

  9
$UCSORTHOVIEW
 70
     0
  9
$UCSORGTOP
 10
0.0
 20
0.0
 30
0.0
  9
$UCSORGBOTTOM
 10
0.0
 20
0.0
 30
0.0
  9
$UCSORGLEFT
 10
0.0
 20
0.0
 30
0.0
  9
$UCSORGRIGHT
 10
0.0
 20
0.0
 30
0.0
  9
$UCSORGFRONT
 10
0.0
 20
0.0
 30
0.0
  9
$UCSORGBACK
 10
0.0
 20
0.0
 30
0.0
  9
$PUCSBASE
  2

  9
$PUCSNAME
  2

  9
$PUCSORG
 10
0.0
 20
0.0
 30
0.0
  9
$PUCSXDIR
 10
1.0
 20
0.0
 30
0.0
  9
$PUCSYDIR
 10
0.0
 20
1.0
 30
0.0
  9
$PUCSORTHOREF
  2

  9
$PUCSORTHOVIEW
 70
     0
  9
$PUCSORGTOP
 10
0.0
 20
0.0
 30
0.0
  9
$PUCSORGBOTTOM
 10
0.0
 20
0.0
 30
0.0
  9
$PUCSORGLEFT
 10
0.0
 20
0.0
 30
0.0
  9
$PUCSORGRIGHT
 10
0.0
 20
0.0
 30
0.0
  9
$PUCSORGFRONT
 10
0.0
 20
0.0
 30
0.0
  9
$PUCSORGBACK
 10
0.0
 20
0.0
 30
0.0
  9
$USERI1
 70
     0
  9
$USERI2
 70
     0
  9
$USERI3
 70
     0
  9
$USERI4
 70
     0
  9
$USERI5
 70
     0
  9
$USERR1
 40
0.0
  9
$USERR2
 40
0.0
  9
$USERR3
 40
0.0
  9
$USERR4
 40
0.0
  9
$USERR5
 40
0.0
  9
$WORLDVIEW
 70
     1
  9
$SHADEDGE
 70
     3
  9
$SHADEDIF
 70
    70
  9
$TILEMODE
 70
     1
  9
$MAXACTVP
 70
    64
  9
$PINSBASE
 10
0.0
 20
0.0
 30
0.0
  9
$PLIMCHECK
 70
     0
  9
$PEXTMIN
 10
1.0000000000E+20
 20
1.0000000000E+20
 30
1.0000000000E+20
  9
$PEXTMAX
 10
-1.0000000000E+20
 20
-1.0000000000E+20
 30
-1.0000000000E+20
  9
$PLIMMIN
 10
0.0
 20
0.0
  9
$PLIMMAX
 10
420.0
 20
297.0
  9
$UNITMODE
 70
     0
  9
$VISRETAIN
 70
     1
  9
$PLINEGEN
 70
     0
  9
$PSLTSCALE
 70
     1
  9
$TREEDEPTH
 70
  3020
  9
$CMLSTYLE
  2
Standard
  9
$CMLJUST
 70
     0
  9
$CMLSCALE
 40
20.0
  9
$PROXYGRAPHICS
 70
     1
  9
$MEASUREMENT
 70
     1
  9
$CELWEIGHT
370
    -1
  9
$ENDCAPS
280
     0
  9
$JOINSTYLE
280
     0
  9
$LWDISPLAY
290
     1
  9
$INSUNITS
 70
     4
  9
$HYPERLINKBASE
  1

  9
$STYLESHEET
  1

  9
$XEDIT
290
     1
  9
$CEPSNTYPE
380
     0
  9
$PSTYLEMODE
290
     1
  9
$FINGERPRINTGUID
  2
{8158C289-C833-4520-8AA1-8A92B1E7C53E}
  9
$VERSIONGUID
  2
{FAEB1C32-E019-11D5-929B-00C0DF256EC4}
  9
$EXTNAMES
290
     1
  9
$PSVPSCALE
 40
0.0
  9
$OLESTARTUP
290
     0
  0
ENDSEC
  0
SECTION
  2
CLASSES
  0
CLASS
  1
ACDBDICTIONARYWDFLT
  2
AcDbDictionaryWithDefault
  3
ObjectDBX Classes
 90
        0
280
     0
281
     0
  0
CLASS
  1
VISUALSTYLE
  2
AcDbVisualStyle
  3
ObjectDBX Classes
 90
     4095
280
     0
281
     0
  0
CLASS
  1
MATERIAL
  2
AcDbMaterial
  3
ObjectDBX Classes
 90
     1153
280
     0
281
     0
  0
CLASS
  1
ACDBPLACEHOLDER
  2
AcDbPlaceHolder
  3
ObjectDBX Classes
 90
        0
280
     0
281
     0
  0
CLASS
  1
LAYOUT
  2
AcDbLayout
  3
ObjectDBX Classes
 90
        0
280
     0
281
     0
  0
ENDSEC
  0
SECTION
  2
TABLES
  0
TABLE
  2
VPORT
  5
8
330
0
100
AcDbSymbolTable
 70
     1
  0
VPORT
  5
29
330
8
100
AcDbSymbolTableRecord
100
AcDbViewportTableRecord
  2
*Active
 70
     0
 10
0.0
 20
0.0
 11
1.0
 21
1.0
 12
420.0
 22
297.0
 13
0.0
 23
0.0
 14
10.0
 24
10.0
 15
10.0
 25
10.0
 16
0.0
 26
0.0
 36
1.0
 17
0.0
 27
0.0
 37
0.0
 40
594.0
 41
1.4141414141
 42
50.0
 43
0.0
 44
0.0
 50
0.0
 51
0.0
 71
     0
 72
  2000
 73
     1
 74
     3
 75
     0
 76
     0
 77
     0
 78
     0
281
     0
 65
     1
110
0.0
120
0.0
130
0.0
111
1.0
121
0.0
131
0.0
112
0.0
122
1.0
132
0.0
 79
     0
146
0.0
  0
ENDTAB
  0
TABLE
  2
LTYPE
  5
5
330
0
100
AcDbSymbolTable
 70
     6
  0
LTYPE
  5
14
330
5
100
AcDbSymbolTableRecord
100
AcDbLinetypeTableRecord
  2
ByBlock
 70
     0
  3

 72
    65
 73
     0
 40
0.0
  0
LTYPE
  5
15
330
5
100
AcDbSymbolTableRecord
100
AcDbLinetypeTableRecord
  2
ByLayer
 70
     0
  3

 72
    65
 73
     0
 40
0.0
  0
LTYPE
  5
16
330
5
100
AcDbSymbolTableRecord
100
AcDbLinetypeTableRecord
  2
Continuous
 70
     0
  3
Solid line
 72
    65
 73
     0
 40
0.0
  0
LTYPE
  5
3F
330
5
100
AcDbSymbolTableRecord
100
AcDbLinetypeTableRecord
  2
HIDDEN
 70
     0
  3
Hidden __ __ __ __ __ __ __ __ __ __ __ __ __ __
 72
    65
 73
     2
 40
1.905
 49
1.27
 74
     0
 49
-0.635
 74
     0
  0
LTYPE
  5
40
330
5
100
AcDbSymbolTableRecord
100
AcDbLinetypeTableRecord
  2
PHANTOM
 70
     0
  3
Phantom ______  __  __  ______  __  __  ______
 72
    65
 73
     6
 40
12.7
 49
6.35
 74
     0
 49
-1.27
 74
     0
 49
1.27
 74
     0
 49
-1.27
 74
     0
 49
1.27
 74
     0
 49
-1.27
 74
     0
  0
LTYPE
  5
41
330
5
100
AcDbSymbolTableRecord
100
AcDbLinetypeTableRecord
  2
CENTER
 70
     0
  3
Center ____ _ ____ _ ____ _ ____ _ ____ _ ____
 72
    65
 73
     4
 40
10.16
 49
6.35
 74
     0
 49
-1.27
 74
     0
 49
1.27
 74
     0
 49
-1.27
 74
     0
  0
LTYPE
  5
42
330
5
100
AcDbSymbolTableRecord
100
AcDbLinetypeTableRecord
  2
CENTERX2
 70
     0
  3
Center (2x) ________  __  ________  __  _____
 72
    65
 73
     4
 40
20.32
 49
12.7
 74
     0
 49
-2.54
 74
     0
 49
2.54
 74
     0
 49
-2.54
 74
     0
  0
LTYPE
  5
43
330
5
100
AcDbSymbolTableRecord
100
AcDbLinetypeTableRecord
  2
DOT2
 70
     0
  3
Dot (.5x) ........................................
 72
    65
 73
     2
 40
0.635
 49
0.0
 74
     0
 49
-0.635
 74
     0
  0
ENDTAB
  0
TABLE
  2
LAYER
  5
2
330
0
100
AcDbSymbolTable
 70
     1
  0
LAYER
  5
10
330
2
100
AcDbSymbolTableRecord
100
AcDbLayerTableRecord
  2
0
 70
     0
 62
     7
  6
Continuous
370
    -3
390
F
  0
ENDTAB
  0
TABLE
  2
STYLE
  5
3
330
0
100
AcDbSymbolTable
 70
     2
  0
STYLE
  5
11
330
3
100
AcDbSymbolTableRecord
100
AcDbTextStyleTableRecord
  2
Standard
 70
     0
 40
0.0
 41
1.0
 50
0.0
 71
     0
 42
2.5
  3
txt
  4
bigfont
  0
STYLE
  5
44
330
3
100
AcDbSymbolTableRecord
100
AcDbTextStyleTableRecord
  2
SLDTEXTSTYLE0
 70
     0
 40
0.0
 41
0.7
 50
0.0
 71
     0
 42
0.2
  3
TXT
  4
bigfont
  0
ENDTAB
  0
TABLE
  2
VIEW
  5
6
330
0
100
AcDbSymbolTable
 70
     0
  0
ENDTAB
  0
TABLE
  2
UCS
  5
7
330
0
100
AcDbSymbolTable
 70
     0
  0
ENDTAB
  0
TABLE
  2
APPID
  5
9
330
0
100
AcDbSymbolTable
 70
     1
  0
APPID
  5
12
330
9
100
AcDbSymbolTableRecord
100
AcDbRegAppTableRecord
  2
ACAD
 70
     0
  0
ENDTAB
  0
TABLE
  2
DIMSTYLE
  5
A
330
0
100
AcDbSymbolTable
 70
     1
100
AcDbDimStyleTable
  0
DIMSTYLE
105
27
330
A
100
AcDbSymbolTableRecord
100
AcDbDimStyleTableRecord
  2
ISO-25
 70
     0
 41
2.5
 42
0.625
 43
3.75
 44
1.25
 73
     0
 74
     0
 77
     1
 78
     8
140
2.5
141
2.5
143
0.0393700787
147
0.625
171
     3
172
     1
178
     0
271
     2
272
     2
274
     3
278
    44
283
     0
284
     8
340
11
  0
ENDTAB
  0
TABLE
  2
BLOCK_RECORD
  5
1
330
0
100
AcDbSymbolTable
 70
     1
  0
BLOCK_RECORD
  5
1F
330
1
100
AcDbSymbolTableRecord
100
AcDbBlockTableRecord
  2
*Model_Space
340
22
  0
BLOCK_RECORD
  5
1B
330
1
100
AcDbSymbolTableRecord
100
AcDbBlockTableRecord
  2
*Paper_Space
340
1E
  0
BLOCK_RECORD
  5
23
330
1
100
AcDbSymbolTableRecord
100
AcDbBlockTableRecord
  2
*Paper_Space0
340
26
  0
ENDTAB
  0
ENDSEC
  0
SECTION
  2
BLOCKS
  0
BLOCK
  5
20
330
1F
100
AcDbEntity
  8
0
100
AcDbBlockBegin
  2
*Model_Space
 70
     0
 10
0.0
 20
0.0
 30
0.0
  3
*Model_Space
  1

  0
ENDBLK
  5
21
330
1F
100
AcDbEntity
  8
0
100
AcDbBlockEnd
  0
BLOCK
  5
1C
330
1B
100
AcDbEntity
 67
     1
  8
0
100
AcDbBlockBegin
  2
*Paper_Space
 70
     0
 10
0.0
 20
0.0
 30
0.0
  3
*Paper_Space
  1

  0
ENDBLK
  5
1D
330
1B
100
AcDbEntity
 67
     1
  8
0
100
AcDbBlockEnd
  0
BLOCK
  5
24
330
23
100
AcDbEntity
  8
0
100
AcDbBlockBegin
  2
*Paper_Space0
 70
     0
 10
0.0
 20
0.0
 30
0.0
  3
*Paper_Space0
  1

  0
ENDBLK
  5
25
330
23
100
AcDbEntity
  8
0
100
AcDbBlockEnd
  0
ENDSEC
  0
SECTION
  2
ENTITIES
  0
MTEXT
  5
45
330
1F
100
AcDbEntity
  8
0
  6
Continuous
 62
     7
370
     0
100
AcDbMText
 10
201.8645435244
 20
479.157232062
 30
0.0
 40
7.0
 41
0.0
 71
     1
 72
     1
  1
CHB-513P
  7
SLDTEXTSTYLE0
 73
     1
 44
1.0
  0
LINE
  5
46
330
1F
100
AcDbEntity
  8
0
  6
Continuous
 62
     7
370
    15
100
AcDbLine
 10
377.3956867869
 20
217.7654631727
 30
0.0
 11
377.4956884797
 21
217.7654631727
 31
0.0
  0
LINE
  5
47
330
1F
100
AcDbEntity
  8
0
  6
Continuous
 62
     7
370
    15
100
AcDbLine
 10
377.4956884797
 20
223.7654634577
 30
0.0
 11
377.3956867869
 21
223.7654634577
 31
0.0
  0
LINE
  5
48
330
1F
100
AcDbEntity
  8
0
  6
Continuous
 62
     7
370
    15
100
AcDbLine
 10
377.3956867869
 20
227.7654636477
 30
0.0
 11
377.4956884797
 21
227.7654636477
 31
0.0
  0
LINE
  5
49
330
1F
100
AcDbEntity
  8
0
  6
Continuous
 62
     7
370
    15
100
AcDbLine
 10
377.4956884797
 20
233.7654639327
 30
0.0
 11
377.3956867869
 21
233.7654639327
 31
0.0
  0
LINE
  5
4A
330
1F
100
AcDbEntity
  8
0
  6
Continuous
 62
     7
370
    15
100
AcDbLine
 10
378.6956789906
 20
237.2654635751
 30
0.0
 11
377.4956884797
 21
237.2654635751
 31
0.0
  0
LINE
  5
4B
330
1F
100
AcDbEntity
  8
0
  6
Continuous
 62
     7
370
    15
100
AcDbLine
 10
377.4956884797
 20
214.2654635304
 30
0.0
 11
378.6956789906
 21
214.2654635304
 31
0.0
  0
LINE
  5
4C
330
1F
100
AcDbEntity
  8
0
  6
Continuous
 62
     7
370
    15
100
AcDbLine
 10
790.1956859048
 20
81.7654697516
 30
0.0
 11
790.1956859048
 21
116.7654661753
 31
0.0
  0
LINE
  5
4D
330
1F
100
AcDbEntity
  8
0
  6
Continuous
 62
     7
370
    15
100
AcDbLine
 10
790.1956859048
 20
334.7654609301
 30
0.0
 11
790.1956859048
 21
369.7654573538
 31
0.0
  0
SPLINE
  5
4E
330
1F
100
AcDbEntity
  8
0
  6
Continuous
 62
     7
370
    15
100
AcDbSpline
210
0.0
220
0.0
230
1.0
 70
     8
 71
     3
 72
    11
 73
     7
 74
     0
 42
0.00000001
 43
0.00000001
 40
0.0
 40
0.0
 40
0.0
 40
0.0
 40
0.226221566885237
 40
0.4679451128834843
 40
0.7254866595875595
 40
1.0
 40
1.0
 40
1.0
 40
1.0
 10
375.0161948616804
 20
233.995898283373
 30
0.0
 10
375.0190141983503
 20
233.9729990913218
 30
0.0
 10
375.0248460685581
 20
233.9256315252805
 30
0.0
 10
375.0416367078375
 20
233.6008465540069
 30
0.0
 10
375.0552292441735
 20
233.1003488719586
 30
0.0
 10
375.0557644352551
 20
232.676528468296
 30
0.0
 10
375.0560405667127
 20
232.457858632605
 30
0.0
  0
SPLINE
  5
4F
330
1F
100
AcDbEntity
  8
0
  6
Continuous
 62
     7
370
    15
100
AcDbSpline
210
0.0
220
0.0
230
1.0
 70
     8
 71
     3
 72
    12
 73
     8
 74
     0
 42
0.00000001
 43
0.00000001
 40
0.0
 40
0.0
 40
0.0
 40
0.0
 40
0.2489450918608725
 40
0.4822920041796321
 40
0.6998108393712417
 40
0.9035366771083447
 40
1.0
 40
1.0
 40
1.0
 40
1.0
 10
375.0560405667127
 20
218.8992278010654
 30
0.0
 10
375.0546146958568
 20
218.7618932262521
 30
0.0
 10
375.0518522950895
 20
218.4958290639312
 30
0.0
 10
375.0409513644105
 20
218.1600292923644
 30
0.0
 10
375.038441010755
 20
217.9268482266327
 30
0.0
 10
375.0432301650534
 20
217.8067444372014
 30
0.0
 10
375.0696606655309
 20
217.8053979139437
 30
0.0
 10
375.0781538899244
 20
217.8049652197467
 30
0.0
  0
LINE
  5
50
330
1F
100
AcDbEntity
  8
0
  6
Continuous
 62
     7
370
    15
100
AcDbLine
 10
375.0551912005
 20
232.5078585477
 30
0.0
 11
375.0551912005
 21
218.849227886
 31
0.0
  0
LINE
  5
51
330
1F
100
AcDbEntity
  8
0
  6
Continuous
 62
     7
370
    15
100
AcDbLine
 10
373.5315772708
 20
236.4457469725
 30
0.0
 11
375.0189366753
 21
233.9655995661
 31
0.0
  0
LINE
  5
52
330
1F
100
AcDbEntity
  8
0
  6
Continuous
 62
     7
370
    15
100
AcDbLine
 10
377.4956884797
 20
235.6687091583
 30
0.0
 11
376.1043968613
 21
237.9886728072
 31
0.0
  0
LINE
  5
53
330
1F
100
AcDbEntity
  8
0
  6
Continuous
 62
     7
370
    15
100
AcDbLine
 10
375.083428901
 20
217.6728794643
 30
0.0
 11
373.5143515284
 21
215.0564609387
 31
0.0
  0
LINE
  5
54
330
1F
100
AcDbEntity
  8
0
  6
Continuous
 62
     7
370
    15
100
AcDbLine
 10
376.087171119
 20
213.513535104
 30
0.0
 11
377.4956884797
 21
215.8622179472
 31
0.0
  0
LINE
  5
55
330
1F
100
AcDbEntity
  8
0
  6
Continuous
 62
     7
370
    15
100
AcDbLine
 10
376.1242899115
 20
237.9531642714
 30
0.0
 11
376.0343316014
 21
238.0669514009
 31
0.0
  0
SPLINE
  5
56
330
1F
100
AcDbEntity
  8
0
  6
Continuous
 62
     7
370
    15
100
AcDbSpline
210
0.0
220
0.0
230
1.0
 70
     8
 71
     3
 72
    20
 73
    16
 74
     0
 42
0.00000001
 43
0.00000001
 40
0.0
 40
0.0
 40
0.0
 40
0.0
 40
0.0337804538102202
 40
0.1101061402462273
 40
0.1739279168839159
 40
0.2252735481038027
 40
0.2665361319495922
 40
0.3037740218006676
 40
0.3388582740889275
 40
0.3726392463914064
 40
0.4139170231719294
 40
0.6259822024377981
 40
0.8390272593921465
 40
0.9659462393816979
 40
0.9999999999999999
 40
0.9999999999999999
 40
0.9999999999999999
 40
0.9999999999999999
 10
375.9220215494932
 20
238.209020934354
 30
0.0
 10
375.8813609016586
 20
238.2652063052152
 30
0.0
 10
375.7488290233679
 20
238.448340444223
 30
0.0
 10
375.4389638800208
 20
238.62551848051
 30
0.0
 10
375.0517029459929
 20
238.7484783301071
 30
0.0
 10
374.6818543778646
 20
238.7632660474176
 30
0.0
 10
374.3475391321309
 20
238.7126737964536
 30
0.0
 10
374.0730511143817
 20
238.6116293746397
 30
0.0
 10
373.8455516085838
 20
238.4769099626373
 30
0.0
 10
373.6395143443664
 20
238.3007343967267
 30
0.0
 10
373.2949953495305
 20
237.8582348539034
 30
0.0
 10
373.1139032988015
 20
237.171569699403
 30
0.0
 10
372.9641042819733
 20
235.9907360924506
 30
0.0
 10
372.9089842112525
 20
235.0860914742529
 30
0.0
 10
372.9024227178618
 20
234.6715035403146
 30
0.0
 10
372.9010346348585
 20
234.5837975212442
 30
0.0
  0
SPLINE
  5
57
330
1F
100
AcDbEntity
  8
0
  6
Continuous
 62
     7
370
    15
100
AcDbSpline
210
0.0
220
0.0
230
1.0
 70
     8
 71
     3
 72
    19
 73
    15
 74
     0
 42
0.00000001
 43
0.00000001
 40
0.0
 40
0.0
 40
0.0
 40
0.0
 40
0.0102737816657343
 40
0.1295970074101849
 40
0.3268125933012195
 40
0.5525094047593601
 40
0.5858541896799818
 40
0.6186017427913522
 40
0.6529061547091596
 40
0.6960072119226564
 40
0.752313105850286
 40
0.8223149618104457
 40
0.9054607894314125
 40
1.0
 40
1.0
 40
1.0
 40
1.0
 10
372.8981885130705
 20
216.9654636004078
 30
0.0
 10
372.8985117170163
 20
216.9382646383721
 30
0.0
 10
372.9025887224978
 20
216.5951675978501
 30
0.0
 10
372.9423507934542
 20
215.7751738521186
 30
0.0
 10
373.077355701929
 20
214.5527409826686
 30
0.0
 10
373.1677540869928
 20
213.9093895136095
 30
0.0
 10
373.5186515552929
 20
213.36928317066
 30
0.0
 10
373.6878718394986
 20
213.1814426629792
 30
0.0
 10
373.9245790398411
 20
213.0049561191145
 30
0.0
 10
374.2382086029188
 20
212.8514881129118
 30
0.0
 10
374.6416922542011
 20
212.7496973240542
 30
0.0
 10
375.1275605909265
 20
212.7728608368741
 30
0.0
 10
375.6573078990663
 20
212.9831871581609
 30
0.0
 10
375.9225286629344
 20
213.3050045951228
 30
0.0
 10
376.0636421854795
 20
213.4762309783208
 30
0.0
  0
LINE
  5
58
330
1F
100
AcDbEntity
  8
0
  6
Continuous
 62
     7
370
    15
100
AcDbLine
 10
369.5908757861
 20
229.6654634469
 30
0.0
 11
369.5908757861
 21
221.0654636205
 31
0.0
  0
LINE
  5
59
330
1F
100
AcDbEntity
  8
0
  6
Continuous
 62
     7
370
    15
100
AcDbLine
 10
370.1956841166
 20
233.7652096816
 30
0.0
 11
370.1956841166
 21
232.965463429
 31
0.0
  0
LINE
  5
5A
330
1F
100
AcDbEntity
  8
0
  6
Continuous
 62
     7
370
    15
100
AcDbLine
 10
370.1956841166
 20
218.5654636764
 30
0.0
 11
370.1956841166
 21
217.7657174238
 31
0.0
  0
ARC
  5
5B
330
1F
100
AcDbEntity
  8
0
  6
Continuous
 62
     7
370
    15
100
AcDbCircle
 10
373.7956819709
 20
230.9583206956
 30
0.0
 40
3.807142857143191
100
AcDbArc
 50
77.9663271603
 51
90.0
  0
ARC
  5
5C
330
1F
100
AcDbEntity
  8
0
  6
Continuous
 62
     7
370
    15
100
AcDbCircle
 10
373.7956819709
 20
230.9583206956
 30
0.0
 40
3.807142857143211
100
AcDbArc
 50
90.0
 51
125.3002484399
  0
LINE
  5
5D
330
1F
100
AcDbEntity
  8
0
  6
Continuous
 62
     7
370
    15
100
AcDbLine
 10
371.5956780131
 20
234.0654634231
 30
0.0
 11
371.5956780131
 21
233.7654639327
 31
0.0
  0
LINE
  5
5E
330
1F
100
AcDbEntity
  8
0
  6
Continuous
 62
     7
370
    15
100
AcDbLine
 10
371.6956797059
 20
217.3654638522
 30
0.0
 11
371.6956797059
 21
216.9654636004
 31
0.0
  0
ARC
  5
5F
330
1F
100
AcDbEntity
  8
0
  6
Continuous
 62
     7
370
    15
100
AcDbCircle
 10
371.8956819709
 20
217.7654635528
 30
0.0
 40
0.4000000000007162
100
AcDbArc
 50
270.0
 51
0.0
  0
LINE
  5
60
330
1F
100
AcDbEntity
  8
0
  6
Continuous
 62
     7
370
    15
100
AcDbLine
 10
372.2956749614
 20
232.965463429
 30
0.0
 11
372.2956749614
 21
232.5154637278
 31
0.0
  0
LINE
  5
61
330
1F
100
AcDbEntity
  8
0
  6
Continuous
 62
     7
370
    15
100
AcDbLine
 10
372.2956749614
 20
219.0154633776
 30
0.0
 11
372.2956749614
 21
218.5654636764
 31
0.0
  0
LINE
  5
62
330
1F
100
AcDbEntity
  8
0
  6
Continuous
 62
     7
370
    15
100
AcDbLine
 10
790.1956859048
 20
45.7654564002
 30
0.0
 11
790.1956859048
 21
80.765467725
 31
0.0
  0
LINE
  5
63
330
1F
100
AcDbEntity
  8
0
  6
Continuous
 62
     7
370
    15
100
AcDbLine
 10
790.1956859048
 20
370.7654593804
 30
0.0
 11
790.1956859048
 21
405.7654707053
 31
0.0
  0
LINE
  5
64
330
1F
100
AcDbEntity
  8
0
  6
Continuous
 62
     7
370
    15
100
AcDbLine
 10
787.1956798251
 20
80.765467725
 30
0.0
 11
787.1956798251
 21
81.7654697516
 31
0.0
  0
LINE
  5
65
330
1F
100
AcDbEntity
  8
0
  6
Continuous
 62
     7
370
    15
100
AcDbLine
 10
787.1956798251
 20
116.7654661753
 30
0.0
 11
787.1956798251
 21
117.7654607513
 31
0.0
  0
LINE
  5
66
330
1F
100
AcDbEntity
  8
0
  6
Continuous
 62
     7
370
    15
100
AcDbLine
 10
782.1956845935
 20
117.7654607513
 30
0.0
 11
782.1956845935
 21
116.7654661753
 31
0.0
  0
LINE
  5
67
330
1F
100
AcDbEntity
  8
0
  6
Continuous
 62
     7
370
    15
100
AcDbLine
 10
782.1956845935
 20
81.7654697516
 30
0.0
 11
782.1956845935
 21
80.765467725
 31
0.0
  0
LINE
  5
68
330
1F
100
AcDbEntity
  8
0
  6
Continuous
 62
     7
370
    15
100
AcDbLine
 10
782.1956845935
 20
370.7654593804
 30
0.0
 11
782.1956845935
 21
369.7654573538
 31
0.0
  0
LINE
  5
69
330
1F
100
AcDbEntity
  8
0
  6
Continuous
 62
     7
370
    15
100
AcDbLine
 10
782.1956845935
 20
334.7654609301
 30
0.0
 11
782.1956845935
 21
333.7654663541
 31
0.0
  0
LINE
  5
6A
330
1F
100
AcDbEntity
  8
0
  6
Continuous
 62
     7
370
    15
100
AcDbLine
 10
787.1956798251
 20
333.7654663541
 30
0.0
 11
787.1956798251
 21
334.7654609301
 31
0.0
  0
LINE
  5
6B
330
1F
100
AcDbEntity
  8
0
  6
Continuous
 62
     7
370
    15
100
AcDbLine
 10
787.1956798251
 20
369.7654573538
 30
0.0
 11
787.1956798251
 21
370.7654593804
 31
0.0
  0
LINE
  5
6C
330
1F
100
AcDbEntity
  8
0
  6
Continuous
 62
     7
370
    15
100
AcDbLine
 10
370.3956875022
 20
232.5154637278
 30
0.0
 11
370.3956875022
 21
232.2226526507
 31
0.0
  0
LINE
  5
6D
330
1F
100
AcDbEntity
  8
0
  6
Continuous
 62
     7
370
    15
100
AcDbLine
 10
370.3956875022
 20
219.3082744547
 30
0.0
 11
370.3956875022
 21
219.0154633776
 31
0.0
  0
LINE
  5
6E
330
1F
100
AcDbEntity
  8
0
  6
Continuous
 62
     7
370
    15
100
AcDbLine
 10
378.6956789906
 20
215.7779714384
 30
0.0
 11
378.6956789906
 21
40.7654611685
 31
0.0
  0
LINE
  5
6F
330
1F
100
AcDbEntity
  8
0
  6
Continuous
 62
     7
370
    15
100
AcDbLine
 10
378.6956789906
 20
235.752955667
 30
0.0
 11
378.6956789906
 21
410.7654659369
 31
0.0
  0
LINE
  5
70
330
1F
100
AcDbEntity
  8
0
  6
Continuous
 62
     7
370
    15
100
AcDbLine
 10
378.6956789906
 20
410.7654659369
 30
0.0
 11
393.6956795867
 21
410.7654659369
 31
0.0
  0
LINE
  5
71
330
1F
100
AcDbEntity
  8
0
  6
Continuous
 62
     7
370
    15
100
AcDbLine
 10
393.6956795867
 20
410.7654659369
 30
0.0
 11
393.6956795867
 21
40.7654611685
 31
0.0
  0
LINE
  5
72
330
1F
100
AcDbEntity
  8
0
  6
Continuous
 62
     7
370
    15
100
AcDbLine
 10
378.6956789906
 20
40.7654611685
 30
0.0
 11
393.6956795867
 21
40.7654611685
 31
0.0
  0
LINE
  5
73
330
1F
100
AcDbEntity
  8
0
  6
Continuous
 62
     7
370
    15
100
AcDbLine
 10
393.6956795867
 20
25.7654605725
 30
0.0
 11
393.6956795867
 21
40.7654611685
 31
0.0
  0
LINE
  5
74
330
1F
100
AcDbEntity
  8
0
  6
Continuous
 62
     7
370
    15
100
AcDbLine
 10
393.6956795867
 20
40.7654611685
 30
0.0
 11
763.6956843551
 21
40.7654611685
 31
0.0
  0
LINE
  5
75
330
1F
100
AcDbEntity
  8
0
  6
Continuous
 62
     7
370
    15
100
AcDbLine
 10
763.6956843551
 20
40.7654611685
 30
0.0
 11
763.6956843551
 21
25.7654605725
 31
0.0
  0
LINE
  5
76
330
1F
100
AcDbEntity
  8
0
  6
Continuous
 62
     7
370
    15
100
AcDbLine
 10
393.6956795867
 20
25.7654605725
 30
0.0
 11
763.6956843551
 21
25.7654605725
 31
0.0
  0
LINE
  5
77
330
1F
100
AcDbEntity
  8
0
  6
Continuous
 62
     7
370
    15
100
AcDbLine
 10
398.6956748183
 20
45.7654564002
 30
0.0
 11
398.6956748183
 21
405.7654707053
 31
0.0
  0
LINE
  5
78
330
1F
100
AcDbEntity
  8
0
  6
Continuous
 62
     7
370
    15
100
AcDbLine
 10
758.6956891234
 20
45.7654564002
 30
0.0
 11
398.6956748183
 21
45.7654564002
 31
0.0
  0
LINE
  5
79
330
1F
100
AcDbEntity
  8
0
  6
Continuous
 62
     7
370
    15
100
AcDbLine
 10
398.6956748183
 20
405.7654707053
 30
0.0
 11
758.6956891234
 21
405.7654707053
 31
0.0
  0
LINE
  5
7A
330
1F
100
AcDbEntity
  8
0
  6
Continuous
 62
     7
370
    15
100
AcDbLine
 10
393.6956795867
 20
410.7654659369
 30
0.0
 11
763.6956843551
 21
410.7654659369
 31
0.0
  0
LINE
  5
7B
330
1F
100
AcDbEntity
  8
0
  6
Continuous
 62
     7
370
    15
100
AcDbLine
 10
763.6956843551
 20
40.7654611685
 30
0.0
 11
763.6956843551
 21
410.7654659369
 31
0.0
  0
LINE
  5
7C
330
1F
100
AcDbEntity
  8
0
  6
Continuous
 62
     7
370
    15
100
AcDbLine
 10
758.6956891234
 20
45.7654564002
 30
0.0
 11
758.6956891234
 21
405.7654707053
 31
0.0
  0
LINE
  5
7D
330
1F
100
AcDbEntity
  8
0
  6
Continuous
 62
     7
370
    15
100
AcDbLine
 10
778.6956849511
 20
40.7654611685
 30
0.0
 11
778.6956849511
 21
410.7654659369
 31
0.0
  0
LINE
  5
7E
330
1F
100
AcDbEntity
  8
0
  6
Continuous
 62
     7
370
    15
100
AcDbLine
 10
763.6956843551
 20
40.7654611685
 30
0.0
 11
778.6956849511
 21
40.7654611685
 31
0.0
  0
LINE
  5
7F
330
1F
100
AcDbEntity
  8
0
  6
Continuous
 62
     7
370
    15
100
AcDbLine
 10
778.6956849511
 20
410.7654659369
 30
0.0
 11
763.6956843551
 21
410.7654659369
 31
0.0
  0
ARC
  5
80
330
1F
100
AcDbEntity
  8
0
  6
Continuous
 62
     7
370
    15
100
AcDbCircle
 10
763.6956819709
 20
40.7654635527
 30
0.0
 40
15.00000000000001
100
AcDbArc
 50
270.0
 51
0.0
  0
ARC
  5
81
330
1F
100
AcDbEntity
  8
0
  6
Continuous
 62
     7
370
    15
100
AcDbCircle
 10
393.6956819709
 20
40.7654635527
 30
0.0
 40
15.00000000000001
100
AcDbArc
 50
180.0
 51
270.0
  0
ARC
  5
82
330
1F
100
AcDbEntity
  8
0
  6
Continuous
 62
     7
370
    15
100
AcDbCircle
 10
763.6956819709
 20
410.7654635527
 30
0.0
 40
15.00000000000011
100
AcDbArc
 50
0.0
 51
90.0
  0
LINE
  5
83
330
1F
100
AcDbEntity
  8
0
  6
Continuous
 62
     7
370
    15
100
AcDbLine
 10
763.6956843551
 20
425.765466533
 30
0.0
 11
763.6956843551
 21
410.7654659369
 31
0.0
  0
LINE
  5
84
330
1F
100
AcDbEntity
  8
0
  6
Continuous
 62
     7
370
    15
100
AcDbLine
 10
393.6956795867
 20
410.7654659369
 30
0.0
 11
393.6956795867
 21
425.765466533
 31
0.0
  0
LINE
  5
85
330
1F
100
AcDbEntity
  8
0
  6
Continuous
 62
     7
370
    15
100
AcDbLine
 10
393.6956795867
 20
425.765466533
 30
0.0
 11
763.6956843551
 21
425.765466533
 31
0.0
  0
ARC
  5
86
330
1F
100
AcDbEntity
  8
0
  6
Continuous
 62
     7
370
    15
100
AcDbCircle
 10
393.6956819709
 20
410.7654635527
 30
0.0
 40
15.00000000000006
100
AcDbArc
 50
90.0
 51
180.0
  0
LINE
  5
87
330
1F
100
AcDbEntity
  8
0
  6
Continuous
 62
     7
370
    15
100
AcDbLine
 10
377.4956884797
 20
236.7999466428
 30
0.0
 11
378.6956789906
 21
236.7999466428
 31
0.0
  0
LINE
  5
88
330
1F
100
AcDbEntity
  8
0
  6
Continuous
 62
     7
370
    15
100
AcDbLine
 10
377.4956884797
 20
214.7309804627
 30
0.0
 11
378.6956789906
 21
214.7309804627
 31
0.0
  0
LINE
  5
89
330
1F
100
AcDbEntity
  8
0
  6
Continuous
 62
     7
370
    15
100
AcDbLine
 10
377.4956884797
 20
214.7309804627
 30
0.0
 11
377.4956884797
 21
236.7999466428
 31
0.0
  0
LINE
  5
8A
330
1F
100
AcDbEntity
  8
0
  6
Continuous
 62
     7
370
    15
100
AcDbLine
 10
378.6956789906
 20
235.752955667
 30
0.0
 11
378.6956789906
 21
215.7779714384
 31
0.0
  0
LINE
  5
8B
330
1F
100
AcDbEntity
  8
0
  6
Continuous
 62
     7
370
    15
100
AcDbLine
 10
377.3956867869
 20
217.7654631727
 30
0.0
 11
377.3956867869
 21
223.7654634577
 31
0.0
  0
LINE
  5
8C
330
1F
100
AcDbEntity
  8
0
  6
Continuous
 62
     7
370
    15
100
AcDbLine
 10
377.3956867869
 20
230.765463441
 30
0.0
 11
377.3956867869
 21
233.7654639327
 31
0.0
  0
LINE
  5
8D
330
1F
100
AcDbEntity
  8
0
  6
Continuous
 62
     7
370
    15
100
AcDbLine
 10
377.3956867869
 20
227.7654636477
 30
0.0
 11
377.3956867869
 21
230.765463441
 31
0.0
  0
LINE
  5
8E
330
1F
100
AcDbEntity
  8
0
  6
Continuous
 62
     7
370
    15
100
AcDbLine
 10
377.4956884797
 20
236.7999466428
 30
0.0
 11
377.4956884797
 21
237.2654635751
 31
0.0
  0
LINE
  5
8F
330
1F
100
AcDbEntity
  8
0
  6
Continuous
 62
     7
370
    15
100
AcDbLine
 10
377.4956884797
 20
214.2654635304
 30
0.0
 11
377.4956884797
 21
214.7309804627
 31
0.0
  0
LINE
  5
90
330
1F
100
AcDbEntity
  8
0
  6
Continuous
 62
     7
370
    15
100
AcDbLine
 10
779.5970412906
 20
116.7654661753
 30
0.0
 11
779.5970412906
 21
81.7654697516
 31
0.0
  0
LINE
  5
91
330
1F
100
AcDbEntity
  8
0
  6
Continuous
 62
     7
370
    15
100
AcDbLine
 10
779.5970412906
 20
116.7654661753
 30
0.0
 11
790.1956859048
 21
116.7654661753
 31
0.0
  0
LINE
  5
92
330
1F
100
AcDbEntity
  8
0
  6
Continuous
 62
     7
370
    15
100
AcDbLine
 10
779.5970412906
 20
81.7654697516
 30
0.0
 11
790.1956859048
 21
81.7654697516
 31
0.0
  0
LINE
  5
93
330
1F
100
AcDbEntity
  8
0
  6
Continuous
 62
     7
370
    15
100
AcDbLine
 10
779.5970412906
 20
369.7654573538
 30
0.0
 11
779.5970412906
 21
334.7654609301
 31
0.0
  0
LINE
  5
94
330
1F
100
AcDbEntity
  8
0
  6
Continuous
 62
     7
370
    15
100
AcDbLine
 10
779.5970412906
 20
369.7654573538
 30
0.0
 11
790.1956859048
 21
369.7654573538
 31
0.0
  0
LINE
  5
95
330
1F
100
AcDbEntity
  8
0
  6
Continuous
 62
     7
370
    15
100
AcDbLine
 10
779.5970412906
 20
334.7654609301
 30
0.0
 11
790.1956859048
 21
334.7654609301
 31
0.0
  0
LINE
  5
96
330
1F
100
AcDbEntity
  8
0
  6
Continuous
 62
     7
370
    15
100
AcDbLine
 10
779.1335257705
 20
116.7654661753
 30
0.0
 11
779.1335257705
 21
81.7654697516
 31
0.0
  0
LINE
  5
97
330
1F
100
AcDbEntity
  8
0
  6
Continuous
 62
     7
370
    15
100
AcDbLine
 10
779.1335257705
 20
116.7654661753
 30
0.0
 11
779.5970412906
 21
116.7654661753
 31
0.0
  0
LINE
  5
98
330
1F
100
AcDbEntity
  8
0
  6
Continuous
 62
     7
370
    15
100
AcDbLine
 10
779.1335257705
 20
81.7654697516
 30
0.0
 11
779.5970412906
 21
81.7654697516
 31
0.0
  0
LINE
  5
99
330
1F
100
AcDbEntity
  8
0
  6
Continuous
 62
     7
370
    15
100
AcDbLine
 10
779.1335257705
 20
369.7654573538
 30
0.0
 11
779.1335257705
 21
334.7654609301
 31
0.0
  0
LINE
  5
9A
330
1F
100
AcDbEntity
  8
0
  6
Continuous
 62
     7
370
    15
100
AcDbLine
 10
779.1335257705
 20
369.7654573538
 30
0.0
 11
779.5970412906
 21
369.7654573538
 31
0.0
  0
LINE
  5
9B
330
1F
100
AcDbEntity
  8
0
  6
Continuous
 62
     7
370
    15
100
AcDbLine
 10
779.1335257705
 20
334.7654609301
 30
0.0
 11
779.5970412906
 21
334.7654609301
 31
0.0
  0
LINE
  5
9C
330
1F
100
AcDbEntity
  8
0
  6
Continuous
 62
     7
370
    15
100
AcDbLine
 10
778.6956849511
 20
116.7654661753
 30
0.0
 11
779.1335257705
 21
116.7654661753
 31
0.0
  0
LINE
  5
9D
330
1F
100
AcDbEntity
  8
0
  6
Continuous
 62
     7
370
    15
100
AcDbLine
 10
778.6956849511
 20
81.7654697516
 30
0.0
 11
779.1335257705
 21
81.7654697516
 31
0.0
  0
LINE
  5
9E
330
1F
100
AcDbEntity
  8
0
  6
Continuous
 62
     7
370
    15
100
AcDbLine
 10
778.6956849511
 20
369.7654573538
 30
0.0
 11
779.1335257705
 21
369.7654573538
 31
0.0
  0
LINE
  5
9F
330
1F
100
AcDbEntity
  8
0
  6
Continuous
 62
     7
370
    15
100
AcDbLine
 10
778.6956849511
 20
334.7654609301
 30
0.0
 11
779.1335257705
 21
334.7654609301
 31
0.0
  0
ARC
  5
A0
330
1F
100
AcDbEntity
  8
0
  6
Continuous
 62
     7
370
    15
100
AcDbCircle
 10
371.5183642577
 20
231.1766281144
 30
0.0
 40
1.097816839157928
100
AcDbArc
 50
97.3339510799
 51
185.8117201705
  0
LINE
  5
A1
330
1F
100
AcDbEntity
  8
0
  6
Continuous
 62
     7
370
    15
100
AcDbLine
 10
371.3782253678
 20
232.2654636868
 30
0.0
 11
374.9216618951
 21
232.2654636868
 31
0.0
  0
LINE
  5
A2
330
1F
100
AcDbEntity
  8
0
  6
Continuous
 62
     7
370
    15
100
AcDbLine
 10
374.9216618951
 20
232.2654636868
 30
0.0
 11
374.9216618951
 21
219.2654634186
 31
0.0
  0
LINE
  5
A3
330
1F
100
AcDbEntity
  8
0
  6
Continuous
 62
     7
370
    15
100
AcDbLine
 10
374.9216618951
 20
219.2654634186
 30
0.0
 11
371.3782253678
 21
219.2654634186
 31
0.0
  0
ARC
  5
A4
330
1F
100
AcDbEntity
  8
0
  6
Continuous
 62
     7
370
    15
100
AcDbCircle
 10
371.5183642577
 20
220.3542989911
 30
0.0
 40
1.097816839157935
100
AcDbArc
 50
174.1882798295
 51
262.6660489201
  0
LINE
  5
A5
330
1F
100
AcDbEntity
  8
0
  6
Continuous
 62
     7
370
    15
100
AcDbLine
 10
370.4261901791
 20
231.065463397
 30
0.0
 11
370.4261901791
 21
220.4654637084
 31
0.0
  0
LINE
  5
A6
330
1F
100
AcDbEntity
  8
0
  6
Continuous
 62
     7
370
    15
100
AcDbLine
 10
371.3782253678
 20
219.2654634186
 30
0.0
 11
370.6477108414
 21
219.2654634186
 31
0.0
  0
ARC
  5
A7
330
1F
100
AcDbEntity
  8
0
  6
Continuous
 62
     7
370
    15
100
AcDbCircle
 10
370.7878497314
 20
220.3542989911
 30
0.0
 40
1.097816839157872
100
AcDbArc
 50
174.1882798295
 51
262.6660489201
  0
LINE
  5
A8
330
1F
100
AcDbEntity
  8
0
  6
Continuous
 62
     7
370
    15
100
AcDbLine
 10
369.6956756528
 20
220.4654637084
 30
0.0
 11
370.4261901791
 21
220.4654637084
 31
0.0
  0
LINE
  5
A9
330
1F
100
AcDbEntity
  8
0
  6
Continuous
 62
     7
370
    15
100
AcDbLine
 10
370.4261901791
 20
231.065463397
 30
0.0
 11
369.6956756528
 21
231.065463397
 31
0.0
  0
LINE
  5
AA
330
1F
100
AcDbEntity
  8
0
  6
Continuous
 62
     7
370
    15
100
AcDbLine
 10
369.6956756528
 20
231.065463397
 30
0.0
 11
369.6956756528
 21
220.4654637084
 31
0.0
  0
LINE
  5
AB
330
1F
100
AcDbEntity
  8
0
  6
Continuous
 62
     7
370
    15
100
AcDbLine
 10
370.6477108414
 20
232.2654636868
 30
0.0
 11
371.3782253678
 21
232.2654636868
 31
0.0
  0
ARC
  5
AC
330
1F
100
AcDbEntity
  8
0
  6
Continuous
 62
     7
370
    15
100
AcDbCircle
 10
370.7878497314
 20
231.1766281144
 30
0.0
 40
1.097816839157943
100
AcDbArc
 50
97.3339510799
 51
185.8117201705
  0
LINE
  5
AD
330
1F
100
AcDbEntity
  8
0
  6
Continuous
 62
     7
370
    15
100
AcDbLine
 10
375.0216188844
 20
232.2654636868
 30
0.0
 11
374.9216618951
 21
232.2654636868
 31
0.0
  0
LINE
  5
AE
330
1F
100
AcDbEntity
  8
0
  6
Continuous
 62
     7
370
    15
100
AcDbLine
 10
374.9216618951
 20
219.2654634186
 30
0.0
 11
375.0551912005
 21
219.2654634186
 31
0.0
  0
SPLINE
  5
AF
330
1F
100
AcDbEntity
  8
0
  6
Continuous
 62
     7
370
    15
100
AcDbSpline
210
0.0
220
0.0
230
1.0
 70
    24
 71
     3
 72
    12
 73
     8
 74
     0
 42
0.00000001
 43
0.00000001
 40
0.0
 40
0.0
 40
0.0
 40
0.0
 40
0.2185046622498982
 40
0.4370159030206627
 40
0.6555180100117202
 40
0.8740243431496125
 40
0.9999999999999999
 40
0.9999999999999999
 40
0.9999999999999999
 40
0.9999999999999999
 10
376.8550279553236
 20
232.457858632605
 30
0.0
 10
376.6583082886959
 20
232.457858632605
 30
0.0
 10
376.2648630328009
 20
232.457858632605
 30
0.0
 10
375.7041069909226
 20
232.457858632605
 30
0.0
 10
375.2864413553557
 20
232.457858632605
 30
0.0
 10
375.0598786364158
 20
232.457858632605
 30
0.0
 10
375.0774064729444
 20
232.457858632605
 30
0.0
 10
375.0838163311781
 20
232.457858632605
 30
0.0
  0
SPLINE
  5
B0
330
1F
100
AcDbEntity
  8
0
  6
Continuous
 62
     7
370
    15
100
AcDbSpline
210
0.0
220
0.0
230
1.0
 70
    24
 71
     3
 72
     9
 73
     5
 74
     0
 42
0.00000001
 43
0.00000001
 40
0.0
 40
0.0
 40
0.0
 40
0.0
 40
0.1970130322720919
 40
1.0
 40
1.0
 40
1.0
 40
1.0
 10
377.4956884796919
 20
232.457858632605
 30
0.0
 10
377.4630362837673
 20
232.457858632605
 30
0.0
 10
377.2973000603918
 20
232.457858632605
 30
0.0
 10
377.0520003921276
 20
232.457858632605
 30
0.0
 10
376.8550279553236
 20
232.457858632605
 30
0.0
  0
SPLINE
  5
B1
330
1F
100
AcDbEntity
  8
0
  6
Continuous
 62
     7
370
    15
100
AcDbSpline
210
0.0
220
0.0
230
1.0
 70
     8
 71
     3
 72
    13
 73
     9
 74
     0
 42
0.00000001
 43
0.00000001
 40
0.0
 40
0.0
 40
0.0
 40
0.0
 40
0.1877386539089659
 40
0.3754723399019311
 40
0.563210247197253
 40
0.7509479971675025
 40
0.9386849648529548
 40
1.0
 40
1.0
 40
1.0
 40
1.0
 10
376.5617433007063
 20
236.0726973333465
 30
0.0
 10
376.3650463413023
 20
236.0699985899418
 30
0.0
 10
375.9716576274639
 20
236.0646011745463
 30
0.0
 10
375.4386424169727
 20
235.7740597147342
 30
0.0
 10
375.0481246832681
 20
235.3191585392607
 30
0.0
 10
374.8751521659761
 20
234.7574821239374
 30
0.0
 10
374.8784498835977
 20
234.2842827989879
 30
0.0
 10
375.0057825037266
 20
234.0628511694804
 30
0.0
 10
375.0371309931577
 20
234.008336096357
 30
0.0
  0
SPLINE
  5
B2
330
1F
100
AcDbEntity
  8
0
  6
Continuous
 62
     7
370
    15
100
AcDbSpline
210
0.0
220
0.0
230
1.0
 70
     8
 71
     3
 72
    10
 73
     6
 74
     0
 42
0.00000001
 43
0.00000001
 40
0.0
 40
0.0
 40
0.0
 40
0.0
 40
0.2093392736738888
 40
0.6046681284542607
 40
1.0
 40
1.0
 40
1.0
 40
1.0
 10
377.6989105160536
 20
235.2665826969849
 30
0.0
 10
377.657208017547
 20
235.3596464124772
 30
0.0
 10
377.5367520167147
 20
235.6284572365817
 30
0.0
 10
377.1300488499103
 20
235.9451140241186
 30
0.0
 10
376.7511789656335
 20
236.0301694554276
 30
0.0
 10
376.5617433007063
 20
236.0726973333465
 30
0.0
  0
SPLINE
  5
B3
330
1F
100
AcDbEntity
  8
0
  6
Continuous
 62
     7
370
    15
100
AcDbSpline
210
0.0
220
0.0
230
1.0
 70
     8
 71
     3
 72
    13
 73
     9
 74
     0
 42
0.00000001
 43
0.00000001
 40
0.0
 40
0.0
 40
0.0
 40
0.0
 40
0.1768612988651324
 40
0.3537265060719917
 40
0.5305915684291158
 40
0.7074548346711061
 40
0.8843186579751815
 40
1.0
 40
1.0
 40
1.0
 40
1.0
 10
376.5445175583662
 20
215.4295105778681
 30
0.0
 10
376.3478504310429
 20
215.4322013485356
 30
0.0
 10
375.9545118303785
 20
215.437582949332
 30
0.0
 10
375.4211268060048
 20
215.7282580105634
 30
0.0
 10
375.0319961561568
 20
216.1826225169003
 30
0.0
 10
374.8538362075162
 20
216.7463157517945
 30
0.0
 10
374.8747986073471
 20
217.2794694424547
 30
0.0
 10
375.040891983066
 20
217.5527377892026
 30
0.0
 10
375.1065704043211
 20
217.6607964851963
 30
0.0
  0
SPLINE
  5
B4
330
1F
100
AcDbEntity
  8
0
  6
Continuous
 62
     7
370
    15
100
AcDbSpline
210
0.0
220
0.0
230
1.0
 70
     8
 71
     3
 72
    10
 73
     6
 74
     0
 42
0.00000001
 43
0.00000001
 40
0.0
 40
0.0
 40
0.0
 40
0.0
 40
0.0588268036387996
 40
0.5294118412591011
 40
1.0
 40
1.0
 40
1.0
 40
1.0
 10
377.5746348316969
 20
216.0294201516616
 30
0.0
 10
377.5639951351043
 20
216.0079399099475
 30
0.0
 10
377.4682431816568
 20
215.8146284666409
 30
0.0
 10
377.1074108632355
 20
215.5604313927161
 30
0.0
 10
376.7321490748039
 20
215.473150945964
 30
0.0
 10
376.5445175583662
 20
215.4295105778681
 30
0.0
  0
SPLINE
  5
B5
330
1F
100
AcDbEntity
  8
0
  6
Continuous
 62
     7
370
    15
100
AcDbSpline
210
0.0
220
0.0
230
1.0
 70
    24
 71
     3
 72
    12
 73
     8
 74
     0
 42
0.00000001
 43
0.00000001
 40
0.0
 40
0.0
 40
0.0
 40
0.0
 40
0.2193540129458531
 40
0.4387146299839778
 40
0.6580660777384292
 40
0.8774217680671946
 40
1.0
 40
1.0
 40
1.0
 40
1.0
 10
376.8550279553236
 20
218.8992278010654
 30
0.0
 10
376.6583129167486
 20
218.8992278010654
 30
0.0
 10
376.2648769170981
 20
218.8992278010654
 30
0.0
 10
375.7040514527502
 20
218.8992278010654
 30
0.0
 10
375.2866496152724
 20
218.8992278010654
 30
0.0
 10
375.0608043260407
 20
218.8992278010654
 30
0.0
 10
375.0777766931618
 20
218.8992278010654
 30
0.0
 10
375.0838610346617
 20
218.8992278010654
 30
0.0
  0
SPLINE
  5
B6
330
1F
100
AcDbEntity
  8
0
  6
Continuous
 62
     7
370
    15
100
AcDbSpline
210
0.0
220
0.0
230
1.0
 70
    24
 71
     3
 72
     9
 73
     5
 74
     0
 42
0.00000001
 43
0.00000001
 40
0.0
 40
0.0
 40
0.0
 40
0.0
 40
0.1970130322720919
 40
1.0
 40
1.0
 40
1.0
 40
1.0
 10
377.4956884796919
 20
218.8992278010654
 30
0.0
 10
377.4630362837673
 20
218.8992278010654
 30
0.0
 10
377.2973000603918
 20
218.8992278010654
 30
0.0
 10
377.0520003921276
 20
218.8992278010654
 30
0.0
 10
376.8550279553236
 20
218.8992278010654
 30
0.0
  0
SPLINE
  5
B7
330
1F
100
AcDbEntity
  8
0
  6
Continuous
 62
     7
370
    15
100
AcDbSpline
210
0.0
220
0.0
230
1.0
 70
     8
 71
     3
 72
    13
 73
     9
 74
     0
 42
0.00000001
 43
0.00000001
 40
0.0
 40
0.0
 40
0.0
 40
0.0
 40
0.1768612840288145
 40
0.3537263461533859
 40
0.5305916078062589
 40
0.7074548592117663
 40
0.8843186676793121
 40
0.9999999999999999
 40
0.9999999999999999
 40
0.9999999999999999
 40
0.9999999999999999
 10
374.9926659281553
 20
238.6891158589231
 30
0.0
 10
374.7959988544986
 20
238.6864250012846
 30
0.0
 10
374.4026605059999
 20
238.6810432285257
 30
0.0
 10
373.8692745714268
 20
238.3903695299974
 30
0.0
 10
373.4801448299088
 20
237.9360039139453
 30
0.0
 10
373.3019845145471
 20
237.3723107481266
 30
0.0
 10
373.322946986683
 20
236.8391569847333
 30
0.0
 10
373.4890403555605
 20
236.5658886448673
 30
0.0
 10
373.5547187741102
 20
236.457829951595
 30
0.0
  0
SPLINE
  5
B8
330
1F
100
AcDbEntity
  8
0
  6
Continuous
 62
     7
370
    15
100
AcDbSpline
210
0.0
220
0.0
230
1.0
 70
     8
 71
     3
 72
    10
 73
     6
 74
     0
 42
0.00000001
 43
0.00000001
 40
0.0
 40
0.0
 40
0.0
 40
0.0
 40
0.1474617340987049
 40
0.5737294534547281
 40
1.0
 40
1.0
 40
1.0
 40
1.0
 10
376.0812553580107
 20
237.9765898280846
 30
0.0
 10
376.053193245183
 20
238.0368839308201
 30
0.0
 10
375.9440119667055
 20
238.2714702309228
 30
0.0
 10
375.5589593301396
 20
238.5602913228139
 30
0.0
 10
375.1814308128037
 20
238.6461742519517
 30
0.0
 10
374.9926659281553
 20
238.6891158589231
 30
0.0
  0
SPLINE
  5
B9
330
1F
100
AcDbEntity
  8
0
  6
Continuous
 62
     7
370
    15
100
AcDbSpline
210
0.0
220
0.0
230
1.0
 70
     8
 71
     3
 72
    13
 73
     9
 74
     0
 42
0.00000001
 43
0.00000001
 40
0.0
 40
0.0
 40
0.0
 40
0.0
 40
0.1768612626718516
 40
0.3537264336846305
 40
0.5305914598477037
 40
0.7074541145323809
 40
0.8843186816484628
 40
1.0
 40
1.0
 40
1.0
 40
1.0
 10
374.9754401858152
 20
212.8130920522916
 30
0.0
 10
374.7787730606006
 20
212.8157828018539
 30
0.0
 10
374.3854344641534
 20
212.8211643604397
 30
0.0
 10
373.8520494081498
 20
213.1118397382564
 30
0.0
 10
373.4629193004607
 20
213.566202548867
 30
0.0
 10
373.2847584908056
 20
214.1299003188028
 30
0.0
 10
373.3057208751333
 20
214.6630495332396
 30
0.0
 10
373.4718146340884
 20
214.936319078007
 30
0.0
 10
373.5374930317701
 20
215.0443779596197
 30
0.0
  0
SPLINE
  5
BA
330
1F
100
AcDbEntity
  8
0
  6
Continuous
 62
     7
370
    15
100
AcDbSpline
210
0.0
220
0.0
230
1.0
 70
     8
 71
     3
 72
    10
 73
     6
 74
     0
 42
0.00000001
 43
0.00000001
 40
0.0
 40
0.0
 40
0.0
 40
0.0
 40
0.1474584088029793
 40
0.5737309105671331
 40
1.0
 40
1.0
 40
1.0
 40
1.0
 10
376.0640296156706
 20
213.52561808313
 30
0.0
 10
376.0359731545878
 20
213.465323781832
 30
0.0
 10
375.926811126495
 20
213.2307308232713
 30
0.0
 10
375.5417290496648
 20
212.9419206017446
 30
0.0
 10
375.1642026367435
 20
212.8560347875221
 30
0.0
 10
374.9754401858152
 20
212.8130920522916
 30
0.0
  0
LINE
  5
BB
330
1F
100
AcDbEntity
  8
0
  6
Continuous
 62
     7
370
    15
100
AcDbLine
 10
369.6956756528
 20
221.0654636205
 30
0.0
 11
369.5908757861
 21
221.0654636205
 31
0.0
  0
LINE
  5
BC
330
1F
100
AcDbEntity
  8
0
  6
Continuous
 62
     7
370
    15
100
AcDbLine
 10
369.6956756528
 20
229.6654634469
 30
0.0
 11
369.5908757861
 21
229.6654634469
 31
0.0
  0
LINE
  5
BD
330
1F
100
AcDbEntity
  8
0
  6
Continuous
 62
     7
370
    15
100
AcDbLine
 10
375.0216188844
 20
232.965463429
 30
0.0
 11
370.1956841166
 21
232.965463429
 31
0.0
  0
LINE
  5
BE
330
1F
100
AcDbEntity
  8
0
  6
Continuous
 62
     7
370
    15
100
AcDbLine
 10
375.1257481988
 20
233.7654639327
 30
0.0
 11
370.1962801631
 21
233.7654639327
 31
0.0
  0
LINE
  5
BF
330
1F
100
AcDbEntity
  8
0
  6
Continuous
 62
     7
370
    15
100
AcDbLine
 10
375.0216188844
 20
218.5654636764
 30
0.0
 11
370.1956841166
 21
218.5654636764
 31
0.0
  0
LINE
  5
C0
330
1F
100
AcDbEntity
  8
0
  6
Continuous
 62
     7
370
    15
100
AcDbLine
 10
375.0775429423
 20
217.7654631727
 30
0.0
 11
370.1962801631
 21
217.7654631727
 31
0.0
  0
LINE
  5
C1
330
1F
100
AcDbEntity
  8
0
  6
Continuous
 62
     7
370
    15
100
AcDbLine
 10
373.7956854518
 20
234.0654634231
 30
0.0
 11
374.9590340073
 21
234.0654634231
 31
0.0
  0
LINE
  5
C2
330
1F
100
AcDbEntity
  8
0
  6
Continuous
 62
     7
370
    15
100
AcDbLine
 10
371.5956780131
 20
234.0654634231
 30
0.0
 11
373.7956854518
 21
234.0654634231
 31
0.0
  0
LINE
  5
C3
330
1F
100
AcDbEntity
  8
0
  6
Continuous
 62
     7
370
    15
100
AcDbLine
 10
373.7956854518
 20
217.3654638522
 30
0.0
 11
374.8990717347
 21
217.3654638522
 31
0.0
  0
LINE
  5
C4
330
1F
100
AcDbEntity
  8
0
  6
Continuous
 62
     7
370
    15
100
AcDbLine
 10
371.6956797059
 20
217.3654638522
 30
0.0
 11
373.7956854518
 21
217.3654638522
 31
0.0
  0
LINE
  5
C5
330
1F
100
AcDbEntity
  8
0
  6
Continuous
 62
     7
370
    15
100
AcDbLine
 10
373.7956854518
 20
216.9654636004
 30
0.0
 11
374.6591928418
 21
216.9654636004
 31
0.0
  0
LINE
  5
C6
330
1F
100
AcDbEntity
  8
0
  6
Continuous
 62
     7
370
    15
100
AcDbLine
 10
371.6956797059
 20
216.9654636004
 30
0.0
 11
373.7956854518
 21
216.9654636004
 31
0.0
  0
ARC
  5
C7
330
1F
100
AcDbEntity
  8
0
  6
Continuous
 62
     7
370
    15
100
AcDbCircle
 10
370.6614359685
 20
218.5632094075
 30
0.0
 40
0.8027149752665016
100
AcDbArc
 50
179.8390957372
 51
234.5339323887
  0
ARC
  5
C8
330
1F
100
AcDbEntity
  8
0
  6
Continuous
 62
     7
370
    15
100
AcDbCircle
 10
370.6614359685
 20
232.9677176979
 30
0.0
 40
0.80271497526651
100
AcDbArc
 50
125.4660676112
 51
180.1609042628
  0
LINE
  5
C9
330
1F
100
AcDbEntity
  8
0
  6
Continuous
 62
     7
370
    15
100
AcDbLine
 10
370.646563452
 20
219.0154633776
 30
0.0
 11
370.646563452
 21
218.5654636764
 31
0.0
  0
LINE
  5
CA
330
1F
100
AcDbEntity
  8
0
  6
Continuous
 62
     7
370
    15
100
AcDbLine
 10
370.646563452
 20
232.965463429
 30
0.0
 11
370.646563452
 21
232.5154637278
 31
0.0
  0
LINE
  5
CB
330
1F
100
AcDbEntity
  8
0
  6
Continuous
 62
     7
370
    15
100
AcDbLine
 10
369.8587241586
 20
231.7370214791
 30
0.0
 11
369.8587241586
 21
232.965463429
 31
0.0
  0
LINE
  5
CC
330
1F
100
AcDbEntity
  8
0
  6
Continuous
 62
     7
370
    15
100
AcDbLine
 10
369.8587241586
 20
218.5654636764
 30
0.0
 11
369.8587241586
 21
219.7939056263
 31
0.0
  0
LINE
  5
CD
330
1F
100
AcDbEntity
  8
0
  6
Continuous
 62
     7
370
    15
100
AcDbLine
 10
779.5970412906
 20
80.765467725
 30
0.0
 11
779.5970412906
 21
45.7654564002
 31
0.0
  0
LINE
  5
CE
330
1F
100
AcDbEntity
  8
0
  6
Continuous
 62
     7
370
    15
100
AcDbLine
 10
790.1956859048
 20
80.765467725
 30
0.0
 11
779.5970412906
 21
80.765467725
 31
0.0
  0
LINE
  5
CF
330
1F
100
AcDbEntity
  8
0
  6
Continuous
 62
     7
370
    15
100
AcDbLine
 10
790.1956859048
 20
45.7654564002
 30
0.0
 11
779.5970412906
 21
45.7654564002
 31
0.0
  0
LINE
  5
D0
330
1F
100
AcDbEntity
  8
0
  6
Continuous
 62
     7
370
    15
100
AcDbLine
 10
779.5970412906
 20
405.7654707053
 30
0.0
 11
779.5970412906
 21
370.7654593804
 31
0.0
  0
LINE
  5
D1
330
1F
100
AcDbEntity
  8
0
  6
Continuous
 62
     7
370
    15
100
AcDbLine
 10
790.1956859048
 20
405.7654707053
 30
0.0
 11
779.5970412906
 21
405.7654707053
 31
0.0
  0
LINE
  5
D2
330
1F
100
AcDbEntity
  8
0
  6
Continuous
 62
     7
370
    15
100
AcDbLine
 10
790.1956859048
 20
370.7654593804
 30
0.0
 11
779.5970412906
 21
370.7654593804
 31
0.0
  0
LINE
  5
D3
330
1F
100
AcDbEntity
  8
0
  6
Continuous
 62
     7
370
    15
100
AcDbLine
 10
787.1956798251
 20
117.7654607513
 30
0.0
 11
782.1956845935
 21
117.7654607513
 31
0.0
  0
LINE
  5
D4
330
1F
100
AcDbEntity
  8
0
  6
Continuous
 62
     7
370
    15
100
AcDbLine
 10
782.1956845935
 20
333.7654663541
 30
0.0
 11
787.1956798251
 21
333.7654663541
 31
0.0
  0
LINE
  5
D5
330
1F
100
AcDbEntity
  8
0
  6
Continuous
 62
     7
370
    15
100
AcDbLine
 10
779.1335257705
 20
45.7654564002
 30
0.0
 11
779.1335257705
 21
80.765467725
 31
0.0
  0
LINE
  5
D6
330
1F
100
AcDbEntity
  8
0
  6
Continuous
 62
     7
370
    15
100
AcDbLine
 10
779.5970412906
 20
45.7654564002
 30
0.0
 11
779.1335257705
 21
45.7654564002
 31
0.0
  0
LINE
  5
D7
330
1F
100
AcDbEntity
  8
0
  6
Continuous
 62
     7
370
    15
100
AcDbLine
 10
779.1335257705
 20
80.765467725
 30
0.0
 11
779.5970412906
 21
80.765467725
 31
0.0
  0
LINE
  5
D8
330
1F
100
AcDbEntity
  8
0
  6
Continuous
 62
     7
370
    15
100
AcDbLine
 10
779.1335257705
 20
370.7654593804
 30
0.0
 11
779.1335257705
 21
405.7654707053
 31
0.0
  0
LINE
  5
D9
330
1F
100
AcDbEntity
  8
0
  6
Continuous
 62
     7
370
    15
100
AcDbLine
 10
779.1335257705
 20
405.7654707053
 30
0.0
 11
779.5970412906
 21
405.7654707053
 31
0.0
  0
LINE
  5
DA
330
1F
100
AcDbEntity
  8
0
  6
Continuous
 62
     7
370
    15
100
AcDbLine
 10
779.5970412906
 20
370.7654593804
 30
0.0
 11
779.1335257705
 21
370.7654593804
 31
0.0
  0
LINE
  5
DB
330
1F
100
AcDbEntity
  8
0
  6
Continuous
 62
     7
370
    15
100
AcDbLine
 10
779.1335257705
 20
405.7654707053
 30
0.0
 11
778.6956849511
 21
405.7654707053
 31
0.0
  0
LINE
  5
DC
330
1F
100
AcDbEntity
  8
0
  6
Continuous
 62
     7
370
    15
100
AcDbLine
 10
779.1335257705
 20
370.7654593804
 30
0.0
 11
778.6956849511
 21
370.7654593804
 31
0.0
  0
LINE
  5
DD
330
1F
100
AcDbEntity
  8
0
  6
Continuous
 62
     7
370
    15
100
AcDbLine
 10
779.1335257705
 20
45.7654564002
 30
0.0
 11
778.6956849511
 21
45.7654564002
 31
0.0
  0
LINE
  5
DE
330
1F
100
AcDbEntity
  8
0
  6
Continuous
 62
     7
370
    15
100
AcDbLine
 10
779.1335257705
 20
80.765467725
 30
0.0
 11
778.6956849511
 21
80.765467725
 31
0.0
  0
LINE
  5
DF
330
1F
100
AcDbEntity
  8
0
  6
Continuous
 62
     7
370
    15
100
AcDbLine
 10
373.4956803735
 20
232.5154637278
 30
0.0
 11
370.3956875022
 21
232.5154637278
 31
0.0
  0
LINE
  5
E0
330
1F
100
AcDbEntity
  8
0
  6
Continuous
 62
     7
370
    15
100
AcDbLine
 10
373.4956803735
 20
232.5154637278
 30
0.0
 11
375.0557574447
 21
232.5154637278
 31
0.0
  0
LINE
  5
E1
330
1F
100
AcDbEntity
  8
0
  6
Continuous
 62
     7
370
    15
100
AcDbLine
 10
373.4956803735
 20
219.0154633776
 30
0.0
 11
375.0551912005
 21
219.0154633776
 31
0.0
  0
LINE
  5
E2
330
1F
100
AcDbEntity
  8
0
  6
Continuous
 62
     7
370
    15
100
AcDbLine
 10
373.4956803735
 20
219.0154633776
 30
0.0
 11
370.3956875022
 21
219.0154633776
 31
0.0
  0
LINE
  5
E3
330
1F
100
AcDbEntity
  8
0
  6
Continuous
 62
     8
370
    15
100
AcDbLine
 10
373.4956803735
 20
232.5154637278
 30
0.0
 11
373.4956803735
 21
232.2654636868
 31
0.0
  0
LINE
  5
E4
330
1F
100
AcDbEntity
  8
0
  6
Continuous
 62
     8
370
    15
100
AcDbLine
 10
373.4956803735
 20
219.2654634186
 30
0.0
 11
373.4956803735
 21
219.0154633776
 31
0.0
  0
LINE
  5
E5
330
1F
100
AcDbEntity
  8
0
  6
Continuous
 62
     7
370
    15
100
AcDbLine
 10
329.3154283339
 20
232.2654636868
 30
0.0
 11
329.3154283339
 21
219.2654634186
 31
0.0
  0
SPLINE
  5
E6
330
1F
100
AcDbEntity
  8
0
  6
Continuous
 62
     7
370
    15
100
AcDbSpline
210
0.0
220
0.0
230
1.0
 70
     8
 71
     3
 72
    15
 73
    11
 74
     0
 42
0.00000001
 43
0.00000001
 40
0.0
 40
0.0
 40
0.0
 40
0.0
 40
0.135602058861544
 40
0.2953298300878975
 40
0.4038099788193052
 40
0.5319609770010262
 40
0.6738423089739348
 40
0.8261094297264101
 40
0.9126121841778267
 40
1.0
 40
1.0
 40
1.0
 40
1.0
 10
318.2954235846154
 20
220.3315087885665
 30
0.0
 10
318.3398052458836
 20
220.3241855760422
 30
0.0
 10
318.4364647552701
 20
220.3082362377455
 30
0.0
 10
318.6433142403804
 20
220.3559042088792
 30
0.0
 10
318.8365837995597
 20
220.443630900465
 30
0.0
 10
318.9831621086066
 20
220.5632938625454
 30
0.0
 10
319.0818700925861
 20
220.7141888075211
 30
0.0
 10
319.111530757534
 20
220.8360247258056
 30
0.0
 10
319.0903515764166
 20
220.9652882018309
 30
0.0
 10
319.0441002049517
 20
221.0319587019985
 30
0.0
 10
319.0208568150155
 20
221.0654636205243
 30
0.0
  0
SPLINE
  5
E7
330
1F
100
AcDbEntity
  8
0
  6
Continuous
 62
     7
370
    15
100
AcDbSpline
210
0.0
220
0.0
230
1.0
 70
     8
 71
     3
 72
    20
 73
    16
 74
     0
 42
0.00000001
 43
0.00000001
 40
0.0
 40
0.0
 40
0.0
 40
0.0
 40
0.0607085741192338
 40
0.226534012799414
 40
0.3908032763104429
 40
0.4705946569944333
 40
0.5476201957417955
 40
0.6228571249950487
 40
0.700336993143606
 40
0.7786470821529379
 40
0.856657488249033
 40
0.9330983925584173
 40
0.9703706611610308
 40
0.9892322599426742
 40
1.0
 40
1.0
 40
1.0
 40
1.0
 10
314.5592256361596
 20
221.0654636205243
 30
0.0
 10
314.6055001970195
 20
221.0121302227863
 30
0.0
 10
314.7781736968373
 20
220.8131166768237
 30
0.0
 10
315.1951471156506
 20
220.7951899399779
 30
0.0
 10
315.7601015495349
 20
220.7201669200059
 30
0.0
 10
316.2797143048345
 20
220.6772248491544
 30
0.0
 10
316.6736077208429
 20
220.6466737738154
 30
0.0
 10
317.0665186782046
 20
220.6189914949262
 30
0.0
 10
317.4476798493799
 20
220.5876837894549
 30
0.0
 10
317.8034037243218
 20
220.5552112928194
 30
0.0
 10
318.1060286503979
 20
220.5243858670287
 30
0.0
 10
318.298534901676
 20
220.5014831191642
 30
0.0
 10
318.3866667371083
 20
220.4934551695615
 30
0.0
 10
318.4320851251438
 20
220.4856614347364
 30
0.0
 10
318.4315364665237
 20
220.4896197904223
 30
0.0
 10
318.4313370758645
 20
220.4910583154368
 30
0.0
  0
SPLINE
  5
E8
330
1F
100
AcDbEntity
  8
0
  6
Continuous
 62
     7
370
    15
100
AcDbSpline
210
0.0
220
0.0
230
1.0
 70
     8
 71
     3
 72
    18
 73
    14
 74
     0
 42
0.00000001
 43
0.00000001
 40
0.0
 40
0.0
 40
0.0
 40
0.0
 40
0.0057535970888485
 40
0.1156385843098971
 40
0.2383929802035682
 40
0.3593082866915665
 40
0.4757058900773247
 40
0.5872127854377573
 40
0.7047325883999483
 40
0.8264986602681561
 40
0.8891455273680281
 40
0.9517928709230369
 40
1.0
 40
1.0
 40
1.0
 40
1.0
 10
318.802048164045
 20
229.7122875520097
 30
0.0
 10
318.7974010045139
 20
229.715241028915
 30
0.0
 10
318.7040001387703
 20
229.7746014399503
 30
0.0
 10
318.4816295243479
 20
229.7807838967009
 30
0.0
 10
318.0902573008447
 20
229.8399815799787
 30
0.0
 10
317.5783726387389
 20
229.8855279465772
 30
0.0
 10
317.0273416211824
 20
229.9316787319761
 30
0.0
 10
316.4652246854377
 20
229.9705765576016
 30
0.0
 10
315.9309509608748
 20
230.0153043017855
 30
0.0
 10
315.533303494507
 20
230.0563774249149
 30
0.0
 10
315.3185893896183
 20
230.0774971757935
 30
0.0
 10
315.2225209357164
 20
230.0797865770113
 30
0.0
 10
315.2070784498583
 20
230.0637114681408
 30
0.0
 10
315.2003629976861
 20
230.0567209080862
 30
0.0
  0
SPLINE
  5
E9
330
1F
100
AcDbEntity
  8
0
  6
Continuous
 62
     7
370
    15
100
AcDbSpline
210
0.0
220
0.0
230
1.0
 70
     8
 71
     3
 72
    12
 73
     8
 74
     0
 42
0.00000001
 43
0.00000001
 40
0.0
 40
0.0
 40
0.0
 40
0.0
 40
0.2236727509476532
 40
0.4523094217315529
 40
0.6822367932273121
 40
0.9102239414395977
 40
1.0
 40
1.0
 40
1.0
 40
1.0
 10
314.5011260086648
 20
230.8673142747091
 30
0.0
 10
314.488393774181
 20
230.8247663470141
 30
0.0
 10
314.4626467415526
 20
230.7387262348855
 30
0.0
 10
314.5837665697908
 20
230.6471111624895
 30
0.0
 10
314.8154497868825
 20
230.5508064152595
 30
0.0
 10
315.0602995796477
 20
230.4883145270281
 30
0.0
 10
315.2436354378277
 20
230.4935348279459
 30
0.0
 10
315.2954324061028
 20
230.4950096936034
 30
0.0
  0
SPLINE
  5
EA
330
1F
100
AcDbEntity
  8
0
  6
Continuous
 62
     7
370
    15
100
AcDbSpline
210
0.0
220
0.0
230
1.0
 70
     8
 71
     3
 72
    19
 73
    15
 74
     0
 42
0.00000001
 43
0.00000001
 40
0.0
 40
0.0
 40
0.0
 40
0.0
 40
0.0979036438947439
 40
0.1753770039599647
 40
0.2884815244310155
 40
0.3734518457223999
 40
0.4570025957245419
 40
0.6168869411769329
 40
0.6796661063441901
 40
0.7634256938114622
 40
0.8137533666286789
 40
0.8702968890124941
 40
0.9323986368212501
 40
1.0
 40
1.0
 40
1.0
 40
1.0
 10
314.6773620421044
 20
230.3721836128341
 30
0.0
 10
314.7278721639481
 20
230.3458066271468
 30
0.0
 10
314.8183520836549
 20
230.298556938174
 30
0.0
 10
315.1929936945855
 20
230.2379084777781
 30
0.0
 10
315.6795005728109
 20
230.1840212084995
 30
0.0
 10
316.2708300056568
 20
230.1307875507234
 30
0.0
 10
317.0249351629045
 20
230.0792389087241
 30
0.0
 10
317.6660280092145
 20
230.0122938479098
 30
0.0
 10
318.315304618969
 20
229.9767752399574
 30
0.0
 10
318.6936288286405
 20
230.05495814487
 30
0.0
 10
318.9454879190744
 20
230.1631636395325
 30
0.0
 10
319.0790713542233
 20
230.2514988773422
 30
0.0
 10
319.1408471270503
 20
230.3253424636488
 30
0.0
 10
319.0694033493405
 20
230.4058574388353
 30
0.0
 10
319.0321667963616
 20
230.4478219070541
 30
0.0
  0
SPLINE
  5
EB
330
1F
100
AcDbEntity
  8
0
  6
Continuous
 62
     7
370
    15
100
AcDbSpline
210
0.0
220
0.0
230
1.0
 70
     8
 71
     3
 72
    25
 73
    21
 74
     0
 42
0.00000001
 43
0.00000001
 40
0.0
 40
0.0
 40
0.0
 40
0.0
 40
0.0176268986139688
 40
0.0344971416267052
 40
0.0503142256529717
 40
0.0649729389596758
 40
0.0909449968710219
 40
0.1134387811518221
 40
0.1538399247604006
 40
0.1912341901110607
 40
0.2995707715536969
 40
0.3999635250422046
 40
0.5012957314817192
 40
0.5949061851878695
 40
0.6784873245539974
 40
0.7336303698616736
 40
0.8075203224127264
 40
0.8952853236680246
 40
0.9453087044794981
 40
0.9999999999999999
 40
0.9999999999999999
 40
0.9999999999999999
 40
0.9999999999999999
 10
318.6748518520943
 20
229.8222399608301
 30
0.0
 10
318.7145627637058
 20
229.8266340641213
 30
0.0
 10
318.7922799487869
 20
229.8352336485904
 30
0.0
 10
318.8941548467198
 20
229.8812399728766
 30
0.0
 10
318.9751689817748
 20
229.9401972785276
 30
0.0
 10
319.0513713713307
 20
230.0237734298799
 30
0.0
 10
319.1044168359451
 20
230.1274200715956
 30
0.0
 10
319.1285945609454
 20
230.2597528736911
 30
0.0
 10
319.1056853471887
 20
230.3916214547443
 30
0.0
 10
318.9344571996066
 20
230.6368303436917
 30
0.0
 10
318.5916662278582
 20
230.7239139410912
 30
0.0
 10
318.0965538489318
 20
230.7824680233726
 30
0.0
 10
317.4833414649378
 20
230.8408256035528
 30
0.0
 10
316.8338729601716
 20
230.8904474887976
 30
0.0
 10
316.2941711003273
 20
230.9299296507188
 30
0.0
 10
315.8481573229362
 20
230.9691048654331
 30
0.0
 10
315.4594560814141
 20
231.0073341096671
 30
0.0
 10
315.1992998053987
 20
231.0351749657549
 30
0.0
 10
315.0688517448289
 20
231.0576703420953
 30
0.0
 10
315.0601943711926
 20
231.070132971146
 30
0.0
 10
315.0556727224938
 20
231.07664206187
 30
0.0
  0
SPLINE
  5
EC
330
1F
100
AcDbEntity
  8
0
  6
Continuous
 62
     7
370
    15
100
AcDbSpline
210
0.0
220
0.0
230
1.0
 70
     8
 71
     3
 72
    12
 73
     8
 74
     0
 42
0.00000001
 43
0.00000001
 40
0.0
 40
0.0
 40
0.0
 40
0.0
 40
0.1756417497531074
 40
0.5723158160618502
 40
0.7586154621622485
 40
0.9207512259387527
 40
1.0
 40
1.0
 40
1.0
 40
1.0
 10
315.1439919048897
 20
230.2581543394434
 30
0.0
 10
315.0784341033494
 20
230.2489827857019
 30
0.0
 10
314.8648187941162
 20
230.2190979475499
 30
0.0
 10
314.6488861886438
 20
230.1451728683143
 30
0.0
 10
314.4877461243889
 20
229.9302324978048
 30
0.0
 10
314.4565207348568
 20
229.7700166710838
 30
0.0
 10
314.4874986149958
 20
229.6913531901345
 30
0.0
 10
314.4976689392678
 20
229.6655272425222
 30
0.0
  0
LINE
  5
ED
330
1F
100
AcDbEntity
  8
0
  6
Continuous
 62
     7
370
    15
100
AcDbLine
 10
314.6551891142
 20
220.967723179
 30
0.0
 11
313.5367228562
 21
220.967723179
 31
0.0
  0
LINE
  5
EE
330
1F
100
AcDbEntity
  8
0
  6
Continuous
 62
     7
370
    15
100
AcDbLine
 10
313.5367228562
 20
220.1677236066
 30
0.0
 11
315.2954324061
 21
220.1677236066
 31
0.0
  0
LINE
  5
EF
330
1F
100
AcDbEntity
  8
0
  6
Continuous
 62
     7
370
    15
100
AcDbLine
 10
312.1264322573
 20
233.7654639327
 30
0.0
 11
312.1264322573
 21
233.8189339557
 31
0.0
  0
LINE
  5
F0
330
1F
100
AcDbEntity
  8
0
  6
Continuous
 62
     7
370
    15
100
AcDbLine
 10
309.1264410788
 20
233.8189339557
 30
0.0
 11
309.1264410788
 21
233.7654639327
 31
0.0
  0
SPLINE
  5
F1
330
1F
100
AcDbEntity
  8
0
  6
Continuous
 62
     7
370
    15
100
AcDbSpline
210
0.0
220
0.0
230
1.0
 70
     8
 71
     3
 72
    15
 73
    11
 74
     0
 42
0.00000001
 43
0.00000001
 40
0.0
 40
0.0
 40
0.0
 40
0.0
 40
0.1077551316558015
 40
0.2352510952770178
 40
0.362790812364346
 40
0.4902565964082815
 40
0.6176631519439536
 40
0.7450970655907955
 40
0.8724965291587299
 40
1.0
 40
1.0
 40
1.0
 40
1.0
 10
309.1424896294228
 20
217.7654631727444
 30
0.0
 10
309.1590288579233
 20
217.4529421556227
 30
0.0
 10
309.1951373156825
 20
216.7706460046624
 30
0.0
 10
309.5313508091061
 20
215.7614975407521
 30
0.0
 10
310.0894250138422
 20
214.7980134736431
 30
0.0
 10
310.8442582634057
 20
213.977094038918
 30
0.0
 10
311.7594172871891
 20
213.3418221975296
 30
0.0
 10
312.7866728282889
 20
212.9216602141802
 30
0.0
 10
313.8826530117621
 20
212.7078540822645
 30
0.0
 10
314.6184122191108
 20
212.773384456259
 30
0.0
 10
314.9864419275872
 20
212.8061630123364
 30
0.0
  0
SPLINE
  5
F2
330
1F
100
AcDbEntity
  8
0
  6
Continuous
 62
     7
370
    15
100
AcDbSpline
210
0.0
220
0.0
230
1.0
 70
     8
 71
     3
 72
    15
 73
    11
 74
     0
 42
0.00000001
 43
0.00000001
 40
0.0
 40
0.0
 40
0.0
 40
0.0
 40
0.1316513793982363
 40
0.2633123552697588
 40
0.395190927607284
 40
0.5266703381515704
 40
0.6575463376361302
 40
0.7882131913326652
 40
0.9184592834300639
 40
1.0
 40
1.0
 40
1.0
 40
1.0
 10
314.4887580448739
 20
215.7638479315745
 30
0.0
 10
314.3365740347728
 20
215.7520335162011
 30
0.0
 10
314.0321949214107
 20
215.7284038242653
 30
0.0
 10
313.5813353453256
 20
215.8298855040732
 30
0.0
 10
313.1623015741506
 20
216.016732979684
 30
0.0
 10
312.7919053585875
 20
216.2893291698013
 30
0.0
 10
312.4896555861937
 20
216.6352470578017
 30
0.0
 10
312.2704822319382
 20
217.0369462376773
 30
0.0
 10
312.1531271723333
 20
217.4232650250857
 30
0.0
 10
312.1429442846816
 20
217.67033714546
 30
0.0
 10
312.1390237385384
 20
217.7654631727444
 30
0.0
  0
SPLINE
  5
F3
330
1F
100
AcDbEntity
  8
0
  6
Continuous
 62
     7
370
    15
100
AcDbSpline
210
0.0
220
0.0
230
1.0
 70
     8
 71
     3
 72
    15
 73
    11
 74
     0
 42
0.00000001
 43
0.00000001
 40
0.0
 40
0.0
 40
0.0
 40
0.0
 40
0.1249271906275216
 40
0.249915789652317
 40
0.3749663998403169
 40
0.4999572007284043
 40
0.6249201443926174
 40
0.7499168437685625
 40
0.8748738700208343
 40
1.0
 40
1.0
 40
1.0
 40
1.0
 10
315.157313542997
 20
238.6959843629109
 30
0.0
 10
314.790936892595
 20
238.7393163541822
 30
0.0
 10
314.0580034980676
 20
238.8260016367167
 30
0.0
 10
312.953979745046
 20
238.6608112199738
 30
0.0
 10
311.913182623214
 20
238.2718784382265
 30
0.0
 10
310.9779867065128
 20
237.6668718917032
 30
0.0
 10
310.1973529478257
 20
236.8706671161747
 30
0.0
 10
309.6093770806187
 20
235.9263138088405
 30
0.0
 10
309.2135546684727
 20
234.8778648493937
 30
0.0
 10
309.1554920291607
 20
234.1387442388617
 30
0.0
 10
309.126441078817
 20
233.7689340406167
 30
0.0
  0
SPLINE
  5
F4
330
1F
100
AcDbEntity
  8
0
  6
Continuous
 62
     7
370
    15
100
AcDbSpline
210
0.0
220
0.0
230
1.0
 70
     8
 71
     3
 72
    15
 73
    11
 74
     0
 42
0.00000001
 43
0.00000001
 40
0.0
 40
0.0
 40
0.0
 40
0.0
 40
0.1242534720470509
 40
0.248633210933313
 40
0.3735414230574111
 40
0.4985818114820442
 40
0.6236639178100216
 40
0.7490699577188065
 40
0.8744364287135616
 40
0.9999999999999999
 40
0.9999999999999999
 40
0.9999999999999999
 40
0.9999999999999999
 10
312.1264322573296
 20
233.7689340406167
 30
0.0
 10
312.1399958985984
 20
233.9208898185157
 30
0.0
 10
312.1671369645586
 20
234.2249557923389
 30
0.0
 10
312.3415910581099
 20
234.6522765492136
 30
0.0
 10
312.5949250182245
 20
235.0339122545724
 30
0.0
 10
312.9247417842244
 20
235.3538504973804
 30
0.0
 10
313.3156738217126
 20
235.5944191549718
 30
0.0
 10
313.7483700839056
 20
235.7460450091487
 30
0.0
 10
314.2059017914207
 20
235.7995027988316
 30
0.0
 10
314.5078212156027
 20
235.7588130403115
 30
0.0
 10
314.6588995033852
 20
235.7384521805751
 30
0.0
  0
LINE
  5
F5
330
1F
100
AcDbEntity
  8
0
  6
Continuous
 62
     7
370
    15
100
AcDbLine
 10
330.0294919783
 20
218.3806003363
 30
0.0
 11
314.4885345275
 21
215.7641822764
 31
0.0
  0
LINE
  5
F6
330
1F
100
AcDbEntity
  8
0
  6
Continuous
 62
     7
370
    15
100
AcDbLine
 10
314.9865909392
 20
212.8058146977
 30
0.0
 11
330.5275632912
 21
215.4222332233
 31
0.0
  0
LINE
  5
F7
330
1F
100
AcDbEntity
  8
0
  6
Continuous
 62
     7
370
    15
100
AcDbLine
 10
314.6591081196
 20
235.7380265662
 30
0.0
 11
330.2000804717
 21
233.1216075749
 31
0.0
  0
LINE
  5
F8
330
1F
100
AcDbEntity
  8
0
  6
Continuous
 62
     7
370
    15
100
AcDbLine
 10
330.6981368834
 20
236.0799746879
 30
0.0
 11
315.1571794325
 21
238.6963932135
 31
0.0
  0
SPLINE
  5
F9
330
1F
100
AcDbEntity
  8
0
  6
Continuous
 62
     7
370
    15
100
AcDbSpline
210
0.0
220
0.0
230
1.0
 70
     8
 71
     3
 72
    12
 73
     8
 74
     0
 42
0.00000001
 43
0.00000001
 40
0.0
 40
0.0
 40
0.0
 40
0.0
 40
0.1526137250823502
 40
0.2973904385919474
 40
0.5623704151018883
 40
0.7966025483336754
 40
1.0
 40
1.0
 40
1.0
 40
1.0
 10
330.5272056633584
 20
215.4225424223649
 30
0.0
 10
330.7784252340247
 20
215.4752805237388
 30
0.0
 10
331.267963761854
 20
215.5780485224207
 30
0.0
 10
332.1174864883365
 20
216.007293522859
 30
0.0
 10
332.929477352013
 20
216.7516882307196
 30
0.0
 10
333.4939235326162
 20
217.8227276983194
 30
0.0
 10
333.5756123134203
 20
218.5576550356005
 30
0.0
 10
333.6135788733117
 20
218.8992278010654
 30
0.0
  0
SPLINE
  5
FA
330
1F
100
AcDbEntity
  8
0
  6
Continuous
 62
     7
370
    15
100
AcDbSpline
210
0.0
220
0.0
230
1.0
 70
     8
 71
     3
 72
    11
 73
     7
 74
     0
 42
0.00000001
 43
0.00000001
 40
0.0
 40
0.0
 40
0.0
 40
0.0
 40
0.2003563298768963
 40
0.4328062455845991
 40
0.6990171522960194
 40
0.9999999999999999
 40
0.9999999999999999
 40
0.9999999999999999
 40
0.9999999999999999
 10
330.6152566248528
 20
218.8992278010654
 30
0.0
 10
330.6020291092387
 20
218.8428010709298
 30
0.0
 10
330.5734552609612
 20
218.7209090336999
 30
0.0
 10
330.4575710672508
 20
218.555212942011
 30
0.0
 10
330.2728247138904
 20
218.4162989010724
 30
0.0
 10
330.1152047077862
 20
218.3929122625809
 30
0.0
 10
330.0315632397286
 20
218.3805020817625
 30
0.0
  0
SPLINE
  5
FB
330
1F
100
AcDbEntity
  8
0
  6
Continuous
 62
     7
370
    15
100
AcDbSpline
210
0.0
220
0.0
230
1.0
 70
     8
 71
     3
 72
    12
 73
     8
 74
     0
 42
0.00000001
 43
0.00000001
 40
0.0
 40
0.0
 40
0.0
 40
0.0
 40
0.2034068608886776
 40
0.4376404703532427
 40
0.7026158883870809
 40
0.8473899262385748
 40
1.0
 40
1.0
 40
1.0
 40
1.0
 10
333.6135788733117
 20
232.457858632605
 30
0.0
 10
333.5921375442405
 20
232.800867191835
 30
0.0
 10
333.5460054064224
 20
233.5388679974163
 30
0.0
 10
333.0339130759505
 20
234.6359816673614
 30
0.0
 10
332.2587049845469
 20
235.4187351583419
 30
0.0
 10
331.4308538208151
 20
235.8884642882598
 30
0.0
 10
330.9468652944614
 20
236.0147252894443
 30
0.0
 10
330.6984945112816
 20
236.0795192712056
 30
0.0
  0
SPLINE
  5
FC
330
1F
100
AcDbEntity
  8
0
  6
Continuous
 62
     7
370
    15
100
AcDbSpline
210
0.0
220
0.0
230
1.0
 70
     8
 71
     3
 72
    12
 73
     8
 74
     0
 42
0.00000001
 43
0.00000001
 40
0.0
 40
0.0
 40
0.0
 40
0.0
 40
0.1555606195731052
 40
0.3022089924266109
 40
0.5679713858311382
 40
0.7999469279268913
 40
1.0
 40
1.0
 40
1.0
 40
1.0
 10
330.1981582218758
 20
233.1225258589791
 30
0.0
 10
330.2387052772746
 20
233.1067767159158
 30
0.0
 10
330.3174764006577
 20
233.0761807162998
 30
0.0
 10
330.4471066719353
 20
232.9811340224087
 30
0.0
 10
330.5615415659591
 20
232.8349634266671
 30
0.0
 10
330.6256745914628
 20
232.6407076101775
 30
0.0
 10
330.6185538984022
 20
232.5157301078985
 30
0.0
 10
330.6152566248528
 20
232.457858632605
 30
0.0
  0
LINE
  5
FD
330
1F
100
AcDbEntity
  8
0
  6
Continuous
 62
     7
370
    15
100
AcDbLine
 10
330.6144221598
 20
232.5078585477
 30
0.0
 11
330.6144221598
 21
232.2654636868
 31
0.0
  0
LINE
  5
FE
330
1F
100
AcDbEntity
  8
0
  6
Continuous
 62
     7
370
    15
100
AcDbLine
 10
330.6144221598
 20
219.2654634186
 30
0.0
 11
330.6144221598
 21
218.849227886
 31
0.0
  0
LINE
  5
FF
330
1F
100
AcDbEntity
  8
0
  6
Continuous
 62
     7
370
    15
100
AcDbLine
 10
333.6144133383
 20
218.849227886
 30
0.0
 11
333.6144133383
 21
219.2682080262
 31
0.0
  0
LINE
  5
100
330
1F
100
AcDbEntity
  8
0
  6
Continuous
 62
     7
370
    15
100
AcDbLine
 10
333.6144133383
 20
232.2627190792
 30
0.0
 11
333.6144133383
 21
232.5078585477
 31
0.0
  0
LINE
  5
101
330
1F
100
AcDbEntity
  8
0
  6
Continuous
 62
     7
370
    15
100
AcDbLine
 10
319.9137045914
 20
231.365463353
 30
0.0
 11
318.2954235846
 21
231.365463353
 31
0.0
  0
LINE
  5
102
330
1F
100
AcDbEntity
  8
0
  6
Continuous
 62
     7
370
    15
100
AcDbLine
 10
318.9223452384
 20
230.5654637807
 30
0.0
 11
319.9137045914
 21
230.5654637807
 31
0.0
  0
LINE
  5
103
330
1F
100
AcDbEntity
  8
0
  6
Continuous
 62
     7
370
    15
100
AcDbLine
 10
320.2519311482
 20
232.6336024621
 30
0.0
 11
319.9854089791
 21
231.4253553108
 31
0.0
  0
LINE
  5
104
330
1F
100
AcDbEntity
  8
0
  6
Continuous
 62
     7
370
    15
100
AcDbLine
 10
320.7535638386
 20
231.1938052357
 30
0.0
 11
321.033139425
 21
232.4612747238
 31
0.0
  0
SPLINE
  5
105
330
1F
100
AcDbEntity
  8
0
  6
Continuous
 62
     7
370
    15
100
AcDbSpline
210
0.0
220
0.0
230
1.0
 70
     8
 71
     3
 72
    11
 73
     7
 74
     0
 42
0.00000001
 43
0.00000001
 40
0.0
 40
0.0
 40
0.0
 40
0.0
 40
0.2541315534387046
 40
0.5022702145093869
 40
0.7495144296499624
 40
1.0
 40
1.0
 40
1.0
 40
1.0
 10
319.9137045914284
 20
230.5654637807118
 30
0.0
 10
320.0137933767608
 20
230.5757098750517
 30
0.0
 10
320.2116106686267
 20
230.5959604418639
 30
0.0
 10
320.4697554002618
 20
230.7499931787894
 30
0.0
 10
320.673205977607
 20
230.9690656595286
 30
0.0
 10
320.7349388574461
 20
231.1561167102941
 30
0.0
 10
320.7660063082329
 20
231.250251299988
 30
0.0
  0
LINE
  5
106
330
1F
100
AcDbEntity
  8
0
  6
Continuous
 62
     7
370
    15
100
AcDbLine
 10
319.5254250342
 20
232.965463429
 30
0.0
 11
319.5254250342
 21
233.7654639327
 31
0.0
  0
LINE
  5
107
330
1F
100
AcDbEntity
  8
0
  6
Continuous
 62
     7
370
    15
100
AcDbLine
 10
319.5254250342
 20
217.7654631727
 30
0.0
 11
319.5254250342
 21
218.5654636764
 31
0.0
  0
ARC
  5
108
330
1F
100
AcDbEntity
  8
0
  6
Continuous
 62
     7
370
    15
100
AcDbCircle
 10
316.795428167
 20
230.9583206956
 30
0.0
 40
3.807142857143245
100
AcDbArc
 50
54.6997515601
 51
125.3002484399
  0
LINE
  5
109
330
1F
100
AcDbEntity
  8
0
  6
Continuous
 62
     7
370
    15
100
AcDbLine
 10
314.5954354579
 20
234.0654634231
 30
0.0
 11
314.5954354579
 21
233.7654639327
 31
0.0
  0
LINE
  5
10A
330
1F
100
AcDbEntity
  8
0
  6
Continuous
 62
     7
370
    15
100
AcDbLine
 10
318.995435434
 20
233.7654639327
 30
0.0
 11
318.995435434
 21
234.0654634231
 31
0.0
  0
LINE
  5
10B
330
1F
100
AcDbEntity
  8
0
  6
Continuous
 62
     7
370
    15
100
AcDbLine
 10
314.6954222495
 20
217.3654638522
 30
0.0
 11
314.6954222495
 21
216.9654636004
 31
0.0
  0
LINE
  5
10C
330
1F
100
AcDbEntity
  8
0
  6
Continuous
 62
     7
370
    15
100
AcDbLine
 10
318.8954337412
 20
216.9654636004
 30
0.0
 11
318.8954337412
 21
217.3654638522
 31
0.0
  0
ARC
  5
10D
330
1F
100
AcDbEntity
  8
0
  6
Continuous
 62
     7
370
    15
100
AcDbCircle
 10
314.895428167
 20
217.7654635528
 30
0.0
 40
0.4000000000008299
100
AcDbArc
 50
270.0
 51
0.0
  0
ARC
  5
10E
330
1F
100
AcDbEntity
  8
0
  6
Continuous
 62
     7
370
    15
100
AcDbCircle
 10
318.695428167
 20
217.7654635528
 30
0.0
 40
0.4000000000007731
100
AcDbArc
 50
180.0
 51
270.0
  0
LINE
  5
10F
330
1F
100
AcDbEntity
  8
0
  6
Continuous
 62
     7
370
    15
100
AcDbLine
 10
315.2954324061
 20
232.965463429
 30
0.0
 11
315.2954324061
 21
232.5154637278
 31
0.0
  0
LINE
  5
110
330
1F
100
AcDbEntity
  8
0
  6
Continuous
 62
     7
370
    15
100
AcDbLine
 10
315.2954324061
 20
231.5154635639
 30
0.0
 11
315.2954324061
 21
231.0267590278
 31
0.0
  0
LINE
  5
111
330
1F
100
AcDbEntity
  8
0
  6
Continuous
 62
     7
370
    15
100
AcDbLine
 10
315.2954324061
 20
230.2306444676
 30
0.0
 11
315.2954324061
 21
230.0749473565
 31
0.0
  0
LINE
  5
112
330
1F
100
AcDbEntity
  8
0
  6
Continuous
 62
     7
370
    15
100
AcDbLine
 10
315.2954324061
 20
220.7758367353
 30
0.0
 11
315.2954324061
 21
220.0154635415
 31
0.0
  0
LINE
  5
113
330
1F
100
AcDbEntity
  8
0
  6
Continuous
 62
     7
370
    15
100
AcDbLine
 10
315.2954324061
 20
219.0154633776
 30
0.0
 11
315.2954324061
 21
218.5654636764
 31
0.0
  0
LINE
  5
114
330
1F
100
AcDbEntity
  8
0
  6
Continuous
 62
     7
370
    15
100
AcDbLine
 10
318.2954235846
 20
218.5654636764
 30
0.0
 11
318.2954235846
 21
219.0154633776
 31
0.0
  0
LINE
  5
115
330
1F
100
AcDbEntity
  8
0
  6
Continuous
 62
     7
370
    15
100
AcDbLine
 10
318.2954235846
 20
220.0154635415
 30
0.0
 11
318.2954235846
 21
220.502605784
 31
0.0
  0
LINE
  5
116
330
1F
100
AcDbEntity
  8
0
  6
Continuous
 62
     7
370
    15
100
AcDbLine
 10
318.2954235846
 20
229.8105229915
 30
0.0
 11
318.2954235846
 21
229.9984615588
 31
0.0
  0
LINE
  5
117
330
1F
100
AcDbEntity
  8
0
  6
Continuous
 62
     7
370
    15
100
AcDbLine
 10
318.2954235846
 20
230.7535406494
 30
0.0
 11
318.2954235846
 21
231.5154635639
 31
0.0
  0
LINE
  5
118
330
1F
100
AcDbEntity
  8
0
  6
Continuous
 62
     7
370
    15
100
AcDbLine
 10
318.2954235846
 20
232.5154637278
 30
0.0
 11
318.2954235846
 21
232.965463429
 31
0.0
  0
LINE
  5
119
330
1F
100
AcDbEntity
  8
0
  6
Continuous
 62
     7
370
    15
100
AcDbLine
 10
329.8940404231
 20
232.2654636868
 30
0.0
 11
329.8940404231
 21
219.2654634186
 31
0.0
  0
LINE
  5
11A
330
1F
100
AcDbEntity
  8
0
  6
Continuous
 62
     7
370
    15
100
AcDbLine
 10
329.8940404231
 20
232.2654636868
 30
0.0
 11
332.6130255038
 21
232.2654636868
 31
0.0
  0
LWPOLYLINE
  5
11B
330
1F
100
AcDbEntity
  8
0
  6
Continuous
 62
     7
370
    15
100
AcDbPolyline
 90
        9
 70
   128
 43
0.0
 10
333.3435400302
 20
231.065463397
 10
333.3295031363
 20
231.2995718152
 10
333.2879288966
 20
231.5246836574
 10
333.2204117352
 20
231.7321478681
 10
333.1295742566
 20
231.9139918604
 10
333.0188735301
 20
232.0632269898
 10
332.8925712878
 20
232.1741191031
 10
332.7555402094
 20
232.2424060025
 10
332.6130255038
 20
232.2654636868
  0
LINE
  5
11C
330
1F
100
AcDbEntity
  8
0
  6
Continuous
 62
     7
370
    15
100
AcDbLine
 10
333.3435400302
 20
231.065463397
 30
0.0
 11
333.3435400302
 21
220.4654637084
 31
0.0
  0
LWPOLYLINE
  5
11D
330
1F
100
AcDbEntity
  8
0
  6
Continuous
 62
     7
370
    15
100
AcDbPolyline
 90
        9
 70
   128
 43
0.0
 10
332.6130255038
 20
219.2654634186
 10
332.7555402094
 20
219.2885211029
 10
332.8925712878
 20
219.3568080024
 10
333.0188735301
 20
219.4677001157
 10
333.1295742566
 20
219.616935245
 10
333.2204117352
 20
219.7987792374
 10
333.2879288966
 20
220.0062434481
 10
333.3295031363
 20
220.2313552902
 10
333.3435400302
 20
220.4654637084
  0
LINE
  5
11E
330
1F
100
AcDbEntity
  8
0
  6
Continuous
 62
     7
370
    15
100
AcDbLine
 10
332.6130255038
 20
219.2654634186
 30
0.0
 11
329.8940404231
 21
219.2654634186
 31
0.0
  0
LINE
  5
11F
330
1F
100
AcDbEntity
  8
0
  6
Continuous
 62
     7
370
    15
100
AcDbLine
 10
333.5650457913
 20
219.2654634186
 30
0.0
 11
332.6130255038
 21
219.2654634186
 31
0.0
  0
LINE
  5
120
330
1F
100
AcDbEntity
  8
0
  6
Continuous
 62
     7
370
    15
100
AcDbLine
 10
333.3435400302
 20
220.4654637084
 30
0.0
 11
334.2955603177
 21
220.4654637084
 31
0.0
  0
LWPOLYLINE
  5
121
330
1F
100
AcDbEntity
  8
0
  6
Continuous
 62
     7
370
    15
100
AcDbPolyline
 90
        9
 70
   128
 43
0.0
 10
334.2955603177
 20
220.4654637084
 10
334.2815234238
 20
220.2313552902
 10
334.2399491841
 20
220.0062434481
 10
334.1724469239
 20
219.7987792374
 10
334.0815945441
 20
219.616935245
 10
333.9708938176
 20
219.4677001157
 10
333.8445915753
 20
219.3568080024
 10
333.707560497
 20
219.2885211029
 10
333.5650457913
 20
219.2654634186
  0
LINE
  5
122
330
1F
100
AcDbEntity
  8
0
  6
Continuous
 62
     7
370
    15
100
AcDbLine
 10
332.6130255038
 20
232.2654636868
 30
0.0
 11
333.5650457913
 21
232.2654636868
 31
0.0
  0
LWPOLYLINE
  5
123
330
1F
100
AcDbEntity
  8
0
  6
Continuous
 62
     7
370
    15
100
AcDbPolyline
 90
        9
 70
   128
 43
0.0
 10
333.5650457913
 20
232.2654636868
 10
333.707560497
 20
232.2424060025
 10
333.8445915753
 20
232.1741191031
 10
333.9708938176
 20
232.0632269898
 10
334.0815945441
 20
231.9139918604
 10
334.1724469239
 20
231.7321478681
 10
334.2399491841
 20
231.5246836574
 10
334.2815234238
 20
231.2995718152
 10
334.2955603177
 20
231.065463397
  0
LINE
  5
124
330
1F
100
AcDbEntity
  8
0
  6
Continuous
 62
     7
370
    15
100
AcDbLine
 10
334.2955603177
 20
231.065463397
 30
0.0
 11
333.3435400302
 21
231.065463397
 31
0.0
  0
LINE
  5
125
330
1F
100
AcDbEntity
  8
0
  6
Continuous
 62
     7
370
    15
100
AcDbLine
 10
334.2955603177
 20
231.065463397
 30
0.0
 11
334.2955603177
 21
220.4654637084
 31
0.0
  0
LINE
  5
126
330
1F
100
AcDbEntity
  8
0
  6
Continuous
 62
     7
370
    15
100
AcDbLine
 10
329.3154283339
 20
232.2654636868
 30
0.0
 11
329.8940404231
 21
232.2654636868
 31
0.0
  0
LINE
  5
127
330
1F
100
AcDbEntity
  8
0
  6
Continuous
 62
     7
370
    15
100
AcDbLine
 10
329.8940404231
 20
219.2654634186
 30
0.0
 11
329.3154283339
 21
219.2654634186
 31
0.0
  0
LINE
  5
128
330
1F
100
AcDbEntity
  8
0
  6
Continuous
 62
     7
370
    15
100
AcDbLine
 10
339.4154353911
 20
218.8654636324
 30
0.0
 11
340.2154340321
 21
218.8654636324
 31
0.0
  0
LINE
  5
129
330
1F
100
AcDbEntity
  8
0
  6
Continuous
 62
     7
370
    15
100
AcDbLine
 10
340.2154340321
 20
218.8654636324
 30
0.0
 11
340.2154340321
 21
220.3654634127
 31
0.0
  0
LINE
  5
12A
330
1F
100
AcDbEntity
  8
0
  6
Continuous
 62
     7
370
    15
100
AcDbLine
 10
340.2154340321
 20
220.3654634127
 30
0.0
 11
341.7154296214
 21
220.3654634127
 31
0.0
  0
LINE
  5
12B
330
1F
100
AcDbEntity
  8
0
  6
Continuous
 62
     7
370
    15
100
AcDbLine
 10
341.7154296214
 20
220.3654634127
 30
0.0
 11
341.7154296214
 21
221.1654634507
 31
0.0
  0
LINE
  5
12C
330
1F
100
AcDbEntity
  8
0
  6
Continuous
 62
     7
370
    15
100
AcDbLine
 10
341.7154296214
 20
221.1654634507
 30
0.0
 11
340.2154340321
 21
221.1654634507
 31
0.0
  0
LINE
  5
12D
330
1F
100
AcDbEntity
  8
0
  6
Continuous
 62
     7
370
    15
100
AcDbLine
 10
340.2154340321
 20
221.1654634507
 30
0.0
 11
340.2154340321
 21
222.6654634637
 31
0.0
  0
LINE
  5
12E
330
1F
100
AcDbEntity
  8
0
  6
Continuous
 62
     7
370
    15
100
AcDbLine
 10
340.2154340321
 20
222.6654634637
 30
0.0
 11
339.4154353911
 21
222.6654634637
 31
0.0
  0
LINE
  5
12F
330
1F
100
AcDbEntity
  8
0
  6
Continuous
 62
     7
370
    15
100
AcDbLine
 10
339.4154353911
 20
222.6654634637
 30
0.0
 11
339.4154353911
 21
221.1654634507
 31
0.0
  0
LINE
  5
130
330
1F
100
AcDbEntity
  8
0
  6
Continuous
 62
     7
370
    15
100
AcDbLine
 10
339.4154353911
 20
221.1654634507
 30
0.0
 11
337.9154249007
 21
221.1654634507
 31
0.0
  0
LINE
  5
131
330
1F
100
AcDbEntity
  8
0
  6
Continuous
 62
     7
370
    15
100
AcDbLine
 10
337.9154249007
 20
221.1654634507
 30
0.0
 11
337.9154249007
 21
220.3654634127
 31
0.0
  0
LINE
  5
132
330
1F
100
AcDbEntity
  8
0
  6
Continuous
 62
     7
370
    15
100
AcDbLine
 10
337.9154249007
 20
220.3654634127
 30
0.0
 11
339.4154353911
 21
220.3654634127
 31
0.0
  0
LINE
  5
133
330
1F
100
AcDbEntity
  8
0
  6
Continuous
 62
     7
370
    15
100
AcDbLine
 10
339.4154353911
 20
220.3654634127
 30
0.0
 11
339.4154353911
 21
218.8654636324
 31
0.0
  0
CIRCLE
  5
134
330
1F
100
AcDbEntity
  8
0
  6
Continuous
 62
     7
370
    15
100
AcDbCircle
 10
339.815428167
 20
220.7654635527
 30
0.0
 40
3.0
  0
LINE
  5
135
330
1F
100
AcDbEntity
  8
0
  6
Continuous
 62
     7
370
    15
100
AcDbLine
 10
340.2154340321
 20
232.665463473
 30
0.0
 11
339.4154353911
 21
232.665463473
 31
0.0
  0
CIRCLE
  5
136
330
1F
100
AcDbEntity
  8
0
  6
Continuous
 62
     7
370
    15
100
AcDbCircle
 10
339.815428167
 20
230.7654635527
 30
0.0
 40
3.0
  0
LINE
  5
137
330
1F
100
AcDbEntity
  8
0
  6
Continuous
 62
     7
370
    15
100
AcDbLine
 10
339.4154353911
 20
231.1654636928
 30
0.0
 11
337.9154249007
 21
231.1654636928
 31
0.0
  0
LINE
  5
138
330
1F
100
AcDbEntity
  8
0
  6
Continuous
 62
     7
370
    15
100
AcDbLine
 10
339.4154353911
 20
232.665463473
 30
0.0
 11
339.4154353911
 21
231.1654636928
 31
0.0
  0
LINE
  5
139
330
1F
100
AcDbEntity
  8
0
  6
Continuous
 62
     7
370
    15
100
AcDbLine
 10
339.4154353911
 20
228.8654636418
 30
0.0
 11
340.2154340321
 21
228.8654636418
 31
0.0
  0
LINE
  5
13A
330
1F
100
AcDbEntity
  8
0
  6
Continuous
 62
     7
370
    15
100
AcDbLine
 10
337.9154249007
 20
230.3654636548
 30
0.0
 11
339.4154353911
 21
230.3654636548
 31
0.0
  0
LINE
  5
13B
330
1F
100
AcDbEntity
  8
0
  6
Continuous
 62
     7
370
    15
100
AcDbLine
 10
341.7154296214
 20
230.3654636548
 30
0.0
 11
341.7154296214
 21
231.1654636928
 31
0.0
  0
LINE
  5
13C
330
1F
100
AcDbEntity
  8
0
  6
Continuous
 62
     7
370
    15
100
AcDbLine
 10
340.2154340321
 20
230.3654636548
 30
0.0
 11
341.7154296214
 21
230.3654636548
 31
0.0
  0
LINE
  5
13D
330
1F
100
AcDbEntity
  8
0
  6
Continuous
 62
     7
370
    15
100
AcDbLine
 10
340.2154340321
 20
228.8654636418
 30
0.0
 11
340.2154340321
 21
230.3654636548
 31
0.0
  0
LINE
  5
13E
330
1F
100
AcDbEntity
  8
0
  6
Continuous
 62
     7
370
    15
100
AcDbLine
 10
339.4154353911
 20
230.3654636548
 30
0.0
 11
339.4154353911
 21
228.8654636418
 31
0.0
  0
LINE
  5
13F
330
1F
100
AcDbEntity
  8
0
  6
Continuous
 62
     7
370
    15
100
AcDbLine
 10
337.9154249007
 20
231.1654636928
 30
0.0
 11
337.9154249007
 21
230.3654636548
 31
0.0
  0
LINE
  5
140
330
1F
100
AcDbEntity
  8
0
  6
Continuous
 62
     7
370
    15
100
AcDbLine
 10
340.2154340321
 20
231.1654636928
 30
0.0
 11
340.2154340321
 21
232.665463473
 31
0.0
  0
LINE
  5
141
330
1F
100
AcDbEntity
  8
0
  6
Continuous
 62
     7
370
    15
100
AcDbLine
 10
341.7154296214
 20
231.1654636928
 30
0.0
 11
340.2154340321
 21
231.1654636928
 31
0.0
  0
LINE
  5
142
330
1F
100
AcDbEntity
  8
0
  6
Continuous
 62
     7
370
    15
100
AcDbLine
 10
333.8154300028
 20
232.2654636868
 30
0.0
 11
338.7976630503
 21
236.8673492515
 31
0.0
  0
ARC
  5
143
330
1F
100
AcDbEntity
  8
0
  6
Continuous
 62
     7
370
    15
100
AcDbCircle
 10
339.815428167
 20
235.7654635527
 30
0.0
 40
1.50000000000001
100
AcDbArc
 50
43.6028189726
 51
132.7273953127
  0
ARC
  5
144
330
1F
100
AcDbEntity
  8
0
  6
Continuous
 62
     7
370
    15
100
AcDbCircle
 10
329.315428167
 20
225.7654635527
 30
0.0
 40
15.99999999999996
100
AcDbArc
 50
316.3971810272
 51
43.6028189726
  0
ARC
  5
145
330
1F
100
AcDbEntity
  8
0
  6
Continuous
 62
     7
370
    15
100
AcDbCircle
 10
339.815428167
 20
215.7654635527
 30
0.0
 40
1.500000000000011
100
AcDbArc
 50
227.2726046868
 51
316.3971810272
  0
LINE
  5
146
330
1F
100
AcDbEntity
  8
0
  6
Continuous
 62
     7
370
    15
100
AcDbLine
 10
338.7976630503
 20
214.663577854
 30
0.0
 11
333.8154300028
 21
219.2654634186
 31
0.0
  0
LINE
  5
147
330
1F
100
AcDbEntity
  8
0
  6
Continuous
 62
     7
370
    15
100
AcDbLine
 10
333.6144133383
 20
232.2654636868
 30
0.0
 11
333.8154300028
 21
232.2654636868
 31
0.0
  0
LINE
  5
148
330
1F
100
AcDbEntity
  8
0
  6
Continuous
 62
     7
370
    15
100
AcDbLine
 10
333.8154300028
 20
219.2654634186
 30
0.0
 11
333.6144133383
 21
219.2654634186
 31
0.0
  0
LINE
  5
149
330
1F
100
AcDbEntity
  8
0
  6
Continuous
 62
     7
370
    15
100
AcDbLine
 10
336.8154211814
 20
25.7654605725
 30
0.0
 11
341.8154313141
 21
25.7654605725
 31
0.0
  0
LINE
  5
14A
330
1F
100
AcDbEntity
  8
0
  6
Continuous
 62
     7
370
    15
100
AcDbLine
 10
336.8154211814
 20
40.7654611685
 30
0.0
 11
336.8154211814
 21
25.7654605725
 31
0.0
  0
LINE
  5
14B
330
1F
100
AcDbEntity
  8
0
  6
Continuous
 62
     7
370
    15
100
AcDbLine
 10
336.8154211814
 20
40.7654611685
 30
0.0
 11
341.8154313141
 21
40.7654611685
 31
0.0
  0
LINE
  5
14C
330
1F
100
AcDbEntity
  8
0
  6
Continuous
 62
     7
370
    15
100
AcDbLine
 10
341.8154313141
 20
40.7654611685
 30
0.0
 11
341.8154313141
 21
25.7654605725
 31
0.0
  0
LINE
  5
14D
330
1F
100
AcDbEntity
  8
0
  6
Continuous
 62
     7
370
    15
100
AcDbLine
 10
341.8154313141
 20
40.7654611685
 30
0.0
 11
356.8154319102
 21
40.7654611685
 31
0.0
  0
ARC
  5
14E
330
1F
100
AcDbEntity
  8
0
  6
Continuous
 62
     7
370
    15
100
AcDbCircle
 10
341.815428167
 20
40.7654635527
 30
0.0
 40
15.00000000000001
100
AcDbArc
 50
270.0
 51
0.0
  0
LINE
  5
14F
330
1F
100
AcDbEntity
  8
0
  6
Continuous
 62
     7
370
    15
100
AcDbLine
 10
341.8154313141
 20
215.7779714384
 30
0.0
 11
341.8154313141
 21
40.7654611685
 31
0.0
  0
LINE
  5
150
330
1F
100
AcDbEntity
  8
0
  6
Continuous
 62
     7
370
    15
100
AcDbLine
 10
341.8154313141
 20
235.752955667
 30
0.0
 11
341.8154313141
 21
410.7654659369
 31
0.0
  0
LINE
  5
151
330
1F
100
AcDbEntity
  8
0
  6
Continuous
 62
     7
370
    15
100
AcDbLine
 10
341.8154313141
 20
410.7654659369
 30
0.0
 11
356.8154319102
 21
410.7654659369
 31
0.0
  0
LINE
  5
152
330
1F
100
AcDbEntity
  8
0
  6
Continuous
 62
     7
370
    15
100
AcDbLine
 10
356.8154319102
 20
410.7654659369
 30
0.0
 11
356.8154319102
 21
40.7654611685
 31
0.0
  0
LINE
  5
153
330
1F
100
AcDbEntity
  8
0
  6
Continuous
 62
     7
370
    15
100
AcDbLine
 10
336.8154211814
 20
216.4944863238
 30
0.0
 11
336.8154211814
 21
40.7654611685
 31
0.0
  0
LINE
  5
154
330
1F
100
AcDbEntity
  8
0
  6
Continuous
 62
     7
370
    15
100
AcDbLine
 10
336.8154211814
 20
410.7654659369
 30
0.0
 11
341.8154313141
 21
410.7654659369
 31
0.0
  0
LINE
  5
155
330
1F
100
AcDbEntity
  8
0
  6
Continuous
 62
     7
370
    15
100
AcDbLine
 10
336.8154211814
 20
235.0364407816
 30
0.0
 11
336.8154211814
 21
410.7654659369
 31
0.0
  0
LINE
  5
156
330
1F
100
AcDbEntity
  8
0
  6
Continuous
 62
     7
370
    15
100
AcDbLine
 10
336.8154211814
 20
425.765466533
 30
0.0
 11
341.8154313141
 21
425.765466533
 31
0.0
  0
LINE
  5
157
330
1F
100
AcDbEntity
  8
0
  6
Continuous
 62
     7
370
    15
100
AcDbLine
 10
341.8154313141
 20
410.7654659369
 30
0.0
 11
341.8154313141
 21
425.765466533
 31
0.0
  0
LINE
  5
158
330
1F
100
AcDbEntity
  8
0
  6
Continuous
 62
     7
370
    15
100
AcDbLine
 10
336.8154211814
 20
410.7654659369
 30
0.0
 11
336.8154211814
 21
425.765466533
 31
0.0
  0
ARC
  5
159
330
1F
100
AcDbEntity
  8
0
  6
Continuous
 62
     7
370
    15
100
AcDbCircle
 10
341.815428167
 20
410.7654635527
 30
0.0
 40
15.00000000000006
100
AcDbArc
 50
0.0
 51
90.0
  0
SPLINE
  5
15A
330
1F
100
AcDbEntity
  8
0
  6
Continuous
 62
     7
370
    15
100
AcDbSpline
210
0.0
220
0.0
230
1.0
 70
     8
 71
     3
 72
    16
 73
    12
 74
     0
 42
0.00000001
 43
0.00000001
 40
0.0
 40
0.0
 40
0.0
 40
0.0
 40
0.1207044849159297
 40
0.2414116372010242
 40
0.3621186906289194
 40
0.4828241255674181
 40
0.6035308657043765
 40
0.7242365969903478
 40
0.8449447174357051
 40
0.965651488016742
 40
1.0
 40
1.0
 40
1.0
 40
1.0
 10
314.9677260691277
 20
212.8130920522916
 30
0.0
 10
314.9871270125178
 20
212.815764784477
 30
0.0
 10
315.0259293280265
 20
212.8211103079109
 30
0.0
 10
315.0308517209602
 20
213.1120559538717
 30
0.0
 10
314.9936376677086
 20
213.5653917462386
 30
0.0
 10
314.9167375635482
 20
214.1329272838447
 30
0.0
 10
314.8129047071166
 20
214.721241968759
 30
0.0
 10
314.6968138836929
 20
215.2479534868791
 30
0.0
 10
314.5898031840187
 20
215.6112269172837
 30
0.0
 10
314.517231225006
 20
215.7816995264748
 30
0.0
 10
314.4976789143365
 20
215.7485476913601
 30
0.0
 10
314.4933476025216
 20
215.7412037544953
 30
0.0
  0
SPLINE
  5
15B
330
1F
100
AcDbEntity
  8
0
  6
Continuous
 62
     7
370
    15
100
AcDbSpline
210
0.0
220
0.0
230
1.0
 70
     8
 71
     3
 72
    16
 73
    12
 74
     0
 42
0.00000001
 43
0.00000001
 40
0.0
 40
0.0
 40
0.0
 40
0.0
 40
0.1205800987274228
 40
0.241162773276693
 40
0.3617455838599315
 40
0.4823270239011256
 40
0.6029088437348556
 40
0.7234901875479333
 40
0.8440739180583641
 40
0.964653338814784
 40
0.9999999999999999
 40
0.9999999999999999
 40
0.9999999999999999
 40
0.9999999999999999
 10
315.1383145624749
 20
238.6891158589231
 30
0.0
 10
315.1577156560649
 20
238.6864430011697
 30
0.0
 10
315.1965182576894
 20
238.6810972285656
 30
0.0
 10
315.2014384179584
 20
238.3901535243529
 30
0.0
 10
315.1642328101966
 20
237.9368139316683
 30
0.0
 10
315.0873011573262
 20
237.3692867164754
 30
0.0
 10
314.9834981535672
 20
236.780952902017
 30
0.0
 10
314.8674065977654
 20
236.2542962629163
 30
0.0
 10
314.760370546382
 20
235.890828878498
 30
0.0
 10
314.6876078613024
 20
235.7202779514868
 30
0.0
 10
314.6679704419483
 20
235.7538622330429
 30
0.0
 10
314.6635188633553
 20
235.7614754059421
 30
0.0
  0
SPLINE
  5
15C
330
1F
100
AcDbEntity
  8
0
  6
Continuous
 62
     7
370
    15
100
AcDbSpline
210
0.0
220
0.0
230
1.0
 70
     8
 71
     3
 72
    16
 73
    12
 74
     0
 42
0.00000001
 43
0.00000001
 40
0.0
 40
0.0
 40
0.0
 40
0.0
 40
0.1205148256783134
 40
0.2410323145346365
 40
0.3615497046890916
 40
0.4820658709550892
 40
0.6025824168080316
 40
0.7230984868980037
 40
0.8436169423933493
 40
0.9641311181417973
 40
1.0
 40
1.0
 40
1.0
 40
1.0
 10
330.5086984211556
 20
215.4295105778681
 30
0.0
 10
330.5280995106856
 20
215.4321833578068
 30
0.0
 10
330.5669021184775
 20
215.4375289767483
 30
0.0
 10
330.5718223192509
 20
215.7284739063907
 30
0.0
 10
330.5346165558577
 20
216.1818129123562
 30
0.0
 10
330.4576852884
 20
216.7493382451947
 30
0.0
 10
330.3538810046447
 20
217.3376792570804
 30
0.0
 10
330.2377942144804
 20
217.8643087596916
 30
0.0
 10
330.1307403722391
 20
218.2278775210913
 30
0.0
 10
330.0578859740672
 20
218.3984728475855
 30
0.0
 10
330.0381955166821
 20
218.3646590243164
 30
0.0
 10
330.0336792046181
 20
218.3569032990443
 30
0.0
  0
SPLINE
  5
15D
330
1F
100
AcDbEntity
  8
0
  6
Continuous
 62
     7
370
    15
100
AcDbSpline
210
0.0
220
0.0
230
1.0
 70
     8
 71
     3
 72
    16
 73
    12
 74
     0
 42
0.00000001
 43
0.00000001
 40
0.0
 40
0.0
 40
0.0
 40
0.0
 40
0.1205176017485963
 40
0.2410320143759879
 40
0.3615491368408356
 40
0.4820661583118812
 40
0.6025826776003147
 40
0.7230990700206849
 40
0.8436143763844773
 40
0.9641311887740465
 40
1.0
 40
1.0
 40
1.0
 40
1.0
 10
330.6792869145028
 20
236.0726973333465
 30
0.0
 10
330.698688027377
 20
236.0700260280772
 30
0.0
 10
330.7374897397358
 20
236.0646834882262
 30
0.0
 10
330.7424107629848
 20
235.7737304670944
 30
0.0
 10
330.7052050467837
 20
235.3203932495637
 30
0.0
 10
330.6282724989599
 20
234.7528725543895
 30
0.0
 10
330.5244758351865
 20
234.164526386081
 30
0.0
 10
330.4083592670463
 20
233.6379080609018
 30
0.0
 10
330.301332558317
 20
233.274320610092
 30
0.0
 10
330.2284746681249
 20
233.103734795861
 30
0.0
 10
330.2087839799627
 20
233.137549331662
 30
0.0
 10
330.2042676979653
 20
233.1453050778317
 30
0.0
  0
SPLINE
  5
15E
330
1F
100
AcDbEntity
  8
0
  6
Continuous
 62
     7
370
    15
100
AcDbSpline
210
0.0
220
0.0
230
1.0
 70
    24
 71
     3
 72
    16
 73
    12
 74
     0
 42
0.00000001
 43
0.00000001
 40
0.0
 40
0.0
 40
0.0
 40
0.0
 40
0.0611070751413885
 40
0.1864721046263345
 40
0.3118318938474008
 40
0.4371941077081365
 40
0.5625585703108704
 40
0.6879206450485429
 40
0.8132849480526685
 40
0.9386471619134042
 40
1.0
 40
1.0
 40
1.0
 40
1.0
 10
333.5856093937508
 20
218.8992278010654
 30
0.0
 10
333.5913824194916
 20
218.8992278010654
 30
0.0
 10
333.6089991726653
 20
218.8992278010654
 30
0.0
 10
333.3905743261215
 20
218.8992278010654
 30
0.0
 10
332.9778228352957
 20
218.8992278010654
 30
0.0
 10
332.4213628763655
 20
218.8992278010654
 30
0.0
 10
331.8222551801289
 20
218.8992278010654
 30
0.0
 10
331.2635512782271
 20
218.8992278010654
 30
0.0
 10
330.8466040508376
 20
218.8992278010654
 30
0.0
 10
330.6236021025739
 20
218.8992278010654
 30
0.0
 10
330.6384175049492
 20
218.8992278010654
 30
0.0
 10
330.6432857090584
 20
218.8992278010654
 30
0.0
  0
SPLINE
  5
15F
330
1F
100
AcDbEntity
  8
0
  6
Continuous
 62
     7
370
    15
100
AcDbSpline
210
0.0
220
0.0
230
1.0
 70
    24
 71
     3
 72
    16
 73
    12
 74
     0
 42
0.00000001
 43
0.00000001
 40
0.0
 40
0.0
 40
0.0
 40
0.0
 40
0.0610095156596923
 40
0.1861743956976048
 40
0.3113340438378937
 40
0.4364961127468339
 40
0.5616604268075805
 40
0.6868223568155721
 40
0.8119865115325152
 40
0.9371485804414553
 40
1.0
 40
1.0
 40
1.0
 40
1.0
 10
333.5856093937508
 20
232.457858632605
 30
0.0
 10
333.5913824132789
 20
232.457858632605
 30
0.0
 10
333.6089991474942
 20
232.457858632605
 30
0.0
 10
333.3905745594835
 20
232.457858632605
 30
0.0
 10
332.9778219803241
 20
232.457858632605
 30
0.0
 10
332.4213660629959
 20
232.457858632605
 30
0.0
 10
331.82224328847
 20
232.457858632605
 30
0.0
 10
331.2635956575605
 20
232.457858632605
 30
0.0
 10
330.8464384227844
 20
232.457858632605
 30
0.0
 10
330.6229475073398
 20
232.457858632605
 30
0.0
 10
330.6381678625729
 20
232.457858632605
 30
0.0
 10
330.643255906736
 20
232.457858632605
 30
0.0
  0
SPLINE
  5
160
330
1F
100
AcDbEntity
  8
0
  6
Continuous
 62
     7
370
    15
100
AcDbSpline
210
0.0
220
0.0
230
1.0
 70
     8
 71
     3
 72
    19
 73
    15
 74
     0
 42
0.00000001
 43
0.00000001
 40
0.0
 40
0.0
 40
0.0
 40
0.0
 40
0.0039536371294199
 40
0.1157660733621986
 40
0.2280429514710396
 40
0.3355179230836768
 40
0.4377072183217052
 40
0.534881874567698
 40
0.6283030704625676
 40
0.7302897607901112
 40
0.8413273511714253
 40
0.9641212253234116
 40
0.9937688635236266
 40
1.0
 40
1.0
 40
1.0
 40
1.0
 10
319.9137045914284
 20
231.3654633530485
 30
0.0
 10
319.9140968510059
 20
231.3654577383738
 30
0.0
 10
319.9255825664443
 20
231.3652933356178
 30
0.0
 10
319.9489053371179
 20
231.3501622993645
 30
0.0
 10
319.9923715340342
 20
231.2832678247138
 30
0.0
 10
320.0303534805253
 20
231.1785684520589
 30
0.0
 10
320.0538538894818
 20
231.05349417814
 30
0.0
 10
320.0651971977288
 20
230.9250574952994
 30
0.0
 10
320.0657743262212
 20
230.8038878823026
 30
0.0
 10
320.0500107204067
 20
230.6946531876864
 30
0.0
 10
320.0096158536327
 20
230.6052380129985
 30
0.0
 10
319.9577884472204
 20
230.5701861177272
 30
0.0
 10
319.9230430912061
 20
230.5655767840744
 30
0.0
 10
319.9150864387181
 20
230.5654805021761
 30
0.0
 10
319.9137045914284
 20
230.5654637807118
 30
0.0
  0
SPLINE
  5
161
330
1F
100
AcDbEntity
  8
0
  6
Continuous
 62
     7
370
    15
100
AcDbSpline
210
0.0
220
0.0
230
1.0
 70
     8
 71
     3
 72
    30
 73
    26
 74
     0
 42
0.00000001
 43
0.00000001
 40
0.0
 40
0.0
 40
0.0
 40
0.0
 40
0.1247096542799018
 40
0.2494209444261823
 40
0.3741288568193122
 40
0.4367808660270198
 40
0.4681517307093441
 40
0.4838385139271461
 40
0.4916909851424209
 40
0.4956095212508052
 40
0.4975684998967156
 40
0.4985480434862288
 40
0.4990378660105316
 40
0.4992826904987356
 40
0.4994167504137869
 40
0.49947793497606
 40
0.4995027736102096
 40
0.499515247145191
 40
0.4995393475386848
 40
0.5609142914316205
 40
0.6646219552356922
 40
0.7325813793402538
 40
0.8111444612433221
 40
0.9002986821381965
 40
0.9999999999999999
 40
0.9999999999999999
 40
0.9999999999999999
 40
0.9999999999999999
 10
319.9854089790932
 20
231.4253553108381
 30
0.0
 10
319.991173887065
 20
231.4235625344468
 30
0.0
 10
320.0027037786292
 20
231.4199769581477
 30
0.0
 10
320.0925411486223
 20
231.3981361171951
 30
0.0
 10
320.2000234689879
 20
231.3724587154369
 30
0.0
 10
320.2855727357941
 20
231.3520423963989
 30
0.0
 10
320.3296686279268
 20
231.3415126533694
 30
0.0
 10
320.3518982495897
 20
231.3361879570336
 30
0.0
 10
320.3630328693015
 20
231.3335288690668
 30
0.0
 10
320.3686018815083
 20
231.332191793456
 30
0.0
 10
320.3713839706887
 20
231.3315251672996
 30
0.0
 10
320.3727745057327
 20
231.3311908679862
 30
0.0
 10
320.3734701592194
 20
231.3310251220955
 30
0.0
 10
320.373822013566
 20
231.3309379177519
 30
0.0
 10
320.3740015727542
 20
231.3308998113492
 30
0.0
 10
320.374091265317
 20
231.3308798544801
 30
0.0
 10
320.3741307075108
 20
231.3308683674368
 30
0.0
 10
320.3741549733596
 20
231.330859930133
 30
0.0
 10
320.3997638229985
 20
231.3281670620781
 30
0.0
 10
320.4659102902679
 20
231.307492404788
 30
0.0
 10
320.5574852438297
 20
231.2913135430152
 30
0.0
 10
320.6408704337213
 20
231.2733130524951
 30
0.0
 10
320.7044602755975
 20
231.2606600816076
 30
0.0
 10
320.7549649388166
 20
231.250939485215
 30
0.0
 10
320.762191326691
 20
231.250489079727
 30
0.0
 10
320.7660063082329
 20
231.250251299988
 30
0.0
  0
ELLIPSE
  5
162
330
1F
100
AcDbEntity
  8
0
  6
Continuous
 62
     7
370
    15
100
AcDbEllipse
 10
320.6425365608
 20
232.5474387315
 30
0.0
 11
0.3906095144046162
 21
-0.08616383961160069
 31
0.0
210
0.0
220
0.0
230
0.9999999999999997
 40
0.0142285888
 41
0.0
 42
6.283185307179586
  0
LINE
  5
163
330
1F
100
AcDbEntity
  8
0
  6
Continuous
 62
     7
370
    15
100
AcDbLine
 10
320.0263573701
 20
221.0654636205
 30
0.0
 11
320.0263573701
 21
229.6654634469
 31
0.0
  0
LINE
  5
164
330
1F
100
AcDbEntity
  8
0
  6
Continuous
 62
     7
370
    15
100
AcDbLine
 10
320.0263573701
 20
221.0654636205
 30
0.0
 11
314.512063461
 21
221.0654636205
 31
0.0
  0
LINE
  5
165
330
1F
100
AcDbEntity
  8
0
  6
Continuous
 62
     7
370
    15
100
AcDbLine
 10
314.512063461
 20
221.0654636205
 30
0.0
 11
314.512063461
 21
229.6654634469
 31
0.0
  0
LINE
  5
166
330
1F
100
AcDbEntity
  8
0
  6
Continuous
 62
     7
370
    15
100
AcDbLine
 10
320.0263573701
 20
229.6654634469
 30
0.0
 11
314.512063461
 21
229.6654634469
 31
0.0
  0
LINE
  5
167
330
1F
100
AcDbEntity
  8
0
  6
Continuous
 62
     7
370
    15
100
AcDbLine
 10
313.3977993304
 20
232.965463429
 30
0.0
 11
288.5856970126
 21
232.965463429
 31
0.0
  0
LINE
  5
168
330
1F
100
AcDbEntity
  8
0
  6
Continuous
 62
     7
370
    15
100
AcDbLine
 10
313.3977993304
 20
229.6654634469
 30
0.0
 11
313.3977993304
 21
232.965463429
 31
0.0
  0
LINE
  5
169
330
1F
100
AcDbEntity
  8
0
  6
Continuous
 62
     7
370
    15
100
AcDbLine
 10
313.3977993304
 20
218.5654636764
 30
0.0
 11
313.3977993304
 21
221.0654636205
 31
0.0
  0
LINE
  5
16A
330
1F
100
AcDbEntity
  8
0
  6
Continuous
 62
     7
370
    15
100
AcDbLine
 10
288.5856970126
 20
218.5654636764
 30
0.0
 11
313.3977993304
 21
218.5654636764
 31
0.0
  0
LINE
  5
16B
330
1F
100
AcDbEntity
  8
0
  6
Continuous
 62
     7
370
    15
100
AcDbLine
 10
288.5856970126
 20
218.5654636764
 30
0.0
 11
288.5856970126
 21
232.965463429
 31
0.0
  0
LINE
  5
16C
330
1F
100
AcDbEntity
  8
0
  6
Continuous
 62
     7
370
    15
100
AcDbLine
 10
313.3977993304
 20
221.0654636205
 30
0.0
 11
314.512063461
 21
221.0654636205
 31
0.0
  0
LINE
  5
16D
330
1F
100
AcDbEntity
  8
0
  6
Continuous
 62
     7
370
    15
100
AcDbLine
 10
313.3977993304
 20
229.6654634469
 30
0.0
 11
314.512063461
 21
229.6654634469
 31
0.0
  0
LINE
  5
16E
330
1F
100
AcDbEntity
  8
0
  6
Continuous
 62
     7
370
    15
100
AcDbLine
 10
315.4176666314
 20
233.76281432
 30
0.0
 11
313.525427776
 21
233.76281432
 31
0.0
  0
ARC
  5
16F
330
1F
100
AcDbEntity
  8
0
  6
Continuous
 62
     7
370
    15
100
AcDbCircle
 10
314.8721045268
 20
233.1383677961
 30
0.0
 40
1.4844095568136
100
AcDbArc
 50
155.1231072727
 51
186.6890098317
  0
ARC
  5
170
330
1F
100
AcDbEntity
  8
0
  6
Continuous
 62
     7
370
    15
100
AcDbCircle
 10
289.8415926934
 20
233.1594343318
 30
0.0
 40
1.270786635200177
100
AcDbArc
 50
151.5173072536
 51
188.7798597116
  0
LINE
  5
171
330
1F
100
AcDbEntity
  8
0
  6
Continuous
 62
     7
370
    15
100
AcDbLine
 10
288.7246205384
 20
233.7654639327
 30
0.0
 11
316.090424257
 21
233.7654639327
 31
0.0
  0
LINE
  5
172
330
1F
100
AcDbEntity
  8
0
  6
Continuous
 62
     7
370
    15
100
AcDbLine
 10
316.090424257
 20
233.7654639327
 30
0.0
 11
315.4176666314
 21
233.76281432
 31
0.0
  0
LINE
  5
173
330
1F
100
AcDbEntity
  8
0
  6
Continuous
 62
     7
370
    15
100
AcDbLine
 10
313.525427776
 20
217.7681127855
 30
0.0
 11
315.4176666314
 21
217.7681127855
 31
0.0
  0
LINE
  5
174
330
1F
100
AcDbEntity
  8
0
  6
Continuous
 62
     7
370
    15
100
AcDbLine
 10
315.4176666314
 20
217.7681127855
 30
0.0
 11
316.090424257
 21
217.7654631727
 31
0.0
  0
LINE
  5
175
330
1F
100
AcDbEntity
  8
0
  6
Continuous
 62
     7
370
    15
100
AcDbLine
 10
316.090424257
 20
217.7654631727
 30
0.0
 11
288.7246205384
 21
217.7654631727
 31
0.0
  0
ARC
  5
176
330
1F
100
AcDbEntity
  8
0
  6
Continuous
 62
     7
370
    15
100
AcDbCircle
 10
289.8415926934
 20
218.3714927736
 30
0.0
 40
1.270786635200177
100
AcDbArc
 50
171.2201402884
 51
208.4826927464
  0
ARC
  5
177
330
1F
100
AcDbEntity
  8
0
  6
Continuous
 62
     7
370
    15
100
AcDbCircle
 10
314.8721045268
 20
218.3925593094
 30
0.0
 40
1.484409556813592
100
AcDbArc
 50
173.3109901683
 51
204.8768927273
  0
LINE
  5
178
330
1F
100
AcDbEntity
  8
0
  6
Continuous
 62
     7
370
    15
100
AcDbLine
 10
313.525427776
 20
232.965463429
 30
0.0
 11
313.525427776
 21
233.76281432
 31
0.0
  0
LINE
  5
179
330
1F
100
AcDbEntity
  8
0
  6
Continuous
 62
     7
370
    15
100
AcDbLine
 10
313.5367228562
 20
232.965463429
 30
0.0
 11
313.5367228562
 21
229.6654634469
 31
0.0
  0
LINE
  5
17A
330
1F
100
AcDbEntity
  8
0
  6
Continuous
 62
     7
370
    15
100
AcDbLine
 10
313.525427776
 20
217.7681127855
 30
0.0
 11
313.525427776
 21
218.5654636764
 31
0.0
  0
LINE
  5
17B
330
1F
100
AcDbEntity
  8
0
  6
Continuous
 62
     7
370
    15
100
AcDbLine
 10
313.5367228562
 20
221.0654636205
 30
0.0
 11
313.5367228562
 21
218.5654636764
 31
0.0
  0
LINE
  5
17C
330
1F
100
AcDbEntity
  8
0
  6
Continuous
 62
     7
370
    15
100
AcDbLine
 10
315.4176666314
 20
232.965463429
 30
0.0
 11
315.4176666314
 21
233.76281432
 31
0.0
  0
LINE
  5
17D
330
1F
100
AcDbEntity
  8
0
  6
Continuous
 62
     7
370
    15
100
AcDbLine
 10
319.5254250342
 20
233.7654639327
 30
0.0
 11
316.090424257
 21
233.7654639327
 31
0.0
  0
LINE
  5
17E
330
1F
100
AcDbEntity
  8
0
  6
Continuous
 62
     7
370
    15
100
AcDbLine
 10
319.5254250342
 20
232.965463429
 30
0.0
 11
315.4176666314
 21
232.965463429
 31
0.0
  0
LINE
  5
17F
330
1F
100
AcDbEntity
  8
0
  6
Continuous
 62
     7
370
    15
100
AcDbLine
 10
319.5254250342
 20
217.7654631727
 30
0.0
 11
316.090424257
 21
217.7654631727
 31
0.0
  0
LINE
  5
180
330
1F
100
AcDbEntity
  8
0
  6
Continuous
 62
     7
370
    15
100
AcDbLine
 10
315.4176666314
 20
217.7681127855
 30
0.0
 11
315.4176666314
 21
218.5654636764
 31
0.0
  0
LINE
  5
181
330
1F
100
AcDbEntity
  8
0
  6
Continuous
 62
     7
370
    15
100
AcDbLine
 10
319.5254250342
 20
218.5654636764
 30
0.0
 11
315.4176666314
 21
218.5654636764
 31
0.0
  0
LINE
  5
182
330
1F
100
AcDbEntity
  8
0
  6
Continuous
 62
     7
370
    15
100
AcDbLine
 10
313.525427776
 20
218.5654636764
 30
0.0
 11
315.4176666314
 21
218.5654636764
 31
0.0
  0
LINE
  5
183
330
1F
100
AcDbEntity
  8
0
  6
Continuous
 62
     7
370
    15
100
AcDbLine
 10
313.525427776
 20
232.965463429
 30
0.0
 11
315.4176666314
 21
232.965463429
 31
0.0
  0
LINE
  5
184
330
1F
100
AcDbEntity
  8
0
  6
Continuous
 62
     7
370
    15
100
AcDbLine
 10
314.5954354579
 20
234.0654634231
 30
0.0
 11
318.995435434
 21
234.0654634231
 31
0.0
  0
LINE
  5
185
330
1F
100
AcDbEntity
  8
0
  6
Continuous
 62
     7
370
    15
100
AcDbLine
 10
314.6954222495
 20
217.3654638522
 30
0.0
 11
318.8954337412
 21
217.3654638522
 31
0.0
  0
LINE
  5
186
330
1F
100
AcDbEntity
  8
0
  6
Continuous
 62
     7
370
    15
100
AcDbLine
 10
314.6954222495
 20
216.9654636004
 30
0.0
 11
318.8954337412
 21
216.9654636004
 31
0.0
  0
ARC
  5
187
330
1F
100
AcDbEntity
  8
0
  6
Continuous
 62
     7
370
    15
100
AcDbCircle
 10
296.9913242007
 20
225.7654635527
 30
0.0
 40
16.9039972836303
100
AcDbArc
 50
154.7901555355
 51
205.2098444645
  0
SPLINE
  5
188
330
1F
100
AcDbEntity
  8
0
  6
Continuous
 62
     7
370
    15
100
AcDbSpline
210
0.0
220
0.0
230
1.0
 70
     8
 71
     3
 72
    12
 73
     8
 74
     0
 42
0.00000001
 43
0.00000001
 40
0.0
 40
0.0
 40
0.0
 40
0.0
 40
0.1818707506940759
 40
0.3633425910983756
 40
0.5550788839657406
 40
0.7712659464300451
 40
1.0
 40
1.0
 40
1.0
 40
1.0
 10
281.8297489458672
 20
217.7654631727444
 30
0.0
 10
281.8536060982748
 20
217.772784961277
 30
0.0
 10
281.9012680754699
 20
217.7874124789331
 30
0.0
 10
281.9160155755008
 20
217.8994014419615
 30
0.0
 10
281.8887813928998
 20
218.0687977824605
 30
0.0
 10
281.8171067554773
 20
218.2972104021321
 30
0.0
 10
281.738023665528
 20
218.474380490857
 30
0.0
 10
281.6973670298211
 20
218.5654636764037
 30
0.0
  0
LINE
  5
189
330
1F
100
AcDbEntity
  8
0
  6
Continuous
 62
     7
370
    15
100
AcDbLine
 10
281.445388394
 20
218.519962515
 30
0.0
 11
281.7998274142
 21
217.7654631727
 31
0.0
  0
ARC
  5
18A
330
1F
100
AcDbEntity
  8
0
  6
Continuous
 62
     7
370
    15
100
AcDbCircle
 10
296.7159557682
 20
225.7654635527
 30
0.0
 40
16.90229313480638
100
AcDbArc
 50
154.6168340366
 51
205.3831659634
  0
LINE
  5
18B
330
1F
100
AcDbEntity
  8
0
  6
Continuous
 62
     7
370
    15
100
AcDbLine
 10
281.7998274142
 20
233.7654639327
 30
0.0
 11
281.445388394
 21
233.0109645904
 31
0.0
  0
SPLINE
  5
18C
330
1F
100
AcDbEntity
  8
0
  6
Continuous
 62
     7
370
    15
100
AcDbSpline
210
0.0
220
0.0
230
1.0
 70
     8
 71
     3
 72
    12
 73
     8
 74
     0
 42
0.00000001
 43
0.00000001
 40
0.0
 40
0.0
 40
0.0
 40
0.0
 40
0.251021954853923
 40
0.5023976742662282
 40
0.7402766408850124
 40
0.947307288298956
 40
1.0
 40
1.0
 40
1.0
 40
1.0
 10
281.6973670298211
 20
232.9654634290444
 30
0.0
 10
281.741685027837
 20
233.0653455077597
 30
0.0
 10
281.8303834811029
 20
233.2652504287323
 30
0.0
 10
281.9053724279448
 20
233.5239861381765
 30
0.0
 10
281.9168796273702
 20
233.7012152955603
 30
0.0
 10
281.8752310248475
 20
233.7616646302316
 30
0.0
 10
281.8374200431607
 20
233.7648231348429
 30
0.0
 10
281.8297489458672
 20
233.7654639327037
 30
0.0
  0
LINE
  5
18D
330
1F
100
AcDbEntity
  8
0
  6
Continuous
 62
     7
370
    15
100
AcDbLine
 10
281.8297489459
 20
233.7654639327
 30
0.0
 11
281.7998274142
 21
233.7654639327
 31
0.0
  0
LINE
  5
18E
330
1F
100
AcDbEntity
  8
0
  6
Continuous
 62
     7
370
    15
100
AcDbLine
 10
281.8297489459
 20
217.7654631727
 30
0.0
 11
281.7998274142
 21
217.7654631727
 31
0.0
  0
LINE
  5
18F
330
1F
100
AcDbEntity
  8
0
  6
Continuous
 62
     7
370
    15
100
AcDbLine
 10
283.6868508631
 20
232.965463429
 30
0.0
 11
281.6973670298
 21
232.965463429
 31
0.0
  0
LINE
  5
190
330
1F
100
AcDbEntity
  8
0
  6
Continuous
 62
     7
370
    15
100
AcDbLine
 10
283.6868508631
 20
218.5654636764
 30
0.0
 11
283.6868508631
 21
232.965463429
 31
0.0
  0
LINE
  5
191
330
1F
100
AcDbEntity
  8
0
  6
Continuous
 62
     7
370
    15
100
AcDbLine
 10
281.6973670298
 20
218.5654636764
 30
0.0
 11
283.6868508631
 21
218.5654636764
 31
0.0
  0
LWPOLYLINE
  5
192
330
1F
100
AcDbEntity
  8
0
  6
Continuous
 62
     7
370
    15
100
AcDbPolyline
 90
        9
 70
   128
 43
0.0
 10
283.6868508631
 20
232.965463429
 10
283.6815907532
 20
233.1215358631
 10
283.6660190398
 20
233.2716101141
 10
283.6407317692
 20
233.4099198983
 10
283.6067124182
 20
233.5311487609
 10
283.5652424866
 20
233.6306391575
 10
283.5179312998
 20
233.7045675435
 10
283.4666117007
 20
233.7500915223
 10
283.4132357413
 20
233.7654639327
  0
LINE
  5
193
330
1F
100
AcDbEntity
  8
0
  6
Continuous
 62
     7
370
    15
100
AcDbLine
 10
281.8297489459
 20
233.7654639327
 30
0.0
 11
283.4132357413
 21
233.7654639327
 31
0.0
  0
LWPOLYLINE
  5
194
330
1F
100
AcDbEntity
  8
0
  6
Continuous
 62
     7
370
    15
100
AcDbPolyline
 90
        9
 70
   128
 43
0.0
 10
283.6868508631
 20
218.5654636764
 10
283.6815907532
 20
218.4093912424
 10
283.6660190398
 20
218.2593169914
 10
283.6407317692
 20
218.1210072071
 10
283.6067124182
 20
217.9997783446
 10
283.5652424866
 20
217.9002879479
 10
283.5179312998
 20
217.8263595619
 10
283.4666117007
 20
217.7808355832
 10
283.4132357413
 20
217.7654631727
  0
LINE
  5
195
330
1F
100
AcDbEntity
  8
0
  6
Continuous
 62
     7
370
    15
100
AcDbLine
 10
283.4132357413
 20
217.7654631727
 30
0.0
 11
281.8297489459
 21
217.7654631727
 31
0.0
  0
LINE
  5
196
330
1F
100
AcDbEntity
  8
0
  6
Continuous
 62
     7
370
    15
100
AcDbLine
 10
283.6868508631
 20
218.5654636764
 30
0.0
 11
288.5856970126
 21
218.5654636764
 31
0.0
  0
LINE
  5
197
330
1F
100
AcDbEntity
  8
0
  6
Continuous
 62
     7
370
    15
100
AcDbLine
 10
288.7246205384
 20
217.7654631727
 30
0.0
 11
283.4132357413
 21
217.7654631727
 31
0.0
  0
LINE
  5
198
330
1F
100
AcDbEntity
  8
0
  6
Continuous
 62
     7
370
    15
100
AcDbLine
 10
288.5856970126
 20
232.965463429
 30
0.0
 11
283.6868508631
 21
232.965463429
 31
0.0
  0
LINE
  5
199
330
1F
100
AcDbEntity
  8
0
  6
Continuous
 62
     7
370
    15
100
AcDbLine
 10
283.4132357413
 20
233.7654639327
 30
0.0
 11
288.7246205384
 21
233.7654639327
 31
0.0
  0
LINE
  5
19A
330
1F
100
AcDbEntity
  8
0
  6
Continuous
 62
     7
370
    15
100
AcDbLine
 10
319.8154314334
 20
220.0154635415
 30
0.0
 11
319.8154314334
 21
219.0154633776
 31
0.0
  0
LINE
  5
19B
330
1F
100
AcDbEntity
  8
0
  6
Continuous
 62
     7
370
    15
100
AcDbLine
 10
313.6154307896
 20
220.0154635415
 30
0.0
 11
313.6154307896
 21
219.0154633776
 31
0.0
  0
LINE
  5
19C
330
1F
100
AcDbEntity
  8
0
  6
Continuous
 62
     7
370
    15
100
AcDbLine
 10
319.8154314334
 20
220.0154635415
 30
0.0
 11
313.6154307896
 21
220.0154635415
 31
0.0
  0
LINE
  5
19D
330
1F
100
AcDbEntity
  8
0
  6
Continuous
 62
     7
370
    15
100
AcDbLine
 10
319.8154314334
 20
219.0154633776
 30
0.0
 11
313.6154307896
 21
219.0154633776
 31
0.0
  0
LINE
  5
19E
330
1F
100
AcDbEntity
  8
0
  6
Continuous
 62
     7
370
    15
100
AcDbLine
 10
319.8154314334
 20
232.5154637278
 30
0.0
 11
319.8154314334
 21
231.5154635639
 31
0.0
  0
LINE
  5
19F
330
1F
100
AcDbEntity
  8
0
  6
Continuous
 62
     7
370
    15
100
AcDbLine
 10
313.6154307896
 20
232.5154637278
 30
0.0
 11
313.6154307896
 21
231.5154635639
 31
0.0
  0
LINE
  5
1A0
330
1F
100
AcDbEntity
  8
0
  6
Continuous
 62
     7
370
    15
100
AcDbLine
 10
319.8154314334
 20
231.5154635639
 30
0.0
 11
313.6154307896
 21
231.5154635639
 31
0.0
  0
LINE
  5
1A1
330
1F
100
AcDbEntity
  8
0
  6
Continuous
 62
     7
370
    15
100
AcDbLine
 10
319.8154314334
 20
232.5154637278
 30
0.0
 11
313.6154307896
 21
232.5154637278
 31
0.0
  0
LWPOLYLINE
  5
1A2
330
1F
100
AcDbEntity
  8
0
  6
Continuous
 62
     7
370
    15
100
AcDbPolyline
 90
        3
 70
   128
 43
0.0
 10
313.5367228562
 20
219.4043250115
 10
313.5393007571
 20
219.3981470832
 10
313.6154307896
 20
219.0154633776
  0
LWPOLYLINE
  5
1A3
330
1F
100
AcDbEntity
  8
0
  6
Continuous
 62
     7
370
    15
100
AcDbPolyline
 90
        3
 70
   128
 43
0.0
 10
313.6154307896
 20
232.5154637278
 10
313.5393007571
 20
232.1327800223
 10
313.5367228562
 20
232.126602094
  0
LINE
  5
1A4
330
1F
100
AcDbEntity
  8
0
  6
Continuous
 62
     7
370
    15
100
AcDbLine
 10
319.8154314334
 20
231.5154635639
 30
0.0
 11
319.8154314334
 21
231.365463353
 31
0.0
  0
LINE
  5
1A5
330
1F
100
AcDbEntity
  8
0
  6
Continuous
 62
     7
370
    15
100
AcDbLine
 10
319.8154314334
 20
230.5654637807
 30
0.0
 11
319.8154314334
 21
229.6654634469
 31
0.0
  0
LINE
  5
1A6
330
1F
100
AcDbEntity
  8
0
  6
Continuous
 62
     7
370
    15
100
AcDbLine
 10
319.8154314334
 20
221.0654636205
 30
0.0
 11
319.8154314334
 21
220.0154635415
 31
0.0
  0
LINE
  5
1A7
330
1F
100
AcDbEntity
  8
0
  6
Continuous
 62
     7
370
    15
100
AcDbLine
 10
121.8154278496
 20
410.7654659369
 30
0.0
 11
121.8154278496
 21
40.7654611685
 31
0.0
  0
LINE
  5
1A8
330
1F
100
AcDbEntity
  8
0
  6
Continuous
 62
     7
370
    15
100
AcDbLine
 10
121.8154278496
 20
40.7654611685
 30
0.0
 11
106.8154281849
 21
40.7654611685
 31
0.0
  0
LINE
  5
1A9
330
1F
100
AcDbEntity
  8
0
  6
Continuous
 62
     7
370
    15
100
AcDbLine
 10
106.8154281849
 20
410.7654659369
 30
0.0
 11
106.8154281849
 21
40.7654611685
 31
0.0
  0
LINE
  5
1AA
330
1F
100
AcDbEntity
  8
0
  6
Continuous
 62
     7
370
    15
100
AcDbLine
 10
106.8154281849
 20
410.7654659369
 30
0.0
 11
121.8154278496
 21
410.7654659369
 31
0.0
  0
LINE
  5
1AB
330
1F
100
AcDbEntity
  8
0
  6
Continuous
 62
     7
370
    15
100
AcDbLine
 10
121.8154278496
 20
40.7654611685
 30
0.0
 11
121.8154278496
 21
25.7654605725
 31
0.0
  0
ARC
  5
1AC
330
1F
100
AcDbEntity
  8
0
  6
Continuous
 62
     7
370
    15
100
AcDbCircle
 10
121.815428167
 20
40.7654635527
 30
0.0
 40
15.00000000000001
100
AcDbArc
 50
180.0
 51
270.0
  0
ARC
  5
1AD
330
1F
100
AcDbEntity
  8
0
  6
Continuous
 62
     7
370
    15
100
AcDbCircle
 10
121.815428167
 20
410.7654635527
 30
0.0
 40
15.0
100
AcDbArc
 50
90.0
 51
180.0
  0
LINE
  5
1AE
330
1F
100
AcDbEntity
  8
0
  6
Continuous
 62
     7
370
    15
100
AcDbLine
 10
121.8154278496
 20
425.765466533
 30
0.0
 11
121.8154278496
 21
410.7654659369
 31
0.0
  0
LINE
  5
1AF
330
1F
100
AcDbEntity
  8
0
  6
Continuous
 62
     7
370
    15
100
AcDbLine
 10
332.8154279763
 20
40.7654611685
 30
0.0
 11
332.8154279763
 21
216.7575560802
 31
0.0
  0
LINE
  5
1B0
330
1F
100
AcDbEntity
  8
0
  6
Continuous
 62
     7
370
    15
100
AcDbLine
 10
332.8154279763
 20
234.7413931334
 30
0.0
 11
332.8154279763
 21
410.7654659369
 31
0.0
  0
LINE
  5
1B1
330
1F
100
AcDbEntity
  8
0
  6
Continuous
 62
     7
370
    15
100
AcDbLine
 10
332.8154279763
 20
40.7654611685
 30
0.0
 11
121.8154278496
 21
40.7654611685
 31
0.0
  0
LINE
  5
1B2
330
1F
100
AcDbEntity
  8
0
  6
Continuous
 62
     7
370
    15
100
AcDbLine
 10
332.8154279763
 20
410.7654659369
 30
0.0
 11
121.8154278496
 21
410.7654659369
 31
0.0
  0
LINE
  5
1B3
330
1F
100
AcDbEntity
  8
0
  6
Continuous
 62
     7
370
    15
100
AcDbLine
 10
312.8154321486
 20
45.7654564002
 30
0.0
 11
126.8154277379
 21
45.7654564002
 31
0.0
  0
LINE
  5
1B4
330
1F
100
AcDbEntity
  8
0
  6
Continuous
 62
     7
370
    15
100
AcDbLine
 10
312.8154321486
 20
45.7654564002
 30
0.0
 11
312.8154321486
 21
212.9529170984
 31
0.0
  0
LINE
  5
1B5
330
1F
100
AcDbEntity
  8
0
  6
Continuous
 62
     7
370
    15
100
AcDbLine
 10
312.8154321486
 20
216.2927031809
 30
0.0
 11
312.8154321486
 21
217.7654631727
 31
0.0
  0
LINE
  5
1B6
330
1F
100
AcDbEntity
  8
0
  6
Continuous
 62
     7
370
    15
100
AcDbLine
 10
312.8154321486
 20
233.7654639327
 30
0.0
 11
312.8154321486
 21
235.2248659649
 31
0.0
  0
LINE
  5
1B7
330
1F
100
AcDbEntity
  8
0
  6
Continuous
 62
     7
370
    15
100
AcDbLine
 10
312.8154321486
 20
238.5675819882
 30
0.0
 11
312.8154321486
 21
405.7654707053
 31
0.0
  0
LINE
  5
1B8
330
1F
100
AcDbEntity
  8
0
  6
Continuous
 62
     7
370
    15
100
AcDbLine
 10
312.8154321486
 20
405.7654707053
 30
0.0
 11
126.8154277379
 21
405.7654707053
 31
0.0
  0
LINE
  5
1B9
330
1F
100
AcDbEntity
  8
0
  6
Continuous
 62
     7
370
    15
100
AcDbLine
 10
126.8154277379
 20
405.7654707053
 30
0.0
 11
126.8154277379
 21
45.7654564002
 31
0.0
  0
LINE
  5
1BA
330
1F
100
AcDbEntity
  8
0
  6
Continuous
 62
     7
370
    15
100
AcDbLine
 10
332.8154279763
 20
425.765466533
 30
0.0
 11
121.8154278496
 21
425.765466533
 31
0.0
  0
LINE
  5
1BB
330
1F
100
AcDbEntity
  8
0
  6
Continuous
 62
     7
370
    15
100
AcDbLine
 10
332.8154279763
 20
425.765466533
 30
0.0
 11
332.8154279763
 21
410.7654659369
 31
0.0
  0
LINE
  5
1BC
330
1F
100
AcDbEntity
  8
0
  6
Continuous
 62
     7
370
    15
100
AcDbLine
 10
332.8154279763
 20
25.7654605725
 30
0.0
 11
121.8154278496
 21
25.7654605725
 31
0.0
  0
LINE
  5
1BD
330
1F
100
AcDbEntity
  8
0
  6
Continuous
 62
     7
370
    15
100
AcDbLine
 10
332.8154279763
 20
40.7654611685
 30
0.0
 11
332.8154279763
 21
25.7654605725
 31
0.0
  0
LINE
  5
1BE
330
1F
100
AcDbEntity
  8
0
  6
Continuous
 62
     7
370
    15
100
AcDbLine
 10
336.8154211814
 20
405.7654707053
 30
0.0
 11
332.8154279763
 21
405.7654707053
 31
0.0
  0
LINE
  5
1BF
330
1F
100
AcDbEntity
  8
0
  6
Continuous
 62
     7
370
    15
100
AcDbLine
 10
336.8154211814
 20
45.7654564002
 30
0.0
 11
332.8154279763
 21
45.7654564002
 31
0.0
  0
LINE
  5
1C0
330
1F
100
AcDbEntity
  8
0
  6
Continuous
 62
     7
370
    15
100
AcDbLine
 10
336.8154211814
 20
30.7654707053
 30
0.0
 11
332.8154279763
 21
30.7654707053
 31
0.0
  0
LINE
  5
1C1
330
1F
100
AcDbEntity
  8
0
  6
Continuous
 62
     7
370
    15
100
AcDbLine
 10
336.8154211814
 20
420.7654564002
 30
0.0
 11
332.8154279763
 21
420.7654564002
 31
0.0
  0
LINE
  5
1C2
330
1F
100
AcDbEntity
  8
0
  6
Continuous
 62
     7
370
    15
100
AcDbLine
 10
377.4956884797
 20
455.4864091001
 30
0.0
 11
378.6956789906
 21
455.4864091001
 31
0.0
  0
LINE
  5
1C3
330
1F
100
AcDbEntity
  8
0
  6
Continuous
 62
     7
370
    15
100
AcDbLine
 10
377.3956867869
 20
457.9864067159
 30
0.0
 11
377.4956884797
 21
457.9864067159
 31
0.0
  0
LINE
  5
1C4
330
1F
100
AcDbEntity
  8
0
  6
Continuous
 62
     7
370
    15
100
AcDbLine
 10
377.4956884797
 20
463.9864188753
 30
0.0
 11
377.3956867869
 21
463.9864188753
 31
0.0
  0
SPLINE
  5
1C5
330
1F
100
AcDbEntity
  8
0
  6
Continuous
 62
     7
370
    15
100
AcDbSpline
210
0.0
220
0.0
230
1.0
 70
     8
 71
     3
 72
    15
 73
    11
 74
     0
 42
0.00000001
 43
0.00000001
 40
0.0
 40
0.0
 40
0.0
 40
0.0
 40
0.1250765706382156
 40
0.2501511044662415
 40
0.3752919337958478
 40
0.5003048310784048
 40
0.6252879916513685
 40
0.750262471385245
 40
0.8750785007549147
 40
1.0
 40
1.0
 40
1.0
 40
1.0
 10
376.310122292787
 20
486.0442352614822
 30
0.0
 10
376.2839976332651
 20
486.3030018194698
 30
0.0
 10
376.2317487396487
 20
486.8205307215595
 30
0.0
 10
376.1528778778323
 20
487.6016457498843
 30
0.0
 10
376.0784525519836
 20
488.3388255811424
 30
0.0
 10
376.011438477486
 20
489.002407471096
 30
0.0
 10
375.9553306064639
 20
489.5581613370803
 30
0.0
 10
375.9128132428678
 20
489.9792721608663
 30
0.0
 10
375.8839805243713
 20
490.2648632277871
 30
0.0
 10
375.8796388376708
 20
490.3079061444614
 30
0.0
 10
375.8774670775236
 20
490.329436691803
 30
0.0
  0
SPLINE
  5
1C6
330
1F
100
AcDbEntity
  8
0
  6
Continuous
 62
     7
370
    15
100
AcDbSpline
210
0.0
220
0.0
230
1.0
 70
     8
 71
     3
 72
    15
 73
    11
 74
     0
 42
0.00000001
 43
0.00000001
 40
0.0
 40
0.0
 40
0.0
 40
0.0
 40
0.1249395467624542
 40
0.249768833645451
 40
0.3747511478527171
 40
0.4997385694849465
 40
0.6247480327535238
 40
0.7498804069352834
 40
0.8749434555683344
 40
1.0
 40
1.0
 40
1.0
 40
1.0
 10
372.8932115252317
 20
490.0280458054962
 30
0.0
 10
372.8953939802188
 20
490.0064707736726
 30
0.0
 10
372.8997569641639
 20
489.9633397501168
 30
0.0
 10
372.928606496416
 20
489.677626966229
 30
0.0
 10
372.9711116661557
 20
489.256443645264
 30
0.0
 10
373.0272508316456
 20
488.7006612288518
 30
0.0
 10
373.094236108857
 20
488.0371389147654
 30
0.0
 10
373.1686575703636
 20
487.3000905143198
 30
0.0
 10
373.2474848127825
 20
486.5191799778196
 30
0.0
 10
373.2997299500174
 20
486.0018270411685
 30
0.0
 10
373.3258518393339
 20
485.7431572995606
 30
0.0
  0
LINE
  5
1C7
330
1F
100
AcDbEntity
  8
0
  6
Continuous
 62
     7
370
    15
100
AcDbLine
 10
373.3255687173
 20
485.7430231891
 30
0.0
 11
374.8946460898
 21
470.2020508371
 31
0.0
  0
LINE
  5
1C8
330
1F
100
AcDbEntity
  8
0
  6
Continuous
 62
     7
370
    15
100
AcDbLine
 10
377.8794678862
 20
470.5034119211
 30
0.0
 11
376.3103905137
 21
486.0443693719
 31
0.0
  0
SPLINE
  5
1C9
330
1F
100
AcDbEntity
  8
0
  6
Continuous
 62
     7
370
    15
100
AcDbSpline
210
0.0
220
0.0
230
1.0
 70
     8
 71
     3
 72
     9
 73
     5
 74
     0
 42
0.00000001
 43
0.00000001
 40
0.0
 40
0.0
 40
0.0
 40
0.0
 40
0.4837377118734527
 40
1.0
 40
1.0
 40
1.0
 40
1.0
 10
375.0647279436888
 20
468.5206783137741
 30
0.0
 10
375.0741885328143
 20
468.4564473902101
 30
0.0
 10
375.0937458029905
 20
468.3236669143707
 30
0.0
 10
375.1275884310741
 20
468.2875133905366
 30
0.0
 10
375.1450601036848
 20
468.2688486895981
 30
0.0
  0
SPLINE
  5
1CA
330
1F
100
AcDbEntity
  8
0
  6
Continuous
 62
     7
370
    15
100
AcDbSpline
210
0.0
220
0.0
230
1.0
 70
     8
 71
     3
 72
    11
 73
     7
 74
     0
 42
0.00000001
 43
0.00000001
 40
0.0
 40
0.0
 40
0.0
 40
0.0
 40
0.2484402509621916
 40
0.4978840269033825
 40
0.7483852149975645
 40
1.0
 40
1.0
 40
1.0
 40
1.0
 10
374.8949143107237
 20
470.2021998486939
 30
0.0
 10
374.9129268814531
 20
470.0237278933926
 30
0.0
 10
374.9490247811084
 20
469.6660630808249
 30
0.0
 10
374.9960513689813
 20
469.2012336510165
 30
0.0
 10
375.0348429662946
 20
468.8183532803101
 30
0.0
 10
375.0498874499743
 20
468.6710536408767
 30
0.0
 10
375.0574263747038
 20
468.5972404799881
 30
0.0
  0
SPLINE
  5
1CB
330
1F
100
AcDbEntity
  8
0
  6
Continuous
 62
     7
370
    15
100
AcDbSpline
210
0.0
220
0.0
230
1.0
 70
     8
 71
     3
 72
    19
 73
    15
 74
     0
 42
0.00000001
 43
0.00000001
 40
0.0
 40
0.0
 40
0.0
 40
0.0
 40
0.080280535163458
 40
0.1534392901233229
 40
0.2193401739592
 40
0.277945890787749
 40
0.3728435086148116
 40
0.4421528254276603
 40
0.531536850997979
 40
0.65548128488795
 40
0.7303540846048928
 40
0.8130770074610716
 40
0.9031426472576971
 40
0.9999999999999999
 40
0.9999999999999999
 40
0.9999999999999999
 40
0.9999999999999999
 10
375.0803741629423
 20
468.4380215726318
 30
0.0
 10
375.1157335249554
 20
468.3151469161676
 30
0.0
 10
375.1833154786067
 20
468.0802979577792
 30
0.0
 10
375.3805531618767
 20
467.7858972670627
 30
0.0
 10
375.605390900139
 20
467.5617659329055
 30
0.0
 10
375.9010568876414
 20
467.3687202827954
 30
0.0
 10
376.2430086221011
 20
467.2508286859145
 30
0.0
 10
376.652765002058
 20
467.2210219881056
 30
0.0
 10
377.0918485785861
 20
467.3233310512798
 30
0.0
 10
377.4783801370934
 20
467.5745626178289
 30
0.0
 10
377.7712139142459
 20
467.9152777623736
 30
0.0
 10
377.9520109562147
 20
468.2707347757914
 30
0.0
 10
378.0578959448415
 20
468.6976848151633
 30
0.0
 10
378.0256420718598
 20
468.9927531827814
 30
0.0
 10
378.0089291746916
 20
469.1456479154053
 30
0.0
  0
SPLINE
  5
1CC
330
1F
100
AcDbEntity
  8
0
  6
Continuous
 62
     7
370
    15
100
AcDbSpline
210
0.0
220
0.0
230
1.0
 70
     8
 71
     3
 72
    11
 73
     7
 74
     0
 42
0.00000001
 43
0.00000001
 40
0.0
 40
0.0
 40
0.0
 40
0.0
 40
0.2477428283008097
 40
0.4969483866774165
 40
0.7476740599281695
 40
1.0
 40
1.0
 40
1.0
 40
1.0
 10
378.0326965267957
 20
468.9779651484909
 30
0.0
 10
378.0262627690367
 20
469.0425907929646
 30
0.0
 10
378.0133572671477
 20
469.1722236464342
 30
0.0
 10
377.9773682537432
 20
469.5300969215033
 30
0.0
 10
377.9324153850433
 20
469.9764200904775
 30
0.0
 10
377.896975817728
 20
470.3272865213316
 30
0.0
 10
377.8791996653379
 20
470.5032778106155
 30
0.0
  0
LINE
  5
1CD
330
1F
100
AcDbEntity
  8
0
  6
Continuous
 62
     7
370
    15
100
AcDbLine
 10
378.1629922803
 20
480.1580828748
 30
0.0
 11
378.1629773791
 21
480.457894238
 31
0.0
  0
LINE
  5
1CE
330
1F
100
AcDbEntity
  8
0
  6
Continuous
 62
     7
370
    15
100
AcDbLine
 10
377.3629787381
 20
480.457894238
 30
0.0
 11
377.3629787381
 21
480.1605266653
 31
0.0
  0
SPLINE
  5
1CF
330
1F
100
AcDbEntity
  8
0
  6
Continuous
 62
     7
370
    15
100
AcDbSpline
210
0.0
220
0.0
230
1.0
 70
    24
 71
     3
 72
    11
 73
     7
 74
     0
 42
0.00000001
 43
0.00000001
 40
0.0
 40
0.0
 40
0.0
 40
0.0
 40
0.0207830911769763
 40
0.3465517753149153
 40
0.6711383671071365
 40
1.0
 40
1.0
 40
1.0
 40
1.0
 10
377.3629787380995
 20
480.7442200503769
 30
0.0
 10
377.3629787380995
 20
480.7408983385215
 30
0.0
 10
377.3629787380995
 20
480.685509795463
 30
0.0
 10
377.3629787380995
 20
480.5922763938246
 30
0.0
 10
377.3629787380994
 20
480.4795645700246
 30
0.0
 10
377.3629787380995
 20
480.445036675041
 30
0.0
 10
377.3629787380995
 20
480.4276597819748
 30
0.0
  0
SPLINE
  5
1D0
330
1F
100
AcDbEntity
  8
0
  6
Continuous
 62
     7
370
    15
100
AcDbSpline
210
0.0
220
0.0
230
1.0
 70
    24
 71
     3
 72
    11
 73
     7
 74
     0
 42
0.00000001
 43
0.00000001
 40
0.0
 40
0.0
 40
0.0
 40
0.0
 40
0.2504882810781092
 40
0.4977276445631719
 40
0.7458632262608219
 40
1.0
 40
1.0
 40
1.0
 40
1.0
 10
378.1629922802748
 20
480.425215991539
 30
0.0
 10
378.1629922802748
 20
480.4414331988218
 30
0.0
 10
378.1629922802748
 20
480.4736572707326
 30
0.0
 10
378.1629922802748
 20
480.5824313862154
 30
0.0
 10
378.1629922802748
 20
480.7212642340337
 30
0.0
 10
378.1629922802748
 20
480.8282906389445
 30
0.0
 10
378.1629922802748
 20
480.882443221611
 30
0.0
  0
LINE
  5
1D1
330
1F
100
AcDbEntity
  8
0
  6
Continuous
 62
     7
370
    15
100
AcDbLine
 10
377.1562400277
 20
480.9864086233
 30
0.0
 11
377.3651543076
 21
480.7391834579
 31
0.0
  0
LINE
  5
1D2
330
1F
100
AcDbEntity
  8
0
  6
Continuous
 62
     7
370
    15
100
AcDbLine
 10
378.1629922803
 20
480.8824432216
 30
0.0
 11
378.1629922803
 21
480.9864086233
 31
0.0
  0
LINE
  5
1D3
330
1F
100
AcDbEntity
  8
0
  6
Continuous
 62
     7
370
    15
100
AcDbLine
 10
372.8865954097
 20
490.1244265161
 30
0.0
 11
372.8709789927
 21
490.5836654029
 31
0.0
  0
SPLINE
  5
1D4
330
1F
100
AcDbEntity
  8
0
  6
Continuous
 62
     7
370
    15
100
AcDbSpline
210
0.0
220
0.0
230
1.0
 70
     8
 71
     3
 72
    11
 73
     7
 74
     0
 42
0.00000001
 43
0.00000001
 40
0.0
 40
0.0
 40
0.0
 40
0.0
 40
0.1207593587206983
 40
0.4133927558026758
 40
0.706358008527275
 40
1.0
 40
1.0
 40
1.0
 40
1.0
 10
374.9192628081144
 20
469.960994752449
 30
0.0
 10
374.9291860508216
 20
469.8626942010086
 30
0.0
 10
374.9631560610359
 20
469.5261841674395
 30
0.0
 10
375.0105144193612
 20
469.0572722396495
 30
0.0
 10
375.0533996924802
 20
468.6325339557083
 30
0.0
 10
375.060948956886
 20
468.5579921927575
 30
0.0
 10
375.0647279436888
 20
468.5206783137741
 30
0.0
  0
LINE
  5
1D5
330
1F
100
AcDbEntity
  8
0
  6
Continuous
 62
     7
370
    15
100
AcDbLine
 10
373.2474419291
 20
520.9864151798
 30
0.0
 11
372.4956783469
 21
520.7128000579
 31
0.0
  0
LINE
  5
1D6
330
1F
100
AcDbEntity
  8
0
  6
Continuous
 62
     7
370
    15
100
AcDbLine
 10
378.6956789906
 20
519.9864131532
 30
0.0
 11
378.3956888135
 21
519.9864131532
 31
0.0
  0
LINE
  5
1D7
330
1F
100
AcDbEntity
  8
0
  6
Continuous
 62
     7
370
    15
100
AcDbLine
 10
378.3956888135
 20
518.9864111267
 30
0.0
 11
378.2956871207
 21
518.9864111267
 31
0.0
  0
LINE
  5
1D8
330
1F
100
AcDbEntity
  8
0
  6
Continuous
 62
     7
370
    15
100
AcDbLine
 10
378.2956871207
 20
512.9864138685
 30
0.0
 11
378.3956888135
 21
512.9864138685
 31
0.0
  0
LINE
  5
1D9
330
1F
100
AcDbEntity
  8
0
  6
Continuous
 62
     7
370
    15
100
AcDbLine
 10
378.3956888135
 20
495.9864092193
 30
0.0
 11
378.2956871207
 21
495.9864092193
 31
0.0
  0
LINE
  5
1DA
330
1F
100
AcDbEntity
  8
0
  6
Continuous
 62
     7
370
    15
100
AcDbLine
 10
378.2956871207
 20
489.9864119611
 30
0.0
 11
378.3956888135
 21
489.9864119611
 31
0.0
  0
ARC
  5
1DB
330
1F
100
AcDbEntity
  8
0
  6
Continuous
 62
     7
370
    15
100
AcDbCircle
 10
393.6956819709
 20
458.9864118896
 30
0.0
 40
15.0
100
AcDbArc
 50
180.0
 51
270.0
  0
LINE
  5
1DC
330
1F
100
AcDbEntity
  8
0
  6
Continuous
 62
     7
370
    15
100
AcDbLine
 10
378.6956789906
 20
458.9864087425
 30
0.0
 11
393.6956795867
 21
458.9864087425
 31
0.0
  0
LINE
  5
1DD
330
1F
100
AcDbEntity
  8
0
  6
Continuous
 62
     7
370
    15
100
AcDbLine
 10
393.6956795867
 20
443.9864081464
 30
0.0
 11
393.6956795867
 21
458.9864087425
 31
0.0
  0
LINE
  5
1DE
330
1F
100
AcDbEntity
  8
0
  6
Continuous
 62
     7
370
    15
100
AcDbLine
 10
378.6956789906
 20
463.9864188753
 30
0.0
 11
378.6956789906
 21
458.9864087425
 31
0.0
  0
LINE
  5
1DF
330
1F
100
AcDbEntity
  8
0
  6
Continuous
 62
     7
370
    15
100
AcDbLine
 10
393.6956795867
 20
463.9864188753
 30
0.0
 11
393.6956795867
 21
458.9864087425
 31
0.0
  0
LINE
  5
1E0
330
1F
100
AcDbEntity
  8
0
  6
Continuous
 62
     7
370
    15
100
AcDbLine
 10
378.6956789906
 20
463.9864188753
 30
0.0
 11
393.6956795867
 21
463.9864188753
 31
0.0
  0
LINE
  5
1E1
330
1F
100
AcDbEntity
  8
0
  6
Continuous
 62
     7
370
    15
100
AcDbLine
 10
393.6956795867
 20
458.9864087425
 30
0.0
 11
763.6956843551
 21
458.9864087425
 31
0.0
  0
LINE
  5
1E2
330
1F
100
AcDbEntity
  8
0
  6
Continuous
 62
     7
370
    15
100
AcDbLine
 10
763.6956843551
 20
458.9864087425
 30
0.0
 11
763.6956843551
 21
443.9864081464
 31
0.0
  0
LINE
  5
1E3
330
1F
100
AcDbEntity
  8
0
  6
Continuous
 62
     7
370
    15
100
AcDbLine
 10
393.6956795867
 20
443.9864081464
 30
0.0
 11
763.6956843551
 21
443.9864081464
 31
0.0
  0
LINE
  5
1E4
330
1F
100
AcDbEntity
  8
0
  6
Continuous
 62
     7
370
    15
100
AcDbLine
 10
763.6956843551
 20
463.9864188753
 30
0.0
 11
763.6956843551
 21
458.9864087425
 31
0.0
  0
LINE
  5
1E5
330
1F
100
AcDbEntity
  8
0
  6
Continuous
 62
     7
370
    15
100
AcDbLine
 10
393.6956795867
 20
463.9864188753
 30
0.0
 11
763.6956843551
 21
463.9864188753
 31
0.0
  0
LINE
  5
1E6
330
1F
100
AcDbEntity
  8
0
  6
Continuous
 62
     7
370
    15
100
AcDbLine
 10
778.6956849511
 20
463.9864188753
 30
0.0
 11
778.6956849511
 21
458.9864087425
 31
0.0
  0
LINE
  5
1E7
330
1F
100
AcDbEntity
  8
0
  6
Continuous
 62
     7
370
    15
100
AcDbLine
 10
778.6956849511
 20
458.9864087425
 30
0.0
 11
763.6956843551
 21
458.9864087425
 31
0.0
  0
LINE
  5
1E8
330
1F
100
AcDbEntity
  8
0
  6
Continuous
 62
     7
370
    15
100
AcDbLine
 10
778.6956849511
 20
463.9864188753
 30
0.0
 11
763.6956843551
 21
463.9864188753
 31
0.0
  0
ARC
  5
1E9
330
1F
100
AcDbEntity
  8
0
  6
Continuous
 62
     7
370
    15
100
AcDbCircle
 10
763.6956819709
 20
458.9864118896
 30
0.0
 40
15.00000000000011
100
AcDbArc
 50
270.0
 51
0.0
  0
LINE
  5
1EA
330
1F
100
AcDbEntity
  8
0
  6
Continuous
 62
     7
370
    15
100
AcDbLine
 10
377.4956884797
 20
462.0041770063
 30
0.0
 11
378.6956789906
 21
462.0041770063
 31
0.0
  0
LINE
  5
1EB
330
1F
100
AcDbEntity
  8
0
  6
Continuous
 62
     7
370
    15
100
AcDbLine
 10
377.4956884797
 20
459.9002075515
 30
0.0
 11
378.6956789906
 21
459.9002075515
 31
0.0
  0
LINE
  5
1EC
330
1F
100
AcDbEntity
  8
0
  6
Continuous
 62
     7
370
    15
100
AcDbLine
 10
377.4956884797
 20
459.9002075515
 30
0.0
 11
377.4956884797
 21
462.0041770063
 31
0.0
  0
LINE
  5
1ED
330
1F
100
AcDbEntity
  8
0
  6
Continuous
 62
     7
370
    15
100
AcDbLine
 10
377.4956884797
 20
466.9864100538
 30
0.0
 11
378.6956789906
 21
466.9864100538
 31
0.0
  0
LINE
  5
1EE
330
1F
100
AcDbEntity
  8
0
  6
Continuous
 62
     7
370
    15
100
AcDbLine
 10
378.6956789906
 20
463.9864188753
 30
0.0
 11
378.6956789906
 21
466.9864100538
 31
0.0
  0
LINE
  5
1EF
330
1F
100
AcDbEntity
  8
0
  6
Continuous
 62
     7
370
    15
100
AcDbLine
 10
377.4956884797
 20
466.9864100538
 30
0.0
 11
377.4956884797
 21
462.0041770063
 31
0.0
  0
LINE
  5
1F0
330
1F
100
AcDbEntity
  8
0
  6
Continuous
 62
     7
370
    15
100
AcDbLine
 10
378.6956789906
 20
458.9864087425
 30
0.0
 11
378.6956789906
 21
455.4864091001
 31
0.0
  0
LINE
  5
1F1
330
1F
100
AcDbEntity
  8
0
  6
Continuous
 62
     7
370
    15
100
AcDbLine
 10
377.4956884797
 20
455.4864091001
 30
0.0
 11
377.4956884797
 21
459.9002075515
 31
0.0
  0
LINE
  5
1F2
330
1F
100
AcDbEntity
  8
0
  6
Continuous
 62
     7
370
    15
100
AcDbLine
 10
377.3956867869
 20
457.9864067159
 30
0.0
 11
377.3956867869
 21
463.9864188753
 31
0.0
  0
ARC
  5
1F3
330
1F
100
AcDbEntity
  8
0
  6
Continuous
 62
     7
370
    15
100
AcDbCircle
 10
375.8956819709
 20
468.6864118896
 30
0.0
 40
2.800000000000011
100
AcDbArc
 50
0.0
 51
45.4024529621
  0
LINE
  5
1F4
330
1F
100
AcDbEntity
  8
0
  6
Continuous
 62
     7
370
    15
100
AcDbLine
 10
374.7880282815
 20
471.2580067239
 30
0.0
 11
374.1911473687
 21
470.9077996335
 31
0.0
  0
LINE
  5
1F5
330
1F
100
AcDbEntity
  8
0
  6
Continuous
 62
     7
370
    15
100
AcDbLine
 10
371.3782253678
 20
467.2367942653
 30
0.0
 11
374.9216618951
 21
469.955779346
 31
0.0
  0
LINE
  5
1F6
330
1F
100
AcDbEntity
  8
0
  6
Continuous
 62
     7
370
    15
100
AcDbLine
 10
370.6477108414
 20
468.1888145528
 30
0.0
 11
371.3782253678
 21
467.2367942653
 31
0.0
  0
LINE
  5
1F7
330
1F
100
AcDbEntity
  8
0
  6
Continuous
 62
     7
370
    15
100
AcDbLine
 10
374.1911473687
 20
470.9077996335
 30
0.0
 11
370.6477108414
 21
468.1888145528
 31
0.0
  0
LINE
  5
1F8
330
1F
100
AcDbEntity
  8
0
  6
Continuous
 62
     7
370
    15
100
AcDbLine
 10
378.6956789906
 20
466.9864100538
 30
0.0
 11
378.6956789906
 21
467.9864120803
 31
0.0
  0
LINE
  5
1F9
330
1F
100
AcDbEntity
  8
0
  6
Continuous
 62
     7
370
    15
100
AcDbLine
 10
377.4956884797
 20
467.6273537002
 30
0.0
 11
377.4956884797
 21
466.9864100538
 31
0.0
  0
LINE
  5
1FA
330
1F
100
AcDbEntity
  8
0
  6
Continuous
 62
     7
370
    15
100
AcDbLine
 10
370.4261901791
 20
466.5062797389
 30
0.0
 11
369.6956756528
 21
467.4583000265
 31
0.0
  0
LWPOLYLINE
  5
1FB
330
1F
100
AcDbEntity
  8
0
  6
Continuous
 62
     7
370
    15
100
AcDbPolyline
 90
        9
 70
   128
 43
0.0
 10
369.6956756528
 20
467.4583000265
 10
369.7139742787
 20
467.4723369203
 10
369.7681549008
 20
467.51391116
 10
369.8561313565
 20
467.5814283214
 10
369.9745210822
 20
467.6722658
 10
370.1187941249
 20
467.7829665266
 10
370.2833774503
 20
467.9092687688
 10
370.4619678672
 20
468.0462998472
 10
370.6477108414
 20
468.1888145528
  0
LWPOLYLINE
  5
1FC
330
1F
100
AcDbEntity
  8
0
  6
Continuous
 62
     7
370
    15
100
AcDbPolyline
 90
        9
 70
   128
 43
0.0
 10
371.3782253678
 20
467.2367942653
 10
371.1924823935
 20
467.0942795597
 10
371.0138919766
 20
466.9572484813
 10
370.8493086512
 20
466.830946239
 10
370.7050356086
 20
466.7202455125
 10
370.5866458829
 20
466.6293931327
 10
370.4986694272
 20
466.5618908725
 10
370.4444888051
 20
466.5203166328
 10
370.4261901791
 20
466.5062797389
  0
SPLINE
  5
1FD
330
1F
100
AcDbEntity
  8
0
  6
Continuous
 62
     7
370
    15
100
AcDbSpline
210
0.0
220
0.0
230
1.0
 70
     8
 71
     3
 72
    12
 73
     8
 74
     0
 42
0.00000001
 43
0.00000001
 40
0.0
 40
0.0
 40
0.0
 40
0.0
 40
0.2340515605559213
 40
0.4681081209014387
 40
0.7021649452951938
 40
0.9362191094033155
 40
1.0
 40
1.0
 40
1.0
 40
1.0
 10
374.9926659281553
 20
485.6635254941406
 30
0.0
 10
374.7962730147935
 20
485.6441468091832
 30
0.0
 10
374.4034829927413
 20
485.6053890253026
 30
0.0
 10
373.8659845409218
 20
485.6001327263231
 30
0.0
 10
373.492482391852
 20
485.6386156633847
 30
0.0
 10
373.3132896126389
 20
485.6932758690764
 30
0.0
 10
373.3420087263406
 20
485.737231207365
 30
0.0
 10
373.3481588776411
 20
485.7466441712799
 30
0.0
  0
SPLINE
  5
1FE
330
1F
100
AcDbEntity
  8
0
  6
Continuous
 62
     7
370
    15
100
AcDbSpline
210
0.0
220
0.0
230
1.0
 70
     8
 71
     3
 72
    11
 73
     7
 74
     0
 42
0.00000001
 43
0.00000001
 40
0.0
 40
0.0
 40
0.0
 40
0.0
 40
0.1986873774642295
 40
0.4657927742637199
 40
0.732895501362279
 40
1.0
 40
1.0
 40
1.0
 40
1.0
 10
376.2885752137007
 20
486.0424173198166
 30
0.0
 10
376.2873924928501
 20
486.0179237409156
 30
0.0
 10
376.2846197810999
 20
485.960502216642
 30
0.0
 10
376.0150800954237
 20
485.8534283227286
 30
0.0
 10
375.5680314854403
 20
485.7426050739622
 30
0.0
 10
375.1844548712562
 20
485.6898854123574
 30
0.0
 10
374.9926659281553
 20
485.6635254941406
 30
0.0
  0
SPLINE
  5
1FF
330
1F
100
AcDbEntity
  8
0
  6
Continuous
 62
     7
370
    15
100
AcDbSpline
210
0.0
220
0.0
230
1.0
 70
     8
 71
     3
 72
    12
 73
     8
 74
     0
 42
0.00000001
 43
0.00000001
 40
0.0
 40
0.0
 40
0.0
 40
0.0
 40
0.2339647271648549
 40
0.4679283139645976
 40
0.7018968537062504
 40
0.9358627429943501
 40
1.0
 40
1.0
 40
1.0
 40
1.0
 10
374.3856820280851
 20
491.6753989777985
 30
0.0
 10
374.1896018243578
 20
491.6528959658156
 30
0.0
 10
373.7974423726158
 20
491.6078900515317
 30
0.0
 10
373.2945081168326
 20
491.2603984082534
 30
0.0
 10
372.9747005177013
 20
490.7669062270297
 30
0.0
 10
372.8467711951358
 20
490.3133203803307
 30
0.0
 10
372.904560367327
 20
490.0703273700792
 30
0.0
 10
372.9169937784971
 20
490.0180471263351
 30
0.0
  0
SPLINE
  5
200
330
1F
100
AcDbEntity
  8
0
  6
Continuous
 62
     7
370
    15
100
AcDbSpline
210
0.0
220
0.0
230
1.0
 70
     8
 71
     3
 72
    11
 73
     7
 74
     0
 42
0.00000001
 43
0.00000001
 40
0.0
 40
0.0
 40
0.0
 40
0.0
 40
0.1976852097385363
 40
0.4651245869200603
 40
0.7325583026066619
 40
1.0
 40
1.0
 40
1.0
 40
1.0
 10
375.8559050972761
 20
490.3251153550568
 30
0.0
 10
375.8376242326102
 20
490.4698635904459
 30
0.0
 10
375.794612013145
 20
490.8104351652331
 30
0.0
 10
375.4691584974967
 20
491.2602108633285
 30
0.0
 10
374.9758604985407
 20
491.6079399615269
 30
0.0
 10
374.5824101419982
 20
491.65291241534
 30
0.0
 10
374.3856820280851
 20
491.6753989777985
 30
0.0
  0
SPLINE
  5
201
330
1F
100
AcDbEntity
  8
0
  6
Continuous
 62
     7
370
    15
100
AcDbSpline
210
0.0
220
0.0
230
1.0
 70
     8
 71
     3
 72
    12
 73
     8
 74
     0
 42
0.00000001
 43
0.00000001
 40
0.0
 40
0.0
 40
0.0
 40
0.0
 40
0.2350176793872489
 40
0.4700291397670341
 40
0.7050458845177425
 40
0.9400624323235348
 40
1.0
 40
1.0
 40
1.0
 40
1.0
 10
376.5617433007063
 20
470.1225531421127
 30
0.0
 10
376.3653525216025
 20
470.1031751877767
 30
0.0
 10
375.9725761602625
 20
470.0644197918816
 30
0.0
 10
375.4349683647847
 20
470.0591513995985
 30
0.0
 10
375.0619027321956
 20
470.0976771391689
 30
0.0
 10
374.882861334795
 20
470.1517979331107
 30
0.0
 10
374.9107619159
 20
470.1950993156568
 30
0.0
 10
374.9164315874876
 20
470.20389858107
 30
0.0
  0
SPLINE
  5
202
330
1F
100
AcDbEntity
  8
0
  6
Continuous
 62
     7
370
    15
100
AcDbSpline
210
0.0
220
0.0
230
1.0
 70
     8
 71
     3
 72
    11
 73
     7
 74
     0
 42
0.00000001
 43
0.00000001
 40
0.0
 40
0.0
 40
0.0
 40
0.0
 40
0.1989239597362801
 40
0.465950584310487
 40
0.7329742733226847
 40
1.0
 40
1.0
 40
1.0
 40
1.0
 10
377.8576972897352
 20
470.5015492759171
 30
0.0
 10
377.8565235022991
 20
470.4770229978089
 30
0.0
 10
377.8537740751192
 20
470.4195737411655
 30
0.0
 10
377.5841671964359
 20
470.3124558238931
 30
0.0
 10
377.1371061652833
 20
470.2016327125482
 30
0.0
 10
376.753531410075
 20
470.1489130659752
 30
0.0
 10
376.5617433007063
 20
470.1225531421127
 30
0.0
  0
LINE
  5
203
330
1F
100
AcDbEntity
  8
0
  6
Continuous
 62
     7
370
    15
100
AcDbLine
 10
375.084814709
 20
468.5201269708
 30
0.0
 11
375.0838163312
 21
468.7236619316
 31
0.0
  0
ARC
  5
204
330
1F
100
AcDbEntity
  8
0
  6
Continuous
 62
     7
370
    15
100
AcDbCircle
 10
377.7629711696
 20
480.4241826963
 30
0.0
 40
0.4000075441357508
100
AcDbArc
 50
0.1480060145
 51
179.5019472847
  0
ELLIPSE
  5
205
330
1F
100
AcDbEntity
  8
0
  6
Continuous
 62
     7
370
    15
100
AcDbEllipse
 10
377.7629813712
 20
480.1593034959
 30
0.0
 11
0.3991830274373456
 21
-0.02624604221148275
 31
0.0
210
0.0
220
0.0
230
1.0
 40
0.9763157485
 41
0.0
 42
6.283185307179586
  0
SPLINE
  5
206
330
1F
100
AcDbEntity
  8
0
  6
Continuous
 62
     7
370
    15
100
AcDbSpline
210
0.0
220
0.0
230
1.0
 70
     8
 71
     3
 72
    13
 73
     9
 74
     0
 42
0.00000001
 43
0.00000001
 40
0.0
 40
0.0
 40
0.0
 40
0.0
 40
0.0081674949821455
 40
0.2391516450138098
 40
0.4710952474605702
 40
0.6931189847480742
 40
0.9042234763249337
 40
1.0
 40
1.0
 40
1.0
 40
1.0
 10
377.7629855091871
 20
480.8881354651871
 30
0.0
 10
377.7613265972128
 20
480.8877431986191
 30
0.0
 10
377.7127521532153
 20
480.8762572784939
 30
0.0
 10
377.6166418408085
 20
480.8529695231255
 30
0.0
 10
377.4938005214138
 20
480.8093478213596
 30
0.0
 10
377.4081501623532
 20
480.7719049144207
 30
0.0
 10
377.3641323469278
 20
480.7507395729949
 30
0.0
 10
377.3673642823665
 20
480.745770790527
 30
0.0
 10
377.3683729584516
 20
480.7442200503769
 30
0.0
  0
SPLINE
  5
207
330
1F
100
AcDbEntity
  8
0
  6
Continuous
 62
     7
370
    15
100
AcDbSpline
210
0.0
220
0.0
230
1.0
 70
     8
 71
     3
 72
    13
 73
     9
 74
     0
 42
0.00000001
 43
0.00000001
 40
0.0
 40
0.0
 40
0.0
 40
0.0
 40
0.1252296699545766
 40
0.2499795205679951
 40
0.4999947282018833
 40
0.7499963775429682
 40
0.8747535942536557
 40
1.0
 40
1.0
 40
1.0
 40
1.0
 10
378.1629922802748
 20
480.882443221611
 30
0.0
 10
378.1612778471919
 20
480.8824652144698
 30
0.0
 10
378.1578555499021
 20
480.8825091159218
 30
0.0
 10
378.1234769270158
 20
480.8830211710047
 30
0.0
 10
378.0481959965069
 20
480.8840698546205
 30
0.0
 10
377.9395474369342
 20
480.885627716339
 30
0.0
 10
377.84083635391
 20
480.8870234346961
 30
0.0
 10
377.7889696204543
 20
480.8877643051295
 30
0.0
 10
377.7629855091871
 20
480.8881354651871
 30
0.0
  0
SPLINE
  5
208
330
1F
100
AcDbEntity
  8
0
  6
Continuous
 62
     7
370
    15
100
AcDbSpline
210
0.0
220
0.0
230
1.0
 70
     8
 71
     3
 72
    10
 73
     6
 74
     0
 42
0.00000001
 43
0.00000001
 40
0.0
 40
0.0
 40
0.0
 40
0.0
 40
0.0190228700517773
 40
0.5253207342098283
 40
1.0
 40
1.0
 40
1.0
 40
1.0
 10
377.7629855091871
 20
480.8881354651871
 30
0.0
 10
377.7645098374455
 20
480.8888756892593
 30
0.0
 10
377.8066044970682
 20
480.9093171395816
 30
0.0
 10
377.8891626457977
 20
480.9476499517172
 30
0.0
 10
377.959309974125
 20
480.9737696943175
 30
0.0
 10
377.9932531531156
 20
480.9864086232605
 30
0.0
  0
LINE
  5
209
330
1F
100
AcDbEntity
  8
0
  6
Continuous
 62
     7
370
    15
100
AcDbLine
 10
372.8864612992
 20
490.127376946
 30
0.0
 11
372.89891867
 21
489.9766069971
 31
0.0
  0
LINE
  5
20A
330
1F
100
AcDbEntity
  8
0
  6
Continuous
 62
     7
370
    15
100
AcDbLine
 10
375.8786889727
 20
490.3201085649
 30
0.0
 11
375.8431049998
 21
490.5302745424
 31
0.0
  0
ARC
  5
20B
330
1F
100
AcDbEntity
  8
0
  6
Continuous
 62
     7
370
    15
100
AcDbCircle
 10
373.7956819709
 20
484.0064118896
 30
0.0
 40
2.200000000000049
100
AcDbArc
 50
103.5934783353
 51
268.1042765976
  0
LINE
  5
20C
330
1F
100
AcDbEntity
  8
0
  6
Continuous
 62
     7
370
    15
100
AcDbLine
 10
370.2488514598
 20
485.3841734252
 30
0.0
 11
370.5825033601
 21
487.2764122806
 31
0.0
  0
LWPOLYLINE
  5
20D
330
1F
100
AcDbEntity
  8
0
  6
Continuous
 62
     7
370
    15
100
AcDbPolyline
 90
        9
 70
   128
 43
0.0
 10
370.5825033601
 20
487.2764122806
 10
370.4382601197
 20
487.3018485628
 10
370.3012290414
 20
487.3260033451
 10
370.176118892
 20
487.3480719648
 10
370.0672659095
 20
487.3672646604
 10
369.9784400876
 20
487.3829257808
 10
369.9127110656
 20
487.3945188842
 10
369.8723438199
 20
487.4016267381
 10
369.8587241586
 20
487.4040407262
  0
LINE
  5
20E
330
1F
100
AcDbEntity
  8
0
  6
Continuous
 62
     7
370
    15
100
AcDbLine
 10
369.8587241586
 20
487.4040407262
 30
0.0
 11
374.2337646897
 21
512.216143044
 31
0.0
  0
LWPOLYLINE
  5
20F
330
1F
100
AcDbEntity
  8
0
  6
Continuous
 62
     7
370
    15
100
AcDbPolyline
 90
        9
 70
   128
 43
0.0
 10
374.2337646897
 20
512.216143044
 10
374.2489042695
 20
512.2134757362
 10
374.2937418635
 20
512.2055632196
 10
374.3665489371
 20
512.1927333198
 10
374.464524072
 20
512.175462874
 10
374.5839121754
 20
512.1544075332
 10
374.7201236899
 20
512.1303868614
 10
374.8679134066
 20
512.1043247304
 10
375.0216188844
 20
512.0772195182
  0
LINE
  5
210
330
1F
100
AcDbEntity
  8
0
  6
Continuous
 62
     7
370
    15
100
AcDbLine
 10
375.0216188844
 20
512.0772195182
 30
0.0
 11
370.1962801631
 21
484.7114157997
 31
0.0
  0
LINE
  5
211
330
1F
100
AcDbEntity
  8
0
  6
Continuous
 62
     7
370
    15
100
AcDbLine
 10
370.1962801631
 20
484.7114157997
 30
0.0
 11
370.2488514598
 21
485.3841734252
 31
0.0
  0
LWPOLYLINE
  5
212
330
1F
100
AcDbEntity
  8
0
  6
Continuous
 62
     7
370
    15
100
AcDbPolyline
 90
        5
 70
   128
 43
0.0
 10
373.0810704644
 20
519.1044730268
 10
372.8275868113
 20
519.8008787952
 10
372.6440343077
 20
520.3051936946
 10
372.5329014476
 20
520.6105482898
 10
372.4956783469
 20
520.7128000579
  0
LWPOLYLINE
  5
213
330
1F
100
AcDbEntity
  8
0
  6
Continuous
 62
     7
370
    15
100
AcDbPolyline
 90
        5
 70
   128
 43
0.0
 10
373.8406869586
 20
519.3564516626
 10
373.5838505442
 20
520.0621259532
 10
373.3978095467
 20
520.5732506833
 10
373.2851567681
 20
520.8827627025
 10
373.2474419291
 20
520.9864151798
  0
LINE
  5
214
330
1F
100
AcDbEntity
  8
0
  6
Continuous
 62
     7
370
    15
100
AcDbLine
 10
374.0627887662
 20
519.0020126424
 30
0.0
 11
373.8406869586
 21
519.3564516626
 31
0.0
  0
LINE
  5
215
330
1F
100
AcDbEntity
  8
0
  6
Continuous
 62
     7
370
    15
100
AcDbLine
 10
373.980593961
 20
518.9720911107
 30
0.0
 11
374.0627887662
 21
519.0020126424
 31
0.0
  0
SPLINE
  5
216
330
1F
100
AcDbEntity
  8
0
  6
Continuous
 62
     7
370
    15
100
AcDbSpline
210
0.0
220
0.0
230
1.0
 70
     8
 71
     3
 72
    12
 73
     8
 74
     0
 42
0.00000001
 43
0.00000001
 40
0.0
 40
0.0
 40
0.0
 40
0.0
 40
0.251021954853923
 40
0.5023976742662282
 40
0.7402766408850124
 40
0.947307288298956
 40
1.0
 40
1.0
 40
1.0
 40
1.0
 10
373.0810704644026
 20
519.1044730267944
 30
0.0
 10
373.1087792922252
 20
519.0601550287786
 30
0.0
 10
373.1642359978463
 20
518.9714565755125
 30
0.0
 10
373.3712341568958
 20
518.8964676286707
 30
0.0
 10
373.6326220965385
 20
518.8849604292452
 30
0.0
 10
373.8492051562069
 20
518.926609031768
 30
0.0
 10
373.9584336656422
 20
518.9644200134547
 30
0.0
 10
373.9805939610304
 20
518.9720911107482
 30
0.0
  0
LINE
  5
217
330
1F
100
AcDbEntity
  8
0
  6
Continuous
 62
     7
370
    15
100
AcDbLine
 10
373.980593961
 20
518.9720911107
 30
0.0
 11
374.5569261725
 21
517.3886043153
 31
0.0
  0
LWPOLYLINE
  5
218
330
1F
100
AcDbEntity
  8
0
  6
Continuous
 62
     7
370
    15
100
AcDbPolyline
 90
        9
 70
   128
 43
0.0
 10
373.8051774915
 20
517.1149891935
 10
373.8196167167
 20
517.1202493034
 10
373.8623979504
 20
517.1358210168
 10
373.9318671639
 20
517.1611082874
 10
374.0253570493
 20
517.1951276384
 10
374.1392764266
 20
517.23659757
 10
374.2692443545
 20
517.2839087568
 10
374.4102689441
 20
517.3352283559
 10
374.5569261725
 20
517.3886043153
  0
LINE
  5
219
330
1F
100
AcDbEntity
  8
0
  6
Continuous
 62
     7
370
    15
100
AcDbLine
 10
373.8051774915
 20
517.1149891935
 30
0.0
 11
373.0810704644
 21
519.1044730268
 31
0.0
  0
ARC
  5
21A
330
1F
100
AcDbEntity
  8
0
  6
Continuous
 62
     7
370
    15
100
AcDbCircle
 10
374.385687477
 20
490.1754028081
 30
0.0
 40
1.599999999999969
100
AcDbArc
 50
347.034367059
 51
204.5950707184
  0
ARC
  5
21B
330
1F
100
AcDbEntity
  8
0
  6
Continuous
 62
     7
370
    15
100
AcDbCircle
 10
374.8983964423
 20
518.1984767439
 30
0.0
 40
0.5000000000001137
100
AcDbArc
 50
36.8410865503
 51
90.0
  0
ARC
  5
21C
330
1F
100
AcDbEntity
  8
0
  6
Continuous
 62
     7
370
    15
100
AcDbCircle
 10
367.6956819709
 20
512.8020979355
 30
0.0
 40
9.499999999999943
100
AcDbArc
 50
0.0
 51
36.8410865502
  0
LINE
  5
21D
330
1F
100
AcDbEntity
  8
0
  6
Continuous
 62
     7
370
    15
100
AcDbLine
 10
377.1956834014
 20
512.8021014057
 30
0.0
 11
377.1956834014
 21
484.7764146648
 31
0.0
  0
ARC
  5
21E
330
1F
100
AcDbEntity
  8
0
  6
Continuous
 62
     7
370
    15
100
AcDbCircle
 10
364.8780949304
 20
513.8658023579
 30
0.0
 40
10.3000000000002
100
AcDbArc
 50
350.0
 51
20.0
  0
ARC
  5
21F
330
1F
100
AcDbEntity
  8
0
  6
Continuous
 62
     7
370
    15
100
AcDbCircle
 10
374.7803838967
 20
519.6984767439
 30
0.0
 40
1.0
100
AcDbArc
 50
224.1440002858
 51
270.0
  0
LINE
  5
220
330
1F
100
AcDbEntity
  8
0
  6
Continuous
 62
     7
370
    15
100
AcDbLine
 10
374.7803839858
 20
518.6984759889
 30
0.0
 11
374.8984011824
 21
518.6984759889
 31
0.0
  0
LWPOLYLINE
  5
221
330
1F
100
AcDbEntity
  8
0
  6
Continuous
 62
     7
370
    15
100
AcDbPolyline
 90
        3
 70
   128
 43
0.0
 10
377.1956834014
 20
484.7764146648
 10
376.9870671447
 20
483.5861248098
 10
376.6308995898
 20
482.8699750028
  0
ARC
  5
222
330
1F
100
AcDbEntity
  8
0
  6
Continuous
 62
     7
370
    15
100
AcDbCircle
 10
373.6956819709
 20
484.7764118896
 30
0.0
 40
3.500000000000009
100
AcDbArc
 50
181.0639402281
 51
271.3221928089
  0
ARC
  5
223
330
1F
100
AcDbEntity
  8
0
  6
Continuous
 62
     7
370
    15
100
AcDbCircle
 10
364.8780949304
 20
513.8658023579
 30
0.0
 40
9.500000000000078
100
AcDbArc
 50
350.0
 51
20.0
  0
ARC
  5
224
330
1F
100
AcDbEntity
  8
0
  6
Continuous
 62
     7
370
    15
100
AcDbCircle
 10
374.2892997642
 20
485.4739074164
 30
0.0
 40
4.69842830268837
100
AcDbArc
 50
170.0
 51
264.3261771657
  0
LINE
  5
225
330
1F
100
AcDbEntity
  8
0
  6
Continuous
 62
     7
370
    15
100
AcDbLine
 10
369.8587241586
 20
487.4040407262
 30
0.0
 11
369.6622523482
 21
486.2897765956
 31
0.0
  0
LINE
  5
226
330
1F
100
AcDbEntity
  8
0
  6
Continuous
 62
     7
370
    15
100
AcDbLine
 10
763.6956843551
 20
678.986412207
 30
0.0
 11
393.6956795867
 21
678.986412207
 31
0.0
  0
LINE
  5
227
330
1F
100
AcDbEntity
  8
0
  6
Continuous
 62
     7
370
    15
100
AcDbLine
 10
393.6956795867
 20
678.986412207
 30
0.0
 11
393.6956795867
 21
693.9864118717
 31
0.0
  0
LINE
  5
228
330
1F
100
AcDbEntity
  8
0
  6
Continuous
 62
     7
370
    15
100
AcDbLine
 10
763.6956843551
 20
693.9864118717
 30
0.0
 11
393.6956795867
 21
693.9864118717
 31
0.0
  0
LINE
  5
229
330
1F
100
AcDbEntity
  8
0
  6
Continuous
 62
     7
370
    15
100
AcDbLine
 10
763.6956843551
 20
678.986412207
 30
0.0
 11
763.6956843551
 21
693.9864118717
 31
0.0
  0
LINE
  5
22A
330
1F
100
AcDbEntity
  8
0
  6
Continuous
 62
     7
370
    15
100
AcDbLine
 10
393.6956795867
 20
678.986412207
 30
0.0
 11
378.6956789906
 21
678.986412207
 31
0.0
  0
ARC
  5
22B
330
1F
100
AcDbEntity
  8
0
  6
Continuous
 62
     7
370
    15
100
AcDbCircle
 10
393.6956819709
 20
678.9864118896
 30
0.0
 40
15.00000000000006
100
AcDbArc
 50
90.0
 51
180.0
  0
LINE
  5
22C
330
1F
100
AcDbEntity
  8
0
  6
Continuous
 62
     7
370
    15
100
AcDbLine
 10
763.6956843551
 20
678.986412207
 30
0.0
 11
778.6956849511
 21
678.986412207
 31
0.0
  0
ARC
  5
22D
330
1F
100
AcDbEntity
  8
0
  6
Continuous
 62
     7
370
    15
100
AcDbCircle
 10
763.6956819709
 20
678.9864118896
 30
0.0
 40
15.0
100
AcDbArc
 50
0.0
 51
90.0
  0
LINE
  5
22E
330
1F
100
AcDbEntity
  8
0
  6
Continuous
 62
     7
370
    15
100
AcDbLine
 10
763.6956843551
 20
467.9864120803
 30
0.0
 11
763.6956843551
 21
678.986412207
 31
0.0
  0
LINE
  5
22F
330
1F
100
AcDbEntity
  8
0
  6
Continuous
 62
     7
370
    15
100
AcDbLine
 10
778.6956849511
 20
467.9864120803
 30
0.0
 11
778.6956849511
 21
678.986412207
 31
0.0
  0
LINE
  5
230
330
1F
100
AcDbEntity
  8
0
  6
Continuous
 62
     7
370
    15
100
AcDbLine
 10
778.6956849511
 20
467.9864120803
 30
0.0
 11
763.6956843551
 21
467.9864120803
 31
0.0
  0
LINE
  5
231
330
1F
100
AcDbEntity
  8
0
  6
Continuous
 62
     7
370
    15
100
AcDbLine
 10
393.6956795867
 20
467.9864120803
 30
0.0
 11
763.6956843551
 21
467.9864120803
 31
0.0
  0
LINE
  5
232
330
1F
100
AcDbEntity
  8
0
  6
Continuous
 62
     7
370
    15
100
AcDbLine
 10
393.6956795867
 20
467.9864120803
 30
0.0
 11
393.6956795867
 21
678.986412207
 31
0.0
  0
LINE
  5
233
330
1F
100
AcDbEntity
  8
0
  6
Continuous
 62
     7
370
    15
100
AcDbLine
 10
398.6956748183
 20
487.986407908
 30
0.0
 11
398.6956748183
 21
673.9864123187
 31
0.0
  0
LINE
  5
234
330
1F
100
AcDbEntity
  8
0
  6
Continuous
 62
     7
370
    15
100
AcDbLine
 10
398.6956748183
 20
487.986407908
 30
0.0
 11
758.6956891234
 21
487.986407908
 31
0.0
  0
LINE
  5
235
330
1F
100
AcDbEntity
  8
0
  6
Continuous
 62
     7
370
    15
100
AcDbLine
 10
758.6956891234
 20
673.9864123187
 30
0.0
 11
758.6956891234
 21
487.986407908
 31
0.0
  0
LINE
  5
236
330
1F
100
AcDbEntity
  8
0
  6
Continuous
 62
     7
370
    15
100
AcDbLine
 10
758.6956891234
 20
673.9864123187
 30
0.0
 11
398.6956748183
 21
673.9864123187
 31
0.0
  0
LINE
  5
237
330
1F
100
AcDbEntity
  8
0
  6
Continuous
 62
     7
370
    15
100
AcDbLine
 10
378.6956789906
 20
467.9864120803
 30
0.0
 11
378.6956789906
 21
678.986412207
 31
0.0
  0
LINE
  5
238
330
1F
100
AcDbEntity
  8
0
  6
Continuous
 62
     7
370
    15
100
AcDbLine
 10
393.6956795867
 20
467.9864120803
 30
0.0
 11
378.6956789906
 21
467.9864120803
 31
0.0
  0
LINE
  5
239
330
1F
100
AcDbEntity
  8
0
  6
Continuous
 62
     7
370
    15
100
AcDbLine
 10
398.6956748183
 20
463.9864188753
 30
0.0
 11
398.6956748183
 21
467.9864120803
 31
0.0
  0
LINE
  5
23A
330
1F
100
AcDbEntity
  8
0
  6
Continuous
 62
     7
370
    15
100
AcDbLine
 10
383.6956891234
 20
463.9864188753
 30
0.0
 11
383.6956891234
 21
467.9864120803
 31
0.0
  0
LINE
  5
23B
330
1F
100
AcDbEntity
  8
0
  6
Continuous
 62
     7
370
    15
100
AcDbLine
 10
758.6956891234
 20
463.9864188753
 30
0.0
 11
758.6956891234
 21
467.9864120803
 31
0.0
  0
LINE
  5
23C
330
1F
100
AcDbEntity
  8
0
  6
Continuous
 62
     7
370
    15
100
AcDbLine
 10
773.6956748183
 20
467.9864120803
 30
0.0
 11
773.6956748183
 21
463.9864188753
 31
0.0
  0
LINE
  5
23D
330
1F
100
AcDbEntity
  8
0
  6
Continuous
 62
     7
370
    15
100
AcDbLine
 10
778.6956849511
 20
467.9864120803
 30
0.0
 11
779.3630036528
 21
467.9864120803
 31
0.0
  0
ARC
  5
23E
330
1F
100
AcDbEntity
  8
0
  6
Continuous
 62
     7
370
    15
100
AcDbCircle
 10
779.3629997189
 20
468.4864118896
 30
0.0
 40
0.5000000000000568
100
AcDbArc
 50
270.0
 51
332.720387264
  0
ARC
  5
23F
330
1F
100
AcDbEntity
  8
0
  6
Continuous
 62
     7
370
    15
100
AcDbCircle
 10
784.6956819709
 20
465.7364118896
 30
0.0
 40
5.500000000000115
100
AcDbArc
 50
202.024312837
 51
152.720387264
  0
ARC
  5
240
330
1F
100
AcDbEntity
  8
0
  6
Continuous
 62
     7
370
    15
100
AcDbCircle
 10
779.1335331055
 20
463.4864118896
 30
0.0
 40
0.4999999999999757
100
AcDbArc
 50
22.024312837
 51
90.0
  0
LINE
  5
241
330
1F
100
AcDbEntity
  8
0
  6
Continuous
 62
     7
370
    15
100
AcDbLine
 10
779.1335257705
 20
463.9864188753
 30
0.0
 11
778.6956849511
 21
463.9864188753
 31
0.0
  0
LINE
  5
242
330
1F
100
AcDbEntity
  8
0
  6
Continuous
 62
     7
370
    15
100
AcDbLine
 10
378.3956888135
 20
487.186409267
 30
0.0
 11
378.6956789906
 21
487.1874672494
 31
0.0
  0
LINE
  5
243
330
1F
100
AcDbEntity
  8
0
  6
Continuous
 62
     7
370
    15
100
AcDbLine
 10
378.6956789906
 20
489.1864133201
 30
0.0
 11
378.3956888135
 21
489.1864133201
 31
0.0
  0
LINE
  5
244
330
1F
100
AcDbEntity
  8
0
  6
Continuous
 62
     7
370
    15
100
AcDbLine
 10
378.3956888135
 20
487.186409267
 30
0.0
 11
378.3956888135
 21
489.1864133201
 31
0.0
  0
ARC
  5
245
330
1F
100
AcDbEntity
  8
0
  6
Continuous
 62
     7
370
    15
100
AcDbCircle
 10
373.4956819709
 20
484.0864118896
 30
0.0
 40
3.100000000000023
100
AcDbArc
 50
192.314932462
 51
270.0
  0
LINE
  5
246
330
1F
100
AcDbEntity
  8
0
  6
Continuous
 62
     7
370
    15
100
AcDbLine
 10
378.3956888135
 20
487.186409267
 30
0.0
 11
377.1956834014
 21
487.186409267
 31
0.0
  0
LINE
  5
247
330
1F
100
AcDbEntity
  8
0
  6
Continuous
 62
     7
370
    15
100
AcDbLine
 10
378.3956888135
 20
480.9864086233
 30
0.0
 11
378.3956888135
 21
487.186409267
 31
0.0
  0
LINE
  5
248
330
1F
100
AcDbEntity
  8
0
  6
Continuous
 62
     7
370
    15
100
AcDbLine
 10
373.4956803735
 20
480.9864086233
 30
0.0
 11
373.8058182414
 21
480.9864086233
 31
0.0
  0
LINE
  5
249
330
1F
100
AcDbEntity
  8
0
  6
Continuous
 62
     7
370
    15
100
AcDbLine
 10
376.821068209
 20
480.9864086233
 30
0.0
 11
378.3956888135
 21
480.9864086233
 31
0.0
  0
LINE
  5
24A
330
1F
100
AcDbEntity
  8
0
  6
Continuous
 62
     7
370
    15
100
AcDbLine
 10
378.6956789906
 20
480.9864086233
 30
0.0
 11
378.3956888135
 21
480.9864086233
 31
0.0
  0
LINE
  5
24B
330
1F
100
AcDbEntity
  8
0
  6
Continuous
 62
     7
370
    15
100
AcDbLine
 10
378.3956888135
 20
489.1864133201
 30
0.0
 11
378.3956888135
 21
513.2364106498
 31
0.0
  0
LINE
  5
24C
330
1F
100
AcDbEntity
  8
0
  6
Continuous
 62
     7
370
    15
100
AcDbLine
 10
378.3956888135
 20
519.9864131532
 30
0.0
 11
378.3956888135
 21
513.2364106498
 31
0.0
  0
LINE
  5
24D
330
1F
100
AcDbEntity
  8
0
  6
Continuous
 62
     7
370
    15
100
AcDbLine
 10
378.2956871207
 20
512.9864138685
 30
0.0
 11
378.2956871207
 21
518.9864111267
 31
0.0
  0
LINE
  5
24E
330
1F
100
AcDbEntity
  8
0
  6
Continuous
 62
     7
370
    15
100
AcDbLine
 10
378.2956871207
 20
489.9864119611
 30
0.0
 11
378.2956871207
 21
495.9864092193
 31
0.0
  0
LINE
  5
24F
330
1F
100
AcDbEntity
  8
0
  6
Continuous
 62
     7
370
    15
100
AcDbLine
 10
378.3956888135
 20
503.9864105306
 30
0.0
 11
377.1956834014
 21
504.3079477868
 31
0.0
  0
LINE
  5
250
330
1F
100
AcDbEntity
  8
0
  6
Continuous
 62
     7
370
    15
100
AcDbLine
 10
377.1956834014
 20
505.343220862
 30
0.0
 11
378.3956888135
 21
505.0216836057
 31
0.0
  0
LINE
  5
251
330
1F
100
AcDbEntity
  8
0
  6
Continuous
 62
     8
370
    15
100
AcDbLine
 10
378.6956789906
 20
513.2364106498
 30
0.0
 11
378.3956888135
 21
513.2364106498
 31
0.0
  0
ENDSEC
  0
SECTION
  2
OBJECTS
  0
DICTIONARY
  5
C
330
0
100
AcDbDictionary
281
     1
  3
ACAD_GROUP
350
D
  3
ACAD_LAYOUT
350
1A
  3
ACAD_MLINESTYLE
350
17
  3
ACAD_PLOTSETTINGS
350
19
  3
ACAD_PLOTSTYLENAME
350
E
  0
DICTIONARY
  5
D
102
{ACAD_REACTORS
330
C
102
}
330
C
100
AcDbDictionary
281
     1
  0
DICTIONARY
  5
1A
102
{ACAD_REACTORS
330
C
102
}
330
C
100
AcDbDictionary
281
     1
  3
Layout1
350
1E
  3
Layout2
350
26
  3
Model
350
22
  0
DICTIONARY
  5
17
102
{ACAD_REACTORS
330
C
102
}
330
C
100
AcDbDictionary
281
     1
  3
Standard
350
18
  0
DICTIONARY
  5
19
102
{ACAD_REACTORS
330
C
102
}
330
C
100
AcDbDictionary
281
     1
  0
ACDBDICTIONARYWDFLT
  5
E
102
{ACAD_REACTORS
330
C
102
}
330
C
100
AcDbDictionary
281
     1
  3
Normal
350
F
100
AcDbDictionaryWithDefault
340
F
  0
LAYOUT
  5
1E
102
{ACAD_REACTORS
330
1A
102
}
330
1A
100
AcDbPlotSettings
  1

  2
none_device
  4

  6

 40
0.0
 41
0.0
 42
0.0
 43
0.0
 44
0.0
 45
0.0
 46
0.0
 47
0.0
 48
0.0
 49
0.0
140
0.0
141
0.0
142
1.0
143
1.0
 70
   688
 72
     0
 73
     0
 74
     5
  7

 75
    16
147
1.0
148
0.0
149
0.0
100
AcDbLayout
  1
Layout1
 70
     1
 71
     1
 10
0.0
 20
0.0
 11
420.0
 21
297.0
 12
0.0
 22
0.0
 32
0.0
 14
1.0000000000E+20
 24
1.0000000000E+20
 34
1.0000000000E+20
 15
-1.0000000000E+20
 25
-1.0000000000E+20
 35
-1.0000000000E+20
146
0.0
 13
0.0
 23
0.0
 33
0.0
 16
1.0
 26
0.0
 36
0.0
 17
0.0
 27
1.0
 37
0.0
 76
     0
330
1B
  0
LAYOUT
  5
26
102
{ACAD_REACTORS
330
1A
102
}
330
1A
100
AcDbPlotSettings
  1

  2
none_device
  4

  6

 40
0.0
 41
0.0
 42
0.0
 43
0.0
 44
0.0
 45
0.0
 46
0.0
 47
0.0
 48
0.0
 49
0.0
140
0.0
141
0.0
142
1.0
143
1.0
 70
   688
 72
     0
 73
     0
 74
     5
  7

 75
    16
147
1.0
148
0.0
149
0.0
100
AcDbLayout
  1
Layout2
 70
     1
 71
     2
 10
0.0
 20
0.0
 11
0.0
 21
0.0
 12
0.0
 22
0.0
 32
0.0
 14
0.0
 24
0.0
 34
0.0
 15
0.0
 25
0.0
 35
0.0
146
0.0
 13
0.0
 23
0.0
 33
0.0
 16
1.0
 26
0.0
 36
0.0
 17
0.0
 27
1.0
 37
0.0
 76
     0
330
23
  0
LAYOUT
  5
22
102
{ACAD_REACTORS
330
1A
102
}
330
1A
100
AcDbPlotSettings
  1

  2
none_device
  4

  6

 40
0.0
 41
0.0
 42
0.0
 43
0.0
 44
0.0
 45
0.0
 46
0.0
 47
0.0
 48
0.0
 49
0.0
140
0.0
141
0.0
142
1.0
143
1.0
 70
  1712
 72
     0
 73
     0
 74
     0
  7

 75
     0
147
1.0
148
0.0
149
0.0
100
AcDbLayout
  1
Model
 70
     1
 71
     0
 10
0.0
 20
0.0
 11
840.0
 21
594.0
 12
0.0
 22
0.0
 32
0.0
 14
0.0
 24
0.0
 34
0.0
 15
840.0
 25
594.0
 35
0.0
146
0.0
 13
0.0
 23
0.0
 33
0.0
 16
1.0
 26
0.0
 36
0.0
 17
0.0
 27
1.0
 37
0.0
 76
     0
330
1F
331
29
  0
MLINESTYLE
  5
18
102
{ACAD_REACTORS
330
17
102
}
330
17
100
AcDbMlineStyle
  2
Standard
 70
     0
  3

 62
   256
 51
90.0
 52
90.0
 71
     2
 49
0.5
 62
   256
  6
BYLAYER
 49
-0.5
 62
   256
  6
BYLAYER
  0
ACDBPLACEHOLDER
  5
F
102
{ACAD_REACTORS
330
E
102
}
330
E
  0
ENDSEC
  0
EOF
