  0
SECTION
  2
HEADER
  9
$ACADVER
  1
AC1015
  9
$ACADMAINTVER
 70
     6
  9
$DWGCODEPAGE
  3
DOS932
  9
$INSBASE
 10
0.0
 20
0.0
 30
0.0
  9
$EXTMIN
 10
0.0
 20
0.0
 30
0.0
  9
$EXTMAX
 10
840.0
 20
594.0
 30
0.0
  9
$LIMMIN
 10
0.0
 20
0.0
  9
$LIMMAX
 10
840.0
 20
594.0
  9
$ORTHOMODE
 70
     0
  9
$REGENMODE
 70
     1
  9
$FILLMODE
 70
     1
  9
$QTEXTMODE
 70
     0
  9
$MIRRTEXT
 70
     1
  9
$LTSCALE
 40
2.0
  9
$ATTMODE
 70
     1
  9
$TEXTSIZE
 40
7.0
  9
$TRACEWID
 40
1.0
  9
$TEXTSTYLE
  7
Standard
  9
$CLAYER
  8
0
  9
$CELTYPE
  6
ByLayer
  9
$CECOLOR
 62
   256
  9
$CELTSCALE
 40
1.0
  9
$DISPSILH
 70
     0
  9
$DIMSCALE
 40
1.0
  9
$DIMASZ
 40
6.0
  9
$DIMEXO
 40
2.0
  9
$DIMDLI
 40
3.75
  9
$DIMRND
 40
0.0
  9
$DIMDLE
 40
0.0
  9
$DIMEXE
 40
2.0
  9
$DIMTP
 40
0.0
  9
$DIMTM
 40
0.0
  9
$DIMTXT
 40
7.0
  9
$DIMCEN
 40
2.5
  9
$DIMTSZ
 40
0.0
  9
$DIMTOL
 70
     0
  9
$DIMLIM
 70
     0
  9
$DIMTIH
 70
     1
  9
$DIMTOH
 70
     1
  9
$DIMSE1
 70
     0
  9
$DIMSE2
 70
     0
  9
$DIMTAD
 70
     1
  9
$DIMZIN
 70
     0
  9
$DIMBLK
  1

  9
$DIMASO
 70
     1
  9
$DIMSHO
 70
     1
  9
$DIMPOST
  1

  9
$DIMAPOST
  1

  9
$DIMALT
 70
     0
  9
$DIMALTD
 70
     3
  9
$DIMALTF
 40
0.0393700787
  9
$DIMLFAC
 40
1.0
  9
$DIMTOFL
 70
     1
  9
$DIMTVP
 40
0.0
  9
$DIMTIX
 70
     0
  9
$DIMSOXD
 70
     0
  9
$DIMSAH
 70
     0
  9
$DIMBLK1
  1

  9
$DIMBLK2
  1

  9
$DIMSTYLE
  2
ISO-25
  9
$DIMCLRD
 70
     0
  9
$DIMCLRE
 70
     0
  9
$DIMCLRT
 70
     0
  9
$DIMTFAC
 40
1.0
  9
$DIMGAP
 40
3.048
  9
$DIMJUST
 70
     0
  9
$DIMSD1
 70
     0
  9
$DIMSD2
 70
     0
  9
$DIMTOLJ
 70
     0
  9
$DIMTZIN
 70
     0
  9
$DIMALTZ
 70
     0
  9
$DIMALTTZ
 70
     0
  9
$DIMUPT
 70
     0
  9
$DIMDEC
 70
     1
  9
$DIMTDEC
 70
     1
  9
$DIMALTU
 70
     2
  9
$DIMALTTD
 70
     3
  9
$DIMTXSTY
  7
Standard
  9
$DIMAUNIT
 70
     0
  9
$DIMADEC
 70
     2
  9
$DIMALTRND
 40
0.0
  9
$DIMAZIN
 70
     0
  9
$DIMDSEP
 70
    44
  9
$DIMATFIT
 70
     3
  9
$DIMFRAC
 70
     0
  9
$DIMLDRBLK
  1

  9
$DIMLUNIT
 70
     2
  9
$DIMLWD
 70
    -2
  9
$DIMLWE
 70
    -2
  9
$DIMTMOVE
 70
     0
  9
$LUNITS
 70
     2
  9
$LUPREC
 70
     1
  9
$SKETCHINC
 40
1.0
  9
$FILLETRAD
 40
10.0
  9
$AUNITS
 70
     0
  9
$AUPREC
 70
     2
  9
$MENU
  1
.
  9
$ELEVATION
 40
0.0
  9
$PELEVATION
 40
0.0
  9
$THICKNESS
 40
0.0
  9
$LIMCHECK
 70
     0
  9
$CHAMFERA
 40
10.0
  9
$CHAMFERB
 40
10.0
  9
$CHAMFERC
 40
20.0
  9
$CHAMFERD
 40
0.0
  9
$SKPOLY
 70
     0
  9
$TDCREATE
 40
2460451.591995312
  9
$TDUCREATE
 40
2460451.216995312
  9
$TDUPDATE
 40
2460451.591995324
  9
$TDUUPDATE
 40
2460451.216995324
  9
$TDINDWG
 40
0.0000000116
  9
$TDUSRTIMER
 40
0.0000000116
  9
$USRTIMER
 70
     1
  9
$ANGBASE
 50
0.0
  9
$ANGDIR
 70
     0
  9
$PDMODE
 70
     0
  9
$PDSIZE
 40
-1.0
  9
$PLINEWID
 40
0.0
  9
$SPLFRAME
 70
     0
  9
$SPLINETYPE
 70
     6
  9
$SPLINESEGS
 70
     8
  9
$HANDSEED
  5
252
  9
$SURFTAB1
 70
     6
  9
$SURFTAB2
 70
     6
  9
$SURFTYPE
 70
     6
  9
$SURFU
 70
     6
  9
$SURFV
 70
     6
  9
$UCSBASE
  2

  9
$UCSNAME
  2

  9
$UCSORG
 10
0.0
 20
0.0
 30
0.0
  9
$UCSXDIR
 10
1.0
 20
0.0
 30
0.0
  9
$UCSYDIR
 10
0.0
 20
1.0
 30
0.0
  9
$UCSORTHOREF
  2

  9
$UCSORTHOVIEW
 70
     0
  9
$UCSORGTOP
 10
0.0
 20
0.0
 30
0.0
  9
$UCSORGBOTTOM
 10
0.0
 20
0.0
 30
0.0
  9
$UCSORGLEFT
 10
0.0
 20
0.0
 30
0.0
  9
$UCSORGRIGHT
 10
0.0
 20
0.0
 30
0.0
  9
$UCSORGFRONT
 10
0.0
 20
0.0
 30
0.0
  9
$UCSORGBACK
 10
0.0
 20
0.0
 30
0.0
  9
$PUCSBASE
  2

  9
$PUCSNAME
  2

  9
$PUCSORG
 10
0.0
 20
0.0
 30
0.0
  9
$PUCSXDIR
 10
1.0
 20
0.0
 30
0.0
  9
$PUCSYDIR
 10
0.0
 20
1.0
 30
0.0
  9
$PUCSORTHOREF
  2

  9
$PUCSORTHOVIEW
 70
     0
  9
$PUCSORGTOP
 10
0.0
 20
0.0
 30
0.0
  9
$PUCSORGBOTTOM
 10
0.0
 20
0.0
 30
0.0
  9
$PUCSORGLEFT
 10
0.0
 20
0.0
 30
0.0
  9
$PUCSORGRIGHT
 10
0.0
 20
0.0
 30
0.0
  9
$PUCSORGFRONT
 10
0.0
 20
0.0
 30
0.0
  9
$PUCSORGBACK
 10
0.0
 20
0.0
 30
0.0
  9
$USERI1
 70
     0
  9
$USERI2
 70
     0
  9
$USERI3
 70
     0
  9
$USERI4
 70
     0
  9
$USERI5
 70
     0
  9
$USERR1
 40
0.0
  9
$USERR2
 40
0.0
  9
$USERR3
 40
0.0
  9
$USERR4
 40
0.0
  9
$USERR5
 40
0.0
  9
$WORLDVIEW
 70
     1
  9
$SHADEDGE
 70
     3
  9
$SHADEDIF
 70
    70
  9
$TILEMODE
 70
     1
  9
$MAXACTVP
 70
    64
  9
$PINSBASE
 10
0.0
 20
0.0
 30
0.0
  9
$PLIMCHECK
 70
     0
  9
$PEXTMIN
 10
1.0000000000E+20
 20
1.0000000000E+20
 30
1.0000000000E+20
  9
$PEXTMAX
 10
-1.0000000000E+20
 20
-1.0000000000E+20
 30
-1.0000000000E+20
  9
$PLIMMIN
 10
0.0
 20
0.0
  9
$PLIMMAX
 10
420.0
 20
297.0
  9
$UNITMODE
 70
     0
  9
$VISRETAIN
 70
     1
  9
$PLINEGEN
 70
     0
  9
$PSLTSCALE
 70
     1
  9
$TREEDEPTH
 70
  3020
  9
$CMLSTYLE
  2
Standard
  9
$CMLJUST
 70
     0
  9
$CMLSCALE
 40
20.0
  9
$PROXYGRAPHICS
 70
     1
  9
$MEASUREMENT
 70
     1
  9
$CELWEIGHT
370
    -1
  9
$ENDCAPS
280
     0
  9
$JOINSTYLE
280
     0
  9
$LWDISPLAY
290
     1
  9
$INSUNITS
 70
     4
  9
$HYPERLINKBASE
  1

  9
$STYLESHEET
  1

  9
$XEDIT
290
     1
  9
$CEPSNTYPE
380
     0
  9
$PSTYLEMODE
290
     1
  9
$FINGERPRINTGUID
  2
{AEDA0732-AA81-48B2-A4B5-BC761C055399}
  9
$VERSIONGUID
  2
{FAEB1C32-E019-11D5-929B-00C0DF256EC4}
  9
$EXTNAMES
290
     1
  9
$PSVPSCALE
 40
0.0
  9
$OLESTARTUP
290
     0
  0
ENDSEC
  0
SECTION
  2
CLASSES
  0
CLASS
  1
ACDBDICTIONARYWDFLT
  2
AcDbDictionaryWithDefault
  3
ObjectDBX Classes
 90
        0
280
     0
281
     0
  0
CLASS
  1
VISUALSTYLE
  2
AcDbVisualStyle
  3
ObjectDBX Classes
 90
     4095
280
     0
281
     0
  0
CLASS
  1
MATERIAL
  2
AcDbMaterial
  3
ObjectDBX Classes
 90
     1153
280
     0
281
     0
  0
CLASS
  1
ACDBPLACEHOLDER
  2
AcDbPlaceHolder
  3
ObjectDBX Classes
 90
        0
280
     0
281
     0
  0
CLASS
  1
LAYOUT
  2
AcDbLayout
  3
ObjectDBX Classes
 90
        0
280
     0
281
     0
  0
ENDSEC
  0
SECTION
  2
TABLES
  0
TABLE
  2
VPORT
  5
8
330
0
100
AcDbSymbolTable
 70
     1
  0
VPORT
  5
29
330
8
100
AcDbSymbolTableRecord
100
AcDbViewportTableRecord
  2
*Active
 70
     0
 10
0.0
 20
0.0
 11
1.0
 21
1.0
 12
420.0
 22
297.0
 13
0.0
 23
0.0
 14
10.0
 24
10.0
 15
10.0
 25
10.0
 16
0.0
 26
0.0
 36
1.0
 17
0.0
 27
0.0
 37
0.0
 40
594.0
 41
1.4141414141
 42
50.0
 43
0.0
 44
0.0
 50
0.0
 51
0.0
 71
     0
 72
  2000
 73
     1
 74
     3
 75
     0
 76
     0
 77
     0
 78
     0
281
     0
 65
     1
110
0.0
120
0.0
130
0.0
111
1.0
121
0.0
131
0.0
112
0.0
122
1.0
132
0.0
 79
     0
146
0.0
  0
ENDTAB
  0
TABLE
  2
LTYPE
  5
5
330
0
100
AcDbSymbolTable
 70
     6
  0
LTYPE
  5
14
330
5
100
AcDbSymbolTableRecord
100
AcDbLinetypeTableRecord
  2
ByBlock
 70
     0
  3

 72
    65
 73
     0
 40
0.0
  0
LTYPE
  5
15
330
5
100
AcDbSymbolTableRecord
100
AcDbLinetypeTableRecord
  2
ByLayer
 70
     0
  3

 72
    65
 73
     0
 40
0.0
  0
LTYPE
  5
16
330
5
100
AcDbSymbolTableRecord
100
AcDbLinetypeTableRecord
  2
Continuous
 70
     0
  3
Solid line
 72
    65
 73
     0
 40
0.0
  0
LTYPE
  5
3F
330
5
100
AcDbSymbolTableRecord
100
AcDbLinetypeTableRecord
  2
HIDDEN
 70
     0
  3
Hidden __ __ __ __ __ __ __ __ __ __ __ __ __ __
 72
    65
 73
     2
 40
1.905
 49
1.27
 74
     0
 49
-0.635
 74
     0
  0
LTYPE
  5
40
330
5
100
AcDbSymbolTableRecord
100
AcDbLinetypeTableRecord
  2
PHANTOM
 70
     0
  3
Phantom ______  __  __  ______  __  __  ______
 72
    65
 73
     6
 40
12.7
 49
6.35
 74
     0
 49
-1.27
 74
     0
 49
1.27
 74
     0
 49
-1.27
 74
     0
 49
1.27
 74
     0
 49
-1.27
 74
     0
  0
LTYPE
  5
41
330
5
100
AcDbSymbolTableRecord
100
AcDbLinetypeTableRecord
  2
CENTER
 70
     0
  3
Center ____ _ ____ _ ____ _ ____ _ ____ _ ____
 72
    65
 73
     4
 40
10.16
 49
6.35
 74
     0
 49
-1.27
 74
     0
 49
1.27
 74
     0
 49
-1.27
 74
     0
  0
LTYPE
  5
42
330
5
100
AcDbSymbolTableRecord
100
AcDbLinetypeTableRecord
  2
CENTERX2
 70
     0
  3
Center (2x) ________  __  ________  __  _____
 72
    65
 73
     4
 40
20.32
 49
12.7
 74
     0
 49
-2.54
 74
     0
 49
2.54
 74
     0
 49
-2.54
 74
     0
  0
LTYPE
  5
43
330
5
100
AcDbSymbolTableRecord
100
AcDbLinetypeTableRecord
  2
DOT2
 70
     0
  3
Dot (.5x) ........................................
 72
    65
 73
     2
 40
0.635
 49
0.0
 74
     0
 49
-0.635
 74
     0
  0
ENDTAB
  0
TABLE
  2
LAYER
  5
2
330
0
100
AcDbSymbolTable
 70
     1
  0
LAYER
  5
10
330
2
100
AcDbSymbolTableRecord
100
AcDbLayerTableRecord
  2
0
 70
     0
 62
     7
  6
Continuous
370
    -3
390
F
  0
ENDTAB
  0
TABLE
  2
STYLE
  5
3
330
0
100
AcDbSymbolTable
 70
     2
  0
STYLE
  5
11
330
3
100
AcDbSymbolTableRecord
100
AcDbTextStyleTableRecord
  2
Standard
 70
     0
 40
0.0
 41
1.0
 50
0.0
 71
     0
 42
2.5
  3
txt
  4
bigfont
  0
STYLE
  5
44
330
3
100
AcDbSymbolTableRecord
100
AcDbTextStyleTableRecord
  2
SLDTEXTSTYLE0
 70
     0
 40
0.0
 41
0.7
 50
0.0
 71
     0
 42
0.2
  3
TXT
  4
bigfont
  0
ENDTAB
  0
TABLE
  2
VIEW
  5
6
330
0
100
AcDbSymbolTable
 70
     0
  0
ENDTAB
  0
TABLE
  2
UCS
  5
7
330
0
100
AcDbSymbolTable
 70
     0
  0
ENDTAB
  0
TABLE
  2
APPID
  5
9
330
0
100
AcDbSymbolTable
 70
     1
  0
APPID
  5
12
330
9
100
AcDbSymbolTableRecord
100
AcDbRegAppTableRecord
  2
ACAD
 70
     0
  0
ENDTAB
  0
TABLE
  2
DIMSTYLE
  5
A
330
0
100
AcDbSymbolTable
 70
     1
100
AcDbDimStyleTable
  0
DIMSTYLE
105
27
330
A
100
AcDbSymbolTableRecord
100
AcDbDimStyleTableRecord
  2
ISO-25
 70
     0
 41
2.5
 42
0.625
 43
3.75
 44
1.25
 73
     0
 74
     0
 77
     1
 78
     8
140
2.5
141
2.5
143
0.0393700787
147
0.625
171
     3
172
     1
178
     0
271
     2
272
     2
274
     3
278
    44
283
     0
284
     8
340
11
  0
ENDTAB
  0
TABLE
  2
BLOCK_RECORD
  5
1
330
0
100
AcDbSymbolTable
 70
     1
  0
BLOCK_RECORD
  5
1F
330
1
100
AcDbSymbolTableRecord
100
AcDbBlockTableRecord
  2
*Model_Space
340
22
  0
BLOCK_RECORD
  5
1B
330
1
100
AcDbSymbolTableRecord
100
AcDbBlockTableRecord
  2
*Paper_Space
340
1E
  0
BLOCK_RECORD
  5
23
330
1
100
AcDbSymbolTableRecord
100
AcDbBlockTableRecord
  2
*Paper_Space0
340
26
  0
ENDTAB
  0
ENDSEC
  0
SECTION
  2
BLOCKS
  0
BLOCK
  5
20
330
1F
100
AcDbEntity
  8
0
100
AcDbBlockBegin
  2
*Model_Space
 70
     0
 10
0.0
 20
0.0
 30
0.0
  3
*Model_Space
  1

  0
ENDBLK
  5
21
330
1F
100
AcDbEntity
  8
0
100
AcDbBlockEnd
  0
BLOCK
  5
1C
330
1B
100
AcDbEntity
 67
     1
  8
0
100
AcDbBlockBegin
  2
*Paper_Space
 70
     0
 10
0.0
 20
0.0
 30
0.0
  3
*Paper_Space
  1

  0
ENDBLK
  5
1D
330
1B
100
AcDbEntity
 67
     1
  8
0
100
AcDbBlockEnd
  0
BLOCK
  5
24
330
23
100
AcDbEntity
  8
0
100
AcDbBlockBegin
  2
*Paper_Space0
 70
     0
 10
0.0
 20
0.0
 30
0.0
  3
*Paper_Space0
  1

  0
ENDBLK
  5
25
330
23
100
AcDbEntity
  8
0
100
AcDbBlockEnd
  0
ENDSEC
  0
SECTION
  2
ENTITIES
  0
MTEXT
  5
45
330
1F
100
AcDbEntity
  8
0
  6
Continuous
 62
     7
370
     0
100
AcDbMText
 10
204.8693457891
 20
499.8476269664
 30
0.0
 40
7.0
 41
0.0
 71
     1
 72
     1
  1
CHB-513N
  7
SLDTEXTSTYLE0
 73
     1
 44
1.0
  0
LINE
  5
46
330
1F
100
AcDbEntity
  8
0
  6
Continuous
 62
     7
370
    15
100
AcDbLine
 10
397.7558124769
 20
208.9777117219
 30
0.0
 11
397.8558141697
 21
208.9777117219
 31
0.0
  0
LINE
  5
47
330
1F
100
AcDbEntity
  8
0
  6
Continuous
 62
     7
370
    15
100
AcDbLine
 10
397.8558141697
 20
214.9777120069
 30
0.0
 11
397.7558124769
 21
214.9777120069
 31
0.0
  0
LINE
  5
48
330
1F
100
AcDbEntity
  8
0
  6
Continuous
 62
     7
370
    15
100
AcDbLine
 10
397.7558124769
 20
218.9777121969
 30
0.0
 11
397.8558141697
 21
218.9777121969
 31
0.0
  0
LINE
  5
49
330
1F
100
AcDbEntity
  8
0
  6
Continuous
 62
     7
370
    15
100
AcDbLine
 10
397.8558141697
 20
224.9777124819
 30
0.0
 11
397.7558124769
 21
224.9777124819
 31
0.0
  0
LINE
  5
4A
330
1F
100
AcDbEntity
  8
0
  6
Continuous
 62
     7
370
    15
100
AcDbLine
 10
399.0558046807
 20
228.4777121243
 30
0.0
 11
397.8558141697
 21
228.4777121243
 31
0.0
  0
LINE
  5
4B
330
1F
100
AcDbEntity
  8
0
  6
Continuous
 62
     7
370
    15
100
AcDbLine
 10
397.8558141697
 20
205.4777120796
 30
0.0
 11
399.0558046807
 21
205.4777120796
 31
0.0
  0
LINE
  5
4C
330
1F
100
AcDbEntity
  8
0
  6
Continuous
 62
     7
370
    15
100
AcDbLine
 10
810.5558115948
 20
72.9777183008
 30
0.0
 11
810.5558115948
 21
107.9777147245
 31
0.0
  0
LINE
  5
4D
330
1F
100
AcDbEntity
  8
0
  6
Continuous
 62
     7
370
    15
100
AcDbLine
 10
810.5558115948
 20
325.9777094793
 30
0.0
 11
810.5558115948
 21
360.977705903
 31
0.0
  0
SPLINE
  5
4E
330
1F
100
AcDbEntity
  8
0
  6
Continuous
 62
     7
370
    15
100
AcDbSpline
210
0.0
220
0.0
230
1.0
 70
     8
 71
     3
 72
    11
 73
     7
 74
     0
 42
0.00000001
 43
0.00000001
 40
0.0
 40
0.0
 40
0.0
 40
0.0
 40
0.226221566885237
 40
0.4679451128834843
 40
0.7254866595875595
 40
1.0
 40
1.0
 40
1.0
 40
1.0
 10
395.3763205517011
 20
225.2081468325596
 30
0.0
 10
395.379139888371
 20
225.1852476405083
 30
0.0
 10
395.3849717585788
 20
225.1378800744671
 30
0.0
 10
395.4017623978582
 20
224.8130951031935
 30
0.0
 10
395.4153549341942
 20
224.3125974211451
 30
0.0
 10
395.4158901252758
 20
223.8887770174826
 30
0.0
 10
395.4161662567334
 20
223.6701071817915
 30
0.0
  0
SPLINE
  5
4F
330
1F
100
AcDbEntity
  8
0
  6
Continuous
 62
     7
370
    15
100
AcDbSpline
210
0.0
220
0.0
230
1.0
 70
     8
 71
     3
 72
    12
 73
     8
 74
     0
 42
0.00000001
 43
0.00000001
 40
0.0
 40
0.0
 40
0.0
 40
0.0
 40
0.2489450918608725
 40
0.4822920041796321
 40
0.6998108393712417
 40
0.9035366771083447
 40
1.0
 40
1.0
 40
1.0
 40
1.0
 10
395.4161662567334
 20
210.1114763502519
 30
0.0
 10
395.4147403858776
 20
209.9741417754386
 30
0.0
 10
395.4119779851102
 20
209.7080776131178
 30
0.0
 10
395.4010770544312
 20
209.3722778415509
 30
0.0
 10
395.3985667007757
 20
209.1390967758192
 30
0.0
 10
395.4033558550742
 20
209.018992986388
 30
0.0
 10
395.4297863555516
 20
209.0176464631303
 30
0.0
 10
395.4382795799451
 20
209.0172137689333
 30
0.0
  0
LINE
  5
50
330
1F
100
AcDbEntity
  8
0
  6
Continuous
 62
     7
370
    15
100
AcDbLine
 10
395.4153168905
 20
223.7201070969
 30
0.0
 11
395.4153168905
 21
210.0614764352
 31
0.0
  0
LINE
  5
51
330
1F
100
AcDbEntity
  8
0
  6
Continuous
 62
     7
370
    15
100
AcDbLine
 10
393.8917029608
 20
227.6579955217
 30
0.0
 11
395.3790623654
 21
225.1778481152
 31
0.0
  0
LINE
  5
52
330
1F
100
AcDbEntity
  8
0
  6
Continuous
 62
     7
370
    15
100
AcDbLine
 10
397.8558141697
 20
226.8809577074
 30
0.0
 11
396.4645225514
 21
229.2009213564
 31
0.0
  0
LINE
  5
53
330
1F
100
AcDbEntity
  8
0
  6
Continuous
 62
     7
370
    15
100
AcDbLine
 10
395.443554591
 20
208.8851280135
 30
0.0
 11
393.8744772185
 21
206.2687094879
 31
0.0
  0
LINE
  5
54
330
1F
100
AcDbEntity
  8
0
  6
Continuous
 62
     7
370
    15
100
AcDbLine
 10
396.447296809
 20
204.7257836532
 30
0.0
 11
397.8558141697
 21
207.0744664964
 31
0.0
  0
LINE
  5
55
330
1F
100
AcDbEntity
  8
0
  6
Continuous
 62
     7
370
    15
100
AcDbLine
 10
396.4844156016
 20
229.1654128206
 30
0.0
 11
396.3944572914
 21
229.2791999501
 31
0.0
  0
SPLINE
  5
56
330
1F
100
AcDbEntity
  8
0
  6
Continuous
 62
     7
370
    15
100
AcDbSpline
210
0.0
220
0.0
230
1.0
 70
     8
 71
     3
 72
    20
 73
    16
 74
     0
 42
0.00000001
 43
0.00000001
 40
0.0
 40
0.0
 40
0.0
 40
0.0
 40
0.0337804538102202
 40
0.1101061402462273
 40
0.1739279168839159
 40
0.2252735481038027
 40
0.2665361319495922
 40
0.3037740218006676
 40
0.3388582740889275
 40
0.3726392463914064
 40
0.4139170231719294
 40
0.6259822024377981
 40
0.8390272593921465
 40
0.9659462393816979
 40
0.9999999999999999
 40
0.9999999999999999
 40
0.9999999999999999
 40
0.9999999999999999
 10
396.2821472395139
 20
229.4212694835405
 30
0.0
 10
396.2414865916792
 20
229.4774548544017
 30
0.0
 10
396.1089547133886
 20
229.6605889934096
 30
0.0
 10
395.7990895700415
 20
229.8377670296965
 30
0.0
 10
395.4118286360136
 20
229.9607268792936
 30
0.0
 10
395.0419800678853
 20
229.9755145966041
 30
0.0
 10
394.7076648221516
 20
229.9249223456401
 30
0.0
 10
394.4331768044024
 20
229.8238779238262
 30
0.0
 10
394.2056772986044
 20
229.6891585118239
 30
0.0
 10
393.999640034387
 20
229.5129829459133
 30
0.0
 10
393.6551210395511
 20
229.07048340309
 30
0.0
 10
393.4740289888221
 20
228.3838182485895
 30
0.0
 10
393.324229971994
 20
227.2029846416371
 30
0.0
 10
393.2691099012732
 20
226.2983400234394
 30
0.0
 10
393.2625484078824
 20
225.8837520895012
 30
0.0
 10
393.2611603248792
 20
225.7960460704307
 30
0.0
  0
SPLINE
  5
57
330
1F
100
AcDbEntity
  8
0
  6
Continuous
 62
     7
370
    15
100
AcDbSpline
210
0.0
220
0.0
230
1.0
 70
     8
 71
     3
 72
    19
 73
    15
 74
     0
 42
0.00000001
 43
0.00000001
 40
0.0
 40
0.0
 40
0.0
 40
0.0
 40
0.0102737816657343
 40
0.1295970074101849
 40
0.3268125933012195
 40
0.5525094047593601
 40
0.5858541896799818
 40
0.6186017427913522
 40
0.6529061547091596
 40
0.6960072119226564
 40
0.752313105850286
 40
0.8223149618104457
 40
0.9054607894314125
 40
1.0
 40
1.0
 40
1.0
 40
1.0
 10
393.2583142030912
 20
208.1777121495943
 30
0.0
 10
393.258637407037
 20
208.1505131875587
 30
0.0
 10
393.2627144125184
 20
207.8074161470366
 30
0.0
 10
393.3024764834749
 20
206.9874224013052
 30
0.0
 10
393.4374813919497
 20
205.7649895318551
 30
0.0
 10
393.5278797770134
 20
205.1216380627961
 30
0.0
 10
393.8787772453136
 20
204.5815317198466
 30
0.0
 10
394.0479975295193
 20
204.3936912121657
 30
0.0
 10
394.2847047298617
 20
204.2172046683011
 30
0.0
 10
394.5983342929395
 20
204.0637366620984
 30
0.0
 10
395.0018179442218
 20
203.9619458732408
 30
0.0
 10
395.4876862809472
 20
203.9851093860606
 30
0.0
 10
396.017433589087
 20
204.1954357073474
 30
0.0
 10
396.2826543529551
 20
204.5172531443094
 30
0.0
 10
396.4237678755002
 20
204.6884795275073
 30
0.0
  0
LINE
  5
58
330
1F
100
AcDbEntity
  8
0
  6
Continuous
 62
     7
370
    15
100
AcDbLine
 10
389.9510014761
 20
220.8777119961
 30
0.0
 11
389.9510014761
 21
212.2777121697
 31
0.0
  0
LINE
  5
59
330
1F
100
AcDbEntity
  8
0
  6
Continuous
 62
     7
370
    15
100
AcDbLine
 10
390.5558098067
 20
209.7777122256
 30
0.0
 11
390.5558098067
 21
208.977965973
 31
0.0
  0
LINE
  5
5A
330
1F
100
AcDbEntity
  8
0
  6
Continuous
 62
     7
370
    15
100
AcDbLine
 10
390.5558098067
 20
224.9774582308
 30
0.0
 11
390.5558098067
 21
224.1777119782
 31
0.0
  0
LINE
  5
5B
330
1F
100
AcDbEntity
  8
0
  6
Continuous
 62
     7
370
    15
100
AcDbLine
 10
391.9558037031
 20
225.2777119723
 30
0.0
 11
391.9558037031
 21
224.9777124819
 31
0.0
  0
ARC
  5
5C
330
1F
100
AcDbEntity
  8
0
  6
Continuous
 62
     7
370
    15
100
AcDbCircle
 10
394.1558076609
 20
222.1705692448
 30
0.0
 40
3.807142857143204
100
AcDbArc
 50
77.9663271603
 51
90.0
  0
ARC
  5
5D
330
1F
100
AcDbEntity
  8
0
  6
Continuous
 62
     7
370
    15
100
AcDbCircle
 10
394.1558076609
 20
222.1705692448
 30
0.0
 40
3.807142857143191
100
AcDbArc
 50
90.0
 51
125.3002484399
  0
LINE
  5
5E
330
1F
100
AcDbEntity
  8
0
  6
Continuous
 62
     7
370
    15
100
AcDbLine
 10
392.0558053959
 20
208.5777124014
 30
0.0
 11
392.0558053959
 21
208.1777121496
 31
0.0
  0
ARC
  5
5F
330
1F
100
AcDbEntity
  8
0
  6
Continuous
 62
     7
370
    15
100
AcDbCircle
 10
392.2558076609
 20
208.9777121019
 30
0.0
 40
0.4000000000007731
100
AcDbArc
 50
270.0
 51
0.0
  0
LINE
  5
60
330
1F
100
AcDbEntity
  8
0
  6
Continuous
 62
     7
370
    15
100
AcDbLine
 10
392.6558006514
 20
224.1777119782
 30
0.0
 11
392.6558006514
 21
223.727712277
 31
0.0
  0
LINE
  5
61
330
1F
100
AcDbEntity
  8
0
  6
Continuous
 62
     7
370
    15
100
AcDbLine
 10
392.6558006514
 20
210.2277119268
 30
0.0
 11
392.6558006514
 21
209.7777122256
 31
0.0
  0
LINE
  5
62
330
1F
100
AcDbEntity
  8
0
  6
Continuous
 62
     7
370
    15
100
AcDbLine
 10
810.5558115948
 20
36.9777049494
 30
0.0
 11
810.5558115948
 21
71.9777162742
 31
0.0
  0
LINE
  5
63
330
1F
100
AcDbEntity
  8
0
  6
Continuous
 62
     7
370
    15
100
AcDbLine
 10
810.5558115948
 20
361.9777079296
 30
0.0
 11
810.5558115948
 21
396.9777192545
 31
0.0
  0
LINE
  5
64
330
1F
100
AcDbEntity
  8
0
  6
Continuous
 62
     7
370
    15
100
AcDbLine
 10
807.5558055151
 20
71.9777162742
 30
0.0
 11
807.5558055151
 21
72.9777183008
 31
0.0
  0
LINE
  5
65
330
1F
100
AcDbEntity
  8
0
  6
Continuous
 62
     7
370
    15
100
AcDbLine
 10
807.5558055151
 20
107.9777147245
 30
0.0
 11
807.5558055151
 21
108.9777093005
 31
0.0
  0
LINE
  5
66
330
1F
100
AcDbEntity
  8
0
  6
Continuous
 62
     7
370
    15
100
AcDbLine
 10
802.5558102835
 20
108.9777093005
 30
0.0
 11
802.5558102835
 21
107.9777147245
 31
0.0
  0
LINE
  5
67
330
1F
100
AcDbEntity
  8
0
  6
Continuous
 62
     7
370
    15
100
AcDbLine
 10
802.5558102835
 20
72.9777183008
 30
0.0
 11
802.5558102835
 21
71.9777162742
 31
0.0
  0
LINE
  5
68
330
1F
100
AcDbEntity
  8
0
  6
Continuous
 62
     7
370
    15
100
AcDbLine
 10
802.5558102835
 20
361.9777079296
 30
0.0
 11
802.5558102835
 21
360.977705903
 31
0.0
  0
LINE
  5
69
330
1F
100
AcDbEntity
  8
0
  6
Continuous
 62
     7
370
    15
100
AcDbLine
 10
802.5558102835
 20
325.9777094793
 30
0.0
 11
802.5558102835
 21
324.9777149033
 31
0.0
  0
LINE
  5
6A
330
1F
100
AcDbEntity
  8
0
  6
Continuous
 62
     7
370
    15
100
AcDbLine
 10
807.5558055151
 20
324.9777149033
 30
0.0
 11
807.5558055151
 21
325.9777094793
 31
0.0
  0
LINE
  5
6B
330
1F
100
AcDbEntity
  8
0
  6
Continuous
 62
     7
370
    15
100
AcDbLine
 10
807.5558055151
 20
360.977705903
 30
0.0
 11
807.5558055151
 21
361.9777079296
 31
0.0
  0
LINE
  5
6C
330
1F
100
AcDbEntity
  8
0
  6
Continuous
 62
     7
370
    15
100
AcDbLine
 10
390.7558131922
 20
223.727712277
 30
0.0
 11
390.7558131922
 21
223.4349011999
 31
0.0
  0
LINE
  5
6D
330
1F
100
AcDbEntity
  8
0
  6
Continuous
 62
     7
370
    15
100
AcDbLine
 10
390.7558131922
 20
210.5205230039
 30
0.0
 11
390.7558131922
 21
210.2277119268
 31
0.0
  0
LINE
  5
6E
330
1F
100
AcDbEntity
  8
0
  6
Continuous
 62
     7
370
    15
100
AcDbLine
 10
784.0558100451
 20
31.9777097177
 30
0.0
 11
784.0558100451
 21
16.9777091217
 31
0.0
  0
LINE
  5
6F
330
1F
100
AcDbEntity
  8
0
  6
Continuous
 62
     7
370
    15
100
AcDbLine
 10
784.0558100451
 20
31.9777097177
 30
0.0
 11
799.0558106411
 21
31.9777097177
 31
0.0
  0
ARC
  5
70
330
1F
100
AcDbEntity
  8
0
  6
Continuous
 62
     7
370
    15
100
AcDbCircle
 10
784.0558076609
 20
31.9777121019
 30
0.0
 40
15.00000000000011
100
AcDbArc
 50
270.0
 51
0.0
  0
LINE
  5
71
330
1F
100
AcDbEntity
  8
0
  6
Continuous
 62
     7
370
    15
100
AcDbLine
 10
414.0558052767
 20
16.9777091217
 30
0.0
 11
414.0558052767
 21
31.9777097177
 31
0.0
  0
LINE
  5
72
330
1F
100
AcDbEntity
  8
0
  6
Continuous
 62
     7
370
    15
100
AcDbLine
 10
414.0558052767
 20
31.9777097177
 30
0.0
 11
784.0558100451
 21
31.9777097177
 31
0.0
  0
LINE
  5
73
330
1F
100
AcDbEntity
  8
0
  6
Continuous
 62
     7
370
    15
100
AcDbLine
 10
414.0558052767
 20
16.9777091217
 30
0.0
 11
784.0558100451
 21
16.9777091217
 31
0.0
  0
ARC
  5
74
330
1F
100
AcDbEntity
  8
0
  6
Continuous
 62
     7
370
    15
100
AcDbCircle
 10
414.0558076609
 20
31.9777121019
 30
0.0
 40
15.00000000000001
100
AcDbArc
 50
180.0
 51
270.0
  0
LINE
  5
75
330
1F
100
AcDbEntity
  8
0
  6
Continuous
 62
     7
370
    15
100
AcDbLine
 10
399.0558046807
 20
31.9777097177
 30
0.0
 11
414.0558052767
 21
31.9777097177
 31
0.0
  0
LINE
  5
76
330
1F
100
AcDbEntity
  8
0
  6
Continuous
 62
     7
370
    15
100
AcDbLine
 10
419.0558005083
 20
36.9777049494
 30
0.0
 11
419.0558005083
 21
396.9777192545
 31
0.0
  0
LINE
  5
77
330
1F
100
AcDbEntity
  8
0
  6
Continuous
 62
     7
370
    15
100
AcDbLine
 10
779.0558148134
 20
36.9777049494
 30
0.0
 11
419.0558005083
 21
36.9777049494
 31
0.0
  0
LINE
  5
78
330
1F
100
AcDbEntity
  8
0
  6
Continuous
 62
     7
370
    15
100
AcDbLine
 10
779.0558148134
 20
36.9777049494
 30
0.0
 11
779.0558148134
 21
396.9777192545
 31
0.0
  0
LINE
  5
79
330
1F
100
AcDbEntity
  8
0
  6
Continuous
 62
     7
370
    15
100
AcDbLine
 10
419.0558005083
 20
396.9777192545
 30
0.0
 11
779.0558148134
 21
396.9777192545
 31
0.0
  0
LINE
  5
7A
330
1F
100
AcDbEntity
  8
0
  6
Continuous
 62
     7
370
    15
100
AcDbLine
 10
414.0558052767
 20
401.9777144861
 30
0.0
 11
414.0558052767
 21
31.9777097177
 31
0.0
  0
LINE
  5
7B
330
1F
100
AcDbEntity
  8
0
  6
Continuous
 62
     7
370
    15
100
AcDbLine
 10
414.0558052767
 20
401.9777144861
 30
0.0
 11
784.0558100451
 21
401.9777144861
 31
0.0
  0
LINE
  5
7C
330
1F
100
AcDbEntity
  8
0
  6
Continuous
 62
     7
370
    15
100
AcDbLine
 10
784.0558100451
 20
31.9777097177
 30
0.0
 11
784.0558100451
 21
401.9777144861
 31
0.0
  0
LINE
  5
7D
330
1F
100
AcDbEntity
  8
0
  6
Continuous
 62
     7
370
    15
100
AcDbLine
 10
399.0558046807
 20
206.9902199876
 30
0.0
 11
399.0558046807
 21
31.9777097177
 31
0.0
  0
LINE
  5
7E
330
1F
100
AcDbEntity
  8
0
  6
Continuous
 62
     7
370
    15
100
AcDbLine
 10
399.0558046807
 20
226.9652042162
 30
0.0
 11
399.0558046807
 21
401.9777144861
 31
0.0
  0
LINE
  5
7F
330
1F
100
AcDbEntity
  8
0
  6
Continuous
 62
     7
370
    15
100
AcDbLine
 10
399.0558046807
 20
401.9777144861
 30
0.0
 11
414.0558052767
 21
401.9777144861
 31
0.0
  0
LINE
  5
80
330
1F
100
AcDbEntity
  8
0
  6
Continuous
 62
     7
370
    15
100
AcDbLine
 10
799.0558106411
 20
31.9777097177
 30
0.0
 11
799.0558106411
 21
401.9777144861
 31
0.0
  0
LINE
  5
81
330
1F
100
AcDbEntity
  8
0
  6
Continuous
 62
     7
370
    15
100
AcDbLine
 10
799.0558106411
 20
401.9777144861
 30
0.0
 11
784.0558100451
 21
401.9777144861
 31
0.0
  0
ARC
  5
82
330
1F
100
AcDbEntity
  8
0
  6
Continuous
 62
     7
370
    15
100
AcDbCircle
 10
784.0558076609
 20
401.9777121019
 30
0.0
 40
15.0
100
AcDbArc
 50
0.0
 51
90.0
  0
LINE
  5
83
330
1F
100
AcDbEntity
  8
0
  6
Continuous
 62
     7
370
    15
100
AcDbLine
 10
784.0558100451
 20
416.9777150821
 30
0.0
 11
784.0558100451
 21
401.9777144861
 31
0.0
  0
LINE
  5
84
330
1F
100
AcDbEntity
  8
0
  6
Continuous
 62
     7
370
    15
100
AcDbLine
 10
414.0558052767
 20
401.9777144861
 30
0.0
 11
414.0558052767
 21
416.9777150821
 31
0.0
  0
LINE
  5
85
330
1F
100
AcDbEntity
  8
0
  6
Continuous
 62
     7
370
    15
100
AcDbLine
 10
414.0558052767
 20
416.9777150821
 30
0.0
 11
784.0558100451
 21
416.9777150821
 31
0.0
  0
ARC
  5
86
330
1F
100
AcDbEntity
  8
0
  6
Continuous
 62
     7
370
    15
100
AcDbCircle
 10
414.0558076609
 20
401.9777121019
 30
0.0
 40
15.00000000000006
100
AcDbArc
 50
90.0
 51
180.0
  0
LINE
  5
87
330
1F
100
AcDbEntity
  8
0
  6
Continuous
 62
     7
370
    15
100
AcDbLine
 10
397.8558141697
 20
228.012195192
 30
0.0
 11
399.0558046807
 21
228.012195192
 31
0.0
  0
LINE
  5
88
330
1F
100
AcDbEntity
  8
0
  6
Continuous
 62
     7
370
    15
100
AcDbLine
 10
397.8558141697
 20
205.9432290119
 30
0.0
 11
399.0558046807
 21
205.9432290119
 31
0.0
  0
LINE
  5
89
330
1F
100
AcDbEntity
  8
0
  6
Continuous
 62
     7
370
    15
100
AcDbLine
 10
397.8558141697
 20
205.9432290119
 30
0.0
 11
397.8558141697
 21
228.012195192
 31
0.0
  0
LINE
  5
8A
330
1F
100
AcDbEntity
  8
0
  6
Continuous
 62
     7
370
    15
100
AcDbLine
 10
399.0558046807
 20
226.9652042162
 30
0.0
 11
399.0558046807
 21
206.9902199876
 31
0.0
  0
LINE
  5
8B
330
1F
100
AcDbEntity
  8
0
  6
Continuous
 62
     7
370
    15
100
AcDbLine
 10
397.7558124769
 20
208.9777117219
 30
0.0
 11
397.7558124769
 21
214.9777120069
 31
0.0
  0
LINE
  5
8C
330
1F
100
AcDbEntity
  8
0
  6
Continuous
 62
     7
370
    15
100
AcDbLine
 10
397.7558124769
 20
221.9777119902
 30
0.0
 11
397.7558124769
 21
224.9777124819
 31
0.0
  0
LINE
  5
8D
330
1F
100
AcDbEntity
  8
0
  6
Continuous
 62
     7
370
    15
100
AcDbLine
 10
397.7558124769
 20
218.9777121969
 30
0.0
 11
397.7558124769
 21
221.9777119902
 31
0.0
  0
LINE
  5
8E
330
1F
100
AcDbEntity
  8
0
  6
Continuous
 62
     7
370
    15
100
AcDbLine
 10
397.8558141697
 20
228.012195192
 30
0.0
 11
397.8558141697
 21
228.4777121243
 31
0.0
  0
LINE
  5
8F
330
1F
100
AcDbEntity
  8
0
  6
Continuous
 62
     7
370
    15
100
AcDbLine
 10
397.8558141697
 20
205.4777120796
 30
0.0
 11
397.8558141697
 21
205.9432290119
 31
0.0
  0
LINE
  5
90
330
1F
100
AcDbEntity
  8
0
  6
Continuous
 62
     7
370
    15
100
AcDbLine
 10
799.9571669806
 20
107.9777147245
 30
0.0
 11
799.9571669806
 21
72.9777183008
 31
0.0
  0
LINE
  5
91
330
1F
100
AcDbEntity
  8
0
  6
Continuous
 62
     7
370
    15
100
AcDbLine
 10
799.9571669806
 20
107.9777147245
 30
0.0
 11
810.5558115948
 21
107.9777147245
 31
0.0
  0
LINE
  5
92
330
1F
100
AcDbEntity
  8
0
  6
Continuous
 62
     7
370
    15
100
AcDbLine
 10
799.9571669806
 20
72.9777183008
 30
0.0
 11
810.5558115948
 21
72.9777183008
 31
0.0
  0
LINE
  5
93
330
1F
100
AcDbEntity
  8
0
  6
Continuous
 62
     7
370
    15
100
AcDbLine
 10
799.9571669806
 20
325.9777094793
 30
0.0
 11
810.5558115948
 21
325.9777094793
 31
0.0
  0
LINE
  5
94
330
1F
100
AcDbEntity
  8
0
  6
Continuous
 62
     7
370
    15
100
AcDbLine
 10
799.9571669806
 20
360.977705903
 30
0.0
 11
799.9571669806
 21
325.9777094793
 31
0.0
  0
LINE
  5
95
330
1F
100
AcDbEntity
  8
0
  6
Continuous
 62
     7
370
    15
100
AcDbLine
 10
799.9571669806
 20
360.977705903
 30
0.0
 11
810.5558115948
 21
360.977705903
 31
0.0
  0
LINE
  5
96
330
1F
100
AcDbEntity
  8
0
  6
Continuous
 62
     7
370
    15
100
AcDbLine
 10
799.4936514605
 20
107.9777147245
 30
0.0
 11
799.4936514605
 21
72.9777183008
 31
0.0
  0
LINE
  5
97
330
1F
100
AcDbEntity
  8
0
  6
Continuous
 62
     7
370
    15
100
AcDbLine
 10
799.4936514605
 20
107.9777147245
 30
0.0
 11
799.9571669806
 21
107.9777147245
 31
0.0
  0
LINE
  5
98
330
1F
100
AcDbEntity
  8
0
  6
Continuous
 62
     7
370
    15
100
AcDbLine
 10
799.4936514605
 20
72.9777183008
 30
0.0
 11
799.9571669806
 21
72.9777183008
 31
0.0
  0
LINE
  5
99
330
1F
100
AcDbEntity
  8
0
  6
Continuous
 62
     7
370
    15
100
AcDbLine
 10
799.4936514605
 20
360.977705903
 30
0.0
 11
799.4936514605
 21
325.9777094793
 31
0.0
  0
LINE
  5
9A
330
1F
100
AcDbEntity
  8
0
  6
Continuous
 62
     7
370
    15
100
AcDbLine
 10
799.4936514605
 20
360.977705903
 30
0.0
 11
799.9571669806
 21
360.977705903
 31
0.0
  0
LINE
  5
9B
330
1F
100
AcDbEntity
  8
0
  6
Continuous
 62
     7
370
    15
100
AcDbLine
 10
799.4936514605
 20
325.9777094793
 30
0.0
 11
799.9571669806
 21
325.9777094793
 31
0.0
  0
LINE
  5
9C
330
1F
100
AcDbEntity
  8
0
  6
Continuous
 62
     7
370
    15
100
AcDbLine
 10
799.0558106411
 20
107.9777147245
 30
0.0
 11
799.4936514605
 21
107.9777147245
 31
0.0
  0
LINE
  5
9D
330
1F
100
AcDbEntity
  8
0
  6
Continuous
 62
     7
370
    15
100
AcDbLine
 10
799.0558106411
 20
72.9777183008
 30
0.0
 11
799.4936514605
 21
72.9777183008
 31
0.0
  0
LINE
  5
9E
330
1F
100
AcDbEntity
  8
0
  6
Continuous
 62
     7
370
    15
100
AcDbLine
 10
799.0558106411
 20
360.977705903
 30
0.0
 11
799.4936514605
 21
360.977705903
 31
0.0
  0
LINE
  5
9F
330
1F
100
AcDbEntity
  8
0
  6
Continuous
 62
     7
370
    15
100
AcDbLine
 10
799.0558106411
 20
325.9777094793
 30
0.0
 11
799.4936514605
 21
325.9777094793
 31
0.0
  0
LINE
  5
A0
330
1F
100
AcDbEntity
  8
0
  6
Continuous
 62
     7
370
    15
100
AcDbLine
 10
391.7383510578
 20
210.4777119678
 30
0.0
 11
391.0078365315
 21
210.4777119678
 31
0.0
  0
ARC
  5
A1
330
1F
100
AcDbEntity
  8
0
  6
Continuous
 62
     7
370
    15
100
AcDbCircle
 10
391.1479754214
 20
211.5665475403
 30
0.0
 40
1.097816839157872
100
AcDbArc
 50
174.1882798295
 51
262.6660489201
  0
LINE
  5
A2
330
1F
100
AcDbEntity
  8
0
  6
Continuous
 62
     7
370
    15
100
AcDbLine
 10
390.0558013428
 20
211.6777122576
 30
0.0
 11
390.7863158692
 21
211.6777122576
 31
0.0
  0
ARC
  5
A3
330
1F
100
AcDbEntity
  8
0
  6
Continuous
 62
     7
370
    15
100
AcDbCircle
 10
391.8784899478
 20
211.5665475403
 30
0.0
 40
1.097816839157879
100
AcDbArc
 50
174.1882798295
 51
262.6660489201
  0
ARC
  5
A4
330
1F
100
AcDbEntity
  8
0
  6
Continuous
 62
     7
370
    15
100
AcDbCircle
 10
391.8784899478
 20
222.3888766636
 30
0.0
 40
1.097816839157872
100
AcDbArc
 50
97.3339510799
 51
185.8117201705
  0
LINE
  5
A5
330
1F
100
AcDbEntity
  8
0
  6
Continuous
 62
     7
370
    15
100
AcDbLine
 10
391.7383510578
 20
223.477712236
 30
0.0
 11
395.2817875851
 21
223.477712236
 31
0.0
  0
LINE
  5
A6
330
1F
100
AcDbEntity
  8
0
  6
Continuous
 62
     7
370
    15
100
AcDbLine
 10
395.2817875851
 20
223.477712236
 30
0.0
 11
395.2817875851
 21
210.4777119678
 31
0.0
  0
LINE
  5
A7
330
1F
100
AcDbEntity
  8
0
  6
Continuous
 62
     7
370
    15
100
AcDbLine
 10
395.2817875851
 20
210.4777119678
 30
0.0
 11
391.7383510578
 21
210.4777119678
 31
0.0
  0
LINE
  5
A8
330
1F
100
AcDbEntity
  8
0
  6
Continuous
 62
     7
370
    15
100
AcDbLine
 10
390.7863158692
 20
222.2777119462
 30
0.0
 11
390.7863158692
 21
211.6777122576
 31
0.0
  0
LINE
  5
A9
330
1F
100
AcDbEntity
  8
0
  6
Continuous
 62
     7
370
    15
100
AcDbLine
 10
390.7863158692
 20
222.2777119462
 30
0.0
 11
390.0558013428
 21
222.2777119462
 31
0.0
  0
LINE
  5
AA
330
1F
100
AcDbEntity
  8
0
  6
Continuous
 62
     7
370
    15
100
AcDbLine
 10
390.0558013428
 20
222.2777119462
 30
0.0
 11
390.0558013428
 21
211.6777122576
 31
0.0
  0
LINE
  5
AB
330
1F
100
AcDbEntity
  8
0
  6
Continuous
 62
     7
370
    15
100
AcDbLine
 10
391.0078365315
 20
223.477712236
 30
0.0
 11
391.7383510578
 21
223.477712236
 31
0.0
  0
ARC
  5
AC
330
1F
100
AcDbEntity
  8
0
  6
Continuous
 62
     7
370
    15
100
AcDbCircle
 10
391.1479754214
 20
222.3888766636
 30
0.0
 40
1.097816839157879
100
AcDbArc
 50
97.3339510799
 51
185.8117201705
  0
LINE
  5
AD
330
1F
100
AcDbEntity
  8
0
  6
Continuous
 62
     7
370
    15
100
AcDbLine
 10
395.3817445744
 20
223.477712236
 30
0.0
 11
395.2817875851
 21
223.477712236
 31
0.0
  0
LINE
  5
AE
330
1F
100
AcDbEntity
  8
0
  6
Continuous
 62
     7
370
    15
100
AcDbLine
 10
395.2817875851
 20
210.4777119678
 30
0.0
 11
395.4153168905
 21
210.4777119678
 31
0.0
  0
SPLINE
  5
AF
330
1F
100
AcDbEntity
  8
0
  6
Continuous
 62
     7
370
    15
100
AcDbSpline
210
0.0
220
0.0
230
1.0
 70
    24
 71
     3
 72
    12
 73
     8
 74
     0
 42
0.00000001
 43
0.00000001
 40
0.0
 40
0.0
 40
0.0
 40
0.0
 40
0.2185046622498982
 40
0.4370159030206627
 40
0.6555180100117202
 40
0.8740243431496125
 40
0.9999999999999999
 40
0.9999999999999999
 40
0.9999999999999999
 40
0.9999999999999999
 10
397.2151536453443
 20
223.6701071817915
 30
0.0
 10
397.0184339787166
 20
223.6701071817915
 30
0.0
 10
396.6249887228216
 20
223.6701071817915
 30
0.0
 10
396.0642326809432
 20
223.6701071817915
 30
0.0
 10
395.6465670453765
 20
223.6701071817915
 30
0.0
 10
395.4200043264365
 20
223.6701071817915
 30
0.0
 10
395.4375321629651
 20
223.6701071817915
 30
0.0
 10
395.4439420211988
 20
223.6701071817915
 30
0.0
  0
SPLINE
  5
B0
330
1F
100
AcDbEntity
  8
0
  6
Continuous
 62
     7
370
    15
100
AcDbSpline
210
0.0
220
0.0
230
1.0
 70
    24
 71
     3
 72
     9
 73
     5
 74
     0
 42
0.00000001
 43
0.00000001
 40
0.0
 40
0.0
 40
0.0
 40
0.0
 40
0.0025141086251864
 40
1.0
 40
1.0
 40
1.0
 40
1.0
 10
397.7558124769407
 20
223.6701071817915
 30
0.0
 10
397.7554649160043
 20
223.6701071817915
 30
0.0
 10
397.6172207156994
 20
223.6701071817917
 30
0.0
 10
397.4159341523793
 20
223.6701071817916
 30
0.0
 10
397.2151536453443
 20
223.6701071817915
 30
0.0
  0
SPLINE
  5
B1
330
1F
100
AcDbEntity
  8
0
  6
Continuous
 62
     7
370
    15
100
AcDbSpline
210
0.0
220
0.0
230
1.0
 70
     8
 71
     3
 72
    13
 73
     9
 74
     0
 42
0.00000001
 43
0.00000001
 40
0.0
 40
0.0
 40
0.0
 40
0.0
 40
0.1877386539089659
 40
0.3754723399019311
 40
0.563210247197253
 40
0.7509479971675025
 40
0.9386849648529548
 40
1.0
 40
1.0
 40
1.0
 40
1.0
 10
396.921868990727
 20
227.2849458825331
 30
0.0
 10
396.725172031323
 20
227.2822471391284
 30
0.0
 10
396.3317833174845
 20
227.2768497237328
 30
0.0
 10
395.7987681069935
 20
226.9863082639208
 30
0.0
 10
395.4082503732888
 20
226.5314070884472
 30
0.0
 10
395.2352778559967
 20
225.969730673124
 30
0.0
 10
395.2385755736184
 20
225.4965313481745
 30
0.0
 10
395.3659081937473
 20
225.2750997186669
 30
0.0
 10
395.3972566831785
 20
225.2205846455436
 30
0.0
  0
SPLINE
  5
B2
330
1F
100
AcDbEntity
  8
0
  6
Continuous
 62
     7
370
    15
100
AcDbSpline
210
0.0
220
0.0
230
1.0
 70
     8
 71
     3
 72
    10
 73
     6
 74
     0
 42
0.00000001
 43
0.00000001
 40
0.0
 40
0.0
 40
0.0
 40
0.0
 40
0.2093392736738888
 40
0.6046681284542607
 40
1.0
 40
1.0
 40
1.0
 40
1.0
 10
398.0590362060743
 20
226.4788312461715
 30
0.0
 10
398.0173337075677
 20
226.5718949616638
 30
0.0
 10
397.8968777067354
 20
226.8407057857683
 30
0.0
 10
397.490174539931
 20
227.1573625733052
 30
0.0
 10
397.1113046556542
 20
227.2424180046141
 30
0.0
 10
396.921868990727
 20
227.2849458825331
 30
0.0
  0
SPLINE
  5
B3
330
1F
100
AcDbEntity
  8
0
  6
Continuous
 62
     7
370
    15
100
AcDbSpline
210
0.0
220
0.0
230
1.0
 70
     8
 71
     3
 72
    13
 73
     9
 74
     0
 42
0.00000001
 43
0.00000001
 40
0.0
 40
0.0
 40
0.0
 40
0.0
 40
0.1768612988651324
 40
0.3537265060719917
 40
0.5305915684291158
 40
0.7074548346711061
 40
0.8843186579751815
 40
1.0
 40
1.0
 40
1.0
 40
1.0
 10
396.9046432483869
 20
206.6417591270547
 30
0.0
 10
396.7079761210636
 20
206.6444498977221
 30
0.0
 10
396.3146375203992
 20
206.6498314985186
 30
0.0
 10
395.7812524960256
 20
206.94050655975
 30
0.0
 10
395.3921218461775
 20
207.3948710660869
 30
0.0
 10
395.2139618975369
 20
207.9585643009811
 30
0.0
 10
395.2349242973679
 20
208.4917179916413
 30
0.0
 10
395.4010176730868
 20
208.7649863383891
 30
0.0
 10
395.4666960943418
 20
208.8730450343828
 30
0.0
  0
SPLINE
  5
B4
330
1F
100
AcDbEntity
  8
0
  6
Continuous
 62
     7
370
    15
100
AcDbSpline
210
0.0
220
0.0
230
1.0
 70
     8
 71
     3
 72
    10
 73
     6
 74
     0
 42
0.00000001
 43
0.00000001
 40
0.0
 40
0.0
 40
0.0
 40
0.0
 40
0.0588268036387996
 40
0.5294118412591011
 40
1.0
 40
1.0
 40
1.0
 40
1.0
 10
397.9347605217176
 20
207.2416687008481
 30
0.0
 10
397.924120825125
 20
207.220188459134
 30
0.0
 10
397.8283688716775
 20
207.0268770158274
 30
0.0
 10
397.4675365532562
 20
206.7726799419026
 30
0.0
 10
397.0922747648247
 20
206.6853994951505
 30
0.0
 10
396.9046432483869
 20
206.6417591270547
 30
0.0
  0
SPLINE
  5
B5
330
1F
100
AcDbEntity
  8
0
  6
Continuous
 62
     7
370
    15
100
AcDbSpline
210
0.0
220
0.0
230
1.0
 70
    24
 71
     3
 72
    12
 73
     8
 74
     0
 42
0.00000001
 43
0.00000001
 40
0.0
 40
0.0
 40
0.0
 40
0.0
 40
0.2193540129458531
 40
0.4387146299839778
 40
0.6580660777384292
 40
0.8774217680671946
 40
1.0
 40
1.0
 40
1.0
 40
1.0
 10
397.2151536453443
 20
210.1114763502519
 30
0.0
 10
397.0184386067693
 20
210.1114763502519
 30
0.0
 10
396.6250026071189
 20
210.1114763502519
 30
0.0
 10
396.0641771427709
 20
210.1114763502519
 30
0.0
 10
395.646775305293
 20
210.1114763502519
 30
0.0
 10
395.4209300160614
 20
210.1114763502519
 30
0.0
 10
395.4379023831825
 20
210.1114763502519
 30
0.0
 10
395.4439867246824
 20
210.1114763502519
 30
0.0
  0
SPLINE
  5
B6
330
1F
100
AcDbEntity
  8
0
  6
Continuous
 62
     7
370
    15
100
AcDbSpline
210
0.0
220
0.0
230
1.0
 70
    24
 71
     3
 72
     9
 73
     5
 74
     0
 42
0.00000001
 43
0.00000001
 40
0.0
 40
0.0
 40
0.0
 40
0.0
 40
0.1970130322720919
 40
1.0
 40
1.0
 40
1.0
 40
1.0
 10
397.8558141697126
 20
210.1114763502519
 30
0.0
 10
397.823161973788
 20
210.1114763502519
 30
0.0
 10
397.6574257504124
 20
210.1114763502519
 30
0.0
 10
397.4121260821483
 20
210.1114763502519
 30
0.0
 10
397.2151536453443
 20
210.1114763502519
 30
0.0
  0
SPLINE
  5
B7
330
1F
100
AcDbEntity
  8
0
  6
Continuous
 62
     7
370
    15
100
AcDbSpline
210
0.0
220
0.0
230
1.0
 70
     8
 71
     3
 72
    13
 73
     9
 74
     0
 42
0.00000001
 43
0.00000001
 40
0.0
 40
0.0
 40
0.0
 40
0.0
 40
0.1768612840288145
 40
0.3537263461533859
 40
0.5305916078062589
 40
0.7074548592117663
 40
0.8843186676793121
 40
0.9999999999999999
 40
0.9999999999999999
 40
0.9999999999999999
 40
0.9999999999999999
 10
395.352791618176
 20
229.9013644081097
 30
0.0
 10
395.1561245445193
 20
229.8986735504711
 30
0.0
 10
394.7627861960206
 20
229.8932917777122
 30
0.0
 10
394.2294002614475
 20
229.6026180791839
 30
0.0
 10
393.8402705199294
 20
229.1482524631319
 30
0.0
 10
393.6621102045677
 20
228.5845592973131
 30
0.0
 10
393.6830726767037
 20
228.0514055339198
 30
0.0
 10
393.8491660455812
 20
227.7781371940539
 30
0.0
 10
393.9148444641309
 20
227.6700785007815
 30
0.0
  0
SPLINE
  5
B8
330
1F
100
AcDbEntity
  8
0
  6
Continuous
 62
     7
370
    15
100
AcDbSpline
210
0.0
220
0.0
230
1.0
 70
     8
 71
     3
 72
    10
 73
     6
 74
     0
 42
0.00000001
 43
0.00000001
 40
0.0
 40
0.0
 40
0.0
 40
0.0
 40
0.1474617340987049
 40
0.5737294534547281
 40
1.0
 40
1.0
 40
1.0
 40
1.0
 10
396.4413810480314
 20
229.1888383772712
 30
0.0
 10
396.4133189352037
 20
229.2491324800066
 30
0.0
 10
396.3041376567263
 20
229.4837187801093
 30
0.0
 10
395.9190850201603
 20
229.7725398720005
 30
0.0
 10
395.5415565028244
 20
229.8584228011382
 30
0.0
 10
395.352791618176
 20
229.9013644081097
 30
0.0
  0
SPLINE
  5
B9
330
1F
100
AcDbEntity
  8
0
  6
Continuous
 62
     7
370
    15
100
AcDbSpline
210
0.0
220
0.0
230
1.0
 70
     8
 71
     3
 72
    13
 73
     9
 74
     0
 42
0.00000001
 43
0.00000001
 40
0.0
 40
0.0
 40
0.0
 40
0.0
 40
0.1768612626718516
 40
0.3537264336846305
 40
0.5305914598477037
 40
0.7074541145323809
 40
0.8843186816484628
 40
1.0
 40
1.0
 40
1.0
 40
1.0
 10
395.3355658758359
 20
204.0253406014781
 30
0.0
 10
395.1388987506213
 20
204.0280313510404
 30
0.0
 10
394.7455601541741
 20
204.0334129096262
 30
0.0
 10
394.2121750981704
 20
204.324088287443
 30
0.0
 10
393.8230449904814
 20
204.7784510980536
 30
0.0
 10
393.6448841808264
 20
205.3421488679893
 30
0.0
 10
393.665846565154
 20
205.8752980824262
 30
0.0
 10
393.831940324109
 20
206.1485676271936
 30
0.0
 10
393.8976187217908
 20
206.2566265088062
 30
0.0
  0
SPLINE
  5
BA
330
1F
100
AcDbEntity
  8
0
  6
Continuous
 62
     7
370
    15
100
AcDbSpline
210
0.0
220
0.0
230
1.0
 70
     8
 71
     3
 72
    10
 73
     6
 74
     0
 42
0.00000001
 43
0.00000001
 40
0.0
 40
0.0
 40
0.0
 40
0.0
 40
0.1474584088029793
 40
0.5737309105671331
 40
1.0
 40
1.0
 40
1.0
 40
1.0
 10
396.4241553056913
 20
204.7378666323166
 30
0.0
 10
396.3960988446084
 20
204.6775723310185
 30
0.0
 10
396.2869368165156
 20
204.4429793724578
 30
0.0
 10
395.9018547396855
 20
204.1541691509311
 30
0.0
 10
395.5243283267642
 20
204.0682833367086
 30
0.0
 10
395.3355658758359
 20
204.0253406014781
 30
0.0
  0
LINE
  5
BB
330
1F
100
AcDbEntity
  8
0
  6
Continuous
 62
     7
370
    15
100
AcDbLine
 10
390.0558013428
 20
212.2777121697
 30
0.0
 11
389.9510014761
 21
212.2777121697
 31
0.0
  0
LINE
  5
BC
330
1F
100
AcDbEntity
  8
0
  6
Continuous
 62
     7
370
    15
100
AcDbLine
 10
390.0558013428
 20
220.8777119961
 30
0.0
 11
389.9510014761
 21
220.8777119961
 31
0.0
  0
LINE
  5
BD
330
1F
100
AcDbEntity
  8
0
  6
Continuous
 62
     7
370
    15
100
AcDbLine
 10
395.4376686323
 20
208.9777117219
 30
0.0
 11
390.5564058531
 21
208.9777117219
 31
0.0
  0
LINE
  5
BE
330
1F
100
AcDbEntity
  8
0
  6
Continuous
 62
     7
370
    15
100
AcDbLine
 10
395.3817445744
 20
209.7777122256
 30
0.0
 11
390.5558098067
 21
209.7777122256
 31
0.0
  0
LINE
  5
BF
330
1F
100
AcDbEntity
  8
0
  6
Continuous
 62
     7
370
    15
100
AcDbLine
 10
395.3817445744
 20
224.1777119782
 30
0.0
 11
390.5558098067
 21
224.1777119782
 31
0.0
  0
LINE
  5
C0
330
1F
100
AcDbEntity
  8
0
  6
Continuous
 62
     7
370
    15
100
AcDbLine
 10
395.4000879038
 20
224.9777124819
 30
0.0
 11
390.5564058531
 21
224.9777124819
 31
0.0
  0
LINE
  5
C1
330
1F
100
AcDbEntity
  8
0
  6
Continuous
 62
     7
370
    15
100
AcDbLine
 10
394.1558111418
 20
225.2777119723
 30
0.0
 11
395.3191596974
 21
225.2777119723
 31
0.0
  0
LINE
  5
C2
330
1F
100
AcDbEntity
  8
0
  6
Continuous
 62
     7
370
    15
100
AcDbLine
 10
391.9558037031
 20
225.2777119723
 30
0.0
 11
394.1558111418
 21
225.2777119723
 31
0.0
  0
LINE
  5
C3
330
1F
100
AcDbEntity
  8
0
  6
Continuous
 62
     7
370
    15
100
AcDbLine
 10
394.1558111418
 20
208.5777124014
 30
0.0
 11
395.2591974247
 21
208.5777124014
 31
0.0
  0
LINE
  5
C4
330
1F
100
AcDbEntity
  8
0
  6
Continuous
 62
     7
370
    15
100
AcDbLine
 10
392.0558053959
 20
208.5777124014
 30
0.0
 11
394.1558111418
 21
208.5777124014
 31
0.0
  0
LINE
  5
C5
330
1F
100
AcDbEntity
  8
0
  6
Continuous
 62
     7
370
    15
100
AcDbLine
 10
394.1558111418
 20
208.1777121496
 30
0.0
 11
395.0193185318
 21
208.1777121496
 31
0.0
  0
LINE
  5
C6
330
1F
100
AcDbEntity
  8
0
  6
Continuous
 62
     7
370
    15
100
AcDbLine
 10
392.0558053959
 20
208.1777121496
 30
0.0
 11
394.1558111418
 21
208.1777121496
 31
0.0
  0
ARC
  5
C7
330
1F
100
AcDbEntity
  8
0
  6
Continuous
 62
     7
370
    15
100
AcDbCircle
 10
391.0215616585
 20
209.7754579567
 30
0.0
 40
0.8027149752664209
100
AcDbArc
 50
179.8390957372
 51
234.5339323888
  0
ARC
  5
C8
330
1F
100
AcDbEntity
  8
0
  6
Continuous
 62
     7
370
    15
100
AcDbCircle
 10
391.0215616585
 20
224.1799662471
 30
0.0
 40
0.8027149752664448
100
AcDbArc
 50
125.4660676112
 51
180.1609042628
  0
LINE
  5
C9
330
1F
100
AcDbEntity
  8
0
  6
Continuous
 62
     7
370
    15
100
AcDbLine
 10
391.0066891421
 20
210.2277119268
 30
0.0
 11
391.0066891421
 21
209.7777122256
 31
0.0
  0
LINE
  5
CA
330
1F
100
AcDbEntity
  8
0
  6
Continuous
 62
     7
370
    15
100
AcDbLine
 10
391.0066891421
 20
224.1777119782
 30
0.0
 11
391.0066891421
 21
223.727712277
 31
0.0
  0
LINE
  5
CB
330
1F
100
AcDbEntity
  8
0
  6
Continuous
 62
     7
370
    15
100
AcDbLine
 10
390.2188498486
 20
209.7777122256
 30
0.0
 11
390.2188498486
 21
211.0061541755
 31
0.0
  0
LINE
  5
CC
330
1F
100
AcDbEntity
  8
0
  6
Continuous
 62
     7
370
    15
100
AcDbLine
 10
390.2188498486
 20
222.9492700283
 30
0.0
 11
390.2188498486
 21
224.1777119782
 31
0.0
  0
LINE
  5
CD
330
1F
100
AcDbEntity
  8
0
  6
Continuous
 62
     7
370
    15
100
AcDbLine
 10
799.9571669806
 20
71.9777162742
 30
0.0
 11
799.9571669806
 21
36.9777049494
 31
0.0
  0
LINE
  5
CE
330
1F
100
AcDbEntity
  8
0
  6
Continuous
 62
     7
370
    15
100
AcDbLine
 10
810.5558115948
 20
71.9777162742
 30
0.0
 11
799.9571669806
 21
71.9777162742
 31
0.0
  0
LINE
  5
CF
330
1F
100
AcDbEntity
  8
0
  6
Continuous
 62
     7
370
    15
100
AcDbLine
 10
810.5558115948
 20
36.9777049494
 30
0.0
 11
799.9571669806
 21
36.9777049494
 31
0.0
  0
LINE
  5
D0
330
1F
100
AcDbEntity
  8
0
  6
Continuous
 62
     7
370
    15
100
AcDbLine
 10
799.9571669806
 20
396.9777192545
 30
0.0
 11
799.9571669806
 21
361.9777079296
 31
0.0
  0
LINE
  5
D1
330
1F
100
AcDbEntity
  8
0
  6
Continuous
 62
     7
370
    15
100
AcDbLine
 10
810.5558115948
 20
396.9777192545
 30
0.0
 11
799.9571669806
 21
396.9777192545
 31
0.0
  0
LINE
  5
D2
330
1F
100
AcDbEntity
  8
0
  6
Continuous
 62
     7
370
    15
100
AcDbLine
 10
810.5558115948
 20
361.9777079296
 30
0.0
 11
799.9571669806
 21
361.9777079296
 31
0.0
  0
LINE
  5
D3
330
1F
100
AcDbEntity
  8
0
  6
Continuous
 62
     7
370
    15
100
AcDbLine
 10
807.5558055151
 20
108.9777093005
 30
0.0
 11
802.5558102835
 21
108.9777093005
 31
0.0
  0
LINE
  5
D4
330
1F
100
AcDbEntity
  8
0
  6
Continuous
 62
     7
370
    15
100
AcDbLine
 10
802.5558102835
 20
324.9777149033
 30
0.0
 11
807.5558055151
 21
324.9777149033
 31
0.0
  0
LINE
  5
D5
330
1F
100
AcDbEntity
  8
0
  6
Continuous
 62
     7
370
    15
100
AcDbLine
 10
799.4936514605
 20
36.9777049494
 30
0.0
 11
799.4936514605
 21
71.9777162742
 31
0.0
  0
LINE
  5
D6
330
1F
100
AcDbEntity
  8
0
  6
Continuous
 62
     7
370
    15
100
AcDbLine
 10
799.4936514605
 20
71.9777162742
 30
0.0
 11
799.9571669806
 21
71.9777162742
 31
0.0
  0
LINE
  5
D7
330
1F
100
AcDbEntity
  8
0
  6
Continuous
 62
     7
370
    15
100
AcDbLine
 10
799.9571669806
 20
36.9777049494
 30
0.0
 11
799.4936514605
 21
36.9777049494
 31
0.0
  0
LINE
  5
D8
330
1F
100
AcDbEntity
  8
0
  6
Continuous
 62
     7
370
    15
100
AcDbLine
 10
799.4936514605
 20
361.9777079296
 30
0.0
 11
799.4936514605
 21
396.9777192545
 31
0.0
  0
LINE
  5
D9
330
1F
100
AcDbEntity
  8
0
  6
Continuous
 62
     7
370
    15
100
AcDbLine
 10
799.4936514605
 20
396.9777192545
 30
0.0
 11
799.9571669806
 21
396.9777192545
 31
0.0
  0
LINE
  5
DA
330
1F
100
AcDbEntity
  8
0
  6
Continuous
 62
     7
370
    15
100
AcDbLine
 10
799.9571669806
 20
361.9777079296
 30
0.0
 11
799.4936514605
 21
361.9777079296
 31
0.0
  0
LINE
  5
DB
330
1F
100
AcDbEntity
  8
0
  6
Continuous
 62
     7
370
    15
100
AcDbLine
 10
799.4936514605
 20
396.9777192545
 30
0.0
 11
799.0558106411
 21
396.9777192545
 31
0.0
  0
LINE
  5
DC
330
1F
100
AcDbEntity
  8
0
  6
Continuous
 62
     7
370
    15
100
AcDbLine
 10
799.4936514605
 20
361.9777079296
 30
0.0
 11
799.0558106411
 21
361.9777079296
 31
0.0
  0
LINE
  5
DD
330
1F
100
AcDbEntity
  8
0
  6
Continuous
 62
     7
370
    15
100
AcDbLine
 10
799.4936514605
 20
71.9777162742
 30
0.0
 11
799.0558106411
 21
71.9777162742
 31
0.0
  0
LINE
  5
DE
330
1F
100
AcDbEntity
  8
0
  6
Continuous
 62
     7
370
    15
100
AcDbLine
 10
799.4936514605
 20
36.9777049494
 30
0.0
 11
799.0558106411
 21
36.9777049494
 31
0.0
  0
LINE
  5
DF
330
1F
100
AcDbEntity
  8
0
  6
Continuous
 62
     7
370
    15
100
AcDbLine
 10
393.8558060635
 20
223.727712277
 30
0.0
 11
390.7558131922
 21
223.727712277
 31
0.0
  0
LINE
  5
E0
330
1F
100
AcDbEntity
  8
0
  6
Continuous
 62
     7
370
    15
100
AcDbLine
 10
393.8558060635
 20
210.2277119268
 30
0.0
 11
395.4153168905
 21
210.2277119268
 31
0.0
  0
LINE
  5
E1
330
1F
100
AcDbEntity
  8
0
  6
Continuous
 62
     7
370
    15
100
AcDbLine
 10
393.8558060635
 20
223.727712277
 30
0.0
 11
395.4158831347
 21
223.727712277
 31
0.0
  0
LINE
  5
E2
330
1F
100
AcDbEntity
  8
0
  6
Continuous
 62
     7
370
    15
100
AcDbLine
 10
393.8558060635
 20
210.2277119268
 30
0.0
 11
390.7558131922
 21
210.2277119268
 31
0.0
  0
LINE
  5
E3
330
1F
100
AcDbEntity
  8
0
  6
Continuous
 62
     8
370
    15
100
AcDbLine
 10
393.8558060635
 20
223.727712277
 30
0.0
 11
393.8558060635
 21
223.477712236
 31
0.0
  0
LINE
  5
E4
330
1F
100
AcDbEntity
  8
0
  6
Continuous
 62
     8
370
    15
100
AcDbLine
 10
393.8558060635
 20
210.4777119678
 30
0.0
 11
393.8558060635
 21
210.2277119268
 31
0.0
  0
LINE
  5
E5
330
1F
100
AcDbEntity
  8
0
  6
Continuous
 62
     7
370
    15
100
AcDbLine
 10
337.4102620211
 20
223.477712236
 30
0.0
 11
337.4102620211
 21
210.4777119678
 31
0.0
  0
SPLINE
  5
E6
330
1F
100
AcDbEntity
  8
0
  6
Continuous
 62
     7
370
    15
100
AcDbSpline
210
0.0
220
0.0
230
1.0
 70
     8
 71
     3
 72
    15
 73
    11
 74
     0
 42
0.00000001
 43
0.00000001
 40
0.0
 40
0.0
 40
0.0
 40
0.0
 40
0.135602058861544
 40
0.2953298300878975
 40
0.4038099788193052
 40
0.5319609770010262
 40
0.6738423089739348
 40
0.8261094297264101
 40
0.9126121841778267
 40
1.0
 40
1.0
 40
1.0
 40
1.0
 10
326.3902572718056
 20
211.543757337753
 30
0.0
 10
326.4346389330738
 20
211.5364341252287
 30
0.0
 10
326.5312984424603
 20
211.5204847869321
 30
0.0
 10
326.7381479275705
 20
211.5681527580657
 30
0.0
 10
326.9314174867499
 20
211.6558794496515
 30
0.0
 10
327.0779957957967
 20
211.7755424117319
 30
0.0
 10
327.1767037797763
 20
211.9264373567077
 30
0.0
 10
327.2063644447242
 20
212.0482732749921
 30
0.0
 10
327.1851852636067
 20
212.1775367510175
 30
0.0
 10
327.1389338921419
 20
212.2442072511851
 30
0.0
 10
327.1156905022057
 20
212.2777121697109
 30
0.0
  0
SPLINE
  5
E7
330
1F
100
AcDbEntity
  8
0
  6
Continuous
 62
     7
370
    15
100
AcDbSpline
210
0.0
220
0.0
230
1.0
 70
     8
 71
     3
 72
    20
 73
    16
 74
     0
 42
0.00000001
 43
0.00000001
 40
0.0
 40
0.0
 40
0.0
 40
0.0
 40
0.0607085741192338
 40
0.226534012799414
 40
0.3908032763104429
 40
0.4705946569944333
 40
0.5476201957417955
 40
0.6228571249950487
 40
0.700336993143606
 40
0.7786470821529379
 40
0.856657488249033
 40
0.9330983925584173
 40
0.9703706611610308
 40
0.9892322599426742
 40
1.0
 40
1.0
 40
1.0
 40
1.0
 10
322.6540593233498
 20
212.2777121697109
 30
0.0
 10
322.7003338842097
 20
212.2243787719729
 30
0.0
 10
322.8730073840275
 20
212.0253652260102
 30
0.0
 10
323.2899808028408
 20
212.0074384891645
 30
0.0
 10
323.8549352367251
 20
211.9324154691924
 30
0.0
 10
324.3745479920247
 20
211.889473398341
 30
0.0
 10
324.7684414080332
 20
211.8589223230019
 30
0.0
 10
325.1613523653948
 20
211.8312400441127
 30
0.0
 10
325.5425135365701
 20
211.7999323386415
 30
0.0
 10
325.898237411512
 20
211.7674598420059
 30
0.0
 10
326.2008623375881
 20
211.7366344162153
 30
0.0
 10
326.3933685888662
 20
211.7137316683508
 30
0.0
 10
326.4815004242984
 20
211.705703718748
 30
0.0
 10
326.526918812334
 20
211.6979099839229
 30
0.0
 10
326.5263701537139
 20
211.7018683396089
 30
0.0
 10
326.5261707630547
 20
211.7033068646233
 30
0.0
  0
SPLINE
  5
E8
330
1F
100
AcDbEntity
  8
0
  6
Continuous
 62
     7
370
    15
100
AcDbSpline
210
0.0
220
0.0
230
1.0
 70
     8
 71
     3
 72
    18
 73
    14
 74
     0
 42
0.00000001
 43
0.00000001
 40
0.0
 40
0.0
 40
0.0
 40
0.0
 40
0.0057535970888485
 40
0.1156385843098971
 40
0.2383929802035682
 40
0.3593082866915665
 40
0.4757058900773247
 40
0.5872127854377573
 40
0.7047325883999483
 40
0.8264986602681561
 40
0.8891455273680281
 40
0.9517928709230369
 40
1.0
 40
1.0
 40
1.0
 40
1.0
 10
326.8968818512352
 20
220.9245361011963
 30
0.0
 10
326.8922346917041
 20
220.9274895781016
 30
0.0
 10
326.7988338259604
 20
220.9868499891368
 30
0.0
 10
326.5764632115381
 20
220.9930324458874
 30
0.0
 10
326.1850909880349
 20
221.0522301291653
 30
0.0
 10
325.6732063259291
 20
221.0977764957638
 30
0.0
 10
325.1221753083726
 20
221.1439272811626
 30
0.0
 10
324.5600583726279
 20
221.1828251067882
 30
0.0
 10
324.025784648065
 20
221.2275528509721
 30
0.0
 10
323.6281371816972
 20
221.2686259741014
 30
0.0
 10
323.4134230768086
 20
221.2897457249801
 30
0.0
 10
323.3173546229067
 20
221.2920351261979
 30
0.0
 10
323.3019121370485
 20
221.2759600173273
 30
0.0
 10
323.2951966848763
 20
221.2689694572728
 30
0.0
  0
SPLINE
  5
E9
330
1F
100
AcDbEntity
  8
0
  6
Continuous
 62
     7
370
    15
100
AcDbSpline
210
0.0
220
0.0
230
1.0
 70
     8
 71
     3
 72
    12
 73
     8
 74
     0
 42
0.00000001
 43
0.00000001
 40
0.0
 40
0.0
 40
0.0
 40
0.0
 40
0.2236727509476532
 40
0.4523094217315529
 40
0.6822367932273121
 40
0.9102239414395977
 40
1.0
 40
1.0
 40
1.0
 40
1.0
 10
322.595959695855
 20
222.0795628238957
 30
0.0
 10
322.5832274613711
 20
222.0370148962006
 30
0.0
 10
322.5574804287429
 20
221.9509747840721
 30
0.0
 10
322.678600256981
 20
221.859359711676
 30
0.0
 10
322.9102834740727
 20
221.763054964446
 30
0.0
 10
323.1551332668379
 20
221.7005630762146
 30
0.0
 10
323.338469125018
 20
221.7057833771324
 30
0.0
 10
323.390266093293
 20
221.70725824279
 30
0.0
  0
SPLINE
  5
EA
330
1F
100
AcDbEntity
  8
0
  6
Continuous
 62
     7
370
    15
100
AcDbSpline
210
0.0
220
0.0
230
1.0
 70
     8
 71
     3
 72
    19
 73
    15
 74
     0
 42
0.00000001
 43
0.00000001
 40
0.0
 40
0.0
 40
0.0
 40
0.0
 40
0.0979036438947439
 40
0.1753770039599647
 40
0.2884815244310155
 40
0.3734518457223999
 40
0.4570025957245419
 40
0.6168869411769329
 40
0.6796661063441901
 40
0.7634256938114622
 40
0.8137533666286789
 40
0.8702968890124941
 40
0.9323986368212501
 40
1.0
 40
1.0
 40
1.0
 40
1.0
 10
322.7721957292946
 20
221.5844321620207
 30
0.0
 10
322.8227058511383
 20
221.5580551763334
 30
0.0
 10
322.9131857708451
 20
221.5108054873606
 30
0.0
 10
323.2878273817757
 20
221.4501570269646
 30
0.0
 10
323.7743342600011
 20
221.3962697576861
 30
0.0
 10
324.365663692847
 20
221.3430360999099
 30
0.0
 10
325.1197688500948
 20
221.2914874579106
 30
0.0
 10
325.7608616964047
 20
221.2245423970964
 30
0.0
 10
326.4101383061592
 20
221.1890237891439
 30
0.0
 10
326.7884625158307
 20
221.2672066940565
 30
0.0
 10
327.0403216062646
 20
221.3754121887191
 30
0.0
 10
327.1739050414135
 20
221.4637474265288
 30
0.0
 10
327.2356808142404
 20
221.5375910128353
 30
0.0
 10
327.1642370365307
 20
221.6181059880219
 30
0.0
 10
327.1270004835518
 20
221.6600704562406
 30
0.0
  0
SPLINE
  5
EB
330
1F
100
AcDbEntity
  8
0
  6
Continuous
 62
     7
370
    15
100
AcDbSpline
210
0.0
220
0.0
230
1.0
 70
     8
 71
     3
 72
    25
 73
    21
 74
     0
 42
0.00000001
 43
0.00000001
 40
0.0
 40
0.0
 40
0.0
 40
0.0
 40
0.0176268986139688
 40
0.0344971416267052
 40
0.0503142256529717
 40
0.0649729389596758
 40
0.0909449968710219
 40
0.1134387811518221
 40
0.1538399247604006
 40
0.1912341901110607
 40
0.2995707715536969
 40
0.3999635250422046
 40
0.5012957314817192
 40
0.5949061851878695
 40
0.6784873245539974
 40
0.7336303698616736
 40
0.8075203224127264
 40
0.8952853236680246
 40
0.9453087044794981
 40
0.9999999999999999
 40
0.9999999999999999
 40
0.9999999999999999
 40
0.9999999999999999
 10
326.7696855392845
 20
221.0344885100167
 30
0.0
 10
326.809396450896
 20
221.0388826133079
 30
0.0
 10
326.8871136359771
 20
221.047482197777
 30
0.0
 10
326.98898853391
 20
221.0934885220631
 30
0.0
 10
327.0700026689649
 20
221.1524458277142
 30
0.0
 10
327.1462050585209
 20
221.2360219790664
 30
0.0
 10
327.1992505231353
 20
221.3396686207821
 30
0.0
 10
327.2234282481356
 20
221.4720014228776
 30
0.0
 10
327.2005190343789
 20
221.6038700039309
 30
0.0
 10
327.0292908867968
 20
221.8490788928782
 30
0.0
 10
326.6864999150484
 20
221.9361624902777
 30
0.0
 10
326.1913875361219
 20
221.9947165725592
 30
0.0
 10
325.578175152128
 20
222.0530741527394
 30
0.0
 10
324.9287066473618
 20
222.1026960379842
 30
0.0
 10
324.3890047875174
 20
222.1421781999053
 30
0.0
 10
323.9429910101265
 20
222.1813534146197
 30
0.0
 10
323.5542897686042
 20
222.2195826588537
 30
0.0
 10
323.2941334925888
 20
222.2474235149415
 30
0.0
 10
323.1636854320191
 20
222.2699188912819
 30
0.0
 10
323.1550280583827
 20
222.2823815203326
 30
0.0
 10
323.150506409684
 20
222.2888906110566
 30
0.0
  0
SPLINE
  5
EC
330
1F
100
AcDbEntity
  8
0
  6
Continuous
 62
     7
370
    15
100
AcDbSpline
210
0.0
220
0.0
230
1.0
 70
     8
 71
     3
 72
    12
 73
     8
 74
     0
 42
0.00000001
 43
0.00000001
 40
0.0
 40
0.0
 40
0.0
 40
0.0
 40
0.1756417497531074
 40
0.5723158160618502
 40
0.7586154621622485
 40
0.9207512259387527
 40
1.0
 40
1.0
 40
1.0
 40
1.0
 10
323.2388255920799
 20
221.4704028886299
 30
0.0
 10
323.1732677905396
 20
221.4612313348884
 30
0.0
 10
322.9596524813064
 20
221.4313464967364
 30
0.0
 10
322.743719875834
 20
221.3574214175009
 30
0.0
 10
322.5825798115791
 20
221.1424810469913
 30
0.0
 10
322.551354422047
 20
220.9822652202704
 30
0.0
 10
322.582332302186
 20
220.903601739321
 30
0.0
 10
322.592502626458
 20
220.8777757917087
 30
0.0
  0
LINE
  5
ED
330
1F
100
AcDbEntity
  8
0
  6
Continuous
 62
     7
370
    15
100
AcDbLine
 10
322.7500228014
 20
212.1799717282
 30
0.0
 11
321.6315565434
 21
212.1799717282
 31
0.0
  0
LINE
  5
EE
330
1F
100
AcDbEntity
  8
0
  6
Continuous
 62
     7
370
    15
100
AcDbLine
 10
321.6315565434
 20
211.3799721558
 30
0.0
 11
323.3902660933
 21
211.3799721558
 31
0.0
  0
LINE
  5
EF
330
1F
100
AcDbEntity
  8
0
  6
Continuous
 62
     7
370
    15
100
AcDbLine
 10
320.2212659445
 20
224.9777124819
 30
0.0
 11
320.2212659445
 21
225.0311825049
 31
0.0
  0
LINE
  5
F0
330
1F
100
AcDbEntity
  8
0
  6
Continuous
 62
     7
370
    15
100
AcDbLine
 10
317.221274766
 20
225.0311825049
 30
0.0
 11
317.221274766
 21
224.9777124819
 31
0.0
  0
SPLINE
  5
F1
330
1F
100
AcDbEntity
  8
0
  6
Continuous
 62
     7
370
    15
100
AcDbSpline
210
0.0
220
0.0
230
1.0
 70
     8
 71
     3
 72
    15
 73
    11
 74
     0
 42
0.00000001
 43
0.00000001
 40
0.0
 40
0.0
 40
0.0
 40
0.0
 40
0.1077551316558015
 40
0.2352510952770178
 40
0.362790812364346
 40
0.4902565964082815
 40
0.6176631519439536
 40
0.7450970655907955
 40
0.8724965291587299
 40
1.0
 40
1.0
 40
1.0
 40
1.0
 10
317.237323316613
 20
208.977711721931
 30
0.0
 10
317.2538625451134
 20
208.6651907048092
 30
0.0
 10
317.2899710028727
 20
207.9828945538489
 30
0.0
 10
317.6261844962963
 20
206.9737460899387
 30
0.0
 10
318.1842587010324
 20
206.0102620228297
 30
0.0
 10
318.9390919505958
 20
205.1893425881046
 30
0.0
 10
319.8542509743793
 20
204.5540707467161
 30
0.0
 10
320.881506515479
 20
204.1339087633667
 30
0.0
 10
321.9774866989523
 20
203.920102631451
 30
0.0
 10
322.713245906301
 20
203.9856330054455
 30
0.0
 10
323.0812756147774
 20
204.018411561523
 30
0.0
  0
SPLINE
  5
F2
330
1F
100
AcDbEntity
  8
0
  6
Continuous
 62
     7
370
    15
100
AcDbSpline
210
0.0
220
0.0
230
1.0
 70
     8
 71
     3
 72
    15
 73
    11
 74
     0
 42
0.00000001
 43
0.00000001
 40
0.0
 40
0.0
 40
0.0
 40
0.0
 40
0.1316513793982363
 40
0.2633123552697588
 40
0.395190927607284
 40
0.5266703381515704
 40
0.6575463376361302
 40
0.7882131913326652
 40
0.9184592834300639
 40
1.0
 40
1.0
 40
1.0
 40
1.0
 10
322.5835917320641
 20
206.976096480761
 30
0.0
 10
322.431407721963
 20
206.9642820653876
 30
0.0
 10
322.1270286086009
 20
206.9406523734518
 30
0.0
 10
321.6761690325158
 20
207.0421340532597
 30
0.0
 10
321.2571352613408
 20
207.2289815288706
 30
0.0
 10
320.8867390457777
 20
207.5015777189879
 30
0.0
 10
320.5844892733839
 20
207.8474956069882
 30
0.0
 10
320.3653159191283
 20
208.2491947868639
 30
0.0
 10
320.2479608595235
 20
208.6355135742722
 30
0.0
 10
320.2377779718717
 20
208.8825856946465
 30
0.0
 10
320.2338574257286
 20
208.977711721931
 30
0.0
  0
SPLINE
  5
F3
330
1F
100
AcDbEntity
  8
0
  6
Continuous
 62
     7
370
    15
100
AcDbSpline
210
0.0
220
0.0
230
1.0
 70
     8
 71
     3
 72
    15
 73
    11
 74
     0
 42
0.00000001
 43
0.00000001
 40
0.0
 40
0.0
 40
0.0
 40
0.0
 40
0.1249271906275216
 40
0.249915789652317
 40
0.3749663998403169
 40
0.4999572007284043
 40
0.6249201443926174
 40
0.7499168437685625
 40
0.8748738700208343
 40
1.0
 40
1.0
 40
1.0
 40
1.0
 10
323.2521472301872
 20
229.9082329120974
 30
0.0
 10
322.8857705797852
 20
229.9515649033688
 30
0.0
 10
322.1528371852578
 20
230.0382501859032
 30
0.0
 10
321.0488134322361
 20
229.8730597691603
 30
0.0
 10
320.0080163104042
 20
229.484126987413
 30
0.0
 10
319.072820393703
 20
228.8791204408897
 30
0.0
 10
318.2921866350159
 20
228.0829156653612
 30
0.0
 10
317.7042107678089
 20
227.1385623580271
 30
0.0
 10
317.3083883556629
 20
226.0901133985803
 30
0.0
 10
317.2503257163509
 20
225.3509927880483
 30
0.0
 10
317.2212747660072
 20
224.9811825898032
 30
0.0
  0
SPLINE
  5
F4
330
1F
100
AcDbEntity
  8
0
  6
Continuous
 62
     7
370
    15
100
AcDbSpline
210
0.0
220
0.0
230
1.0
 70
     8
 71
     3
 72
    15
 73
    11
 74
     0
 42
0.00000001
 43
0.00000001
 40
0.0
 40
0.0
 40
0.0
 40
0.0
 40
0.1242534720470509
 40
0.248633210933313
 40
0.3735414230574111
 40
0.4985818114820442
 40
0.6236639178100216
 40
0.7490699577188065
 40
0.8744364287135616
 40
0.9999999999999999
 40
0.9999999999999999
 40
0.9999999999999999
 40
0.9999999999999999
 10
320.2212659445198
 20
224.9811825898032
 30
0.0
 10
320.2348295857886
 20
225.1331383677022
 30
0.0
 10
320.2619706517488
 20
225.4372043415254
 30
0.0
 10
320.4364247453001
 20
225.8645250984002
 30
0.0
 10
320.6897587054147
 20
226.2461608037589
 30
0.0
 10
321.0195754714146
 20
226.566099046567
 30
0.0
 10
321.4105075089027
 20
226.8066677041584
 30
0.0
 10
321.8432037710958
 20
226.9582935583352
 30
0.0
 10
322.3007354786109
 20
227.0117513480182
 30
0.0
 10
322.6026549027929
 20
226.9710615894981
 30
0.0
 10
322.7537331905754
 20
226.9507007297616
 30
0.0
  0
LINE
  5
F5
330
1F
100
AcDbEntity
  8
0
  6
Continuous
 62
     7
370
    15
100
AcDbLine
 10
338.1243256655
 20
209.5928488855
 30
0.0
 11
322.5833682146
 21
206.9764308256
 31
0.0
  0
LINE
  5
F6
330
1F
100
AcDbEntity
  8
0
  6
Continuous
 62
     7
370
    15
100
AcDbLine
 10
323.0814246264
 20
204.0180632469
 30
0.0
 11
338.6223969784
 21
206.6344817725
 31
0.0
  0
LINE
  5
F7
330
1F
100
AcDbEntity
  8
0
  6
Continuous
 62
     7
370
    15
100
AcDbLine
 10
322.7539418068
 20
226.9502751153
 30
0.0
 11
338.2949141589
 21
224.3338561241
 31
0.0
  0
LINE
  5
F8
330
1F
100
AcDbEntity
  8
0
  6
Continuous
 62
     7
370
    15
100
AcDbLine
 10
338.7929705706
 20
227.2922232371
 30
0.0
 11
323.2520131197
 21
229.9086417627
 31
0.0
  0
SPLINE
  5
F9
330
1F
100
AcDbEntity
  8
0
  6
Continuous
 62
     7
370
    15
100
AcDbSpline
210
0.0
220
0.0
230
1.0
 70
     8
 71
     3
 72
    12
 73
     8
 74
     0
 42
0.00000001
 43
0.00000001
 40
0.0
 40
0.0
 40
0.0
 40
0.0
 40
0.1526137250823502
 40
0.2973904385919474
 40
0.5623704151018883
 40
0.7966025483336754
 40
1.0
 40
1.0
 40
1.0
 40
1.0
 10
338.6220393505486
 20
206.6347909715514
 30
0.0
 10
338.8732589212149
 20
206.6875290729253
 30
0.0
 10
339.3627974490442
 20
206.7902970716072
 30
0.0
 10
340.2123201755267
 20
207.2195420720456
 30
0.0
 10
341.0243110392031
 20
207.9639367799061
 30
0.0
 10
341.5887572198064
 20
209.0349762475059
 30
0.0
 10
341.6704460006105
 20
209.769903584787
 30
0.0
 10
341.7084125605019
 20
210.1114763502519
 30
0.0
  0
SPLINE
  5
FA
330
1F
100
AcDbEntity
  8
0
  6
Continuous
 62
     7
370
    15
100
AcDbSpline
210
0.0
220
0.0
230
1.0
 70
     8
 71
     3
 72
    11
 73
     7
 74
     0
 42
0.00000001
 43
0.00000001
 40
0.0
 40
0.0
 40
0.0
 40
0.0
 40
0.2003563298768963
 40
0.4328062455845991
 40
0.6990171522960194
 40
0.9999999999999999
 40
0.9999999999999999
 40
0.9999999999999999
 40
0.9999999999999999
 10
338.710090312043
 20
210.1114763502519
 30
0.0
 10
338.6968627964289
 20
210.0550496201163
 30
0.0
 10
338.6682889481514
 20
209.9331575828865
 30
0.0
 10
338.5524047544411
 20
209.7674614911976
 30
0.0
 10
338.3676584010806
 20
209.6285474502589
 30
0.0
 10
338.2100383949764
 20
209.6051608117674
 30
0.0
 10
338.1263969269188
 20
209.592750630949
 30
0.0
  0
SPLINE
  5
FB
330
1F
100
AcDbEntity
  8
0
  6
Continuous
 62
     7
370
    15
100
AcDbSpline
210
0.0
220
0.0
230
1.0
 70
     8
 71
     3
 72
    12
 73
     8
 74
     0
 42
0.00000001
 43
0.00000001
 40
0.0
 40
0.0
 40
0.0
 40
0.0
 40
0.2034068608886776
 40
0.4376404703532427
 40
0.7026158883870809
 40
0.8473899262385748
 40
1.0
 40
1.0
 40
1.0
 40
1.0
 10
341.7084125605019
 20
223.6701071817915
 30
0.0
 10
341.6869712314308
 20
224.0131157410215
 30
0.0
 10
341.6408390936126
 20
224.7511165466028
 30
0.0
 10
341.1287467631408
 20
225.848230216548
 30
0.0
 10
340.3535386717371
 20
226.6309837075285
 30
0.0
 10
339.5256875080053
 20
227.1007128374464
 30
0.0
 10
339.0416989816516
 20
227.2269738386308
 30
0.0
 10
338.7933281984718
 20
227.2917678203921
 30
0.0
  0
SPLINE
  5
FC
330
1F
100
AcDbEntity
  8
0
  6
Continuous
 62
     7
370
    15
100
AcDbSpline
210
0.0
220
0.0
230
1.0
 70
     8
 71
     3
 72
    12
 73
     8
 74
     0
 42
0.00000001
 43
0.00000001
 40
0.0
 40
0.0
 40
0.0
 40
0.0
 40
0.1555606195731052
 40
0.3022089924266109
 40
0.5679713858311382
 40
0.7999469279268913
 40
1.0
 40
1.0
 40
1.0
 40
1.0
 10
338.292991909066
 20
224.3347744081657
 30
0.0
 10
338.3335389644648
 20
224.3190252651024
 30
0.0
 10
338.4123100878479
 20
224.2884292654863
 30
0.0
 10
338.5419403591255
 20
224.1933825715953
 30
0.0
 10
338.6563752531493
 20
224.0472119758536
 30
0.0
 10
338.7205082786529
 20
223.8529561593641
 30
0.0
 10
338.7133875855924
 20
223.727978657085
 30
0.0
 10
338.710090312043
 20
223.6701071817915
 30
0.0
  0
LINE
  5
FD
330
1F
100
AcDbEntity
  8
0
  6
Continuous
 62
     7
370
    15
100
AcDbLine
 10
338.709255847
 20
223.7201070969
 30
0.0
 11
338.709255847
 21
223.477712236
 31
0.0
  0
LINE
  5
FE
330
1F
100
AcDbEntity
  8
0
  6
Continuous
 62
     7
370
    15
100
AcDbLine
 10
338.709255847
 20
210.4777119678
 30
0.0
 11
338.709255847
 21
210.0614764352
 31
0.0
  0
LINE
  5
FF
330
1F
100
AcDbEntity
  8
0
  6
Continuous
 62
     7
370
    15
100
AcDbLine
 10
341.7092470255
 20
210.0614764352
 30
0.0
 11
341.7092470255
 21
210.4804565754
 31
0.0
  0
LINE
  5
100
330
1F
100
AcDbEntity
  8
0
  6
Continuous
 62
     7
370
    15
100
AcDbLine
 10
341.7092470255
 20
223.4749676284
 30
0.0
 11
341.7092470255
 21
223.7201070969
 31
0.0
  0
LINE
  5
101
330
1F
100
AcDbEntity
  8
0
  6
Continuous
 62
     7
370
    15
100
AcDbLine
 10
328.0085382786
 20
222.5777119022
 30
0.0
 11
326.3902572718
 21
222.5777119022
 31
0.0
  0
LINE
  5
102
330
1F
100
AcDbEntity
  8
0
  6
Continuous
 62
     7
370
    15
100
AcDbLine
 10
327.0171789256
 20
221.7777123299
 30
0.0
 11
328.0085382786
 21
221.7777123299
 31
0.0
  0
LINE
  5
103
330
1F
100
AcDbEntity
  8
0
  6
Continuous
 62
     7
370
    15
100
AcDbLine
 10
328.3467648354
 20
223.8458510113
 30
0.0
 11
328.0802426663
 21
222.63760386
 31
0.0
  0
LINE
  5
104
330
1F
100
AcDbEntity
  8
0
  6
Continuous
 62
     7
370
    15
100
AcDbLine
 10
328.8483975258
 20
222.4060537849
 30
0.0
 11
329.1279731121
 21
223.673523273
 31
0.0
  0
SPLINE
  5
105
330
1F
100
AcDbEntity
  8
0
  6
Continuous
 62
     7
370
    15
100
AcDbSpline
210
0.0
220
0.0
230
1.0
 70
     8
 71
     3
 72
    11
 73
     7
 74
     0
 42
0.00000001
 43
0.00000001
 40
0.0
 40
0.0
 40
0.0
 40
0.0
 40
0.2541315534387046
 40
0.5022702145093869
 40
0.7495144296499624
 40
1.0
 40
1.0
 40
1.0
 40
1.0
 10
328.0085382786186
 20
221.7777123298983
 30
0.0
 10
328.1086270639511
 20
221.7879584242383
 30
0.0
 10
328.3064443558168
 20
221.8082089910504
 30
0.0
 10
328.564589087452
 20
221.9622417279759
 30
0.0
 10
328.7680396647972
 20
222.1813142087152
 30
0.0
 10
328.8297725446362
 20
222.3683652594806
 30
0.0
 10
328.8608399954231
 20
222.4624998491745
 30
0.0
  0
LINE
  5
106
330
1F
100
AcDbEntity
  8
0
  6
Continuous
 62
     7
370
    15
100
AcDbLine
 10
327.6202587214
 20
208.9777117219
 30
0.0
 11
327.6202587214
 21
209.7777122256
 31
0.0
  0
LINE
  5
107
330
1F
100
AcDbEntity
  8
0
  6
Continuous
 62
     7
370
    15
100
AcDbLine
 10
327.6202587214
 20
224.1777119782
 30
0.0
 11
327.6202587214
 21
224.9777124819
 31
0.0
  0
LINE
  5
108
330
1F
100
AcDbEntity
  8
0
  6
Continuous
 62
     7
370
    15
100
AcDbLine
 10
322.6902691451
 20
225.2777119723
 30
0.0
 11
322.6902691451
 21
224.9777124819
 31
0.0
  0
LINE
  5
109
330
1F
100
AcDbEntity
  8
0
  6
Continuous
 62
     7
370
    15
100
AcDbLine
 10
327.0902691212
 20
224.9777124819
 30
0.0
 11
327.0902691212
 21
225.2777119723
 31
0.0
  0
ARC
  5
10A
330
1F
100
AcDbEntity
  8
0
  6
Continuous
 62
     7
370
    15
100
AcDbCircle
 10
324.8902618542
 20
222.1705692448
 30
0.0
 40
3.807142857143211
100
AcDbArc
 50
54.6997515601
 51
125.3002484399
  0
LINE
  5
10B
330
1F
100
AcDbEntity
  8
0
  6
Continuous
 62
     7
370
    15
100
AcDbLine
 10
322.7902559367
 20
208.5777124014
 30
0.0
 11
322.7902559367
 21
208.1777121496
 31
0.0
  0
LINE
  5
10C
330
1F
100
AcDbEntity
  8
0
  6
Continuous
 62
     7
370
    15
100
AcDbLine
 10
326.9902674284
 20
208.1777121496
 30
0.0
 11
326.9902674284
 21
208.5777124014
 31
0.0
  0
ARC
  5
10D
330
1F
100
AcDbEntity
  8
0
  6
Continuous
 62
     7
370
    15
100
AcDbCircle
 10
322.9902618542
 20
208.9777121019
 30
0.0
 40
0.4000000000007162
100
AcDbArc
 50
270.0
 51
0.0
  0
ARC
  5
10E
330
1F
100
AcDbEntity
  8
0
  6
Continuous
 62
     7
370
    15
100
AcDbCircle
 10
326.7902618542
 20
208.9777121019
 30
0.0
 40
0.4000000000007731
100
AcDbArc
 50
180.0
 51
270.0
  0
LINE
  5
10F
330
1F
100
AcDbEntity
  8
0
  6
Continuous
 62
     7
370
    15
100
AcDbLine
 10
323.3902660933
 20
224.1777119782
 30
0.0
 11
323.3902660933
 21
223.727712277
 31
0.0
  0
LINE
  5
110
330
1F
100
AcDbEntity
  8
0
  6
Continuous
 62
     7
370
    15
100
AcDbLine
 10
323.3902660933
 20
222.7277121131
 30
0.0
 11
323.3902660933
 21
222.239007577
 31
0.0
  0
LINE
  5
111
330
1F
100
AcDbEntity
  8
0
  6
Continuous
 62
     7
370
    15
100
AcDbLine
 10
323.3902660933
 20
221.4428930168
 30
0.0
 11
323.3902660933
 21
221.2871959057
 31
0.0
  0
LINE
  5
112
330
1F
100
AcDbEntity
  8
0
  6
Continuous
 62
     7
370
    15
100
AcDbLine
 10
323.3902660933
 20
211.9880852845
 30
0.0
 11
323.3902660933
 21
211.2277120907
 31
0.0
  0
LINE
  5
113
330
1F
100
AcDbEntity
  8
0
  6
Continuous
 62
     7
370
    15
100
AcDbLine
 10
323.3902660933
 20
210.2277119268
 30
0.0
 11
323.3902660933
 21
209.7777122256
 31
0.0
  0
LINE
  5
114
330
1F
100
AcDbEntity
  8
0
  6
Continuous
 62
     7
370
    15
100
AcDbLine
 10
326.3902572718
 20
209.7777122256
 30
0.0
 11
326.3902572718
 21
210.2277119268
 31
0.0
  0
LINE
  5
115
330
1F
100
AcDbEntity
  8
0
  6
Continuous
 62
     7
370
    15
100
AcDbLine
 10
326.3902572718
 20
211.2277120907
 30
0.0
 11
326.3902572718
 21
211.7148543332
 31
0.0
  0
LINE
  5
116
330
1F
100
AcDbEntity
  8
0
  6
Continuous
 62
     7
370
    15
100
AcDbLine
 10
326.3902572718
 20
221.0227715407
 30
0.0
 11
326.3902572718
 21
221.210710108
 31
0.0
  0
LINE
  5
117
330
1F
100
AcDbEntity
  8
0
  6
Continuous
 62
     7
370
    15
100
AcDbLine
 10
326.3902572718
 20
221.9657891986
 30
0.0
 11
326.3902572718
 21
222.7277121131
 31
0.0
  0
LINE
  5
118
330
1F
100
AcDbEntity
  8
0
  6
Continuous
 62
     7
370
    15
100
AcDbLine
 10
326.3902572718
 20
223.727712277
 30
0.0
 11
326.3902572718
 21
224.1777119782
 31
0.0
  0
LINE
  5
119
330
1F
100
AcDbEntity
  8
0
  6
Continuous
 62
     7
370
    15
100
AcDbLine
 10
341.6598794785
 20
210.4777119678
 30
0.0
 11
340.707859191
 21
210.4777119678
 31
0.0
  0
LWPOLYLINE
  5
11A
330
1F
100
AcDbEntity
  8
0
  6
Continuous
 62
     7
370
    15
100
AcDbPolyline
 90
        9
 70
   128
 43
0.0
 10
340.707859191
 20
210.4777119678
 10
340.8503738966
 20
210.5007696521
 10
340.987404975
 20
210.5690565516
 10
341.1137072173
 20
210.6799486649
 10
341.2244079438
 20
210.8291837942
 10
341.3152454224
 20
211.0110277866
 10
341.3827625838
 20
211.2184919972
 10
341.4243368235
 20
211.4436038394
 10
341.4383737173
 20
211.6777122576
  0
LINE
  5
11B
330
1F
100
AcDbEntity
  8
0
  6
Continuous
 62
     7
370
    15
100
AcDbLine
 10
341.4383737173
 20
211.6777122576
 30
0.0
 11
342.3903940049
 21
211.6777122576
 31
0.0
  0
LWPOLYLINE
  5
11C
330
1F
100
AcDbEntity
  8
0
  6
Continuous
 62
     7
370
    15
100
AcDbPolyline
 90
        9
 70
   128
 43
0.0
 10
342.3903940049
 20
211.6777122576
 10
342.376357111
 20
211.4436038394
 10
342.3347828713
 20
211.2184919972
 10
342.2672806111
 20
211.0110277866
 10
342.1764282313
 20
210.8291837942
 10
342.0657275048
 20
210.6799486649
 10
341.9394252625
 20
210.5690565516
 10
341.8023941842
 20
210.5007696521
 10
341.6598794785
 20
210.4777119678
  0
LINE
  5
11D
330
1F
100
AcDbEntity
  8
0
  6
Continuous
 62
     7
370
    15
100
AcDbLine
 10
340.707859191
 20
223.477712236
 30
0.0
 11
341.6598794785
 21
223.477712236
 31
0.0
  0
LWPOLYLINE
  5
11E
330
1F
100
AcDbEntity
  8
0
  6
Continuous
 62
     7
370
    15
100
AcDbPolyline
 90
        9
 70
   128
 43
0.0
 10
341.6598794785
 20
223.477712236
 10
341.8023941842
 20
223.4546545517
 10
341.9394252625
 20
223.3863676522
 10
342.0657275048
 20
223.2754755389
 10
342.1764282313
 20
223.1262404096
 10
342.2672806111
 20
222.9443964173
 10
342.3347828713
 20
222.7369322066
 10
342.376357111
 20
222.5118203644
 10
342.3903940049
 20
222.2777119462
  0
LINE
  5
11F
330
1F
100
AcDbEntity
  8
0
  6
Continuous
 62
     7
370
    15
100
AcDbLine
 10
342.3903940049
 20
222.2777119462
 30
0.0
 11
341.4383737173
 21
222.2777119462
 31
0.0
  0
LWPOLYLINE
  5
120
330
1F
100
AcDbEntity
  8
0
  6
Continuous
 62
     7
370
    15
100
AcDbPolyline
 90
        9
 70
   128
 43
0.0
 10
341.4383737173
 20
222.2777119462
 10
341.4243368235
 20
222.5118203644
 10
341.3827625838
 20
222.7369322066
 10
341.3152454224
 20
222.9443964173
 10
341.2244079438
 20
223.1262404096
 10
341.1137072173
 20
223.2754755389
 10
340.987404975
 20
223.3863676522
 10
340.8503738966
 20
223.4546545517
 10
340.707859191
 20
223.477712236
  0
LINE
  5
121
330
1F
100
AcDbEntity
  8
0
  6
Continuous
 62
     7
370
    15
100
AcDbLine
 10
337.9888741103
 20
223.477712236
 30
0.0
 11
337.9888741103
 21
210.4777119678
 31
0.0
  0
LINE
  5
122
330
1F
100
AcDbEntity
  8
0
  6
Continuous
 62
     7
370
    15
100
AcDbLine
 10
337.9888741103
 20
223.477712236
 30
0.0
 11
340.707859191
 21
223.477712236
 31
0.0
  0
LINE
  5
123
330
1F
100
AcDbEntity
  8
0
  6
Continuous
 62
     7
370
    15
100
AcDbLine
 10
341.4383737173
 20
222.2777119462
 30
0.0
 11
341.4383737173
 21
211.6777122576
 31
0.0
  0
LINE
  5
124
330
1F
100
AcDbEntity
  8
0
  6
Continuous
 62
     7
370
    15
100
AcDbLine
 10
340.707859191
 20
210.4777119678
 30
0.0
 11
337.9888741103
 21
210.4777119678
 31
0.0
  0
LINE
  5
125
330
1F
100
AcDbEntity
  8
0
  6
Continuous
 62
     7
370
    15
100
AcDbLine
 10
342.3903940049
 20
222.2777119462
 30
0.0
 11
342.3903940049
 21
211.6777122576
 31
0.0
  0
LINE
  5
126
330
1F
100
AcDbEntity
  8
0
  6
Continuous
 62
     7
370
    15
100
AcDbLine
 10
337.4102620211
 20
223.477712236
 30
0.0
 11
337.9888741103
 21
223.477712236
 31
0.0
  0
LINE
  5
127
330
1F
100
AcDbEntity
  8
0
  6
Continuous
 62
     7
370
    15
100
AcDbLine
 10
337.9888741103
 20
210.4777119678
 30
0.0
 11
337.4102620211
 21
210.4777119678
 31
0.0
  0
CIRCLE
  5
128
330
1F
100
AcDbEntity
  8
0
  6
Continuous
 62
     7
370
    15
100
AcDbCircle
 10
347.9102618542
 20
211.9777121019
 30
0.0
 40
3.0
  0
LINE
  5
129
330
1F
100
AcDbEntity
  8
0
  6
Continuous
 62
     7
370
    15
100
AcDbLine
 10
347.5102690783
 20
210.0777121816
 30
0.0
 11
348.3102677193
 21
210.0777121816
 31
0.0
  0
LINE
  5
12A
330
1F
100
AcDbEntity
  8
0
  6
Continuous
 62
     7
370
    15
100
AcDbLine
 10
348.3102677193
 20
210.0777121816
 30
0.0
 11
348.3102677193
 21
211.5777119618
 31
0.0
  0
LINE
  5
12B
330
1F
100
AcDbEntity
  8
0
  6
Continuous
 62
     7
370
    15
100
AcDbLine
 10
348.3102677193
 20
211.5777119618
 30
0.0
 11
349.8102633086
 21
211.5777119618
 31
0.0
  0
LINE
  5
12C
330
1F
100
AcDbEntity
  8
0
  6
Continuous
 62
     7
370
    15
100
AcDbLine
 10
349.8102633086
 20
211.5777119618
 30
0.0
 11
349.8102633086
 21
212.3777119998
 31
0.0
  0
LINE
  5
12D
330
1F
100
AcDbEntity
  8
0
  6
Continuous
 62
     7
370
    15
100
AcDbLine
 10
349.8102633086
 20
212.3777119998
 30
0.0
 11
348.3102677193
 21
212.3777119998
 31
0.0
  0
LINE
  5
12E
330
1F
100
AcDbEntity
  8
0
  6
Continuous
 62
     7
370
    15
100
AcDbLine
 10
348.3102677193
 20
212.3777119998
 30
0.0
 11
348.3102677193
 21
213.8777120129
 31
0.0
  0
LINE
  5
12F
330
1F
100
AcDbEntity
  8
0
  6
Continuous
 62
     7
370
    15
100
AcDbLine
 10
348.3102677193
 20
213.8777120129
 30
0.0
 11
347.5102690783
 21
213.8777120129
 31
0.0
  0
LINE
  5
130
330
1F
100
AcDbEntity
  8
0
  6
Continuous
 62
     7
370
    15
100
AcDbLine
 10
347.5102690783
 20
213.8777120129
 30
0.0
 11
347.5102690783
 21
212.3777119998
 31
0.0
  0
LINE
  5
131
330
1F
100
AcDbEntity
  8
0
  6
Continuous
 62
     7
370
    15
100
AcDbLine
 10
347.5102690783
 20
212.3777119998
 30
0.0
 11
346.0102585879
 21
212.3777119998
 31
0.0
  0
LINE
  5
132
330
1F
100
AcDbEntity
  8
0
  6
Continuous
 62
     7
370
    15
100
AcDbLine
 10
346.0102585879
 20
212.3777119998
 30
0.0
 11
346.0102585879
 21
211.5777119618
 31
0.0
  0
LINE
  5
133
330
1F
100
AcDbEntity
  8
0
  6
Continuous
 62
     7
370
    15
100
AcDbLine
 10
346.0102585879
 20
211.5777119618
 30
0.0
 11
347.5102690783
 21
211.5777119618
 31
0.0
  0
LINE
  5
134
330
1F
100
AcDbEntity
  8
0
  6
Continuous
 62
     7
370
    15
100
AcDbLine
 10
347.5102690783
 20
211.5777119618
 30
0.0
 11
347.5102690783
 21
210.0777121816
 31
0.0
  0
LINE
  5
135
330
1F
100
AcDbEntity
  8
0
  6
Continuous
 62
     7
370
    15
100
AcDbLine
 10
346.0102585879
 20
221.577712204
 30
0.0
 11
347.5102690783
 21
221.577712204
 31
0.0
  0
LINE
  5
136
330
1F
100
AcDbEntity
  8
0
  6
Continuous
 62
     7
370
    15
100
AcDbLine
 10
347.5102690783
 20
221.577712204
 30
0.0
 11
347.5102690783
 21
220.0777121909
 31
0.0
  0
LINE
  5
137
330
1F
100
AcDbEntity
  8
0
  6
Continuous
 62
     7
370
    15
100
AcDbLine
 10
348.3102677193
 20
220.0777121909
 30
0.0
 11
348.3102677193
 21
221.577712204
 31
0.0
  0
LINE
  5
138
330
1F
100
AcDbEntity
  8
0
  6
Continuous
 62
     7
370
    15
100
AcDbLine
 10
347.5102690783
 20
220.0777121909
 30
0.0
 11
348.3102677193
 21
220.0777121909
 31
0.0
  0
LINE
  5
139
330
1F
100
AcDbEntity
  8
0
  6
Continuous
 62
     7
370
    15
100
AcDbLine
 10
347.5102690783
 20
222.377712242
 30
0.0
 11
346.0102585879
 21
222.377712242
 31
0.0
  0
LINE
  5
13A
330
1F
100
AcDbEntity
  8
0
  6
Continuous
 62
     7
370
    15
100
AcDbLine
 10
349.8102633086
 20
221.577712204
 30
0.0
 11
349.8102633086
 21
222.377712242
 31
0.0
  0
LINE
  5
13B
330
1F
100
AcDbEntity
  8
0
  6
Continuous
 62
     7
370
    15
100
AcDbLine
 10
348.3102677193
 20
221.577712204
 30
0.0
 11
349.8102633086
 21
221.577712204
 31
0.0
  0
LINE
  5
13C
330
1F
100
AcDbEntity
  8
0
  6
Continuous
 62
     7
370
    15
100
AcDbLine
 10
349.8102633086
 20
222.377712242
 30
0.0
 11
348.3102677193
 21
222.377712242
 31
0.0
  0
LINE
  5
13D
330
1F
100
AcDbEntity
  8
0
  6
Continuous
 62
     7
370
    15
100
AcDbLine
 10
347.5102690783
 20
223.8777120222
 30
0.0
 11
347.5102690783
 21
222.377712242
 31
0.0
  0
LINE
  5
13E
330
1F
100
AcDbEntity
  8
0
  6
Continuous
 62
     7
370
    15
100
AcDbLine
 10
346.0102585879
 20
222.377712242
 30
0.0
 11
346.0102585879
 21
221.577712204
 31
0.0
  0
CIRCLE
  5
13F
330
1F
100
AcDbEntity
  8
0
  6
Continuous
 62
     7
370
    15
100
AcDbCircle
 10
347.9102618542
 20
221.9777121019
 30
0.0
 40
3.0
  0
LINE
  5
140
330
1F
100
AcDbEntity
  8
0
  6
Continuous
 62
     7
370
    15
100
AcDbLine
 10
348.3102677193
 20
223.8777120222
 30
0.0
 11
347.5102690783
 21
223.8777120222
 31
0.0
  0
LINE
  5
141
330
1F
100
AcDbEntity
  8
0
  6
Continuous
 62
     7
370
    15
100
AcDbLine
 10
348.3102677193
 20
222.377712242
 30
0.0
 11
348.3102677193
 21
223.8777120222
 31
0.0
  0
LINE
  5
142
330
1F
100
AcDbEntity
  8
0
  6
Continuous
 62
     7
370
    15
100
AcDbLine
 10
341.91026369
 20
223.477712236
 30
0.0
 11
346.8924967375
 21
228.0795978006
 31
0.0
  0
ARC
  5
143
330
1F
100
AcDbEntity
  8
0
  6
Continuous
 62
     7
370
    15
100
AcDbCircle
 10
347.9102618542
 20
226.9777121019
 30
0.0
 40
1.500000000000008
100
AcDbArc
 50
43.6028189726
 51
132.7273953127
  0
ARC
  5
144
330
1F
100
AcDbEntity
  8
0
  6
Continuous
 62
     7
370
    15
100
AcDbCircle
 10
337.4102618542
 20
216.9777121019
 30
0.0
 40
16.00000000000003
100
AcDbArc
 50
316.3971810272
 51
43.6028189726
  0
ARC
  5
145
330
1F
100
AcDbEntity
  8
0
  6
Continuous
 62
     7
370
    15
100
AcDbCircle
 10
347.9102618542
 20
206.9777121019
 30
0.0
 40
1.500000000000011
100
AcDbArc
 50
227.2726046868
 51
316.3971810272
  0
LINE
  5
146
330
1F
100
AcDbEntity
  8
0
  6
Continuous
 62
     7
370
    15
100
AcDbLine
 10
346.8924967375
 20
205.8758264032
 30
0.0
 11
341.91026369
 21
210.4777119678
 31
0.0
  0
LINE
  5
147
330
1F
100
AcDbEntity
  8
0
  6
Continuous
 62
     7
370
    15
100
AcDbLine
 10
341.7092470255
 20
223.477712236
 30
0.0
 11
341.91026369
 21
223.477712236
 31
0.0
  0
LINE
  5
148
330
1F
100
AcDbEntity
  8
0
  6
Continuous
 62
     7
370
    15
100
AcDbLine
 10
341.91026369
 20
210.4777119678
 30
0.0
 11
341.7092470255
 21
210.4777119678
 31
0.0
  0
LINE
  5
149
330
1F
100
AcDbEntity
  8
0
  6
Continuous
 62
     7
370
    15
100
AcDbLine
 10
344.9102548685
 20
16.9777091217
 30
0.0
 11
349.9102650013
 21
16.9777091217
 31
0.0
  0
LINE
  5
14A
330
1F
100
AcDbEntity
  8
0
  6
Continuous
 62
     7
370
    15
100
AcDbLine
 10
344.9102548685
 20
31.9777097177
 30
0.0
 11
344.9102548685
 21
16.9777091217
 31
0.0
  0
LINE
  5
14B
330
1F
100
AcDbEntity
  8
0
  6
Continuous
 62
     7
370
    15
100
AcDbLine
 10
344.9102548685
 20
31.9777097177
 30
0.0
 11
349.9102650013
 21
31.9777097177
 31
0.0
  0
LINE
  5
14C
330
1F
100
AcDbEntity
  8
0
  6
Continuous
 62
     7
370
    15
100
AcDbLine
 10
349.9102650013
 20
31.9777097177
 30
0.0
 11
349.9102650013
 21
16.9777091217
 31
0.0
  0
LINE
  5
14D
330
1F
100
AcDbEntity
  8
0
  6
Continuous
 62
     7
370
    15
100
AcDbLine
 10
349.9102650013
 20
31.9777097177
 30
0.0
 11
364.9102655974
 21
31.9777097177
 31
0.0
  0
ARC
  5
14E
330
1F
100
AcDbEntity
  8
0
  6
Continuous
 62
     7
370
    15
100
AcDbCircle
 10
349.9102618542
 20
31.9777121019
 30
0.0
 40
15.00000000000001
100
AcDbArc
 50
270.0
 51
0.0
  0
LINE
  5
14F
330
1F
100
AcDbEntity
  8
0
  6
Continuous
 62
     7
370
    15
100
AcDbLine
 10
349.9102650013
 20
206.9902199876
 30
0.0
 11
349.9102650013
 21
31.9777097177
 31
0.0
  0
LINE
  5
150
330
1F
100
AcDbEntity
  8
0
  6
Continuous
 62
     7
370
    15
100
AcDbLine
 10
349.9102650013
 20
226.9652042162
 30
0.0
 11
349.9102650013
 21
401.9777144861
 31
0.0
  0
LINE
  5
151
330
1F
100
AcDbEntity
  8
0
  6
Continuous
 62
     7
370
    15
100
AcDbLine
 10
349.9102650013
 20
401.9777144861
 30
0.0
 11
364.9102655974
 21
401.9777144861
 31
0.0
  0
LINE
  5
152
330
1F
100
AcDbEntity
  8
0
  6
Continuous
 62
     7
370
    15
100
AcDbLine
 10
364.9102655974
 20
401.9777144861
 30
0.0
 11
364.9102655974
 21
31.9777097177
 31
0.0
  0
LINE
  5
153
330
1F
100
AcDbEntity
  8
0
  6
Continuous
 62
     7
370
    15
100
AcDbLine
 10
344.9102548685
 20
207.706734873
 30
0.0
 11
344.9102548685
 21
31.9777097177
 31
0.0
  0
LINE
  5
154
330
1F
100
AcDbEntity
  8
0
  6
Continuous
 62
     7
370
    15
100
AcDbLine
 10
344.9102548685
 20
401.9777144861
 30
0.0
 11
349.9102650013
 21
401.9777144861
 31
0.0
  0
LINE
  5
155
330
1F
100
AcDbEntity
  8
0
  6
Continuous
 62
     7
370
    15
100
AcDbLine
 10
344.9102548685
 20
226.2486893308
 30
0.0
 11
344.9102548685
 21
401.9777144861
 31
0.0
  0
LINE
  5
156
330
1F
100
AcDbEntity
  8
0
  6
Continuous
 62
     7
370
    15
100
AcDbLine
 10
344.9102548685
 20
416.9777150821
 30
0.0
 11
349.9102650013
 21
416.9777150821
 31
0.0
  0
LINE
  5
157
330
1F
100
AcDbEntity
  8
0
  6
Continuous
 62
     7
370
    15
100
AcDbLine
 10
349.9102650013
 20
401.9777144861
 30
0.0
 11
349.9102650013
 21
416.9777150821
 31
0.0
  0
LINE
  5
158
330
1F
100
AcDbEntity
  8
0
  6
Continuous
 62
     7
370
    15
100
AcDbLine
 10
344.9102548685
 20
401.9777144861
 30
0.0
 11
344.9102548685
 21
416.9777150821
 31
0.0
  0
ARC
  5
159
330
1F
100
AcDbEntity
  8
0
  6
Continuous
 62
     7
370
    15
100
AcDbCircle
 10
349.9102618542
 20
401.9777121019
 30
0.0
 40
15.0
100
AcDbArc
 50
0.0
 51
90.0
  0
LINE
  5
15A
330
1F
100
AcDbEntity
  8
0
  6
Continuous
 62
     7
370
    15
100
AcDbLine
 10
317.221274766
 20
224.9811825898
 30
0.0
 11
320.2212659445
 21
224.9811825898
 31
0.0
  0
SPLINE
  5
15B
330
1F
100
AcDbEntity
  8
0
  6
Continuous
 62
     7
370
    15
100
AcDbSpline
210
0.0
220
0.0
230
1.0
 70
     8
 71
     3
 72
    16
 73
    12
 74
     0
 42
0.00000001
 43
0.00000001
 40
0.0
 40
0.0
 40
0.0
 40
0.0
 40
0.1207044849159297
 40
0.2414116372010242
 40
0.3621186906289194
 40
0.4828241255674181
 40
0.6035308657043765
 40
0.7242365969903478
 40
0.8449447174357051
 40
0.965651488016742
 40
1.0
 40
1.0
 40
1.0
 40
1.0
 10
323.0625597563179
 20
204.0253406014781
 30
0.0
 10
323.081960699708
 20
204.0280133336636
 30
0.0
 10
323.1207630152167
 20
204.0333588570975
 30
0.0
 10
323.1256854081503
 20
204.3243045030583
 30
0.0
 10
323.0884713548988
 20
204.7776402954251
 30
0.0
 10
323.0115712507383
 20
205.3451758330313
 30
0.0
 10
322.9077383943067
 20
205.9334905179455
 30
0.0
 10
322.791647570883
 20
206.4602020360657
 30
0.0
 10
322.6846368712089
 20
206.8234754664702
 30
0.0
 10
322.6120649121962
 20
206.9939480756613
 30
0.0
 10
322.5925126015267
 20
206.9607962405466
 30
0.0
 10
322.5881812897118
 20
206.9534523036818
 30
0.0
  0
SPLINE
  5
15C
330
1F
100
AcDbEntity
  8
0
  6
Continuous
 62
     7
370
    15
100
AcDbSpline
210
0.0
220
0.0
230
1.0
 70
     8
 71
     3
 72
    16
 73
    12
 74
     0
 42
0.00000001
 43
0.00000001
 40
0.0
 40
0.0
 40
0.0
 40
0.0
 40
0.1205800987274228
 40
0.241162773276693
 40
0.3617455838599315
 40
0.4823270239011256
 40
0.6029088437348556
 40
0.7234901875479333
 40
0.8440739180583641
 40
0.964653338814784
 40
0.9999999999999999
 40
0.9999999999999999
 40
0.9999999999999999
 40
0.9999999999999999
 10
323.2331482496651
 20
229.9013644081097
 30
0.0
 10
323.2525493432551
 20
229.8986915503563
 30
0.0
 10
323.2913519448796
 20
229.8933457777522
 30
0.0
 10
323.2962721051485
 20
229.6024020735395
 30
0.0
 10
323.2590664973868
 20
229.1490624808548
 30
0.0
 10
323.1821348445164
 20
228.581535265662
 30
0.0
 10
323.0783318407574
 20
227.9932014512036
 30
0.0
 10
322.9622402849555
 20
227.4665448121028
 30
0.0
 10
322.8552042335722
 20
227.1030774276846
 30
0.0
 10
322.7824415484926
 20
226.9325265006733
 30
0.0
 10
322.7628041291385
 20
226.9661107822295
 30
0.0
 10
322.7583525505455
 20
226.9737239551287
 30
0.0
  0
SPLINE
  5
15D
330
1F
100
AcDbEntity
  8
0
  6
Continuous
 62
     7
370
    15
100
AcDbSpline
210
0.0
220
0.0
230
1.0
 70
     8
 71
     3
 72
    16
 73
    12
 74
     0
 42
0.00000001
 43
0.00000001
 40
0.0
 40
0.0
 40
0.0
 40
0.0
 40
0.1205148256783134
 40
0.2410323145346365
 40
0.3615497046890916
 40
0.4820658709550892
 40
0.6025824168080316
 40
0.7230984868980037
 40
0.8436169423933493
 40
0.9641311181417973
 40
1.0
 40
1.0
 40
1.0
 40
1.0
 10
338.6035321083458
 20
206.6417591270547
 30
0.0
 10
338.6229331978759
 20
206.6444319069934
 30
0.0
 10
338.6617358056677
 20
206.6497775259348
 30
0.0
 10
338.666656006441
 20
206.9407224555773
 30
0.0
 10
338.6294502430478
 20
207.3940614615427
 30
0.0
 10
338.5525189755903
 20
207.9615867943812
 30
0.0
 10
338.4487146918348
 20
208.549927806267
 30
0.0
 10
338.3326279016705
 20
209.0765573088781
 30
0.0
 10
338.2255740594293
 20
209.4401260702778
 30
0.0
 10
338.1527196612574
 20
209.610721396772
 30
0.0
 10
338.1330292038724
 20
209.576907573503
 30
0.0
 10
338.1285128918083
 20
209.5691518482308
 30
0.0
  0
SPLINE
  5
15E
330
1F
100
AcDbEntity
  8
0
  6
Continuous
 62
     7
370
    15
100
AcDbSpline
210
0.0
220
0.0
230
1.0
 70
     8
 71
     3
 72
    16
 73
    12
 74
     0
 42
0.00000001
 43
0.00000001
 40
0.0
 40
0.0
 40
0.0
 40
0.0
 40
0.1205176017485963
 40
0.2410320143759879
 40
0.3615491368408356
 40
0.4820661583118812
 40
0.6025826776003147
 40
0.7230990700206849
 40
0.8436143763844773
 40
0.9641311887740465
 40
1.0
 40
1.0
 40
1.0
 40
1.0
 10
338.774120601693
 20
227.2849458825331
 30
0.0
 10
338.7935217145672
 20
227.2822745772637
 30
0.0
 10
338.8323234269259
 20
227.2769320374128
 30
0.0
 10
338.837244450175
 20
226.985979016281
 30
0.0
 10
338.8000387339739
 20
226.5326417987502
 30
0.0
 10
338.7231061861501
 20
225.9651211035761
 30
0.0
 10
338.6193095223767
 20
225.3767749352676
 30
0.0
 10
338.5031929542365
 20
224.8501566100884
 30
0.0
 10
338.3961662455072
 20
224.4865691592785
 30
0.0
 10
338.3233083553151
 20
224.3159833450476
 30
0.0
 10
338.3036176671529
 20
224.3497978808486
 30
0.0
 10
338.2991013851555
 20
224.3575536270182
 30
0.0
  0
SPLINE
  5
15F
330
1F
100
AcDbEntity
  8
0
  6
Continuous
 62
     7
370
    15
100
AcDbSpline
210
0.0
220
0.0
230
1.0
 70
    24
 71
     3
 72
    16
 73
    12
 74
     0
 42
0.00000001
 43
0.00000001
 40
0.0
 40
0.0
 40
0.0
 40
0.0
 40
0.0611070751413885
 40
0.1864721046263345
 40
0.3118318938474008
 40
0.4371941077081365
 40
0.5625585703108704
 40
0.6879206450485429
 40
0.8132849480526685
 40
0.9386471619134042
 40
1.0
 40
1.0
 40
1.0
 40
1.0
 10
341.680443080941
 20
210.1114763502519
 30
0.0
 10
341.6862161066818
 20
210.1114763502519
 30
0.0
 10
341.7038328598555
 20
210.1114763502519
 30
0.0
 10
341.4854080133116
 20
210.1114763502519
 30
0.0
 10
341.0726565224859
 20
210.1114763502519
 30
0.0
 10
340.5161965635557
 20
210.1114763502519
 30
0.0
 10
339.9170888673191
 20
210.1114763502519
 30
0.0
 10
339.3583849654173
 20
210.1114763502519
 30
0.0
 10
338.9414377380278
 20
210.1114763502519
 30
0.0
 10
338.7184357897641
 20
210.1114763502519
 30
0.0
 10
338.7332511921395
 20
210.1114763502519
 30
0.0
 10
338.7381193962486
 20
210.1114763502519
 30
0.0
  0
SPLINE
  5
160
330
1F
100
AcDbEntity
  8
0
  6
Continuous
 62
     7
370
    15
100
AcDbSpline
210
0.0
220
0.0
230
1.0
 70
    24
 71
     3
 72
    16
 73
    12
 74
     0
 42
0.00000001
 43
0.00000001
 40
0.0
 40
0.0
 40
0.0
 40
0.0
 40
0.0610095156596923
 40
0.1861743956976048
 40
0.3113340438378937
 40
0.4364961127468339
 40
0.5616604268075805
 40
0.6868223568155721
 40
0.8119865115325152
 40
0.9371485804414553
 40
1.0
 40
1.0
 40
1.0
 40
1.0
 10
341.680443080941
 20
223.6701071817915
 30
0.0
 10
341.686216100469
 20
223.6701071817915
 30
0.0
 10
341.7038328346844
 20
223.6701071817915
 30
0.0
 10
341.4854082466737
 20
223.6701071817915
 30
0.0
 10
341.0726556675142
 20
223.6701071817915
 30
0.0
 10
340.516199750186
 20
223.6701071817915
 30
0.0
 10
339.9170769756602
 20
223.6701071817915
 30
0.0
 10
339.3584293447507
 20
223.6701071817915
 30
0.0
 10
338.9412721099746
 20
223.6701071817915
 30
0.0
 10
338.71778119453
 20
223.6701071817915
 30
0.0
 10
338.7330015497632
 20
223.6701071817915
 30
0.0
 10
338.7380895939262
 20
223.6701071817915
 30
0.0
  0
SPLINE
  5
161
330
1F
100
AcDbEntity
  8
0
  6
Continuous
 62
     7
370
    15
100
AcDbSpline
210
0.0
220
0.0
230
1.0
 70
     8
 71
     3
 72
    19
 73
    15
 74
     0
 42
0.00000001
 43
0.00000001
 40
0.0
 40
0.0
 40
0.0
 40
0.0
 40
0.0039536371294199
 40
0.1157660733621986
 40
0.2280429514710396
 40
0.3355179230836768
 40
0.4377072183217052
 40
0.534881874567698
 40
0.6283030704625676
 40
0.7302897607901112
 40
0.8413273511714253
 40
0.9641212253234116
 40
0.9937688635236266
 40
1.0
 40
1.0
 40
1.0
 40
1.0
 10
328.0085382786186
 20
222.577711902235
 30
0.0
 10
328.008930538196
 20
222.5777062875603
 30
0.0
 10
328.0204162536346
 20
222.5775418848043
 30
0.0
 10
328.0437390243082
 20
222.562410848551
 30
0.0
 10
328.0872052212244
 20
222.4955163739003
 30
0.0
 10
328.1251871677154
 20
222.3908170012454
 30
0.0
 10
328.148687576672
 20
222.2657427273265
 30
0.0
 10
328.160030884919
 20
222.1373060444859
 30
0.0
 10
328.1606080134114
 20
222.0161364314891
 30
0.0
 10
328.144844407597
 20
221.906901736873
 30
0.0
 10
328.1044495408229
 20
221.8174865621851
 30
0.0
 10
328.0526221344107
 20
221.7824346669138
 30
0.0
 10
328.0178767783963
 20
221.7778253332609
 30
0.0
 10
328.0099201259084
 20
221.7777290513626
 30
0.0
 10
328.0085382786186
 20
221.7777123298983
 30
0.0
  0
SPLINE
  5
162
330
1F
100
AcDbEntity
  8
0
  6
Continuous
 62
     7
370
    15
100
AcDbSpline
210
0.0
220
0.0
230
1.0
 70
     8
 71
     3
 72
    30
 73
    26
 74
     0
 42
0.00000001
 43
0.00000001
 40
0.0
 40
0.0
 40
0.0
 40
0.0
 40
0.1247096542799018
 40
0.2494209444261823
 40
0.3741288568193122
 40
0.4367808660270198
 40
0.4681517307093441
 40
0.4838385139271461
 40
0.4916909851424209
 40
0.4956095212508052
 40
0.4975684998967156
 40
0.4985480434862288
 40
0.4990378660105316
 40
0.4992826904987356
 40
0.4994167504137869
 40
0.49947793497606
 40
0.4995027736102096
 40
0.499515247145191
 40
0.4995393475386848
 40
0.5609142914316205
 40
0.6646219552356922
 40
0.7325813793402538
 40
0.8111444612433221
 40
0.9002986821381965
 40
0.9999999999999999
 40
0.9999999999999999
 40
0.9999999999999999
 40
0.9999999999999999
 10
328.0802426662834
 20
222.6376038600247
 30
0.0
 10
328.0860075742552
 20
222.6358110836334
 30
0.0
 10
328.0975374658194
 20
222.6322255073342
 30
0.0
 10
328.1873748358125
 20
222.6103846663816
 30
0.0
 10
328.2948571561781
 20
222.5847072646235
 30
0.0
 10
328.3804064229843
 20
222.5642909455855
 30
0.0
 10
328.424502315117
 20
222.553761202556
 30
0.0
 10
328.4467319367799
 20
222.5484365062201
 30
0.0
 10
328.4578665564917
 20
222.5457774182533
 30
0.0
 10
328.4634355686984
 20
222.5444403426425
 30
0.0
 10
328.4662176578788
 20
222.5437737164862
 30
0.0
 10
328.4676081929228
 20
222.5434394171727
 30
0.0
 10
328.4683038464096
 20
222.5432736712821
 30
0.0
 10
328.4686557007562
 20
222.5431864669384
 30
0.0
 10
328.4688352599444
 20
222.5431483605358
 30
0.0
 10
328.4689249525072
 20
222.5431284036667
 30
0.0
 10
328.4689643947009
 20
222.5431169166233
 30
0.0
 10
328.4689886605498
 20
222.5431084793196
 30
0.0
 10
328.4945975101887
 20
222.5404156112646
 30
0.0
 10
328.5607439774582
 20
222.5197409539746
 30
0.0
 10
328.6523189310199
 20
222.5035620922018
 30
0.0
 10
328.7357041209115
 20
222.4855616016816
 30
0.0
 10
328.7992939627876
 20
222.4729086307941
 30
0.0
 10
328.8497986260068
 20
222.4631880344016
 30
0.0
 10
328.8570250138811
 20
222.4627376289135
 30
0.0
 10
328.8608399954231
 20
222.4624998491745
 30
0.0
  0
ELLIPSE
  5
163
330
1F
100
AcDbEntity
  8
0
  6
Continuous
 62
     7
370
    15
100
AcDbEllipse
 10
328.737370248
 20
223.7596872807
 30
0.0
 11
0.3906095144046163
 21
-0.0861638396116291
 31
0.0
210
0.0
220
0.0
230
1.0
 40
0.0142285888
 41
0.0
 42
6.283185307179586
  0
LINE
  5
164
330
1F
100
AcDbEntity
  8
0
  6
Continuous
 62
     7
370
    15
100
AcDbLine
 10
328.1211910572
 20
212.2777121697
 30
0.0
 11
328.1211910572
 21
220.8777119961
 31
0.0
  0
LINE
  5
165
330
1F
100
AcDbEntity
  8
0
  6
Continuous
 62
     7
370
    15
100
AcDbLine
 10
322.6068971482
 20
212.2777121697
 30
0.0
 11
322.6068971482
 21
220.8777119961
 31
0.0
  0
LINE
  5
166
330
1F
100
AcDbEntity
  8
0
  6
Continuous
 62
     7
370
    15
100
AcDbLine
 10
328.1211910572
 20
220.8777119961
 30
0.0
 11
322.6068971482
 21
220.8777119961
 31
0.0
  0
LINE
  5
167
330
1F
100
AcDbEntity
  8
0
  6
Continuous
 62
     7
370
    15
100
AcDbLine
 10
328.1211910572
 20
212.2777121697
 30
0.0
 11
322.6068971482
 21
212.2777121697
 31
0.0
  0
LINE
  5
168
330
1F
100
AcDbEntity
  8
0
  6
Continuous
 62
     7
370
    15
100
AcDbLine
 10
321.4926330176
 20
224.1777119782
 30
0.0
 11
296.6805306998
 21
224.1777119782
 31
0.0
  0
LINE
  5
169
330
1F
100
AcDbEntity
  8
0
  6
Continuous
 62
     7
370
    15
100
AcDbLine
 10
321.4926330176
 20
220.8777119961
 30
0.0
 11
321.4926330176
 21
224.1777119782
 31
0.0
  0
LINE
  5
16A
330
1F
100
AcDbEntity
  8
0
  6
Continuous
 62
     7
370
    15
100
AcDbLine
 10
321.4926330176
 20
209.7777122256
 30
0.0
 11
321.4926330176
 21
212.2777121697
 31
0.0
  0
LINE
  5
16B
330
1F
100
AcDbEntity
  8
0
  6
Continuous
 62
     7
370
    15
100
AcDbLine
 10
296.6805306998
 20
209.7777122256
 30
0.0
 11
321.4926330176
 21
209.7777122256
 31
0.0
  0
LINE
  5
16C
330
1F
100
AcDbEntity
  8
0
  6
Continuous
 62
     7
370
    15
100
AcDbLine
 10
296.6805306998
 20
209.7777122256
 30
0.0
 11
296.6805306998
 21
224.1777119782
 31
0.0
  0
LINE
  5
16D
330
1F
100
AcDbEntity
  8
0
  6
Continuous
 62
     7
370
    15
100
AcDbLine
 10
321.4926330176
 20
220.8777119961
 30
0.0
 11
322.6068971482
 21
220.8777119961
 31
0.0
  0
LINE
  5
16E
330
1F
100
AcDbEntity
  8
0
  6
Continuous
 62
     7
370
    15
100
AcDbLine
 10
321.4926330176
 20
212.2777121697
 30
0.0
 11
322.6068971482
 21
212.2777121697
 31
0.0
  0
LINE
  5
16F
330
1F
100
AcDbEntity
  8
0
  6
Continuous
 62
     7
370
    15
100
AcDbLine
 10
323.5125003186
 20
224.9750628692
 30
0.0
 11
321.6202614632
 21
224.9750628692
 31
0.0
  0
ARC
  5
170
330
1F
100
AcDbEntity
  8
0
  6
Continuous
 62
     7
370
    15
100
AcDbCircle
 10
322.966938214
 20
224.3506163453
 30
0.0
 40
1.484409556813595
100
AcDbArc
 50
155.1231072727
 51
186.6890098317
  0
ARC
  5
171
330
1F
100
AcDbEntity
  8
0
  6
Continuous
 62
     7
370
    15
100
AcDbCircle
 10
297.9364263806
 20
224.371682881
 30
0.0
 40
1.27078663520018
100
AcDbArc
 50
151.5173072536
 51
188.7798597116
  0
LINE
  5
172
330
1F
100
AcDbEntity
  8
0
  6
Continuous
 62
     7
370
    15
100
AcDbLine
 10
296.8194542256
 20
224.9777124819
 30
0.0
 11
324.1852579441
 21
224.9777124819
 31
0.0
  0
LINE
  5
173
330
1F
100
AcDbEntity
  8
0
  6
Continuous
 62
     7
370
    15
100
AcDbLine
 10
324.1852579441
 20
224.9777124819
 30
0.0
 11
323.5125003186
 21
224.9750628692
 31
0.0
  0
LINE
  5
174
330
1F
100
AcDbEntity
  8
0
  6
Continuous
 62
     7
370
    15
100
AcDbLine
 10
321.6202614632
 20
208.9803613347
 30
0.0
 11
323.5125003186
 21
208.9803613347
 31
0.0
  0
LINE
  5
175
330
1F
100
AcDbEntity
  8
0
  6
Continuous
 62
     7
370
    15
100
AcDbLine
 10
323.5125003186
 20
208.9803613347
 30
0.0
 11
324.1852579441
 21
208.9777117219
 31
0.0
  0
LINE
  5
176
330
1F
100
AcDbEntity
  8
0
  6
Continuous
 62
     7
370
    15
100
AcDbLine
 10
324.1852579441
 20
208.9777117219
 30
0.0
 11
296.8194542256
 21
208.9777117219
 31
0.0
  0
ARC
  5
177
330
1F
100
AcDbEntity
  8
0
  6
Continuous
 62
     7
370
    15
100
AcDbCircle
 10
297.9364263806
 20
209.5837413228
 30
0.0
 40
1.27078663520018
100
AcDbArc
 50
171.2201402884
 51
208.4826927464
  0
ARC
  5
178
330
1F
100
AcDbEntity
  8
0
  6
Continuous
 62
     7
370
    15
100
AcDbCircle
 10
322.966938214
 20
209.6048078586
 30
0.0
 40
1.484409556813588
100
AcDbArc
 50
173.3109901683
 51
204.8768927273
  0
LINE
  5
179
330
1F
100
AcDbEntity
  8
0
  6
Continuous
 62
     7
370
    15
100
AcDbLine
 10
321.6202614632
 20
208.9803613347
 30
0.0
 11
321.6202614632
 21
209.7777122256
 31
0.0
  0
LINE
  5
17A
330
1F
100
AcDbEntity
  8
0
  6
Continuous
 62
     7
370
    15
100
AcDbLine
 10
321.6315565434
 20
212.2777121697
 30
0.0
 11
321.6315565434
 21
209.7777122256
 31
0.0
  0
LINE
  5
17B
330
1F
100
AcDbEntity
  8
0
  6
Continuous
 62
     7
370
    15
100
AcDbLine
 10
321.6202614632
 20
224.1777119782
 30
0.0
 11
321.6202614632
 21
224.9750628692
 31
0.0
  0
LINE
  5
17C
330
1F
100
AcDbEntity
  8
0
  6
Continuous
 62
     7
370
    15
100
AcDbLine
 10
321.6315565434
 20
224.1777119782
 30
0.0
 11
321.6315565434
 21
220.8777119961
 31
0.0
  0
LINE
  5
17D
330
1F
100
AcDbEntity
  8
0
  6
Continuous
 62
     7
370
    15
100
AcDbLine
 10
327.6202587214
 20
208.9777117219
 30
0.0
 11
324.1852579441
 21
208.9777117219
 31
0.0
  0
LINE
  5
17E
330
1F
100
AcDbEntity
  8
0
  6
Continuous
 62
     7
370
    15
100
AcDbLine
 10
323.5125003186
 20
208.9803613347
 30
0.0
 11
323.5125003186
 21
209.7777122256
 31
0.0
  0
LINE
  5
17F
330
1F
100
AcDbEntity
  8
0
  6
Continuous
 62
     7
370
    15
100
AcDbLine
 10
327.6202587214
 20
209.7777122256
 30
0.0
 11
323.5125003186
 21
209.7777122256
 31
0.0
  0
LINE
  5
180
330
1F
100
AcDbEntity
  8
0
  6
Continuous
 62
     7
370
    15
100
AcDbLine
 10
323.5125003186
 20
224.1777119782
 30
0.0
 11
323.5125003186
 21
224.9750628692
 31
0.0
  0
LINE
  5
181
330
1F
100
AcDbEntity
  8
0
  6
Continuous
 62
     7
370
    15
100
AcDbLine
 10
327.6202587214
 20
224.9777124819
 30
0.0
 11
324.1852579441
 21
224.9777124819
 31
0.0
  0
LINE
  5
182
330
1F
100
AcDbEntity
  8
0
  6
Continuous
 62
     7
370
    15
100
AcDbLine
 10
327.6202587214
 20
224.1777119782
 30
0.0
 11
323.5125003186
 21
224.1777119782
 31
0.0
  0
LINE
  5
183
330
1F
100
AcDbEntity
  8
0
  6
Continuous
 62
     7
370
    15
100
AcDbLine
 10
321.6202614632
 20
224.1777119782
 30
0.0
 11
323.5125003186
 21
224.1777119782
 31
0.0
  0
LINE
  5
184
330
1F
100
AcDbEntity
  8
0
  6
Continuous
 62
     7
370
    15
100
AcDbLine
 10
321.6202614632
 20
209.7777122256
 30
0.0
 11
323.5125003186
 21
209.7777122256
 31
0.0
  0
LINE
  5
185
330
1F
100
AcDbEntity
  8
0
  6
Continuous
 62
     7
370
    15
100
AcDbLine
 10
322.6902691451
 20
225.2777119723
 30
0.0
 11
327.0902691212
 21
225.2777119723
 31
0.0
  0
LINE
  5
186
330
1F
100
AcDbEntity
  8
0
  6
Continuous
 62
     7
370
    15
100
AcDbLine
 10
322.7902559367
 20
208.5777124014
 30
0.0
 11
326.9902674284
 21
208.5777124014
 31
0.0
  0
LINE
  5
187
330
1F
100
AcDbEntity
  8
0
  6
Continuous
 62
     7
370
    15
100
AcDbLine
 10
322.7902559367
 20
208.1777121496
 30
0.0
 11
326.9902674284
 21
208.1777121496
 31
0.0
  0
ARC
  5
188
330
1F
100
AcDbEntity
  8
0
  6
Continuous
 62
     7
370
    15
100
AcDbCircle
 10
305.0861578879
 20
216.9777121019
 30
0.0
 40
16.90399728363029
100
AcDbArc
 50
154.7901555355
 51
205.2098444645
  0
SPLINE
  5
189
330
1F
100
AcDbEntity
  8
0
  6
Continuous
 62
     7
370
    15
100
AcDbSpline
210
0.0
220
0.0
230
1.0
 70
     8
 71
     3
 72
    12
 73
     8
 74
     0
 42
0.00000001
 43
0.00000001
 40
0.0
 40
0.0
 40
0.0
 40
0.0
 40
0.1818707506940759
 40
0.3633425910983756
 40
0.5550788839657406
 40
0.7712659464300451
 40
1.0
 40
1.0
 40
1.0
 40
1.0
 10
289.9245826330574
 20
208.977711721931
 30
0.0
 10
289.948439785465
 20
208.9850335104636
 30
0.0
 10
289.9961017626601
 20
208.9996610281196
 30
0.0
 10
290.0108492626911
 20
209.1116499911481
 30
0.0
 10
289.98361508009
 20
209.281046331647
 30
0.0
 10
289.9119404426675
 20
209.5094589513186
 30
0.0
 10
289.8328573527182
 20
209.6866290400435
 30
0.0
 10
289.7922007170113
 20
209.7777122255902
 30
0.0
  0
LINE
  5
18A
330
1F
100
AcDbEntity
  8
0
  6
Continuous
 62
     7
370
    15
100
AcDbLine
 10
289.5402220812
 20
209.7322110642
 30
0.0
 11
289.8946611014
 21
208.9777117219
 31
0.0
  0
ARC
  5
18B
330
1F
100
AcDbEntity
  8
0
  6
Continuous
 62
     7
370
    15
100
AcDbCircle
 10
304.8107894554
 20
216.9777121019
 30
0.0
 40
16.90229313480637
100
AcDbArc
 50
154.6168340366
 51
205.3831659634
  0
LINE
  5
18C
330
1F
100
AcDbEntity
  8
0
  6
Continuous
 62
     7
370
    15
100
AcDbLine
 10
289.8946611014
 20
224.9777124819
 30
0.0
 11
289.5402220812
 21
224.2232131396
 31
0.0
  0
SPLINE
  5
18D
330
1F
100
AcDbEntity
  8
0
  6
Continuous
 62
     7
370
    15
100
AcDbSpline
210
0.0
220
0.0
230
1.0
 70
     8
 71
     3
 72
    12
 73
     8
 74
     0
 42
0.00000001
 43
0.00000001
 40
0.0
 40
0.0
 40
0.0
 40
0.0
 40
0.251021954853923
 40
0.5023976742662282
 40
0.7402766408850124
 40
0.947307288298956
 40
1.0
 40
1.0
 40
1.0
 40
1.0
 10
289.7922007170113
 20
224.1777119782309
 30
0.0
 10
289.8365187150271
 20
224.2775940569462
 30
0.0
 10
289.9252171682931
 20
224.4774989779188
 30
0.0
 10
290.000206115135
 20
224.736234687363
 30
0.0
 10
290.0117133145604
 20
224.9134638447469
 30
0.0
 10
289.9700647120377
 20
224.9739131794181
 30
0.0
 10
289.9322537303509
 20
224.9770716840295
 30
0.0
 10
289.9245826330574
 20
224.9777124818902
 30
0.0
  0
LINE
  5
18E
330
1F
100
AcDbEntity
  8
0
  6
Continuous
 62
     7
370
    15
100
AcDbLine
 10
289.9245826331
 20
208.9777117219
 30
0.0
 11
289.8946611014
 21
208.9777117219
 31
0.0
  0
LINE
  5
18F
330
1F
100
AcDbEntity
  8
0
  6
Continuous
 62
     7
370
    15
100
AcDbLine
 10
289.9245826331
 20
224.9777124819
 30
0.0
 11
289.8946611014
 21
224.9777124819
 31
0.0
  0
LINE
  5
190
330
1F
100
AcDbEntity
  8
0
  6
Continuous
 62
     7
370
    15
100
AcDbLine
 10
291.7816845503
 20
224.1777119782
 30
0.0
 11
289.792200717
 21
224.1777119782
 31
0.0
  0
LINE
  5
191
330
1F
100
AcDbEntity
  8
0
  6
Continuous
 62
     7
370
    15
100
AcDbLine
 10
291.7816845503
 20
209.7777122256
 30
0.0
 11
291.7816845503
 21
224.1777119782
 31
0.0
  0
LINE
  5
192
330
1F
100
AcDbEntity
  8
0
  6
Continuous
 62
     7
370
    15
100
AcDbLine
 10
289.792200717
 20
209.7777122256
 30
0.0
 11
291.7816845503
 21
209.7777122256
 31
0.0
  0
LWPOLYLINE
  5
193
330
1F
100
AcDbEntity
  8
0
  6
Continuous
 62
     7
370
    15
100
AcDbPolyline
 90
        9
 70
   128
 43
0.0
 10
291.7816845503
 20
224.1777119782
 10
291.7764244404
 20
224.3337844123
 10
291.760852727
 20
224.4838586633
 10
291.7355654564
 20
224.6221684475
 10
291.7015461054
 20
224.7433973101
 10
291.6600761738
 20
224.8428877067
 10
291.612764987
 20
224.9168160927
 10
291.5614453879
 20
224.9623400715
 10
291.5080694285
 20
224.9777124819
  0
LINE
  5
194
330
1F
100
AcDbEntity
  8
0
  6
Continuous
 62
     7
370
    15
100
AcDbLine
 10
289.9245826331
 20
224.9777124819
 30
0.0
 11
291.5080694285
 21
224.9777124819
 31
0.0
  0
LWPOLYLINE
  5
195
330
1F
100
AcDbEntity
  8
0
  6
Continuous
 62
     7
370
    15
100
AcDbPolyline
 90
        9
 70
   128
 43
0.0
 10
291.7816845503
 20
209.7777122256
 10
291.7764244404
 20
209.6216397916
 10
291.760852727
 20
209.4715655406
 10
291.7355654564
 20
209.3332557563
 10
291.7015461054
 20
209.2120268938
 10
291.6600761738
 20
209.1125364971
 10
291.612764987
 20
209.0386081111
 10
291.5614453879
 20
208.9930841323
 10
291.5080694285
 20
208.9777117219
  0
LINE
  5
196
330
1F
100
AcDbEntity
  8
0
  6
Continuous
 62
     7
370
    15
100
AcDbLine
 10
291.5080694285
 20
208.9777117219
 30
0.0
 11
289.9245826331
 21
208.9777117219
 31
0.0
  0
LINE
  5
197
330
1F
100
AcDbEntity
  8
0
  6
Continuous
 62
     7
370
    15
100
AcDbLine
 10
291.7816845503
 20
209.7777122256
 30
0.0
 11
296.6805306998
 21
209.7777122256
 31
0.0
  0
LINE
  5
198
330
1F
100
AcDbEntity
  8
0
  6
Continuous
 62
     7
370
    15
100
AcDbLine
 10
296.8194542256
 20
208.9777117219
 30
0.0
 11
291.5080694285
 21
208.9777117219
 31
0.0
  0
LINE
  5
199
330
1F
100
AcDbEntity
  8
0
  6
Continuous
 62
     7
370
    15
100
AcDbLine
 10
296.6805306998
 20
224.1777119782
 30
0.0
 11
291.7816845503
 21
224.1777119782
 31
0.0
  0
LINE
  5
19A
330
1F
100
AcDbEntity
  8
0
  6
Continuous
 62
     7
370
    15
100
AcDbLine
 10
291.5080694285
 20
224.9777124819
 30
0.0
 11
296.8194542256
 21
224.9777124819
 31
0.0
  0
LINE
  5
19B
330
1F
100
AcDbEntity
  8
0
  6
Continuous
 62
     7
370
    15
100
AcDbLine
 10
327.9102651205
 20
223.727712277
 30
0.0
 11
321.7102644768
 21
223.727712277
 31
0.0
  0
LINE
  5
19C
330
1F
100
AcDbEntity
  8
0
  6
Continuous
 62
     7
370
    15
100
AcDbLine
 10
327.9102651205
 20
223.727712277
 30
0.0
 11
327.9102651205
 21
222.7277121131
 31
0.0
  0
LINE
  5
19D
330
1F
100
AcDbEntity
  8
0
  6
Continuous
 62
     7
370
    15
100
AcDbLine
 10
327.9102651205
 20
222.7277121131
 30
0.0
 11
321.7102644768
 21
222.7277121131
 31
0.0
  0
LINE
  5
19E
330
1F
100
AcDbEntity
  8
0
  6
Continuous
 62
     7
370
    15
100
AcDbLine
 10
321.7102644768
 20
223.727712277
 30
0.0
 11
321.7102644768
 21
222.7277121131
 31
0.0
  0
LINE
  5
19F
330
1F
100
AcDbEntity
  8
0
  6
Continuous
 62
     7
370
    15
100
AcDbLine
 10
327.9102651205
 20
211.2277120907
 30
0.0
 11
327.9102651205
 21
210.2277119268
 31
0.0
  0
LINE
  5
1A0
330
1F
100
AcDbEntity
  8
0
  6
Continuous
 62
     7
370
    15
100
AcDbLine
 10
321.7102644768
 20
211.2277120907
 30
0.0
 11
321.7102644768
 21
210.2277119268
 31
0.0
  0
LINE
  5
1A1
330
1F
100
AcDbEntity
  8
0
  6
Continuous
 62
     7
370
    15
100
AcDbLine
 10
327.9102651205
 20
211.2277120907
 30
0.0
 11
321.7102644768
 21
211.2277120907
 31
0.0
  0
LINE
  5
1A2
330
1F
100
AcDbEntity
  8
0
  6
Continuous
 62
     7
370
    15
100
AcDbLine
 10
327.9102651205
 20
210.2277119268
 30
0.0
 11
321.7102644768
 21
210.2277119268
 31
0.0
  0
LWPOLYLINE
  5
1A3
330
1F
100
AcDbEntity
  8
0
  6
Continuous
 62
     7
370
    15
100
AcDbPolyline
 90
        3
 70
   128
 43
0.0
 10
321.6315565434
 20
210.6165735607
 10
321.6341344443
 20
210.6103956324
 10
321.7102644768
 20
210.2277119268
  0
LWPOLYLINE
  5
1A4
330
1F
100
AcDbEntity
  8
0
  6
Continuous
 62
     7
370
    15
100
AcDbPolyline
 90
        3
 70
   128
 43
0.0
 10
321.7102644768
 20
223.727712277
 10
321.6341344443
 20
223.3450285715
 10
321.6315565434
 20
223.3388506432
  0
LINE
  5
1A5
330
1F
100
AcDbEntity
  8
0
  6
Continuous
 62
     7
370
    15
100
AcDbLine
 10
327.9102651205
 20
222.7277121131
 30
0.0
 11
327.9102651205
 21
222.5777119022
 31
0.0
  0
LINE
  5
1A6
330
1F
100
AcDbEntity
  8
0
  6
Continuous
 62
     7
370
    15
100
AcDbLine
 10
327.9102651205
 20
221.7777123299
 30
0.0
 11
327.9102651205
 21
220.8777119961
 31
0.0
  0
LINE
  5
1A7
330
1F
100
AcDbEntity
  8
0
  6
Continuous
 62
     7
370
    15
100
AcDbLine
 10
327.9102651205
 20
212.2777121697
 30
0.0
 11
327.9102651205
 21
211.2277120907
 31
0.0
  0
LINE
  5
1A8
330
1F
100
AcDbEntity
  8
0
  6
Continuous
 62
     7
370
    15
100
AcDbLine
 10
129.9102615368
 20
31.9777097177
 30
0.0
 11
114.9102618721
 21
31.9777097177
 31
0.0
  0
LINE
  5
1A9
330
1F
100
AcDbEntity
  8
0
  6
Continuous
 62
     7
370
    15
100
AcDbLine
 10
129.9102615368
 20
31.9777097177
 30
0.0
 11
129.9102615368
 21
16.9777091217
 31
0.0
  0
ARC
  5
1AA
330
1F
100
AcDbEntity
  8
0
  6
Continuous
 62
     7
370
    15
100
AcDbCircle
 10
129.9102618542
 20
31.9777121019
 30
0.0
 40
15.00000000000001
100
AcDbArc
 50
180.0
 51
270.0
  0
LINE
  5
1AB
330
1F
100
AcDbEntity
  8
0
  6
Continuous
 62
     7
370
    15
100
AcDbLine
 10
129.9102615368
 20
401.9777144861
 30
0.0
 11
129.9102615368
 21
31.9777097177
 31
0.0
  0
LINE
  5
1AC
330
1F
100
AcDbEntity
  8
0
  6
Continuous
 62
     7
370
    15
100
AcDbLine
 10
114.9102618721
 20
401.9777144861
 30
0.0
 11
114.9102618721
 21
31.9777097177
 31
0.0
  0
LINE
  5
1AD
330
1F
100
AcDbEntity
  8
0
  6
Continuous
 62
     7
370
    15
100
AcDbLine
 10
114.9102618721
 20
401.9777144861
 30
0.0
 11
129.9102615368
 21
401.9777144861
 31
0.0
  0
ARC
  5
1AE
330
1F
100
AcDbEntity
  8
0
  6
Continuous
 62
     7
370
    15
100
AcDbCircle
 10
129.9102618542
 20
401.9777121019
 30
0.0
 40
15.0
100
AcDbArc
 50
90.0
 51
180.0
  0
LINE
  5
1AF
330
1F
100
AcDbEntity
  8
0
  6
Continuous
 62
     7
370
    15
100
AcDbLine
 10
129.9102615368
 20
416.9777150821
 30
0.0
 11
129.9102615368
 21
401.9777144861
 31
0.0
  0
LINE
  5
1B0
330
1F
100
AcDbEntity
  8
0
  6
Continuous
 62
     7
370
    15
100
AcDbLine
 10
340.9102616635
 20
16.9777091217
 30
0.0
 11
129.9102615368
 21
16.9777091217
 31
0.0
  0
LINE
  5
1B1
330
1F
100
AcDbEntity
  8
0
  6
Continuous
 62
     7
370
    15
100
AcDbLine
 10
340.9102616635
 20
31.9777097177
 30
0.0
 11
129.9102615368
 21
31.9777097177
 31
0.0
  0
LINE
  5
1B2
330
1F
100
AcDbEntity
  8
0
  6
Continuous
 62
     7
370
    15
100
AcDbLine
 10
340.9102616635
 20
31.9777097177
 30
0.0
 11
340.9102616635
 21
16.9777091217
 31
0.0
  0
LINE
  5
1B3
330
1F
100
AcDbEntity
  8
0
  6
Continuous
 62
     7
370
    15
100
AcDbLine
 10
340.9102616635
 20
31.9777097177
 30
0.0
 11
340.9102616635
 21
207.9698046294
 31
0.0
  0
LINE
  5
1B4
330
1F
100
AcDbEntity
  8
0
  6
Continuous
 62
     7
370
    15
100
AcDbLine
 10
340.9102616635
 20
225.9536416825
 30
0.0
 11
340.9102616635
 21
401.9777144861
 31
0.0
  0
LINE
  5
1B5
330
1F
100
AcDbEntity
  8
0
  6
Continuous
 62
     7
370
    15
100
AcDbLine
 10
340.9102616635
 20
401.9777144861
 30
0.0
 11
129.9102615368
 21
401.9777144861
 31
0.0
  0
LINE
  5
1B6
330
1F
100
AcDbEntity
  8
0
  6
Continuous
 62
     7
370
    15
100
AcDbLine
 10
320.9102658358
 20
36.9777049494
 30
0.0
 11
134.9102614251
 21
36.9777049494
 31
0.0
  0
LINE
  5
1B7
330
1F
100
AcDbEntity
  8
0
  6
Continuous
 62
     7
370
    15
100
AcDbLine
 10
320.9102658358
 20
36.9777049494
 30
0.0
 11
320.9102658358
 21
204.1651656475
 31
0.0
  0
LINE
  5
1B8
330
1F
100
AcDbEntity
  8
0
  6
Continuous
 62
     7
370
    15
100
AcDbLine
 10
320.9102658358
 20
207.50495173
 30
0.0
 11
320.9102658358
 21
208.9777117219
 31
0.0
  0
LINE
  5
1B9
330
1F
100
AcDbEntity
  8
0
  6
Continuous
 62
     7
370
    15
100
AcDbLine
 10
320.9102658358
 20
224.9777124819
 30
0.0
 11
320.9102658358
 21
226.4371145141
 31
0.0
  0
LINE
  5
1BA
330
1F
100
AcDbEntity
  8
0
  6
Continuous
 62
     7
370
    15
100
AcDbLine
 10
320.9102658358
 20
229.7798305374
 30
0.0
 11
320.9102658358
 21
396.9777192545
 31
0.0
  0
LINE
  5
1BB
330
1F
100
AcDbEntity
  8
0
  6
Continuous
 62
     7
370
    15
100
AcDbLine
 10
320.9102658358
 20
396.9777192545
 30
0.0
 11
134.9102614251
 21
396.9777192545
 31
0.0
  0
LINE
  5
1BC
330
1F
100
AcDbEntity
  8
0
  6
Continuous
 62
     7
370
    15
100
AcDbLine
 10
134.9102614251
 20
396.9777192545
 30
0.0
 11
134.9102614251
 21
36.9777049494
 31
0.0
  0
LINE
  5
1BD
330
1F
100
AcDbEntity
  8
0
  6
Continuous
 62
     7
370
    15
100
AcDbLine
 10
340.9102616635
 20
416.9777150821
 30
0.0
 11
129.9102615368
 21
416.9777150821
 31
0.0
  0
LINE
  5
1BE
330
1F
100
AcDbEntity
  8
0
  6
Continuous
 62
     7
370
    15
100
AcDbLine
 10
340.9102616635
 20
416.9777150821
 30
0.0
 11
340.9102616635
 21
401.9777144861
 31
0.0
  0
LINE
  5
1BF
330
1F
100
AcDbEntity
  8
0
  6
Continuous
 62
     7
370
    15
100
AcDbLine
 10
344.9102548685
 20
411.9777049494
 30
0.0
 11
340.9102616635
 21
411.9777049494
 31
0.0
  0
LINE
  5
1C0
330
1F
100
AcDbEntity
  8
0
  6
Continuous
 62
     7
370
    15
100
AcDbLine
 10
344.9102548685
 20
396.9777192545
 30
0.0
 11
340.9102616635
 21
396.9777192545
 31
0.0
  0
LINE
  5
1C1
330
1F
100
AcDbEntity
  8
0
  6
Continuous
 62
     7
370
    15
100
AcDbLine
 10
344.9102548685
 20
36.9777049494
 30
0.0
 11
340.9102616635
 21
36.9777049494
 31
0.0
  0
LINE
  5
1C2
330
1F
100
AcDbEntity
  8
0
  6
Continuous
 62
     7
370
    15
100
AcDbLine
 10
344.9102548685
 20
21.9777192545
 30
0.0
 11
340.9102616635
 21
21.9777192545
 31
0.0
  0
LINE
  5
1C3
330
1F
100
AcDbEntity
  8
0
  6
Continuous
 62
     7
370
    15
100
AcDbLine
 10
397.8558141697
 20
458.1738938842
 30
0.0
 11
399.0558046807
 21
458.1738938842
 31
0.0
  0
LINE
  5
1C4
330
1F
100
AcDbEntity
  8
0
  6
Continuous
 62
     7
370
    15
100
AcDbLine
 10
397.7558124769
 20
460.6738915001
 30
0.0
 11
397.8558141697
 21
460.6738915001
 31
0.0
  0
LINE
  5
1C5
330
1F
100
AcDbEntity
  8
0
  6
Continuous
 62
     7
370
    15
100
AcDbLine
 10
397.8558141697
 20
466.6739036594
 30
0.0
 11
397.7558124769
 21
466.6739036594
 31
0.0
  0
SPLINE
  5
1C6
330
1F
100
AcDbEntity
  8
0
  6
Continuous
 62
     7
370
    15
100
AcDbSpline
210
0.0
220
0.0
230
1.0
 70
     8
 71
     3
 72
    15
 73
    11
 74
     0
 42
0.00000001
 43
0.00000001
 40
0.0
 40
0.0
 40
0.0
 40
0.0
 40
0.1250765706382156
 40
0.2501511044662415
 40
0.3752919337958478
 40
0.5003048310784048
 40
0.6252879916513685
 40
0.750262471385245
 40
0.8750785007549147
 40
1.0
 40
1.0
 40
1.0
 40
1.0
 10
396.6702479828077
 20
488.7317200456314
 30
0.0
 10
396.6441233232858
 20
488.990486603619
 30
0.0
 10
396.5918744296694
 20
489.5080155057087
 30
0.0
 10
396.513003567853
 20
490.2891305340335
 30
0.0
 10
396.4385782420043
 20
491.0263103652915
 30
0.0
 10
396.3715641675067
 20
491.6898922552452
 30
0.0
 10
396.3154562964846
 20
492.2456461212295
 30
0.0
 10
396.2729389328885
 20
492.6667569450155
 30
0.0
 10
396.244106214392
 20
492.9523480119363
 30
0.0
 10
396.2397645276915
 20
492.9953909286106
 30
0.0
 10
396.2375927675443
 20
493.0169214759521
 30
0.0
  0
SPLINE
  5
1C7
330
1F
100
AcDbEntity
  8
0
  6
Continuous
 62
     7
370
    15
100
AcDbSpline
210
0.0
220
0.0
230
1.0
 70
     8
 71
     3
 72
    15
 73
    11
 74
     0
 42
0.00000001
 43
0.00000001
 40
0.0
 40
0.0
 40
0.0
 40
0.0
 40
0.1249395467624542
 40
0.249768833645451
 40
0.3747511478527171
 40
0.4997385694849465
 40
0.6247480327535238
 40
0.7498804069352834
 40
0.8749434555683344
 40
1.0
 40
1.0
 40
1.0
 40
1.0
 10
393.2533372152524
 20
492.7155305896454
 30
0.0
 10
393.2555196702396
 20
492.6939555578217
 30
0.0
 10
393.2598826541846
 20
492.650824534266
 30
0.0
 10
393.2887321864367
 20
492.3651117503782
 30
0.0
 10
393.3312373561764
 20
491.9439284294132
 30
0.0
 10
393.3873765216663
 20
491.3881460130009
 30
0.0
 10
393.4543617988777
 20
490.7246236989146
 30
0.0
 10
393.5287832603843
 20
489.987575298469
 30
0.0
 10
393.6076105028031
 20
489.2066647619687
 30
0.0
 10
393.659855640038
 20
488.6893118253177
 30
0.0
 10
393.6859775293546
 20
488.4306420837097
 30
0.0
  0
LINE
  5
1C8
330
1F
100
AcDbEntity
  8
0
  6
Continuous
 62
     7
370
    15
100
AcDbLine
 10
393.6856944073
 20
488.4305079733
 30
0.0
 11
395.2547717798
 21
472.8895356212
 31
0.0
  0
LINE
  5
1C9
330
1F
100
AcDbEntity
  8
0
  6
Continuous
 62
     7
370
    15
100
AcDbLine
 10
398.2395935763
 20
473.1908967052
 30
0.0
 11
396.6705162037
 21
488.7318541561
 31
0.0
  0
SPLINE
  5
1CA
330
1F
100
AcDbEntity
  8
0
  6
Continuous
 62
     7
370
    15
100
AcDbSpline
210
0.0
220
0.0
230
1.0
 70
     8
 71
     3
 72
     9
 73
     5
 74
     0
 42
0.00000001
 43
0.00000001
 40
0.0
 40
0.0
 40
0.0
 40
0.0
 40
0.4837377118734527
 40
1.0
 40
1.0
 40
1.0
 40
1.0
 10
395.4248536337095
 20
471.2081630979233
 30
0.0
 10
395.434314222835
 20
471.1439321743592
 30
0.0
 10
395.4538714930111
 20
471.0111516985199
 30
0.0
 10
395.4877141210947
 20
470.9749981746857
 30
0.0
 10
395.5051857937055
 20
470.9563334737472
 30
0.0
  0
SPLINE
  5
1CB
330
1F
100
AcDbEntity
  8
0
  6
Continuous
 62
     7
370
    15
100
AcDbSpline
210
0.0
220
0.0
230
1.0
 70
     8
 71
     3
 72
    11
 73
     7
 74
     0
 42
0.00000001
 43
0.00000001
 40
0.0
 40
0.0
 40
0.0
 40
0.0
 40
0.2484402509621916
 40
0.4978840269033825
 40
0.7483852149975645
 40
1.0
 40
1.0
 40
1.0
 40
1.0
 10
395.2550400007443
 20
472.889684632843
 30
0.0
 10
395.2730525714737
 20
472.7112126775418
 30
0.0
 10
395.3091504711292
 20
472.3535478649741
 30
0.0
 10
395.3561770590019
 20
471.8887184351657
 30
0.0
 10
395.3949686563153
 20
471.5058380644592
 30
0.0
 10
395.4100131399951
 20
471.3585384250259
 30
0.0
 10
395.4175520647245
 20
471.2847252641373
 30
0.0
  0
SPLINE
  5
1CC
330
1F
100
AcDbEntity
  8
0
  6
Continuous
 62
     7
370
    15
100
AcDbSpline
210
0.0
220
0.0
230
1.0
 70
     8
 71
     3
 72
    19
 73
    15
 74
     0
 42
0.00000001
 43
0.00000001
 40
0.0
 40
0.0
 40
0.0
 40
0.0
 40
0.080280535163458
 40
0.1534392901233229
 40
0.2193401739592
 40
0.277945890787749
 40
0.3728435086148116
 40
0.4421528254276603
 40
0.531536850997979
 40
0.65548128488795
 40
0.7303540846048928
 40
0.8130770074610716
 40
0.9031426472576971
 40
0.9999999999999999
 40
0.9999999999999999
 40
0.9999999999999999
 40
0.9999999999999999
 10
395.440499852963
 20
471.125506356781
 30
0.0
 10
395.4758592149761
 20
471.0026317003167
 30
0.0
 10
395.5434411686274
 20
470.7677827419283
 30
0.0
 10
395.7406788518973
 20
470.4733820512119
 30
0.0
 10
395.9655165901597
 20
470.2492507170547
 30
0.0
 10
396.2611825776621
 20
470.0562050669446
 30
0.0
 10
396.6031343121218
 20
469.9383134700637
 30
0.0
 10
397.0128906920787
 20
469.9085067722547
 30
0.0
 10
397.4519742686068
 20
470.010815835429
 30
0.0
 10
397.8385058271141
 20
470.2620474019781
 30
0.0
 10
398.1313396042666
 20
470.6027625465228
 30
0.0
 10
398.3121366462354
 20
470.9582195599406
 30
0.0
 10
398.4180216348622
 20
471.3851695993124
 30
0.0
 10
398.3857677618805
 20
471.6802379669306
 30
0.0
 10
398.3690548647123
 20
471.8331326995544
 30
0.0
  0
SPLINE
  5
1CD
330
1F
100
AcDbEntity
  8
0
  6
Continuous
 62
     7
370
    15
100
AcDbSpline
210
0.0
220
0.0
230
1.0
 70
     8
 71
     3
 72
    11
 73
     7
 74
     0
 42
0.00000001
 43
0.00000001
 40
0.0
 40
0.0
 40
0.0
 40
0.0
 40
0.2477428283008097
 40
0.4969483866774165
 40
0.7476740599281695
 40
1.0
 40
1.0
 40
1.0
 40
1.0
 10
398.3928222168165
 20
471.6654499326401
 30
0.0
 10
398.3863884590575
 20
471.7300755771138
 30
0.0
 10
398.3734829571684
 20
471.8597084305833
 30
0.0
 10
398.3374939437638
 20
472.2175817056525
 30
0.0
 10
398.292541075064
 20
472.6639048746267
 30
0.0
 10
398.2571015077488
 20
473.0147713054808
 30
0.0
 10
398.2393253553586
 20
473.1907625947647
 30
0.0
  0
LINE
  5
1CE
330
1F
100
AcDbEntity
  8
0
  6
Continuous
 62
     7
370
    15
100
AcDbLine
 10
398.5231179703
 20
482.845567659
 30
0.0
 11
398.5231030691
 21
483.1453790222
 31
0.0
  0
LINE
  5
1CF
330
1F
100
AcDbEntity
  8
0
  6
Continuous
 62
     7
370
    15
100
AcDbLine
 10
397.7231044281
 20
483.1453790222
 30
0.0
 11
397.7231044281
 21
482.8480114494
 31
0.0
  0
SPLINE
  5
1D0
330
1F
100
AcDbEntity
  8
0
  6
Continuous
 62
     7
370
    15
100
AcDbSpline
210
0.0
220
0.0
230
1.0
 70
    24
 71
     3
 72
    11
 73
     7
 74
     0
 42
0.00000001
 43
0.00000001
 40
0.0
 40
0.0
 40
0.0
 40
0.0
 40
0.0207830911769763
 40
0.3465517753149153
 40
0.6711383671071365
 40
1.0
 40
1.0
 40
1.0
 40
1.0
 10
397.7231044281202
 20
483.431704834526
 30
0.0
 10
397.7231044281202
 20
483.4283831226707
 30
0.0
 10
397.7231044281203
 20
483.3729945796121
 30
0.0
 10
397.7231044281201
 20
483.2797611779739
 30
0.0
 10
397.7231044281201
 20
483.1670493541739
 30
0.0
 10
397.7231044281202
 20
483.1325214591902
 30
0.0
 10
397.7231044281202
 20
483.1151445661239
 30
0.0
  0
SPLINE
  5
1D1
330
1F
100
AcDbEntity
  8
0
  6
Continuous
 62
     7
370
    15
100
AcDbSpline
210
0.0
220
0.0
230
1.0
 70
    24
 71
     3
 72
    11
 73
     7
 74
     0
 42
0.00000001
 43
0.00000001
 40
0.0
 40
0.0
 40
0.0
 40
0.0
 40
0.2504882810781092
 40
0.4977276445631719
 40
0.7458632262608219
 40
1.0
 40
1.0
 40
1.0
 40
1.0
 10
398.5231179702955
 20
483.1127007756882
 30
0.0
 10
398.5231179702955
 20
483.128917982971
 30
0.0
 10
398.5231179702955
 20
483.1611420548818
 30
0.0
 10
398.5231179702954
 20
483.2699161703646
 30
0.0
 10
398.5231179702955
 20
483.4087490181828
 30
0.0
 10
398.5231179702955
 20
483.5157754230937
 30
0.0
 10
398.5231179702955
 20
483.5699280057602
 30
0.0
  0
LINE
  5
1D2
330
1F
100
AcDbEntity
  8
0
  6
Continuous
 62
     7
370
    15
100
AcDbLine
 10
397.5163657177
 20
483.6738934074
 30
0.0
 11
397.7252799977
 21
483.426668242
 31
0.0
  0
LINE
  5
1D3
330
1F
100
AcDbEntity
  8
0
  6
Continuous
 62
     7
370
    15
100
AcDbLine
 10
398.5231179703
 20
483.5699280058
 30
0.0
 11
398.5231179703
 21
483.6738934074
 31
0.0
  0
LINE
  5
1D4
330
1F
100
AcDbEntity
  8
0
  6
Continuous
 62
     7
370
    15
100
AcDbLine
 10
393.2467210997
 20
492.8119113002
 30
0.0
 11
393.2311046828
 21
493.2711501871
 31
0.0
  0
SPLINE
  5
1D5
330
1F
100
AcDbEntity
  8
0
  6
Continuous
 62
     7
370
    15
100
AcDbSpline
210
0.0
220
0.0
230
1.0
 70
     8
 71
     3
 72
    11
 73
     7
 74
     0
 42
0.00000001
 43
0.00000001
 40
0.0
 40
0.0
 40
0.0
 40
0.0
 40
0.1207593587206983
 40
0.4133927558026758
 40
0.706358008527275
 40
1.0
 40
1.0
 40
1.0
 40
1.0
 10
395.2793884981351
 20
472.6484795365982
 30
0.0
 10
395.2893117408423
 20
472.5501789851577
 30
0.0
 10
395.3232817510566
 20
472.2136689515887
 30
0.0
 10
395.370640109382
 20
471.7447570237987
 30
0.0
 10
395.4135253825009
 20
471.3200187398574
 30
0.0
 10
395.4210746469067
 20
471.2454769769067
 30
0.0
 10
395.4248536337094
 20
471.2081630979233
 30
0.0
  0
LINE
  5
1D6
330
1F
100
AcDbEntity
  8
0
  6
Continuous
 62
     7
370
    15
100
AcDbLine
 10
393.6075676192
 20
523.6738999639
 30
0.0
 11
392.8558040369
 21
523.4002848421
 31
0.0
  0
LINE
  5
1D7
330
1F
100
AcDbEntity
  8
0
  6
Continuous
 62
     7
370
    15
100
AcDbLine
 10
399.0558046807
 20
522.6738979374
 30
0.0
 11
398.7558145035
 21
522.6738979374
 31
0.0
  0
LINE
  5
1D8
330
1F
100
AcDbEntity
  8
0
  6
Continuous
 62
     7
370
    15
100
AcDbLine
 10
398.7558145035
 20
521.6738959108
 30
0.0
 11
398.6558128107
 21
521.6738959108
 31
0.0
  0
LINE
  5
1D9
330
1F
100
AcDbEntity
  8
0
  6
Continuous
 62
     7
370
    15
100
AcDbLine
 10
398.6558128107
 20
515.6738986526
 30
0.0
 11
398.7558145035
 21
515.6738986526
 31
0.0
  0
LINE
  5
1DA
330
1F
100
AcDbEntity
  8
0
  6
Continuous
 62
     7
370
    15
100
AcDbLine
 10
398.7558145035
 20
498.6738940035
 30
0.0
 11
398.6558128107
 21
498.6738940035
 31
0.0
  0
LINE
  5
1DB
330
1F
100
AcDbEntity
  8
0
  6
Continuous
 62
     7
370
    15
100
AcDbLine
 10
398.6558128107
 20
492.6738967453
 30
0.0
 11
398.7558145035
 21
492.6738967453
 31
0.0
  0
LINE
  5
1DC
330
1F
100
AcDbEntity
  8
0
  6
Continuous
 62
     7
370
    15
100
AcDbLine
 10
399.0558046807
 20
466.6739036594
 30
0.0
 11
399.0558046807
 21
461.6738935266
 31
0.0
  0
LINE
  5
1DD
330
1F
100
AcDbEntity
  8
0
  6
Continuous
 62
     7
370
    15
100
AcDbLine
 10
399.0558046807
 20
466.6739036594
 30
0.0
 11
414.0558052767
 21
466.6739036594
 31
0.0
  0
LINE
  5
1DE
330
1F
100
AcDbEntity
  8
0
  6
Continuous
 62
     7
370
    15
100
AcDbLine
 10
414.0558052767
 20
466.6739036594
 30
0.0
 11
414.0558052767
 21
461.6738935266
 31
0.0
  0
LINE
  5
1DF
330
1F
100
AcDbEntity
  8
0
  6
Continuous
 62
     7
370
    15
100
AcDbLine
 10
399.0558046807
 20
461.6738935266
 30
0.0
 11
414.0558052767
 21
461.6738935266
 31
0.0
  0
ARC
  5
1E0
330
1F
100
AcDbEntity
  8
0
  6
Continuous
 62
     7
370
    15
100
AcDbCircle
 10
414.0558076609
 20
461.6738966737
 30
0.0
 40
15.00000000000006
100
AcDbArc
 50
180.0
 51
270.0
  0
LINE
  5
1E1
330
1F
100
AcDbEntity
  8
0
  6
Continuous
 62
     7
370
    15
100
AcDbLine
 10
414.0558052767
 20
446.6738929306
 30
0.0
 11
414.0558052767
 21
461.6738935266
 31
0.0
  0
LINE
  5
1E2
330
1F
100
AcDbEntity
  8
0
  6
Continuous
 62
     7
370
    15
100
AcDbLine
 10
784.0558100451
 20
466.6739036594
 30
0.0
 11
784.0558100451
 21
461.6738935266
 31
0.0
  0
LINE
  5
1E3
330
1F
100
AcDbEntity
  8
0
  6
Continuous
 62
     7
370
    15
100
AcDbLine
 10
414.0558052767
 20
461.6738935266
 30
0.0
 11
784.0558100451
 21
461.6738935266
 31
0.0
  0
LINE
  5
1E4
330
1F
100
AcDbEntity
  8
0
  6
Continuous
 62
     7
370
    15
100
AcDbLine
 10
414.0558052767
 20
466.6739036594
 30
0.0
 11
784.0558100451
 21
466.6739036594
 31
0.0
  0
LINE
  5
1E5
330
1F
100
AcDbEntity
  8
0
  6
Continuous
 62
     7
370
    15
100
AcDbLine
 10
784.0558100451
 20
461.6738935266
 30
0.0
 11
784.0558100451
 21
446.6738929306
 31
0.0
  0
LINE
  5
1E6
330
1F
100
AcDbEntity
  8
0
  6
Continuous
 62
     7
370
    15
100
AcDbLine
 10
414.0558052767
 20
446.6738929306
 30
0.0
 11
784.0558100451
 21
446.6738929306
 31
0.0
  0
LINE
  5
1E7
330
1F
100
AcDbEntity
  8
0
  6
Continuous
 62
     7
370
    15
100
AcDbLine
 10
799.0558106411
 20
461.6738935266
 30
0.0
 11
784.0558100451
 21
461.6738935266
 31
0.0
  0
ARC
  5
1E8
330
1F
100
AcDbEntity
  8
0
  6
Continuous
 62
     7
370
    15
100
AcDbCircle
 10
784.0558076609
 20
461.6738966737
 30
0.0
 40
15.0
100
AcDbArc
 50
270.0
 51
0.0
  0
LINE
  5
1E9
330
1F
100
AcDbEntity
  8
0
  6
Continuous
 62
     7
370
    15
100
AcDbLine
 10
799.0558106411
 20
466.6739036594
 30
0.0
 11
799.0558106411
 21
461.6738935266
 31
0.0
  0
LINE
  5
1EA
330
1F
100
AcDbEntity
  8
0
  6
Continuous
 62
     7
370
    15
100
AcDbLine
 10
799.0558106411
 20
466.6739036594
 30
0.0
 11
784.0558100451
 21
466.6739036594
 31
0.0
  0
LINE
  5
1EB
330
1F
100
AcDbEntity
  8
0
  6
Continuous
 62
     7
370
    15
100
AcDbLine
 10
397.8558141697
 20
464.6916617904
 30
0.0
 11
399.0558046807
 21
464.6916617904
 31
0.0
  0
LINE
  5
1EC
330
1F
100
AcDbEntity
  8
0
  6
Continuous
 62
     7
370
    15
100
AcDbLine
 10
397.8558141697
 20
462.5876923357
 30
0.0
 11
399.0558046807
 21
462.5876923357
 31
0.0
  0
LINE
  5
1ED
330
1F
100
AcDbEntity
  8
0
  6
Continuous
 62
     7
370
    15
100
AcDbLine
 10
397.8558141697
 20
462.5876923357
 30
0.0
 11
397.8558141697
 21
464.6916617904
 31
0.0
  0
LINE
  5
1EE
330
1F
100
AcDbEntity
  8
0
  6
Continuous
 62
     7
370
    15
100
AcDbLine
 10
397.8558141697
 20
469.6738948379
 30
0.0
 11
399.0558046807
 21
469.6738948379
 31
0.0
  0
LINE
  5
1EF
330
1F
100
AcDbEntity
  8
0
  6
Continuous
 62
     7
370
    15
100
AcDbLine
 10
399.0558046807
 20
466.6739036594
 30
0.0
 11
399.0558046807
 21
469.6738948379
 31
0.0
  0
LINE
  5
1F0
330
1F
100
AcDbEntity
  8
0
  6
Continuous
 62
     7
370
    15
100
AcDbLine
 10
397.8558141697
 20
469.6738948379
 30
0.0
 11
397.8558141697
 21
464.6916617904
 31
0.0
  0
LINE
  5
1F1
330
1F
100
AcDbEntity
  8
0
  6
Continuous
 62
     7
370
    15
100
AcDbLine
 10
399.0558046807
 20
461.6738935266
 30
0.0
 11
399.0558046807
 21
458.1738938842
 31
0.0
  0
LINE
  5
1F2
330
1F
100
AcDbEntity
  8
0
  6
Continuous
 62
     7
370
    15
100
AcDbLine
 10
397.8558141697
 20
458.1738938842
 30
0.0
 11
397.8558141697
 21
462.5876923357
 31
0.0
  0
LINE
  5
1F3
330
1F
100
AcDbEntity
  8
0
  6
Continuous
 62
     7
370
    15
100
AcDbLine
 10
397.7558124769
 20
460.6738915001
 30
0.0
 11
397.7558124769
 21
466.6739036594
 31
0.0
  0
ARC
  5
1F4
330
1F
100
AcDbEntity
  8
0
  6
Continuous
 62
     7
370
    15
100
AcDbCircle
 10
396.2558076609
 20
471.3738966737
 30
0.0
 40
2.800000000000051
100
AcDbArc
 50
0.0
 51
45.4024529621
  0
LINE
  5
1F5
330
1F
100
AcDbEntity
  8
0
  6
Continuous
 62
     7
370
    15
100
AcDbLine
 10
395.1481539715
 20
473.9454915081
 30
0.0
 11
394.5512730587
 21
473.5952844177
 31
0.0
  0
LINE
  5
1F6
330
1F
100
AcDbEntity
  8
0
  6
Continuous
 62
     7
370
    15
100
AcDbLine
 10
391.7383510578
 20
469.9242790495
 30
0.0
 11
395.2817875851
 21
472.6432641302
 31
0.0
  0
LINE
  5
1F7
330
1F
100
AcDbEntity
  8
0
  6
Continuous
 62
     7
370
    15
100
AcDbLine
 10
391.0078365315
 20
470.876299337
 30
0.0
 11
391.7383510578
 21
469.9242790495
 31
0.0
  0
LINE
  5
1F8
330
1F
100
AcDbEntity
  8
0
  6
Continuous
 62
     7
370
    15
100
AcDbLine
 10
394.5512730587
 20
473.5952844177
 30
0.0
 11
391.0078365315
 21
470.876299337
 31
0.0
  0
LINE
  5
1F9
330
1F
100
AcDbEntity
  8
0
  6
Continuous
 62
     7
370
    15
100
AcDbLine
 10
399.0558046807
 20
469.6738948379
 30
0.0
 11
399.0558046807
 21
470.6738968645
 31
0.0
  0
LINE
  5
1FA
330
1F
100
AcDbEntity
  8
0
  6
Continuous
 62
     7
370
    15
100
AcDbLine
 10
397.8558141697
 20
470.3148384844
 30
0.0
 11
397.8558141697
 21
469.6738948379
 31
0.0
  0
LINE
  5
1FB
330
1F
100
AcDbEntity
  8
0
  6
Continuous
 62
     7
370
    15
100
AcDbLine
 10
390.7863158692
 20
469.1937645231
 30
0.0
 11
390.0558013428
 21
470.1457848106
 31
0.0
  0
LWPOLYLINE
  5
1FC
330
1F
100
AcDbEntity
  8
0
  6
Continuous
 62
     7
370
    15
100
AcDbPolyline
 90
        9
 70
   128
 43
0.0
 10
390.0558013428
 20
470.1457848106
 10
390.0740999687
 20
470.1598217045
 10
390.1282805908
 20
470.2013959442
 10
390.2162570465
 20
470.2689131056
 10
390.3346467722
 20
470.3597505842
 10
390.4789198149
 20
470.4704513107
 10
390.6435031403
 20
470.596753553
 10
390.8220935572
 20
470.7337846313
 10
391.0078365315
 20
470.876299337
  0
LWPOLYLINE
  5
1FD
330
1F
100
AcDbEntity
  8
0
  6
Continuous
 62
     7
370
    15
100
AcDbPolyline
 90
        9
 70
   128
 43
0.0
 10
391.7383510578
 20
469.9242790495
 10
391.5526080836
 20
469.7817643438
 10
391.3740176666
 20
469.6447332655
 10
391.2094343413
 20
469.5184310232
 10
391.0651612986
 20
469.4077302967
 10
390.9467715729
 20
469.3168779169
 10
390.8587951172
 20
469.2493756567
 10
390.8046144951
 20
469.2078014169
 10
390.7863158692
 20
469.1937645231
  0
SPLINE
  5
1FE
330
1F
100
AcDbEntity
  8
0
  6
Continuous
 62
     7
370
    15
100
AcDbSpline
210
0.0
220
0.0
230
1.0
 70
     8
 71
     3
 72
    12
 73
     8
 74
     0
 42
0.00000001
 43
0.00000001
 40
0.0
 40
0.0
 40
0.0
 40
0.0
 40
0.2340515605559213
 40
0.4681081209014387
 40
0.7021649452951938
 40
0.9362191094033155
 40
1.0
 40
1.0
 40
1.0
 40
1.0
 10
395.352791618176
 20
488.3510102782898
 30
0.0
 10
395.1563987048142
 20
488.3316315933324
 30
0.0
 10
394.763608682762
 20
488.2928738094517
 30
0.0
 10
394.2261102309424
 20
488.2876175104722
 30
0.0
 10
393.8526080818726
 20
488.3261004475339
 30
0.0
 10
393.6734153026595
 20
488.3807606532256
 30
0.0
 10
393.7021344163613
 20
488.4247159915142
 30
0.0
 10
393.7082845676618
 20
488.4341289554291
 30
0.0
  0
SPLINE
  5
1FF
330
1F
100
AcDbEntity
  8
0
  6
Continuous
 62
     7
370
    15
100
AcDbSpline
210
0.0
220
0.0
230
1.0
 70
     8
 71
     3
 72
    11
 73
     7
 74
     0
 42
0.00000001
 43
0.00000001
 40
0.0
 40
0.0
 40
0.0
 40
0.0
 40
0.1986873774642295
 40
0.4657927742637199
 40
0.732895501362279
 40
1.0
 40
1.0
 40
1.0
 40
1.0
 10
396.6487009037214
 20
488.7299021039657
 30
0.0
 10
396.6475181828708
 20
488.7054085250648
 30
0.0
 10
396.6447454711206
 20
488.6479870007911
 30
0.0
 10
396.3752057854444
 20
488.5409131068778
 30
0.0
 10
395.928157175461
 20
488.4300898581113
 30
0.0
 10
395.5445805612769
 20
488.3773701965066
 30
0.0
 10
395.352791618176
 20
488.3510102782898
 30
0.0
  0
SPLINE
  5
200
330
1F
100
AcDbEntity
  8
0
  6
Continuous
 62
     7
370
    15
100
AcDbSpline
210
0.0
220
0.0
230
1.0
 70
     8
 71
     3
 72
    12
 73
     8
 74
     0
 42
0.00000001
 43
0.00000001
 40
0.0
 40
0.0
 40
0.0
 40
0.0
 40
0.2339647271648549
 40
0.4679283139645976
 40
0.7018968537062504
 40
0.9358627429943501
 40
1.0
 40
1.0
 40
1.0
 40
1.0
 10
394.7458077181058
 20
494.3628837619476
 30
0.0
 10
394.5497275143785
 20
494.3403807499648
 30
0.0
 10
394.1575680626365
 20
494.2953748356809
 30
0.0
 10
393.6546338068533
 20
493.9478831924026
 30
0.0
 10
393.334826207722
 20
493.4543910111788
 30
0.0
 10
393.2068968851565
 20
493.0008051644799
 30
0.0
 10
393.2646860573477
 20
492.7578121542283
 30
0.0
 10
393.2771194685178
 20
492.7055319104843
 30
0.0
  0
SPLINE
  5
201
330
1F
100
AcDbEntity
  8
0
  6
Continuous
 62
     7
370
    15
100
AcDbSpline
210
0.0
220
0.0
230
1.0
 70
     8
 71
     3
 72
    11
 73
     7
 74
     0
 42
0.00000001
 43
0.00000001
 40
0.0
 40
0.0
 40
0.0
 40
0.0
 40
0.1976852097385363
 40
0.4651245869200603
 40
0.7325583026066619
 40
1.0
 40
1.0
 40
1.0
 40
1.0
 10
396.2160307872967
 20
493.0126001392059
 30
0.0
 10
396.1977499226308
 20
493.157348374595
 30
0.0
 10
396.1547377031657
 20
493.4979199493822
 30
0.0
 10
395.8292841875174
 20
493.9476956474776
 30
0.0
 10
395.3359861885614
 20
494.2954247456761
 30
0.0
 10
394.9425358320189
 20
494.3403971994892
 30
0.0
 10
394.7458077181058
 20
494.3628837619476
 30
0.0
  0
SPLINE
  5
202
330
1F
100
AcDbEntity
  8
0
  6
Continuous
 62
     7
370
    15
100
AcDbSpline
210
0.0
220
0.0
230
1.0
 70
     8
 71
     3
 72
    12
 73
     8
 74
     0
 42
0.00000001
 43
0.00000001
 40
0.0
 40
0.0
 40
0.0
 40
0.0
 40
0.2350176793872489
 40
0.4700291397670341
 40
0.7050458845177425
 40
0.9400624323235348
 40
1.0
 40
1.0
 40
1.0
 40
1.0
 10
396.921868990727
 20
472.8100379262619
 30
0.0
 10
396.7254782116232
 20
472.7906599719259
 30
0.0
 10
396.3327018502831
 20
472.7519045760308
 30
0.0
 10
395.7950940548054
 20
472.7466361837477
 30
0.0
 10
395.4220284222163
 20
472.7851619233181
 30
0.0
 10
395.2429870248156
 20
472.8392827172599
 30
0.0
 10
395.2708876059207
 20
472.882584099806
 30
0.0
 10
395.2765572775082
 20
472.8913833652191
 30
0.0
  0
SPLINE
  5
203
330
1F
100
AcDbEntity
  8
0
  6
Continuous
 62
     7
370
    15
100
AcDbSpline
210
0.0
220
0.0
230
1.0
 70
     8
 71
     3
 72
    11
 73
     7
 74
     0
 42
0.00000001
 43
0.00000001
 40
0.0
 40
0.0
 40
0.0
 40
0.0
 40
0.1989239597362801
 40
0.465950584310487
 40
0.7329742733226847
 40
1.0
 40
1.0
 40
1.0
 40
1.0
 10
398.2178229797559
 20
473.1890340600662
 30
0.0
 10
398.2166491923198
 20
473.1645077819581
 30
0.0
 10
398.21389976514
 20
473.1070585253147
 30
0.0
 10
397.9442928864566
 20
472.9999406080423
 30
0.0
 10
397.497231855304
 20
472.8891174966974
 30
0.0
 10
397.1136571000957
 20
472.8363978501243
 30
0.0
 10
396.921868990727
 20
472.8100379262619
 30
0.0
  0
ARC
  5
204
330
1F
100
AcDbEntity
  8
0
  6
Continuous
 62
     7
370
    15
100
AcDbCircle
 10
398.1230968596
 20
483.1116674804
 30
0.0
 40
0.400007544135751
100
AcDbArc
 50
0.1480060145
 51
179.5019472847
  0
ELLIPSE
  5
205
330
1F
100
AcDbEntity
  8
0
  6
Continuous
 62
     7
370
    15
100
AcDbEllipse
 10
398.1231070612
 20
482.84678828
 30
0.0
 11
0.3991830274372887
 21
-0.0262460422114259
 31
0.0
210
0.0
220
0.0
230
0.9999999999999999
 40
0.9763157485
 41
0.0
 42
6.283185307179586
  0
SPLINE
  5
206
330
1F
100
AcDbEntity
  8
0
  6
Continuous
 62
     7
370
    15
100
AcDbSpline
210
0.0
220
0.0
230
1.0
 70
     8
 71
     3
 72
    13
 73
     9
 74
     0
 42
0.00000001
 43
0.00000001
 40
0.0
 40
0.0
 40
0.0
 40
0.0
 40
0.0081674949821455
 40
0.2391516450138098
 40
0.4710952474605702
 40
0.6931189847480742
 40
0.9042234763249337
 40
1.0
 40
1.0
 40
1.0
 40
1.0
 10
398.1231111992078
 20
483.5756202493362
 30
0.0
 10
398.1214522872334
 20
483.5752279827684
 30
0.0
 10
398.072877843236
 20
483.5637420626431
 30
0.0
 10
397.9767675308292
 20
483.5404543072747
 30
0.0
 10
397.8539262114344
 20
483.4968326055088
 30
0.0
 10
397.7682758523738
 20
483.4593896985699
 30
0.0
 10
397.7242580369485
 20
483.438224357144
 30
0.0
 10
397.7274899723872
 20
483.4332555746762
 30
0.0
 10
397.7284986484723
 20
483.431704834526
 30
0.0
  0
SPLINE
  5
207
330
1F
100
AcDbEntity
  8
0
  6
Continuous
 62
     7
370
    15
100
AcDbSpline
210
0.0
220
0.0
230
1.0
 70
     8
 71
     3
 72
    13
 73
     9
 74
     0
 42
0.00000001
 43
0.00000001
 40
0.0
 40
0.0
 40
0.0
 40
0.0
 40
0.1252296699545766
 40
0.2499795205679951
 40
0.4999947282018833
 40
0.7499963775429682
 40
0.8747535942536557
 40
1.0
 40
1.0
 40
1.0
 40
1.0
 10
398.5231179702955
 20
483.5699280057602
 30
0.0
 10
398.5214035372126
 20
483.5699499986191
 30
0.0
 10
398.5179812399228
 20
483.5699939000709
 30
0.0
 10
398.4836026170365
 20
483.5705059551538
 30
0.0
 10
398.4083216865276
 20
483.5715546387697
 30
0.0
 10
398.2996731269549
 20
483.5731125004882
 30
0.0
 10
398.2009620439308
 20
483.5745082188453
 30
0.0
 10
398.149095310475
 20
483.5752490892786
 30
0.0
 10
398.1231111992078
 20
483.5756202493362
 30
0.0
  0
SPLINE
  5
208
330
1F
100
AcDbEntity
  8
0
  6
Continuous
 62
     7
370
    15
100
AcDbSpline
210
0.0
220
0.0
230
1.0
 70
     8
 71
     3
 72
    10
 73
     6
 74
     0
 42
0.00000001
 43
0.00000001
 40
0.0
 40
0.0
 40
0.0
 40
0.0
 40
0.0190228700517773
 40
0.5253207342098283
 40
1.0
 40
1.0
 40
1.0
 40
1.0
 10
398.1231111992078
 20
483.5756202493362
 30
0.0
 10
398.1246355274661
 20
483.5763604734085
 30
0.0
 10
398.1667301870889
 20
483.5968019237308
 30
0.0
 10
398.2492883358184
 20
483.6351347358664
 30
0.0
 10
398.3194356641457
 20
483.6612544784666
 30
0.0
 10
398.3533788431363
 20
483.6738934074097
 30
0.0
  0
LINE
  5
209
330
1F
100
AcDbEntity
  8
0
  6
Continuous
 62
     7
370
    15
100
AcDbLine
 10
393.2465869892
 20
492.8148617302
 30
0.0
 11
393.25904436
 21
492.6640917812
 31
0.0
  0
LINE
  5
20A
330
1F
100
AcDbEntity
  8
0
  6
Continuous
 62
     7
370
    15
100
AcDbLine
 10
396.2388146628
 20
493.007593349
 30
0.0
 11
396.2032306898
 21
493.2177593265
 31
0.0
  0
ARC
  5
20B
330
1F
100
AcDbEntity
  8
0
  6
Continuous
 62
     7
370
    15
100
AcDbCircle
 10
394.1558076609
 20
486.6938966737
 30
0.0
 40
2.200000000000049
100
AcDbArc
 50
103.5934783353
 51
268.1042765976
  0
LINE
  5
20C
330
1F
100
AcDbEntity
  8
0
  6
Continuous
 62
     7
370
    15
100
AcDbLine
 10
390.6089771498
 20
488.0716582094
 30
0.0
 11
390.9426290501
 21
489.9638970648
 31
0.0
  0
LWPOLYLINE
  5
20D
330
1F
100
AcDbEntity
  8
0
  6
Continuous
 62
     7
370
    15
100
AcDbPolyline
 90
        9
 70
   128
 43
0.0
 10
390.9426290501
 20
489.9638970648
 10
390.7983858097
 20
489.9893333469
 10
390.6613547314
 20
490.0134881292
 10
390.536244582
 20
490.0355567489
 10
390.4273915995
 20
490.0547494445
 10
390.3385657776
 20
490.070410565
 10
390.2728367556
 20
490.0820036684
 10
390.2324695099
 20
490.0891115223
 10
390.2188498486
 20
490.0915255104
  0
LINE
  5
20E
330
1F
100
AcDbEntity
  8
0
  6
Continuous
 62
     7
370
    15
100
AcDbLine
 10
390.2188498486
 20
490.0915255104
 30
0.0
 11
394.5938903797
 21
514.9036278282
 31
0.0
  0
LWPOLYLINE
  5
20F
330
1F
100
AcDbEntity
  8
0
  6
Continuous
 62
     7
370
    15
100
AcDbPolyline
 90
        9
 70
   128
 43
0.0
 10
394.5938903797
 20
514.9036278282
 10
394.6090299595
 20
514.9009605203
 10
394.6538675535
 20
514.8930480037
 10
394.7266746271
 20
514.880218104
 10
394.824649762
 20
514.8629476581
 10
394.9440378655
 20
514.8418923174
 10
395.0802493799
 20
514.8178716455
 10
395.2280390967
 20
514.7918095146
 10
395.3817445744
 20
514.7647043024
  0
LINE
  5
210
330
1F
100
AcDbEntity
  8
0
  6
Continuous
 62
     7
370
    15
100
AcDbLine
 10
395.3817445744
 20
514.7647043024
 30
0.0
 11
390.5564058531
 21
487.3989005838
 31
0.0
  0
LINE
  5
211
330
1F
100
AcDbEntity
  8
0
  6
Continuous
 62
     7
370
    15
100
AcDbLine
 10
390.5564058531
 20
487.3989005838
 30
0.0
 11
390.6089771498
 21
488.0716582094
 31
0.0
  0
LWPOLYLINE
  5
212
330
1F
100
AcDbEntity
  8
0
  6
Continuous
 62
     7
370
    15
100
AcDbPolyline
 90
        5
 70
   128
 43
0.0
 10
393.4411961544
 20
521.7919578109
 10
393.1877125014
 20
522.4883635793
 10
393.0041599978
 20
522.9926784788
 10
392.8930271376
 20
523.298033074
 10
392.8558040369
 20
523.4002848421
  0
LWPOLYLINE
  5
213
330
1F
100
AcDbEntity
  8
0
  6
Continuous
 62
     7
370
    15
100
AcDbPolyline
 90
        5
 70
   128
 43
0.0
 10
394.2008126486
 20
522.0439364467
 10
393.9439762343
 20
522.7496107374
 10
393.7579352368
 20
523.2607354675
 10
393.6452824581
 20
523.5702474867
 10
393.6075676192
 20
523.6738999639
  0
LINE
  5
214
330
1F
100
AcDbEntity
  8
0
  6
Continuous
 62
     7
370
    15
100
AcDbLine
 10
394.4229144562
 20
521.6894974266
 30
0.0
 11
394.2008126486
 21
522.0439364467
 31
0.0
  0
LINE
  5
215
330
1F
100
AcDbEntity
  8
0
  6
Continuous
 62
     7
370
    15
100
AcDbLine
 10
394.3407196511
 20
521.6595758949
 30
0.0
 11
394.4229144562
 21
521.6894974266
 31
0.0
  0
SPLINE
  5
216
330
1F
100
AcDbEntity
  8
0
  6
Continuous
 62
     7
370
    15
100
AcDbSpline
210
0.0
220
0.0
230
1.0
 70
     8
 71
     3
 72
    12
 73
     8
 74
     0
 42
0.00000001
 43
0.00000001
 40
0.0
 40
0.0
 40
0.0
 40
0.0
 40
0.251021954853923
 40
0.5023976742662282
 40
0.7402766408850124
 40
0.947307288298956
 40
1.0
 40
1.0
 40
1.0
 40
1.0
 10
393.4411961544233
 20
521.7919578109436
 30
0.0
 10
393.4689049822459
 20
521.7476398129277
 30
0.0
 10
393.524361687867
 20
521.6589413596618
 30
0.0
 10
393.7313598469164
 20
521.5839524128198
 30
0.0
 10
393.9927477865591
 20
521.5724452133944
 30
0.0
 10
394.2093308462275
 20
521.6140938159172
 30
0.0
 10
394.3185593556628
 20
521.6519047976041
 30
0.0
 10
394.3407196510511
 20
521.6595758948974
 30
0.0
  0
LINE
  5
217
330
1F
100
AcDbEntity
  8
0
  6
Continuous
 62
     7
370
    15
100
AcDbLine
 10
394.3407196511
 20
521.6595758949
 30
0.0
 11
394.9170518625
 21
520.0760890995
 31
0.0
  0
LWPOLYLINE
  5
218
330
1F
100
AcDbEntity
  8
0
  6
Continuous
 62
     7
370
    15
100
AcDbPolyline
 90
        9
 70
   128
 43
0.0
 10
394.1653031815
 20
519.8024739776
 10
394.1797424067
 20
519.8077340875
 10
394.2225236405
 20
519.823305801
 10
394.2919928539
 20
519.8485930715
 10
394.3854827393
 20
519.8826124225
 10
394.4994021166
 20
519.9240823541
 10
394.6293700445
 20
519.9713935409
 10
394.7703946341
 20
520.0227131401
 10
394.9170518625
 20
520.0760890995
  0
LINE
  5
219
330
1F
100
AcDbEntity
  8
0
  6
Continuous
 62
     7
370
    15
100
AcDbLine
 10
394.1653031815
 20
519.8024739776
 30
0.0
 11
393.4411961544
 21
521.7919578109
 31
0.0
  0
ARC
  5
21A
330
1F
100
AcDbEntity
  8
0
  6
Continuous
 62
     7
370
    15
100
AcDbCircle
 10
394.7458131671
 20
492.8628875922
 30
0.0
 40
1.599999999999969
100
AcDbArc
 50
347.034367059
 51
204.5950707184
  0
ARC
  5
21B
330
1F
100
AcDbEntity
  8
0
  6
Continuous
 62
     7
370
    15
100
AcDbCircle
 10
395.2585221323
 20
520.8859615281
 30
0.0
 40
0.5000000000000814
100
AcDbArc
 50
36.8410865503
 51
90.0
  0
ARC
  5
21C
330
1F
100
AcDbEntity
  8
0
  6
Continuous
 62
     7
370
    15
100
AcDbCircle
 10
388.0558076609
 20
515.4895827197
 30
0.0
 40
9.5
100
AcDbArc
 50
0.0
 51
36.8410865502
  0
LINE
  5
21D
330
1F
100
AcDbEntity
  8
0
  6
Continuous
 62
     7
370
    15
100
AcDbLine
 10
397.5558090914
 20
515.4895861898
 30
0.0
 11
397.5558090914
 21
487.4638994489
 31
0.0
  0
ARC
  5
21E
330
1F
100
AcDbEntity
  8
0
  6
Continuous
 62
     7
370
    15
100
AcDbCircle
 10
385.2382206204
 20
516.553287142
 30
0.0
 40
10.30000000000009
100
AcDbArc
 50
350.0
 51
20.0
  0
ARC
  5
21F
330
1F
100
AcDbEntity
  8
0
  6
Continuous
 62
     7
370
    15
100
AcDbCircle
 10
395.1405095867
 20
522.3859615281
 30
0.0
 40
1.0
100
AcDbArc
 50
224.1440002858
 51
270.0
  0
LINE
  5
220
330
1F
100
AcDbEntity
  8
0
  6
Continuous
 62
     7
370
    15
100
AcDbLine
 10
395.1405096758
 20
521.3859607731
 30
0.0
 11
395.2585268725
 21
521.3859607731
 31
0.0
  0
LWPOLYLINE
  5
221
330
1F
100
AcDbEntity
  8
0
  6
Continuous
 62
     7
370
    15
100
AcDbPolyline
 90
        3
 70
   128
 43
0.0
 10
397.5558090914
 20
487.4638994489
 10
397.3471928347
 20
486.2736095939
 10
396.9910252798
 20
485.557459787
  0
ARC
  5
222
330
1F
100
AcDbEntity
  8
0
  6
Continuous
 62
     7
370
    15
100
AcDbCircle
 10
394.0558076609
 20
487.4638966737
 30
0.0
 40
3.499999999999953
100
AcDbArc
 50
181.0639402281
 51
271.3221928089
  0
ARC
  5
223
330
1F
100
AcDbEntity
  8
0
  6
Continuous
 62
     7
370
    15
100
AcDbCircle
 10
385.2382206204
 20
516.553287142
 30
0.0
 40
9.499999999999984
100
AcDbArc
 50
350.0
 51
20.0
  0
ARC
  5
224
330
1F
100
AcDbEntity
  8
0
  6
Continuous
 62
     7
370
    15
100
AcDbCircle
 10
394.6494254543
 20
488.1613922005
 30
0.0
 40
4.69842830268836
100
AcDbArc
 50
170.0
 51
264.3261771657
  0
LINE
  5
225
330
1F
100
AcDbEntity
  8
0
  6
Continuous
 62
     7
370
    15
100
AcDbLine
 10
390.2188498486
 20
490.0915255104
 30
0.0
 11
390.0223780382
 21
488.9772613798
 31
0.0
  0
LINE
  5
226
330
1F
100
AcDbEntity
  8
0
  6
Continuous
 62
     7
370
    15
100
AcDbLine
 10
414.0558052767
 20
681.6738969911
 30
0.0
 11
414.0558052767
 21
696.6738966559
 31
0.0
  0
LINE
  5
227
330
1F
100
AcDbEntity
  8
0
  6
Continuous
 62
     7
370
    15
100
AcDbLine
 10
414.0558052767
 20
681.6738969911
 30
0.0
 11
399.0558046807
 21
681.6738969911
 31
0.0
  0
ARC
  5
228
330
1F
100
AcDbEntity
  8
0
  6
Continuous
 62
     7
370
    15
100
AcDbCircle
 10
414.0558076609
 20
681.6738966737
 30
0.0
 40
15.00000000000006
100
AcDbArc
 50
90.0
 51
180.0
  0
LINE
  5
229
330
1F
100
AcDbEntity
  8
0
  6
Continuous
 62
     7
370
    15
100
AcDbLine
 10
784.0558100451
 20
681.6738969911
 30
0.0
 11
414.0558052767
 21
681.6738969911
 31
0.0
  0
LINE
  5
22A
330
1F
100
AcDbEntity
  8
0
  6
Continuous
 62
     7
370
    15
100
AcDbLine
 10
784.0558100451
 20
696.6738966559
 30
0.0
 11
414.0558052767
 21
696.6738966559
 31
0.0
  0
LINE
  5
22B
330
1F
100
AcDbEntity
  8
0
  6
Continuous
 62
     7
370
    15
100
AcDbLine
 10
784.0558100451
 20
681.6738969911
 30
0.0
 11
784.0558100451
 21
696.6738966559
 31
0.0
  0
LINE
  5
22C
330
1F
100
AcDbEntity
  8
0
  6
Continuous
 62
     7
370
    15
100
AcDbLine
 10
784.0558100451
 20
681.6738969911
 30
0.0
 11
799.0558106411
 21
681.6738969911
 31
0.0
  0
ARC
  5
22D
330
1F
100
AcDbEntity
  8
0
  6
Continuous
 62
     7
370
    15
100
AcDbCircle
 10
784.0558076609
 20
681.6738966737
 30
0.0
 40
15.0
100
AcDbArc
 50
0.0
 51
90.0
  0
LINE
  5
22E
330
1F
100
AcDbEntity
  8
0
  6
Continuous
 62
     7
370
    15
100
AcDbLine
 10
414.0558052767
 20
470.6738968645
 30
0.0
 11
784.0558100451
 21
470.6738968645
 31
0.0
  0
LINE
  5
22F
330
1F
100
AcDbEntity
  8
0
  6
Continuous
 62
     7
370
    15
100
AcDbLine
 10
414.0558052767
 20
470.6738968645
 30
0.0
 11
414.0558052767
 21
681.6738969911
 31
0.0
  0
LINE
  5
230
330
1F
100
AcDbEntity
  8
0
  6
Continuous
 62
     7
370
    15
100
AcDbLine
 10
784.0558100451
 20
470.6738968645
 30
0.0
 11
784.0558100451
 21
681.6738969911
 31
0.0
  0
LINE
  5
231
330
1F
100
AcDbEntity
  8
0
  6
Continuous
 62
     7
370
    15
100
AcDbLine
 10
419.0558005083
 20
490.6738926922
 30
0.0
 11
419.0558005083
 21
676.6738971029
 31
0.0
  0
LINE
  5
232
330
1F
100
AcDbEntity
  8
0
  6
Continuous
 62
     7
370
    15
100
AcDbLine
 10
419.0558005083
 20
490.6738926922
 30
0.0
 11
779.0558148134
 21
490.6738926922
 31
0.0
  0
LINE
  5
233
330
1F
100
AcDbEntity
  8
0
  6
Continuous
 62
     7
370
    15
100
AcDbLine
 10
779.0558148134
 20
676.6738971029
 30
0.0
 11
779.0558148134
 21
490.6738926922
 31
0.0
  0
LINE
  5
234
330
1F
100
AcDbEntity
  8
0
  6
Continuous
 62
     7
370
    15
100
AcDbLine
 10
779.0558148134
 20
676.6738971029
 30
0.0
 11
419.0558005083
 21
676.6738971029
 31
0.0
  0
LINE
  5
235
330
1F
100
AcDbEntity
  8
0
  6
Continuous
 62
     7
370
    15
100
AcDbLine
 10
799.0558106411
 20
470.6738968645
 30
0.0
 11
799.0558106411
 21
681.6738969911
 31
0.0
  0
LINE
  5
236
330
1F
100
AcDbEntity
  8
0
  6
Continuous
 62
     7
370
    15
100
AcDbLine
 10
799.0558106411
 20
470.6738968645
 30
0.0
 11
784.0558100451
 21
470.6738968645
 31
0.0
  0
LINE
  5
237
330
1F
100
AcDbEntity
  8
0
  6
Continuous
 62
     7
370
    15
100
AcDbLine
 10
399.0558046807
 20
470.6738968645
 30
0.0
 11
399.0558046807
 21
681.6738969911
 31
0.0
  0
LINE
  5
238
330
1F
100
AcDbEntity
  8
0
  6
Continuous
 62
     7
370
    15
100
AcDbLine
 10
414.0558052767
 20
470.6738968645
 30
0.0
 11
399.0558046807
 21
470.6738968645
 31
0.0
  0
LINE
  5
239
330
1F
100
AcDbEntity
  8
0
  6
Continuous
 62
     7
370
    15
100
AcDbLine
 10
419.0558005083
 20
466.6739036594
 30
0.0
 11
419.0558005083
 21
470.6738968645
 31
0.0
  0
LINE
  5
23A
330
1F
100
AcDbEntity
  8
0
  6
Continuous
 62
     7
370
    15
100
AcDbLine
 10
404.0558148134
 20
466.6739036594
 30
0.0
 11
404.0558148134
 21
470.6738968645
 31
0.0
  0
LINE
  5
23B
330
1F
100
AcDbEntity
  8
0
  6
Continuous
 62
     7
370
    15
100
AcDbLine
 10
794.0558005083
 20
470.6738968645
 30
0.0
 11
794.0558005083
 21
466.6739036594
 31
0.0
  0
LINE
  5
23C
330
1F
100
AcDbEntity
  8
0
  6
Continuous
 62
     7
370
    15
100
AcDbLine
 10
779.0558148134
 20
466.6739036594
 30
0.0
 11
779.0558148134
 21
470.6738968645
 31
0.0
  0
LINE
  5
23D
330
1F
100
AcDbEntity
  8
0
  6
Continuous
 62
     7
370
    15
100
AcDbLine
 10
799.0558106411
 20
470.6738968645
 30
0.0
 11
799.7231293429
 21
470.6738968645
 31
0.0
  0
ARC
  5
23E
330
1F
100
AcDbEntity
  8
0
  6
Continuous
 62
     7
370
    15
100
AcDbCircle
 10
799.723125409
 20
471.1738966737
 30
0.0
 40
0.5
100
AcDbArc
 50
270.0
 51
332.720387264
  0
ARC
  5
23F
330
1F
100
AcDbEntity
  8
0
  6
Continuous
 62
     7
370
    15
100
AcDbCircle
 10
805.0558076609
 20
468.4238966737
 30
0.0
 40
5.500000000000115
100
AcDbArc
 50
202.024312837
 51
152.720387264
  0
ARC
  5
240
330
1F
100
AcDbEntity
  8
0
  6
Continuous
 62
     7
370
    15
100
AcDbCircle
 10
799.4936587956
 20
466.1738966737
 30
0.0
 40
0.500000000000081
100
AcDbArc
 50
22.024312837
 51
90.0
  0
LINE
  5
241
330
1F
100
AcDbEntity
  8
0
  6
Continuous
 62
     7
370
    15
100
AcDbLine
 10
799.4936514605
 20
466.6739036594
 30
0.0
 11
799.0558106411
 21
466.6739036594
 31
0.0
  0
LINE
  5
242
330
1F
100
AcDbEntity
  8
0
  6
Continuous
 62
     7
370
    15
100
AcDbLine
 10
398.7558145035
 20
489.8738940511
 30
0.0
 11
399.0558046807
 21
489.8749520336
 31
0.0
  0
LINE
  5
243
330
1F
100
AcDbEntity
  8
0
  6
Continuous
 62
     7
370
    15
100
AcDbLine
 10
399.0558046807
 20
491.8738981043
 30
0.0
 11
398.7558145035
 21
491.8738981043
 31
0.0
  0
LINE
  5
244
330
1F
100
AcDbEntity
  8
0
  6
Continuous
 62
     7
370
    15
100
AcDbLine
 10
398.7558145035
 20
489.8738940511
 30
0.0
 11
398.7558145035
 21
491.8738981043
 31
0.0
  0
LINE
  5
245
330
1F
100
AcDbEntity
  8
0
  6
Continuous
 62
     7
370
    15
100
AcDbLine
 10
399.0558046807
 20
483.6738934074
 30
0.0
 11
398.7558145035
 21
483.6738934074
 31
0.0
  0
LINE
  5
246
330
1F
100
AcDbEntity
  8
0
  6
Continuous
 62
     7
370
    15
100
AcDbLine
 10
398.7558145035
 20
483.6738934074
 30
0.0
 11
398.7558145035
 21
489.8738940511
 31
0.0
  0
ARC
  5
247
330
1F
100
AcDbEntity
  8
0
  6
Continuous
 62
     7
370
    15
100
AcDbCircle
 10
393.8558076609
 20
486.7738966737
 30
0.0
 40
3.100000000000066
100
AcDbArc
 50
192.314932462
 51
270.0
  0
LINE
  5
248
330
1F
100
AcDbEntity
  8
0
  6
Continuous
 62
     7
370
    15
100
AcDbLine
 10
398.7558145035
 20
489.8738940511
 30
0.0
 11
397.5558090914
 21
489.8738940511
 31
0.0
  0
LINE
  5
249
330
1F
100
AcDbEntity
  8
0
  6
Continuous
 62
     7
370
    15
100
AcDbLine
 10
393.8558060635
 20
483.6738934074
 30
0.0
 11
394.1659439314
 21
483.6738934074
 31
0.0
  0
LINE
  5
24A
330
1F
100
AcDbEntity
  8
0
  6
Continuous
 62
     7
370
    15
100
AcDbLine
 10
397.181193899
 20
483.6738934074
 30
0.0
 11
398.7558145035
 21
483.6738934074
 31
0.0
  0
LINE
  5
24B
330
1F
100
AcDbEntity
  8
0
  6
Continuous
 62
     7
370
    15
100
AcDbLine
 10
398.7558145035
 20
491.8738981043
 30
0.0
 11
398.7558145035
 21
515.923895434
 31
0.0
  0
LINE
  5
24C
330
1F
100
AcDbEntity
  8
0
  6
Continuous
 62
     7
370
    15
100
AcDbLine
 10
398.7558145035
 20
522.6738979374
 30
0.0
 11
398.7558145035
 21
515.923895434
 31
0.0
  0
LINE
  5
24D
330
1F
100
AcDbEntity
  8
0
  6
Continuous
 62
     7
370
    15
100
AcDbLine
 10
398.6558128107
 20
515.6738986526
 30
0.0
 11
398.6558128107
 21
521.6738959108
 31
0.0
  0
LINE
  5
24E
330
1F
100
AcDbEntity
  8
0
  6
Continuous
 62
     7
370
    15
100
AcDbLine
 10
398.6558128107
 20
492.6738967453
 30
0.0
 11
398.6558128107
 21
498.6738940035
 31
0.0
  0
LINE
  5
24F
330
1F
100
AcDbEntity
  8
0
  6
Continuous
 62
     7
370
    15
100
AcDbLine
 10
397.5558090914
 20
508.0307056461
 30
0.0
 11
398.7558145035
 21
507.7091683899
 31
0.0
  0
LINE
  5
250
330
1F
100
AcDbEntity
  8
0
  6
Continuous
 62
     7
370
    15
100
AcDbLine
 10
398.7558145035
 20
506.6738953148
 30
0.0
 11
397.5558090914
 21
506.995432571
 31
0.0
  0
LINE
  5
251
330
1F
100
AcDbEntity
  8
0
  6
Continuous
 62
     8
370
    15
100
AcDbLine
 10
399.0558046807
 20
515.923895434
 30
0.0
 11
398.7558145035
 21
515.923895434
 31
0.0
  0
ENDSEC
  0
SECTION
  2
OBJECTS
  0
DICTIONARY
  5
C
330
0
100
AcDbDictionary
281
     1
  3
ACAD_GROUP
350
D
  3
ACAD_LAYOUT
350
1A
  3
ACAD_MLINESTYLE
350
17
  3
ACAD_PLOTSETTINGS
350
19
  3
ACAD_PLOTSTYLENAME
350
E
  0
DICTIONARY
  5
D
102
{ACAD_REACTORS
330
C
102
}
330
C
100
AcDbDictionary
281
     1
  0
DICTIONARY
  5
1A
102
{ACAD_REACTORS
330
C
102
}
330
C
100
AcDbDictionary
281
     1
  3
Layout1
350
1E
  3
Layout2
350
26
  3
Model
350
22
  0
DICTIONARY
  5
17
102
{ACAD_REACTORS
330
C
102
}
330
C
100
AcDbDictionary
281
     1
  3
Standard
350
18
  0
DICTIONARY
  5
19
102
{ACAD_REACTORS
330
C
102
}
330
C
100
AcDbDictionary
281
     1
  0
ACDBDICTIONARYWDFLT
  5
E
102
{ACAD_REACTORS
330
C
102
}
330
C
100
AcDbDictionary
281
     1
  3
Normal
350
F
100
AcDbDictionaryWithDefault
340
F
  0
LAYOUT
  5
1E
102
{ACAD_REACTORS
330
1A
102
}
330
1A
100
AcDbPlotSettings
  1

  2
none_device
  4

  6

 40
0.0
 41
0.0
 42
0.0
 43
0.0
 44
0.0
 45
0.0
 46
0.0
 47
0.0
 48
0.0
 49
0.0
140
0.0
141
0.0
142
1.0
143
1.0
 70
   688
 72
     0
 73
     0
 74
     5
  7

 75
    16
147
1.0
148
0.0
149
0.0
100
AcDbLayout
  1
Layout1
 70
     1
 71
     1
 10
0.0
 20
0.0
 11
420.0
 21
297.0
 12
0.0
 22
0.0
 32
0.0
 14
1.0000000000E+20
 24
1.0000000000E+20
 34
1.0000000000E+20
 15
-1.0000000000E+20
 25
-1.0000000000E+20
 35
-1.0000000000E+20
146
0.0
 13
0.0
 23
0.0
 33
0.0
 16
1.0
 26
0.0
 36
0.0
 17
0.0
 27
1.0
 37
0.0
 76
     0
330
1B
  0
LAYOUT
  5
26
102
{ACAD_REACTORS
330
1A
102
}
330
1A
100
AcDbPlotSettings
  1

  2
none_device
  4

  6

 40
0.0
 41
0.0
 42
0.0
 43
0.0
 44
0.0
 45
0.0
 46
0.0
 47
0.0
 48
0.0
 49
0.0
140
0.0
141
0.0
142
1.0
143
1.0
 70
   688
 72
     0
 73
     0
 74
     5
  7

 75
    16
147
1.0
148
0.0
149
0.0
100
AcDbLayout
  1
Layout2
 70
     1
 71
     2
 10
0.0
 20
0.0
 11
0.0
 21
0.0
 12
0.0
 22
0.0
 32
0.0
 14
0.0
 24
0.0
 34
0.0
 15
0.0
 25
0.0
 35
0.0
146
0.0
 13
0.0
 23
0.0
 33
0.0
 16
1.0
 26
0.0
 36
0.0
 17
0.0
 27
1.0
 37
0.0
 76
     0
330
23
  0
LAYOUT
  5
22
102
{ACAD_REACTORS
330
1A
102
}
330
1A
100
AcDbPlotSettings
  1

  2
none_device
  4

  6

 40
0.0
 41
0.0
 42
0.0
 43
0.0
 44
0.0
 45
0.0
 46
0.0
 47
0.0
 48
0.0
 49
0.0
140
0.0
141
0.0
142
1.0
143
1.0
 70
  1712
 72
     0
 73
     0
 74
     0
  7

 75
     0
147
1.0
148
0.0
149
0.0
100
AcDbLayout
  1
Model
 70
     1
 71
     0
 10
0.0
 20
0.0
 11
840.0
 21
594.0
 12
0.0
 22
0.0
 32
0.0
 14
0.0
 24
0.0
 34
0.0
 15
840.0
 25
594.0
 35
0.0
146
0.0
 13
0.0
 23
0.0
 33
0.0
 16
1.0
 26
0.0
 36
0.0
 17
0.0
 27
1.0
 37
0.0
 76
     0
330
1F
331
29
  0
MLINESTYLE
  5
18
102
{ACAD_REACTORS
330
17
102
}
330
17
100
AcDbMlineStyle
  2
Standard
 70
     0
  3

 62
   256
 51
90.0
 52
90.0
 71
     2
 49
0.5
 62
   256
  6
BYLAYER
 49
-0.5
 62
   256
  6
BYLAYER
  0
ACDBPLACEHOLDER
  5
F
102
{ACAD_REACTORS
330
E
102
}
330
E
  0
ENDSEC
  0
EOF
