  0
SECTION
  2
HEADER
  9
$ACADVER
  1
AC1015
  9
$ACADMAINTVER
 70
     6
  9
$DWGCODEPAGE
  3
DOS932
  9
$INSBASE
 10
0.0
 20
0.0
 30
0.0
  9
$EXTMIN
 10
0.0
 20
0.0
 30
0.0
  9
$EXTMAX
 10
840.0
 20
594.0
 30
0.0
  9
$LIMMIN
 10
0.0
 20
0.0
  9
$LIMMAX
 10
840.0
 20
594.0
  9
$ORTHOMODE
 70
     0
  9
$REGENMODE
 70
     1
  9
$FILLMODE
 70
     1
  9
$QTEXTMODE
 70
     0
  9
$MIRRTEXT
 70
     1
  9
$LTSCALE
 40
2.0
  9
$ATTMODE
 70
     1
  9
$TEXTSIZE
 40
7.0
  9
$TRACEWID
 40
1.0
  9
$TEXTSTYLE
  7
Standard
  9
$CLAYER
  8
0
  9
$CELTYPE
  6
ByLayer
  9
$CECOLOR
 62
   256
  9
$CELTSCALE
 40
1.0
  9
$DISPSILH
 70
     0
  9
$DIMSCALE
 40
1.0
  9
$DIMASZ
 40
6.0
  9
$DIMEXO
 40
2.0
  9
$DIMDLI
 40
3.75
  9
$DIMRND
 40
0.0
  9
$DIMDLE
 40
0.0
  9
$DIMEXE
 40
2.0
  9
$DIMTP
 40
0.0
  9
$DIMTM
 40
0.0
  9
$DIMTXT
 40
7.0
  9
$DIMCEN
 40
2.5
  9
$DIMTSZ
 40
0.0
  9
$DIMTOL
 70
     0
  9
$DIMLIM
 70
     0
  9
$DIMTIH
 70
     1
  9
$DIMTOH
 70
     1
  9
$DIMSE1
 70
     0
  9
$DIMSE2
 70
     0
  9
$DIMTAD
 70
     1
  9
$DIMZIN
 70
     0
  9
$DIMBLK
  1

  9
$DIMASO
 70
     1
  9
$DIMSHO
 70
     1
  9
$DIMPOST
  1

  9
$DIMAPOST
  1

  9
$DIMALT
 70
     0
  9
$DIMALTD
 70
     3
  9
$DIMALTF
 40
0.0393700787
  9
$DIMLFAC
 40
1.0
  9
$DIMTOFL
 70
     1
  9
$DIMTVP
 40
0.0
  9
$DIMTIX
 70
     0
  9
$DIMSOXD
 70
     0
  9
$DIMSAH
 70
     0
  9
$DIMBLK1
  1

  9
$DIMBLK2
  1

  9
$DIMSTYLE
  2
ISO-25
  9
$DIMCLRD
 70
     0
  9
$DIMCLRE
 70
     0
  9
$DIMCLRT
 70
     0
  9
$DIMTFAC
 40
1.0
  9
$DIMGAP
 40
3.048
  9
$DIMJUST
 70
     0
  9
$DIMSD1
 70
     0
  9
$DIMSD2
 70
     0
  9
$DIMTOLJ
 70
     0
  9
$DIMTZIN
 70
     0
  9
$DIMALTZ
 70
     0
  9
$DIMALTTZ
 70
     0
  9
$DIMUPT
 70
     0
  9
$DIMDEC
 70
     1
  9
$DIMTDEC
 70
     1
  9
$DIMALTU
 70
     2
  9
$DIMALTTD
 70
     3
  9
$DIMTXSTY
  7
Standard
  9
$DIMAUNIT
 70
     0
  9
$DIMADEC
 70
     2
  9
$DIMALTRND
 40
0.0
  9
$DIMAZIN
 70
     0
  9
$DIMDSEP
 70
    44
  9
$DIMATFIT
 70
     3
  9
$DIMFRAC
 70
     0
  9
$DIMLDRBLK
  1

  9
$DIMLUNIT
 70
     2
  9
$DIMLWD
 70
    -2
  9
$DIMLWE
 70
    -2
  9
$DIMTMOVE
 70
     0
  9
$LUNITS
 70
     2
  9
$LUPREC
 70
     1
  9
$SKETCHINC
 40
1.0
  9
$FILLETRAD
 40
10.0
  9
$AUNITS
 70
     0
  9
$AUPREC
 70
     2
  9
$MENU
  1
.
  9
$ELEVATION
 40
0.0
  9
$PELEVATION
 40
0.0
  9
$THICKNESS
 40
0.0
  9
$LIMCHECK
 70
     0
  9
$CHAMFERA
 40
10.0
  9
$CHAMFERB
 40
10.0
  9
$CHAMFERC
 40
20.0
  9
$CHAMFERD
 40
0.0
  9
$SKPOLY
 70
     0
  9
$TDCREATE
 40
2460451.555971701
  9
$TDUCREATE
 40
2460451.180971701
  9
$TDUPDATE
 40
2460451.555971713
  9
$TDUUPDATE
 40
2460451.180971713
  9
$TDINDWG
 40
0.0000000116
  9
$TDUSRTIMER
 40
0.0000000116
  9
$USRTIMER
 70
     1
  9
$ANGBASE
 50
0.0
  9
$ANGDIR
 70
     0
  9
$PDMODE
 70
     0
  9
$PDSIZE
 40
-1.0
  9
$PLINEWID
 40
0.0
  9
$SPLFRAME
 70
     0
  9
$SPLINETYPE
 70
     6
  9
$SPLINESEGS
 70
     8
  9
$HANDSEED
  5
363
  9
$SURFTAB1
 70
     6
  9
$SURFTAB2
 70
     6
  9
$SURFTYPE
 70
     6
  9
$SURFU
 70
     6
  9
$SURFV
 70
     6
  9
$UCSBASE
  2

  9
$UCSNAME
  2

  9
$UCSORG
 10
0.0
 20
0.0
 30
0.0
  9
$UCSXDIR
 10
1.0
 20
0.0
 30
0.0
  9
$UCSYDIR
 10
0.0
 20
1.0
 30
0.0
  9
$UCSORTHOREF
  2

  9
$UCSORTHOVIEW
 70
     0
  9
$UCSORGTOP
 10
0.0
 20
0.0
 30
0.0
  9
$UCSORGBOTTOM
 10
0.0
 20
0.0
 30
0.0
  9
$UCSORGLEFT
 10
0.0
 20
0.0
 30
0.0
  9
$UCSORGRIGHT
 10
0.0
 20
0.0
 30
0.0
  9
$UCSORGFRONT
 10
0.0
 20
0.0
 30
0.0
  9
$UCSORGBACK
 10
0.0
 20
0.0
 30
0.0
  9
$PUCSBASE
  2

  9
$PUCSNAME
  2

  9
$PUCSORG
 10
0.0
 20
0.0
 30
0.0
  9
$PUCSXDIR
 10
1.0
 20
0.0
 30
0.0
  9
$PUCSYDIR
 10
0.0
 20
1.0
 30
0.0
  9
$PUCSORTHOREF
  2

  9
$PUCSORTHOVIEW
 70
     0
  9
$PUCSORGTOP
 10
0.0
 20
0.0
 30
0.0
  9
$PUCSORGBOTTOM
 10
0.0
 20
0.0
 30
0.0
  9
$PUCSORGLEFT
 10
0.0
 20
0.0
 30
0.0
  9
$PUCSORGRIGHT
 10
0.0
 20
0.0
 30
0.0
  9
$PUCSORGFRONT
 10
0.0
 20
0.0
 30
0.0
  9
$PUCSORGBACK
 10
0.0
 20
0.0
 30
0.0
  9
$USERI1
 70
     0
  9
$USERI2
 70
     0
  9
$USERI3
 70
     0
  9
$USERI4
 70
     0
  9
$USERI5
 70
     0
  9
$USERR1
 40
0.0
  9
$USERR2
 40
0.0
  9
$USERR3
 40
0.0
  9
$USERR4
 40
0.0
  9
$USERR5
 40
0.0
  9
$WORLDVIEW
 70
     1
  9
$SHADEDGE
 70
     3
  9
$SHADEDIF
 70
    70
  9
$TILEMODE
 70
     1
  9
$MAXACTVP
 70
    64
  9
$PINSBASE
 10
0.0
 20
0.0
 30
0.0
  9
$PLIMCHECK
 70
     0
  9
$PEXTMIN
 10
1.0000000000E+20
 20
1.0000000000E+20
 30
1.0000000000E+20
  9
$PEXTMAX
 10
-1.0000000000E+20
 20
-1.0000000000E+20
 30
-1.0000000000E+20
  9
$PLIMMIN
 10
0.0
 20
0.0
  9
$PLIMMAX
 10
420.0
 20
297.0
  9
$UNITMODE
 70
     0
  9
$VISRETAIN
 70
     1
  9
$PLINEGEN
 70
     0
  9
$PSLTSCALE
 70
     1
  9
$TREEDEPTH
 70
  3020
  9
$CMLSTYLE
  2
Standard
  9
$CMLJUST
 70
     0
  9
$CMLSCALE
 40
20.0
  9
$PROXYGRAPHICS
 70
     1
  9
$MEASUREMENT
 70
     1
  9
$CELWEIGHT
370
    -1
  9
$ENDCAPS
280
     0
  9
$JOINSTYLE
280
     0
  9
$LWDISPLAY
290
     1
  9
$INSUNITS
 70
     4
  9
$HYPERLINKBASE
  1

  9
$STYLESHEET
  1

  9
$XEDIT
290
     1
  9
$CEPSNTYPE
380
     0
  9
$PSTYLEMODE
290
     1
  9
$FINGERPRINTGUID
  2
{8199E28A-281B-4292-BA3D-B53960BF064C}
  9
$VERSIONGUID
  2
{FAEB1C32-E019-11D5-929B-00C0DF256EC4}
  9
$EXTNAMES
290
     1
  9
$PSVPSCALE
 40
0.0
  9
$OLESTARTUP
290
     0
  0
ENDSEC
  0
SECTION
  2
CLASSES
  0
CLASS
  1
ACDBDICTIONARYWDFLT
  2
AcDbDictionaryWithDefault
  3
ObjectDBX Classes
 90
        0
280
     0
281
     0
  0
CLASS
  1
VISUALSTYLE
  2
AcDbVisualStyle
  3
ObjectDBX Classes
 90
     4095
280
     0
281
     0
  0
CLASS
  1
MATERIAL
  2
AcDbMaterial
  3
ObjectDBX Classes
 90
     1153
280
     0
281
     0
  0
CLASS
  1
ACDBPLACEHOLDER
  2
AcDbPlaceHolder
  3
ObjectDBX Classes
 90
        0
280
     0
281
     0
  0
CLASS
  1
LAYOUT
  2
AcDbLayout
  3
ObjectDBX Classes
 90
        0
280
     0
281
     0
  0
ENDSEC
  0
SECTION
  2
TABLES
  0
TABLE
  2
VPORT
  5
8
330
0
100
AcDbSymbolTable
 70
     1
  0
VPORT
  5
29
330
8
100
AcDbSymbolTableRecord
100
AcDbViewportTableRecord
  2
*Active
 70
     0
 10
0.0
 20
0.0
 11
1.0
 21
1.0
 12
420.0
 22
297.0
 13
0.0
 23
0.0
 14
10.0
 24
10.0
 15
10.0
 25
10.0
 16
0.0
 26
0.0
 36
1.0
 17
0.0
 27
0.0
 37
0.0
 40
594.0
 41
1.4141414141
 42
50.0
 43
0.0
 44
0.0
 50
0.0
 51
0.0
 71
     0
 72
  2000
 73
     1
 74
     3
 75
     0
 76
     0
 77
     0
 78
     0
281
     0
 65
     1
110
0.0
120
0.0
130
0.0
111
1.0
121
0.0
131
0.0
112
0.0
122
1.0
132
0.0
 79
     0
146
0.0
  0
ENDTAB
  0
TABLE
  2
LTYPE
  5
5
330
0
100
AcDbSymbolTable
 70
     6
  0
LTYPE
  5
14
330
5
100
AcDbSymbolTableRecord
100
AcDbLinetypeTableRecord
  2
ByBlock
 70
     0
  3

 72
    65
 73
     0
 40
0.0
  0
LTYPE
  5
15
330
5
100
AcDbSymbolTableRecord
100
AcDbLinetypeTableRecord
  2
ByLayer
 70
     0
  3

 72
    65
 73
     0
 40
0.0
  0
LTYPE
  5
16
330
5
100
AcDbSymbolTableRecord
100
AcDbLinetypeTableRecord
  2
Continuous
 70
     0
  3
Solid line
 72
    65
 73
     0
 40
0.0
  0
LTYPE
  5
3F
330
5
100
AcDbSymbolTableRecord
100
AcDbLinetypeTableRecord
  2
HIDDEN
 70
     0
  3
Hidden __ __ __ __ __ __ __ __ __ __ __ __ __ __
 72
    65
 73
     2
 40
1.905
 49
1.27
 74
     0
 49
-0.635
 74
     0
  0
LTYPE
  5
40
330
5
100
AcDbSymbolTableRecord
100
AcDbLinetypeTableRecord
  2
PHANTOM
 70
     0
  3
Phantom ______  __  __  ______  __  __  ______
 72
    65
 73
     6
 40
12.7
 49
6.35
 74
     0
 49
-1.27
 74
     0
 49
1.27
 74
     0
 49
-1.27
 74
     0
 49
1.27
 74
     0
 49
-1.27
 74
     0
  0
LTYPE
  5
41
330
5
100
AcDbSymbolTableRecord
100
AcDbLinetypeTableRecord
  2
CENTER
 70
     0
  3
Center ____ _ ____ _ ____ _ ____ _ ____ _ ____
 72
    65
 73
     4
 40
10.16
 49
6.35
 74
     0
 49
-1.27
 74
     0
 49
1.27
 74
     0
 49
-1.27
 74
     0
  0
LTYPE
  5
42
330
5
100
AcDbSymbolTableRecord
100
AcDbLinetypeTableRecord
  2
CENTERX2
 70
     0
  3
Center (2x) ________  __  ________  __  _____
 72
    65
 73
     4
 40
20.32
 49
12.7
 74
     0
 49
-2.54
 74
     0
 49
2.54
 74
     0
 49
-2.54
 74
     0
  0
LTYPE
  5
43
330
5
100
AcDbSymbolTableRecord
100
AcDbLinetypeTableRecord
  2
DOT2
 70
     0
  3
Dot (.5x) ........................................
 72
    65
 73
     2
 40
0.635
 49
0.0
 74
     0
 49
-0.635
 74
     0
  0
ENDTAB
  0
TABLE
  2
LAYER
  5
2
330
0
100
AcDbSymbolTable
 70
     1
  0
LAYER
  5
10
330
2
100
AcDbSymbolTableRecord
100
AcDbLayerTableRecord
  2
0
 70
     0
 62
     7
  6
Continuous
370
    -3
390
F
  0
ENDTAB
  0
TABLE
  2
STYLE
  5
3
330
0
100
AcDbSymbolTable
 70
     2
  0
STYLE
  5
11
330
3
100
AcDbSymbolTableRecord
100
AcDbTextStyleTableRecord
  2
Standard
 70
     0
 40
0.0
 41
1.0
 50
0.0
 71
     0
 42
2.5
  3
txt
  4
bigfont
  0
STYLE
  5
44
330
3
100
AcDbSymbolTableRecord
100
AcDbTextStyleTableRecord
  2
SLDTEXTSTYLE0
 70
     0
 40
0.0
 41
0.7
 50
0.0
 71
     0
 42
0.2
  3
TXT
  4
bigfont
  0
ENDTAB
  0
TABLE
  2
VIEW
  5
6
330
0
100
AcDbSymbolTable
 70
     0
  0
ENDTAB
  0
TABLE
  2
UCS
  5
7
330
0
100
AcDbSymbolTable
 70
     0
  0
ENDTAB
  0
TABLE
  2
APPID
  5
9
330
0
100
AcDbSymbolTable
 70
     1
  0
APPID
  5
12
330
9
100
AcDbSymbolTableRecord
100
AcDbRegAppTableRecord
  2
ACAD
 70
     0
  0
ENDTAB
  0
TABLE
  2
DIMSTYLE
  5
A
330
0
100
AcDbSymbolTable
 70
     1
100
AcDbDimStyleTable
  0
DIMSTYLE
105
27
330
A
100
AcDbSymbolTableRecord
100
AcDbDimStyleTableRecord
  2
ISO-25
 70
     0
 41
2.5
 42
0.625
 43
3.75
 44
1.25
 73
     0
 74
     0
 77
     1
 78
     8
140
2.5
141
2.5
143
0.0393700787
147
0.625
171
     3
172
     1
178
     0
271
     2
272
     2
274
     3
278
    44
283
     0
284
     8
340
11
  0
ENDTAB
  0
TABLE
  2
BLOCK_RECORD
  5
1
330
0
100
AcDbSymbolTable
 70
     1
  0
BLOCK_RECORD
  5
1F
330
1
100
AcDbSymbolTableRecord
100
AcDbBlockTableRecord
  2
*Model_Space
340
22
  0
BLOCK_RECORD
  5
1B
330
1
100
AcDbSymbolTableRecord
100
AcDbBlockTableRecord
  2
*Paper_Space
340
1E
  0
BLOCK_RECORD
  5
23
330
1
100
AcDbSymbolTableRecord
100
AcDbBlockTableRecord
  2
*Paper_Space0
340
26
  0
ENDTAB
  0
ENDSEC
  0
SECTION
  2
BLOCKS
  0
BLOCK
  5
20
330
1F
100
AcDbEntity
  8
0
100
AcDbBlockBegin
  2
*Model_Space
 70
     0
 10
0.0
 20
0.0
 30
0.0
  3
*Model_Space
  1

  0
ENDBLK
  5
21
330
1F
100
AcDbEntity
  8
0
100
AcDbBlockEnd
  0
BLOCK
  5
1C
330
1B
100
AcDbEntity
 67
     1
  8
0
100
AcDbBlockBegin
  2
*Paper_Space
 70
     0
 10
0.0
 20
0.0
 30
0.0
  3
*Paper_Space
  1

  0
ENDBLK
  5
1D
330
1B
100
AcDbEntity
 67
     1
  8
0
100
AcDbBlockEnd
  0
BLOCK
  5
24
330
23
100
AcDbEntity
  8
0
100
AcDbBlockBegin
  2
*Paper_Space0
 70
     0
 10
0.0
 20
0.0
 30
0.0
  3
*Paper_Space0
  1

  0
ENDBLK
  5
25
330
23
100
AcDbEntity
  8
0
100
AcDbBlockEnd
  0
ENDSEC
  0
SECTION
  2
ENTITIES
  0
MTEXT
  5
45
330
1F
100
AcDbEntity
  8
0
  6
Continuous
 62
     7
370
     0
100
AcDbMText
 10
129.3348336872
 20
565.1243658199
 30
0.0
 40
7.0
 41
0.0
 71
     1
 72
     1
  1
CHB-512P
  7
SLDTEXTSTYLE0
 73
     1
 44
1.0
  0
LINE
  5
46
330
1F
100
AcDbEntity
  8
0
  6
Continuous
 62
     7
370
    15
100
AcDbLine
 10
309.6194200889
 20
447.5784639179
 30
0.0
 11
309.7194366829
 21
447.5784639179
 31
0.0
  0
LINE
  5
47
330
1F
100
AcDbEntity
  8
0
  6
Continuous
 62
     7
370
    15
100
AcDbLine
 10
309.7194366829
 20
453.5784611761
 30
0.0
 11
309.6194200889
 21
453.5784611761
 31
0.0
  0
LINE
  5
48
330
1F
100
AcDbEntity
  8
0
  6
Continuous
 62
     7
370
    15
100
AcDbLine
 10
309.6194200889
 20
457.5784692823
 30
0.0
 11
309.7194366829
 21
457.5784692823
 31
0.0
  0
LINE
  5
49
330
1F
100
AcDbEntity
  8
0
  6
Continuous
 62
     7
370
    15
100
AcDbLine
 10
309.7194366829
 20
463.5784665405
 30
0.0
 11
309.6194200889
 21
463.5784665405
 31
0.0
  0
LINE
  5
4A
330
1F
100
AcDbEntity
  8
0
  6
Continuous
 62
     7
370
    15
100
AcDbLine
 10
309.6194200889
 20
77.5784591495
 30
0.0
 11
309.7194366829
 21
77.5784591495
 31
0.0
  0
LINE
  5
4B
330
1F
100
AcDbEntity
  8
0
  6
Continuous
 62
     7
370
    15
100
AcDbLine
 10
309.7194366829
 20
83.5784564077
 30
0.0
 11
309.6194200889
 21
83.5784564077
 31
0.0
  0
LINE
  5
4C
330
1F
100
AcDbEntity
  8
0
  6
Continuous
 62
     7
370
    15
100
AcDbLine
 10
309.6194200889
 20
87.5784645139
 30
0.0
 11
309.7194366829
 21
87.5784645139
 31
0.0
  0
LINE
  5
4D
330
1F
100
AcDbEntity
  8
0
  6
Continuous
 62
     7
370
    15
100
AcDbLine
 10
309.7194366829
 20
93.5784617721
 30
0.0
 11
309.6194200889
 21
93.5784617721
 31
0.0
  0
LINE
  5
4E
330
1F
100
AcDbEntity
  8
0
  6
Continuous
 62
     7
370
    15
100
AcDbLine
 10
310.9194271938
 20
467.0784661829
 30
0.0
 11
309.7194366829
 21
467.0784661829
 31
0.0
  0
LINE
  5
4F
330
1F
100
AcDbEntity
  8
0
  6
Continuous
 62
     7
370
    15
100
AcDbLine
 10
310.9194271938
 20
97.0784614145
 30
0.0
 11
309.7194366829
 21
97.0784614145
 31
0.0
  0
LINE
  5
50
330
1F
100
AcDbEntity
  8
0
  6
Continuous
 62
     7
370
    15
100
AcDbLine
 10
309.7194366829
 20
444.0784642755
 30
0.0
 11
310.9194271938
 21
444.0784642755
 31
0.0
  0
LINE
  5
51
330
1F
100
AcDbEntity
  8
0
  6
Continuous
 62
     7
370
    15
100
AcDbLine
 10
309.7194366829
 20
74.0784595071
 30
0.0
 11
310.9194271938
 21
74.0784595071
 31
0.0
  0
LINE
  5
52
330
1F
100
AcDbEntity
  8
0
  6
Continuous
 62
     7
370
    15
100
AcDbLine
 10
822.4194281475
 20
429.5784572422
 30
0.0
 11
822.4194281475
 21
464.5784685671
 31
0.0
  0
LINE
  5
53
330
1F
100
AcDbEntity
  8
0
  6
Continuous
 62
     7
370
    15
100
AcDbLine
 10
822.4194281475
 20
76.578457123
 30
0.0
 11
822.4194281475
 21
111.5784684478
 31
0.0
  0
SPLINE
  5
54
330
1F
100
AcDbEntity
  8
0
  6
Continuous
 62
     7
370
    15
100
AcDbSpline
210
0.0
220
0.0
230
1.0
 70
     8
 71
     3
 72
    11
 73
     7
 74
     0
 42
0.00000001
 43
0.00000001
 40
0.0
 40
0.0
 40
0.0
 40
0.0
 40
0.2262262702538957
 40
0.4679469806289493
 40
0.7254864912811284
 40
1.0
 40
1.0
 40
1.0
 40
1.0
 10
307.2399430648417
 20
93.80889332882808
 30
0.0
 10
307.2427638032577
 20
93.78599415335646
 30
0.0
 10
307.2485984749932
 20
93.73862741734997
 30
0.0
 10
307.265365231118
 20
93.41384704158881
 30
0.0
 10
307.2789604323472
 20
92.91334820248956
 30
0.0
 10
307.279506846644
 20
92.48952648849887
 30
0.0
 10
307.2797887698741
 20
92.2708550750439
 30
0.0
  0
SPLINE
  5
55
330
1F
100
AcDbEntity
  8
0
  6
Continuous
 62
     7
370
    15
100
AcDbSpline
210
0.0
220
0.0
230
1.0
 70
     8
 71
     3
 72
    12
 73
     8
 74
     0
 42
0.00000001
 43
0.00000001
 40
0.0
 40
0.0
 40
0.0
 40
0.0
 40
0.2489469272997727
 40
0.4822949499668513
 40
0.6998133322848473
 40
0.9035365115921212
 40
1.0
 40
1.0
 40
1.0
 40
1.0
 10
307.279788769874
 20
78.71222890011711
 30
0.0
 10
307.2783628983714
 20
78.57489297102313
 30
0.0
 10
307.2756004998454
 20
78.30882652156149
 30
0.0
 10
307.2646996281729
 20
77.97302599731596
 30
0.0
 10
307.2621891032903
 20
77.73983789980934
 30
0.0
 10
307.2669786332771
 20
77.61975759673858
 30
0.0
 10
307.2934088687458
 20
77.61839877759974
 30
0.0
 10
307.3019020930857
 20
77.61796212784694
 30
0.0
  0
LINE
  5
56
330
1F
100
AcDbEntity
  8
0
  6
Continuous
 62
     7
370
    15
100
AcDbLine
 10
307.2789543048
 20
92.320863372
 30
0.0
 11
307.2789543048
 21
78.6622206032
 31
0.0
  0
LINE
  5
57
330
1F
100
AcDbEntity
  8
0
  6
Continuous
 62
     7
370
    15
100
AcDbLine
 10
305.7553105728
 20
96.2587485372
 30
0.0
 11
307.2426848785
 21
93.7785992681
 31
0.0
  0
LINE
  5
58
330
1F
100
AcDbEntity
  8
0
  6
Continuous
 62
     7
370
    15
100
AcDbLine
 10
309.7194366829
 20
95.4817125856
 30
0.0
 11
308.3281450645
 21
97.8016743719
 31
0.0
  0
LINE
  5
59
330
1F
100
AcDbEntity
  8
0
  6
Continuous
 62
     7
370
    15
100
AcDbLine
 10
307.3071771041
 20
77.485878235
 30
0.0
 11
305.7380848304
 21
74.8694578468
 31
0.0
  0
LINE
  5
5A
330
1F
100
AcDbEntity
  8
0
  6
Continuous
 62
     7
370
    15
100
AcDbLine
 10
308.3109193222
 20
73.3265320121
 30
0.0
 11
309.7194366829
 21
75.6752232372
 31
0.0
  0
LINE
  5
5B
330
1F
100
AcDbEntity
  8
0
  6
Continuous
 62
     7
370
    15
100
AcDbLine
 10
308.3480232135
 20
97.7661649048
 30
0.0
 11
308.2580798046
 21
97.8799501716
 31
0.0
  0
SPLINE
  5
5C
330
1F
100
AcDbEntity
  8
0
  6
Continuous
 62
     7
370
    15
100
AcDbSpline
210
0.0
220
0.0
230
1.0
 70
     8
 71
     3
 72
    20
 73
    16
 74
     0
 42
0.00000001
 43
0.00000001
 40
0.0
 40
0.0
 40
0.0
 40
0.0
 40
0.0337782405775034
 40
0.1101043005836477
 40
0.1739275687961039
 40
0.2252750761319386
 40
0.2665358011683992
 40
0.3037739527153129
 40
0.3388583768155924
 40
0.3726401412993329
 40
0.413918648772766
 40
0.6259829337212964
 40
0.8390270399522788
 40
0.9659476637516462
 40
1.0
 40
1.0
 40
1.0
 40
1.0
 10
308.1457548514933
 20
98.02201784245418
 30
0.0
 10
308.1051050139497
 20
98.0782015235742
 30
0.0
 10
307.9726019038094
 20
98.26133909403862
 30
0.0
 10
307.6627237162284
 20
98.43852113681817
 30
0.0
 10
307.2754504141951
 20
98.56146525774562
 30
0.0
 10
306.9055964869117
 20
98.57626966913435
 30
0.0
 10
306.5712816607652
 20
98.52567552329714
 30
0.0
 10
306.2968002761464
 20
98.42462683687869
 30
0.0
 10
306.0692964506775
 20
98.28990413580493
 30
0.0
 10
305.8632670299345
 20
98.11373029921006
 30
0.0
 10
305.5187025448082
 20
97.67124988323991
 30
0.0
 10
305.337624948713
 20
96.98455754069238
 30
0.0
 10
305.1879039192922
 20
95.80373616507693
 30
0.0
 10
305.1326988864744
 20
94.89909407506659
 30
0.0
 10
305.1261650174029
 20
94.48450600284775
 30
0.0
 10
305.1247828380198
 20
94.39680374257014
 30
0.0
  0
SPLINE
  5
5D
330
1F
100
AcDbEntity
  8
0
  6
Continuous
 62
     7
370
    15
100
AcDbSpline
210
0.0
220
0.0
230
1.0
 70
     8
 71
     3
 72
    19
 73
    15
 74
     0
 42
0.00000001
 43
0.00000001
 40
0.0
 40
0.0
 40
0.0
 40
0.0
 40
0.0102730642061893
 40
0.1295979022672064
 40
0.3268134704991493
 40
0.5525076129587677
 40
0.5858528710512171
 40
0.6186003406386424
 40
0.6529084856690517
 40
0.6960090804924961
 40
0.7523131382687676
 40
0.8223133472374703
 40
0.9054606696218666
 40
1.0
 40
1.0
 40
1.0
 40
1.0
 10
305.1219218150706
 20
76.77846050850795
 30
0.0
 10
305.1222449776663
 20
76.75126308193286
 30
0.0
 10
305.1263217743893
 20
76.408159080979
 30
0.0
 10
305.1661374609953
 20
75.58817834312215
 30
0.0
 10
305.3010966597531
 20
74.36573799979887
 30
0.0
 10
305.3915512672817
 20
73.72239161985259
 30
0.0
 10
305.7423794818326
 20
73.18228572083868
 30
0.0
 10
305.9116116366715
 20
72.99443656025684
 30
0.0
 10
306.1483342232318
 20
72.81795558328702
 30
0.0
 10
306.4619692676324
 20
72.66449140723077
 30
0.0
 10
306.865440992746
 20
72.56270484743646
 30
0.0
 10
307.351298686712
 20
72.58586548746868
 30
0.0
 10
307.8810531078003
 20
72.7961890017797
 30
0.0
 10
308.1462862726497
 20
73.11800834638483
 30
0.0
 10
308.2874052898021
 20
73.28923440567897
 30
0.0
  0
LINE
  5
5E
330
1F
100
AcDbEntity
  8
0
  6
Continuous
 62
     7
370
    15
100
AcDbLine
 10
301.8146090881
 20
89.4784668743
 30
0.0
 11
301.8146090881
 21
80.8784554064
 31
0.0
  0
LINE
  5
5F
330
1F
100
AcDbEntity
  8
0
  6
Continuous
 62
     7
370
    15
100
AcDbLine
 10
302.4194174186
 20
78.3784577905
 30
0.0
 11
302.4194174186
 21
77.5787124693
 31
0.0
  0
LINE
  5
60
330
1F
100
AcDbEntity
  8
0
  6
Continuous
 62
     7
370
    15
100
AcDbLine
 10
302.4194174186
 20
93.5782084524
 30
0.0
 11
302.4194174186
 21
92.7784631311
 31
0.0
  0
ARC
  5
61
330
1F
100
AcDbEntity
  8
0
  6
Continuous
 62
     7
370
    15
100
AcDbCircle
 10
306.0194271938
 20
90.7713199879
 30
0.0
 40
3.807142857143177
100
AcDbArc
 50
77.9663271603
 51
90.0
  0
ARC
  5
62
330
1F
100
AcDbEntity
  8
0
  6
Continuous
 62
     7
370
    15
100
AcDbCircle
 10
306.0194271938
 20
90.7713199879
 30
0.0
 40
3.80714285714331
100
AcDbArc
 50
90.0
 51
125.3002484399
  0
LINE
  5
63
330
1F
100
AcDbEntity
  8
0
  6
Continuous
 62
     7
370
    15
100
AcDbLine
 10
303.8194411174
 20
93.8784668504
 30
0.0
 11
303.8194411174
 21
93.5784617721
 31
0.0
  0
LINE
  5
64
330
1F
100
AcDbEntity
  8
0
  6
Continuous
 62
     7
370
    15
100
AcDbLine
 10
303.919427909
 20
77.1784672796
 30
0.0
 11
303.919427909
 21
76.7784605085
 31
0.0
  0
ARC
  5
65
330
1F
100
AcDbEntity
  8
0
  6
Continuous
 62
     7
370
    15
100
AcDbCircle
 10
304.1194271938
 20
77.578462845
 30
0.0
 40
0.4000000000007731
100
AcDbArc
 50
270.0
 51
0.0
  0
LINE
  5
66
330
1F
100
AcDbEntity
  8
0
  6
Continuous
 62
     7
370
    15
100
AcDbLine
 10
304.5194380657
 20
92.7784631311
 30
0.0
 11
304.5194380657
 21
92.3284629642
 31
0.0
  0
LINE
  5
67
330
1F
100
AcDbEntity
  8
0
  6
Continuous
 62
     7
370
    15
100
AcDbLine
 10
304.5194380657
 20
78.8284579574
 30
0.0
 11
304.5194380657
 21
78.3784577905
 31
0.0
  0
SPLINE
  5
68
330
1F
100
AcDbEntity
  8
0
  6
Continuous
 62
     7
370
    15
100
AcDbSpline
210
0.0
220
0.0
230
1.0
 70
     8
 71
     3
 72
    11
 73
     7
 74
     0
 42
0.00000001
 43
0.00000001
 40
0.0
 40
0.0
 40
0.0
 40
0.0
 40
0.2262262702538957
 40
0.4679469806289493
 40
0.7254864912811284
 40
1.0
 40
1.0
 40
1.0
 40
1.0
 10
307.2399430648417
 20
463.8088980971997
 30
0.0
 10
307.2427638032577
 20
463.785998921728
 30
0.0
 10
307.2485984749932
 20
463.7386321857214
 30
0.0
 10
307.265365231118
 20
463.4138518099605
 30
0.0
 10
307.2789604323472
 20
462.9133529708611
 30
0.0
 10
307.279506846644
 20
462.4895312568704
 30
0.0
 10
307.2797887698741
 20
462.2708598434155
 30
0.0
  0
SPLINE
  5
69
330
1F
100
AcDbEntity
  8
0
  6
Continuous
 62
     7
370
    15
100
AcDbSpline
210
0.0
220
0.0
230
1.0
 70
     8
 71
     3
 72
    12
 73
     8
 74
     0
 42
0.00000001
 43
0.00000001
 40
0.0
 40
0.0
 40
0.0
 40
0.0
 40
0.248946245326258
 40
0.4822936287519815
 40
0.699811415192867
 40
0.9035372363555159
 40
1.0
 40
1.0
 40
1.0
 40
1.0
 10
307.2797887698741
 20
448.7122336684888
 30
0.0
 10
307.2783629028165
 20
448.5748979906669
 30
0.0
 10
307.2756005129019
 20
448.308832028005
 30
0.0
 10
307.2646995811015
 20
447.9730281047892
 30
0.0
 10
307.2621892502086
 20
447.7398505271863
 30
0.0
 10
307.266978266359
 20
447.6197366886757
 30
0.0
 10
307.2934088688568
 20
447.6183972970533
 30
0.0
 10
307.3019020930857
 20
447.6179668962185
 30
0.0
  0
LINE
  5
6A
330
1F
100
AcDbEntity
  8
0
  6
Continuous
 62
     7
370
    15
100
AcDbLine
 10
307.2789543048
 20
462.3208532392
 30
0.0
 11
307.2789543048
 21
448.6622253715
 31
0.0
  0
LINE
  5
6B
330
1F
100
AcDbEntity
  8
0
  6
Continuous
 62
     7
370
    15
100
AcDbLine
 10
305.7553105728
 20
466.2587533056
 30
0.0
 11
307.2426848785
 21
463.7786040365
 31
0.0
  0
LINE
  5
6C
330
1F
100
AcDbEntity
  8
0
  6
Continuous
 62
     7
370
    15
100
AcDbLine
 10
309.7194366829
 20
465.4817024528
 30
0.0
 11
308.3281450645
 21
467.8016791403
 31
0.0
  0
LINE
  5
6D
330
1F
100
AcDbEntity
  8
0
  6
Continuous
 62
     7
370
    15
100
AcDbLine
 10
307.3071771041
 20
447.4858830034
 30
0.0
 11
305.7380848304
 21
444.8694626152
 31
0.0
  0
LINE
  5
6E
330
1F
100
AcDbEntity
  8
0
  6
Continuous
 62
     7
370
    15
100
AcDbLine
 10
308.3109193222
 20
443.3265367805
 30
0.0
 11
309.7194366829
 21
445.6752131044
 31
0.0
  0
LINE
  5
6F
330
1F
100
AcDbEntity
  8
0
  6
Continuous
 62
     7
370
    15
100
AcDbLine
 10
308.3480232135
 20
467.7661696731
 30
0.0
 11
308.2580798046
 21
467.87995494
 31
0.0
  0
SPLINE
  5
70
330
1F
100
AcDbEntity
  8
0
  6
Continuous
 62
     7
370
    15
100
AcDbSpline
210
0.0
220
0.0
230
1.0
 70
     8
 71
     3
 72
    20
 73
    16
 74
     0
 42
0.00000001
 43
0.00000001
 40
0.0
 40
0.0
 40
0.0
 40
0.0
 40
0.0337781961867609
 40
0.1101041558866011
 40
0.1739273402236921
 40
0.2252747800795772
 40
0.266535754440379
 40
0.303773201293483
 40
0.3388575792864577
 40
0.3726392993748248
 40
0.4139177526008025
 40
0.6259817588583504
 40
0.8390271471670725
 40
0.9659457882622028
 40
0.9999999999999999
 40
0.9999999999999999
 40
0.9999999999999999
 40
0.9999999999999999
 10
308.1457548514933
 20
468.0220226108258
 30
0.0
 10
308.1051050196841
 20
468.0782062637789
 30
0.0
 10
307.972601928236
 20
468.26134374243
 30
0.0
 10
307.6627234814385
 20
468.4385270584435
 30
0.0
 10
307.2754510614961
 20
468.5614668466667
 30
0.0
 10
306.9055940199634
 20
468.5762830583597
 30
0.0
 10
306.5712867046425
 20
468.5256559659577
 30
0.0
 10
306.2967970512531
 20
468.4246364274563
 30
0.0
 10
306.0692969020348
 20
468.2899075007828
 30
0.0
 10
305.8632668848207
 20
468.1137355192348
 30
0.0
 10
305.5187028186038
 20
467.6712537939466
 30
0.0
 10
305.3376235890772
 20
466.984562493429
 30
0.0
 10
305.1879055692925
 20
465.8037313370731
 30
0.0
 10
305.1326982293411
 20
464.8990897272836
 30
0.0
 10
305.1261649662524
 20
464.4845009153187
 30
0.0
 10
305.1247828380198
 20
464.3967936097806
 30
0.0
  0
SPLINE
  5
71
330
1F
100
AcDbEntity
  8
0
  6
Continuous
 62
     7
370
    15
100
AcDbSpline
210
0.0
220
0.0
230
1.0
 70
     8
 71
     3
 72
    19
 73
    15
 74
     0
 42
0.00000001
 43
0.00000001
 40
0.0
 40
0.0
 40
0.0
 40
0.0
 40
0.0102730591620062
 40
0.1295978386332668
 40
0.3268133100302814
 40
0.5525085352849364
 40
0.5858524794073283
 40
0.618601222407811
 40
0.6529082330224929
 40
0.6960088066830897
 40
0.7523132598856345
 40
0.8223134344834948
 40
0.905460716041677
 40
1.0
 40
1.0
 40
1.0
 40
1.0
 10
305.1219218150706
 20
446.7784652768796
 30
0.0
 10
305.1222449788033
 20
446.751267852227
 30
0.0
 10
305.1263217898717
 20
446.4081638755267
 30
0.0
 10
305.166136143565
 20
445.5881808841175
 30
0.0
 10
305.3011054795804
 20
444.3657544866083
 30
0.0
 10
305.3915285633734
 20
443.7223561886387
 30
0.0
 10
305.742387503219
 20
443.1822915323365
 30
0.0
 10
305.9116019464188
 20
442.9944239326913
 30
0.0
 10
306.1483407685944
 20
442.8179638863754
 30
0.0
 10
306.4619694742701
 20
442.6644973865118
 30
0.0
 10
306.8654391727043
 20
442.562688840529
 30
0.0
 10
307.3512989805317
 20
442.5858573962644
 30
0.0
 10
307.8810530165626
 20
442.7961782350308
 30
0.0
 10
308.1462862409644
 20
443.1179979934322
 30
0.0
 10
308.287405289802
 20
443.2892242728894
 30
0.0
  0
LINE
  5
72
330
1F
100
AcDbEntity
  8
0
  6
Continuous
 62
     7
370
    15
100
AcDbLine
 10
301.8146090881
 20
459.4784567415
 30
0.0
 11
301.8146090881
 21
450.8784601747
 31
0.0
  0
LINE
  5
73
330
1F
100
AcDbEntity
  8
0
  6
Continuous
 62
     7
370
    15
100
AcDbLine
 10
302.4194174186
 20
448.3784625589
 30
0.0
 11
302.4194174186
 21
447.5787172376
 31
0.0
  0
LINE
  5
74
330
1F
100
AcDbEntity
  8
0
  6
Continuous
 62
     7
370
    15
100
AcDbLine
 10
302.4194174186
 20
463.5782132208
 30
0.0
 11
302.4194174186
 21
462.7784678995
 31
0.0
  0
LINE
  5
75
330
1F
100
AcDbEntity
  8
0
  6
Continuous
 62
     7
370
    15
100
AcDbLine
 10
303.8194411174
 20
463.8784567177
 30
0.0
 11
303.8194411174
 21
463.5784665405
 31
0.0
  0
ARC
  5
76
330
1F
100
AcDbEntity
  8
0
  6
Continuous
 62
     7
370
    15
100
AcDbCircle
 10
306.0194271938
 20
460.7713199879
 30
0.0
 40
3.807142857143219
100
AcDbArc
 50
77.9663271603
 51
90.0
  0
ARC
  5
77
330
1F
100
AcDbEntity
  8
0
  6
Continuous
 62
     7
370
    15
100
AcDbCircle
 10
306.0194271938
 20
460.7713199879
 30
0.0
 40
3.807142857143368
100
AcDbArc
 50
90.0
 51
125.3002484399
  0
LINE
  5
78
330
1F
100
AcDbEntity
  8
0
  6
Continuous
 62
     7
370
    15
100
AcDbLine
 10
303.919427909
 20
447.1784571468
 30
0.0
 11
303.919427909
 21
446.7784652769
 31
0.0
  0
ARC
  5
79
330
1F
100
AcDbEntity
  8
0
  6
Continuous
 62
     7
370
    15
100
AcDbCircle
 10
304.1194271938
 20
447.578462845
 30
0.0
 40
0.4000000000007731
100
AcDbArc
 50
270.0
 51
0.0
  0
LINE
  5
7A
330
1F
100
AcDbEntity
  8
0
  6
Continuous
 62
     7
370
    15
100
AcDbLine
 10
304.5194380657
 20
462.7784678995
 30
0.0
 11
304.5194380657
 21
462.3284677326
 31
0.0
  0
LINE
  5
7B
330
1F
100
AcDbEntity
  8
0
  6
Continuous
 62
     7
370
    15
100
AcDbLine
 10
304.5194380657
 20
448.8284627258
 30
0.0
 11
304.5194380657
 21
448.3784625589
 31
0.0
  0
LINE
  5
7C
330
1F
100
AcDbEntity
  8
0
  6
Continuous
 62
     7
370
    15
100
AcDbLine
 10
822.4194281475
 20
40.5784586727
 30
0.0
 11
822.4194281475
 21
75.5784699976
 31
0.0
  0
LINE
  5
7D
330
1F
100
AcDbEntity
  8
0
  6
Continuous
 62
     7
370
    15
100
AcDbLine
 10
822.4194281475
 20
465.5784556925
 30
0.0
 11
822.4194281475
 21
500.5784670173
 31
0.0
  0
LINE
  5
7E
330
1F
100
AcDbEntity
  8
0
  6
Continuous
 62
     7
370
    15
100
AcDbLine
 10
819.419436969
 20
75.5784699976
 30
0.0
 11
819.419436969
 21
76.578457123
 31
0.0
  0
LINE
  5
7F
330
1F
100
AcDbEntity
  8
0
  6
Continuous
 62
     7
370
    15
100
AcDbLine
 10
819.419436969
 20
111.5784684478
 30
0.0
 11
819.419436969
 21
112.5784555732
 31
0.0
  0
LINE
  5
80
330
1F
100
AcDbEntity
  8
0
  6
Continuous
 62
     7
370
    15
100
AcDbLine
 10
814.4194417373
 20
112.5784555732
 30
0.0
 11
814.4194417373
 21
111.5784684478
 31
0.0
  0
LINE
  5
81
330
1F
100
AcDbEntity
  8
0
  6
Continuous
 62
     7
370
    15
100
AcDbLine
 10
814.4194417373
 20
76.578457123
 30
0.0
 11
814.4194417373
 21
75.5784699976
 31
0.0
  0
LINE
  5
82
330
1F
100
AcDbEntity
  8
0
  6
Continuous
 62
     7
370
    15
100
AcDbLine
 10
814.4194417373
 20
465.5784556925
 30
0.0
 11
814.4194417373
 21
464.5784685671
 31
0.0
  0
LINE
  5
83
330
1F
100
AcDbEntity
  8
0
  6
Continuous
 62
     7
370
    15
100
AcDbLine
 10
814.4194417373
 20
429.5784572422
 30
0.0
 11
814.4194417373
 21
428.5784701168
 31
0.0
  0
LINE
  5
84
330
1F
100
AcDbEntity
  8
0
  6
Continuous
 62
     7
370
    15
100
AcDbLine
 10
819.419436969
 20
428.5784701168
 30
0.0
 11
819.419436969
 21
429.5784572422
 31
0.0
  0
LINE
  5
85
330
1F
100
AcDbEntity
  8
0
  6
Continuous
 62
     7
370
    15
100
AcDbLine
 10
819.419436969
 20
464.5784685671
 30
0.0
 11
819.419436969
 21
465.5784556925
 31
0.0
  0
LINE
  5
86
330
1F
100
AcDbEntity
  8
0
  6
Continuous
 62
     7
370
    15
100
AcDbLine
 10
302.6194208042
 20
79.121280676
 30
0.0
 11
302.6194208042
 21
78.8284579574
 31
0.0
  0
LINE
  5
87
330
1F
100
AcDbEntity
  8
0
  6
Continuous
 62
     7
370
    15
100
AcDbLine
 10
302.6194208042
 20
92.3284629642
 30
0.0
 11
302.6194208042
 21
92.0356551468
 31
0.0
  0
LINE
  5
88
330
1F
100
AcDbEntity
  8
0
  6
Continuous
 62
     7
370
    15
100
AcDbLine
 10
302.6194208042
 20
449.1212705433
 30
0.0
 11
302.6194208042
 21
448.8284627258
 31
0.0
  0
LINE
  5
89
330
1F
100
AcDbEntity
  8
0
  6
Continuous
 62
     7
370
    15
100
AcDbLine
 10
302.6194208042
 20
462.3284677326
 30
0.0
 11
302.6194208042
 21
462.035645014
 31
0.0
  0
LINE
  5
8A
330
1F
100
AcDbEntity
  8
0
  6
Continuous
 62
     7
370
    15
100
AcDbLine
 10
310.9194271938
 20
505.578462249
 30
0.0
 11
325.9194277898
 21
505.578462249
 31
0.0
  0
ARC
  5
8B
330
1F
100
AcDbEntity
  8
0
  6
Continuous
 62
     7
370
    15
100
AcDbCircle
 10
325.9194271938
 20
505.578462845
 30
0.0
 40
15.00000000000006
100
AcDbArc
 50
90.0
 51
180.0
  0
LINE
  5
8C
330
1F
100
AcDbEntity
  8
0
  6
Continuous
 62
     7
370
    15
100
AcDbLine
 10
325.9194277898
 20
505.578462249
 30
0.0
 11
325.9194277898
 21
520.578462845
 31
0.0
  0
LINE
  5
8D
330
1F
100
AcDbEntity
  8
0
  6
Continuous
 62
     7
370
    15
100
AcDbLine
 10
325.9194277898
 20
35.5784634411
 30
0.0
 11
325.9194277898
 21
505.578462249
 31
0.0
  0
LINE
  5
8E
330
1F
100
AcDbEntity
  8
0
  6
Continuous
 62
     7
370
    15
100
AcDbLine
 10
310.9194271938
 20
35.5784634411
 30
0.0
 11
325.9194277898
 21
35.5784634411
 31
0.0
  0
LINE
  5
8F
330
1F
100
AcDbEntity
  8
0
  6
Continuous
 62
     7
370
    15
100
AcDbLine
 10
310.9194271938
 20
75.5909720718
 30
0.0
 11
310.9194271938
 21
35.5784634411
 31
0.0
  0
LINE
  5
90
330
1F
100
AcDbEntity
  8
0
  6
Continuous
 62
     7
370
    15
100
AcDbLine
 10
310.9194271938
 20
95.5659488498
 30
0.0
 11
310.9194271938
 21
445.5909768402
 31
0.0
  0
LINE
  5
91
330
1F
100
AcDbEntity
  8
0
  6
Continuous
 62
     7
370
    15
100
AcDbLine
 10
310.9194271938
 20
465.5659536182
 30
0.0
 11
310.9194271938
 21
505.578462249
 31
0.0
  0
LINE
  5
92
330
1F
100
AcDbEntity
  8
0
  6
Continuous
 62
     7
370
    15
100
AcDbLine
 10
325.9194277898
 20
520.578462845
 30
0.0
 11
795.9194265977
 21
520.578462845
 31
0.0
  0
LINE
  5
93
330
1F
100
AcDbEntity
  8
0
  6
Continuous
 62
     7
370
    15
100
AcDbLine
 10
795.9194265977
 20
520.578462845
 30
0.0
 11
795.9194265977
 21
505.578462249
 31
0.0
  0
LINE
  5
94
330
1F
100
AcDbEntity
  8
0
  6
Continuous
 62
     7
370
    15
100
AcDbLine
 10
325.9194277898
 20
505.578462249
 30
0.0
 11
795.9194265977
 21
505.578462249
 31
0.0
  0
LINE
  5
95
330
1F
100
AcDbEntity
  8
0
  6
Continuous
 62
     7
370
    15
100
AcDbLine
 10
795.9194265977
 20
35.5784634411
 30
0.0
 11
795.9194265977
 21
505.578462249
 31
0.0
  0
LINE
  5
96
330
1F
100
AcDbEntity
  8
0
  6
Continuous
 62
     7
370
    15
100
AcDbLine
 10
325.9194277898
 20
35.5784634411
 30
0.0
 11
795.9194265977
 21
35.5784634411
 31
0.0
  0
LINE
  5
97
330
1F
100
AcDbEntity
  8
0
  6
Continuous
 62
     7
370
    15
100
AcDbLine
 10
790.9194313661
 20
40.5784586727
 30
0.0
 11
330.9194230215
 21
40.5784586727
 31
0.0
  0
LINE
  5
98
330
1F
100
AcDbEntity
  8
0
  6
Continuous
 62
     7
370
    15
100
AcDbLine
 10
790.9194313661
 20
40.5784586727
 30
0.0
 11
790.9194313661
 21
500.5784670173
 31
0.0
  0
LINE
  5
99
330
1F
100
AcDbEntity
  8
0
  6
Continuous
 62
     7
370
    15
100
AcDbLine
 10
330.9194230215
 20
40.5784586727
 30
0.0
 11
330.9194230215
 21
500.5784670173
 31
0.0
  0
LINE
  5
9A
330
1F
100
AcDbEntity
  8
0
  6
Continuous
 62
     7
370
    15
100
AcDbLine
 10
330.9194230215
 20
500.5784670173
 30
0.0
 11
790.9194313661
 21
500.5784670173
 31
0.0
  0
LINE
  5
9B
330
1F
100
AcDbEntity
  8
0
  6
Continuous
 62
     7
370
    15
100
AcDbLine
 10
810.9194271938
 20
505.578462249
 30
0.0
 11
795.9194265977
 21
505.578462249
 31
0.0
  0
LINE
  5
9C
330
1F
100
AcDbEntity
  8
0
  6
Continuous
 62
     7
370
    15
100
AcDbLine
 10
810.9194271938
 20
35.5784634411
 30
0.0
 11
810.9194271938
 21
505.578462249
 31
0.0
  0
LINE
  5
9D
330
1F
100
AcDbEntity
  8
0
  6
Continuous
 62
     7
370
    15
100
AcDbLine
 10
795.9194265977
 20
35.5784634411
 30
0.0
 11
810.9194271938
 21
35.5784634411
 31
0.0
  0
ARC
  5
9E
330
1F
100
AcDbEntity
  8
0
  6
Continuous
 62
     7
370
    15
100
AcDbCircle
 10
795.9194271938
 20
505.578462845
 30
0.0
 40
15.00000000000006
100
AcDbArc
 50
0.0
 51
90.0
  0
LINE
  5
9F
330
1F
100
AcDbEntity
  8
0
  6
Continuous
 62
     7
370
    15
100
AcDbLine
 10
325.9194277898
 20
20.578462845
 30
0.0
 11
795.9194265977
 21
20.578462845
 31
0.0
  0
LINE
  5
A0
330
1F
100
AcDbEntity
  8
0
  6
Continuous
 62
     7
370
    15
100
AcDbLine
 10
325.9194277898
 20
20.578462845
 30
0.0
 11
325.9194277898
 21
35.5784634411
 31
0.0
  0
LINE
  5
A1
330
1F
100
AcDbEntity
  8
0
  6
Continuous
 62
     7
370
    15
100
AcDbLine
 10
795.9194265977
 20
35.5784634411
 30
0.0
 11
795.9194265977
 21
20.578462845
 31
0.0
  0
ARC
  5
A2
330
1F
100
AcDbEntity
  8
0
  6
Continuous
 62
     7
370
    15
100
AcDbCircle
 10
325.9194271938
 20
35.578462845
 30
0.0
 40
15.00000000000001
100
AcDbArc
 50
180.0
 51
270.0
  0
ARC
  5
A3
330
1F
100
AcDbEntity
  8
0
  6
Continuous
 62
     7
370
    15
100
AcDbCircle
 10
795.9194271938
 20
35.578462845
 30
0.0
 40
15.0
100
AcDbArc
 50
270.0
 51
0.0
  0
LINE
  5
A4
330
1F
100
AcDbEntity
  8
0
  6
Continuous
 62
     7
370
    15
100
AcDbLine
 10
309.7194366829
 20
466.612939006
 30
0.0
 11
310.9194271938
 21
466.612939006
 31
0.0
  0
LINE
  5
A5
330
1F
100
AcDbEntity
  8
0
  6
Continuous
 62
     7
370
    15
100
AcDbLine
 10
310.9194271938
 20
465.5659536182
 30
0.0
 11
310.9194271938
 21
445.5909768402
 31
0.0
  0
LINE
  5
A6
330
1F
100
AcDbEntity
  8
0
  6
Continuous
 62
     7
370
    15
100
AcDbLine
 10
309.7194366829
 20
444.5439765512
 30
0.0
 11
310.9194271938
 21
444.5439765512
 31
0.0
  0
LINE
  5
A7
330
1F
100
AcDbEntity
  8
0
  6
Continuous
 62
     7
370
    15
100
AcDbLine
 10
309.7194366829
 20
444.5439765512
 30
0.0
 11
309.7194366829
 21
466.612939006
 31
0.0
  0
LINE
  5
A8
330
1F
100
AcDbEntity
  8
0
  6
Continuous
 62
     7
370
    15
100
AcDbLine
 10
309.7194366829
 20
96.6129491388
 30
0.0
 11
310.9194271938
 21
96.6129491388
 31
0.0
  0
LINE
  5
A9
330
1F
100
AcDbEntity
  8
0
  6
Continuous
 62
     7
370
    15
100
AcDbLine
 10
309.7194366829
 20
74.543986684
 30
0.0
 11
310.9194271938
 21
74.543986684
 31
0.0
  0
LINE
  5
AA
330
1F
100
AcDbEntity
  8
0
  6
Continuous
 62
     7
370
    15
100
AcDbLine
 10
309.7194366829
 20
74.543986684
 30
0.0
 11
309.7194366829
 21
96.6129491388
 31
0.0
  0
LINE
  5
AB
330
1F
100
AcDbEntity
  8
0
  6
Continuous
 62
     7
370
    15
100
AcDbLine
 10
310.9194271938
 20
95.5659488498
 30
0.0
 11
310.9194271938
 21
75.5909720718
 31
0.0
  0
LINE
  5
AC
330
1F
100
AcDbEntity
  8
0
  6
Continuous
 62
     7
370
    15
100
AcDbLine
 10
309.6194200889
 20
447.5784639179
 30
0.0
 11
309.6194200889
 21
453.5784611761
 31
0.0
  0
LINE
  5
AD
330
1F
100
AcDbEntity
  8
0
  6
Continuous
 62
     7
370
    15
100
AcDbLine
 10
309.6194200889
 20
460.5784604608
 30
0.0
 11
309.6194200889
 21
463.5784665405
 31
0.0
  0
LINE
  5
AE
330
1F
100
AcDbEntity
  8
0
  6
Continuous
 62
     7
370
    15
100
AcDbLine
 10
309.6194200889
 20
457.5784692823
 30
0.0
 11
309.6194200889
 21
460.5784604608
 31
0.0
  0
LINE
  5
AF
330
1F
100
AcDbEntity
  8
0
  6
Continuous
 62
     7
370
    15
100
AcDbLine
 10
309.6194200889
 20
77.5784591495
 30
0.0
 11
309.6194200889
 21
83.5784564077
 31
0.0
  0
LINE
  5
B0
330
1F
100
AcDbEntity
  8
0
  6
Continuous
 62
     7
370
    15
100
AcDbLine
 10
309.6194200889
 20
90.5784556925
 30
0.0
 11
309.6194200889
 21
93.5784617721
 31
0.0
  0
LINE
  5
B1
330
1F
100
AcDbEntity
  8
0
  6
Continuous
 62
     7
370
    15
100
AcDbLine
 10
309.6194200889
 20
87.5784645139
 30
0.0
 11
309.6194200889
 21
90.5784556925
 31
0.0
  0
LINE
  5
B2
330
1F
100
AcDbEntity
  8
0
  6
Continuous
 62
     7
370
    15
100
AcDbLine
 10
309.7194366829
 20
466.612939006
 30
0.0
 11
309.7194366829
 21
467.0784661829
 31
0.0
  0
LINE
  5
B3
330
1F
100
AcDbEntity
  8
0
  6
Continuous
 62
     7
370
    15
100
AcDbLine
 10
309.7194366829
 20
96.6129491388
 30
0.0
 11
309.7194366829
 21
97.0784614145
 31
0.0
  0
LINE
  5
B4
330
1F
100
AcDbEntity
  8
0
  6
Continuous
 62
     7
370
    15
100
AcDbLine
 10
309.7194366829
 20
444.0784642755
 30
0.0
 11
309.7194366829
 21
444.5439765512
 31
0.0
  0
LINE
  5
B5
330
1F
100
AcDbEntity
  8
0
  6
Continuous
 62
     7
370
    15
100
AcDbLine
 10
309.7194366829
 20
74.0784595071
 30
0.0
 11
309.7194366829
 21
74.543986684
 31
0.0
  0
LINE
  5
B6
330
1F
100
AcDbEntity
  8
0
  6
Continuous
 62
     7
370
    15
100
AcDbLine
 10
811.8207984344
 20
429.5784572422
 30
0.0
 11
822.4194281475
 21
429.5784572422
 31
0.0
  0
LINE
  5
B7
330
1F
100
AcDbEntity
  8
0
  6
Continuous
 62
     7
370
    15
100
AcDbLine
 10
811.8207984344
 20
464.5784685671
 30
0.0
 11
811.8207984344
 21
429.5784572422
 31
0.0
  0
LINE
  5
B8
330
1F
100
AcDbEntity
  8
0
  6
Continuous
 62
     7
370
    15
100
AcDbLine
 10
811.8207984344
 20
464.5784685671
 30
0.0
 11
822.4194281475
 21
464.5784685671
 31
0.0
  0
LINE
  5
B9
330
1F
100
AcDbEntity
  8
0
  6
Continuous
 62
     7
370
    15
100
AcDbLine
 10
811.8207984344
 20
111.5784684478
 30
0.0
 11
811.8207984344
 21
76.578457123
 31
0.0
  0
LINE
  5
BA
330
1F
100
AcDbEntity
  8
0
  6
Continuous
 62
     7
370
    15
100
AcDbLine
 10
811.8207984344
 20
111.5784684478
 30
0.0
 11
822.4194281475
 21
111.5784684478
 31
0.0
  0
LINE
  5
BB
330
1F
100
AcDbEntity
  8
0
  6
Continuous
 62
     7
370
    15
100
AcDbLine
 10
811.8207984344
 20
76.578457123
 30
0.0
 11
822.4194281475
 21
76.578457123
 31
0.0
  0
LINE
  5
BC
330
1F
100
AcDbEntity
  8
0
  6
Continuous
 62
     7
370
    15
100
AcDbLine
 10
811.3572829143
 20
464.5784685671
 30
0.0
 11
811.3572829143
 21
429.5784572422
 31
0.0
  0
LINE
  5
BD
330
1F
100
AcDbEntity
  8
0
  6
Continuous
 62
     7
370
    15
100
AcDbLine
 10
811.3572829143
 20
429.5784572422
 30
0.0
 11
811.8207984344
 21
429.5784572422
 31
0.0
  0
LINE
  5
BE
330
1F
100
AcDbEntity
  8
0
  6
Continuous
 62
     7
370
    15
100
AcDbLine
 10
811.3572829143
 20
464.5784685671
 30
0.0
 11
811.8207984344
 21
464.5784685671
 31
0.0
  0
LINE
  5
BF
330
1F
100
AcDbEntity
  8
0
  6
Continuous
 62
     7
370
    15
100
AcDbLine
 10
811.3572829143
 20
111.5784684478
 30
0.0
 11
811.3572829143
 21
76.578457123
 31
0.0
  0
LINE
  5
C0
330
1F
100
AcDbEntity
  8
0
  6
Continuous
 62
     7
370
    15
100
AcDbLine
 10
811.3572829143
 20
111.5784684478
 30
0.0
 11
811.8207984344
 21
111.5784684478
 31
0.0
  0
LINE
  5
C1
330
1F
100
AcDbEntity
  8
0
  6
Continuous
 62
     7
370
    15
100
AcDbLine
 10
811.3572829143
 20
76.578457123
 30
0.0
 11
811.8207984344
 21
76.578457123
 31
0.0
  0
LINE
  5
C2
330
1F
100
AcDbEntity
  8
0
  6
Continuous
 62
     7
370
    15
100
AcDbLine
 10
810.9194271938
 20
429.5784572422
 30
0.0
 11
811.3572829143
 21
429.5784572422
 31
0.0
  0
LINE
  5
C3
330
1F
100
AcDbEntity
  8
0
  6
Continuous
 62
     7
370
    15
100
AcDbLine
 10
810.9194271938
 20
464.5784685671
 30
0.0
 11
811.3572829143
 21
464.5784685671
 31
0.0
  0
LINE
  5
C4
330
1F
100
AcDbEntity
  8
0
  6
Continuous
 62
     7
370
    15
100
AcDbLine
 10
810.9194271938
 20
111.5784684478
 30
0.0
 11
811.3572829143
 21
111.5784684478
 31
0.0
  0
LINE
  5
C5
330
1F
100
AcDbEntity
  8
0
  6
Continuous
 62
     7
370
    15
100
AcDbLine
 10
810.9194271938
 20
76.578457123
 30
0.0
 11
811.3572829143
 21
76.578457123
 31
0.0
  0
ARC
  5
C6
330
1F
100
AcDbEntity
  8
0
  6
Continuous
 62
     7
370
    15
100
AcDbCircle
 10
303.7420865296
 20
460.9896419566
 30
0.0
 40
1.097792225978413
100
AcDbArc
 50
97.3327518516
 51
185.8124647246
  0
LINE
  5
C7
330
1F
100
AcDbEntity
  8
0
  6
Continuous
 62
     7
370
    15
100
AcDbLine
 10
303.601973571
 20
462.0784560501
 30
0.0
 11
307.1454100982
 21
462.0784560501
 31
0.0
  0
LINE
  5
C8
330
1F
100
AcDbEntity
  8
0
  6
Continuous
 62
     7
370
    15
100
AcDbLine
 10
307.1454100982
 20
462.0784560501
 30
0.0
 11
307.1454100982
 21
449.0784595071
 31
0.0
  0
LINE
  5
C9
330
1F
100
AcDbEntity
  8
0
  6
Continuous
 62
     7
370
    15
100
AcDbLine
 10
307.1454100982
 20
449.0784595071
 30
0.0
 11
303.601973571
 21
449.0784595071
 31
0.0
  0
ARC
  5
CA
330
1F
100
AcDbEntity
  8
0
  6
Continuous
 62
     7
370
    15
100
AcDbCircle
 10
303.742103932
 20
450.1672887877
 30
0.0
 40
1.09780950999836
100
AcDbArc
 50
174.1876420989
 51
262.6664484898
  0
LINE
  5
CB
330
1F
100
AcDbEntity
  8
0
  6
Continuous
 62
     7
370
    15
100
AcDbLine
 10
302.6499383823
 20
460.8784655391
 30
0.0
 11
302.6499383823
 21
450.2784649193
 31
0.0
  0
LINE
  5
CC
330
1F
100
AcDbEntity
  8
0
  6
Continuous
 62
     7
370
    15
100
AcDbLine
 10
302.8714590446
 20
462.0784560501
 30
0.0
 11
303.601973571
 21
462.0784560501
 31
0.0
  0
LINE
  5
CD
330
1F
100
AcDbEntity
  8
0
  6
Continuous
 62
     7
370
    15
100
AcDbLine
 10
302.6499383823
 20
460.8784655391
 30
0.0
 11
301.9194238559
 21
460.8784655391
 31
0.0
  0
ARC
  5
CE
330
1F
100
AcDbEntity
  8
0
  6
Continuous
 62
     7
370
    15
100
AcDbCircle
 10
303.0115720032
 20
460.9896419566
 30
0.0
 40
1.097792225978413
100
AcDbArc
 50
97.3327518516
 51
185.8124647246
  0
LINE
  5
CF
330
1F
100
AcDbEntity
  8
0
  6
Continuous
 62
     7
370
    15
100
AcDbLine
 10
303.601973571
 20
449.0784595071
 30
0.0
 11
302.8714590446
 21
449.0784595071
 31
0.0
  0
ARC
  5
D0
330
1F
100
AcDbEntity
  8
0
  6
Continuous
 62
     7
370
    15
100
AcDbCircle
 10
303.0115894057
 20
450.1672887877
 30
0.0
 40
1.09780950999836
100
AcDbArc
 50
174.1876420989
 51
262.6664484898
  0
LINE
  5
D1
330
1F
100
AcDbEntity
  8
0
  6
Continuous
 62
     7
370
    15
100
AcDbLine
 10
301.9194238559
 20
450.2784649193
 30
0.0
 11
302.6499383823
 21
450.2784649193
 31
0.0
  0
LINE
  5
D2
330
1F
100
AcDbEntity
  8
0
  6
Continuous
 62
     7
370
    15
100
AcDbLine
 10
301.9194238559
 20
460.8784655391
 30
0.0
 11
301.9194238559
 21
450.2784649193
 31
0.0
  0
LINE
  5
D3
330
1F
100
AcDbEntity
  8
0
  6
Continuous
 62
     7
370
    15
100
AcDbLine
 10
302.8714590446
 20
92.0784661829
 30
0.0
 11
303.601973571
 21
92.0784661829
 31
0.0
  0
ARC
  5
D4
330
1F
100
AcDbEntity
  8
0
  6
Continuous
 62
     7
370
    15
100
AcDbCircle
 10
303.742103932
 20
90.9896369023
 30
0.0
 40
1.097809509998397
100
AcDbArc
 50
97.3335515102
 51
185.8123579011
  0
LINE
  5
D5
330
1F
100
AcDbEntity
  8
0
  6
Continuous
 62
     7
370
    15
100
AcDbLine
 10
302.6499383823
 20
90.8784607708
 30
0.0
 11
301.9194238559
 21
90.8784607708
 31
0.0
  0
ARC
  5
D6
330
1F
100
AcDbEntity
  8
0
  6
Continuous
 62
     7
370
    15
100
AcDbCircle
 10
303.0115894057
 20
90.9896369023
 30
0.0
 40
1.097809509998383
100
AcDbArc
 50
97.3335515102
 51
185.8123579011
  0
LINE
  5
D7
330
1F
100
AcDbEntity
  8
0
  6
Continuous
 62
     7
370
    15
100
AcDbLine
 10
303.601973571
 20
92.0784661829
 30
0.0
 11
307.1454100982
 21
92.0784661829
 31
0.0
  0
LINE
  5
D8
330
1F
100
AcDbEntity
  8
0
  6
Continuous
 62
     7
370
    15
100
AcDbLine
 10
307.1454100982
 20
92.0784661829
 30
0.0
 11
307.1454100982
 21
79.0784696399
 31
0.0
  0
LINE
  5
D9
330
1F
100
AcDbEntity
  8
0
  6
Continuous
 62
     7
370
    15
100
AcDbLine
 10
307.1454100982
 20
79.0784696399
 30
0.0
 11
303.601973571
 21
79.0784696399
 31
0.0
  0
ARC
  5
DA
330
1F
100
AcDbEntity
  8
0
  6
Continuous
 62
     7
370
    15
100
AcDbCircle
 10
303.7420865296
 20
80.1672837335
 30
0.0
 40
1.097792225978371
100
AcDbArc
 50
174.1875352754
 51
262.6672481484
  0
LINE
  5
DB
330
1F
100
AcDbEntity
  8
0
  6
Continuous
 62
     7
370
    15
100
AcDbLine
 10
302.6499383823
 20
90.8784607708
 30
0.0
 11
302.6499383823
 21
80.2784601509
 31
0.0
  0
LINE
  5
DC
330
1F
100
AcDbEntity
  8
0
  6
Continuous
 62
     7
370
    15
100
AcDbLine
 10
301.9194238559
 20
80.2784601509
 30
0.0
 11
302.6499383823
 21
80.2784601509
 31
0.0
  0
LINE
  5
DD
330
1F
100
AcDbEntity
  8
0
  6
Continuous
 62
     7
370
    15
100
AcDbLine
 10
301.9194238559
 20
90.8784607708
 30
0.0
 11
301.9194238559
 21
80.2784601509
 31
0.0
  0
LINE
  5
DE
330
1F
100
AcDbEntity
  8
0
  6
Continuous
 62
     7
370
    15
100
AcDbLine
 10
303.601973571
 20
79.0784696399
 30
0.0
 11
302.8714590446
 21
79.0784696399
 31
0.0
  0
ARC
  5
DF
330
1F
100
AcDbEntity
  8
0
  6
Continuous
 62
     7
370
    15
100
AcDbCircle
 10
303.0115720032
 20
80.1672837335
 30
0.0
 40
1.097792225978371
100
AcDbArc
 50
174.1875352754
 51
262.6672481484
  0
LINE
  5
E0
330
1F
100
AcDbEntity
  8
0
  6
Continuous
 62
     7
370
    15
100
AcDbLine
 10
307.2453670875
 20
462.0784560501
 30
0.0
 11
307.1454100982
 21
462.0784560501
 31
0.0
  0
LINE
  5
E1
330
1F
100
AcDbEntity
  8
0
  6
Continuous
 62
     7
370
    15
100
AcDbLine
 10
307.1454100982
 20
449.0784595071
 30
0.0
 11
307.2789543048
 21
449.0784595071
 31
0.0
  0
LINE
  5
E2
330
1F
100
AcDbEntity
  8
0
  6
Continuous
 62
     7
370
    15
100
AcDbLine
 10
307.2453670875
 20
92.0784661829
 30
0.0
 11
307.1454100982
 21
92.0784661829
 31
0.0
  0
LINE
  5
E3
330
1F
100
AcDbEntity
  8
0
  6
Continuous
 62
     7
370
    15
100
AcDbLine
 10
307.1454100982
 20
79.0784696399
 30
0.0
 11
307.2789543048
 21
79.0784696399
 31
0.0
  0
SPLINE
  5
E4
330
1F
100
AcDbEntity
  8
0
  6
Continuous
 62
     7
370
    15
100
AcDbSpline
210
0.0
220
0.0
230
1.0
 70
    24
 71
     3
 72
    12
 73
     8
 74
     0
 42
0.00000001
 43
0.00000001
 40
0.0
 40
0.0
 40
0.0
 40
0.0
 40
0.2185041607748386
 40
0.4370097499429002
 40
0.655519261637946
 40
0.8740302225829159
 40
1.0
 40
1.0
 40
1.0
 40
1.0
 10
309.0787761584849
 20
92.2708550750439
 30
0.0
 10
308.8820557382081
 20
92.27085507504395
 30
0.0
 10
308.4886136116648
 20
92.27085507504395
 30
0.0
 10
307.9278661704861
 20
92.27085507504381
 30
0.0
 10
307.5101706517136
 20
92.27085507504384
 30
0.0
 10
307.2836077238715
 20
92.27085507504393
 30
0.0
 10
307.3011497596053
 20
92.27085507504393
 30
0.0
 10
307.3075645343394
 20
92.2708550750439
 30
0.0
  0
SPLINE
  5
E5
330
1F
100
AcDbEntity
  8
0
  6
Continuous
 62
     7
370
    15
100
AcDbSpline
210
0.0
220
0.0
230
1.0
 70
    24
 71
     3
 72
     9
 73
     5
 74
     0
 42
0.00000001
 43
0.00000001
 40
0.0
 40
0.0
 40
0.0
 40
0.0
 40
0.0025321438812077
 40
1.0
 40
1.0
 40
1.0
 40
1.0
 10
309.6194200889201
 20
92.2708550750439
 30
0.0
 10
309.6190725330486
 20
92.27085507504387
 30
0.0
 10
309.4818149806347
 20
92.27085507504479
 30
0.0
 10
309.2800401080553
 20
92.27085507504432
 30
0.0
 10
309.0787761584849
 20
92.2708550750439
 30
0.0
  0
SPLINE
  5
E6
330
1F
100
AcDbEntity
  8
0
  6
Continuous
 62
     7
370
    15
100
AcDbSpline
210
0.0
220
0.0
230
1.0
 70
     8
 71
     3
 72
    13
 73
     9
 74
     0
 42
0.00000001
 43
0.00000001
 40
0.0
 40
0.0
 40
0.0
 40
0.0
 40
0.1877398966408376
 40
0.3754722616290774
 40
0.5632107834800232
 40
0.7509496527106702
 40
0.9386874459079386
 40
1.0
 40
1.0
 40
1.0
 40
1.0
 10
308.7854915038676
 20
95.88569796673701
 30
0.0
 10
308.5887951427789
 20
95.88299514233306
 30
0.0
 10
308.195410311565
 20
95.87758960195575
 30
0.0
 10
307.6623887577696
 20
95.58706822787936
 30
0.0
 10
307.2718668224283
 20
95.13216533618623
 30
0.0
 10
307.0989234682556
 20
94.57047929221729
 30
0.0
 10
307.1022057545379
 20
94.09728846723864
 30
0.0
 10
307.2295211149303
 20
93.8758505708355
 30
0.0
 10
307.2608642951579
 20
93.82133579842494
 30
0.0
  0
SPLINE
  5
E7
330
1F
100
AcDbEntity
  8
0
  6
Continuous
 62
     7
370
    15
100
AcDbSpline
210
0.0
220
0.0
230
1.0
 70
     8
 71
     3
 72
    10
 73
     6
 74
     0
 42
0.00000001
 43
0.00000001
 40
0.0
 40
0.0
 40
0.0
 40
0.0
 40
0.2093416182926
 40
0.604679116926638
 40
1.0
 40
1.0
 40
1.0
 40
1.0
 10
309.9226587192149
 20
95.07957494847224
 30
0.0
 10
309.880963066212
 20
95.17264455799464
 30
0.0
 10
309.7605259985942
 20
95.44147428118913
 30
0.0
 10
309.3537808841236
 20
95.75809071376906
 30
0.0
 10
308.9749186433763
 20
95.84316281167327
 30
0.0
 10
308.7854915038676
 20
95.88569796673701
 30
0.0
  0
SPLINE
  5
E8
330
1F
100
AcDbEntity
  8
0
  6
Continuous
 62
     7
370
    15
100
AcDbSpline
210
0.0
220
0.0
230
1.0
 70
     8
 71
     3
 72
    13
 73
     9
 74
     0
 42
0.00000001
 43
0.00000001
 40
0.0
 40
0.0
 40
0.0
 40
0.0
 40
0.1768666446852921
 40
0.3537286573976354
 40
0.5305943864519905
 40
0.7074561960043457
 40
0.8843212386046765
 40
1.0
 40
1.0
 40
1.0
 40
1.0
 10
308.7682657615275
 20
75.2425084172909
 30
0.0
 10
308.5715931459691
 20
75.24520064012127
 30
0.0
 10
308.1782530655252
 20
75.25058501527518
 30
0.0
 10
307.6448728794431
 20
75.54126893229422
 30
0.0
 10
307.2557464924518
 20
75.99562657116508
 30
0.0
 10
307.0775822234863
 20
76.55931783082492
 30
0.0
 10
307.0985504650323
 20
77.09246424407543
 30
0.0
 10
307.2646313741805
 20
77.3657354675334
 30
0.0
 10
307.3303037063212
 20
77.47379339329646
 30
0.0
  0
SPLINE
  5
E9
330
1F
100
AcDbEntity
  8
0
  6
Continuous
 62
     7
370
    15
100
AcDbSpline
210
0.0
220
0.0
230
1.0
 70
     8
 71
     3
 72
    10
 73
     6
 74
     0
 42
0.00000001
 43
0.00000001
 40
0.0
 40
0.0
 40
0.0
 40
0.0
 40
0.0588228166040073
 40
0.5294204340995383
 40
1.0
 40
1.0
 40
1.0
 40
1.0
 10
309.7983830348582
 20
75.84241426579402
 30
0.0
 10
309.7877485710716
 20
75.82093323177055
 30
0.0
 10
309.6920356698648
 20
75.62759841691172
 30
0.0
 10
309.3311307471301
 20
75.3734586540234
 30
0.0
 10
308.9558850243484
 20
75.28615793806485
 30
0.0
 10
308.7682657615275
 20
75.24250841729088
 30
0.0
  0
SPLINE
  5
EA
330
1F
100
AcDbEntity
  8
0
  6
Continuous
 62
     7
370
    15
100
AcDbSpline
210
0.0
220
0.0
230
1.0
 70
    24
 71
     3
 72
    12
 73
     8
 74
     0
 42
0.00000001
 43
0.00000001
 40
0.0
 40
0.0
 40
0.0
 40
0.0
 40
0.2193522884941657
 40
0.4387060109258876
 40
0.6580636711099509
 40
0.877422786169227
 40
1.0
 40
1.0
 40
1.0
 40
1.0
 10
309.0787761584849
 20
78.71222890011714
 30
0.0
 10
308.8820604176448
 20
78.71222890011714
 30
0.0
 10
308.4886276500056
 20
78.71222890011717
 30
0.0
 10
307.9278100162743
 20
78.71222890011717
 30
0.0
 10
307.5103812347736
 20
78.71222890011711
 30
0.0
 10
307.2845241249752
 20
78.7122289001172
 30
0.0
 10
307.3015284386519
 20
78.71222890011711
 30
0.0
 10
307.3076241389842
 20
78.71222890011714
 30
0.0
  0
SPLINE
  5
EB
330
1F
100
AcDbEntity
  8
0
  6
Continuous
 62
     7
370
    15
100
AcDbSpline
210
0.0
220
0.0
230
1.0
 70
    24
 71
     3
 72
     9
 73
     5
 74
     0
 42
0.00000001
 43
0.00000001
 40
0.0
 40
0.0
 40
0.0
 40
0.0
 40
0.1970399618046988
 40
1.0
 40
1.0
 40
1.0
 40
1.0
 10
309.7194366828532
 20
78.71222890011714
 30
0.0
 10
309.6867797912848
 20
78.71222890011714
 30
0.0
 10
309.5210423882253
 20
78.71222890011711
 30
0.0
 10
309.2757423148065
 20
78.71222890011711
 30
0.0
 10
309.0787761584849
 20
78.71222890011714
 30
0.0
  0
SPLINE
  5
EC
330
1F
100
AcDbEntity
  8
0
  6
Continuous
 62
     7
370
    15
100
AcDbSpline
210
0.0
220
0.0
230
1.0
 70
     8
 71
     3
 72
    13
 73
     9
 74
     0
 42
0.00000001
 43
0.00000001
 40
0.0
 40
0.0
 40
0.0
 40
0.0
 40
0.1768576985124456
 40
0.3537276817053297
 40
0.5305875817102148
 40
0.7074521439525769
 40
0.8843171741316485
 40
0.9999999999999999
 40
0.9999999999999999
 40
0.9999999999999999
 40
0.9999999999999999
 10
307.2163992301554
 20
98.50211835495875
 30
0.0
 10
307.0197384409239
 20
98.49942238675416
 30
0.0
 10
306.6264032022417
 20
98.49403026308079
 30
0.0
 10
306.0930070028843
 20
98.20337803836115
 30
0.0
 10
305.7039213461035
 20
97.74898210493224
 30
0.0
 10
305.525707245248
 20
97.18531825205278
 30
0.0
 10
305.5466763769826
 20
96.65215243043667
 30
0.0
 10
305.7127830567848
 20
96.37889009146197
 30
0.0
 10
305.7784669772715
 20
96.27083337895317
 30
0.0
  0
SPLINE
  5
ED
330
1F
100
AcDbEntity
  8
0
  6
Continuous
 62
     7
370
    15
100
AcDbSpline
210
0.0
220
0.0
230
1.0
 70
     8
 71
     3
 72
    10
 73
     6
 74
     0
 42
0.00000001
 43
0.00000001
 40
0.0
 40
0.0
 40
0.0
 40
0.0
 40
0.1474521529467936
 40
0.5737191691814364
 40
0.9999999999999999
 40
0.9999999999999999
 40
0.9999999999999999
 40
0.9999999999999999
 10
308.3049886600108
 20
97.78958953015254
 30
0.0
 10
308.2769316766641
 20
97.84988149740137
 30
0.0
 10
308.1677652192492
 20
98.08447052622881
 30
0.0
 10
307.7827003280652
 20
98.37328727681066
 30
0.0
 10
307.4051683019533
 20
98.45917419834218
 30
0.0
 10
307.2163992301554
 20
98.50211835495875
 30
0.0
  0
SPLINE
  5
EE
330
1F
100
AcDbEntity
  8
0
  6
Continuous
 62
     7
370
    15
100
AcDbSpline
210
0.0
220
0.0
230
1.0
 70
     8
 71
     3
 72
    13
 73
     9
 74
     0
 42
0.00000001
 43
0.00000001
 40
0.0
 40
0.0
 40
0.0
 40
0.0
 40
0.1768650521954994
 40
0.3537334552900266
 40
0.5305917752866345
 40
0.7074547574790687
 40
0.8843182076040318
 40
0.9999999999999999
 40
0.9999999999999999
 40
0.9999999999999999
 40
0.9999999999999999
 10
307.1992032901377
 20
72.62608802906917
 30
0.0
 10
307.0025322916786
 20
72.62878258739272
 30
0.0
 10
306.6091865686162
 20
72.6341717550911
 30
0.0
 10
306.0757812263345
 20
72.92482820419302
 30
0.0
 10
305.686695612936
 20
73.37922431702899
 30
0.0
 10
305.5084815004273
 20
73.94288812171632
 30
0.0
 10
305.5294506350198
 20
74.47605395515191
 30
0.0
 10
305.6955573145517
 20
74.74931629300812
 30
0.0
 10
305.7612412349314
 20
74.85737300507472
 30
0.0
  0
SPLINE
  5
EF
330
1F
100
AcDbEntity
  8
0
  6
Continuous
 62
     7
370
    15
100
AcDbSpline
210
0.0
220
0.0
230
1.0
 70
     8
 71
     3
 72
    10
 73
     6
 74
     0
 42
0.00000001
 43
0.00000001
 40
0.0
 40
0.0
 40
0.0
 40
0.0
 40
0.1474551824426036
 40
0.5737309565971126
 40
1.0
 40
1.0
 40
1.0
 40
1.0
 10
308.2877629176707
 20
73.33861685387538
 30
0.0
 10
308.2597059421444
 20
73.27832486915902
 30
0.0
 10
308.1505395151577
 20
73.04373577236741
 30
0.0
 10
307.7654819691764
 20
72.7549262198653
 30
0.0
 10
307.3879618563234
 20
72.66903386663084
 30
0.0
 10
307.1992032901377
 20
72.62608802906914
 30
0.0
  0
LINE
  5
F0
330
1F
100
AcDbEntity
  8
0
  6
Continuous
 62
     7
370
    15
100
AcDbLine
 10
301.9194238559
 20
89.4784668743
 30
0.0
 11
301.8146090881
 21
89.4784668743
 31
0.0
  0
LINE
  5
F1
330
1F
100
AcDbEntity
  8
0
  6
Continuous
 62
     7
370
    15
100
AcDbLine
 10
301.9194238559
 20
80.8784554064
 30
0.0
 11
301.8146090881
 21
80.8784554064
 31
0.0
  0
LINE
  5
F2
330
1F
100
AcDbEntity
  8
0
  6
Continuous
 62
     7
370
    15
100
AcDbLine
 10
307.3012762443
 20
77.5784591495
 30
0.0
 11
302.4200432674
 21
77.5784591495
 31
0.0
  0
LINE
  5
F3
330
1F
100
AcDbEntity
  8
0
  6
Continuous
 62
     7
370
    15
100
AcDbLine
 10
307.2453670875
 20
78.3784577905
 30
0.0
 11
302.4194174186
 21
78.3784577905
 31
0.0
  0
LINE
  5
F4
330
1F
100
AcDbEntity
  8
0
  6
Continuous
 62
     7
370
    15
100
AcDbLine
 10
307.2453670875
 20
92.7784631311
 30
0.0
 11
302.4194174186
 21
92.7784631311
 31
0.0
  0
LINE
  5
F5
330
1F
100
AcDbEntity
  8
0
  6
Continuous
 62
     7
370
    15
100
AcDbLine
 10
307.3494964019
 20
93.5784617721
 30
0.0
 11
302.4200432674
 21
93.5784617721
 31
0.0
  0
LINE
  5
F6
330
1F
100
AcDbEntity
  8
0
  6
Continuous
 62
     7
370
    15
100
AcDbLine
 10
306.0194187538
 20
93.8784668504
 30
0.0
 11
307.1827822105
 21
93.8784668504
 31
0.0
  0
LINE
  5
F7
330
1F
100
AcDbEntity
  8
0
  6
Continuous
 62
     7
370
    15
100
AcDbLine
 10
303.8194411174
 20
93.8784668504
 30
0.0
 11
306.0194187538
 21
93.8784668504
 31
0.0
  0
LINE
  5
F8
330
1F
100
AcDbEntity
  8
0
  6
Continuous
 62
     7
370
    15
100
AcDbLine
 10
306.0194187538
 20
77.1784672796
 30
0.0
 11
307.1228199379
 21
77.1784672796
 31
0.0
  0
LINE
  5
F9
330
1F
100
AcDbEntity
  8
0
  6
Continuous
 62
     7
370
    15
100
AcDbLine
 10
303.919427909
 20
77.1784672796
 30
0.0
 11
306.0194187538
 21
77.1784672796
 31
0.0
  0
LINE
  5
FA
330
1F
100
AcDbEntity
  8
0
  6
Continuous
 62
     7
370
    15
100
AcDbLine
 10
306.0194187538
 20
76.7784605085
 30
0.0
 11
306.882941045
 21
76.7784605085
 31
0.0
  0
LINE
  5
FB
330
1F
100
AcDbEntity
  8
0
  6
Continuous
 62
     7
370
    15
100
AcDbLine
 10
303.919427909
 20
76.7784605085
 30
0.0
 11
306.0194187538
 21
76.7784605085
 31
0.0
  0
ARC
  5
FC
330
1F
100
AcDbEntity
  8
0
  6
Continuous
 62
     7
370
    15
100
AcDbCircle
 10
302.8853728846
 20
78.3762991498
 30
0.0
 40
0.8029034246592697
100
AcDbArc
 50
179.8459576192
 51
234.5256721179
  0
ARC
  5
FD
330
1F
100
AcDbEntity
  8
0
  6
Continuous
 62
     7
370
    15
100
AcDbCircle
 10
302.8853847281
 20
92.7806305409
 30
0.0
 40
0.8029152918096649
100
AcDbArc
 50
125.4747622064
 51
180.154665862
  0
LINE
  5
FE
330
1F
100
AcDbEntity
  8
0
  6
Continuous
 62
     7
370
    15
100
AcDbLine
 10
302.8703265564
 20
78.8284579574
 30
0.0
 11
302.8703265564
 21
78.3784577905
 31
0.0
  0
LINE
  5
FF
330
1F
100
AcDbEntity
  8
0
  6
Continuous
 62
     7
370
    15
100
AcDbLine
 10
302.8703265564
 20
92.7784631311
 30
0.0
 11
302.8703265564
 21
92.3284629642
 31
0.0
  0
LINE
  5
100
330
1F
100
AcDbEntity
  8
0
  6
Continuous
 62
     7
370
    15
100
AcDbLine
 10
302.0824723617
 20
78.3784577905
 30
0.0
 11
302.0824723617
 21
79.6069095194
 31
0.0
  0
LINE
  5
101
330
1F
100
AcDbEntity
  8
0
  6
Continuous
 62
     7
370
    15
100
AcDbLine
 10
302.0824723617
 20
91.5500263035
 30
0.0
 11
302.0824723617
 21
92.7784631311
 31
0.0
  0
SPLINE
  5
102
330
1F
100
AcDbEntity
  8
0
  6
Continuous
 62
     7
370
    15
100
AcDbSpline
210
0.0
220
0.0
230
1.0
 70
    24
 71
     3
 72
    12
 73
     8
 74
     0
 42
0.00000001
 43
0.00000001
 40
0.0
 40
0.0
 40
0.0
 40
0.0
 40
0.2185041607748386
 40
0.4370097499429002
 40
0.655519261637946
 40
0.8740302225829159
 40
1.0
 40
1.0
 40
1.0
 40
1.0
 10
309.0787761584849
 20
462.2708598434155
 30
0.0
 10
308.8820557382081
 20
462.2708598434155
 30
0.0
 10
308.4886136116648
 20
462.2708598434155
 30
0.0
 10
307.9278661704861
 20
462.2708598434156
 30
0.0
 10
307.5101706517136
 20
462.2708598434156
 30
0.0
 10
307.2836077238715
 20
462.2708598434155
 30
0.0
 10
307.3011497596053
 20
462.2708598434156
 30
0.0
 10
307.3075645343394
 20
462.2708598434155
 30
0.0
  0
SPLINE
  5
103
330
1F
100
AcDbEntity
  8
0
  6
Continuous
 62
     7
370
    15
100
AcDbSpline
210
0.0
220
0.0
230
1.0
 70
    24
 71
     3
 72
     9
 73
     5
 74
     0
 42
0.00000001
 43
0.00000001
 40
0.0
 40
0.0
 40
0.0
 40
0.0
 40
0.1970399618046988
 40
1.0
 40
1.0
 40
1.0
 40
1.0
 10
309.7194366828532
 20
462.2708598434155
 30
0.0
 10
309.6867797912848
 20
462.2708598434155
 30
0.0
 10
309.5210423882253
 20
462.2708598434156
 30
0.0
 10
309.2757423148065
 20
462.2708598434156
 30
0.0
 10
309.0787761584849
 20
462.2708598434155
 30
0.0
  0
SPLINE
  5
104
330
1F
100
AcDbEntity
  8
0
  6
Continuous
 62
     7
370
    15
100
AcDbSpline
210
0.0
220
0.0
230
1.0
 70
     8
 71
     3
 72
    13
 73
     9
 74
     0
 42
0.00000001
 43
0.00000001
 40
0.0
 40
0.0
 40
0.0
 40
0.0
 40
0.1877403276500716
 40
0.375475335694488
 40
0.5632142885515116
 40
0.7509490809462165
 40
0.93868730514789
 40
0.9999999999999999
 40
0.9999999999999999
 40
0.9999999999999999
 40
0.9999999999999999
 10
308.7854915038676
 20
465.8857027351086
 30
0.0
 10
308.5887945030969
 20
465.8830011295343
 30
0.0
 10
308.1954060749475
 20
465.8775979949353
 30
0.0
 10
307.6623923587717
 20
465.587055534079
 30
0.0
 10
307.2718703829122
 20
465.1321596683736
 30
0.0
 10
307.0989215595999
 20
464.5704796294451
 30
0.0
 10
307.1022058863032
 20
464.0972932049253
 30
0.0
 10
307.2295211409607
 20
463.8758553331452
 30
0.0
 10
307.2608642951579
 20
463.8213405667966
 30
0.0
  0
SPLINE
  5
105
330
1F
100
AcDbEntity
  8
0
  6
Continuous
 62
     7
370
    15
100
AcDbSpline
210
0.0
220
0.0
230
1.0
 70
     8
 71
     3
 72
    10
 73
     6
 74
     0
 42
0.00000001
 43
0.00000001
 40
0.0
 40
0.0
 40
0.0
 40
0.0
 40
0.2093333647866524
 40
0.6046781482275657
 40
0.9999999999999999
 40
0.9999999999999999
 40
0.9999999999999999
 40
0.9999999999999999
 10
309.9226587192149
 20
465.0795797168439
 30
0.0
 10
309.8809620085902
 20
465.1726435057417
 30
0.0
 10
309.7605173303449
 20
465.441466584161
 30
0.0
 10
309.3537870571663
 20
465.7580981893096
 30
0.0
 10
308.9749196922095
 20
465.8431687089411
 30
0.0
 10
308.7854915038676
 20
465.8857027351086
 30
0.0
  0
SPLINE
  5
106
330
1F
100
AcDbEntity
  8
0
  6
Continuous
 62
     7
370
    15
100
AcDbSpline
210
0.0
220
0.0
230
1.0
 70
     8
 71
     3
 72
    13
 73
     9
 74
     0
 42
0.00000001
 43
0.00000001
 40
0.0
 40
0.0
 40
0.0
 40
0.0
 40
0.1768655441741053
 40
0.3537268808725106
 40
0.5305919338987228
 40
0.7074573141850448
 40
0.8843216807598565
 40
1.0
 40
1.0
 40
1.0
 40
1.0
 10
308.7682657615275
 20
445.2425131856625
 30
0.0
 10
308.5715930091468
 20
445.2451991693827
 30
0.0
 10
308.178252183057
 20
445.2505710729259
 30
0.0
 10
307.6448732638117
 20
445.541259973542
 30
0.0
 10
307.2557422962004
 20
445.9956194209901
 30
0.0
 10
307.0775841583609
 20
446.5593186008828
 30
0.0
 10
307.0985501418573
 20
447.0924688869358
 30
0.0
 10
307.264631282602
 20
447.3657402003386
 30
0.0
 10
307.3303037063212
 20
447.4737981616681
 30
0.0
  0
SPLINE
  5
107
330
1F
100
AcDbEntity
  8
0
  6
Continuous
 62
     7
370
    15
100
AcDbSpline
210
0.0
220
0.0
230
1.0
 70
     8
 71
     3
 72
    10
 73
     6
 74
     0
 42
0.00000001
 43
0.00000001
 40
0.0
 40
0.0
 40
0.0
 40
0.0
 40
0.0588225777550384
 40
0.5294258028009099
 40
1.0
 40
1.0
 40
1.0
 40
1.0
 10
309.7983830348582
 20
445.8424190341656
 30
0.0
 10
309.7877485396253
 20
445.820938042974
 30
0.0
 10
309.6920339961465
 20
445.6276008680214
 30
0.0
 10
309.3311389501624
 20
445.3734427173244
 30
0.0
 10
308.9558862998848
 20
445.2861554655103
 30
0.0
 10
308.7682657615275
 20
445.2425131856625
 30
0.0
  0
SPLINE
  5
108
330
1F
100
AcDbEntity
  8
0
  6
Continuous
 62
     7
370
    15
100
AcDbSpline
210
0.0
220
0.0
230
1.0
 70
    24
 71
     3
 72
    12
 73
     8
 74
     0
 42
0.00000001
 43
0.00000001
 40
0.0
 40
0.0
 40
0.0
 40
0.0
 40
0.2193522884941657
 40
0.4387060109258876
 40
0.6580636711099509
 40
0.877422786169227
 40
1.0
 40
1.0
 40
1.0
 40
1.0
 10
309.0787761584849
 20
448.7122336684888
 30
0.0
 10
308.8820604176448
 20
448.7122336684888
 30
0.0
 10
308.4886276500056
 20
448.7122336684888
 30
0.0
 10
307.9278100162743
 20
448.7122336684888
 30
0.0
 10
307.5103812347736
 20
448.7122336684888
 30
0.0
 10
307.2845241249752
 20
448.7122336684887
 30
0.0
 10
307.3015284386519
 20
448.7122336684888
 30
0.0
 10
307.3076241389842
 20
448.7122336684888
 30
0.0
  0
SPLINE
  5
109
330
1F
100
AcDbEntity
  8
0
  6
Continuous
 62
     7
370
    15
100
AcDbSpline
210
0.0
220
0.0
230
1.0
 70
    24
 71
     3
 72
     9
 73
     5
 74
     0
 42
0.00000001
 43
0.00000001
 40
0.0
 40
0.0
 40
0.0
 40
0.0
 40
0.1970399618046988
 40
1.0
 40
1.0
 40
1.0
 40
1.0
 10
309.7194366828532
 20
448.7122336684888
 30
0.0
 10
309.6867797912848
 20
448.7122336684888
 30
0.0
 10
309.5210423882253
 20
448.7122336684888
 30
0.0
 10
309.2757423148065
 20
448.7122336684888
 30
0.0
 10
309.0787761584849
 20
448.7122336684888
 30
0.0
  0
SPLINE
  5
10A
330
1F
100
AcDbEntity
  8
0
  6
Continuous
 62
     7
370
    15
100
AcDbSpline
210
0.0
220
0.0
230
1.0
 70
     8
 71
     3
 72
    13
 73
     9
 74
     0
 42
0.00000001
 43
0.00000001
 40
0.0
 40
0.0
 40
0.0
 40
0.0
 40
0.1768566554889662
 40
0.3537260201165023
 40
0.5305853015913031
 40
0.7074492452872759
 40
0.8843136569183215
 40
1.0
 40
1.0
 40
1.0
 40
1.0
 10
307.2163992301554
 20
468.5021082221692
 30
0.0
 10
307.0197383335264
 20
468.4994184882944
 30
0.0
 10
306.6264024079726
 20
468.4940388272574
 30
0.0
 10
306.0930070340897
 20
468.2033816893937
 30
0.0
 10
305.703921588772
 20
467.7489873144442
 30
0.0
 10
305.5257062433315
 20
467.1853223731859
 30
0.0
 10
305.5466797675394
 20
466.6521545699005
 30
0.0
 10
305.712783052876
 20
466.378885023459
 30
0.0
 10
305.7784669772715
 20
466.2708232461636
 30
0.0
  0
SPLINE
  5
10B
330
1F
100
AcDbEntity
  8
0
  6
Continuous
 62
     7
370
    15
100
AcDbSpline
210
0.0
220
0.0
230
1.0
 70
     8
 71
     3
 72
    10
 73
     6
 74
     0
 42
0.00000001
 43
0.00000001
 40
0.0
 40
0.0
 40
0.0
 40
0.0
 40
0.1474526147854356
 40
0.5737209661418518
 40
1.0
 40
1.0
 40
1.0
 40
1.0
 10
308.3049886600108
 20
467.7895942985242
 30
0.0
 10
308.2769316593037
 20
467.8498862075877
 30
0.0
 10
308.1677651343414
 20
468.0844750100233
 30
0.0
 10
307.7827027057749
 20
468.3732950674548
 30
0.0
 10
307.4051686322081
 20
468.4591701452567
 30
0.0
 10
307.2163992301554
 20
468.5021082221692
 30
0.0
  0
SPLINE
  5
10C
330
1F
100
AcDbEntity
  8
0
  6
Continuous
 62
     7
370
    15
100
AcDbSpline
210
0.0
220
0.0
230
1.0
 70
     8
 71
     3
 72
    13
 73
     9
 74
     0
 42
0.00000001
 43
0.00000001
 40
0.0
 40
0.0
 40
0.0
 40
0.0
 40
0.1768639517120507
 40
0.3537316787860435
 40
0.5305893228006564
 40
0.7074558756357757
 40
0.8843186497591357
 40
1.0
 40
1.0
 40
1.0
 40
1.0
 10
307.1992032901377
 20
442.6260927974408
 30
0.0
 10
307.002532154845
 20
442.6287811166653
 30
0.0
 10
306.609185686091
 20
442.6341578124995
 30
0.0
 10
306.0757816108041
 20
442.9248192454882
 30
0.0
 10
305.6866914167699
 20
443.379217166842
 30
0.0
 10
305.5084834355326
 20
443.9428888919304
 30
0.0
 10
305.5294503117982
 20
444.4760585979797
 30
0.0
 10
305.6955572229584
 20
444.7493210258037
 30
0.0
 10
305.7612412349314
 20
444.8573777734463
 30
0.0
  0
SPLINE
  5
10D
330
1F
100
AcDbEntity
  8
0
  6
Continuous
 62
     7
370
    15
100
AcDbSpline
210
0.0
220
0.0
230
1.0
 70
     8
 71
     3
 72
    10
 73
     6
 74
     0
 42
0.00000001
 43
0.00000001
 40
0.0
 40
0.0
 40
0.0
 40
0.0
 40
0.1474637029791729
 40
0.5737367829997128
 40
1.0
 40
1.0
 40
1.0
 40
1.0
 10
308.2877629176707
 20
443.338621622247
 30
0.0
 10
308.2597064727149
 20
443.2783243918422
 30
0.0
 10
308.1505473091639
 20
443.0437260581691
 30
0.0
 10
307.7654828902814
 20
442.7549139567878
 30
0.0
 10
307.3879617010006
 20
442.6690328527026
 30
0.0
 10
307.1992032901377
 20
442.6260927974408
 30
0.0
  0
LINE
  5
10E
330
1F
100
AcDbEntity
  8
0
  6
Continuous
 62
     7
370
    15
100
AcDbLine
 10
301.9194238559
 20
459.4784567415
 30
0.0
 11
301.8146090881
 21
459.4784567415
 31
0.0
  0
LINE
  5
10F
330
1F
100
AcDbEntity
  8
0
  6
Continuous
 62
     7
370
    15
100
AcDbLine
 10
301.9194238559
 20
450.8784601747
 30
0.0
 11
301.8146090881
 21
450.8784601747
 31
0.0
  0
LINE
  5
110
330
1F
100
AcDbEntity
  8
0
  6
Continuous
 62
     7
370
    15
100
AcDbLine
 10
307.2853021995
 20
448.3784625589
 30
0.0
 11
302.4194174186
 21
448.3784625589
 31
0.0
  0
LINE
  5
111
330
1F
100
AcDbEntity
  8
0
  6
Continuous
 62
     7
370
    15
100
AcDbLine
 10
307.2935872451
 20
447.5784639179
 30
0.0
 11
302.4200432674
 21
447.5784639179
 31
0.0
  0
LINE
  5
112
330
1F
100
AcDbEntity
  8
0
  6
Continuous
 62
     7
370
    15
100
AcDbLine
 10
307.2453670875
 20
462.7784678995
 30
0.0
 11
302.4194174186
 21
462.7784678995
 31
0.0
  0
LINE
  5
113
330
1F
100
AcDbEntity
  8
0
  6
Continuous
 62
     7
370
    15
100
AcDbLine
 10
307.2479002849
 20
463.5784665405
 30
0.0
 11
302.4200432674
 21
463.5784665405
 31
0.0
  0
LINE
  5
114
330
1F
100
AcDbEntity
  8
0
  6
Continuous
 62
     7
370
    15
100
AcDbLine
 10
306.0194187538
 20
463.8784567177
 30
0.0
 11
307.1827822105
 21
463.8784567177
 31
0.0
  0
LINE
  5
115
330
1F
100
AcDbEntity
  8
0
  6
Continuous
 62
     7
370
    15
100
AcDbLine
 10
307.2937064544
 20
463.8784567177
 30
0.0
 11
307.4082665817
 21
463.8784567177
 31
0.0
  0
LINE
  5
116
330
1F
100
AcDbEntity
  8
0
  6
Continuous
 62
     7
370
    15
100
AcDbLine
 10
303.8194411174
 20
463.8784567177
 30
0.0
 11
306.0194187538
 21
463.8784567177
 31
0.0
  0
LINE
  5
117
330
1F
100
AcDbEntity
  8
0
  6
Continuous
 62
     7
370
    15
100
AcDbLine
 10
306.0194187538
 20
447.1784571468
 30
0.0
 11
307.1228199379
 21
447.1784571468
 31
0.0
  0
LINE
  5
118
330
1F
100
AcDbEntity
  8
0
  6
Continuous
 62
     7
370
    15
100
AcDbLine
 10
303.919427909
 20
447.1784571468
 30
0.0
 11
306.0194187538
 21
447.1784571468
 31
0.0
  0
LINE
  5
119
330
1F
100
AcDbEntity
  8
0
  6
Continuous
 62
     7
370
    15
100
AcDbLine
 10
306.0194187538
 20
446.7784652769
 30
0.0
 11
306.882941045
 21
446.7784652769
 31
0.0
  0
LINE
  5
11A
330
1F
100
AcDbEntity
  8
0
  6
Continuous
 62
     7
370
    15
100
AcDbLine
 10
303.919427909
 20
446.7784652769
 30
0.0
 11
306.0194187538
 21
446.7784652769
 31
0.0
  0
ARC
  5
11B
330
1F
100
AcDbEntity
  8
0
  6
Continuous
 62
     7
370
    15
100
AcDbCircle
 10
302.8853847281
 20
448.3762951491
 30
0.0
 40
0.802915291809651
100
AcDbArc
 50
179.845334138
 51
234.5252377936
  0
ARC
  5
11C
330
1F
100
AcDbEntity
  8
0
  6
Continuous
 62
     7
370
    15
100
AcDbCircle
 10
302.8853728846
 20
462.7806265403
 30
0.0
 40
0.8029034246592697
100
AcDbArc
 50
125.4743278821
 51
180.1540423808
  0
LINE
  5
11D
330
1F
100
AcDbEntity
  8
0
  6
Continuous
 62
     7
370
    15
100
AcDbLine
 10
302.8703265564
 20
448.8284627258
 30
0.0
 11
302.8703265564
 21
448.3784625589
 31
0.0
  0
LINE
  5
11E
330
1F
100
AcDbEntity
  8
0
  6
Continuous
 62
     7
370
    15
100
AcDbLine
 10
302.8703265564
 20
462.7784678995
 30
0.0
 11
302.8703265564
 21
462.3284677326
 31
0.0
  0
LINE
  5
11F
330
1F
100
AcDbEntity
  8
0
  6
Continuous
 62
     7
370
    15
100
AcDbLine
 10
302.0824723617
 20
448.3784625589
 30
0.0
 11
302.0824723617
 21
449.6068993866
 31
0.0
  0
LINE
  5
120
330
1F
100
AcDbEntity
  8
0
  6
Continuous
 62
     7
370
    15
100
AcDbLine
 10
302.0824723617
 20
461.5500161707
 30
0.0
 11
302.0824723617
 21
462.7784678995
 31
0.0
  0
LINE
  5
121
330
1F
100
AcDbEntity
  8
0
  6
Continuous
 62
     7
370
    15
100
AcDbLine
 10
811.8207984344
 20
75.5784699976
 30
0.0
 11
811.8207984344
 21
40.5784586727
 31
0.0
  0
LINE
  5
122
330
1F
100
AcDbEntity
  8
0
  6
Continuous
 62
     7
370
    15
100
AcDbLine
 10
822.4194281475
 20
75.5784699976
 30
0.0
 11
811.8207984344
 21
75.5784699976
 31
0.0
  0
LINE
  5
123
330
1F
100
AcDbEntity
  8
0
  6
Continuous
 62
     7
370
    15
100
AcDbLine
 10
822.4194281475
 20
40.5784586727
 30
0.0
 11
811.8207984344
 21
40.5784586727
 31
0.0
  0
LINE
  5
124
330
1F
100
AcDbEntity
  8
0
  6
Continuous
 62
     7
370
    15
100
AcDbLine
 10
811.8207984344
 20
500.5784670173
 30
0.0
 11
811.8207984344
 21
465.5784556925
 31
0.0
  0
LINE
  5
125
330
1F
100
AcDbEntity
  8
0
  6
Continuous
 62
     7
370
    15
100
AcDbLine
 10
822.4194281475
 20
500.5784670173
 30
0.0
 11
811.8207984344
 21
500.5784670173
 31
0.0
  0
LINE
  5
126
330
1F
100
AcDbEntity
  8
0
  6
Continuous
 62
     7
370
    15
100
AcDbLine
 10
822.4194281475
 20
465.5784556925
 30
0.0
 11
811.8207984344
 21
465.5784556925
 31
0.0
  0
LINE
  5
127
330
1F
100
AcDbEntity
  8
0
  6
Continuous
 62
     7
370
    15
100
AcDbLine
 10
819.419436969
 20
112.5784555732
 30
0.0
 11
814.4194417373
 21
112.5784555732
 31
0.0
  0
LINE
  5
128
330
1F
100
AcDbEntity
  8
0
  6
Continuous
 62
     7
370
    15
100
AcDbLine
 10
814.4194417373
 20
428.5784701168
 30
0.0
 11
819.419436969
 21
428.5784701168
 31
0.0
  0
LINE
  5
129
330
1F
100
AcDbEntity
  8
0
  6
Continuous
 62
     7
370
    15
100
AcDbLine
 10
811.3572829143
 20
40.5784586727
 30
0.0
 11
811.3572829143
 21
75.5784699976
 31
0.0
  0
LINE
  5
12A
330
1F
100
AcDbEntity
  8
0
  6
Continuous
 62
     7
370
    15
100
AcDbLine
 10
811.3572829143
 20
75.5784699976
 30
0.0
 11
811.8207984344
 21
75.5784699976
 31
0.0
  0
LINE
  5
12B
330
1F
100
AcDbEntity
  8
0
  6
Continuous
 62
     7
370
    15
100
AcDbLine
 10
811.8207984344
 20
40.5784586727
 30
0.0
 11
811.3572829143
 21
40.5784586727
 31
0.0
  0
LINE
  5
12C
330
1F
100
AcDbEntity
  8
0
  6
Continuous
 62
     7
370
    15
100
AcDbLine
 10
811.3572829143
 20
465.5784556925
 30
0.0
 11
811.3572829143
 21
500.5784670173
 31
0.0
  0
LINE
  5
12D
330
1F
100
AcDbEntity
  8
0
  6
Continuous
 62
     7
370
    15
100
AcDbLine
 10
811.3572829143
 20
500.5784670173
 30
0.0
 11
811.8207984344
 21
500.5784670173
 31
0.0
  0
LINE
  5
12E
330
1F
100
AcDbEntity
  8
0
  6
Continuous
 62
     7
370
    15
100
AcDbLine
 10
811.8207984344
 20
465.5784556925
 30
0.0
 11
811.3572829143
 21
465.5784556925
 31
0.0
  0
LINE
  5
12F
330
1F
100
AcDbEntity
  8
0
  6
Continuous
 62
     7
370
    15
100
AcDbLine
 10
811.3572829143
 20
500.5784670173
 30
0.0
 11
810.9194271938
 21
500.5784670173
 31
0.0
  0
LINE
  5
130
330
1F
100
AcDbEntity
  8
0
  6
Continuous
 62
     7
370
    15
100
AcDbLine
 10
811.3572829143
 20
465.5784556925
 30
0.0
 11
810.9194271938
 21
465.5784556925
 31
0.0
  0
LINE
  5
131
330
1F
100
AcDbEntity
  8
0
  6
Continuous
 62
     7
370
    15
100
AcDbLine
 10
811.3572829143
 20
75.5784699976
 30
0.0
 11
810.9194271938
 21
75.5784699976
 31
0.0
  0
LINE
  5
132
330
1F
100
AcDbEntity
  8
0
  6
Continuous
 62
     7
370
    15
100
AcDbLine
 10
811.3572829143
 20
40.5784586727
 30
0.0
 11
810.9194271938
 21
40.5784586727
 31
0.0
  0
LINE
  5
133
330
1F
100
AcDbEntity
  8
0
  6
Continuous
 62
     7
370
    15
100
AcDbLine
 10
305.7194285766
 20
78.8284579574
 30
0.0
 11
302.6194208042
 21
78.8284579574
 31
0.0
  0
LINE
  5
134
330
1F
100
AcDbEntity
  8
0
  6
Continuous
 62
     7
370
    15
100
AcDbLine
 10
305.7194285766
 20
92.3284629642
 30
0.0
 11
307.2794907467
 21
92.3284629642
 31
0.0
  0
LINE
  5
135
330
1F
100
AcDbEntity
  8
0
  6
Continuous
 62
     7
370
    15
100
AcDbLine
 10
305.7194285766
 20
78.8284579574
 30
0.0
 11
307.2789543048
 21
78.8284579574
 31
0.0
  0
LINE
  5
136
330
1F
100
AcDbEntity
  8
0
  6
Continuous
 62
     7
370
    15
100
AcDbLine
 10
305.7194285766
 20
92.3284629642
 30
0.0
 11
302.6194208042
 21
92.3284629642
 31
0.0
  0
LINE
  5
137
330
1F
100
AcDbEntity
  8
0
  6
Continuous
 62
     7
370
    15
100
AcDbLine
 10
305.7194285766
 20
448.8284627258
 30
0.0
 11
307.2789543048
 21
448.8284627258
 31
0.0
  0
LINE
  5
138
330
1F
100
AcDbEntity
  8
0
  6
Continuous
 62
     7
370
    15
100
AcDbLine
 10
305.7194285766
 20
462.3284677326
 30
0.0
 11
307.2794907467
 21
462.3284677326
 31
0.0
  0
LINE
  5
139
330
1F
100
AcDbEntity
  8
0
  6
Continuous
 62
     7
370
    15
100
AcDbLine
 10
305.7194285766
 20
448.8284627258
 30
0.0
 11
302.6194208042
 21
448.8284627258
 31
0.0
  0
LINE
  5
13A
330
1F
100
AcDbEntity
  8
0
  6
Continuous
 62
     7
370
    15
100
AcDbLine
 10
305.7194285766
 20
462.3284677326
 30
0.0
 11
302.6194208042
 21
462.3284677326
 31
0.0
  0
LINE
  5
13B
330
1F
100
AcDbEntity
  8
0
  6
Continuous
 62
     8
370
    15
100
AcDbLine
 10
305.7194285766
 20
79.0784696399
 30
0.0
 11
305.7194285766
 21
78.8284579574
 31
0.0
  0
LINE
  5
13C
330
1F
100
AcDbEntity
  8
0
  6
Continuous
 62
     8
370
    15
100
AcDbLine
 10
305.7194285766
 20
92.3284629642
 30
0.0
 11
305.7194285766
 21
92.0784661829
 31
0.0
  0
LINE
  5
13D
330
1F
100
AcDbEntity
  8
0
  6
Continuous
 62
     8
370
    15
100
AcDbLine
 10
305.7194285766
 20
449.0784595071
 30
0.0
 11
305.7194285766
 21
448.8284627258
 31
0.0
  0
LINE
  5
13E
330
1F
100
AcDbEntity
  8
0
  6
Continuous
 62
     8
370
    15
100
AcDbLine
 10
305.7194285766
 20
462.3284677326
 30
0.0
 11
305.7194285766
 21
462.0784560501
 31
0.0
  0
LINE
  5
13F
330
1F
100
AcDbEntity
  8
0
  6
Continuous
 62
     7
370
    15
100
AcDbLine
 10
215.1103640813
 20
92.0784661829
 30
0.0
 11
215.1103640813
 21
79.0784696399
 31
0.0
  0
LINE
  5
140
330
1F
100
AcDbEntity
  8
0
  6
Continuous
 62
     7
370
    15
100
AcDbLine
 10
215.1103640813
 20
462.0784560501
 30
0.0
 11
215.1103640813
 21
449.0784595071
 31
0.0
  0
SPLINE
  5
141
330
1F
100
AcDbEntity
  8
0
  6
Continuous
 62
     7
370
    15
100
AcDbSpline
210
0.0
220
0.0
230
1.0
 70
     8
 71
     3
 72
    15
 73
    11
 74
     0
 42
0.00000001
 43
0.00000001
 40
0.0
 40
0.0
 40
0.0
 40
0.0
 40
0.1355968776699562
 40
0.2953259741877942
 40
0.403811035414547
 40
0.5319581158885225
 40
0.6738366035801229
 40
0.8261055497331444
 40
0.9126193164003756
 40
1.0
 40
1.0
 40
1.0
 40
1.0
 10
204.0903593320096
 20
80.14451361290858
 30
0.0
 10
204.1347415566093
 20
80.13718697108196
 30
0.0
 10
204.2314047242409
 20
80.12122976268479
 30
0.0
 10
204.4382552492717
 20
80.16890659777856
 30
0.0
 10
204.6315118334199
 20
80.25662084016255
 30
0.0
 10
204.7780998455142
 20
80.37629037296234
 30
0.0
 10
204.8768076559475
 20
80.52719261829566
 30
0.0
 10
204.9064639147816
 20
80.649045185423
 30
0.0
 10
204.8852926460742
 20
80.77827430544046
 30
0.0
 10
204.8390361245924
 20
80.84495090497771
 30
0.0
 10
204.8157925624097
 20
80.87845540635035
 30
0.0
  0
SPLINE
  5
142
330
1F
100
AcDbEntity
  8
0
  6
Continuous
 62
     7
370
    15
100
AcDbSpline
210
0.0
220
0.0
230
1.0
 70
     8
 71
     3
 72
    20
 73
    16
 74
     0
 42
0.00000001
 43
0.00000001
 40
0.0
 40
0.0
 40
0.0
 40
0.0
 40
0.0607080733617801
 40
0.2265356860999659
 40
0.3908031702683526
 40
0.4705945050111417
 40
0.5476204531806254
 40
0.62285746676219
 40
0.7003373045985339
 40
0.778647399668242
 40
0.8566576561068441
 40
0.9330984830502176
 40
0.970373435824492
 40
0.9892322541317109
 40
1.0
 40
1.0
 40
1.0
 40
1.0
 10
200.3541613835538
 20
80.87845540635035
 30
0.0
 10
200.4004362519553
 20
80.82512396065854
 30
0.0
 10
200.5731135991687
 20
80.62611458725094
 30
0.0
 10
200.9900720231041
 20
80.60818773268086
 30
0.0
 10
201.5550410089687
 20
80.53316246942205
 30
0.0
 10
202.0746513250241
 20
80.49022478631096
 30
0.0
 10
202.4685424022457
 20
80.45966414309221
 30
0.0
 10
202.8614542348555
 20
80.43199239411197
 30
0.0
 10
203.2426155864918
 20
80.40068279593451
 30
0.0
 10
203.5983396886084
 20
80.36820408908297
 30
0.0
 10
203.9009621759612
 20
80.33738876785986
 30
0.0
 10
204.0934803271943
 20
80.3144939504358
 30
0.0
 10
204.1815946597081
 20
80.3064548133088
 30
0.0
 10
204.2270219333415
 20
80.29866249860763
 30
0.0
 10
204.2264725104669
 20
80.30262146377895
 30
0.0
 10
204.2262728232587
 20
80.30406034581111
 30
0.0
  0
SPLINE
  5
143
330
1F
100
AcDbEntity
  8
0
  6
Continuous
 62
     7
370
    15
100
AcDbSpline
210
0.0
220
0.0
230
1.0
 70
     8
 71
     3
 72
    18
 73
    14
 74
     0
 42
0.00000001
 43
0.00000001
 40
0.0
 40
0.0
 40
0.0
 40
0.0
 40
0.0057509026590458
 40
0.1156365356630773
 40
0.2383916339763188
 40
0.3593075760794307
 40
0.4757059375297732
 40
0.5872133785399697
 40
0.7047339673489821
 40
0.8265049050365603
 40
0.8891453626006172
 40
0.9517988956145745
 40
1.0
 40
1.0
 40
1.0
 40
1.0
 10
204.5969839114392
 20
89.52528632275508
 30
0.0
 10
204.5923366784339
 20
89.52823851860694
 30
0.0
 10
204.4988922303168
 20
89.5875999303962
 30
0.0
 10
204.2765859168542
 20
89.59377798911115
 30
0.0
 10
203.8851875593051
 20
89.65298047704812
 30
0.0
 10
203.373309327876
 20
89.69851725870559
 30
0.0
 10
202.8222776330966
 20
89.74468408813274
 30
0.0
 10
202.2601599985519
 20
89.78356352965575
 30
0.0
 10
201.725880017788
 20
89.82831736384439
 30
0.0
 10
201.3282396205229
 20
89.86935636483607
 30
0.0
 10
201.1135117008
 20
89.89050643794202
 30
0.0
 10
201.0174647140175
 20
89.89277497826103
 30
0.0
 10
201.0020160390965
 20
89.87671134849818
 30
0.0
 10
200.9952987450802
 20
89.86972666375087
 30
0.0
  0
SPLINE
  5
144
330
1F
100
AcDbEntity
  8
0
  6
Continuous
 62
     7
370
    15
100
AcDbSpline
210
0.0
220
0.0
230
1.0
 70
     8
 71
     3
 72
    12
 73
     8
 74
     0
 42
0.00000001
 43
0.00000001
 40
0.0
 40
0.0
 40
0.0
 40
0.0
 40
0.2236872246468318
 40
0.4523175361445844
 40
0.6822433783675855
 40
0.9102243843454078
 40
1.0
 40
1.0
 40
1.0
 40
1.0
 10
200.296061756059
 20
90.68032003037376
 30
0.0
 10
200.283320349955
 20
90.6377719498687
 30
0.0
 10
200.2575559755028
 20
90.55173555251908
 30
0.0
 10
200.3787114756736
 20
90.46010886900821
 30
0.0
 10
200.610379297409
 20
90.3638171497893
 30
0.0
 10
200.8552390963127
 20
90.3013120539292
 30
0.0
 10
201.0385713778418
 20
90.30653802657035
 30
0.0
 10
201.090368153497
 20
90.30801451794551
 30
0.0
  0
SPLINE
  5
145
330
1F
100
AcDbEntity
  8
0
  6
Continuous
 62
     7
370
    15
100
AcDbSpline
210
0.0
220
0.0
230
1.0
 70
     8
 71
     3
 72
    19
 73
    15
 74
     0
 42
0.00000001
 43
0.00000001
 40
0.0
 40
0.0
 40
0.0
 40
0.0
 40
0.0979056887082271
 40
0.1753760308697958
 40
0.2884836952147524
 40
0.3734533306399113
 40
0.4570019090080255
 40
0.6168876666450595
 40
0.6796676847293278
 40
0.7634260107129107
 40
0.8137554945037926
 40
0.8702991456713871
 40
0.9324008460228941
 40
1.0
 40
1.0
 40
1.0
 40
1.0
 10
200.4722977894986
 20
90.1851842462246
 30
0.0
 10
200.5228072561952
 20
90.15880969828599
 30
0.0
 10
200.613283610608
 20
90.11156562498962
 30
0.0
 10
200.9879226903828
 20
90.05091068461904
 30
0.0
 10
201.4744265057231
 20
89.99703129500664
 30
0.0
 10
202.0657645913071
 20
89.94378027562941
 30
0.0
 10
202.8198604466107
 20
89.89223584893416
 30
0.0
 10
203.4609705191224
 20
89.82529711438325
 30
0.0
 10
204.1102306502772
 20
89.78977864636856
 30
0.0
 10
204.4885757658066
 20
89.86796132254426
 30
0.0
 10
204.7404189442613
 20
89.97616491185961
 30
0.0
 10
204.8740077168979
 20
90.06450754072907
 30
0.0
 10
204.9357830066681
 20
90.13834458935472
 30
0.0
 10
204.8643387679699
 20
90.21885900508734
 30
0.0
 10
204.8271025437558
 20
90.2608225404446
 30
0.0
  0
SPLINE
  5
146
330
1F
100
AcDbEntity
  8
0
  6
Continuous
 62
     7
370
    15
100
AcDbSpline
210
0.0
220
0.0
230
1.0
 70
     8
 71
     3
 72
    25
 73
    21
 74
     0
 42
0.00000001
 43
0.00000001
 40
0.0
 40
0.0
 40
0.0
 40
0.0
 40
0.0176257042353922
 40
0.0344972663499578
 40
0.0503151614311563
 40
0.0649735404984366
 40
0.0909455917801296
 40
0.1134366221113422
 40
0.1538391872525185
 40
0.1912340175570827
 40
0.2995700890982436
 40
0.3999626722492999
 40
0.501294752980786
 40
0.5949050187530304
 40
0.6784883546428798
 40
0.7336284461388999
 40
0.8075182355711659
 40
0.895281331735917
 40
0.945308680147818
 40
1.0
 40
1.0
 40
1.0
 40
1.0
 10
204.4697875994885
 20
89.63524199120448
 30
0.0
 10
204.5094918135637
 20
89.6396319907392
 30
0.0
 10
204.5872014375242
 20
89.64822415711183
 30
0.0
 10
204.6890942008176
 20
89.69423927751771
 30
0.0
 10
204.7701007688567
 20
89.75318586960923
 30
0.0
 10
204.8463084266514
 20
89.83678607823437
 30
0.0
 10
204.8993560267507
 20
89.94041687078477
 30
0.0
 10
204.9235045137319
 20
90.07275951435595
 30
0.0
 10
204.9006290913347
 20
90.20461083995818
 30
0.0
 10
204.729389600069
 20
90.44984430487385
 30
0.0
 10
204.3866026520567
 20
90.53690347654481
 30
0.0
 10
203.891489010032
 20
90.59546689322381
 30
0.0
 10
203.2782779279957
 20
90.65383030011844
 30
0.0
 10
202.6288021085782
 20
90.70345789321455
 30
0.0
 10
202.0891054120074
 20
90.7429192185455
 30
0.0
 10
201.6430856305918
 20
90.78210331710615
 30
0.0
 10
201.2543989359185
 20
90.82032150281877
 30
0.0
 10
200.9942219914045
 20
90.84818595506253
 30
0.0
 10
200.8637951388264
 20
90.87066813647512
 30
0.0
 10
200.8551228413363
 20
90.88312881491683
 30
0.0
 10
200.8505935687268
 20
90.88963664166377
 30
0.0
  0
SPLINE
  5
147
330
1F
100
AcDbEntity
  8
0
  6
Continuous
 62
     7
370
    15
100
AcDbSpline
210
0.0
220
0.0
230
1.0
 70
     8
 71
     3
 72
    12
 73
     8
 74
     0
 42
0.00000001
 43
0.00000001
 40
0.0
 40
0.0
 40
0.0
 40
0.0
 40
0.1756470650179405
 40
0.5723027101577256
 40
0.7586216329971905
 40
0.9207423355829982
 40
1.0
 40
1.0
 40
1.0
 40
1.0
 10
200.938927652284
 20
90.07116056076927
 30
0.0
 10
200.873364000276
 20
90.06198392562479
 30
0.0
 10
200.6597409845533
 20
90.03208411965433
 30
0.0
 10
200.4438216108614
 20
89.95816504000004
 30
0.0
 10
200.2826639472719
 20
89.74323898703013
 30
0.0
 10
200.251461539082
 20
89.58301327060184
 30
0.0
 10
200.282434557717
 20
89.50435445288966
 30
0.0
 10
200.292604686662
 20
89.47852647892879
 30
0.0
  0
SPLINE
  5
148
330
1F
100
AcDbEntity
  8
0
  6
Continuous
 62
     7
370
    15
100
AcDbSpline
210
0.0
220
0.0
230
1.0
 70
     8
 71
     3
 72
    11
 73
     7
 74
     0
 42
0.00000001
 43
0.00000001
 40
0.0
 40
0.0
 40
0.0
 40
0.0
 40
0.3513299898137984
 40
0.6842942743841863
 40
0.994903778500013
 40
0.9999999999999999
 40
0.9999999999999999
 40
0.9999999999999999
 40
0.9999999999999999
 10
204.5148785132611
 20
89.6657148658459
 30
0.0
 10
204.5555768462305
 20
89.66740419833638
 30
0.0
 10
204.6348460149193
 20
89.67069455379786
 30
0.0
 10
204.7274404802276
 20
89.71746817679544
 30
0.0
 10
204.7788104134848
 20
89.75780410262321
 30
0.0
 10
204.7916686371868
 20
89.7809005409053
 30
0.0
 10
204.7918761986935
 20
89.78127337090419
 30
0.0
  0
LINE
  5
149
330
1F
100
AcDbEntity
  8
0
  6
Continuous
 62
     7
370
    15
100
AcDbLine
 10
200.4501248616
 20
80.7807186901
 30
0.0
 11
199.3316586036
 21
80.7807186901
 31
0.0
  0
LINE
  5
14A
330
1F
100
AcDbEntity
  8
0
  6
Continuous
 62
     7
370
    15
100
AcDbLine
 10
199.3316586036
 20
79.9807200491
 30
0.0
 11
201.0903681535
 21
79.9807200491
 31
0.0
  0
LINE
  5
14B
330
1F
100
AcDbEntity
  8
0
  6
Continuous
 62
     7
370
    15
100
AcDbLine
 10
197.9213680047
 20
93.5784617721
 30
0.0
 11
197.9213680047
 21
93.6319271385
 31
0.0
  0
LINE
  5
14C
330
1F
100
AcDbEntity
  8
0
  6
Continuous
 62
     7
370
    15
100
AcDbLine
 10
194.9213768262
 20
93.6319271385
 30
0.0
 11
194.9213768262
 21
93.5784617721
 31
0.0
  0
SPLINE
  5
14D
330
1F
100
AcDbEntity
  8
0
  6
Continuous
 62
     7
370
    15
100
AcDbSpline
210
0.0
220
0.0
230
1.0
 70
     8
 71
     3
 72
    15
 73
    11
 74
     0
 42
0.00000001
 43
0.00000001
 40
0.0
 40
0.0
 40
0.0
 40
0.0
 40
0.1077555984635169
 40
0.23525132098926
 40
0.3627905294629136
 40
0.4902569079919491
 40
0.6176632052480955
 40
0.745097043409137
 40
0.8724966518631685
 40
1.0
 40
1.0
 40
1.0
 40
1.0
 10
194.937425376817
 20
77.57845914952205
 30
0.0
 10
194.9539645054381
 20
77.26593690464878
 30
0.0
 10
194.9900726233606
 20
76.58364037441449
 30
0.0
 10
195.3262853181486
 20
75.57449248140624
 30
0.0
 10
195.8843648457454
 20
74.61101375670489
 30
0.0
 10
196.6391900951304
 20
73.79008626226644
 30
0.0
 10
197.5543541949413
 20
73.15482081562017
 30
0.0
 10
198.5816096521717
 20
72.73465996420263
 30
0.0
 10
199.6775873008563
 20
72.52085893360794
 30
0.0
 10
200.4133477377073
 20
72.58638341495613
 30
0.0
 10
200.7813776749814
 20
72.61915898911403
 30
0.0
  0
SPLINE
  5
14E
330
1F
100
AcDbEntity
  8
0
  6
Continuous
 62
     7
370
    15
100
AcDbSpline
210
0.0
220
0.0
230
1.0
 70
     8
 71
     3
 72
    15
 73
    11
 74
     0
 42
0.00000001
 43
0.00000001
 40
0.0
 40
0.0
 40
0.0
 40
0.0
 40
0.1316483452905108
 40
0.2633125736960542
 40
0.3951891228075907
 40
0.5266691347667831
 40
0.6575482409241131
 40
0.7882151506106828
 40
0.9184604873266078
 40
1.0
 40
1.0
 40
1.0
 40
1.0
 10
200.2836788911069
 20
75.57684577099727
 30
0.0
 10
200.131500922124
 20
75.56503152968003
 30
0.0
 10
199.8271266241844
 20
75.54140162168052
 30
0.0
 10
199.3762576469237
 20
75.6428690589227
 30
0.0
 10
198.9572364316856
 20
75.82974385125657
 30
0.0
 10
198.5868429151535
 20
76.10233259409172
 30
0.0
 10
198.2845699807758
 20
76.44823934270123
 30
0.0
 10
198.0654248659326
 20
76.84995292699031
 30
0.0
 10
197.9480622263566
 20
77.23626325868588
 30
0.0
 10
197.9378798237233
 20
77.48333412826095
 30
0.0
 10
197.9339594859326
 20
77.57845914952205
 30
0.0
  0
SPLINE
  5
14F
330
1F
100
AcDbEntity
  8
0
  6
Continuous
 62
     7
370
    15
100
AcDbSpline
210
0.0
220
0.0
230
1.0
 70
     8
 71
     3
 72
    15
 73
    11
 74
     0
 42
0.00000001
 43
0.00000001
 40
0.0
 40
0.0
 40
0.0
 40
0.0
 40
0.1249271724452606
 40
0.2499156778186059
 40
0.3749661225157206
 40
0.4999574189332024
 40
0.6249212965006179
 40
0.749916905720849
 40
0.8748746059781706
 40
1.0
 40
1.0
 40
1.0
 40
1.0
 10
200.9522492903912
 20
98.50898779026912
 30
0.0
 10
200.585872622313
 20
98.55232038559913
 30
0.0
 10
199.8529394137284
 20
98.63900685037355
 30
0.0
 10
198.7489165832243
 20
98.47380755289792
 30
0.0
 10
197.708113662965
 20
98.08488582257036
 30
0.0
 10
196.7729271037862
 20
97.47985982716075
 30
0.0
 10
195.9922703469252
 20
96.68367576437359
 30
0.0
 10
195.4043143435486
 20
95.73930583130053
 30
0.0
 10
195.0084911594278
 20
94.69086255511746
 30
0.0
 10
194.9504279154284
 20
93.9517418864879
 30
0.0
 10
194.9213768262112
 20
93.58193374268458
 30
0.0
  0
SPLINE
  5
150
330
1F
100
AcDbEntity
  8
0
  6
Continuous
 62
     7
370
    15
100
AcDbSpline
210
0.0
220
0.0
230
1.0
 70
     8
 71
     3
 72
    15
 73
    11
 74
     0
 42
0.00000001
 43
0.00000001
 40
0.0
 40
0.0
 40
0.0
 40
0.0
 40
0.1242546179904558
 40
0.2486342726399256
 40
0.3735431489101319
 40
0.498583646664115
 40
0.6236664767119504
 40
0.7490733915850996
 40
0.8744397787534529
 40
1.0
 40
1.0
 40
1.0
 40
1.0
 10
197.9213680047238
 20
93.58193374268455
 30
0.0
 10
197.9349234527679
 20
93.7338925961951
 30
0.0
 10
197.9620479896201
 20
94.03796321847727
 30
0.0
 10
198.1365342089496
 20
94.46526951085681
 30
0.0
 10
198.3898580289164
 20
94.84691248478138
 30
0.0
 10
198.7196790759479
 20
95.16684690051217
 30
0.0
 10
199.110609926133
 20
95.40741759388399
 30
0.0
 10
199.5433035329909
 20
95.55904804899257
 30
0.0
 10
200.0008346333611
 20
95.61251053405054
 30
0.0
 10
200.3027473710338
 20
95.57181400367493
 30
0.0
 10
200.4538203496182
 20
95.55145001999782
 30
0.0
  0
LINE
  5
151
330
1F
100
AcDbEntity
  8
0
  6
Continuous
 62
     7
370
    15
100
AcDbLine
 10
215.8244277257
 20
78.1935939848
 30
0.0
 11
200.2834553737
 21
75.5771884977
 31
0.0
  0
LINE
  5
152
330
1F
100
AcDbEntity
  8
0
  6
Continuous
 62
     7
370
    15
100
AcDbLine
 10
200.7815266866
 20
72.6188162624
 30
0.0
 11
216.3224841375
 21
75.2352366506
 31
0.0
  0
LINE
  5
153
330
1F
100
AcDbEntity
  8
0
  6
Continuous
 62
     7
370
    15
100
AcDbLine
 10
200.454043867
 20
95.5510327875
 30
0.0
 11
215.9950162191
 21
92.9346123993
 31
0.0
  0
LINE
  5
154
330
1F
100
AcDbEntity
  8
0
  6
Continuous
 62
     7
370
    15
100
AcDbLine
 10
216.4930726308
 20
95.8929697334
 30
0.0
 11
200.9521002788
 21
98.5093901216
 31
0.0
  0
SPLINE
  5
155
330
1F
100
AcDbEntity
  8
0
  6
Continuous
 62
     7
370
    15
100
AcDbSpline
210
0.0
220
0.0
230
1.0
 70
     8
 71
     3
 72
    12
 73
     8
 74
     0
 42
0.00000001
 43
0.00000001
 40
0.0
 40
0.0
 40
0.0
 40
0.0
 40
0.1526143616206806
 40
0.2973900838260376
 40
0.5623702654073864
 40
0.7966014934523973
 40
1.0
 40
1.0
 40
1.0
 40
1.0
 10
216.3221414107526
 20
75.23553467385219
 30
0.0
 10
216.5733602193777
 20
75.28827983654577
 30
0.0
 10
217.0628946364689
 20
75.3910610439518
 30
0.0
 10
217.9124276098728
 20
75.8202837861475
 30
0.0
 10
218.7244097172185
 20
76.5646897214802
 30
0.0
 10
219.2888613868392
 20
77.63572485821288
 30
0.0
 10
219.3705486037504
 20
78.37065375511831
 30
0.0
 10
219.4085146207059
 20
78.71222890011714
 30
0.0
  0
SPLINE
  5
156
330
1F
100
AcDbEntity
  8
0
  6
Continuous
 62
     7
370
    15
100
AcDbSpline
210
0.0
220
0.0
230
1.0
 70
     8
 71
     3
 72
    11
 73
     7
 74
     0
 42
0.00000001
 43
0.00000001
 40
0.0
 40
0.0
 40
0.0
 40
0.0
 40
0.2003641189614822
 40
0.4328060802232906
 40
0.699024866168115
 40
0.9999999999999999
 40
0.9999999999999999
 40
0.9999999999999999
 40
0.9999999999999999
 10
216.410192372247
 20
78.71222890011711
 30
0.0
 10
216.3969657243429
 20
78.65580050519239
 30
0.0
 10
216.3683948721187
 20
78.53390965693447
 30
0.0
 10
216.2525000519131
 20
78.36821018262438
 30
0.0
 10
216.0677684458464
 20
78.22929252378319
 30
0.0
 10
215.9101418068329
 20
78.20591147227063
 30
0.0
 10
215.8264989871228
 20
78.19350457779811
 30
0.0
  0
SPLINE
  5
157
330
1F
100
AcDbEntity
  8
0
  6
Continuous
 62
     7
370
    15
100
AcDbSpline
210
0.0
220
0.0
230
1.0
 70
     8
 71
     3
 72
    12
 73
     8
 74
     0
 42
0.00000001
 43
0.00000001
 40
0.0
 40
0.0
 40
0.0
 40
0.0
 40
0.2034078427593986
 40
0.4376400322228931
 40
0.7026181682021735
 40
0.8473893355518703
 40
1.0
 40
1.0
 40
1.0
 40
1.0
 10
219.4085146207059
 20
92.2708550750439
 30
0.0
 10
219.3870737106458
 20
92.61386544486533
 30
0.0
 10
219.3409427432147
 20
93.3518658447762
 30
0.0
 10
218.8288458811761
 20
94.44898224396032
 30
0.0
 10
218.053631380926
 20
95.23172956150103
 30
0.0
 10
217.2257844228877
 20
95.70145750995307
 30
0.0
 10
216.7418011905116
 20
95.82772476164256
 30
0.0
 10
216.4934302586758
 20
95.8925226985638
 30
0.0
  0
SPLINE
  5
158
330
1F
100
AcDbEntity
  8
0
  6
Continuous
 62
     7
370
    15
100
AcDbSpline
210
0.0
220
0.0
230
1.0
 70
     8
 71
     3
 72
    12
 73
     8
 74
     0
 42
0.00000001
 43
0.00000001
 40
0.0
 40
0.0
 40
0.0
 40
0.0
 40
0.1555604877376545
 40
0.3022102158253786
 40
0.5679674388781151
 40
0.7999363513240186
 40
0.9999999999999999
 40
0.9999999999999999
 40
0.9999999999999999
 40
0.9999999999999999
 10
215.99309396927
 20
92.93552137009547
 30
0.0
 10
216.0336411607977
 20
92.91977132294515
 30
0.0
 10
216.1124129342789
 20
92.88917341715447
 30
0.0
 10
216.2420399247555
 20
92.79413645080619
 30
0.0
 10
216.3564774227591
 20
92.64795985892799
 30
0.0
 10
216.4206112932549
 20
92.45371006170136
 30
0.0
 10
216.4134900464298
 20
92.32873018209602
 30
0.0
 10
216.410192372247
 20
92.2708550750439
 30
0.0
  0
LINE
  5
159
330
1F
100
AcDbEntity
  8
0
  6
Continuous
 62
     7
370
    15
100
AcDbLine
 10
216.4093579072
 20
92.320863372
 30
0.0
 11
216.4093579072
 21
92.0784661829
 31
0.0
  0
LINE
  5
15A
330
1F
100
AcDbEntity
  8
0
  6
Continuous
 62
     7
370
    15
100
AcDbLine
 10
216.4093579072
 20
79.0784696399
 30
0.0
 11
216.4093579072
 21
78.6622206032
 31
0.0
  0
LINE
  5
15B
330
1F
100
AcDbEntity
  8
0
  6
Continuous
 62
     7
370
    15
100
AcDbLine
 10
219.4093490857
 20
78.6622206032
 30
0.0
 11
219.4093490857
 21
79.0812114536
 31
0.0
  0
LINE
  5
15C
330
1F
100
AcDbEntity
  8
0
  6
Continuous
 62
     7
370
    15
100
AcDbLine
 10
219.4093490857
 20
92.0757243692
 30
0.0
 11
219.4093490857
 21
92.320863372
 31
0.0
  0
LINE
  5
15D
330
1F
100
AcDbEntity
  8
0
  6
Continuous
 62
     7
370
    15
100
AcDbLine
 10
205.7086403388
 20
91.1784658491
 30
0.0
 11
204.090359332
 21
91.1784658491
 31
0.0
  0
LINE
  5
15E
330
1F
100
AcDbEntity
  8
0
  6
Continuous
 62
     7
370
    15
100
AcDbLine
 10
204.7172809858
 20
90.3784672081
 30
0.0
 11
205.7086403388
 21
90.3784672081
 31
0.0
  0
LINE
  5
15F
330
1F
100
AcDbEntity
  8
0
  6
Continuous
 62
     7
370
    15
100
AcDbLine
 10
206.0468668956
 20
92.4465993702
 30
0.0
 11
205.7803298253
 21
91.2383536159
 31
0.0
  0
LINE
  5
160
330
1F
100
AcDbEntity
  8
0
  6
Continuous
 62
     7
370
    15
100
AcDbLine
 10
206.5484846849
 20
91.0068044721
 30
0.0
 11
206.8280751723
 21
92.274267441
 31
0.0
  0
SPLINE
  5
161
330
1F
100
AcDbEntity
  8
0
  6
Continuous
 62
     7
370
    15
100
AcDbSpline
210
0.0
220
0.0
230
1.0
 70
     8
 71
     3
 72
    11
 73
     7
 74
     0
 42
0.00000001
 43
0.00000001
 40
0.0
 40
0.0
 40
0.0
 40
0.0
 40
0.2541311630691059
 40
0.5022676364033828
 40
0.7495179365131207
 40
1.0
 40
1.0
 40
1.0
 40
1.0
 10
205.7086403388226
 20
90.37846720807002
 30
0.0
 10
205.8087287721181
 20
90.38871233232234
 30
0.0
 10
206.0065446567011
 20
90.40896090900505
 30
0.0
 10
206.2646962438504
 20
90.56298654590863
 30
0.0
 10
206.4681376611227
 20
90.7820677771565
 30
0.0
 10
206.529873640752
 20
90.96911780254702
 30
0.0
 10
206.5609420556271
 20
91.06325007073329
 30
0.0
  0
LINE
  5
162
330
1F
100
AcDbEntity
  8
0
  6
Continuous
 62
     7
370
    15
100
AcDbLine
 10
205.3203607816
 20
77.5784591495
 30
0.0
 11
205.3203607816
 21
78.3784577905
 31
0.0
  0
LINE
  5
163
330
1F
100
AcDbEntity
  8
0
  6
Continuous
 62
     7
370
    15
100
AcDbLine
 10
205.3203607816
 20
92.7784631311
 30
0.0
 11
205.3203607816
 21
93.5784617721
 31
0.0
  0
ARC
  5
164
330
1F
100
AcDbEntity
  8
0
  6
Continuous
 62
     7
370
    15
100
AcDbCircle
 10
202.5903609342
 20
90.7713199879
 30
0.0
 40
3.807142857143293
100
AcDbArc
 50
54.6997515601
 51
125.3002484399
  0
LINE
  5
165
330
1F
100
AcDbEntity
  8
0
  6
Continuous
 62
     7
370
    15
100
AcDbLine
 10
200.3903563041
 20
93.8784668504
 30
0.0
 11
200.3903563041
 21
93.5784617721
 31
0.0
  0
LINE
  5
166
330
1F
100
AcDbEntity
  8
0
  6
Continuous
 62
     7
370
    15
100
AcDbLine
 10
204.7903562803
 20
93.5784617721
 30
0.0
 11
204.7903562803
 21
93.8784668504
 31
0.0
  0
LINE
  5
167
330
1F
100
AcDbEntity
  8
0
  6
Continuous
 62
     7
370
    15
100
AcDbLine
 10
200.4903579969
 20
77.1784672796
 30
0.0
 11
200.4903579969
 21
76.7784605085
 31
0.0
  0
LINE
  5
168
330
1F
100
AcDbEntity
  8
0
  6
Continuous
 62
     7
370
    15
100
AcDbLine
 10
204.6903545875
 20
76.7784605085
 30
0.0
 11
204.6903545875
 21
77.1784672796
 31
0.0
  0
ARC
  5
169
330
1F
100
AcDbEntity
  8
0
  6
Continuous
 62
     7
370
    15
100
AcDbCircle
 10
200.6903609342
 20
77.578462845
 30
0.0
 40
0.4000000000007731
100
AcDbArc
 50
270.0
 51
0.0
  0
ARC
  5
16A
330
1F
100
AcDbEntity
  8
0
  6
Continuous
 62
     7
370
    15
100
AcDbCircle
 10
204.4903609342
 20
77.578462845
 30
0.0
 40
0.4000000000008015
100
AcDbArc
 50
180.0
 51
270.0
  0
LINE
  5
16B
330
1F
100
AcDbEntity
  8
0
  6
Continuous
 62
     7
370
    15
100
AcDbLine
 10
201.0903681535
 20
92.7784631311
 30
0.0
 11
201.0903681535
 21
92.3284629642
 31
0.0
  0
LINE
  5
16C
330
1F
100
AcDbEntity
  8
0
  6
Continuous
 62
     7
370
    15
100
AcDbLine
 10
201.0903681535
 20
91.3284609377
 30
0.0
 11
201.0903681535
 21
90.8397624551
 31
0.0
  0
LINE
  5
16D
330
1F
100
AcDbEntity
  8
0
  6
Continuous
 62
     7
370
    15
100
AcDbLine
 10
201.0903681535
 20
90.043638116
 30
0.0
 11
201.0903681535
 21
89.874003297
 31
0.0
  0
LINE
  5
16E
330
1F
100
AcDbEntity
  8
0
  6
Continuous
 62
     7
370
    15
100
AcDbLine
 10
201.0903681535
 20
80.5888364374
 30
0.0
 11
201.0903681535
 21
79.828459984
 31
0.0
  0
LINE
  5
16F
330
1F
100
AcDbEntity
  8
0
  6
Continuous
 62
     7
370
    15
100
AcDbLine
 10
201.0903681535
 20
78.8284579574
 30
0.0
 11
201.0903681535
 21
78.3784577905
 31
0.0
  0
LINE
  5
170
330
1F
100
AcDbEntity
  8
0
  6
Continuous
 62
     7
370
    15
100
AcDbLine
 10
204.090359332
 20
78.3784577905
 30
0.0
 11
204.090359332
 21
78.8284579574
 31
0.0
  0
LINE
  5
171
330
1F
100
AcDbEntity
  8
0
  6
Continuous
 62
     7
370
    15
100
AcDbLine
 10
204.090359332
 20
79.828459984
 30
0.0
 11
204.090359332
 21
80.3156087457
 31
0.0
  0
LINE
  5
172
330
1F
100
AcDbEntity
  8
0
  6
Continuous
 62
     7
370
    15
100
AcDbLine
 10
204.090359332
 20
89.6235296785
 30
0.0
 11
204.090359332
 21
89.8114631235
 31
0.0
  0
LINE
  5
173
330
1F
100
AcDbEntity
  8
0
  6
Continuous
 62
     7
370
    15
100
AcDbLine
 10
204.090359332
 20
90.5665347635
 30
0.0
 11
204.090359332
 21
91.3284609377
 31
0.0
  0
LINE
  5
174
330
1F
100
AcDbEntity
  8
0
  6
Continuous
 62
     7
370
    15
100
AcDbLine
 10
204.090359332
 20
92.3284629642
 30
0.0
 11
204.090359332
 21
92.7784631311
 31
0.0
  0
SPLINE
  5
175
330
1F
100
AcDbEntity
  8
0
  6
Continuous
 62
     7
370
    15
100
AcDbSpline
210
0.0
220
0.0
230
1.0
 70
     8
 71
     3
 72
    15
 73
    11
 74
     0
 42
0.00000001
 43
0.00000001
 40
0.0
 40
0.0
 40
0.0
 40
0.0
 40
0.1355965265320355
 40
0.2953255980744156
 40
0.4038106423382971
 40
0.5319577027750214
 40
0.6738320656244405
 40
0.8261009879684832
 40
0.9126193300633378
 40
1.0
 40
1.0
 40
1.0
 40
1.0
 10
204.0903593320096
 20
450.1445034801191
 30
0.0
 10
204.134741605124
 20
450.1371830436198
 30
0.0
 10
204.2314050056302
 20
450.1212393292594
 30
0.0
 10
204.4382551637135
 20
450.1689107179265
 30
0.0
 10
204.6315120147452
 20
450.2566252129586
 30
0.0
 10
204.7780974136381
 20
450.3762967957995
 30
0.0
 10
204.8768097030746
 20
450.5271813933091
 30
0.0
 10
204.9064629896785
 20
450.6490309226466
 30
0.0
 10
204.8852940036973
 20
450.7782802622099
 30
0.0
 10
204.8390361703914
 20
450.8449566592417
 30
0.0
 10
204.8157925624097
 20
450.878460174722
 30
0.0
  0
SPLINE
  5
176
330
1F
100
AcDbEntity
  8
0
  6
Continuous
 62
     7
370
    15
100
AcDbSpline
210
0.0
220
0.0
230
1.0
 70
     8
 71
     3
 72
    20
 73
    16
 74
     0
 42
0.00000001
 43
0.00000001
 40
0.0
 40
0.0
 40
0.0
 40
0.0
 40
0.075654538938501
 40
0.2388434379765975
 40
0.4004970338196506
 40
0.4790186976996829
 40
0.5548189789169559
 40
0.6288587917717338
 40
0.7051057401863248
 40
0.7821697344571148
 40
0.858938881653162
 40
0.9341633523216606
 40
0.970845038315003
 40
0.9894037677443019
 40
1.0
 40
1.0
 40
1.0
 40
1.0
 10
200.3158653992856
 20
450.9174714147275
 30
0.0
 10
200.3741030416804
 20
450.848942841993
 30
0.0
 10
200.5579608633578
 20
450.6325962732191
 30
0.0
 10
200.9893342490103
 20
450.6061768800449
 30
0.0
 10
201.5551294761688
 20
450.5334089214372
 30
0.0
 10
202.0746355863121
 20
450.4901865756599
 30
0.0
 10
202.4685464399725
 20
450.4596798710618
 30
0.0
 10
202.8614531464306
 20
450.4319944532479
 30
0.0
 10
203.2426158153376
 20
450.4006871643791
 30
0.0
 10
203.5983402315168
 20
450.3682132403437
 30
0.0
 10
203.900961710521
 20
450.337376458262
 30
0.0
 10
204.0934800144148
 20
450.3144754063908
 30
0.0
 10
204.1815947773809
 20
450.3064569880761
 30
0.0
 10
204.2270218366797
 20
450.2986743547601
 30
0.0
 10
204.2264724831779
 20
450.3026172034169
 30
0.0
 10
204.2262728232587
 20
450.3040502130215
 30
0.0
  0
SPLINE
  5
177
330
1F
100
AcDbEntity
  8
0
  6
Continuous
 62
     7
370
    15
100
AcDbSpline
210
0.0
220
0.0
230
1.0
 70
     8
 71
     3
 72
    18
 73
    14
 74
     0
 42
0.00000001
 43
0.00000001
 40
0.0
 40
0.0
 40
0.0
 40
0.0
 40
0.0355487530759916
 40
0.1421410659101538
 40
0.2612171405860246
 40
0.3785091793625541
 40
0.4914190313415076
 40
0.599584545891164
 40
0.7135829915872052
 40
0.8317044013590122
 40
0.8924674971906398
 40
0.9532432765952525
 40
1.0
 40
1.0
 40
1.0
 40
1.0
 10
204.6720410603726
 20
459.4784567414945
 30
0.0
 10
204.6427339671781
 20
459.4984212168541
 30
0.0
 10
204.5255500688712
 20
459.5782488215494
 30
0.0
 10
204.2774913486218
 20
459.5973795203424
 30
0.0
 10
203.8849375676051
 20
459.6519921698632
 30
0.0
 10
203.3733732064801
 20
459.6987757857429
 30
0.0
 10
202.8222616085993
 20
459.7446251809722
 30
0.0
 10
202.2601644696412
 20
459.7835861296787
 30
0.0
 10
201.7258787183039
 20
459.828316686135
 30
0.0
 10
201.3282397865337
 20
459.8693626666199
 30
0.0
 10
201.1135116740477
 20
459.8905095393955
 30
0.0
 10
201.0174645704665
 20
459.8927850691758
 30
0.0
 10
201.0020160084437
 20
459.8767073577812
 30
0.0
 10
200.9952987450802
 20
459.8697165309613
 30
0.0
  0
SPLINE
  5
178
330
1F
100
AcDbEntity
  8
0
  6
Continuous
 62
     7
370
    15
100
AcDbSpline
210
0.0
220
0.0
230
1.0
 70
     8
 71
     3
 72
    12
 73
     8
 74
     0
 42
0.00000001
 43
0.00000001
 40
0.0
 40
0.0
 40
0.0
 40
0.0
 40
0.2236875025052179
 40
0.4523163209921765
 40
0.6822441054446139
 40
0.9102243234474346
 40
1.0
 40
1.0
 40
1.0
 40
1.0
 10
200.2960617560589
 20
460.6803098975842
 30
0.0
 10
200.2833201490527
 20
460.6377596276926
 30
0.0
 10
200.2575554695778
 20
460.5517191412144
 30
0.0
 10
200.378713424071
 20
460.4601261545542
 30
0.0
 10
200.6103769783385
 20
460.363790653638
 30
0.0
 10
200.8552398309021
 20
460.3013302793591
 30
0.0
 10
201.0385714198593
 20
460.3065341374358
 30
0.0
 10
201.090368153497
 20
460.3080043851559
 30
0.0
  0
SPLINE
  5
179
330
1F
100
AcDbEntity
  8
0
  6
Continuous
 62
     7
370
    15
100
AcDbSpline
210
0.0
220
0.0
230
1.0
 70
     8
 71
     3
 72
    19
 73
    15
 74
     0
 42
0.00000001
 43
0.00000001
 40
0.0
 40
0.0
 40
0.0
 40
0.0
 40
0.0979058804119611
 40
0.1753761748235983
 40
0.2884837694530603
 40
0.3734531724706804
 40
0.457001699342457
 40
0.6168875345302438
 40
0.6796675139191678
 40
0.7634261149439612
 40
0.8137550417830408
 40
0.8702986580991632
 40
0.9324003201734166
 40
1.0
 40
1.0
 40
1.0
 40
1.0
 10
200.4722977894986
 20
460.1851890145962
 30
0.0
 10
200.5228071445468
 20
460.1588079169113
 30
0.0
 10
200.6132831960759
 20
460.1115521649569
 30
0.0
 10
200.9879228207916
 20
460.0509030698857
 30
0.0
 10
201.4744256202913
 20
459.9970136921871
 30
0.0
 10
202.0657653145168
 20
459.9437896494025
 30
0.0
 10
202.8198609592007
 20
459.8922400698138
 30
0.0
 10
203.460969511458
 20
459.8252892366186
 30
0.0
 10
204.1102321110174
 20
459.7897628891822
 30
0.0
 10
204.4885727360176
 20
459.8679776580962
 30
0.0
 10
204.7404203476237
 20
459.9761487013058
 30
0.0
 10
204.8740074749327
 20
460.0645001066455
 30
0.0
 10
204.9357829905431
 20
460.1383307626494
 30
0.0
 10
204.8643388608408
 20
460.2188572914882
 30
0.0
 10
204.8271025437558
 20
460.2608273088162
 30
0.0
  0
SPLINE
  5
17A
330
1F
100
AcDbEntity
  8
0
  6
Continuous
 62
     7
370
    15
100
AcDbSpline
210
0.0
220
0.0
230
1.0
 70
     8
 71
     3
 72
    25
 73
    21
 74
     0
 42
0.00000001
 43
0.00000001
 40
0.0
 40
0.0
 40
0.0
 40
0.0
 40
0.0176257152332822
 40
0.0344972878751767
 40
0.0503151928262487
 40
0.0649722332787061
 40
0.0909443007661495
 40
0.1134367202712146
 40
0.1538393106223322
 40
0.1912330264523711
 40
0.2995696854287082
 40
0.3999623312216071
 40
0.5012942975292105
 40
0.5949046217113428
 40
0.678488170197744
 40
0.7336282960994625
 40
0.8075181316366539
 40
0.8952811567272466
 40
0.9453086460221393
 40
1.0
 40
1.0
 40
1.0
 40
1.0
 10
204.4697875994885
 20
459.6352467595761
 30
0.0
 10
204.5094917645899
 20
459.6396368424036
 30
0.0
 10
204.587201292698
 20
459.6482291717979
 30
0.0
 10
204.6890947370619
 20
459.6942431338667
 30
0.0
 10
204.7700966468467
 20
459.7531920488971
 30
0.0
 10
204.8463134642705
 20
459.8367725313199
 30
0.0
 10
204.899356371789
 20
459.9404072292353
 30
0.0
 10
204.9235039951171
 20
460.0727668906754
 30
0.0
 10
204.9006308534526
 20
460.2046167467115
 30
0.0
 10
204.7293841970327
 20
460.4498231891807
 30
0.0
 10
204.3866051618332
 20
460.5369155717681
 30
0.0
 10
203.8914892050148
 20
460.5954741650013
 30
0.0
 10
203.2782774247888
 20
460.6538177947822
 30
0.0
 10
202.6288013124134
 20
460.7034422130609
 30
0.0
 10
202.0891060062422
 20
460.7429276504582
 30
0.0
 10
201.6430855267393
 20
460.7821057806185
 30
0.0
 10
201.2543993512212
 20
460.8203341671809
 30
0.0
 10
200.9942215491344
 20
460.8481630796232
 30
0.0
 10
200.8637952664036
 20
460.8706787358524
 30
0.0
 10
200.8551228819903
 20
460.8831355883
 30
0.0
 10
200.8505935687268
 20
460.8896414100354
 30
0.0
  0
SPLINE
  5
17B
330
1F
100
AcDbEntity
  8
0
  6
Continuous
 62
     7
370
    15
100
AcDbSpline
210
0.0
220
0.0
230
1.0
 70
     8
 71
     3
 72
    12
 73
     8
 74
     0
 42
0.00000001
 43
0.00000001
 40
0.0
 40
0.0
 40
0.0
 40
0.0
 40
0.1717168263675926
 40
0.5595013737180837
 40
0.7416474904264732
 40
0.90014743449497
 40
0.9999999999999999
 40
0.9999999999999999
 40
0.9999999999999999
 40
0.9999999999999999
 10
200.9389276522839
 20
460.0711504279797
 30
0.0
 10
200.8733515222266
 20
460.0619774276697
 30
0.0
 10
200.6596861777972
 20
460.0320892310203
 30
0.0
 10
200.444240056386
 20
459.9582417651511
 30
0.0
 10
200.2820335702949
 20
459.7430945677269
 30
0.0
 10
200.2515259339928
 20
459.5748545602628
 30
0.0
 10
200.2864198491908
 20
459.4889709598502
 30
0.0
 10
200.299906255647
 20
459.4557771741574
 30
0.0
  0
LINE
  5
17C
330
1F
100
AcDbEntity
  8
0
  6
Continuous
 62
     7
370
    15
100
AcDbLine
 10
200.4501248616
 20
450.7807234585
 30
0.0
 11
199.3316586036
 21
450.7807234585
 31
0.0
  0
LINE
  5
17D
330
1F
100
AcDbEntity
  8
0
  6
Continuous
 62
     7
370
    15
100
AcDbLine
 10
199.3316586036
 20
449.9807248174
 30
0.0
 11
201.0903681535
 21
449.9807248174
 31
0.0
  0
LINE
  5
17E
330
1F
100
AcDbEntity
  8
0
  6
Continuous
 62
     7
370
    15
100
AcDbLine
 10
197.9213680047
 20
463.5784665405
 30
0.0
 11
197.9213680047
 21
463.6319319069
 31
0.0
  0
LINE
  5
17F
330
1F
100
AcDbEntity
  8
0
  6
Continuous
 62
     7
370
    15
100
AcDbLine
 10
194.9213768262
 20
463.6319319069
 30
0.0
 11
194.9213768262
 21
463.5784665405
 31
0.0
  0
SPLINE
  5
180
330
1F
100
AcDbEntity
  8
0
  6
Continuous
 62
     7
370
    15
100
AcDbSpline
210
0.0
220
0.0
230
1.0
 70
     8
 71
     3
 72
    15
 73
    11
 74
     0
 42
0.00000001
 43
0.00000001
 40
0.0
 40
0.0
 40
0.0
 40
0.0
 40
0.1077555579650511
 40
0.2352512325732731
 40
0.362790393113062
 40
0.4902567237356049
 40
0.6176629731078395
 40
0.7450967633746183
 40
0.8724966280894119
 40
1.0
 40
1.0
 40
1.0
 40
1.0
 10
194.937425376817
 20
447.5784639178937
 30
0.0
 10
194.9539645051383
 20
447.2659416709201
 30
0.0
 10
194.9900726224062
 20
446.5836451361006
 30
0.0
 10
195.3262853227963
 20
445.5744972823338
 30
0.0
 10
195.8843648284118
 20
444.6110184036576
 30
0.0
 10
196.6391901597613
 20
443.7900914833699
 30
0.0
 10
197.5543539538368
 20
443.154823895082
 30
0.0
 10
198.5816113694873
 20
442.7346707022685
 30
0.0
 10
199.677585918505
 20
442.5208398760675
 30
0.0
 10
200.413347500564
 20
442.5863802591351
 30
0.0
 10
200.7813776749814
 20
442.6191637574856
 30
0.0
  0
SPLINE
  5
181
330
1F
100
AcDbEntity
  8
0
  6
Continuous
 62
     7
370
    15
100
AcDbSpline
210
0.0
220
0.0
230
1.0
 70
     8
 71
     3
 72
    15
 73
    11
 74
     0
 42
0.00000001
 43
0.00000001
 40
0.0
 40
0.0
 40
0.0
 40
0.0
 40
0.131648194526239
 40
0.2633122721493212
 40
0.3951869424196063
 40
0.5266693097239488
 40
0.657548265997943
 40
0.7882113096919668
 40
0.9184605807060211
 40
1.0
 40
1.0
 40
1.0
 40
1.0
 10
200.2836788911069
 20
445.5768505393689
 30
0.0
 10
200.1315007097922
 20
445.5650358573143
 30
0.0
 10
199.8271259871634
 20
445.541405067787
 30
0.0
 10
199.3762621683225
 20
445.6428786769962
 30
0.0
 10
198.9572278019847
 20
445.829728123485
 30
0.0
 10
198.586847428371
 20
446.1023397637459
 30
0.0
 10
198.2845743393489
 20
446.4482407576702
 30
0.0
 10
198.0654177975394
 20
446.8499497447984
 30
0.0
 10
197.9480637699419
 20
447.2362637000774
 30
0.0
 10
197.937880198234
 20
447.4833390180644
 30
0.0
 10
197.9339594859326
 20
447.5784639178937
 30
0.0
  0
SPLINE
  5
182
330
1F
100
AcDbEntity
  8
0
  6
Continuous
 62
     7
370
    15
100
AcDbSpline
210
0.0
220
0.0
230
1.0
 70
     8
 71
     3
 72
    15
 73
    11
 74
     0
 42
0.00000001
 43
0.00000001
 40
0.0
 40
0.0
 40
0.0
 40
0.0
 40
0.124927242033844
 40
0.249915584104946
 40
0.3749666876297332
 40
0.49995714039288
 40
0.6249210875693249
 40
0.749916766416261
 40
0.8748745362791711
 40
1.0
 40
1.0
 40
1.0
 40
1.0
 10
200.9522492903912
 20
468.5089776574795
 30
0.0
 10
200.5858730498473
 20
468.5523081471504
 30
0.0
 10
199.8529413796443
 20
468.6389903187837
 30
0.0
 10
198.7489110862313
 20
468.4738227492921
 30
0.0
 10
197.7081220837112
 20
468.0848675977816
 30
0.0
 10
196.7729220702255
 20
467.4798683420672
 30
0.0
 10
195.9922711860466
 20
466.6836790094524
 30
0.0
 10
195.4043141198447
 20
465.7393110057714
 30
0.0
 10
195.0084912154342
 20
464.6908672218181
 30
0.0
 10
194.9504279341056
 20
463.9517466209541
 30
0.0
 10
194.9213768262112
 20
463.5819385110562
 30
0.0
  0
SPLINE
  5
183
330
1F
100
AcDbEntity
  8
0
  6
Continuous
 62
     7
370
    15
100
AcDbSpline
210
0.0
220
0.0
230
1.0
 70
     8
 71
     3
 72
    15
 73
    11
 74
     0
 42
0.00000001
 43
0.00000001
 40
0.0
 40
0.0
 40
0.0
 40
0.0
 40
0.1242508473014407
 40
0.2486345109813449
 40
0.3735436292148429
 40
0.4985843691870843
 40
0.6236674415351806
 40
0.7490732749463799
 40
0.8744399049642777
 40
1.0
 40
1.0
 40
1.0
 40
1.0
 10
197.9213680047238
 20
463.5819385110562
 30
0.0
 10
197.9349246672392
 20
463.7338920320672
 30
0.0
 10
197.9620524834938
 20
464.0379615028918
 30
0.0
 10
198.136530141785
 20
464.4652709521245
 30
0.0
 10
198.3898583220202
 20
464.8469174256005
 30
0.0
 10
198.7196794255251
 20
465.1668504617372
 30
0.0
 10
199.1106068534989
 20
465.4074261763015
 30
0.0
 10
199.5433068539827
 20
465.5590344173596
 30
0.0
 10
200.0008334236005
 20
465.6124976124581
 30
0.0
 10
200.3027471155878
 20
465.57181285241
 30
0.0
 10
200.4538203496182
 20
465.5514547883694
 30
0.0
  0
LINE
  5
184
330
1F
100
AcDbEntity
  8
0
  6
Continuous
 62
     7
370
    15
100
AcDbLine
 10
215.8244277257
 20
448.1935987531
 30
0.0
 11
200.2834553737
 21
445.5771783649
 31
0.0
  0
LINE
  5
185
330
1F
100
AcDbEntity
  8
0
  6
Continuous
 62
     7
370
    15
100
AcDbLine
 10
200.7815266866
 20
442.6188210308
 30
0.0
 11
216.3224841375
 21
445.2352265178
 31
0.0
  0
LINE
  5
186
330
1F
100
AcDbEntity
  8
0
  6
Continuous
 62
     7
370
    15
100
AcDbLine
 10
200.454043867
 20
465.5510226547
 30
0.0
 11
215.9950162191
 21
462.9346022665
 31
0.0
  0
LINE
  5
187
330
1F
100
AcDbEntity
  8
0
  6
Continuous
 62
     7
370
    15
100
AcDbLine
 10
216.4930726308
 20
465.8929745018
 30
0.0
 11
200.9521002788
 21
468.50939489
 31
0.0
  0
SPLINE
  5
188
330
1F
100
AcDbEntity
  8
0
  6
Continuous
 62
     7
370
    15
100
AcDbSpline
210
0.0
220
0.0
230
1.0
 70
     8
 71
     3
 72
    12
 73
     8
 74
     0
 42
0.00000001
 43
0.00000001
 40
0.0
 40
0.0
 40
0.0
 40
0.0
 40
0.1526135397173891
 40
0.2973904856902686
 40
0.5623705157137553
 40
0.7966016097880517
 40
1.0
 40
1.0
 40
1.0
 40
1.0
 10
216.3221414107526
 20
445.2355394422238
 30
0.0
 10
216.5733611602805
 20
445.2882771593177
 30
0.0
 10
217.0629007087731
 20
445.39104455027
 30
0.0
 10
217.9124213205173
 20
445.8202973334806
 30
0.0
 10
218.7244110622955
 20
446.5646915083683
 30
0.0
 10
219.2888611166776
 20
447.6357302254219
 30
0.0
 10
219.370548518028
 20
448.3706587135013
 30
0.0
 10
219.4085146207059
 20
448.7122336684888
 30
0.0
  0
SPLINE
  5
189
330
1F
100
AcDbEntity
  8
0
  6
Continuous
 62
     7
370
    15
100
AcDbSpline
210
0.0
220
0.0
230
1.0
 70
     8
 71
     3
 72
    11
 73
     7
 74
     0
 42
0.00000001
 43
0.00000001
 40
0.0
 40
0.0
 40
0.0
 40
0.0
 40
0.2003633530022297
 40
0.4328044256764416
 40
0.6990221939103936
 40
1.0
 40
1.0
 40
1.0
 40
1.0
 10
216.410192372247
 20
448.7122336684888
 30
0.0
 10
216.3969657138015
 20
448.6558053207652
 30
0.0
 10
216.368394838807
 20
448.5339145744664
 30
0.0
 10
216.2525002201465
 20
448.3682141976935
 30
0.0
 10
216.067766791751
 20
448.2293000800864
 30
0.0
 10
215.9101415591658
 20
448.2059075202473
 30
0.0
 10
215.8264989871228
 20
448.1934944450085
 30
0.0
  0
SPLINE
  5
18A
330
1F
100
AcDbEntity
  8
0
  6
Continuous
 62
     7
370
    15
100
AcDbSpline
210
0.0
220
0.0
230
1.0
 70
     8
 71
     3
 72
    12
 73
     8
 74
     0
 42
0.00000001
 43
0.00000001
 40
0.0
 40
0.0
 40
0.0
 40
0.0
 40
0.2034080200695087
 40
0.4376404137126195
 40
0.7026187806726812
 40
0.8473900742190442
 40
1.0
 40
1.0
 40
1.0
 40
1.0
 10
219.4085146207059
 20
462.2708598434155
 30
0.0
 10
219.3870737004791
 20
462.6138701803912
 30
0.0
 10
219.3409427111739
 20
463.3518705096332
 30
0.0
 10
218.8288460406915
 20
464.448987527681
 30
0.0
 10
218.0536308304401
 20
465.2317325514098
 30
0.0
 10
217.225786777132
 20
465.7014650103882
 30
0.0
 10
216.7418015325148
 20
465.8277207280569
 30
0.0
 10
216.4934302586758
 20
465.8925125657742
 30
0.0
  0
SPLINE
  5
18B
330
1F
100
AcDbEntity
  8
0
  6
Continuous
 62
     7
370
    15
100
AcDbSpline
210
0.0
220
0.0
230
1.0
 70
     8
 71
     3
 72
    12
 73
     8
 74
     0
 42
0.00000001
 43
0.00000001
 40
0.0
 40
0.0
 40
0.0
 40
0.0
 40
0.1555606298326515
 40
0.3022104918759382
 40
0.5679679576816538
 40
0.7999533683161958
 40
0.9999999999999999
 40
0.9999999999999999
 40
0.9999999999999999
 40
0.9999999999999999
 10
215.99309396927
 20
462.9355261384671
 30
0.0
 10
216.0336411716403
 20
462.9197760955848
 30
0.0
 10
216.1124129661857
 20
462.8891781980858
 30
0.0
 10
216.2420397655276
 20
462.7941411564994
 30
0.0
 10
216.3564814113105
 20
462.6479613642649
 30
0.0
 10
216.4206088866133
 20
462.4537089305468
 30
0.0
 10
216.4134890957382
 20
462.3287297660874
 30
0.0
 10
216.410192372247
 20
462.2708598434155
 30
0.0
  0
LINE
  5
18C
330
1F
100
AcDbEntity
  8
0
  6
Continuous
 62
     7
370
    15
100
AcDbLine
 10
216.4093579072
 20
462.3208532392
 30
0.0
 11
216.4093579072
 21
462.0784560501
 31
0.0
  0
LINE
  5
18D
330
1F
100
AcDbEntity
  8
0
  6
Continuous
 62
     7
370
    15
100
AcDbLine
 10
216.4093579072
 20
449.0784595071
 30
0.0
 11
216.4093579072
 21
448.6622253715
 31
0.0
  0
LINE
  5
18E
330
1F
100
AcDbEntity
  8
0
  6
Continuous
 62
     7
370
    15
100
AcDbLine
 10
219.4093490857
 20
448.6622253715
 30
0.0
 11
219.4093490857
 21
449.0812013208
 31
0.0
  0
LINE
  5
18F
330
1F
100
AcDbEntity
  8
0
  6
Continuous
 62
     7
370
    15
100
AcDbLine
 10
219.4093490857
 20
462.0757142364
 30
0.0
 11
219.4093490857
 21
462.3208532392
 31
0.0
  0
LINE
  5
190
330
1F
100
AcDbEntity
  8
0
  6
Continuous
 62
     7
370
    15
100
AcDbLine
 10
205.7086403388
 20
461.1784557163
 30
0.0
 11
204.090359332
 21
461.1784557163
 31
0.0
  0
LINE
  5
191
330
1F
100
AcDbEntity
  8
0
  6
Continuous
 62
     7
370
    15
100
AcDbLine
 10
204.7172809858
 20
460.3784570753
 30
0.0
 11
205.7086403388
 21
460.3784570753
 31
0.0
  0
LINE
  5
192
330
1F
100
AcDbEntity
  8
0
  6
Continuous
 62
     7
370
    15
100
AcDbLine
 10
206.0468668956
 20
462.4466041385
 30
0.0
 11
205.7803298253
 21
461.2383583843
 31
0.0
  0
LINE
  5
193
330
1F
100
AcDbEntity
  8
0
  6
Continuous
 62
     7
370
    15
100
AcDbLine
 10
206.5484846849
 20
461.0068092405
 30
0.0
 11
206.8280751723
 21
462.2742722093
 31
0.0
  0
SPLINE
  5
194
330
1F
100
AcDbEntity
  8
0
  6
Continuous
 62
     7
370
    15
100
AcDbSpline
210
0.0
220
0.0
230
1.0
 70
     8
 71
     3
 72
    11
 73
     7
 74
     0
 42
0.00000001
 43
0.00000001
 40
0.0
 40
0.0
 40
0.0
 40
0.0
 40
0.2541322396080093
 40
0.5022676065307782
 40
0.7495073204938133
 40
1.0
 40
1.0
 40
1.0
 40
1.0
 10
205.7086403388226
 20
460.3784570752804
 30
0.0
 10
205.8087287948362
 20
460.3887081936726
 30
0.0
 10
206.0065438745791
 20
460.4089685302087
 30
0.0
 10
206.2646905406227
 20
460.5629905190839
 30
0.0
 10
206.4681458311233
 20
460.7820621005637
 30
0.0
 10
206.5298755012392
 20
460.969116423969
 30
0.0
 10
206.5609420556271
 20
461.0632548391049
 30
0.0
  0
LINE
  5
195
330
1F
100
AcDbEntity
  8
0
  6
Continuous
 62
     7
370
    15
100
AcDbLine
 10
205.3203607816
 20
447.5784639179
 30
0.0
 11
205.3203607816
 21
448.3784625589
 31
0.0
  0
LINE
  5
196
330
1F
100
AcDbEntity
  8
0
  6
Continuous
 62
     7
370
    15
100
AcDbLine
 10
205.3203607816
 20
462.7784678995
 30
0.0
 11
205.3203607816
 21
463.5784665405
 31
0.0
  0
LINE
  5
197
330
1F
100
AcDbEntity
  8
0
  6
Continuous
 62
     7
370
    15
100
AcDbLine
 10
200.3903563041
 20
463.8784567177
 30
0.0
 11
200.3903563041
 21
463.5784665405
 31
0.0
  0
LINE
  5
198
330
1F
100
AcDbEntity
  8
0
  6
Continuous
 62
     7
370
    15
100
AcDbLine
 10
204.7903562803
 20
463.5784665405
 30
0.0
 11
204.7903562803
 21
463.8784567177
 31
0.0
  0
ARC
  5
199
330
1F
100
AcDbEntity
  8
0
  6
Continuous
 62
     7
370
    15
100
AcDbCircle
 10
202.5903609342
 20
460.7713199879
 30
0.0
 40
3.807142857143352
100
AcDbArc
 50
54.6997515601
 51
125.3002484399
  0
LINE
  5
19A
330
1F
100
AcDbEntity
  8
0
  6
Continuous
 62
     7
370
    15
100
AcDbLine
 10
200.4903579969
 20
447.1784571468
 30
0.0
 11
200.4903579969
 21
446.7784652769
 31
0.0
  0
LINE
  5
19B
330
1F
100
AcDbEntity
  8
0
  6
Continuous
 62
     7
370
    15
100
AcDbLine
 10
204.6903545875
 20
446.7784652769
 30
0.0
 11
204.6903545875
 21
447.1784571468
 31
0.0
  0
ARC
  5
19C
330
1F
100
AcDbEntity
  8
0
  6
Continuous
 62
     7
370
    15
100
AcDbCircle
 10
200.6903609342
 20
447.578462845
 30
0.0
 40
0.4000000000008015
100
AcDbArc
 50
270.0
 51
0.0
  0
ARC
  5
19D
330
1F
100
AcDbEntity
  8
0
  6
Continuous
 62
     7
370
    15
100
AcDbCircle
 10
204.4903609342
 20
447.578462845
 30
0.0
 40
0.4000000000008299
100
AcDbArc
 50
180.0
 51
270.0
  0
LINE
  5
19E
330
1F
100
AcDbEntity
  8
0
  6
Continuous
 62
     7
370
    15
100
AcDbLine
 10
201.0903681535
 20
462.7784678995
 30
0.0
 11
201.0903681535
 21
462.3284677326
 31
0.0
  0
LINE
  5
19F
330
1F
100
AcDbEntity
  8
0
  6
Continuous
 62
     7
370
    15
100
AcDbLine
 10
201.0903681535
 20
461.328465706
 30
0.0
 11
201.0903681535
 21
460.8397523224
 31
0.0
  0
LINE
  5
1A0
330
1F
100
AcDbEntity
  8
0
  6
Continuous
 62
     7
370
    15
100
AcDbLine
 10
201.0903681535
 20
460.0436428844
 30
0.0
 11
201.0903681535
 21
459.8739931642
 31
0.0
  0
LINE
  5
1A1
330
1F
100
AcDbEntity
  8
0
  6
Continuous
 62
     7
370
    15
100
AcDbLine
 10
201.0903681535
 20
450.5888412058
 30
0.0
 11
201.0903681535
 21
449.8284647524
 31
0.0
  0
LINE
  5
1A2
330
1F
100
AcDbEntity
  8
0
  6
Continuous
 62
     7
370
    15
100
AcDbLine
 10
201.0903681535
 20
448.8284627258
 30
0.0
 11
201.0903681535
 21
448.3784625589
 31
0.0
  0
LINE
  5
1A3
330
1F
100
AcDbEntity
  8
0
  6
Continuous
 62
     7
370
    15
100
AcDbLine
 10
204.090359332
 20
448.3784625589
 30
0.0
 11
204.090359332
 21
448.8284627258
 31
0.0
  0
LINE
  5
1A4
330
1F
100
AcDbEntity
  8
0
  6
Continuous
 62
     7
370
    15
100
AcDbLine
 10
204.090359332
 20
449.8284647524
 30
0.0
 11
204.090359332
 21
450.3155986129
 31
0.0
  0
LINE
  5
1A5
330
1F
100
AcDbEntity
  8
0
  6
Continuous
 62
     7
370
    15
100
AcDbLine
 10
204.090359332
 20
459.6235195457
 30
0.0
 11
204.090359332
 21
459.8114678919
 31
0.0
  0
LINE
  5
1A6
330
1F
100
AcDbEntity
  8
0
  6
Continuous
 62
     7
370
    15
100
AcDbLine
 10
204.090359332
 20
460.5665395319
 30
0.0
 11
204.090359332
 21
461.328465706
 31
0.0
  0
LINE
  5
1A7
330
1F
100
AcDbEntity
  8
0
  6
Continuous
 62
     7
370
    15
100
AcDbLine
 10
204.090359332
 20
462.3284677326
 30
0.0
 11
204.090359332
 21
462.7784678995
 31
0.0
  0
LINE
  5
1A8
330
1F
100
AcDbEntity
  8
0
  6
Continuous
 62
     7
370
    15
100
AcDbLine
 10
219.3599815387
 20
79.0784696399
 30
0.0
 11
218.40794635
 21
79.0784696399
 31
0.0
  0
LWPOLYLINE
  5
1A9
330
1F
100
AcDbEntity
  8
0
  6
Continuous
 62
     7
370
    15
100
AcDbPolyline
 90
        9
 70
   128
 43
0.0
 10
218.40794635
 20
79.0784696399
 10
218.5504610557
 20
79.1015217363
 10
218.6875070352
 20
79.1698137581
 10
218.8138092775
 20
79.2806932985
 10
218.924510004
 20
79.4299284279
 10
219.0153474826
 20
79.6117821991
 10
219.082864644
 20
79.8192361652
 10
219.1244239825
 20
80.0443480074
 10
219.1384608764
 20
80.2784601509
  0
LINE
  5
1AA
330
1F
100
AcDbEntity
  8
0
  6
Continuous
 62
     7
370
    15
100
AcDbLine
 10
219.1384608764
 20
80.2784601509
 30
0.0
 11
220.0904960651
 21
80.2784601509
 31
0.0
  0
LWPOLYLINE
  5
1AB
330
1F
100
AcDbEntity
  8
0
  6
Continuous
 62
     7
370
    15
100
AcDbPolyline
 90
        9
 70
   128
 43
0.0
 10
220.0904960651
 20
80.2784601509
 10
220.0764591712
 20
80.0443480074
 10
220.0348849315
 20
79.8192361652
 10
219.9673826713
 20
79.6117821991
 10
219.8765302915
 20
79.4299284279
 10
219.765829565
 20
79.2806932985
 10
219.6395273227
 20
79.1698137581
 10
219.5024962444
 20
79.1015217363
 10
219.3599815387
 20
79.0784696399
  0
LINE
  5
1AC
330
1F
100
AcDbEntity
  8
0
  6
Continuous
 62
     7
370
    15
100
AcDbLine
 10
220.0904960651
 20
90.8784607708
 30
0.0
 11
219.1384608764
 21
90.8784607708
 31
0.0
  0
LINE
  5
1AD
330
1F
100
AcDbEntity
  8
0
  6
Continuous
 62
     7
370
    15
100
AcDbLine
 10
220.0904960651
 20
90.8784607708
 30
0.0
 11
220.0904960651
 21
80.2784601509
 31
0.0
  0
LINE
  5
1AE
330
1F
100
AcDbEntity
  8
0
  6
Continuous
 62
     7
370
    15
100
AcDbLine
 10
219.1384608764
 20
90.8784607708
 30
0.0
 11
219.1384608764
 21
80.2784601509
 31
0.0
  0
LINE
  5
1AF
330
1F
100
AcDbEntity
  8
0
  6
Continuous
 62
     7
370
    15
100
AcDbLine
 10
215.6889761705
 20
92.0784661829
 30
0.0
 11
215.6889761705
 21
79.0784696399
 31
0.0
  0
LINE
  5
1B0
330
1F
100
AcDbEntity
  8
0
  6
Continuous
 62
     7
370
    15
100
AcDbLine
 10
215.6889761705
 20
92.0784661829
 30
0.0
 11
218.40794635
 21
92.0784661829
 31
0.0
  0
LWPOLYLINE
  5
1B1
330
1F
100
AcDbEntity
  8
0
  6
Continuous
 62
     7
370
    15
100
AcDbPolyline
 90
        9
 70
   128
 43
0.0
 10
219.1384608764
 20
90.8784607708
 10
219.1244239825
 20
91.1125729143
 10
219.082864644
 20
91.3376847564
 10
219.0153474826
 20
91.5451536237
 10
218.924510004
 20
91.7269924938
 10
218.8138092775
 20
91.8762276231
 10
218.6875070352
 20
91.9871220648
 10
218.5504610557
 20
92.0553991853
 10
218.40794635
 20
92.0784661829
  0
LINE
  5
1B2
330
1F
100
AcDbEntity
  8
0
  6
Continuous
 62
     7
370
    15
100
AcDbLine
 10
218.40794635
 20
79.0784696399
 30
0.0
 11
215.6889761705
 21
79.0784696399
 31
0.0
  0
LINE
  5
1B3
330
1F
100
AcDbEntity
  8
0
  6
Continuous
 62
     7
370
    15
100
AcDbLine
 10
218.40794635
 20
92.0784661829
 30
0.0
 11
219.3599815387
 21
92.0784661829
 31
0.0
  0
LWPOLYLINE
  5
1B4
330
1F
100
AcDbEntity
  8
0
  6
Continuous
 62
     7
370
    15
100
AcDbPolyline
 90
        9
 70
   128
 43
0.0
 10
219.3599815387
 20
92.0784661829
 10
219.5024962444
 20
92.0553991853
 10
219.6395273227
 20
91.9871220648
 10
219.765829565
 20
91.8762276231
 10
219.8765302915
 20
91.7269924938
 10
219.9673826713
 20
91.5451536237
 10
220.0348849315
 20
91.3376847564
 10
220.0764591712
 20
91.1125729143
 10
220.0904960651
 20
90.8784607708
  0
LINE
  5
1B5
330
1F
100
AcDbEntity
  8
0
  6
Continuous
 62
     7
370
    15
100
AcDbLine
 10
220.0904960651
 20
460.8784655391
 30
0.0
 11
219.1384608764
 21
460.8784655391
 31
0.0
  0
LINE
  5
1B6
330
1F
100
AcDbEntity
  8
0
  6
Continuous
 62
     7
370
    15
100
AcDbLine
 10
220.0904960651
 20
460.8784655391
 30
0.0
 11
220.0904960651
 21
450.2784649193
 31
0.0
  0
LINE
  5
1B7
330
1F
100
AcDbEntity
  8
0
  6
Continuous
 62
     7
370
    15
100
AcDbLine
 10
219.1384608764
 20
450.2784649193
 30
0.0
 11
220.0904960651
 21
450.2784649193
 31
0.0
  0
LINE
  5
1B8
330
1F
100
AcDbEntity
  8
0
  6
Continuous
 62
     7
370
    15
100
AcDbLine
 10
219.1384608764
 20
460.8784655391
 30
0.0
 11
219.1384608764
 21
450.2784649193
 31
0.0
  0
LINE
  5
1B9
330
1F
100
AcDbEntity
  8
0
  6
Continuous
 62
     7
370
    15
100
AcDbLine
 10
219.3599815387
 20
449.0784595071
 30
0.0
 11
218.40794635
 21
449.0784595071
 31
0.0
  0
LWPOLYLINE
  5
1BA
330
1F
100
AcDbEntity
  8
0
  6
Continuous
 62
     7
370
    15
100
AcDbPolyline
 90
        9
 70
   128
 43
0.0
 10
218.40794635
 20
449.0784595071
 10
218.5504610557
 20
449.1015265047
 10
218.6875070352
 20
449.1698036253
 10
218.8138092775
 20
449.2806980669
 10
218.924510004
 20
449.4299331962
 10
219.0153474826
 20
449.6117720663
 10
219.082864644
 20
449.8192409336
 10
219.1244239825
 20
450.0443527757
 10
219.1384608764
 20
450.2784649193
  0
LWPOLYLINE
  5
1BB
330
1F
100
AcDbEntity
  8
0
  6
Continuous
 62
     7
370
    15
100
AcDbPolyline
 90
        9
 70
   128
 43
0.0
 10
220.0904960651
 20
450.2784649193
 10
220.0764591712
 20
450.0443527757
 10
220.0348849315
 20
449.8192409336
 10
219.9673826713
 20
449.6117720663
 10
219.8765302915
 20
449.4299331962
 10
219.765829565
 20
449.2806980669
 10
219.6395273227
 20
449.1698036253
 10
219.5024962444
 20
449.1015265047
 10
219.3599815387
 20
449.0784595071
  0
LINE
  5
1BC
330
1F
100
AcDbEntity
  8
0
  6
Continuous
 62
     7
370
    15
100
AcDbLine
 10
215.6889761705
 20
462.0784560501
 30
0.0
 11
215.6889761705
 21
449.0784595071
 31
0.0
  0
LINE
  5
1BD
330
1F
100
AcDbEntity
  8
0
  6
Continuous
 62
     7
370
    15
100
AcDbLine
 10
215.6889761705
 20
462.0784560501
 30
0.0
 11
218.40794635
 21
462.0784560501
 31
0.0
  0
LWPOLYLINE
  5
1BE
330
1F
100
AcDbEntity
  8
0
  6
Continuous
 62
     7
370
    15
100
AcDbPolyline
 90
        9
 70
   128
 43
0.0
 10
219.1384608764
 20
460.8784655391
 10
219.1244239825
 20
461.1125776827
 10
219.082864644
 20
461.3376895248
 10
219.0153474826
 20
461.545143491
 10
218.924510004
 20
461.7269972622
 10
218.8138092775
 20
461.8762323915
 10
218.6875070352
 20
461.987111932
 10
218.5504610557
 20
462.0554039537
 10
218.40794635
 20
462.0784560501
  0
LINE
  5
1BF
330
1F
100
AcDbEntity
  8
0
  6
Continuous
 62
     7
370
    15
100
AcDbLine
 10
218.40794635
 20
449.0784595071
 30
0.0
 11
215.6889761705
 21
449.0784595071
 31
0.0
  0
LINE
  5
1C0
330
1F
100
AcDbEntity
  8
0
  6
Continuous
 62
     7
370
    15
100
AcDbLine
 10
218.40794635
 20
462.0784560501
 30
0.0
 11
219.3599815387
 21
462.0784560501
 31
0.0
  0
LWPOLYLINE
  5
1C1
330
1F
100
AcDbEntity
  8
0
  6
Continuous
 62
     7
370
    15
100
AcDbPolyline
 90
        9
 70
   128
 43
0.0
 10
219.3599815387
 20
462.0784560501
 10
219.5024962444
 20
462.0554039537
 10
219.6395273227
 20
461.987111932
 10
219.765829565
 20
461.8762323915
 10
219.8765302915
 20
461.7269972622
 10
219.9673826713
 20
461.545143491
 10
220.0348849315
 20
461.3376895248
 10
220.0764591712
 20
461.1125776827
 10
220.0904960651
 20
460.8784655391
  0
LINE
  5
1C2
330
1F
100
AcDbEntity
  8
0
  6
Continuous
 62
     7
370
    15
100
AcDbLine
 10
215.1103640813
 20
92.0784661829
 30
0.0
 11
215.6889761705
 21
92.0784661829
 31
0.0
  0
LINE
  5
1C3
330
1F
100
AcDbEntity
  8
0
  6
Continuous
 62
     7
370
    15
100
AcDbLine
 10
215.6889761705
 20
79.0784696399
 30
0.0
 11
215.1103640813
 21
79.0784696399
 31
0.0
  0
LINE
  5
1C4
330
1F
100
AcDbEntity
  8
0
  6
Continuous
 62
     7
370
    15
100
AcDbLine
 10
215.1103640813
 20
462.0784560501
 30
0.0
 11
215.6889761705
 21
462.0784560501
 31
0.0
  0
LINE
  5
1C5
330
1F
100
AcDbEntity
  8
0
  6
Continuous
 62
     7
370
    15
100
AcDbLine
 10
215.6889761705
 20
449.0784595071
 30
0.0
 11
215.1103640813
 21
449.0784595071
 31
0.0
  0
LINE
  5
1C6
330
1F
100
AcDbEntity
  8
0
  6
Continuous
 62
     7
370
    15
100
AcDbLine
 10
225.2103562373
 20
78.6784628689
 30
0.0
 11
226.0103548784
 21
78.6784628689
 31
0.0
  0
LINE
  5
1C7
330
1F
100
AcDbEntity
  8
0
  6
Continuous
 62
     7
370
    15
100
AcDbLine
 10
226.0103548784
 20
78.6784628689
 30
0.0
 11
226.0103548784
 21
80.1784584581
 31
0.0
  0
LINE
  5
1C8
330
1F
100
AcDbEntity
  8
0
  6
Continuous
 62
     7
370
    15
100
AcDbLine
 10
226.0103548784
 20
80.1784584581
 30
0.0
 11
227.5103653688
 21
80.1784584581
 31
0.0
  0
LINE
  5
1C9
330
1F
100
AcDbEntity
  8
0
  6
Continuous
 62
     7
370
    15
100
AcDbLine
 10
227.5103653688
 20
80.1784584581
 30
0.0
 11
227.5103653688
 21
80.9784570991
 31
0.0
  0
LINE
  5
1CA
330
1F
100
AcDbEntity
  8
0
  6
Continuous
 62
     7
370
    15
100
AcDbLine
 10
226.0103548784
 20
80.9784570991
 30
0.0
 11
226.0103548784
 21
82.4784675895
 31
0.0
  0
LINE
  5
1CB
330
1F
100
AcDbEntity
  8
0
  6
Continuous
 62
     7
370
    15
100
AcDbLine
 10
226.0103548784
 20
82.4784675895
 30
0.0
 11
225.2103562373
 21
82.4784675895
 31
0.0
  0
LINE
  5
1CC
330
1F
100
AcDbEntity
  8
0
  6
Continuous
 62
     7
370
    15
100
AcDbLine
 10
225.2103562373
 20
82.4784675895
 30
0.0
 11
225.2103562373
 21
80.9784570991
 31
0.0
  0
LINE
  5
1CD
330
1F
100
AcDbEntity
  8
0
  6
Continuous
 62
     7
370
    15
100
AcDbLine
 10
223.7103606481
 20
80.1784584581
 30
0.0
 11
225.2103562373
 21
80.1784584581
 31
0.0
  0
LINE
  5
1CE
330
1F
100
AcDbEntity
  8
0
  6
Continuous
 62
     7
370
    15
100
AcDbLine
 10
225.2103562373
 20
80.1784584581
 30
0.0
 11
225.2103562373
 21
78.6784628689
 31
0.0
  0
LINE
  5
1CF
330
1F
100
AcDbEntity
  8
0
  6
Continuous
 62
     7
370
    15
100
AcDbLine
 10
223.7103606481
 20
80.9784570991
 30
0.0
 11
223.7103606481
 21
80.1784584581
 31
0.0
  0
LINE
  5
1D0
330
1F
100
AcDbEntity
  8
0
  6
Continuous
 62
     7
370
    15
100
AcDbLine
 10
227.5103653688
 20
80.9784570991
 30
0.0
 11
226.0103548784
 21
80.9784570991
 31
0.0
  0
CIRCLE
  5
1D1
330
1F
100
AcDbEntity
  8
0
  6
Continuous
 62
     7
370
    15
100
AcDbCircle
 10
225.6103609342
 20
80.578462845
 30
0.0
 40
3.0
  0
LINE
  5
1D2
330
1F
100
AcDbEntity
  8
0
  6
Continuous
 62
     7
370
    15
100
AcDbLine
 10
225.2103562373
 20
80.9784570991
 30
0.0
 11
223.7103606481
 21
80.9784570991
 31
0.0
  0
LINE
  5
1D3
330
1F
100
AcDbEntity
  8
0
  6
Continuous
 62
     7
370
    15
100
AcDbLine
 10
223.7103606481
 20
90.1784638225
 30
0.0
 11
225.2103562373
 21
90.1784638225
 31
0.0
  0
LINE
  5
1D4
330
1F
100
AcDbEntity
  8
0
  6
Continuous
 62
     7
370
    15
100
AcDbLine
 10
226.0103548784
 20
92.4784580528
 30
0.0
 11
225.2103562373
 21
92.4784580528
 31
0.0
  0
LINE
  5
1D5
330
1F
100
AcDbEntity
  8
0
  6
Continuous
 62
     7
370
    15
100
AcDbLine
 10
227.5103653688
 20
90.1784638225
 30
0.0
 11
227.5103653688
 21
90.9784624635
 31
0.0
  0
LINE
  5
1D6
330
1F
100
AcDbEntity
  8
0
  6
Continuous
 62
     7
370
    15
100
AcDbLine
 10
226.0103548784
 20
88.6784682333
 30
0.0
 11
226.0103548784
 21
90.1784638225
 31
0.0
  0
LINE
  5
1D7
330
1F
100
AcDbEntity
  8
0
  6
Continuous
 62
     7
370
    15
100
AcDbLine
 10
225.2103562373
 20
90.1784638225
 30
0.0
 11
225.2103562373
 21
88.6784682333
 31
0.0
  0
LINE
  5
1D8
330
1F
100
AcDbEntity
  8
0
  6
Continuous
 62
     7
370
    15
100
AcDbLine
 10
225.2103562373
 20
88.6784682333
 30
0.0
 11
226.0103548784
 21
88.6784682333
 31
0.0
  0
LINE
  5
1D9
330
1F
100
AcDbEntity
  8
0
  6
Continuous
 62
     7
370
    15
100
AcDbLine
 10
226.0103548784
 20
90.1784638225
 30
0.0
 11
227.5103653688
 21
90.1784638225
 31
0.0
  0
CIRCLE
  5
1DA
330
1F
100
AcDbEntity
  8
0
  6
Continuous
 62
     7
370
    15
100
AcDbCircle
 10
225.6103609342
 20
90.578462845
 30
0.0
 40
3.0
  0
LINE
  5
1DB
330
1F
100
AcDbEntity
  8
0
  6
Continuous
 62
     7
370
    15
100
AcDbLine
 10
226.0103548784
 20
90.9784624635
 30
0.0
 11
226.0103548784
 21
92.4784580528
 31
0.0
  0
LINE
  5
1DC
330
1F
100
AcDbEntity
  8
0
  6
Continuous
 62
     7
370
    15
100
AcDbLine
 10
223.7103606481
 20
90.9784624635
 30
0.0
 11
223.7103606481
 21
90.1784638225
 31
0.0
  0
LINE
  5
1DD
330
1F
100
AcDbEntity
  8
0
  6
Continuous
 62
     7
370
    15
100
AcDbLine
 10
227.5103653688
 20
90.9784624635
 30
0.0
 11
226.0103548784
 21
90.9784624635
 31
0.0
  0
LINE
  5
1DE
330
1F
100
AcDbEntity
  8
0
  6
Continuous
 62
     7
370
    15
100
AcDbLine
 10
225.2103562373
 20
90.9784624635
 30
0.0
 11
223.7103606481
 21
90.9784624635
 31
0.0
  0
LINE
  5
1DF
330
1F
100
AcDbEntity
  8
0
  6
Continuous
 62
     7
370
    15
100
AcDbLine
 10
225.2103562373
 20
92.4784580528
 30
0.0
 11
225.2103562373
 21
90.9784624635
 31
0.0
  0
LINE
  5
1E0
330
1F
100
AcDbEntity
  8
0
  6
Continuous
 62
     7
370
    15
100
AcDbLine
 10
225.2103562373
 20
448.6784676372
 30
0.0
 11
226.0103548784
 21
448.6784676372
 31
0.0
  0
LINE
  5
1E1
330
1F
100
AcDbEntity
  8
0
  6
Continuous
 62
     7
370
    15
100
AcDbLine
 10
226.0103548784
 20
450.1784632265
 30
0.0
 11
227.5103653688
 21
450.1784632265
 31
0.0
  0
LINE
  5
1E2
330
1F
100
AcDbEntity
  8
0
  6
Continuous
 62
     7
370
    15
100
AcDbLine
 10
227.5103653688
 20
450.9784618675
 30
0.0
 11
226.0103548784
 21
450.9784618675
 31
0.0
  0
CIRCLE
  5
1E3
330
1F
100
AcDbEntity
  8
0
  6
Continuous
 62
     7
370
    15
100
AcDbCircle
 10
225.6103609342
 20
450.578462845
 30
0.0
 40
3.000000000000028
  0
LINE
  5
1E4
330
1F
100
AcDbEntity
  8
0
  6
Continuous
 62
     7
370
    15
100
AcDbLine
 10
227.5103653688
 20
450.1784632265
 30
0.0
 11
227.5103653688
 21
450.9784618675
 31
0.0
  0
LINE
  5
1E5
330
1F
100
AcDbEntity
  8
0
  6
Continuous
 62
     7
370
    15
100
AcDbLine
 10
226.0103548784
 20
452.4784574568
 30
0.0
 11
225.2103562373
 21
452.4784574568
 31
0.0
  0
LINE
  5
1E6
330
1F
100
AcDbEntity
  8
0
  6
Continuous
 62
     7
370
    15
100
AcDbLine
 10
226.0103548784
 20
450.9784618675
 30
0.0
 11
226.0103548784
 21
452.4784574568
 31
0.0
  0
LINE
  5
1E7
330
1F
100
AcDbEntity
  8
0
  6
Continuous
 62
     7
370
    15
100
AcDbLine
 10
225.2103562373
 20
452.4784574568
 30
0.0
 11
225.2103562373
 21
450.9784618675
 31
0.0
  0
LINE
  5
1E8
330
1F
100
AcDbEntity
  8
0
  6
Continuous
 62
     7
370
    15
100
AcDbLine
 10
225.2103562373
 20
450.9784618675
 30
0.0
 11
223.7103606481
 21
450.9784618675
 31
0.0
  0
LINE
  5
1E9
330
1F
100
AcDbEntity
  8
0
  6
Continuous
 62
     7
370
    15
100
AcDbLine
 10
223.7103606481
 20
450.9784618675
 30
0.0
 11
223.7103606481
 21
450.1784632265
 31
0.0
  0
LINE
  5
1EA
330
1F
100
AcDbEntity
  8
0
  6
Continuous
 62
     7
370
    15
100
AcDbLine
 10
226.0103548784
 20
448.6784676372
 30
0.0
 11
226.0103548784
 21
450.1784632265
 31
0.0
  0
LINE
  5
1EB
330
1F
100
AcDbEntity
  8
0
  6
Continuous
 62
     7
370
    15
100
AcDbLine
 10
223.7103606481
 20
450.1784632265
 30
0.0
 11
225.2103562373
 21
450.1784632265
 31
0.0
  0
LINE
  5
1EC
330
1F
100
AcDbEntity
  8
0
  6
Continuous
 62
     7
370
    15
100
AcDbLine
 10
225.2103562373
 20
450.1784632265
 30
0.0
 11
225.2103562373
 21
448.6784676372
 31
0.0
  0
CIRCLE
  5
1ED
330
1F
100
AcDbEntity
  8
0
  6
Continuous
 62
     7
370
    15
100
AcDbCircle
 10
225.6103609342
 20
460.578462845
 30
0.0
 40
3.0
  0
LINE
  5
1EE
330
1F
100
AcDbEntity
  8
0
  6
Continuous
 62
     7
370
    15
100
AcDbLine
 10
225.2103562373
 20
460.9784672319
 30
0.0
 11
223.7103606481
 21
460.9784672319
 31
0.0
  0
LINE
  5
1EF
330
1F
100
AcDbEntity
  8
0
  6
Continuous
 62
     7
370
    15
100
AcDbLine
 10
223.7103606481
 20
460.9784672319
 30
0.0
 11
223.7103606481
 21
460.1784685909
 31
0.0
  0
LINE
  5
1F0
330
1F
100
AcDbEntity
  8
0
  6
Continuous
 62
     7
370
    15
100
AcDbLine
 10
223.7103606481
 20
460.1784685909
 30
0.0
 11
225.2103562373
 21
460.1784685909
 31
0.0
  0
LINE
  5
1F1
330
1F
100
AcDbEntity
  8
0
  6
Continuous
 62
     7
370
    15
100
AcDbLine
 10
225.2103562373
 20
460.1784685909
 30
0.0
 11
225.2103562373
 21
458.6784581005
 31
0.0
  0
LINE
  5
1F2
330
1F
100
AcDbEntity
  8
0
  6
Continuous
 62
     7
370
    15
100
AcDbLine
 10
225.2103562373
 20
458.6784581005
 30
0.0
 11
226.0103548784
 21
458.6784581005
 31
0.0
  0
LINE
  5
1F3
330
1F
100
AcDbEntity
  8
0
  6
Continuous
 62
     7
370
    15
100
AcDbLine
 10
226.0103548784
 20
458.6784581005
 30
0.0
 11
226.0103548784
 21
460.1784685909
 31
0.0
  0
LINE
  5
1F4
330
1F
100
AcDbEntity
  8
0
  6
Continuous
 62
     7
370
    15
100
AcDbLine
 10
226.0103548784
 20
460.1784685909
 30
0.0
 11
227.5103653688
 21
460.1784685909
 31
0.0
  0
LINE
  5
1F5
330
1F
100
AcDbEntity
  8
0
  6
Continuous
 62
     7
370
    15
100
AcDbLine
 10
227.5103653688
 20
460.1784685909
 30
0.0
 11
227.5103653688
 21
460.9784672319
 31
0.0
  0
LINE
  5
1F6
330
1F
100
AcDbEntity
  8
0
  6
Continuous
 62
     7
370
    15
100
AcDbLine
 10
226.0103548784
 20
460.9784672319
 30
0.0
 11
226.0103548784
 21
462.4784628212
 31
0.0
  0
LINE
  5
1F7
330
1F
100
AcDbEntity
  8
0
  6
Continuous
 62
     7
370
    15
100
AcDbLine
 10
226.0103548784
 20
462.4784628212
 30
0.0
 11
225.2103562373
 21
462.4784628212
 31
0.0
  0
LINE
  5
1F8
330
1F
100
AcDbEntity
  8
0
  6
Continuous
 62
     7
370
    15
100
AcDbLine
 10
227.5103653688
 20
460.9784672319
 30
0.0
 11
226.0103548784
 21
460.9784672319
 31
0.0
  0
LINE
  5
1F9
330
1F
100
AcDbEntity
  8
0
  6
Continuous
 62
     7
370
    15
100
AcDbLine
 10
225.2103562373
 20
462.4784628212
 30
0.0
 11
225.2103562373
 21
460.9784672319
 31
0.0
  0
LINE
  5
1FA
330
1F
100
AcDbEntity
  8
0
  6
Continuous
 62
     7
370
    15
100
AcDbLine
 10
219.6103657502
 20
92.0784661829
 30
0.0
 11
224.5925987977
 21
96.6803470909
 31
0.0
  0
ARC
  5
1FB
330
1F
100
AcDbEntity
  8
0
  6
Continuous
 62
     7
370
    15
100
AcDbCircle
 10
225.6103609342
 20
95.578462845
 30
0.0
 40
1.499999999999989
100
AcDbArc
 50
43.6028189726
 51
132.7273953127
  0
LINE
  5
1FC
330
1F
100
AcDbEntity
  8
0
  6
Continuous
 62
     7
370
    15
100
AcDbLine
 10
224.5925987977
 20
74.4765738308
 30
0.0
 11
219.6103657502
 21
79.0784696399
 31
0.0
  0
ARC
  5
1FD
330
1F
100
AcDbEntity
  8
0
  6
Continuous
 62
     7
370
    15
100
AcDbCircle
 10
215.1103609342
 20
85.578462845
 30
0.0
 40
16.00000000000019
100
AcDbArc
 50
316.3971810272
 51
43.6028189726
  0
ARC
  5
1FE
330
1F
100
AcDbEntity
  8
0
  6
Continuous
 62
     7
370
    15
100
AcDbCircle
 10
225.6103609342
 20
75.578462845
 30
0.0
 40
1.500000000000077
100
AcDbArc
 50
227.2726046868
 51
316.3971810272
  0
LINE
  5
1FF
330
1F
100
AcDbEntity
  8
0
  6
Continuous
 62
     7
370
    15
100
AcDbLine
 10
219.4093490857
 20
92.0784661829
 30
0.0
 11
219.6103657502
 21
92.0784661829
 31
0.0
  0
LINE
  5
200
330
1F
100
AcDbEntity
  8
0
  6
Continuous
 62
     7
370
    15
100
AcDbLine
 10
219.6103657502
 20
79.0784696399
 30
0.0
 11
219.4093490857
 21
79.0784696399
 31
0.0
  0
LINE
  5
201
330
1F
100
AcDbEntity
  8
0
  6
Continuous
 62
     7
370
    15
100
AcDbLine
 10
219.6103657502
 20
462.0784560501
 30
0.0
 11
224.5925987977
 21
466.6803518593
 31
0.0
  0
ARC
  5
202
330
1F
100
AcDbEntity
  8
0
  6
Continuous
 62
     7
370
    15
100
AcDbCircle
 10
225.6103609342
 20
465.578462845
 30
0.0
 40
1.500000000000069
100
AcDbArc
 50
43.6028189726
 51
132.7273953127
  0
ARC
  5
203
330
1F
100
AcDbEntity
  8
0
  6
Continuous
 62
     7
370
    15
100
AcDbCircle
 10
225.6103609342
 20
445.578462845
 30
0.0
 40
1.499999999999786
100
AcDbArc
 50
227.2726046868
 51
316.3971810272
  0
LINE
  5
204
330
1F
100
AcDbEntity
  8
0
  6
Continuous
 62
     7
370
    15
100
AcDbLine
 10
224.5925987977
 20
444.4765785991
 30
0.0
 11
219.6103657502
 21
449.0784595071
 31
0.0
  0
ARC
  5
205
330
1F
100
AcDbEntity
  8
0
  6
Continuous
 62
     7
370
    15
100
AcDbCircle
 10
215.1103609342
 20
455.578462845
 30
0.0
 40
16.00000000000023
100
AcDbArc
 50
316.3971810272
 51
43.6028189726
  0
LINE
  5
206
330
1F
100
AcDbEntity
  8
0
  6
Continuous
 62
     7
370
    15
100
AcDbLine
 10
219.4093490857
 20
462.0784560501
 30
0.0
 11
219.6103657502
 21
462.0784560501
 31
0.0
  0
LINE
  5
207
330
1F
100
AcDbEntity
  8
0
  6
Continuous
 62
     7
370
    15
100
AcDbLine
 10
219.6103657502
 20
449.0784595071
 30
0.0
 11
219.4093490857
 21
449.0784595071
 31
0.0
  0
LINE
  5
208
330
1F
100
AcDbEntity
  8
0
  6
Continuous
 62
     7
370
    15
100
AcDbLine
 10
227.6103670615
 20
35.5784634411
 30
0.0
 11
227.6103670615
 21
20.578462845
 31
0.0
  0
LINE
  5
209
330
1F
100
AcDbEntity
  8
0
  6
Continuous
 62
     7
370
    15
100
AcDbLine
 10
227.6103670615
 20
35.5784634411
 30
0.0
 11
242.6103676576
 21
35.5784634411
 31
0.0
  0
ARC
  5
20A
330
1F
100
AcDbEntity
  8
0
  6
Continuous
 62
     7
370
    15
100
AcDbCircle
 10
227.6103609342
 20
35.578462845
 30
0.0
 40
15.00000000000001
100
AcDbArc
 50
270.0
 51
0.0
  0
LINE
  5
20B
330
1F
100
AcDbEntity
  8
0
  6
Continuous
 62
     7
370
    15
100
AcDbLine
 10
222.6103569288
 20
20.578462845
 30
0.0
 11
227.6103670615
 21
20.578462845
 31
0.0
  0
LINE
  5
20C
330
1F
100
AcDbEntity
  8
0
  6
Continuous
 62
     7
370
    15
100
AcDbLine
 10
222.6103569288
 20
35.5784634411
 30
0.0
 11
227.6103670615
 21
35.5784634411
 31
0.0
  0
LINE
  5
20D
330
1F
100
AcDbEntity
  8
0
  6
Continuous
 62
     7
370
    15
100
AcDbLine
 10
222.6103569288
 20
35.5784634411
 30
0.0
 11
222.6103569288
 21
20.578462845
 31
0.0
  0
LINE
  5
20E
330
1F
100
AcDbEntity
  8
0
  6
Continuous
 62
     7
370
    15
100
AcDbLine
 10
242.6103676576
 20
35.5784634411
 30
0.0
 11
242.6103676576
 21
505.578462249
 31
0.0
  0
LINE
  5
20F
330
1F
100
AcDbEntity
  8
0
  6
Continuous
 62
     7
370
    15
100
AcDbLine
 10
227.6103670615
 20
75.5909720718
 30
0.0
 11
227.6103670615
 21
35.5784634411
 31
0.0
  0
LINE
  5
210
330
1F
100
AcDbEntity
  8
0
  6
Continuous
 62
     7
370
    15
100
AcDbLine
 10
227.6103670615
 20
95.5659488498
 30
0.0
 11
227.6103670615
 21
445.5909768402
 31
0.0
  0
LINE
  5
211
330
1F
100
AcDbEntity
  8
0
  6
Continuous
 62
     7
370
    15
100
AcDbLine
 10
227.6103670615
 20
465.5659536182
 30
0.0
 11
227.6103670615
 21
505.578462249
 31
0.0
  0
LINE
  5
212
330
1F
100
AcDbEntity
  8
0
  6
Continuous
 62
     7
370
    15
100
AcDbLine
 10
227.6103670615
 20
505.578462249
 30
0.0
 11
242.6103676576
 21
505.578462249
 31
0.0
  0
LINE
  5
213
330
1F
100
AcDbEntity
  8
0
  6
Continuous
 62
     7
370
    15
100
AcDbLine
 10
222.6103569288
 20
76.3074795067
 30
0.0
 11
222.6103569288
 21
35.5784634411
 31
0.0
  0
LINE
  5
214
330
1F
100
AcDbEntity
  8
0
  6
Continuous
 62
     7
370
    15
100
AcDbLine
 10
222.6103569288
 20
94.849441415
 30
0.0
 11
222.6103569288
 21
446.307484275
 31
0.0
  0
LINE
  5
215
330
1F
100
AcDbEntity
  8
0
  6
Continuous
 62
     7
370
    15
100
AcDbLine
 10
222.6103569288
 20
505.578462249
 30
0.0
 11
227.6103670615
 21
505.578462249
 31
0.0
  0
LINE
  5
216
330
1F
100
AcDbEntity
  8
0
  6
Continuous
 62
     7
370
    15
100
AcDbLine
 10
222.6103569288
 20
464.8494461834
 30
0.0
 11
222.6103569288
 21
505.578462249
 31
0.0
  0
LINE
  5
217
330
1F
100
AcDbEntity
  8
0
  6
Continuous
 62
     7
370
    15
100
AcDbLine
 10
222.6103569288
 20
520.578462845
 30
0.0
 11
227.6103670615
 21
520.578462845
 31
0.0
  0
LINE
  5
218
330
1F
100
AcDbEntity
  8
0
  6
Continuous
 62
     7
370
    15
100
AcDbLine
 10
227.6103670615
 20
505.578462249
 30
0.0
 11
227.6103670615
 21
520.578462845
 31
0.0
  0
LINE
  5
219
330
1F
100
AcDbEntity
  8
0
  6
Continuous
 62
     7
370
    15
100
AcDbLine
 10
222.6103569288
 20
505.578462249
 30
0.0
 11
222.6103569288
 21
520.578462845
 31
0.0
  0
ARC
  5
21A
330
1F
100
AcDbEntity
  8
0
  6
Continuous
 62
     7
370
    15
100
AcDbCircle
 10
227.6103609342
 20
505.578462845
 30
0.0
 40
15.00000000000006
100
AcDbArc
 50
0.0
 51
90.0
  0
SPLINE
  5
21B
330
1F
100
AcDbEntity
  8
0
  6
Continuous
 62
     7
370
    15
100
AcDbSpline
210
0.0
220
0.0
230
1.0
 70
     8
 71
     3
 72
    16
 73
    12
 74
     0
 42
0.00000001
 43
0.00000001
 40
0.0
 40
0.0
 40
0.0
 40
0.0
 40
0.1207066697838036
 40
0.2414156264855561
 40
0.362117701685532
 40
0.4828229587358795
 40
0.6035285351403139
 40
0.7242353167731231
 40
0.8449404638900417
 40
0.9656486359393509
 40
1.0
 40
1.0
 40
1.0
 40
1.0
 10
200.7626618165219
 20
72.62608802906914
 30
0.0
 10
200.7820628354998
 20
72.62876456782688
 30
0.0
 10
200.8208652410287
 20
72.63411769605233
 30
0.0
 10
200.8257864815735
 20
72.92504443999113
 30
0.0
 10
200.7885788148065
 20
73.37841347589425
 30
0.0
 10
200.7116483098347
 20
73.94591535980972
 30
0.0
 10
200.6078457199388
 20
74.53424949063539
 30
0.0
 10
200.4917504371139
 20
75.06094435521476
 30
0.0
 10
200.3847371157753
 20
75.42424389587157
 30
0.0
 10
200.3121654762445
 20
75.59469968516036
 30
0.0
 10
200.2926145875337
 20
75.5615417111557
 30
0.0
 10
200.2882833499158
 20
75.55419600598262
 30
0.0
  0
SPLINE
  5
21C
330
1F
100
AcDbEntity
  8
0
  6
Continuous
 62
     7
370
    15
100
AcDbSpline
210
0.0
220
0.0
230
1.0
 70
     8
 71
     3
 72
    16
 73
    12
 74
     0
 42
0.00000001
 43
0.00000001
 40
0.0
 40
0.0
 40
0.0
 40
0.0
 40
0.1205773093028023
 40
0.2411629940041617
 40
0.3617418042313628
 40
0.4823237930595241
 40
0.6029061009156373
 40
0.7234902030977304
 40
0.8440715231095615
 40
0.9646564239597908
 40
1.0
 40
1.0
 40
1.0
 40
1.0
 10
200.9332503098691
 20
98.50211835495875
 30
0.0
 10
200.9526513403351
 20
98.49944038536204
 30
0.0
 10
200.9914547488788
 20
98.49408426015465
 30
0.0
 10
200.9963746370327
 20
98.20316203769336
 30
0.0
 10
200.9591677280735
 20
97.7497920630114
 30
0.0
 10
200.8822354613434
 20
97.18229431117074
 30
0.0
 10
200.7784389913563
 20
96.59394363053858
 30
0.0
 10
200.6623202727948
 20
96.06730709836685
 30
0.0
 10
200.555308181385
 20
95.70380395077733
 30
0.0
 10
200.4825462459271
 20
95.53328252613785
 30
0.0
 10
200.4629063041714
 20
95.56686119480884
 30
0.0
 10
200.4584546107495
 20
95.57447231404231
 30
0.0
  0
SPLINE
  5
21D
330
1F
100
AcDbEntity
  8
0
  6
Continuous
 62
     7
370
    15
100
AcDbSpline
210
0.0
220
0.0
230
1.0
 70
     8
 71
     3
 72
    16
 73
    12
 74
     0
 42
0.00000001
 43
0.00000001
 40
0.0
 40
0.0
 40
0.0
 40
0.0
 40
0.1205182433370418
 40
0.2410333304133654
 40
0.3615509498326964
 40
0.4820658984742974
 40
0.6025830501387655
 40
0.7231014051502135
 40
0.8436162026618527
 40
0.9641310227902649
 40
1.0
 40
1.0
 40
1.0
 40
1.0
 10
216.3036341685498
 20
75.2425084172909
 30
0.0
 10
216.32303528317
 20
75.24518265431738
 30
0.0
 10
216.3618370043133
 20
75.25053105833449
 30
0.0
 10
216.3667579925848
 20
75.5414847553525
 30
0.0
 10
216.3295527084607
 20
75.99481722257212
 30
0.0
 10
216.2526204289765
 20
76.5623393457598
 30
0.0
 10
216.1488154095417
 20
77.15068403346989
 30
0.0
 10
216.0327337490435
 20
77.6773047883279
 30
0.0
 10
215.9256733378894
 20
78.0408703411745
 30
0.0
 10
215.8528218805513
 20
78.21147404291698
 30
0.0
 10
215.8331312861465
 20
78.17765747678659
 30
0.0
 10
215.8286149520123
 20
78.16990113846705
 30
0.0
  0
SPLINE
  5
21E
330
1F
100
AcDbEntity
  8
0
  6
Continuous
 62
     7
370
    15
100
AcDbSpline
210
0.0
220
0.0
230
1.0
 70
     8
 71
     3
 72
    16
 73
    12
 74
     0
 42
0.00000001
 43
0.00000001
 40
0.0
 40
0.0
 40
0.0
 40
0.0
 40
0.1205180639620182
 40
0.2410312930423423
 40
0.3615484744694328
 40
0.4820658788940309
 40
0.6025825925679583
 40
0.7230983245597827
 40
0.8436167710010724
 40
0.9641311531474174
 40
1.0
 40
1.0
 40
1.0
 40
1.0
 10
216.4742077607358
 20
95.88569796673698
 30
0.0
 10
216.4936151799086
 20
95.88302257761816
 30
0.0
 10
216.5324292396776
 20
95.8776719067104
 30
0.0
 10
216.5373454118912
 20
95.58673901977069
 30
0.0
 10
216.5001409914462
 20
95.13339991442047
 30
0.0
 10
216.4232081100622
 20
94.56587020640939
 30
0.0
 10
216.3194124368488
 20
93.97753031797338
 30
0.0
 10
216.2032923870019
 20
93.45088571541912
 30
0.0
 10
216.0962716750119
 20
93.0873448402332
 30
0.0
 10
216.0234098391772
 20
92.91673195818522
 30
0.0
 10
216.0037196797297
 20
92.95054883579814
 30
0.0
 10
215.9992034453595
 20
92.95830524556087
 30
0.0
  0
SPLINE
  5
21F
330
1F
100
AcDbEntity
  8
0
  6
Continuous
 62
     7
370
    15
100
AcDbSpline
210
0.0
220
0.0
230
1.0
 70
    24
 71
     3
 72
    16
 73
    12
 74
     0
 42
0.00000001
 43
0.00000001
 40
0.0
 40
0.0
 40
0.0
 40
0.0
 40
0.0611042412805948
 40
0.1864670502232474
 40
0.311832109630077
 40
0.4371980005123943
 40
0.5625599899456356
 40
0.68792400593719
 40
0.8132867973268191
 40
0.9386468025897463
 40
1.0
 40
1.0
 40
1.0
 40
1.0
 10
219.380545141145
 20
78.71222890011714
 30
0.0
 10
219.3863181640759
 20
78.71222890011714
 30
0.0
 10
219.4039352481644
 20
78.71222890011711
 30
0.0
 10
219.1854954602407
 20
78.7122289001172
 30
0.0
 10
218.7727678413228
 20
78.71222890011708
 30
0.0
 10
218.2162914518847
 20
78.71222890011717
 30
0.0
 10
217.6171824144615
 20
78.71222890011711
 30
0.0
 10
217.0584956115497
 20
78.7122289001172
 30
0.0
 10
216.6415395335081
 20
78.71222890011711
 30
0.0
 10
216.4185373124829
 20
78.7122289001172
 30
0.0
 10
216.4333530616582
 20
78.71222890011714
 30
0.0
 10
216.4382214564526
 20
78.71222890011714
 30
0.0
  0
SPLINE
  5
220
330
1F
100
AcDbEntity
  8
0
  6
Continuous
 62
     7
370
    15
100
AcDbSpline
210
0.0
220
0.0
230
1.0
 70
    24
 71
     3
 72
    16
 73
    12
 74
     0
 42
0.00000001
 43
0.00000001
 40
0.0
 40
0.0
 40
0.0
 40
0.0
 40
0.0610064913464802
 40
0.1861687543686247
 40
0.3113332642548242
 40
0.4364986042863799
 40
0.5616600491101023
 40
0.6868235172502032
 40
0.8119857627474041
 40
0.9371452265749375
 40
1.0
 40
1.0
 40
1.0
 40
1.0
 10
219.380545141145
 20
92.2708550750439
 30
0.0
 10
219.3863181578516
 20
92.2708550750439
 30
0.0
 10
219.403935222946
 20
92.27085507504384
 30
0.0
 10
219.1854956940552
 20
92.27085507504393
 30
0.0
 10
218.7727669846429
 20
92.27085507504387
 30
0.0
 10
218.2162946447642
 20
92.27085507504387
 30
0.0
 10
217.6171704999524
 20
92.27085507504393
 30
0.0
 10
217.058540077458
 20
92.27085507504387
 30
0.0
 10
216.6413735880022
 20
92.27085507504393
 30
0.0
 10
216.4178813587818
 20
92.27085507504387
 30
0.0
 10
216.4331029466455
 20
92.27085507504387
 30
0.0
 10
216.4381916541302
 20
92.2708550750439
 30
0.0
  0
SPLINE
  5
221
330
1F
100
AcDbEntity
  8
0
  6
Continuous
 62
     7
370
    15
100
AcDbSpline
210
0.0
220
0.0
230
1.0
 70
     8
 71
     3
 72
    19
 73
    15
 74
     0
 42
0.00000001
 43
0.00000001
 40
0.0
 40
0.0
 40
0.0
 40
0.0
 40
0.0039536500810373
 40
0.1157769728464271
 40
0.2280460763080664
 40
0.3355280557841615
 40
0.4377058403813062
 40
0.5348821761991029
 40
0.6283103162910049
 40
0.7303001020746906
 40
0.8413436608750355
 40
0.9641174349415702
 40
0.9937689015616143
 40
1.0
 40
1.0
 40
1.0
 40
1.0
 10
205.7086403388226
 20
91.17846584908412
 30
0.0
 10
205.7090325996358
 20
91.17845880799477
 30
0.0
 10
205.7205193950237
 20
91.17825261979127
 30
0.0
 10
205.7438362816613
 20
91.1631869369208
 30
0.0
 10
205.7873101836845
 20
91.0962455101267
 30
0.0
 10
205.8252903750424
 20
90.99157242824074
 30
0.0
 10
205.8487736781344
 20
90.8664931913748
 30
0.0
 10
205.8601119076595
 20
90.73805853403385
 30
0.0
 10
205.8607218005104
 20
90.61688531315282
 30
0.0
 10
205.8449193198204
 20
90.50766487606369
 30
0.0
 10
205.8045599838401
 20
90.41823337943778
 30
0.0
 10
205.7526701294114
 20
90.38318225566857
 30
0.0
 10
205.7179805823324
 20
90.37857015563672
 30
0.0
 10
205.7100223125555
 20
90.37848244009616
 30
0.0
 10
205.7086403388226
 20
90.37846720807002
 30
0.0
  0
SPLINE
  5
222
330
1F
100
AcDbEntity
  8
0
  6
Continuous
 62
     7
370
    15
100
AcDbSpline
210
0.0
220
0.0
230
1.0
 70
     8
 71
     3
 72
    30
 73
    26
 74
     0
 42
0.00000001
 43
0.00000001
 40
0.0
 40
0.0
 40
0.0
 40
0.0
 40
0.1247236052522314
 40
0.2494256574335847
 40
0.3741230769743704
 40
0.4367857078497833
 40
0.4681556140607993
 40
0.4838446773874281
 40
0.4916958467850172
 40
0.4956150802852887
 40
0.4975731321892516
 40
0.498552085746812
 40
0.4990429722389844
 40
0.4992884154850706
 40
0.4994098307496709
 40
0.499470538381971
 40
0.4995081876572703
 40
0.4995200934034905
 40
0.499536930671265
 40
0.5609225021321016
 40
0.6646192361454764
 40
0.7325829712776323
 40
0.8111536280772027
 40
0.9002868286757383
 40
0.9999999999999999
 40
0.9999999999999999
 40
0.9999999999999999
 40
0.9999999999999999
 10
205.7803298253262
 20
91.2383536159222
 30
0.0
 10
205.7860991087856
 20
91.23656229975963
 30
0.0
 10
205.7976366787337
 20
91.23297997698587
 30
0.0
 10
205.8874796401235
 20
91.2111271349782
 30
0.0
 10
205.99495164954
 20
91.18545320952995
 30
0.0
 10
206.080500884545
 20
91.16504618886651
 30
0.0
 10
206.1246093987104
 20
91.15451596080155
 30
0.0
 10
206.1468302491254
 20
91.14917738888408
 30
0.0
 10
206.1579704783779
 20
91.14653327716316
 30
0.0
 10
206.1635367290089
 20
91.14518661108417
 30
0.0
 10
206.1663188511743
 20
91.14452352745936
 30
0.0
 10
206.1677118832195
 20
91.14419925641023
 30
0.0
 10
206.1684057944911
 20
91.14402486265786
 30
0.0
 10
206.1687527573728
 20
91.14393648873742
 30
0.0
 10
206.1689261536246
 20
91.14389568420914
 30
0.0
 10
206.1690189083006
 20
91.14388900419037
 30
0.0
 10
206.169059485607
 20
91.14386196580304
 30
0.0
 10
206.1690893942168
 20
91.14386819925255
 30
0.0
 10
206.1848881880188
 20
91.11995218062718
 30
0.0
 10
206.2687725134366
 20
91.13766731200154
 30
0.0
 10
206.3507962943823
 20
91.10084794343429
 30
0.0
 10
206.4362276849276
 20
91.08718995342238
 30
0.0
 10
206.4992477682874
 20
91.07338766773054
 30
0.0
 10
206.5499505710967
 20
91.06402210672823
 30
0.0
 10
206.5571438940146
 20
91.0635168515736
 30
0.0
 10
206.5609420556271
 20
91.06325007073329
 30
0.0
  0
ELLIPSE
  5
223
330
1F
100
AcDbEntity
  8
0
  6
Continuous
 62
     7
370
    15
100
AcDbEllipse
 10
206.4374693279
 20
92.3604380238
 30
0.0
 11
0.3906095144045877
 21
-0.08616383961161488
 31
0.0
210
0.0
220
0.0
230
1.0
 40
0.0142285888
 41
0.0
 42
6.283185307179586
  0
LINE
  5
224
330
1F
100
AcDbEntity
  8
0
  6
Continuous
 62
     7
370
    15
100
AcDbLine
 10
205.8212931174
 20
80.8784554064
 30
0.0
 11
205.8212931174
 21
89.4784668743
 31
0.0
  0
LINE
  5
225
330
1F
100
AcDbEntity
  8
0
  6
Continuous
 62
     7
370
    15
100
AcDbLine
 10
200.3069992084
 20
80.8784554064
 30
0.0
 11
200.3069992084
 21
89.4784668743
 31
0.0
  0
LINE
  5
226
330
1F
100
AcDbEntity
  8
0
  6
Continuous
 62
     7
370
    15
100
AcDbLine
 10
205.8212931174
 20
89.4784668743
 30
0.0
 11
200.3069992084
 21
89.4784668743
 31
0.0
  0
LINE
  5
227
330
1F
100
AcDbEntity
  8
0
  6
Continuous
 62
     7
370
    15
100
AcDbLine
 10
205.8212931174
 20
80.8784554064
 30
0.0
 11
200.3069992084
 21
80.8784554064
 31
0.0
  0
LINE
  5
228
330
1F
100
AcDbEntity
  8
0
  6
Continuous
 62
     7
370
    15
100
AcDbLine
 10
199.1927350778
 20
92.7784631311
 30
0.0
 11
174.38063276
 21
92.7784631311
 31
0.0
  0
LINE
  5
229
330
1F
100
AcDbEntity
  8
0
  6
Continuous
 62
     7
370
    15
100
AcDbLine
 10
199.1927350778
 20
89.4784668743
 30
0.0
 11
199.1927350778
 21
92.7784631311
 31
0.0
  0
LINE
  5
22A
330
1F
100
AcDbEntity
  8
0
  6
Continuous
 62
     7
370
    15
100
AcDbLine
 10
199.1927350778
 20
78.3784577905
 30
0.0
 11
199.1927350778
 21
80.8784554064
 31
0.0
  0
LINE
  5
22B
330
1F
100
AcDbEntity
  8
0
  6
Continuous
 62
     7
370
    15
100
AcDbLine
 10
174.38063276
 20
78.3784577905
 30
0.0
 11
199.1927350778
 21
78.3784577905
 31
0.0
  0
LINE
  5
22C
330
1F
100
AcDbEntity
  8
0
  6
Continuous
 62
     7
370
    15
100
AcDbLine
 10
174.38063276
 20
78.3784577905
 30
0.0
 11
174.38063276
 21
92.7784631311
 31
0.0
  0
LINE
  5
22D
330
1F
100
AcDbEntity
  8
0
  6
Continuous
 62
     7
370
    15
100
AcDbLine
 10
199.1927350778
 20
89.4784668743
 30
0.0
 11
200.3069992084
 21
89.4784668743
 31
0.0
  0
LINE
  5
22E
330
1F
100
AcDbEntity
  8
0
  6
Continuous
 62
     7
370
    15
100
AcDbLine
 10
199.1927350778
 20
80.8784554064
 30
0.0
 11
200.3069992084
 21
80.8784554064
 31
0.0
  0
LINE
  5
22F
330
1F
100
AcDbEntity
  8
0
  6
Continuous
 62
     7
370
    15
100
AcDbLine
 10
201.2125874776
 20
93.5758093654
 30
0.0
 11
199.3203635234
 21
93.5758093654
 31
0.0
  0
ARC
  5
230
330
1F
100
AcDbEntity
  8
0
  6
Continuous
 62
     7
370
    15
100
AcDbCircle
 10
200.6669146434
 20
92.9513839606
 30
0.0
 40
1.484286699018948
100
AcDbArc
 50
155.1218068011
 51
186.6902058586
  0
ARC
  5
231
330
1F
100
AcDbEntity
  8
0
  6
Continuous
 62
     7
370
    15
100
AcDbCircle
 10
175.6365400457
 20
92.9724514132
 30
0.0
 40
1.27080075694307
100
AcDbArc
 50
151.5186397143
 51
188.7805542378
  0
LINE
  5
232
330
1F
100
AcDbEntity
  8
0
  6
Continuous
 62
     7
370
    15
100
AcDbLine
 10
174.5195413846
 20
93.5784617721
 30
0.0
 11
201.8853451032
 21
93.5784617721
 31
0.0
  0
LINE
  5
233
330
1F
100
AcDbEntity
  8
0
  6
Continuous
 62
     7
370
    15
100
AcDbLine
 10
201.8853451032
 20
93.5784617721
 30
0.0
 11
201.2125874776
 21
93.5758093654
 31
0.0
  0
LINE
  5
234
330
1F
100
AcDbEntity
  8
0
  6
Continuous
 62
     7
370
    15
100
AcDbLine
 10
199.3203635234
 20
77.5811115562
 30
0.0
 11
201.2125874776
 21
77.5811115562
 31
0.0
  0
LINE
  5
235
330
1F
100
AcDbEntity
  8
0
  6
Continuous
 62
     7
370
    15
100
AcDbLine
 10
201.2125874776
 20
77.5811115562
 30
0.0
 11
201.8853451032
 21
77.5784591495
 31
0.0
  0
LINE
  5
236
330
1F
100
AcDbEntity
  8
0
  6
Continuous
 62
     7
370
    15
100
AcDbLine
 10
201.8853451032
 20
77.5784591495
 30
0.0
 11
174.5195413846
 21
77.5784591495
 31
0.0
  0
ARC
  5
237
330
1F
100
AcDbEntity
  8
0
  6
Continuous
 62
     7
370
    15
100
AcDbCircle
 10
175.6365400457
 20
78.1844695084
 30
0.0
 40
1.27080075694307
100
AcDbArc
 50
171.2194457622
 51
208.4813602857
  0
ARC
  5
238
330
1F
100
AcDbEntity
  8
0
  6
Continuous
 62
     7
370
    15
100
AcDbCircle
 10
200.6669431858
 20
78.2055415297
 30
0.0
 40
1.484314514888908
100
AcDbArc
 50
173.3100976524
 51
204.877889688
  0
LINE
  5
239
330
1F
100
AcDbEntity
  8
0
  6
Continuous
 62
     7
370
    15
100
AcDbLine
 10
199.3203635234
 20
92.7784631311
 30
0.0
 11
199.3203635234
 21
93.5758093654
 31
0.0
  0
LINE
  5
23A
330
1F
100
AcDbEntity
  8
0
  6
Continuous
 62
     7
370
    15
100
AcDbLine
 10
199.3316586036
 20
92.7784631311
 30
0.0
 11
199.3316586036
 21
89.4784668743
 31
0.0
  0
LINE
  5
23B
330
1F
100
AcDbEntity
  8
0
  6
Continuous
 62
     7
370
    15
100
AcDbLine
 10
199.3203635234
 20
77.5811115562
 30
0.0
 11
199.3203635234
 21
78.3784577905
 31
0.0
  0
LINE
  5
23C
330
1F
100
AcDbEntity
  8
0
  6
Continuous
 62
     7
370
    15
100
AcDbLine
 10
199.3316586036
 20
80.8784554064
 30
0.0
 11
199.3316586036
 21
78.3784577905
 31
0.0
  0
LINE
  5
23D
330
1F
100
AcDbEntity
  8
0
  6
Continuous
 62
     7
370
    15
100
AcDbLine
 10
205.3203607816
 20
77.5784591495
 30
0.0
 11
201.8853451032
 21
77.5784591495
 31
0.0
  0
LINE
  5
23E
330
1F
100
AcDbEntity
  8
0
  6
Continuous
 62
     7
370
    15
100
AcDbLine
 10
201.2125874776
 20
77.5811115562
 30
0.0
 11
201.2125874776
 21
78.3784577905
 31
0.0
  0
LINE
  5
23F
330
1F
100
AcDbEntity
  8
0
  6
Continuous
 62
     7
370
    15
100
AcDbLine
 10
205.3203607816
 20
78.3784577905
 30
0.0
 11
201.2125874776
 21
78.3784577905
 31
0.0
  0
LINE
  5
240
330
1F
100
AcDbEntity
  8
0
  6
Continuous
 62
     7
370
    15
100
AcDbLine
 10
201.2125874776
 20
92.7784631311
 30
0.0
 11
201.2125874776
 21
93.5758093654
 31
0.0
  0
LINE
  5
241
330
1F
100
AcDbEntity
  8
0
  6
Continuous
 62
     7
370
    15
100
AcDbLine
 10
205.3203607816
 20
93.5784617721
 30
0.0
 11
201.8853451032
 21
93.5784617721
 31
0.0
  0
LINE
  5
242
330
1F
100
AcDbEntity
  8
0
  6
Continuous
 62
     7
370
    15
100
AcDbLine
 10
205.3203607816
 20
92.7784631311
 30
0.0
 11
201.2125874776
 21
92.7784631311
 31
0.0
  0
LINE
  5
243
330
1F
100
AcDbEntity
  8
0
  6
Continuous
 62
     7
370
    15
100
AcDbLine
 10
199.3203635234
 20
78.3784577905
 30
0.0
 11
201.2125874776
 21
78.3784577905
 31
0.0
  0
LINE
  5
244
330
1F
100
AcDbEntity
  8
0
  6
Continuous
 62
     7
370
    15
100
AcDbLine
 10
199.3203635234
 20
92.7784631311
 30
0.0
 11
201.2125874776
 21
92.7784631311
 31
0.0
  0
LINE
  5
245
330
1F
100
AcDbEntity
  8
0
  6
Continuous
 62
     7
370
    15
100
AcDbLine
 10
200.3903563041
 20
93.8784668504
 30
0.0
 11
204.7903562803
 21
93.8784668504
 31
0.0
  0
LINE
  5
246
330
1F
100
AcDbEntity
  8
0
  6
Continuous
 62
     7
370
    15
100
AcDbLine
 10
200.4903579969
 20
77.1784672796
 30
0.0
 11
204.6903545875
 21
77.1784672796
 31
0.0
  0
LINE
  5
247
330
1F
100
AcDbEntity
  8
0
  6
Continuous
 62
     7
370
    15
100
AcDbLine
 10
200.4903579969
 20
76.7784605085
 30
0.0
 11
204.6903545875
 21
76.7784605085
 31
0.0
  0
ARC
  5
248
330
1F
100
AcDbEntity
  8
0
  6
Continuous
 62
     7
370
    15
100
AcDbCircle
 10
182.7862772
 20
85.5784604608
 30
0.0
 40
16.90401408232905
100
AcDbArc
 50
154.7901718738
 51
205.2098281262
  0
SPLINE
  5
249
330
1F
100
AcDbEntity
  8
0
  6
Continuous
 62
     7
370
    15
100
AcDbSpline
210
0.0
220
0.0
230
1.0
 70
     8
 71
     3
 72
    12
 73
     8
 74
     0
 42
0.00000001
 43
0.00000001
 40
0.0
 40
0.0
 40
0.0
 40
0.0
 40
0.1818837080735567
 40
0.36334584682646
 40
0.5550842991093163
 40
0.7712679363254195
 40
1.0
 40
1.0
 40
1.0
 40
1.0
 10
167.6246772426808
 20
77.57845914952202
 30
0.0
 10
167.6485374869918
 20
77.58578146553471
 30
0.0
 10
167.6962026724364
 20
77.60040912592578
 30
0.0
 10
167.7109511907189
 20
77.71240597268262
 30
0.0
 10
167.6837178197674
 20
77.88180154088047
 30
0.0
 10
167.6120420734414
 20
78.11020799797328
 30
0.0
 10
167.532959360328
 20
78.28737557834653
 30
0.0
 10
167.4923027772153
 20
78.37845779053615
 30
0.0
  0
LINE
  5
24A
330
1F
100
AcDbEntity
  8
0
  6
Continuous
 62
     7
370
    15
100
AcDbLine
 10
167.2403166908
 20
78.3329645454
 30
0.0
 11
167.5947631616
 21
77.5784591495
 31
0.0
  0
ARC
  5
24B
330
1F
100
AcDbEntity
  8
0
  6
Continuous
 62
     7
370
    15
100
AcDbCircle
 10
182.5109453839
 20
85.5784604608
 30
0.0
 40
16.90234633834252
100
AcDbArc
 50
154.616938827
 51
205.383061173
  0
LINE
  5
24C
330
1F
100
AcDbEntity
  8
0
  6
Continuous
 62
     7
370
    15
100
AcDbLine
 10
167.5947631616
 20
93.5784617721
 30
0.0
 11
167.2403166908
 21
92.8239563762
 31
0.0
  0
SPLINE
  5
24D
330
1F
100
AcDbEntity
  8
0
  6
Continuous
 62
     7
370
    15
100
AcDbSpline
210
0.0
220
0.0
230
1.0
 70
     8
 71
     3
 72
    12
 73
     8
 74
     0
 42
0.00000001
 43
0.00000001
 40
0.0
 40
0.0
 40
0.0
 40
0.0
 40
0.2510209911880205
 40
0.5023974552454273
 40
0.7402778730390002
 40
0.9473077450497924
 40
1.0
 40
1.0
 40
1.0
 40
1.0
 10
167.4923027772153
 20
92.77846313111232
 30
0.0
 10
167.5366205695265
 20
92.87834878486237
 30
0.0
 10
167.6253189129356
 20
93.0782615412499
 30
0.0
 10
167.7003111186624
 20
93.33697877457774
 30
0.0
 10
167.711805584293
 20
93.51421682387686
 30
0.0
 10
167.6701596010873
 20
93.57467672234925
 30
0.0
 10
167.6323483620775
 20
93.57782338023601
 30
0.0
 10
167.6246772426808
 20
93.57846177212642
 30
0.0
  0
LINE
  5
24E
330
1F
100
AcDbEntity
  8
0
  6
Continuous
 62
     7
370
    15
100
AcDbLine
 10
167.6246772427
 20
77.5784591495
 30
0.0
 11
167.5947631616
 21
77.5784591495
 31
0.0
  0
LINE
  5
24F
330
1F
100
AcDbEntity
  8
0
  6
Continuous
 62
     7
370
    15
100
AcDbLine
 10
167.6246772427
 20
93.5784617721
 30
0.0
 11
167.5947631616
 21
93.5784617721
 31
0.0
  0
LINE
  5
250
330
1F
100
AcDbEntity
  8
0
  6
Continuous
 62
     7
370
    15
100
AcDbLine
 10
169.4817791599
 20
92.7784631311
 30
0.0
 11
167.4923027772
 21
92.7784631311
 31
0.0
  0
LINE
  5
251
330
1F
100
AcDbEntity
  8
0
  6
Continuous
 62
     7
370
    15
100
AcDbLine
 10
169.4817791599
 20
78.3784577905
 30
0.0
 11
169.4817791599
 21
92.7784631311
 31
0.0
  0
LINE
  5
252
330
1F
100
AcDbEntity
  8
0
  6
Continuous
 62
     7
370
    15
100
AcDbLine
 10
167.4923027772
 20
78.3784577905
 30
0.0
 11
169.4817791599
 21
78.3784577905
 31
0.0
  0
LWPOLYLINE
  5
253
330
1F
100
AcDbEntity
  8
0
  6
Continuous
 62
     7
370
    15
100
AcDbPolyline
 90
        9
 70
   128
 43
0.0
 10
169.4817791599
 20
92.7784631311
 10
169.47651905
 20
92.9345378935
 10
169.4609547872
 20
93.0846074878
 10
169.4356675166
 20
93.222920066
 10
169.401640715
 20
93.3441410124
 10
169.360178234
 20
93.4436360656
 10
169.3128744978
 20
93.5175607263
 10
169.2615399975
 20
93.5630837738
 10
169.2081640381
 20
93.5784617721
  0
LINE
  5
254
330
1F
100
AcDbEntity
  8
0
  6
Continuous
 62
     7
370
    15
100
AcDbLine
 10
167.6246772427
 20
93.5784617721
 30
0.0
 11
169.2081640381
 21
93.5784617721
 31
0.0
  0
LWPOLYLINE
  5
255
330
1F
100
AcDbEntity
  8
0
  6
Continuous
 62
     7
370
    15
100
AcDbPolyline
 90
        9
 70
   128
 43
0.0
 10
169.4817791599
 20
78.3784577905
 10
169.47651905
 20
78.2223979294
 10
169.4609547872
 20
78.0723134338
 10
169.4356675166
 20
77.9340008556
 10
169.401640715
 20
77.8127799093
 10
169.360178234
 20
77.713284856
 10
169.3128744978
 20
77.6393601953
 10
169.2615399975
 20
77.5938371479
 10
169.2081640381
 20
77.5784591495
  0
LINE
  5
256
330
1F
100
AcDbEntity
  8
0
  6
Continuous
 62
     7
370
    15
100
AcDbLine
 10
169.2081640381
 20
77.5784591495
 30
0.0
 11
167.6246772427
 21
77.5784591495
 31
0.0
  0
LINE
  5
257
330
1F
100
AcDbEntity
  8
0
  6
Continuous
 62
     7
370
    15
100
AcDbLine
 10
174.38063276
 20
92.7784631311
 30
0.0
 11
169.4817791599
 21
92.7784631311
 31
0.0
  0
LINE
  5
258
330
1F
100
AcDbEntity
  8
0
  6
Continuous
 62
     7
370
    15
100
AcDbLine
 10
169.4817791599
 20
78.3784577905
 30
0.0
 11
174.38063276
 21
78.3784577905
 31
0.0
  0
LINE
  5
259
330
1F
100
AcDbEntity
  8
0
  6
Continuous
 62
     7
370
    15
100
AcDbLine
 10
169.2081640381
 20
93.5784617721
 30
0.0
 11
174.5195413846
 21
93.5784617721
 31
0.0
  0
LINE
  5
25A
330
1F
100
AcDbEntity
  8
0
  6
Continuous
 62
     7
370
    15
100
AcDbLine
 10
174.5195413846
 20
77.5784591495
 30
0.0
 11
169.2081640381
 21
77.5784591495
 31
0.0
  0
SPLINE
  5
25B
330
1F
100
AcDbEntity
  8
0
  6
Continuous
 62
     7
370
    15
100
AcDbSpline
210
0.0
220
0.0
230
1.0
 70
     8
 71
     3
 72
    16
 73
    12
 74
     0
 42
0.00000001
 43
0.00000001
 40
0.0
 40
0.0
 40
0.0
 40
0.0
 40
0.1207062812367501
 40
0.2414151390861788
 40
0.3621171154394663
 40
0.4828251718932101
 40
0.6035306494480889
 40
0.7242346556914431
 40
0.8449397039591576
 40
0.9656486640707528
 40
1.0
 40
1.0
 40
1.0
 40
1.0
 10
200.7626618165219
 20
442.6260927974408
 30
0.0
 10
200.7820628204435
 20
442.62876309896
 30
0.0
 10
200.8208652424231
 20
442.6341037589989
 30
0.0
 10
200.8257866527491
 20
442.925035459739
 30
0.0
 10
200.7885778348813
 20
443.3784063983504
 30
0.0
 10
200.7116494768678
 20
443.9459159090094
 30
0.0
 10
200.6078472460609
 20
444.5342507968198
 30
0.0
 10
200.4917488270291
 20
445.0609375302001
 30
0.0
 10
200.3847368542412
 20
445.4242291135372
 30
0.0
 10
200.3121656357547
 20
445.5947056791181
 30
0.0
 10
200.2926145961812
 20
445.5615466674013
 30
0.0
 10
200.2882833499158
 20
445.5542007743542
 30
0.0
  0
SPLINE
  5
25C
330
1F
100
AcDbEntity
  8
0
  6
Continuous
 62
     7
370
    15
100
AcDbSpline
210
0.0
220
0.0
230
1.0
 70
     8
 71
     3
 72
    16
 73
    12
 74
     0
 42
0.00000001
 43
0.00000001
 40
0.0
 40
0.0
 40
0.0
 40
0.0
 40
0.1205770547840739
 40
0.2411627743848229
 40
0.361741619509424
 40
0.4823236432359054
 40
0.6029059859904309
 40
0.7234901230714557
 40
0.8440714779814131
 40
0.9646564137308051
 40
1.0
 40
1.0
 40
1.0
 40
1.0
 10
200.9332503098691
 20
468.5021082221692
 30
0.0
 10
200.9526513405062
 20
468.4994364834467
 30
0.0
 10
200.9914547959629
 20
468.4940928140076
 30
0.0
 10
200.9963746254716
 20
468.2031657294181
 30
0.0
 10
200.9591677311713
 20
467.7497971198713
 30
0.0
 10
200.8822354605134
 20
467.1822990022402
 30
0.0
 10
200.7784389915787
 20
466.5939484196271
 30
0.0
 10
200.6623202727351
 20
466.0673118611744
 30
0.0
 10
200.5553081814015
 20
465.7038087206888
 30
0.0
 10
200.4825462459262
 20
465.5332872944172
 30
0.0
 10
200.4629063041712
 20
465.5668659631634
 30
0.0
 10
200.4584546107495
 20
465.574477082414
 30
0.0
  0
SPLINE
  5
25D
330
1F
100
AcDbEntity
  8
0
  6
Continuous
 62
     7
370
    15
100
AcDbSpline
210
0.0
220
0.0
230
1.0
 70
     8
 71
     3
 72
    16
 73
    12
 74
     0
 42
0.00000001
 43
0.00000001
 40
0.0
 40
0.0
 40
0.0
 40
0.0
 40
0.1205177302061663
 40
0.2410325934015554
 40
0.3615499889352475
 40
0.4820676074668435
 40
0.6025845352465417
 40
0.7230999940129991
 40
0.8436164931761072
 40
0.9641310894240808
 40
0.9999999999999999
 40
0.9999999999999999
 40
0.9999999999999999
 40
0.9999999999999999
 10
216.3036341685498
 20
445.2425131856625
 30
0.0
 10
216.3230352684026
 20
445.2451811876423
 30
0.0
 10
216.3618370065732
 20
445.2505171281327
 30
0.0
 10
216.366758160286
 20
445.5414757486153
 30
0.0
 10
216.3295517415289
 20
445.9948102442055
 30
0.0
 10
216.2526215473615
 20
446.5623395245074
 30
0.0
 10
216.1488171174705
 20
447.1506867210301
 30
0.0
 10
216.0327308420372
 20
447.6772956137565
 30
0.0
 10
215.9256747540584
 20
448.0408773487974
 30
0.0
 10
215.8528218250838
 20
448.211478602386
 30
0.0
 10
215.8331312757978
 20
448.1776622061827
 30
0.0
 10
215.8286149520123
 20
448.1699059068387
 30
0.0
  0
SPLINE
  5
25E
330
1F
100
AcDbEntity
  8
0
  6
Continuous
 62
     7
370
    15
100
AcDbSpline
210
0.0
220
0.0
230
1.0
 70
     8
 71
     3
 72
    16
 73
    12
 74
     0
 42
0.00000001
 43
0.00000001
 40
0.0
 40
0.0
 40
0.0
 40
0.0
 40
0.1205181162498971
 40
0.2410328176295806
 40
0.3615500513441671
 40
0.4820646142895711
 40
0.6025813802507916
 40
0.723097164529483
 40
0.843617588722802
 40
0.9641311375853857
 40
1.0
 40
1.0
 40
1.0
 40
1.0
 10
216.4742077607358
 20
465.8857027351086
 30
0.0
 10
216.4936151863103
 20
465.8830285627137
 30
0.0
 10
216.5324294875515
 20
465.8776802936962
 30
0.0
 10
216.5373452690091
 20
465.5867263470357
 30
0.0
 10
216.5001420760454
 20
465.1333941383667
 30
0.0
 10
216.4232066423188
 20
464.565871022508
 30
0.0
 10
216.3194127761689
 20
463.9775336026377
 30
0.0
 10
216.2032910482952
 20
463.4508928572989
 30
0.0
 10
216.0962733634014
 20
463.0873278318062
 30
0.0
 10
216.0234096214797
 20
462.9167382171995
 30
0.0
 10
216.0037196599164
 20
462.9505538465547
 30
0.0
 10
215.9992034453595
 20
462.9583100139325
 30
0.0
  0
SPLINE
  5
25F
330
1F
100
AcDbEntity
  8
0
  6
Continuous
 62
     7
370
    15
100
AcDbSpline
210
0.0
220
0.0
230
1.0
 70
    24
 71
     3
 72
    16
 73
    12
 74
     0
 42
0.00000001
 43
0.00000001
 40
0.0
 40
0.0
 40
0.0
 40
0.0
 40
0.0611042412805948
 40
0.1864670502232474
 40
0.311832109630077
 40
0.4371980005123943
 40
0.5625599899456356
 40
0.68792400593719
 40
0.8132867973268191
 40
0.9386468025897463
 40
1.0
 40
1.0
 40
1.0
 40
1.0
 10
219.380545141145
 20
448.7122336684888
 30
0.0
 10
219.3863181640759
 20
448.7122336684888
 30
0.0
 10
219.4039352481644
 20
448.7122336684888
 30
0.0
 10
219.1854954602407
 20
448.7122336684887
 30
0.0
 10
218.7727678413228
 20
448.7122336684888
 30
0.0
 10
218.2162914518847
 20
448.7122336684888
 30
0.0
 10
217.6171824144615
 20
448.7122336684888
 30
0.0
 10
217.0584956115497
 20
448.7122336684887
 30
0.0
 10
216.6415395335081
 20
448.7122336684888
 30
0.0
 10
216.4185373124829
 20
448.7122336684887
 30
0.0
 10
216.4333530616582
 20
448.7122336684888
 30
0.0
 10
216.4382214564526
 20
448.7122336684888
 30
0.0
  0
SPLINE
  5
260
330
1F
100
AcDbEntity
  8
0
  6
Continuous
 62
     7
370
    15
100
AcDbSpline
210
0.0
220
0.0
230
1.0
 70
    24
 71
     3
 72
    16
 73
    12
 74
     0
 42
0.00000001
 43
0.00000001
 40
0.0
 40
0.0
 40
0.0
 40
0.0
 40
0.0610064913464802
 40
0.1861687543686247
 40
0.3113332642548242
 40
0.4364986042863799
 40
0.5616600491101023
 40
0.6868235172502032
 40
0.8119857627474041
 40
0.9371452265749375
 40
1.0
 40
1.0
 40
1.0
 40
1.0
 10
219.380545141145
 20
462.2708598434155
 30
0.0
 10
219.3863181578516
 20
462.2708598434155
 30
0.0
 10
219.403935222946
 20
462.2708598434156
 30
0.0
 10
219.1854956940552
 20
462.2708598434155
 30
0.0
 10
218.7727669846429
 20
462.2708598434156
 30
0.0
 10
218.2162946447642
 20
462.2708598434155
 30
0.0
 10
217.6171704999524
 20
462.2708598434155
 30
0.0
 10
217.058540077458
 20
462.2708598434156
 30
0.0
 10
216.6413735880022
 20
462.2708598434155
 30
0.0
 10
216.4178813587818
 20
462.2708598434155
 30
0.0
 10
216.4331029466455
 20
462.2708598434156
 30
0.0
 10
216.4381916541302
 20
462.2708598434155
 30
0.0
  0
SPLINE
  5
261
330
1F
100
AcDbEntity
  8
0
  6
Continuous
 62
     7
370
    15
100
AcDbSpline
210
0.0
220
0.0
230
1.0
 70
     8
 71
     3
 72
    19
 73
    15
 74
     0
 42
0.00000001
 43
0.00000001
 40
0.0
 40
0.0
 40
0.0
 40
0.0
 40
0.0039535908315765
 40
0.1157766617010052
 40
0.2280455122625069
 40
0.3355272496220573
 40
0.4377154776956129
 40
0.5348915946116108
 40
0.6283085996527443
 40
0.7303075611088581
 40
0.841343901145654
 40
0.9641173986489723
 40
0.993768798475395
 40
1.0
 40
1.0
 40
1.0
 40
1.0
 10
205.7086403388226
 20
461.1784557162945
 30
0.0
 10
205.709032599723
 20
461.1784537395869
 30
0.0
 10
205.7205195389395
 20
461.1783958538273
 30
0.0
 10
205.7438362887295
 20
461.1631287244715
 30
0.0
 10
205.7873099557335
 20
461.0962662949752
 30
0.0
 10
205.8252924766519
 20
460.9915701444103
 30
0.0
 10
205.8487721801366
 20
460.8664883300829
 30
0.0
 10
205.8601121160459
 20
460.7380515793964
 30
0.0
 10
205.8607204761039
 20
460.6168860734554
 30
0.0
 10
205.8449221847162
 20
460.5076512386321
 30
0.0
 10
205.8045575196935
 20
460.4182554619767
 30
0.0
 10
205.7526703983885
 20
460.3831477315106
 30
0.0
 10
205.7179804419571
 20
460.3785966467723
 30
0.0
 10
205.7100223100747
 20
460.3784777264216
 30
0.0
 10
205.7086403388226
 20
460.3784570752804
 30
0.0
  0
SPLINE
  5
262
330
1F
100
AcDbEntity
  8
0
  6
Continuous
 62
     7
370
    15
100
AcDbSpline
210
0.0
220
0.0
230
1.0
 70
     8
 71
     3
 72
    30
 73
    26
 74
     0
 42
0.00000001
 43
0.00000001
 40
0.0
 40
0.0
 40
0.0
 40
0.0
 40
0.1247233423477871
 40
0.2494251316701278
 40
0.374122288361666
 40
0.4367874325715229
 40
0.4681545365565897
 40
0.4838435668122977
 40
0.4916947196604347
 40
0.4956139448993678
 40
0.4975747777715092
 40
0.4985537292655368
 40
0.4990418638316214
 40
0.4992873065603386
 40
0.499411605938083
 40
0.4994723134424177
 40
0.4995080306057897
 40
0.4995248678380731
 40
0.4995367735591971
 40
0.5609248167913023
 40
0.6646213322227
 40
0.7325829604551723
 40
0.8111549986055951
 40
0.9002870388607779
 40
1.0
 40
1.0
 40
1.0
 40
1.0
 10
205.7803298253262
 20
461.2383583842938
 30
0.0
 10
205.7860992293707
 20
461.2365676004783
 30
0.0
 10
205.7976370404683
 20
461.2329863423068
 30
0.0
 10
205.887478193499
 20
461.211125516939
 30
0.0
 10
205.9949568458712
 20
461.1854766784087
 30
0.0
 10
206.0804959101647
 20
461.1650242510511
 30
0.0
 10
206.1246105513541
 20
461.1545206836968
 30
0.0
 10
206.1468309447899
 20
461.1491851363199
 30
0.0
 10
206.1579694286053
 20
461.1465335467946
 30
0.0
 10
206.1635393434696
 20
461.1451974713993
 30
0.0
 10
206.1663190140482
 20
461.1445187684208
 30
0.0
 10
206.1677082209492
 20
461.1441791897194
 30
0.0
 10
206.1684072187396
 20
461.1440299225467
 30
0.0
 10
206.1687541981032
 20
461.1439431643495
 30
0.0
 10
206.1689280389279
 20
461.1438964960375
 30
0.0
 10
206.1690129202496
 20
461.1438604626813
 30
0.0
 10
206.1690685802087
 20
461.1438826840132
 30
0.0
 10
206.1690828913079
 20
461.1438521337516
 30
0.0
 10
206.1966264985493
 20
461.1485161860971
 30
0.0
 10
206.2592751351746
 20
461.1145424063116
 30
0.0
 10
206.3527186101958
 20
461.1055116157789
 30
0.0
 10
206.4357349530726
 20
461.0860008666012
 30
0.0
 10
206.4994067027721
 20
461.0737555738742
 30
0.0
 10
206.5499030448451
 20
461.0639180969271
 30
0.0
 10
206.5571274582288
 20
461.0634840318842
 30
0.0
 10
206.5609420556271
 20
461.0632548391049
 30
0.0
  0
ELLIPSE
  5
263
330
1F
100
AcDbEntity
  8
0
  6
Continuous
 62
     7
370
    15
100
AcDbEllipse
 10
206.4374693279
 20
462.3604380238
 30
0.0
 11
0.3906095144045878
 21
-0.08616383961157226
 31
0.0
210
0.0
220
0.0
230
1.0
 40
0.0142285888
 41
0.0
 42
6.283185307179586
  0
LINE
  5
264
330
1F
100
AcDbEntity
  8
0
  6
Continuous
 62
     7
370
    15
100
AcDbLine
 10
205.8212931174
 20
450.8784601747
 30
0.0
 11
205.8212931174
 21
459.4784567415
 31
0.0
  0
LINE
  5
265
330
1F
100
AcDbEntity
  8
0
  6
Continuous
 62
     7
370
    15
100
AcDbLine
 10
200.3069992084
 20
450.8784601747
 30
0.0
 11
200.3069992084
 21
459.4784567415
 31
0.0
  0
LINE
  5
266
330
1F
100
AcDbEntity
  8
0
  6
Continuous
 62
     7
370
    15
100
AcDbLine
 10
205.8212931174
 20
450.8784601747
 30
0.0
 11
200.3069992084
 21
450.8784601747
 31
0.0
  0
LINE
  5
267
330
1F
100
AcDbEntity
  8
0
  6
Continuous
 62
     7
370
    15
100
AcDbLine
 10
205.8212931174
 20
459.4784567415
 30
0.0
 11
200.3069992084
 21
459.4784567415
 31
0.0
  0
LINE
  5
268
330
1F
100
AcDbEntity
  8
0
  6
Continuous
 62
     7
370
    15
100
AcDbLine
 10
199.1927350778
 20
462.7784678995
 30
0.0
 11
174.38063276
 21
462.7784678995
 31
0.0
  0
LINE
  5
269
330
1F
100
AcDbEntity
  8
0
  6
Continuous
 62
     7
370
    15
100
AcDbLine
 10
199.1927350778
 20
459.4784567415
 30
0.0
 11
199.1927350778
 21
462.7784678995
 31
0.0
  0
LINE
  5
26A
330
1F
100
AcDbEntity
  8
0
  6
Continuous
 62
     7
370
    15
100
AcDbLine
 10
199.1927350778
 20
448.3784625589
 30
0.0
 11
199.1927350778
 21
450.8784601747
 31
0.0
  0
LINE
  5
26B
330
1F
100
AcDbEntity
  8
0
  6
Continuous
 62
     7
370
    15
100
AcDbLine
 10
174.38063276
 20
448.3784625589
 30
0.0
 11
199.1927350778
 21
448.3784625589
 31
0.0
  0
LINE
  5
26C
330
1F
100
AcDbEntity
  8
0
  6
Continuous
 62
     7
370
    15
100
AcDbLine
 10
174.38063276
 20
448.3784625589
 30
0.0
 11
174.38063276
 21
462.7784678995
 31
0.0
  0
LINE
  5
26D
330
1F
100
AcDbEntity
  8
0
  6
Continuous
 62
     7
370
    15
100
AcDbLine
 10
199.1927350778
 20
450.8784601747
 30
0.0
 11
200.3069992084
 21
450.8784601747
 31
0.0
  0
LINE
  5
26E
330
1F
100
AcDbEntity
  8
0
  6
Continuous
 62
     7
370
    15
100
AcDbLine
 10
199.1927350778
 20
459.4784567415
 30
0.0
 11
200.3069992084
 21
459.4784567415
 31
0.0
  0
LINE
  5
26F
330
1F
100
AcDbEntity
  8
0
  6
Continuous
 62
     7
370
    15
100
AcDbLine
 10
201.2125874776
 20
463.5758141338
 30
0.0
 11
199.3203635234
 21
463.5758141338
 31
0.0
  0
ARC
  5
270
330
1F
100
AcDbEntity
  8
0
  6
Continuous
 62
     7
370
    15
100
AcDbCircle
 10
200.6669431858
 20
462.9513841603
 30
0.0
 40
1.484314514888938
100
AcDbArc
 50
155.122110312
 51
186.6899023476
  0
ARC
  5
271
330
1F
100
AcDbEntity
  8
0
  6
Continuous
 62
     7
370
    15
100
AcDbCircle
 10
175.6365400457
 20
462.9724561816
 30
0.0
 40
1.270800756943077
100
AcDbArc
 50
151.5186397143
 51
188.7805542378
  0
LINE
  5
272
330
1F
100
AcDbEntity
  8
0
  6
Continuous
 62
     7
370
    15
100
AcDbLine
 10
174.5195413846
 20
463.5784665405
 30
0.0
 11
201.8853451032
 21
463.5784665405
 31
0.0
  0
LINE
  5
273
330
1F
100
AcDbEntity
  8
0
  6
Continuous
 62
     7
370
    15
100
AcDbLine
 10
201.8853451032
 20
463.5784665405
 30
0.0
 11
201.2125874776
 21
463.5758141338
 31
0.0
  0
LINE
  5
274
330
1F
100
AcDbEntity
  8
0
  6
Continuous
 62
     7
370
    15
100
AcDbLine
 10
199.3203635234
 20
447.5811163246
 30
0.0
 11
201.2125874776
 21
447.5811163246
 31
0.0
  0
LINE
  5
275
330
1F
100
AcDbEntity
  8
0
  6
Continuous
 62
     7
370
    15
100
AcDbLine
 10
201.2125874776
 20
447.5811163246
 30
0.0
 11
201.8853451032
 21
447.5784639179
 31
0.0
  0
LINE
  5
276
330
1F
100
AcDbEntity
  8
0
  6
Continuous
 62
     7
370
    15
100
AcDbLine
 10
201.8853451032
 20
447.5784639179
 30
0.0
 11
174.5195413846
 21
447.5784639179
 31
0.0
  0
ARC
  5
277
330
1F
100
AcDbEntity
  8
0
  6
Continuous
 62
     7
370
    15
100
AcDbCircle
 10
175.6365400457
 20
448.1844742768
 30
0.0
 40
1.270800756943074
100
AcDbArc
 50
171.2194457622
 51
208.4813602857
  0
ARC
  5
278
330
1F
100
AcDbEntity
  8
0
  6
Continuous
 62
     7
370
    15
100
AcDbCircle
 10
200.6669146434
 20
448.2055417294
 30
0.0
 40
1.484286699018952
100
AcDbArc
 50
173.3097941414
 51
204.8781931989
  0
LINE
  5
279
330
1F
100
AcDbEntity
  8
0
  6
Continuous
 62
     7
370
    15
100
AcDbLine
 10
199.3203635234
 20
462.7784678995
 30
0.0
 11
199.3203635234
 21
463.5758141338
 31
0.0
  0
LINE
  5
27A
330
1F
100
AcDbEntity
  8
0
  6
Continuous
 62
     7
370
    15
100
AcDbLine
 10
199.3316586036
 20
462.7784678995
 30
0.0
 11
199.3316586036
 21
459.4784567415
 31
0.0
  0
LINE
  5
27B
330
1F
100
AcDbEntity
  8
0
  6
Continuous
 62
     7
370
    15
100
AcDbLine
 10
199.3203635234
 20
447.5811163246
 30
0.0
 11
199.3203635234
 21
448.3784625589
 31
0.0
  0
LINE
  5
27C
330
1F
100
AcDbEntity
  8
0
  6
Continuous
 62
     7
370
    15
100
AcDbLine
 10
199.3316586036
 20
450.8784601747
 30
0.0
 11
199.3316586036
 21
448.3784625589
 31
0.0
  0
LINE
  5
27D
330
1F
100
AcDbEntity
  8
0
  6
Continuous
 62
     7
370
    15
100
AcDbLine
 10
205.3203607816
 20
447.5784639179
 30
0.0
 11
201.8853451032
 21
447.5784639179
 31
0.0
  0
LINE
  5
27E
330
1F
100
AcDbEntity
  8
0
  6
Continuous
 62
     7
370
    15
100
AcDbLine
 10
201.2125874776
 20
447.5811163246
 30
0.0
 11
201.2125874776
 21
448.3784625589
 31
0.0
  0
LINE
  5
27F
330
1F
100
AcDbEntity
  8
0
  6
Continuous
 62
     7
370
    15
100
AcDbLine
 10
205.3203607816
 20
448.3784625589
 30
0.0
 11
201.2125874776
 21
448.3784625589
 31
0.0
  0
LINE
  5
280
330
1F
100
AcDbEntity
  8
0
  6
Continuous
 62
     7
370
    15
100
AcDbLine
 10
201.2125874776
 20
462.7784678995
 30
0.0
 11
201.2125874776
 21
463.5758141338
 31
0.0
  0
LINE
  5
281
330
1F
100
AcDbEntity
  8
0
  6
Continuous
 62
     7
370
    15
100
AcDbLine
 10
205.3203607816
 20
463.5784665405
 30
0.0
 11
201.8853451032
 21
463.5784665405
 31
0.0
  0
LINE
  5
282
330
1F
100
AcDbEntity
  8
0
  6
Continuous
 62
     7
370
    15
100
AcDbLine
 10
205.3203607816
 20
462.7784678995
 30
0.0
 11
201.2125874776
 21
462.7784678995
 31
0.0
  0
LINE
  5
283
330
1F
100
AcDbEntity
  8
0
  6
Continuous
 62
     7
370
    15
100
AcDbLine
 10
199.3203635234
 20
462.7784678995
 30
0.0
 11
201.2125874776
 21
462.7784678995
 31
0.0
  0
LINE
  5
284
330
1F
100
AcDbEntity
  8
0
  6
Continuous
 62
     7
370
    15
100
AcDbLine
 10
199.3203635234
 20
448.3784625589
 30
0.0
 11
201.2125874776
 21
448.3784625589
 31
0.0
  0
LINE
  5
285
330
1F
100
AcDbEntity
  8
0
  6
Continuous
 62
     7
370
    15
100
AcDbLine
 10
200.3903563041
 20
463.8784567177
 30
0.0
 11
204.7903562803
 21
463.8784567177
 31
0.0
  0
LINE
  5
286
330
1F
100
AcDbEntity
  8
0
  6
Continuous
 62
     7
370
    15
100
AcDbLine
 10
200.4903579969
 20
447.1784571468
 30
0.0
 11
204.6903545875
 21
447.1784571468
 31
0.0
  0
LINE
  5
287
330
1F
100
AcDbEntity
  8
0
  6
Continuous
 62
     7
370
    15
100
AcDbLine
 10
200.4903579969
 20
446.7784652769
 30
0.0
 11
204.6903545875
 21
446.7784652769
 31
0.0
  0
ARC
  5
288
330
1F
100
AcDbEntity
  8
0
  6
Continuous
 62
     7
370
    15
100
AcDbCircle
 10
182.7862772
 20
455.5784652292
 30
0.0
 40
16.90401408232904
100
AcDbArc
 50
154.7901718738
 51
205.2098281262
  0
SPLINE
  5
289
330
1F
100
AcDbEntity
  8
0
  6
Continuous
 62
     7
370
    15
100
AcDbSpline
210
0.0
220
0.0
230
1.0
 70
     8
 71
     3
 72
    12
 73
     8
 74
     0
 42
0.00000001
 43
0.00000001
 40
0.0
 40
0.0
 40
0.0
 40
0.0
 40
0.181883395813801
 40
0.363345223030703
 40
0.5550762443184742
 40
0.7712683290148971
 40
1.0
 40
1.0
 40
1.0
 40
1.0
 10
167.6246772426808
 20
447.5784639178937
 30
0.0
 10
167.6485374271432
 20
447.5857859742596
 30
0.0
 10
167.6962024930292
 20
447.6004131159589
 30
0.0
 10
167.7109517345846
 20
447.7124124862842
 30
0.0
 10
167.6837152882428
 20
447.881791048074
 30
0.0
 10
167.6120446129296
 20
448.1102125128624
 30
0.0
 10
167.5329596903575
 20
448.2873814529818
 30
0.0
 10
167.4923027772153
 20
448.3784625589078
 30
0.0
  0
LINE
  5
28A
330
1F
100
AcDbEntity
  8
0
  6
Continuous
 62
     7
370
    15
100
AcDbLine
 10
167.2403166908
 20
448.3329693138
 30
0.0
 11
167.5947631616
 21
447.5784639179
 31
0.0
  0
ARC
  5
28B
330
1F
100
AcDbEntity
  8
0
  6
Continuous
 62
     7
370
    15
100
AcDbCircle
 10
182.5109453839
 20
455.5784652292
 30
0.0
 40
16.90234633834251
100
AcDbArc
 50
154.616938827
 51
205.383061173
  0
LINE
  5
28C
330
1F
100
AcDbEntity
  8
0
  6
Continuous
 62
     7
370
    15
100
AcDbLine
 10
167.5947631616
 20
463.5784665405
 30
0.0
 11
167.2403166908
 21
462.8239611446
 31
0.0
  0
SPLINE
  5
28D
330
1F
100
AcDbEntity
  8
0
  6
Continuous
 62
     7
370
    15
100
AcDbSpline
210
0.0
220
0.0
230
1.0
 70
     8
 71
     3
 72
    12
 73
     8
 74
     0
 42
0.00000001
 43
0.00000001
 40
0.0
 40
0.0
 40
0.0
 40
0.0
 40
0.2510129476244693
 40
0.5023997049789553
 40
0.7402755902731164
 40
0.9473068909495996
 40
0.9999999999999999
 40
0.9999999999999999
 40
0.9999999999999999
 40
0.9999999999999999
 10
167.4923027772153
 20
462.7784678994839
 30
0.0
 10
167.5366210429335
 20
462.8783472510494
 30
0.0
 10
167.6253235733519
 20
463.0782546950074
 30
0.0
 10
167.7003089294062
 20
463.3369831680156
 30
0.0
 10
167.711805784921
 20
463.5142119098525
 30
0.0
 10
167.6701592672877
 20
463.5746489634873
 30
0.0
 10
167.6323483530968
 20
463.5778226585463
 30
0.0
 10
167.6246772426808
 20
463.5784665404981
 30
0.0
  0
LINE
  5
28E
330
1F
100
AcDbEntity
  8
0
  6
Continuous
 62
     7
370
    15
100
AcDbLine
 10
167.6246772427
 20
463.5784665405
 30
0.0
 11
167.5947631616
 21
463.5784665405
 31
0.0
  0
LINE
  5
28F
330
1F
100
AcDbEntity
  8
0
  6
Continuous
 62
     7
370
    15
100
AcDbLine
 10
167.6246772427
 20
447.5784639179
 30
0.0
 11
167.5947631616
 21
447.5784639179
 31
0.0
  0
LINE
  5
290
330
1F
100
AcDbEntity
  8
0
  6
Continuous
 62
     7
370
    15
100
AcDbLine
 10
169.4817791599
 20
462.7784678995
 30
0.0
 11
167.4923027772
 21
462.7784678995
 31
0.0
  0
LINE
  5
291
330
1F
100
AcDbEntity
  8
0
  6
Continuous
 62
     7
370
    15
100
AcDbLine
 10
169.4817791599
 20
448.3784625589
 30
0.0
 11
169.4817791599
 21
462.7784678995
 31
0.0
  0
LINE
  5
292
330
1F
100
AcDbEntity
  8
0
  6
Continuous
 62
     7
370
    15
100
AcDbLine
 10
167.4923027772
 20
448.3784625589
 30
0.0
 11
169.4817791599
 21
448.3784625589
 31
0.0
  0
LWPOLYLINE
  5
293
330
1F
100
AcDbEntity
  8
0
  6
Continuous
 62
     7
370
    15
100
AcDbPolyline
 90
        9
 70
   128
 43
0.0
 10
169.4817791599
 20
462.7784678995
 10
169.47651905
 20
462.9345277607
 10
169.4609547872
 20
463.0846122562
 10
169.4356675166
 20
463.2229248344
 10
169.401640715
 20
463.3441457807
 10
169.360178234
 20
463.443640834
 10
169.3128744978
 20
463.5175654947
 10
169.2615399975
 20
463.5630885421
 10
169.2081640381
 20
463.5784665405
  0
LINE
  5
294
330
1F
100
AcDbEntity
  8
0
  6
Continuous
 62
     7
370
    15
100
AcDbLine
 10
167.6246772427
 20
463.5784665405
 30
0.0
 11
169.2081640381
 21
463.5784665405
 31
0.0
  0
LWPOLYLINE
  5
295
330
1F
100
AcDbEntity
  8
0
  6
Continuous
 62
     7
370
    15
100
AcDbPolyline
 90
        9
 70
   128
 43
0.0
 10
169.4817791599
 20
448.3784625589
 10
169.47651905
 20
448.2223877966
 10
169.4609547872
 20
448.0723182022
 10
169.4356675166
 20
447.934005624
 10
169.401640715
 20
447.8127846777
 10
169.360178234
 20
447.7132896244
 10
169.3128744978
 20
447.6393649637
 10
169.2615399975
 20
447.5938419162
 10
169.2081640381
 20
447.5784639179
  0
LINE
  5
296
330
1F
100
AcDbEntity
  8
0
  6
Continuous
 62
     7
370
    15
100
AcDbLine
 10
169.2081640381
 20
447.5784639179
 30
0.0
 11
167.6246772427
 21
447.5784639179
 31
0.0
  0
LINE
  5
297
330
1F
100
AcDbEntity
  8
0
  6
Continuous
 62
     7
370
    15
100
AcDbLine
 10
169.4817791599
 20
448.3784625589
 30
0.0
 11
174.38063276
 21
448.3784625589
 31
0.0
  0
LINE
  5
298
330
1F
100
AcDbEntity
  8
0
  6
Continuous
 62
     7
370
    15
100
AcDbLine
 10
174.5195413846
 20
447.5784639179
 30
0.0
 11
169.2081640381
 21
447.5784639179
 31
0.0
  0
LINE
  5
299
330
1F
100
AcDbEntity
  8
0
  6
Continuous
 62
     7
370
    15
100
AcDbLine
 10
174.38063276
 20
462.7784678995
 30
0.0
 11
169.4817791599
 21
462.7784678995
 31
0.0
  0
LINE
  5
29A
330
1F
100
AcDbEntity
  8
0
  6
Continuous
 62
     7
370
    15
100
AcDbLine
 10
169.2081640381
 20
463.5784665405
 30
0.0
 11
174.5195413846
 21
463.5784665405
 31
0.0
  0
LINE
  5
29B
330
1F
100
AcDbEntity
  8
0
  6
Continuous
 62
     7
370
    15
100
AcDbLine
 10
205.6103671807
 20
79.828459984
 30
0.0
 11
205.6103671807
 21
78.8284579574
 31
0.0
  0
LINE
  5
29C
330
1F
100
AcDbEntity
  8
0
  6
Continuous
 62
     7
370
    15
100
AcDbLine
 10
205.6103671807
 20
78.8284579574
 30
0.0
 11
199.410366537
 21
78.8284579574
 31
0.0
  0
LINE
  5
29D
330
1F
100
AcDbEntity
  8
0
  6
Continuous
 62
     7
370
    15
100
AcDbLine
 10
199.410366537
 20
79.828459984
 30
0.0
 11
199.410366537
 21
78.8284579574
 31
0.0
  0
LINE
  5
29E
330
1F
100
AcDbEntity
  8
0
  6
Continuous
 62
     7
370
    15
100
AcDbLine
 10
205.6103671807
 20
79.828459984
 30
0.0
 11
199.410366537
 21
79.828459984
 31
0.0
  0
LINE
  5
29F
330
1F
100
AcDbEntity
  8
0
  6
Continuous
 62
     7
370
    15
100
AcDbLine
 10
205.6103671807
 20
449.8284647524
 30
0.0
 11
205.6103671807
 21
448.8284627258
 31
0.0
  0
LINE
  5
2A0
330
1F
100
AcDbEntity
  8
0
  6
Continuous
 62
     7
370
    15
100
AcDbLine
 10
205.6103671807
 20
448.8284627258
 30
0.0
 11
199.410366537
 21
448.8284627258
 31
0.0
  0
LINE
  5
2A1
330
1F
100
AcDbEntity
  8
0
  6
Continuous
 62
     7
370
    15
100
AcDbLine
 10
199.410366537
 20
449.8284647524
 30
0.0
 11
199.410366537
 21
448.8284627258
 31
0.0
  0
LINE
  5
2A2
330
1F
100
AcDbEntity
  8
0
  6
Continuous
 62
     7
370
    15
100
AcDbLine
 10
205.6103671807
 20
449.8284647524
 30
0.0
 11
199.410366537
 21
449.8284647524
 31
0.0
  0
LINE
  5
2A3
330
1F
100
AcDbEntity
  8
0
  6
Continuous
 62
     7
370
    15
100
AcDbLine
 10
205.6103671807
 20
462.3284677326
 30
0.0
 11
205.6103671807
 21
461.328465706
 31
0.0
  0
LINE
  5
2A4
330
1F
100
AcDbEntity
  8
0
  6
Continuous
 62
     7
370
    15
100
AcDbLine
 10
199.410366537
 20
462.3284677326
 30
0.0
 11
199.410366537
 21
461.328465706
 31
0.0
  0
LINE
  5
2A5
330
1F
100
AcDbEntity
  8
0
  6
Continuous
 62
     7
370
    15
100
AcDbLine
 10
205.6103671807
 20
461.328465706
 30
0.0
 11
199.410366537
 21
461.328465706
 31
0.0
  0
LINE
  5
2A6
330
1F
100
AcDbEntity
  8
0
  6
Continuous
 62
     7
370
    15
100
AcDbLine
 10
205.6103671807
 20
462.3284677326
 30
0.0
 11
199.410366537
 21
462.3284677326
 31
0.0
  0
LINE
  5
2A7
330
1F
100
AcDbEntity
  8
0
  6
Continuous
 62
     7
370
    15
100
AcDbLine
 10
205.6103671807
 20
92.3284629642
 30
0.0
 11
205.6103671807
 21
91.3284609377
 31
0.0
  0
LINE
  5
2A8
330
1F
100
AcDbEntity
  8
0
  6
Continuous
 62
     7
370
    15
100
AcDbLine
 10
199.410366537
 20
92.3284629642
 30
0.0
 11
199.410366537
 21
91.3284609377
 31
0.0
  0
LINE
  5
2A9
330
1F
100
AcDbEntity
  8
0
  6
Continuous
 62
     7
370
    15
100
AcDbLine
 10
205.6103671807
 20
92.3284629642
 30
0.0
 11
199.410366537
 21
92.3284629642
 31
0.0
  0
LINE
  5
2AA
330
1F
100
AcDbEntity
  8
0
  6
Continuous
 62
     7
370
    15
100
AcDbLine
 10
205.6103671807
 20
91.3284609377
 30
0.0
 11
199.410366537
 21
91.3284609377
 31
0.0
  0
LWPOLYLINE
  5
2AB
330
1F
100
AcDbEntity
  8
0
  6
Continuous
 62
     7
370
    15
100
AcDbPolyline
 90
        3
 70
   128
 43
0.0
 10
199.3316586036
 20
79.2173186599
 10
199.3342365045
 20
79.2111495792
 10
199.410366537
 20
78.8284579574
  0
LWPOLYLINE
  5
2AC
330
1F
100
AcDbEntity
  8
0
  6
Continuous
 62
     7
370
    15
100
AcDbPolyline
 90
        3
 70
   128
 43
0.0
 10
199.410366537
 20
92.3284629642
 10
199.3342365045
 20
91.9457862436
 10
199.3316586036
 20
91.9396022617
  0
LINE
  5
2AD
330
1F
100
AcDbEntity
  8
0
  6
Continuous
 62
     7
370
    15
100
AcDbLine
 10
205.6103671807
 20
91.3284609377
 30
0.0
 11
205.6103671807
 21
91.1784658491
 31
0.0
  0
LINE
  5
2AE
330
1F
100
AcDbEntity
  8
0
  6
Continuous
 62
     7
370
    15
100
AcDbLine
 10
205.6103671807
 20
90.3784672081
 30
0.0
 11
205.6103671807
 21
89.4784668743
 31
0.0
  0
LINE
  5
2AF
330
1F
100
AcDbEntity
  8
0
  6
Continuous
 62
     7
370
    15
100
AcDbLine
 10
205.6103671807
 20
80.8784554064
 30
0.0
 11
205.6103671807
 21
79.828459984
 31
0.0
  0
LWPOLYLINE
  5
2B0
330
1F
100
AcDbEntity
  8
0
  6
Continuous
 62
     7
370
    15
100
AcDbPolyline
 90
        3
 70
   128
 43
0.0
 10
199.3316586036
 20
449.2173234283
 10
199.3342365045
 20
449.2111394464
 10
199.410366537
 20
448.8284627258
  0
LWPOLYLINE
  5
2B1
330
1F
100
AcDbEntity
  8
0
  6
Continuous
 62
     7
370
    15
100
AcDbPolyline
 90
        3
 70
   128
 43
0.0
 10
199.410366537
 20
462.3284677326
 10
199.3342365045
 20
461.9457761108
 10
199.3316586036
 20
461.9396070301
  0
LINE
  5
2B2
330
1F
100
AcDbEntity
  8
0
  6
Continuous
 62
     7
370
    15
100
AcDbLine
 10
205.6103671807
 20
461.328465706
 30
0.0
 11
205.6103671807
 21
461.1784557163
 31
0.0
  0
LINE
  5
2B3
330
1F
100
AcDbEntity
  8
0
  6
Continuous
 62
     7
370
    15
100
AcDbLine
 10
205.6103671807
 20
460.3784570753
 30
0.0
 11
205.6103671807
 21
459.4784567415
 31
0.0
  0
LINE
  5
2B4
330
1F
100
AcDbEntity
  8
0
  6
Continuous
 62
     7
370
    15
100
AcDbLine
 10
205.6103671807
 20
450.8784601747
 30
0.0
 11
205.6103671807
 21
449.8284647524
 31
0.0
  0
LINE
  5
2B5
330
1F
100
AcDbEntity
  8
0
  6
Continuous
 62
     7
370
    15
100
AcDbLine
 10
218.6103637237
 20
35.5784634411
 30
0.0
 11
57.6103606168
 21
35.5784634411
 31
0.0
  0
LINE
  5
2B6
330
1F
100
AcDbEntity
  8
0
  6
Continuous
 62
     7
370
    15
100
AcDbLine
 10
218.6103637237
 20
35.5784634411
 30
0.0
 11
218.6103637237
 21
20.578462845
 31
0.0
  0
LINE
  5
2B7
330
1F
100
AcDbEntity
  8
0
  6
Continuous
 62
     7
370
    15
100
AcDbLine
 10
218.6103637237
 20
20.578462845
 30
0.0
 11
57.6103606168
 21
20.578462845
 31
0.0
  0
LINE
  5
2B8
330
1F
100
AcDbEntity
  8
0
  6
Continuous
 62
     7
370
    15
100
AcDbLine
 10
57.6103606168
 20
35.5784634411
 30
0.0
 11
57.6103606168
 21
20.578462845
 31
0.0
  0
LINE
  5
2B9
330
1F
100
AcDbEntity
  8
0
  6
Continuous
 62
     7
370
    15
100
AcDbLine
 10
42.6103609521
 20
505.578462249
 30
0.0
 11
57.6103606168
 21
505.578462249
 31
0.0
  0
LINE
  5
2BA
330
1F
100
AcDbEntity
  8
0
  6
Continuous
 62
     7
370
    15
100
AcDbLine
 10
57.6103606168
 20
505.578462249
 30
0.0
 11
57.6103606168
 21
35.5784634411
 31
0.0
  0
LINE
  5
2BB
330
1F
100
AcDbEntity
  8
0
  6
Continuous
 62
     7
370
    15
100
AcDbLine
 10
57.6103606168
 20
35.5784634411
 30
0.0
 11
42.6103609521
 21
35.5784634411
 31
0.0
  0
LINE
  5
2BC
330
1F
100
AcDbEntity
  8
0
  6
Continuous
 62
     7
370
    15
100
AcDbLine
 10
42.6103609521
 20
505.578462249
 30
0.0
 11
42.6103609521
 21
35.5784634411
 31
0.0
  0
LINE
  5
2BD
330
1F
100
AcDbEntity
  8
0
  6
Continuous
 62
     7
370
    15
100
AcDbLine
 10
198.610367896
 20
40.5784586727
 30
0.0
 11
198.610367896
 21
72.7659205257
 31
0.0
  0
LINE
  5
2BE
330
1F
100
AcDbEntity
  8
0
  6
Continuous
 62
     7
370
    15
100
AcDbLine
 10
198.610367896
 20
76.1057028829
 30
0.0
 11
198.610367896
 21
77.5784591495
 31
0.0
  0
LINE
  5
2BF
330
1F
100
AcDbEntity
  8
0
  6
Continuous
 62
     7
370
    15
100
AcDbLine
 10
198.610367896
 20
93.5784617721
 30
0.0
 11
198.610367896
 21
95.0378665983
 31
0.0
  0
LINE
  5
2C0
330
1F
100
AcDbEntity
  8
0
  6
Continuous
 62
     7
370
    15
100
AcDbLine
 10
198.610367896
 20
98.3805844843
 30
0.0
 11
198.610367896
 21
442.7659103929
 31
0.0
  0
LINE
  5
2C1
330
1F
100
AcDbEntity
  8
0
  6
Continuous
 62
     7
370
    15
100
AcDbLine
 10
198.610367896
 20
446.1057076513
 30
0.0
 11
198.610367896
 21
447.5784639179
 31
0.0
  0
LINE
  5
2C2
330
1F
100
AcDbEntity
  8
0
  6
Continuous
 62
     7
370
    15
100
AcDbLine
 10
198.610367896
 20
463.5784665405
 30
0.0
 11
198.610367896
 21
465.0378713667
 31
0.0
  0
LINE
  5
2C3
330
1F
100
AcDbEntity
  8
0
  6
Continuous
 62
     7
370
    15
100
AcDbLine
 10
198.610367896
 20
468.3805743515
 30
0.0
 11
198.610367896
 21
500.5784670173
 31
0.0
  0
LINE
  5
2C4
330
1F
100
AcDbEntity
  8
0
  6
Continuous
 62
     7
370
    15
100
AcDbLine
 10
198.610367896
 20
500.5784670173
 30
0.0
 11
62.610360505
 21
500.5784670173
 31
0.0
  0
LINE
  5
2C5
330
1F
100
AcDbEntity
  8
0
  6
Continuous
 62
     7
370
    15
100
AcDbLine
 10
62.610360505
 20
500.5784670173
 30
0.0
 11
62.610360505
 21
40.5784586727
 31
0.0
  0
LINE
  5
2C6
330
1F
100
AcDbEntity
  8
0
  6
Continuous
 62
     7
370
    15
100
AcDbLine
 10
198.610367896
 20
40.5784586727
 30
0.0
 11
62.610360505
 21
40.5784586727
 31
0.0
  0
LINE
  5
2C7
330
1F
100
AcDbEntity
  8
0
  6
Continuous
 62
     7
370
    15
100
AcDbLine
 10
218.6103637237
 20
505.578462249
 30
0.0
 11
57.6103606168
 21
505.578462249
 31
0.0
  0
LINE
  5
2C8
330
1F
100
AcDbEntity
  8
0
  6
Continuous
 62
     7
370
    15
100
AcDbLine
 10
218.6103637237
 20
505.578462249
 30
0.0
 11
218.6103637237
 21
464.5543882906
 31
0.0
  0
LINE
  5
2C9
330
1F
100
AcDbEntity
  8
0
  6
Continuous
 62
     7
370
    15
100
AcDbLine
 10
218.6103637237
 20
446.5705493747
 30
0.0
 11
218.6103637237
 21
94.5543984234
 31
0.0
  0
LINE
  5
2CA
330
1F
100
AcDbEntity
  8
0
  6
Continuous
 62
     7
370
    15
100
AcDbLine
 10
218.6103637237
 20
76.5705595075
 30
0.0
 11
218.6103637237
 21
35.5784634411
 31
0.0
  0
LINE
  5
2CB
330
1F
100
AcDbEntity
  8
0
  6
Continuous
 62
     7
370
    15
100
AcDbLine
 10
218.6103637237
 20
520.578462845
 30
0.0
 11
57.6103606168
 21
520.578462845
 31
0.0
  0
LINE
  5
2CC
330
1F
100
AcDbEntity
  8
0
  6
Continuous
 62
     7
370
    15
100
AcDbLine
 10
218.6103637237
 20
520.578462845
 30
0.0
 11
218.6103637237
 21
505.578462249
 31
0.0
  0
LINE
  5
2CD
330
1F
100
AcDbEntity
  8
0
  6
Continuous
 62
     7
370
    15
100
AcDbLine
 10
57.6103606168
 20
520.578462845
 30
0.0
 11
57.6103606168
 21
505.578462249
 31
0.0
  0
ARC
  5
2CE
330
1F
100
AcDbEntity
  8
0
  6
Continuous
 62
     7
370
    15
100
AcDbCircle
 10
57.6103609342
 20
35.578462845
 30
0.0
 40
15.00000000000001
100
AcDbArc
 50
180.0
 51
270.0
  0
ARC
  5
2CF
330
1F
100
AcDbEntity
  8
0
  6
Continuous
 62
     7
370
    15
100
AcDbCircle
 10
57.6103609342
 20
505.578462845
 30
0.0
 40
15.00000000000017
100
AcDbArc
 50
90.0
 51
180.0
  0
LINE
  5
2D0
330
1F
100
AcDbEntity
  8
0
  6
Continuous
 62
     7
370
    15
100
AcDbLine
 10
222.6103569288
 20
515.5784676134
 30
0.0
 11
218.6103637237
 21
515.5784676134
 31
0.0
  0
LINE
  5
2D1
330
1F
100
AcDbEntity
  8
0
  6
Continuous
 62
     7
370
    15
100
AcDbLine
 10
222.6103569288
 20
500.5784670173
 30
0.0
 11
218.6103637237
 21
500.5784670173
 31
0.0
  0
LINE
  5
2D2
330
1F
100
AcDbEntity
  8
0
  6
Continuous
 62
     7
370
    15
100
AcDbLine
 10
222.6103569288
 20
40.5784586727
 30
0.0
 11
218.6103637237
 21
40.5784586727
 31
0.0
  0
LINE
  5
2D3
330
1F
100
AcDbEntity
  8
0
  6
Continuous
 62
     7
370
    15
100
AcDbLine
 10
222.6103569288
 20
25.5784580766
 30
0.0
 11
218.6103637237
 21
25.5784580766
 31
0.0
  0
LINE
  5
2D4
330
1F
100
AcDbEntity
  8
0
  6
Continuous
 62
     7
370
    15
100
AcDbLine
 10
309.7194366829
 20
558.0672921779
 30
0.0
 11
310.9194271938
 21
558.0672921779
 31
0.0
  0
LINE
  5
2D5
330
1F
100
AcDbEntity
  8
0
  6
Continuous
 62
     7
370
    15
100
AcDbLine
 10
309.6194200889
 20
560.5673046949
 30
0.0
 11
309.7194366829
 21
560.5673046949
 31
0.0
  0
LINE
  5
2D6
330
1F
100
AcDbEntity
  8
0
  6
Continuous
 62
     7
370
    15
100
AcDbLine
 10
309.7194366829
 20
566.5673019531
 30
0.0
 11
309.6194200889
 21
566.5673019531
 31
0.0
  0
SPLINE
  5
2D7
330
1F
100
AcDbEntity
  8
0
  6
Continuous
 62
     7
370
    15
100
AcDbSpline
210
0.0
220
0.0
230
1.0
 70
     8
 71
     3
 72
    15
 73
    11
 74
     0
 42
0.00000001
 43
0.00000001
 40
0.0
 40
0.0
 40
0.0
 40
0.0
 40
0.1250748673882798
 40
0.2501519055570974
 40
0.3752910592495298
 40
0.500304946123803
 40
0.6252883548907603
 40
0.7502627243887875
 40
0.8750788126704855
 40
1.0
 40
1.0
 40
1.0
 40
1.0
 10
308.5338704959483
 20
588.6251332404458
 30
0.0
 10
308.5077373809472
 20
588.8838943903365
 30
0.0
 10
308.4554706973829
 20
589.4014211811374
 30
0.0
 10
308.3766363695668
 20
590.1825368182195
 30
0.0
 10
308.302190426117
 20
590.919713522811
 30
0.0
 10
308.2352151250894
 20
591.5832884205076
 30
0.0
 10
308.1790651861988
 20
592.1390438157661
 30
0.0
 10
308.1365879036931
 20
592.5601555854658
 30
0.0
 10
308.1077258587075
 20
592.8457459478768
 30
0.0
 10
308.1033761494266
 20
592.888789124288
 30
0.0
 10
308.1012003795237
 20
592.9103197696054
 30
0.0
  0
SPLINE
  5
2D8
330
1F
100
AcDbEntity
  8
0
  6
Continuous
 62
     7
370
    15
100
AcDbSpline
210
0.0
220
0.0
230
1.0
 70
     8
 71
     3
 72
    15
 73
    11
 74
     0
 42
0.00000001
 43
0.00000001
 40
0.0
 40
0.0
 40
0.0
 40
0.0
 40
0.1249401891380301
 40
0.2497680126741208
 40
0.3747500256040471
 40
0.499735923267933
 40
0.6247476940874572
 40
0.7498806685567656
 40
0.8749438504358719
 40
1.0
 40
1.0
 40
1.0
 40
1.0
 10
305.1169746295542
 20
592.6089437844598
 30
0.0
 10
305.1191514113116
 20
592.5873629284492
 30
0.0
 10
305.1235030171265
 20
592.544220625282
 30
0.0
 10
305.1523478132522
 20
592.2585099779164
 30
0.0
 10
305.1948900873705
 20
591.8373244918375
 30
0.0
 10
305.2509740462586
 20
591.2815574637402
 30
0.0
 10
305.3179685467127
 20
590.6180222366016
 30
0.0
 10
305.3924027779561
 20
589.8809759010486
 30
0.0
 10
305.4712596225676
 20
589.100064638881
 30
0.0
 10
305.5234771244583
 20
588.5827102825849
 30
0.0
 10
305.549585141334
 20
588.324040377363
 30
0.0
  0
LINE
  5
2D9
330
1F
100
AcDbEntity
  8
0
  6
Continuous
 62
     7
370
    15
100
AcDbLine
 10
305.5493169204
 20
588.3239062669
 30
0.0
 11
307.1183793918
 21
572.7829339149
 31
0.0
  0
LINE
  5
2DA
330
1F
100
AcDbEntity
  8
0
  6
Continuous
 62
     7
370
    15
100
AcDbLine
 10
310.1032309906
 20
573.0842949989
 30
0.0
 11
308.5341387168
 21
588.6252673509
 31
0.0
  0
SPLINE
  5
2DB
330
1F
100
AcDbEntity
  8
0
  6
Continuous
 62
     7
370
    15
100
AcDbSpline
210
0.0
220
0.0
230
1.0
 70
     8
 71
     3
 72
     9
 73
     5
 74
     0
 42
0.00000001
 43
0.00000001
 40
0.0
 40
0.0
 40
0.0
 40
0.0
 40
0.4837469607972931
 40
1.0
 40
1.0
 40
1.0
 40
1.0
 10
307.2884612456889
 20
571.1015613915765
 30
0.0
 10
307.2979278459653
 20
571.0373294268743
 30
0.0
 10
307.3174971684491
 20
570.9045493374726
 30
0.0
 10
307.3513379173679
 20
570.8684058525173
 30
0.0
 10
307.3688083068461
 20
570.8497466685617
 30
0.0
  0
SPLINE
  5
2DC
330
1F
100
AcDbEntity
  8
0
  6
Continuous
 62
     7
370
    15
100
AcDbSpline
210
0.0
220
0.0
230
1.0
 70
     8
 71
     3
 72
    11
 73
     7
 74
     0
 42
0.00000001
 43
0.00000001
 40
0.0
 40
0.0
 40
0.0
 40
0.0
 40
0.2484447156712717
 40
0.4978878237666461
 40
0.7483875926685355
 40
1.0
 40
1.0
 40
1.0
 40
1.0
 10
307.1186774150462
 20
572.7830978276575
 30
0.0
 10
307.1366916642809
 20
572.6046203096922
 30
0.0
 10
307.1727925542677
 20
572.246948049403
 30
0.0
 10
307.2197931795909
 20
571.7821187733227
 30
0.0
 10
307.2585964085377
 20
571.3992328995563
 30
0.0
 10
307.2736274847808
 20
571.251945398066
 30
0.0
 10
307.2811596767039
 20
571.1781384589517
 30
0.0
  0
SPLINE
  5
2DD
330
1F
100
AcDbEntity
  8
0
  6
Continuous
 62
     7
370
    15
100
AcDbSpline
210
0.0
220
0.0
230
1.0
 70
     8
 71
     3
 72
    19
 73
    15
 74
     0
 42
0.00000001
 43
0.00000001
 40
0.0
 40
0.0
 40
0.0
 40
0.0
 40
0.0802800643913771
 40
0.1534411229989268
 40
0.219341825464344
 40
0.2779525079209502
 40
0.3728468181892265
 40
0.4421527681476329
 40
0.5315392819799751
 40
0.6554829298932067
 40
0.73035581932144
 40
0.8130797229988811
 40
0.9031426952492884
 40
1.0
 40
1.0
 40
1.0
 40
1.0
 10
307.3041074649424
 20
571.0189195515954
 30
0.0
 10
307.3394677586892
 20
570.8960453378638
 30
0.0
 10
307.4070526967835
 20
570.6611930431437
 30
0.0
 10
307.6042827627458
 20
570.3667834187489
 30
0.0
 10
307.8291271920629
 20
570.1426385144731
 30
0.0
 10
308.1248140104454
 20
569.9496184693609
 30
0.0
 10
308.4667552156185
 20
569.8317090450153
 30
0.0
 10
308.8765076514223
 20
569.8019072171418
 30
0.0
 10
309.3155933159576
 20
569.904209698117
 30
0.0
 10
309.7021268879338
 20
570.1554490727024
 30
0.0
 10
309.9949696151032
 20
570.4961581393957
 30
0.0
 10
310.1757286981244
 20
570.8516325214052
 30
0.0
 10
310.2816563729965
 20
571.2785697878373
 30
0.0
 10
310.2493847868756
 20
571.5736354941439
 30
0.0
 10
310.2326624766916
 20
571.7265309932077
 30
0.0
  0
SPLINE
  5
2DE
330
1F
100
AcDbEntity
  8
0
  6
Continuous
 62
     7
370
    15
100
AcDbSpline
210
0.0
220
0.0
230
1.0
 70
     8
 71
     3
 72
    11
 73
     7
 74
     0
 42
0.00000001
 43
0.00000001
 40
0.0
 40
0.0
 40
0.0
 40
0.0
 40
0.2477428091515151
 40
0.4969458216750655
 40
0.7476781578913081
 40
1.0
 40
1.0
 40
1.0
 40
1.0
 10
310.2564447299571
 20
571.5588482262933
 30
0.0
 10
310.2500005556169
 20
571.6234735354898
 30
0.0
 10
310.2370742247841
 20
571.7531050573475
 30
0.0
 10
310.2011526283436
 20
572.1109845708245
 30
0.0
 10
310.1561368801888
 20
572.5573135884963
 30
0.0
 10
310.1207049232048
 20
572.9081755809284
 30
0.0
 10
310.1029329673381
 20
573.084160888418
 30
0.0
  0
LINE
  5
2DF
330
1F
100
AcDbEntity
  8
0
  6
Continuous
 62
     7
370
    15
100
AcDbLine
 10
310.3867404834
 20
582.7389659526
 30
0.0
 11
310.3867404834
 21
583.038792217
 31
0.0
  0
LINE
  5
2E0
330
1F
100
AcDbEntity
  8
0
  6
Continuous
 62
     7
370
    15
100
AcDbLine
 10
309.5867269413
 20
583.038792217
 30
0.0
 11
309.5867269413
 21
582.7414097431
 31
0.0
  0
SPLINE
  5
2E1
330
1F
100
AcDbEntity
  8
0
  6
Continuous
 62
     7
370
    15
100
AcDbSpline
210
0.0
220
0.0
230
1.0
 70
    24
 71
     3
 72
    11
 73
     7
 74
     0
 42
0.00000001
 43
0.00000001
 40
0.0
 40
0.0
 40
0.0
 40
0.0
 40
0.0207852832108836
 40
0.34656035810907
 40
0.6711462475793438
 40
1.0
 40
1.0
 40
1.0
 40
1.0
 10
309.5867269412607
 20
583.3251031281793
 30
0.0
 10
309.5867269412607
 20
583.3217814234979
 30
0.0
 10
309.5867269412605
 20
583.2663974697541
 30
0.0
 10
309.5867269412607
 20
583.1731603184418
 30
0.0
 10
309.5867269412608
 20
583.0604450219935
 30
0.0
 10
309.5867269412608
 20
583.0259286611191
 30
0.0
 10
309.5867269412608
 20
583.0085577609384
 30
0.0
  0
SPLINE
  5
2E2
330
1F
100
AcDbEntity
  8
0
  6
Continuous
 62
     7
370
    15
100
AcDbSpline
210
0.0
220
0.0
230
1.0
 70
    24
 71
     3
 72
    11
 73
     7
 74
     0
 42
0.00000001
 43
0.00000001
 40
0.0
 40
0.0
 40
0.0
 40
0.0
 40
0.2504884286733861
 40
0.497727503351466
 40
0.7458863506510961
 40
1.0
 40
1.0
 40
1.0
 40
1.0
 10
310.3867404834361
 20
583.0060990693414
 30
0.0
 10
310.3867404834361
 20
583.0223162936057
 30
0.0
 10
310.3867404834361
 20
583.0545403711296
 30
0.0
 10
310.3867404834361
 20
583.1633174912331
 30
0.0
 10
310.3867404834361
 20
583.3021538555055
 30
0.0
 10
310.3867404834361
 20
583.4091791972849
 30
0.0
 10
310.3867404834361
 20
583.4633262994134
 30
0.0
  0
LINE
  5
2E3
330
1F
100
AcDbEntity
  8
0
  6
Continuous
 62
     7
370
    15
100
AcDbLine
 10
309.3799882309
 20
583.5672917011
 30
0.0
 11
309.5889025108
 21
583.3200665357
 31
0.0
  0
LINE
  5
2E4
330
1F
100
AcDbEntity
  8
0
  6
Continuous
 62
     7
370
    15
100
AcDbLine
 10
310.3867404834
 20
583.4633262994
 30
0.0
 11
310.3867404834
 21
583.5672917011
 31
0.0
  0
LINE
  5
2E5
330
1F
100
AcDbEntity
  8
0
  6
Continuous
 62
     7
370
    15
100
AcDbLine
 10
305.110358514
 20
592.7053244951
 30
0.0
 11
305.0947420971
 21
593.1645484807
 31
0.0
  0
SPLINE
  5
2E6
330
1F
100
AcDbEntity
  8
0
  6
Continuous
 62
     7
370
    15
100
AcDbSpline
210
0.0
220
0.0
230
1.0
 70
     8
 71
     3
 72
    11
 73
     7
 74
     0
 42
0.00000001
 43
0.00000001
 40
0.0
 40
0.0
 40
0.0
 40
0.0
 40
0.1207538811881233
 40
0.4133926476258615
 40
0.7063563973291807
 40
1.0
 40
1.0
 40
1.0
 40
1.0
 10
307.1430259124369
 20
572.5418778302515
 30
0.0
 10
307.1529496826423
 20
572.4435826044842
 30
0.0
 10
307.1869230307387
 20
572.1070756265788
 30
0.0
 10
307.2342543426332
 20
571.6381578904651
 30
0.0
 10
307.2771537718145
 20
571.2134155567136
 30
0.0
 10
307.2846891766596
 20
571.1388749097686
 30
0.0
 10
307.2884612456889
 20
571.1015613915765
 30
0.0
  0
LINE
  5
2E7
330
1F
100
AcDbEntity
  8
0
  6
Continuous
 62
     7
370
    15
100
AcDbLine
 10
305.4711752311
 20
623.5672982576
 30
0.0
 11
304.7194414512
 21
623.2936831357
 31
0.0
  0
LINE
  5
2E8
330
1F
100
AcDbEntity
  8
0
  6
Continuous
 62
     7
370
    15
100
AcDbLine
 10
310.9194271938
 20
622.567296231
 30
0.0
 11
310.6194370166
 21
622.567296231
 31
0.0
  0
LINE
  5
2E9
330
1F
100
AcDbEntity
  8
0
  6
Continuous
 62
     7
370
    15
100
AcDbLine
 10
310.6194370166
 20
621.567301655
 30
0.0
 11
310.5194204227
 21
621.567301655
 31
0.0
  0
LINE
  5
2EA
330
1F
100
AcDbEntity
  8
0
  6
Continuous
 62
     7
370
    15
100
AcDbLine
 10
310.5194204227
 20
615.5672969463
 30
0.0
 11
310.6194370166
 21
615.5672969463
 31
0.0
  0
LINE
  5
2EB
330
1F
100
AcDbEntity
  8
0
  6
Continuous
 62
     7
370
    15
100
AcDbLine
 10
310.6194370166
 20
598.5672922971
 30
0.0
 11
310.5194204227
 21
598.5672922971
 31
0.0
  0
LINE
  5
2EC
330
1F
100
AcDbEntity
  8
0
  6
Continuous
 62
     7
370
    15
100
AcDbLine
 10
310.5194204227
 20
592.5672950389
 30
0.0
 11
310.6194370166
 21
592.5672950389
 31
0.0
  0
LINE
  5
2ED
330
1F
100
AcDbEntity
  8
0
  6
Continuous
 62
     7
370
    15
100
AcDbLine
 10
310.9194271938
 20
566.5673019531
 30
0.0
 11
310.9194271938
 21
561.5672918203
 31
0.0
  0
LINE
  5
2EE
330
1F
100
AcDbEntity
  8
0
  6
Continuous
 62
     7
370
    15
100
AcDbLine
 10
310.9194271938
 20
566.5673019531
 30
0.0
 11
325.9194277898
 21
566.5673019531
 31
0.0
  0
LINE
  5
2EF
330
1F
100
AcDbEntity
  8
0
  6
Continuous
 62
     7
370
    15
100
AcDbLine
 10
325.9194277898
 20
566.5673019531
 30
0.0
 11
325.9194277898
 21
561.5672918203
 31
0.0
  0
LINE
  5
2F0
330
1F
100
AcDbEntity
  8
0
  6
Continuous
 62
     7
370
    15
100
AcDbLine
 10
310.9194271938
 20
561.5672918203
 30
0.0
 11
325.9194277898
 21
561.5672918203
 31
0.0
  0
ARC
  5
2F1
330
1F
100
AcDbEntity
  8
0
  6
Continuous
 62
     7
370
    15
100
AcDbCircle
 10
325.9194271938
 20
561.5672979476
 30
0.0
 40
15.00000000000006
100
AcDbArc
 50
180.0
 51
270.0
  0
LINE
  5
2F2
330
1F
100
AcDbEntity
  8
0
  6
Continuous
 62
     7
370
    15
100
AcDbLine
 10
325.9194277898
 20
546.5672912242
 30
0.0
 11
325.9194277898
 21
561.5672918203
 31
0.0
  0
LINE
  5
2F3
330
1F
100
AcDbEntity
  8
0
  6
Continuous
 62
     7
370
    15
100
AcDbLine
 10
325.9194277898
 20
561.5672918203
 30
0.0
 11
795.9194265977
 21
561.5672918203
 31
0.0
  0
LINE
  5
2F4
330
1F
100
AcDbEntity
  8
0
  6
Continuous
 62
     7
370
    15
100
AcDbLine
 10
795.9194265977
 20
561.5672918203
 30
0.0
 11
795.9194265977
 21
546.5672912242
 31
0.0
  0
LINE
  5
2F5
330
1F
100
AcDbEntity
  8
0
  6
Continuous
 62
     7
370
    15
100
AcDbLine
 10
325.9194277898
 20
546.5672912242
 30
0.0
 11
795.9194265977
 21
546.5672912242
 31
0.0
  0
LINE
  5
2F6
330
1F
100
AcDbEntity
  8
0
  6
Continuous
 62
     7
370
    15
100
AcDbLine
 10
795.9194265977
 20
566.5673019531
 30
0.0
 11
795.9194265977
 21
561.5672918203
 31
0.0
  0
LINE
  5
2F7
330
1F
100
AcDbEntity
  8
0
  6
Continuous
 62
     7
370
    15
100
AcDbLine
 10
325.9194277898
 20
566.5673019531
 30
0.0
 11
795.9194265977
 21
566.5673019531
 31
0.0
  0
LINE
  5
2F8
330
1F
100
AcDbEntity
  8
0
  6
Continuous
 62
     7
370
    15
100
AcDbLine
 10
810.9194271938
 20
561.5672918203
 30
0.0
 11
795.9194265977
 21
561.5672918203
 31
0.0
  0
ARC
  5
2F9
330
1F
100
AcDbEntity
  8
0
  6
Continuous
 62
     7
370
    15
100
AcDbCircle
 10
795.9194271938
 20
561.5672979476
 30
0.0
 40
14.99999999999989
100
AcDbArc
 50
270.0
 51
0.0
  0
LINE
  5
2FA
330
1F
100
AcDbEntity
  8
0
  6
Continuous
 62
     7
370
    15
100
AcDbLine
 10
810.9194271938
 20
566.5673019531
 30
0.0
 11
810.9194271938
 21
561.5672918203
 31
0.0
  0
LINE
  5
2FB
330
1F
100
AcDbEntity
  8
0
  6
Continuous
 62
     7
370
    15
100
AcDbLine
 10
810.9194271938
 20
566.5673019531
 30
0.0
 11
795.9194265977
 21
566.5673019531
 31
0.0
  0
LINE
  5
2FC
330
1F
100
AcDbEntity
  8
0
  6
Continuous
 62
     7
370
    15
100
AcDbLine
 10
309.7194366829
 20
562.4810906293
 30
0.0
 11
309.7194366829
 21
564.5850600841
 31
0.0
  0
LINE
  5
2FD
330
1F
100
AcDbEntity
  8
0
  6
Continuous
 62
     7
370
    15
100
AcDbLine
 10
309.7194366829
 20
564.5850600841
 30
0.0
 11
310.9194271938
 21
564.5850600841
 31
0.0
  0
LINE
  5
2FE
330
1F
100
AcDbEntity
  8
0
  6
Continuous
 62
     7
370
    15
100
AcDbLine
 10
309.7194366829
 20
562.4810906293
 30
0.0
 11
310.9194271938
 21
562.4810906293
 31
0.0
  0
LINE
  5
2FF
330
1F
100
AcDbEntity
  8
0
  6
Continuous
 62
     7
370
    15
100
AcDbLine
 10
309.7194366829
 20
569.5672931316
 30
0.0
 11
310.9194271938
 21
569.5672931316
 31
0.0
  0
LINE
  5
300
330
1F
100
AcDbEntity
  8
0
  6
Continuous
 62
     7
370
    15
100
AcDbLine
 10
310.9194271938
 20
566.5673019531
 30
0.0
 11
310.9194271938
 21
569.5672931316
 31
0.0
  0
LINE
  5
301
330
1F
100
AcDbEntity
  8
0
  6
Continuous
 62
     7
370
    15
100
AcDbLine
 10
309.7194366829
 20
569.5672931316
 30
0.0
 11
309.7194366829
 21
564.5850600841
 31
0.0
  0
LINE
  5
302
330
1F
100
AcDbEntity
  8
0
  6
Continuous
 62
     7
370
    15
100
AcDbLine
 10
310.9194271938
 20
561.5672918203
 30
0.0
 11
310.9194271938
 21
558.0672921779
 31
0.0
  0
LINE
  5
303
330
1F
100
AcDbEntity
  8
0
  6
Continuous
 62
     7
370
    15
100
AcDbLine
 10
309.7194366829
 20
558.0672921779
 30
0.0
 11
309.7194366829
 21
562.4810906293
 31
0.0
  0
LINE
  5
304
330
1F
100
AcDbEntity
  8
0
  6
Continuous
 62
     7
370
    15
100
AcDbLine
 10
309.6194200889
 20
560.5673046949
 30
0.0
 11
309.6194200889
 21
566.5673019531
 31
0.0
  0
LINE
  5
305
330
1F
100
AcDbEntity
  8
0
  6
Continuous
 62
     7
370
    15
100
AcDbLine
 10
302.8714590446
 20
570.7697125318
 30
0.0
 11
303.601973571
 21
569.8176773431
 31
0.0
  0
ARC
  5
306
330
1F
100
AcDbEntity
  8
0
  6
Continuous
 62
     7
370
    15
100
AcDbCircle
 10
308.1194271938
 20
571.2672979476
 30
0.0
 40
2.800000000000068
100
AcDbArc
 50
0.0
 51
45.7322600129
  0
LINE
  5
307
330
1F
100
AcDbEntity
  8
0
  6
Continuous
 62
     7
370
    15
100
AcDbLine
 10
307.0117764846
 20
573.8388898017
 30
0.0
 11
306.4148955719
 21
573.4886827113
 31
0.0
  0
LINE
  5
308
330
1F
100
AcDbEntity
  8
0
  6
Continuous
 62
     7
370
    15
100
AcDbLine
 10
306.4148955719
 20
573.4886827113
 30
0.0
 11
302.8714590446
 21
570.7697125318
 31
0.0
  0
LINE
  5
309
330
1F
100
AcDbEntity
  8
0
  6
Continuous
 62
     7
370
    15
100
AcDbLine
 10
303.601973571
 20
569.8176773431
 30
0.0
 11
307.1454100982
 21
572.5366624238
 31
0.0
  0
LINE
  5
30A
330
1F
100
AcDbEntity
  8
0
  6
Continuous
 62
     7
370
    15
100
AcDbLine
 10
310.9194271938
 20
569.5672931316
 30
0.0
 11
310.9194271938
 21
570.5672951581
 31
0.0
  0
LINE
  5
30B
330
1F
100
AcDbEntity
  8
0
  6
Continuous
 62
     7
370
    15
100
AcDbLine
 10
309.7194366829
 20
570.208236778
 30
0.0
 11
309.7194366829
 21
569.5672931316
 31
0.0
  0
LINE
  5
30C
330
1F
100
AcDbEntity
  8
0
  6
Continuous
 62
     7
370
    15
100
AcDbLine
 10
302.6499383823
 20
569.0871628167
 30
0.0
 11
301.9194238559
 21
570.0391980054
 31
0.0
  0
LWPOLYLINE
  5
30D
330
1F
100
AcDbEntity
  8
0
  6
Continuous
 62
     7
370
    15
100
AcDbPolyline
 90
        9
 70
   128
 43
0.0
 10
301.9194238559
 20
570.0391980054
 10
301.9377224819
 20
570.0532348993
 10
301.991903104
 20
570.0947942378
 10
302.0798795597
 20
570.1623113992
 10
302.1982543842
 20
570.2531488778
 10
302.3425274269
 20
570.3638496044
 10
302.5071256534
 20
570.4901518466
 10
302.6857309715
 20
570.6271978261
 10
302.8714590446
 20
570.7697125318
  0
LWPOLYLINE
  5
30E
330
1F
100
AcDbEntity
  8
0
  6
Continuous
 62
     7
370
    15
100
AcDbPolyline
 90
        9
 70
   128
 43
0.0
 10
303.601973571
 20
569.8176773431
 10
303.4162454979
 20
569.6751626375
 10
303.2376401798
 20
569.5381315591
 10
303.0730419532
 20
569.4118293168
 10
302.9287689106
 20
569.3011285903
 10
302.810394086
 20
569.2102762105
 10
302.7224176303
 20
569.1427739503
 10
302.6682370082
 20
569.1011997106
 10
302.6499383823
 20
569.0871628167
  0
SPLINE
  5
30F
330
1F
100
AcDbEntity
  8
0
  6
Continuous
 62
     7
370
    15
100
AcDbSpline
210
0.0
220
0.0
230
1.0
 70
     8
 71
     3
 72
    12
 73
     8
 74
     0
 42
0.00000001
 43
0.00000001
 40
0.0
 40
0.0
 40
0.0
 40
0.0
 40
0.234046632303745
 40
0.4681100834887106
 40
0.7021601909409557
 40
0.9362164682326188
 40
1.0
 40
1.0
 40
1.0
 40
1.0
 10
307.2163992301554
 20
588.244408571943
 30
0.0
 10
307.0200126596933
 20
588.2250299493426
 30
0.0
 10
306.6272254061865
 20
588.1862713115697
 30
0.0
 10
306.089714843442
 20
588.1810153373019
 30
0.0
 10
305.716266625607
 20
588.2194995416456
 30
0.0
 10
305.5370038328238
 20
588.2741601853932
 30
0.0
 10
305.5657508066495
 20
588.3181143063382
 30
0.0
 10
305.5719070808024
 20
588.3275272490823
 30
0.0
  0
SPLINE
  5
310
330
1F
100
AcDbEntity
  8
0
  6
Continuous
 62
     7
370
    15
100
AcDbSpline
210
0.0
220
0.0
230
1.0
 70
     8
 71
     3
 72
    11
 73
     7
 74
     0
 42
0.00000001
 43
0.00000001
 40
0.0
 40
0.0
 40
0.0
 40
0.0
 40
0.1986858933163891
 40
0.4657907755952836
 40
0.7328920409508484
 40
1.0
 40
1.0
 40
1.0
 40
1.0
 10
308.512323416862
 20
588.623300397619
 30
0.0
 10
308.511140584264
 20
588.5988067698758
 30
0.0
 10
308.5083676017234
 20
588.5413849485615
 30
0.0
 10
308.2388288191697
 20
588.4343117941636
 30
0.0
 10
307.7917779205245
 20
588.3234870654221
 30
0.0
 10
307.4081937290609
 20
588.27076828996
 30
0.0
 10
307.2163992301554
 20
588.244408571943
 30
0.0
  0
SPLINE
  5
311
330
1F
100
AcDbEntity
  8
0
  6
Continuous
 62
     7
370
    15
100
AcDbSpline
210
0.0
220
0.0
230
1.0
 70
     8
 71
     3
 72
    12
 73
     8
 74
     0
 42
0.00000001
 43
0.00000001
 40
0.0
 40
0.0
 40
0.0
 40
0.0
 40
0.2339746063686035
 40
0.4679314347940849
 40
0.7019014784153117
 40
0.9358644000539801
 40
1.0
 40
1.0
 40
1.0
 40
1.0
 10
306.6094451324076
 20
594.2562820556009
 30
0.0
 10
306.4133533456592
 20
594.2337818727394
 30
0.0
 10
306.0211846716795
 20
594.1887832166335
 30
0.0
 10
305.5182602353044
 20
593.8412714768181
 30
0.0
 10
305.1984190242018
 20
593.3477959869876
 30
0.0
 10
305.0705368618844
 20
592.8942062490415
 30
0.0
 10
305.128299505309
 20
592.6512104979143
 30
0.0
 10
305.1407270804972
 20
592.5989302041376
 30
0.0
  0
SPLINE
  5
312
330
1F
100
AcDbEntity
  8
0
  6
Continuous
 62
     7
370
    15
100
AcDbSpline
210
0.0
220
0.0
230
1.0
 70
     8
 71
     3
 72
    11
 73
     7
 74
     0
 42
0.00000001
 43
0.00000001
 40
0.0
 40
0.0
 40
0.0
 40
0.0
 40
0.1976869012946596
 40
0.465132349840553
 40
0.7325626924186095
 40
1.0
 40
1.0
 40
1.0
 40
1.0
 10
308.0796533004374
 20
592.9059984328592
 30
0.0
 10
308.0613731644796
 20
593.0507472355254
 30
0.0
 10
308.0183623097504
 20
593.3913229149446
 30
0.0
 10
307.6928911722857
 20
593.8410840191245
 30
0.0
 10
307.1996115116644
 20
594.1888240361703
 30
0.0
 10
306.8061689666189
 20
594.2337958539175
 30
0.0
 10
306.6094451324076
 20
594.2562820556009
 30
0.0
  0
SPLINE
  5
313
330
1F
100
AcDbEntity
  8
0
  6
Continuous
 62
     7
370
    15
100
AcDbSpline
210
0.0
220
0.0
230
1.0
 70
     8
 71
     3
 72
    12
 73
     8
 74
     0
 42
0.00000001
 43
0.00000001
 40
0.0
 40
0.0
 40
0.0
 40
0.0
 40
0.2350197708745228
 40
0.4700328824845291
 40
0.7050509323460378
 40
0.9400637739983508
 40
1.0
 40
1.0
 40
1.0
 40
1.0
 10
308.7854915038676
 20
572.7034511210763
 30
0.0
 10
308.5891003869427
 20
572.6840668616425
 30
0.0
 10
308.196323717818
 20
572.6452988920257
 30
0.0
 10
307.6587218764935
 20
572.6400356284981
 30
0.0
 10
307.2856348986317
 20
572.6785592626004
 30
0.0
 10
307.1066610632603
 20
572.7326807837934
 30
0.0
 10
307.1345064614362
 20
572.7759823936465
 30
0.0
 10
307.1401648894877
 20
572.7847816588724
 30
0.0
  0
SPLINE
  5
314
330
1F
100
AcDbEntity
  8
0
  6
Continuous
 62
     7
370
    15
100
AcDbSpline
210
0.0
220
0.0
230
1.0
 70
     8
 71
     3
 72
    11
 73
     7
 74
     0
 42
0.00000001
 43
0.00000001
 40
0.0
 40
0.0
 40
0.0
 40
0.0
 40
0.1989213229822123
 40
0.4659441612640579
 40
0.7329798252306359
 40
1.0
 40
1.0
 40
1.0
 40
1.0
 10
310.0814454928965
 20
573.0824472548807
 30
0.0
 10
310.080263378968
 20
573.0579149291824
 30
0.0
 10
310.0774944496513
 20
573.0004515373754
 30
0.0
 10
309.8079384007695
 20
572.8933370921932
 30
0.0
 10
309.3608436412257
 20
572.7825156075804
 30
0.0
 10
308.9772718414151
 20
572.7298054403275
 30
0.0
 10
308.7854915038676
 20
572.7034511210763
 30
0.0
  0
ARC
  5
315
330
1F
100
AcDbEntity
  8
0
  6
Continuous
 62
     7
370
    15
100
AcDbCircle
 10
309.9867267743
 20
583.0050709038
 30
0.0
 40
0.4000150304833829
100
AcDbArc
 50
0.1472684924
 51
179.5005569488
  0
ELLIPSE
  5
316
330
1F
100
AcDbEntity
  8
0
  6
Continuous
 62
     7
370
    15
100
AcDbEllipse
 10
309.9867265941
 20
582.7401895539
 30
0.0
 11
0.3991830274373456
 21
-0.02624604221148275
 31
0.0
210
0.0
220
0.0
230
1.0
 40
0.9763157485
 41
0.0
 42
6.283185307179586
  0
SPLINE
  5
317
330
1F
100
AcDbEntity
  8
0
  6
Continuous
 62
     7
370
    15
100
AcDbSpline
210
0.0
220
0.0
230
1.0
 70
     8
 71
     3
 72
    13
 73
     9
 74
     0
 42
0.00000001
 43
0.00000001
 40
0.0
 40
0.0
 40
0.0
 40
0.0
 40
0.0081673654816838
 40
0.2391725271136144
 40
0.4710985846663859
 40
0.6931353783099381
 40
0.9042367902053071
 40
1.0
 40
1.0
 40
1.0
 40
1.0
 10
309.9867337123484
 20
583.4690185429895
 30
0.0
 10
309.9850748012079
 20
583.4686262751763
 30
0.0
 10
309.9364953699791
 20
583.4571391335297
 30
0.0
 10
309.8403786315575
 20
583.433857013973
 30
0.0
 10
309.7175489920119
 20
583.3902295669029
 30
0.0
 10
309.631885088534
 20
583.3527801434924
 30
0.0
 10
309.5878569439394
 20
583.3316498230968
 30
0.0
 10
309.591106936714
 20
583.3266602299736
 30
0.0
 10
309.592121161613
 20
583.3251031281793
 30
0.0
  0
SPLINE
  5
318
330
1F
100
AcDbEntity
  8
0
  6
Continuous
 62
     7
370
    15
100
AcDbSpline
210
0.0
220
0.0
230
1.0
 70
     8
 71
     3
 72
    13
 73
     9
 74
     0
 42
0.00000001
 43
0.00000001
 40
0.0
 40
0.0
 40
0.0
 40
0.0
 40
0.1252376347852963
 40
0.2499791874376688
 40
0.4999836731601437
 40
0.7499971665195992
 40
0.8747794499490972
 40
1.0
 40
1.0
 40
1.0
 40
1.0
 10
310.3867404834361
 20
583.4633262994134
 30
0.0
 10
310.3850185367526
 20
583.4633561410587
 30
0.0
 10
310.3815814642343
 20
583.4634157061425
 30
0.0
 10
310.347238457391
 20
583.4638901329644
 30
0.0
 10
310.2719326622923
 20
583.4649623858708
 30
0.0
 10
310.163294956079
 20
583.4664968794709
 30
0.0
 10
310.0645798749059
 20
583.4679297747175
 30
0.0
 10
310.0127127417017
 20
583.4686551963329
 30
0.0
 10
309.9867337123484
 20
583.4690185429895
 30
0.0
  0
SPLINE
  5
319
330
1F
100
AcDbEntity
  8
0
  6
Continuous
 62
     7
370
    15
100
AcDbSpline
210
0.0
220
0.0
230
1.0
 70
     8
 71
     3
 72
    10
 73
     6
 74
     0
 42
0.00000001
 43
0.00000001
 40
0.0
 40
0.0
 40
0.0
 40
0.0
 40
0.018973590868354
 40
0.5252901025967246
 40
1.0
 40
1.0
 40
1.0
 40
1.0
 10
309.9867337123484
 20
583.4690185429895
 30
0.0
 10
309.9882530564055
 20
583.4697588064125
 30
0.0
 10
310.030316596259
 20
583.4902532427127
 30
0.0
 10
310.1129077172587
 20
583.5285139577106
 30
0.0
 10
310.1830467870947
 20
583.5546464311157
 30
0.0
 10
310.2169864551158
 20
583.5672917010629
 30
0.0
  0
LINE
  5
31A
330
1F
100
AcDbEntity
  8
0
  6
Continuous
 62
     7
370
    15
100
AcDbLine
 10
305.1102095024
 20
592.7082600238
 30
0.0
 11
305.1226668731
 21
592.5574900749
 31
0.0
  0
LINE
  5
31B
330
1F
100
AcDbEntity
  8
0
  6
Continuous
 62
     7
370
    15
100
AcDbLine
 10
308.1024222747
 20
592.9009916427
 30
0.0
 11
308.0668383018
 21
593.1111576202
 31
0.0
  0
ARC
  5
31C
330
1F
100
AcDbEntity
  8
0
  6
Continuous
 62
     7
370
    15
100
AcDbCircle
 10
306.0194271938
 20
586.5872979476
 30
0.0
 40
2.200000000000049
100
AcDbArc
 50
103.5934783353
 51
268.1042765976
  0
LINE
  5
31D
330
1F
100
AcDbEntity
  8
0
  6
Continuous
 62
     7
370
    15
100
AcDbLine
 10
302.4726145641
 20
587.9650714042
 30
0.0
 11
302.8062515632
 21
589.8572953584
 31
0.0
  0
LWPOLYLINE
  5
31E
330
1F
100
AcDbEntity
  8
0
  6
Continuous
 62
     7
370
    15
100
AcDbPolyline
 90
        9
 70
   128
 43
0.0
 10
302.8062515632
 20
589.8572953584
 10
302.6620083229
 20
589.8827316406
 10
302.5249772445
 20
589.906901324
 10
302.3998670951
 20
589.9289550426
 10
302.2910290138
 20
589.9481477382
 10
302.2021882907
 20
589.9638088586
 10
302.1364443676
 20
589.975401962
 10
302.096092023
 20
589.9825247171
 10
302.0824723617
 20
589.984923804
  0
LINE
  5
31F
330
1F
100
AcDbEntity
  8
0
  6
Continuous
 62
     7
370
    15
100
AcDbLine
 10
302.0824723617
 20
589.984923804
 30
0.0
 11
306.4575128929
 21
614.7970261218
 31
0.0
  0
LWPOLYLINE
  5
320
330
1F
100
AcDbEntity
  8
0
  6
Continuous
 62
     7
370
    15
100
AcDbPolyline
 90
        9
 70
   128
 43
0.0
 10
306.4575128929
 20
614.7970261218
 10
306.4726524726
 20
614.794358814
 10
306.5174751655
 20
614.7864611986
 10
306.5902822391
 20
614.7736163976
 10
306.6882722751
 20
614.7563459518
 10
306.8076603786
 20
614.735290611
 10
306.9438569919
 20
614.7112699392
 10
307.0916467086
 20
614.6852078082
 10
307.2453670875
 20
614.6581174972
  0
LINE
  5
321
330
1F
100
AcDbEntity
  8
0
  6
Continuous
 62
     7
370
    15
100
AcDbLine
 10
307.2453670875
 20
614.6581174972
 30
0.0
 11
302.4200432674
 21
587.2923137786
 31
0.0
  0
LINE
  5
322
330
1F
100
AcDbEntity
  8
0
  6
Continuous
 62
     7
370
    15
100
AcDbLine
 10
302.4200432674
 20
587.2923137786
 30
0.0
 11
302.4726145641
 21
587.9650714042
 31
0.0
  0
LINE
  5
323
330
1F
100
AcDbEntity
  8
0
  6
Continuous
 62
     7
370
    15
100
AcDbLine
 10
306.2043421642
 20
621.5529816391
 30
0.0
 11
306.7806594745
 21
619.9694948437
 31
0.0
  0
LWPOLYLINE
  5
324
330
1F
100
AcDbEntity
  8
0
  6
Continuous
 62
     7
370
    15
100
AcDbPolyline
 90
        9
 70
   128
 43
0.0
 10
306.0289256946
 20
619.6958797219
 10
306.0433500187
 20
619.7011398318
 10
306.0861461536
 20
619.7167040946
 10
306.1556153671
 20
619.7419913652
 10
306.2491052524
 20
619.7760181668
 10
306.3630097286
 20
619.8174806478
 10
306.4929776565
 20
619.864784384
 10
306.6340022461
 20
619.9161188843
 10
306.7806594745
 20
619.9694948437
  0
LINE
  5
325
330
1F
100
AcDbEntity
  8
0
  6
Continuous
 62
     7
370
    15
100
AcDbLine
 10
306.0289256946
 20
619.6958797219
 30
0.0
 11
305.3048186676
 21
621.6853561046
 31
0.0
  0
SPLINE
  5
326
330
1F
100
AcDbEntity
  8
0
  6
Continuous
 62
     7
370
    15
100
AcDbSpline
210
0.0
220
0.0
230
1.0
 70
     8
 71
     3
 72
    12
 73
     8
 74
     0
 42
0.00000001
 43
0.00000001
 40
0.0
 40
0.0
 40
0.0
 40
0.0
 40
0.2510129476244693
 40
0.5023997049789553
 40
0.7402755902731164
 40
0.9473068909495996
 40
0.9999999999999999
 40
0.9999999999999999
 40
0.9999999999999999
 40
0.9999999999999999
 10
305.3048186675639
 20
621.6853561045968
 30
0.0
 10
305.3325215059762
 20
621.6410378388786
 30
0.0
 10
305.3879684380057
 20
621.5523353084602
 30
0.0
 10
305.5949791735935
 20
621.4773499524059
 30
0.0
 10
305.8563723071745
 20
621.465853096891
 30
0.0
 10
306.0729537849541
 20
621.5074996145245
 30
0.0
 10
306.1821818761828
 20
621.5453105287153
 30
0.0
 10
306.2043421641916
 20
621.5529816391313
 30
0.0
  0
LWPOLYLINE
  5
327
330
1F
100
AcDbEntity
  8
0
  6
Continuous
 62
     7
370
    15
100
AcDbPolyline
 90
        5
 70
   128
 43
0.0
 10
305.3048186676
 20
621.6853561046
 10
305.0513499157
 20
622.381761873
 10
304.8677974121
 20
622.8860767724
 10
304.7566347496
 20
623.1914313676
 10
304.7194414512
 20
623.2936831357
  0
LWPOLYLINE
  5
328
330
1F
100
AcDbEntity
  8
0
  6
Continuous
 62
     7
370
    15
100
AcDbPolyline
 90
        5
 70
   128
 43
0.0
 10
306.0644500629
 20
621.937342191
 10
305.8075838462
 20
622.6430164816
 10
305.6215577499
 20
623.1541337612
 10
305.5089049713
 20
623.4636457803
 10
305.4711752311
 20
623.5672982576
  0
LINE
  5
329
330
1F
100
AcDbEntity
  8
0
  6
Continuous
 62
     7
370
    15
100
AcDbLine
 10
306.2865369693
 20
621.5828957202
 30
0.0
 11
306.0644500629
 21
621.937342191
 31
0.0
  0
LINE
  5
32A
330
1F
100
AcDbEntity
  8
0
  6
Continuous
 62
     7
370
    15
100
AcDbLine
 10
306.2043421642
 20
621.5529816391
 30
0.0
 11
306.2865369693
 21
621.5828957202
 31
0.0
  0
ARC
  5
32B
330
1F
100
AcDbEntity
  8
0
  6
Continuous
 62
     7
370
    15
100
AcDbCircle
 10
306.6094327
 20
592.7562888661
 30
0.0
 40
1.600000000000032
100
AcDbArc
 50
347.034367059
 51
204.5950707184
  0
ARC
  5
32C
330
1F
100
AcDbEntity
  8
0
  6
Continuous
 62
     7
370
    15
100
AcDbCircle
 10
307.1221416652
 20
620.779362802
 30
0.0
 40
0.5000000000001137
100
AcDbArc
 50
36.8410865503
 51
90.0
  0
ARC
  5
32D
330
1F
100
AcDbEntity
  8
0
  6
Continuous
 62
     7
370
    15
100
AcDbCircle
 10
299.9194271938
 20
615.3829839936
 30
0.0
 40
9.500000000000057
100
AcDbArc
 50
0.0
 51
36.8410865502
  0
LINE
  5
32E
330
1F
100
AcDbEntity
  8
0
  6
Continuous
 62
     7
370
    15
100
AcDbLine
 10
309.4194167034
 20
615.3829844835
 30
0.0
 11
309.4194167034
 21
587.3572977426
 31
0.0
  0
ARC
  5
32F
330
1F
100
AcDbEntity
  8
0
  6
Continuous
 62
     7
370
    15
100
AcDbCircle
 10
297.1018401533
 20
616.4466884159
 30
0.0
 40
10.30000000000015
100
AcDbArc
 50
350.0
 51
20.0
  0
ARC
  5
330
330
1F
100
AcDbEntity
  8
0
  6
Continuous
 62
     7
370
    15
100
AcDbCircle
 10
307.0041291196
 20
622.279362802
 30
0.0
 40
1.000000000000026
100
AcDbArc
 50
224.1440002858
 51
270.0
  0
LINE
  5
331
330
1F
100
AcDbEntity
  8
0
  6
Continuous
 62
     7
370
    15
100
AcDbLine
 10
307.0041172878
 20
621.2793665173
 30
0.0
 11
307.1221344844
 21
621.2793665173
 31
0.0
  0
LWPOLYLINE
  5
332
330
1F
100
AcDbEntity
  8
0
  6
Continuous
 62
     7
370
    15
100
AcDbPolyline
 90
        3
 70
   128
 43
0.0
 10
309.4194167034
 20
587.3572977426
 10
309.2108004467
 20
586.1670227887
 10
308.8546328918
 20
585.4508580806
  0
ARC
  5
333
330
1F
100
AcDbEntity
  8
0
  6
Continuous
 62
     7
370
    15
100
AcDbCircle
 10
305.9194271938
 20
587.3572979476
 30
0.0
 40
3.50000000000011
100
AcDbArc
 50
181.0639402281
 51
271.3221928089
  0
ARC
  5
334
330
1F
100
AcDbEntity
  8
0
  6
Continuous
 62
     7
370
    15
100
AcDbCircle
 10
297.1018401533
 20
616.4466884159
 30
0.0
 40
9.50000000000002
100
AcDbArc
 50
350.0
 51
20.0
  0
ARC
  5
335
330
1F
100
AcDbEntity
  8
0
  6
Continuous
 62
     7
370
    15
100
AcDbCircle
 10
306.5130449872
 20
588.0547934744
 30
0.0
 40
4.698428302688391
100
AcDbArc
 50
170.0
 51
264.3261771657
  0
LINE
  5
336
330
1F
100
AcDbEntity
  8
0
  6
Continuous
 62
     7
370
    15
100
AcDbLine
 10
302.0824723617
 20
589.984923804
 30
0.0
 11
301.8859856502
 21
588.8706596734
 31
0.0
  0
LINE
  5
337
330
1F
100
AcDbEntity
  8
0
  6
Continuous
 62
     7
370
    15
100
AcDbLine
 10
325.9194277898
 20
731.567298265
 30
0.0
 11
325.9194277898
 21
746.5672979297
 31
0.0
  0
LINE
  5
338
330
1F
100
AcDbEntity
  8
0
  6
Continuous
 62
     7
370
    15
100
AcDbLine
 10
325.9194277898
 20
731.567298265
 30
0.0
 11
310.9194271938
 21
731.567298265
 31
0.0
  0
ARC
  5
339
330
1F
100
AcDbEntity
  8
0
  6
Continuous
 62
     7
370
    15
100
AcDbCircle
 10
325.9194271938
 20
731.5672979476
 30
0.0
 40
15.0
100
AcDbArc
 50
90.0
 51
180.0
  0
LINE
  5
33A
330
1F
100
AcDbEntity
  8
0
  6
Continuous
 62
     7
370
    15
100
AcDbLine
 10
795.9194265977
 20
731.567298265
 30
0.0
 11
810.9194271938
 21
731.567298265
 31
0.0
  0
LINE
  5
33B
330
1F
100
AcDbEntity
  8
0
  6
Continuous
 62
     7
370
    15
100
AcDbLine
 10
795.9194265977
 20
731.567298265
 30
0.0
 11
795.9194265977
 21
746.5672979297
 31
0.0
  0
ARC
  5
33C
330
1F
100
AcDbEntity
  8
0
  6
Continuous
 62
     7
370
    15
100
AcDbCircle
 10
795.9194271938
 20
731.5672979476
 30
0.0
 40
15.0
100
AcDbArc
 50
0.0
 51
90.0
  0
LINE
  5
33D
330
1F
100
AcDbEntity
  8
0
  6
Continuous
 62
     7
370
    15
100
AcDbLine
 10
810.9194271938
 20
731.567298265
 30
0.0
 11
810.9194271938
 21
570.5672951581
 31
0.0
  0
LINE
  5
33E
330
1F
100
AcDbEntity
  8
0
  6
Continuous
 62
     7
370
    15
100
AcDbLine
 10
810.9194271938
 20
570.5672951581
 30
0.0
 11
795.9194265977
 21
570.5672951581
 31
0.0
  0
LINE
  5
33F
330
1F
100
AcDbEntity
  8
0
  6
Continuous
 62
     7
370
    15
100
AcDbLine
 10
795.9194265977
 20
731.567298265
 30
0.0
 11
795.9194265977
 21
570.5672951581
 31
0.0
  0
LINE
  5
340
330
1F
100
AcDbEntity
  8
0
  6
Continuous
 62
     7
370
    15
100
AcDbLine
 10
330.9194230215
 20
590.5672909858
 30
0.0
 11
330.9194230215
 21
726.5672983768
 31
0.0
  0
LINE
  5
341
330
1F
100
AcDbEntity
  8
0
  6
Continuous
 62
     7
370
    15
100
AcDbLine
 10
330.9194230215
 20
590.5672909858
 30
0.0
 11
790.9194313661
 21
590.5672909858
 31
0.0
  0
LINE
  5
342
330
1F
100
AcDbEntity
  8
0
  6
Continuous
 62
     7
370
    15
100
AcDbLine
 10
790.9194313661
 20
726.5672983768
 30
0.0
 11
790.9194313661
 21
590.5672909858
 31
0.0
  0
LINE
  5
343
330
1F
100
AcDbEntity
  8
0
  6
Continuous
 62
     7
370
    15
100
AcDbLine
 10
790.9194313661
 20
726.5672983768
 30
0.0
 11
330.9194230215
 21
726.5672983768
 31
0.0
  0
LINE
  5
344
330
1F
100
AcDbEntity
  8
0
  6
Continuous
 62
     7
370
    15
100
AcDbLine
 10
795.9194265977
 20
570.5672951581
 30
0.0
 11
325.9194277898
 21
570.5672951581
 31
0.0
  0
LINE
  5
345
330
1F
100
AcDbEntity
  8
0
  6
Continuous
 62
     7
370
    15
100
AcDbLine
 10
325.9194277898
 20
570.5672951581
 30
0.0
 11
325.9194277898
 21
731.567298265
 31
0.0
  0
LINE
  5
346
330
1F
100
AcDbEntity
  8
0
  6
Continuous
 62
     7
370
    15
100
AcDbLine
 10
795.9194265977
 20
731.567298265
 30
0.0
 11
325.9194277898
 21
731.567298265
 31
0.0
  0
LINE
  5
347
330
1F
100
AcDbEntity
  8
0
  6
Continuous
 62
     7
370
    15
100
AcDbLine
 10
325.9194277898
 20
570.5672951581
 30
0.0
 11
310.9194271938
 21
570.5672951581
 31
0.0
  0
LINE
  5
348
330
1F
100
AcDbEntity
  8
0
  6
Continuous
 62
     7
370
    15
100
AcDbLine
 10
310.9194271938
 20
570.5672951581
 30
0.0
 11
310.9194271938
 21
731.567298265
 31
0.0
  0
LINE
  5
349
330
1F
100
AcDbEntity
  8
0
  6
Continuous
 62
     7
370
    15
100
AcDbLine
 10
795.9194265977
 20
746.5672979297
 30
0.0
 11
325.9194277898
 21
746.5672979297
 31
0.0
  0
LINE
  5
34A
330
1F
100
AcDbEntity
  8
0
  6
Continuous
 62
     7
370
    15
100
AcDbLine
 10
805.9194319622
 20
570.5672951581
 30
0.0
 11
805.9194319622
 21
566.5673019531
 31
0.0
  0
LINE
  5
34B
330
1F
100
AcDbEntity
  8
0
  6
Continuous
 62
     7
370
    15
100
AcDbLine
 10
790.9194313661
 20
566.5673019531
 30
0.0
 11
790.9194313661
 21
570.5672951581
 31
0.0
  0
LINE
  5
34C
330
1F
100
AcDbEntity
  8
0
  6
Continuous
 62
     7
370
    15
100
AcDbLine
 10
330.9194230215
 20
566.5673019531
 30
0.0
 11
330.9194230215
 21
570.5672951581
 31
0.0
  0
LINE
  5
34D
330
1F
100
AcDbEntity
  8
0
  6
Continuous
 62
     7
370
    15
100
AcDbLine
 10
315.9194224254
 20
566.5673019531
 30
0.0
 11
315.9194224254
 21
570.5672951581
 31
0.0
  0
LINE
  5
34E
330
1F
100
AcDbEntity
  8
0
  6
Continuous
 62
     7
370
    15
100
AcDbLine
 10
810.9194271938
 20
570.5672951581
 30
0.0
 11
811.5867309944
 21
570.5672951581
 31
0.0
  0
ARC
  5
34F
330
1F
100
AcDbEntity
  8
0
  6
Continuous
 62
     7
370
    15
100
AcDbCircle
 10
811.5867449419
 20
571.0672979476
 30
0.0
 40
0.5
100
AcDbArc
 50
270.0
 51
332.720387264
  0
ARC
  5
350
330
1F
100
AcDbEntity
  8
0
  6
Continuous
 62
     7
370
    15
100
AcDbCircle
 10
816.9194271938
 20
568.3172979476
 30
0.0
 40
5.500000000000115
100
AcDbArc
 50
202.024312837
 51
152.720387264
  0
ARC
  5
351
330
1F
100
AcDbEntity
  8
0
  6
Continuous
 62
     7
370
    15
100
AcDbCircle
 10
811.3572783285
 20
566.0672979476
 30
0.0
 40
0.500000000000081
100
AcDbArc
 50
22.024312837
 51
90.0
  0
LINE
  5
352
330
1F
100
AcDbEntity
  8
0
  6
Continuous
 62
     7
370
    15
100
AcDbLine
 10
811.3572829143
 20
566.5673019531
 30
0.0
 11
810.9194271938
 21
566.5673019531
 31
0.0
  0
ARC
  5
353
330
1F
100
AcDbEntity
  8
0
  6
Continuous
 62
     7
370
    15
100
AcDbCircle
 10
305.7194271938
 20
586.6672979476
 30
0.0
 40
3.100000000000047
100
AcDbArc
 50
192.3149210337
 51
270.0
  0
LINE
  5
354
330
1F
100
AcDbEntity
  8
0
  6
Continuous
 62
     7
370
    15
100
AcDbLine
 10
310.6194370166
 20
583.5672917011
 30
0.0
 11
310.6194370166
 21
589.7672923448
 31
0.0
  0
LINE
  5
355
330
1F
100
AcDbEntity
  8
0
  6
Continuous
 62
     7
370
    15
100
AcDbLine
 10
305.7194285766
 20
583.5672917011
 30
0.0
 11
306.0295515434
 21
583.5672917011
 31
0.0
  0
LINE
  5
356
330
1F
100
AcDbEntity
  8
0
  6
Continuous
 62
     7
370
    15
100
AcDbLine
 10
309.044801511
 20
583.5672917011
 30
0.0
 11
310.6194370166
 21
583.5672917011
 31
0.0
  0
LINE
  5
357
330
1F
100
AcDbEntity
  8
0
  6
Continuous
 62
     7
370
    15
100
AcDbLine
 10
310.6194370166
 20
589.7672923448
 30
0.0
 11
309.4194167034
 21
589.7672923448
 31
0.0
  0
LINE
  5
358
330
1F
100
AcDbEntity
  8
0
  6
Continuous
 62
     7
370
    15
100
AcDbLine
 10
310.9194271938
 20
583.5672917011
 30
0.0
 11
310.6194370166
 21
583.5672917011
 31
0.0
  0
LINE
  5
359
330
1F
100
AcDbEntity
  8
0
  6
Continuous
 62
     7
370
    15
100
AcDbLine
 10
310.6194370166
 20
589.7672923448
 30
0.0
 11
310.9194271938
 21
589.7683652284
 31
0.0
  0
LINE
  5
35A
330
1F
100
AcDbEntity
  8
0
  6
Continuous
 62
     7
370
    15
100
AcDbLine
 10
310.9194271938
 20
591.7672963979
 30
0.0
 11
310.6194370166
 21
591.7672963979
 31
0.0
  0
LINE
  5
35B
330
1F
100
AcDbEntity
  8
0
  6
Continuous
 62
     7
370
    15
100
AcDbLine
 10
310.6194370166
 20
589.7672923448
 30
0.0
 11
310.6194370166
 21
591.7672963979
 31
0.0
  0
LINE
  5
35C
330
1F
100
AcDbEntity
  8
0
  6
Continuous
 62
     7
370
    15
100
AcDbLine
 10
310.6194370166
 20
622.567296231
 30
0.0
 11
310.6194370166
 21
615.8172937276
 31
0.0
  0
LINE
  5
35D
330
1F
100
AcDbEntity
  8
0
  6
Continuous
 62
     7
370
    15
100
AcDbLine
 10
310.6194370166
 20
591.7672963979
 30
0.0
 11
310.6194370166
 21
615.8172937276
 31
0.0
  0
LINE
  5
35E
330
1F
100
AcDbEntity
  8
0
  6
Continuous
 62
     7
370
    15
100
AcDbLine
 10
310.5194204227
 20
615.5672969463
 30
0.0
 11
310.5194204227
 21
621.567301655
 31
0.0
  0
LINE
  5
35F
330
1F
100
AcDbEntity
  8
0
  6
Continuous
 62
     7
370
    15
100
AcDbLine
 10
310.5194204227
 20
592.5672950389
 30
0.0
 11
310.5194204227
 21
598.5672922971
 31
0.0
  0
LINE
  5
360
330
1F
100
AcDbEntity
  8
0
  6
Continuous
 62
     7
370
    15
100
AcDbLine
 10
309.4194167034
 20
607.9241188409
 30
0.0
 11
310.6194370166
 21
607.6025666835
 31
0.0
  0
LINE
  5
361
330
1F
100
AcDbEntity
  8
0
  6
Continuous
 62
     7
370
    15
100
AcDbLine
 10
310.6194370166
 20
606.5672936084
 30
0.0
 11
309.4194167034
 21
606.8888308647
 31
0.0
  0
LINE
  5
362
330
1F
100
AcDbEntity
  8
0
  6
Continuous
 62
     8
370
    15
100
AcDbLine
 10
310.9194271938
 20
615.8172937276
 30
0.0
 11
310.6194370166
 21
615.8172937276
 31
0.0
  0
ENDSEC
  0
SECTION
  2
OBJECTS
  0
DICTIONARY
  5
C
330
0
100
AcDbDictionary
281
     1
  3
ACAD_GROUP
350
D
  3
ACAD_LAYOUT
350
1A
  3
ACAD_MLINESTYLE
350
17
  3
ACAD_PLOTSETTINGS
350
19
  3
ACAD_PLOTSTYLENAME
350
E
  0
DICTIONARY
  5
D
102
{ACAD_REACTORS
330
C
102
}
330
C
100
AcDbDictionary
281
     1
  0
DICTIONARY
  5
1A
102
{ACAD_REACTORS
330
C
102
}
330
C
100
AcDbDictionary
281
     1
  3
Layout1
350
1E
  3
Layout2
350
26
  3
Model
350
22
  0
DICTIONARY
  5
17
102
{ACAD_REACTORS
330
C
102
}
330
C
100
AcDbDictionary
281
     1
  3
Standard
350
18
  0
DICTIONARY
  5
19
102
{ACAD_REACTORS
330
C
102
}
330
C
100
AcDbDictionary
281
     1
  0
ACDBDICTIONARYWDFLT
  5
E
102
{ACAD_REACTORS
330
C
102
}
330
C
100
AcDbDictionary
281
     1
  3
Normal
350
F
100
AcDbDictionaryWithDefault
340
F
  0
LAYOUT
  5
1E
102
{ACAD_REACTORS
330
1A
102
}
330
1A
100
AcDbPlotSettings
  1

  2
none_device
  4

  6

 40
0.0
 41
0.0
 42
0.0
 43
0.0
 44
0.0
 45
0.0
 46
0.0
 47
0.0
 48
0.0
 49
0.0
140
0.0
141
0.0
142
1.0
143
1.0
 70
   688
 72
     0
 73
     0
 74
     5
  7

 75
    16
147
1.0
148
0.0
149
0.0
100
AcDbLayout
  1
Layout1
 70
     1
 71
     1
 10
0.0
 20
0.0
 11
420.0
 21
297.0
 12
0.0
 22
0.0
 32
0.0
 14
1.0000000000E+20
 24
1.0000000000E+20
 34
1.0000000000E+20
 15
-1.0000000000E+20
 25
-1.0000000000E+20
 35
-1.0000000000E+20
146
0.0
 13
0.0
 23
0.0
 33
0.0
 16
1.0
 26
0.0
 36
0.0
 17
0.0
 27
1.0
 37
0.0
 76
     0
330
1B
  0
LAYOUT
  5
26
102
{ACAD_REACTORS
330
1A
102
}
330
1A
100
AcDbPlotSettings
  1

  2
none_device
  4

  6

 40
0.0
 41
0.0
 42
0.0
 43
0.0
 44
0.0
 45
0.0
 46
0.0
 47
0.0
 48
0.0
 49
0.0
140
0.0
141
0.0
142
1.0
143
1.0
 70
   688
 72
     0
 73
     0
 74
     5
  7

 75
    16
147
1.0
148
0.0
149
0.0
100
AcDbLayout
  1
Layout2
 70
     1
 71
     2
 10
0.0
 20
0.0
 11
0.0
 21
0.0
 12
0.0
 22
0.0
 32
0.0
 14
0.0
 24
0.0
 34
0.0
 15
0.0
 25
0.0
 35
0.0
146
0.0
 13
0.0
 23
0.0
 33
0.0
 16
1.0
 26
0.0
 36
0.0
 17
0.0
 27
1.0
 37
0.0
 76
     0
330
23
  0
LAYOUT
  5
22
102
{ACAD_REACTORS
330
1A
102
}
330
1A
100
AcDbPlotSettings
  1

  2
none_device
  4

  6

 40
0.0
 41
0.0
 42
0.0
 43
0.0
 44
0.0
 45
0.0
 46
0.0
 47
0.0
 48
0.0
 49
0.0
140
0.0
141
0.0
142
1.0
143
1.0
 70
  1712
 72
     0
 73
     0
 74
     0
  7

 75
     0
147
1.0
148
0.0
149
0.0
100
AcDbLayout
  1
Model
 70
     1
 71
     0
 10
0.0
 20
0.0
 11
840.0
 21
594.0
 12
0.0
 22
0.0
 32
0.0
 14
0.0
 24
0.0
 34
0.0
 15
840.0
 25
594.0
 35
0.0
146
0.0
 13
0.0
 23
0.0
 33
0.0
 16
1.0
 26
0.0
 36
0.0
 17
0.0
 27
1.0
 37
0.0
 76
     0
330
1F
331
29
  0
MLINESTYLE
  5
18
102
{ACAD_REACTORS
330
17
102
}
330
17
100
AcDbMlineStyle
  2
Standard
 70
     0
  3

 62
   256
 51
90.0
 52
90.0
 71
     2
 49
0.5
 62
   256
  6
BYLAYER
 49
-0.5
 62
   256
  6
BYLAYER
  0
ACDBPLACEHOLDER
  5
F
102
{ACAD_REACTORS
330
E
102
}
330
E
  0
ENDSEC
  0
EOF
