  0
SECTION
  2
HEADER
  9
$ACADVER
  1
AC1015
  9
$ACADMAINTVER
 70
     6
  9
$DWGCODEPAGE
  3
DOS932
  9
$INSBASE
 10
0.0
 20
0.0
 30
0.0
  9
$EXTMIN
 10
0.0
 20
0.0
 30
0.0
  9
$EXTMAX
 10
840.0
 20
594.0
 30
0.0
  9
$LIMMIN
 10
0.0
 20
0.0
  9
$LIMMAX
 10
840.0
 20
594.0
  9
$ORTHOMODE
 70
     0
  9
$REGENMODE
 70
     1
  9
$FILLMODE
 70
     1
  9
$QTEXTMODE
 70
     0
  9
$MIRRTEXT
 70
     1
  9
$LTSCALE
 40
2.0
  9
$ATTMODE
 70
     1
  9
$TEXTSIZE
 40
7.0
  9
$TRACEWID
 40
1.0
  9
$TEXTSTYLE
  7
Standard
  9
$CLAYER
  8
0
  9
$CELTYPE
  6
ByLayer
  9
$CECOLOR
 62
   256
  9
$CELTSCALE
 40
1.0
  9
$DISPSILH
 70
     0
  9
$DIMSCALE
 40
1.0
  9
$DIMASZ
 40
6.0
  9
$DIMEXO
 40
2.0
  9
$DIMDLI
 40
3.75
  9
$DIMRND
 40
0.0
  9
$DIMDLE
 40
0.0
  9
$DIMEXE
 40
2.0
  9
$DIMTP
 40
0.0
  9
$DIMTM
 40
0.0
  9
$DIMTXT
 40
7.0
  9
$DIMCEN
 40
2.5
  9
$DIMTSZ
 40
0.0
  9
$DIMTOL
 70
     0
  9
$DIMLIM
 70
     0
  9
$DIMTIH
 70
     1
  9
$DIMTOH
 70
     1
  9
$DIMSE1
 70
     0
  9
$DIMSE2
 70
     0
  9
$DIMTAD
 70
     1
  9
$DIMZIN
 70
     0
  9
$DIMBLK
  1

  9
$DIMASO
 70
     1
  9
$DIMSHO
 70
     1
  9
$DIMPOST
  1

  9
$DIMAPOST
  1

  9
$DIMALT
 70
     0
  9
$DIMALTD
 70
     3
  9
$DIMALTF
 40
0.0393700787
  9
$DIMLFAC
 40
1.0
  9
$DIMTOFL
 70
     1
  9
$DIMTVP
 40
0.0
  9
$DIMTIX
 70
     0
  9
$DIMSOXD
 70
     0
  9
$DIMSAH
 70
     0
  9
$DIMBLK1
  1

  9
$DIMBLK2
  1

  9
$DIMSTYLE
  2
ISO-25
  9
$DIMCLRD
 70
     0
  9
$DIMCLRE
 70
     0
  9
$DIMCLRT
 70
     0
  9
$DIMTFAC
 40
1.0
  9
$DIMGAP
 40
3.048
  9
$DIMJUST
 70
     0
  9
$DIMSD1
 70
     0
  9
$DIMSD2
 70
     0
  9
$DIMTOLJ
 70
     0
  9
$DIMTZIN
 70
     0
  9
$DIMALTZ
 70
     0
  9
$DIMALTTZ
 70
     0
  9
$DIMUPT
 70
     0
  9
$DIMDEC
 70
     1
  9
$DIMTDEC
 70
     1
  9
$DIMALTU
 70
     2
  9
$DIMALTTD
 70
     3
  9
$DIMTXSTY
  7
Standard
  9
$DIMAUNIT
 70
     0
  9
$DIMADEC
 70
     2
  9
$DIMALTRND
 40
0.0
  9
$DIMAZIN
 70
     0
  9
$DIMDSEP
 70
    44
  9
$DIMATFIT
 70
     3
  9
$DIMFRAC
 70
     0
  9
$DIMLDRBLK
  1

  9
$DIMLUNIT
 70
     2
  9
$DIMLWD
 70
    -2
  9
$DIMLWE
 70
    -2
  9
$DIMTMOVE
 70
     0
  9
$LUNITS
 70
     2
  9
$LUPREC
 70
     1
  9
$SKETCHINC
 40
1.0
  9
$FILLETRAD
 40
10.0
  9
$AUNITS
 70
     0
  9
$AUPREC
 70
     2
  9
$MENU
  1
.
  9
$ELEVATION
 40
0.0
  9
$PELEVATION
 40
0.0
  9
$THICKNESS
 40
0.0
  9
$LIMCHECK
 70
     0
  9
$CHAMFERA
 40
10.0
  9
$CHAMFERB
 40
10.0
  9
$CHAMFERC
 40
20.0
  9
$CHAMFERD
 40
0.0
  9
$SKPOLY
 70
     0
  9
$TDCREATE
 40
2460451.550979641
  9
$TDUCREATE
 40
2460451.175979641
  9
$TDUPDATE
 40
2460451.550979653
  9
$TDUUPDATE
 40
2460451.175979653
  9
$TDINDWG
 40
0.0000000116
  9
$TDUSRTIMER
 40
0.0000000116
  9
$USRTIMER
 70
     1
  9
$ANGBASE
 50
0.0
  9
$ANGDIR
 70
     0
  9
$PDMODE
 70
     0
  9
$PDSIZE
 40
-1.0
  9
$PLINEWID
 40
0.0
  9
$SPLFRAME
 70
     0
  9
$SPLINETYPE
 70
     6
  9
$SPLINESEGS
 70
     8
  9
$HANDSEED
  5
362
  9
$SURFTAB1
 70
     6
  9
$SURFTAB2
 70
     6
  9
$SURFTYPE
 70
     6
  9
$SURFU
 70
     6
  9
$SURFV
 70
     6
  9
$UCSBASE
  2

  9
$UCSNAME
  2

  9
$UCSORG
 10
0.0
 20
0.0
 30
0.0
  9
$UCSXDIR
 10
1.0
 20
0.0
 30
0.0
  9
$UCSYDIR
 10
0.0
 20
1.0
 30
0.0
  9
$UCSORTHOREF
  2

  9
$UCSORTHOVIEW
 70
     0
  9
$UCSORGTOP
 10
0.0
 20
0.0
 30
0.0
  9
$UCSORGBOTTOM
 10
0.0
 20
0.0
 30
0.0
  9
$UCSORGLEFT
 10
0.0
 20
0.0
 30
0.0
  9
$UCSORGRIGHT
 10
0.0
 20
0.0
 30
0.0
  9
$UCSORGFRONT
 10
0.0
 20
0.0
 30
0.0
  9
$UCSORGBACK
 10
0.0
 20
0.0
 30
0.0
  9
$PUCSBASE
  2

  9
$PUCSNAME
  2

  9
$PUCSORG
 10
0.0
 20
0.0
 30
0.0
  9
$PUCSXDIR
 10
1.0
 20
0.0
 30
0.0
  9
$PUCSYDIR
 10
0.0
 20
1.0
 30
0.0
  9
$PUCSORTHOREF
  2

  9
$PUCSORTHOVIEW
 70
     0
  9
$PUCSORGTOP
 10
0.0
 20
0.0
 30
0.0
  9
$PUCSORGBOTTOM
 10
0.0
 20
0.0
 30
0.0
  9
$PUCSORGLEFT
 10
0.0
 20
0.0
 30
0.0
  9
$PUCSORGRIGHT
 10
0.0
 20
0.0
 30
0.0
  9
$PUCSORGFRONT
 10
0.0
 20
0.0
 30
0.0
  9
$PUCSORGBACK
 10
0.0
 20
0.0
 30
0.0
  9
$USERI1
 70
     0
  9
$USERI2
 70
     0
  9
$USERI3
 70
     0
  9
$USERI4
 70
     0
  9
$USERI5
 70
     0
  9
$USERR1
 40
0.0
  9
$USERR2
 40
0.0
  9
$USERR3
 40
0.0
  9
$USERR4
 40
0.0
  9
$USERR5
 40
0.0
  9
$WORLDVIEW
 70
     1
  9
$SHADEDGE
 70
     3
  9
$SHADEDIF
 70
    70
  9
$TILEMODE
 70
     1
  9
$MAXACTVP
 70
    64
  9
$PINSBASE
 10
0.0
 20
0.0
 30
0.0
  9
$PLIMCHECK
 70
     0
  9
$PEXTMIN
 10
1.0000000000E+20
 20
1.0000000000E+20
 30
1.0000000000E+20
  9
$PEXTMAX
 10
-1.0000000000E+20
 20
-1.0000000000E+20
 30
-1.0000000000E+20
  9
$PLIMMIN
 10
0.0
 20
0.0
  9
$PLIMMAX
 10
420.0
 20
297.0
  9
$UNITMODE
 70
     0
  9
$VISRETAIN
 70
     1
  9
$PLINEGEN
 70
     0
  9
$PSLTSCALE
 70
     1
  9
$TREEDEPTH
 70
  3020
  9
$CMLSTYLE
  2
Standard
  9
$CMLJUST
 70
     0
  9
$CMLSCALE
 40
20.0
  9
$PROXYGRAPHICS
 70
     1
  9
$MEASUREMENT
 70
     1
  9
$CELWEIGHT
370
    -1
  9
$ENDCAPS
280
     0
  9
$JOINSTYLE
280
     0
  9
$LWDISPLAY
290
     1
  9
$INSUNITS
 70
     4
  9
$HYPERLINKBASE
  1

  9
$STYLESHEET
  1

  9
$XEDIT
290
     1
  9
$CEPSNTYPE
380
     0
  9
$PSTYLEMODE
290
     1
  9
$FINGERPRINTGUID
  2
{D7B20054-6748-4053-B42C-032C9A0EB933}
  9
$VERSIONGUID
  2
{FAEB1C32-E019-11D5-929B-00C0DF256EC4}
  9
$EXTNAMES
290
     1
  9
$PSVPSCALE
 40
0.0
  9
$OLESTARTUP
290
     0
  0
ENDSEC
  0
SECTION
  2
CLASSES
  0
CLASS
  1
ACDBDICTIONARYWDFLT
  2
AcDbDictionaryWithDefault
  3
ObjectDBX Classes
 90
        0
280
     0
281
     0
  0
CLASS
  1
VISUALSTYLE
  2
AcDbVisualStyle
  3
ObjectDBX Classes
 90
     4095
280
     0
281
     0
  0
CLASS
  1
MATERIAL
  2
AcDbMaterial
  3
ObjectDBX Classes
 90
     1153
280
     0
281
     0
  0
CLASS
  1
ACDBPLACEHOLDER
  2
AcDbPlaceHolder
  3
ObjectDBX Classes
 90
        0
280
     0
281
     0
  0
CLASS
  1
LAYOUT
  2
AcDbLayout
  3
ObjectDBX Classes
 90
        0
280
     0
281
     0
  0
ENDSEC
  0
SECTION
  2
TABLES
  0
TABLE
  2
VPORT
  5
8
330
0
100
AcDbSymbolTable
 70
     1
  0
VPORT
  5
29
330
8
100
AcDbSymbolTableRecord
100
AcDbViewportTableRecord
  2
*Active
 70
     0
 10
0.0
 20
0.0
 11
1.0
 21
1.0
 12
420.0
 22
297.0
 13
0.0
 23
0.0
 14
10.0
 24
10.0
 15
10.0
 25
10.0
 16
0.0
 26
0.0
 36
1.0
 17
0.0
 27
0.0
 37
0.0
 40
594.0
 41
1.4141414141
 42
50.0
 43
0.0
 44
0.0
 50
0.0
 51
0.0
 71
     0
 72
  2000
 73
     1
 74
     3
 75
     0
 76
     0
 77
     0
 78
     0
281
     0
 65
     1
110
0.0
120
0.0
130
0.0
111
1.0
121
0.0
131
0.0
112
0.0
122
1.0
132
0.0
 79
     0
146
0.0
  0
ENDTAB
  0
TABLE
  2
LTYPE
  5
5
330
0
100
AcDbSymbolTable
 70
     6
  0
LTYPE
  5
14
330
5
100
AcDbSymbolTableRecord
100
AcDbLinetypeTableRecord
  2
ByBlock
 70
     0
  3

 72
    65
 73
     0
 40
0.0
  0
LTYPE
  5
15
330
5
100
AcDbSymbolTableRecord
100
AcDbLinetypeTableRecord
  2
ByLayer
 70
     0
  3

 72
    65
 73
     0
 40
0.0
  0
LTYPE
  5
16
330
5
100
AcDbSymbolTableRecord
100
AcDbLinetypeTableRecord
  2
Continuous
 70
     0
  3
Solid line
 72
    65
 73
     0
 40
0.0
  0
LTYPE
  5
3F
330
5
100
AcDbSymbolTableRecord
100
AcDbLinetypeTableRecord
  2
HIDDEN
 70
     0
  3
Hidden __ __ __ __ __ __ __ __ __ __ __ __ __ __
 72
    65
 73
     2
 40
1.905
 49
1.27
 74
     0
 49
-0.635
 74
     0
  0
LTYPE
  5
40
330
5
100
AcDbSymbolTableRecord
100
AcDbLinetypeTableRecord
  2
PHANTOM
 70
     0
  3
Phantom ______  __  __  ______  __  __  ______
 72
    65
 73
     6
 40
12.7
 49
6.35
 74
     0
 49
-1.27
 74
     0
 49
1.27
 74
     0
 49
-1.27
 74
     0
 49
1.27
 74
     0
 49
-1.27
 74
     0
  0
LTYPE
  5
41
330
5
100
AcDbSymbolTableRecord
100
AcDbLinetypeTableRecord
  2
CENTER
 70
     0
  3
Center ____ _ ____ _ ____ _ ____ _ ____ _ ____
 72
    65
 73
     4
 40
10.16
 49
6.35
 74
     0
 49
-1.27
 74
     0
 49
1.27
 74
     0
 49
-1.27
 74
     0
  0
LTYPE
  5
42
330
5
100
AcDbSymbolTableRecord
100
AcDbLinetypeTableRecord
  2
CENTERX2
 70
     0
  3
Center (2x) ________  __  ________  __  _____
 72
    65
 73
     4
 40
20.32
 49
12.7
 74
     0
 49
-2.54
 74
     0
 49
2.54
 74
     0
 49
-2.54
 74
     0
  0
LTYPE
  5
43
330
5
100
AcDbSymbolTableRecord
100
AcDbLinetypeTableRecord
  2
DOT2
 70
     0
  3
Dot (.5x) ........................................
 72
    65
 73
     2
 40
0.635
 49
0.0
 74
     0
 49
-0.635
 74
     0
  0
ENDTAB
  0
TABLE
  2
LAYER
  5
2
330
0
100
AcDbSymbolTable
 70
     1
  0
LAYER
  5
10
330
2
100
AcDbSymbolTableRecord
100
AcDbLayerTableRecord
  2
0
 70
     0
 62
     7
  6
Continuous
370
    -3
390
F
  0
ENDTAB
  0
TABLE
  2
STYLE
  5
3
330
0
100
AcDbSymbolTable
 70
     2
  0
STYLE
  5
11
330
3
100
AcDbSymbolTableRecord
100
AcDbTextStyleTableRecord
  2
Standard
 70
     0
 40
0.0
 41
1.0
 50
0.0
 71
     0
 42
2.5
  3
txt
  4
bigfont
  0
STYLE
  5
44
330
3
100
AcDbSymbolTableRecord
100
AcDbTextStyleTableRecord
  2
SLDTEXTSTYLE0
 70
     0
 40
0.0
 41
0.7
 50
0.0
 71
     0
 42
0.2
  3
TXT
  4
bigfont
  0
ENDTAB
  0
TABLE
  2
VIEW
  5
6
330
0
100
AcDbSymbolTable
 70
     0
  0
ENDTAB
  0
TABLE
  2
UCS
  5
7
330
0
100
AcDbSymbolTable
 70
     0
  0
ENDTAB
  0
TABLE
  2
APPID
  5
9
330
0
100
AcDbSymbolTable
 70
     1
  0
APPID
  5
12
330
9
100
AcDbSymbolTableRecord
100
AcDbRegAppTableRecord
  2
ACAD
 70
     0
  0
ENDTAB
  0
TABLE
  2
DIMSTYLE
  5
A
330
0
100
AcDbSymbolTable
 70
     1
100
AcDbDimStyleTable
  0
DIMSTYLE
105
27
330
A
100
AcDbSymbolTableRecord
100
AcDbDimStyleTableRecord
  2
ISO-25
 70
     0
 41
2.5
 42
0.625
 43
3.75
 44
1.25
 73
     0
 74
     0
 77
     1
 78
     8
140
2.5
141
2.5
143
0.0393700787
147
0.625
171
     3
172
     1
178
     0
271
     2
272
     2
274
     3
278
    44
283
     0
284
     8
340
11
  0
ENDTAB
  0
TABLE
  2
BLOCK_RECORD
  5
1
330
0
100
AcDbSymbolTable
 70
     1
  0
BLOCK_RECORD
  5
1F
330
1
100
AcDbSymbolTableRecord
100
AcDbBlockTableRecord
  2
*Model_Space
340
22
  0
BLOCK_RECORD
  5
1B
330
1
100
AcDbSymbolTableRecord
100
AcDbBlockTableRecord
  2
*Paper_Space
340
1E
  0
BLOCK_RECORD
  5
23
330
1
100
AcDbSymbolTableRecord
100
AcDbBlockTableRecord
  2
*Paper_Space0
340
26
  0
ENDTAB
  0
ENDSEC
  0
SECTION
  2
BLOCKS
  0
BLOCK
  5
20
330
1F
100
AcDbEntity
  8
0
100
AcDbBlockBegin
  2
*Model_Space
 70
     0
 10
0.0
 20
0.0
 30
0.0
  3
*Model_Space
  1

  0
ENDBLK
  5
21
330
1F
100
AcDbEntity
  8
0
100
AcDbBlockEnd
  0
BLOCK
  5
1C
330
1B
100
AcDbEntity
 67
     1
  8
0
100
AcDbBlockBegin
  2
*Paper_Space
 70
     0
 10
0.0
 20
0.0
 30
0.0
  3
*Paper_Space
  1

  0
ENDBLK
  5
1D
330
1B
100
AcDbEntity
 67
     1
  8
0
100
AcDbBlockEnd
  0
BLOCK
  5
24
330
23
100
AcDbEntity
  8
0
100
AcDbBlockBegin
  2
*Paper_Space0
 70
     0
 10
0.0
 20
0.0
 30
0.0
  3
*Paper_Space0
  1

  0
ENDBLK
  5
25
330
23
100
AcDbEntity
  8
0
100
AcDbBlockEnd
  0
ENDSEC
  0
SECTION
  2
ENTITIES
  0
MTEXT
  5
45
330
1F
100
AcDbEntity
  8
0
  6
Continuous
 62
     7
370
     0
100
AcDbMText
 10
88.7700031139
 20
562.793053718
 30
0.0
 40
7.0
 41
0.0
 71
     1
 72
     1
  1
CHB-512N
  7
SLDTEXTSTYLE0
 73
     1
 44
1.0
  0
LINE
  5
46
330
1F
100
AcDbEntity
  8
0
  6
Continuous
 62
     7
370
    15
100
AcDbLine
 10
309.0560196643
 20
67.9099897935
 30
0.0
 11
309.1560362582
 21
67.9099897935
 31
0.0
  0
LINE
  5
47
330
1F
100
AcDbEntity
  8
0
  6
Continuous
 62
     7
370
    15
100
AcDbLine
 10
309.1560362582
 20
73.9099870517
 30
0.0
 11
309.0560196643
 21
73.9099870517
 31
0.0
  0
LINE
  5
48
330
1F
100
AcDbEntity
  8
0
  6
Continuous
 62
     7
370
    15
100
AcDbLine
 10
309.0560196643
 20
77.909995158
 30
0.0
 11
309.1560362582
 21
77.909995158
 31
0.0
  0
LINE
  5
49
330
1F
100
AcDbEntity
  8
0
  6
Continuous
 62
     7
370
    15
100
AcDbLine
 10
309.1560362582
 20
83.9099924161
 30
0.0
 11
309.0560196643
 21
83.9099924161
 31
0.0
  0
LINE
  5
4A
330
1F
100
AcDbEntity
  8
0
  6
Continuous
 62
     7
370
    15
100
AcDbLine
 10
309.0560196643
 20
437.9099945619
 30
0.0
 11
309.1560362582
 21
437.9099945619
 31
0.0
  0
LINE
  5
4B
330
1F
100
AcDbEntity
  8
0
  6
Continuous
 62
     7
370
    15
100
AcDbLine
 10
309.1560362582
 20
443.9099918201
 30
0.0
 11
309.0560196643
 21
443.9099918201
 31
0.0
  0
LINE
  5
4C
330
1F
100
AcDbEntity
  8
0
  6
Continuous
 62
     7
370
    15
100
AcDbLine
 10
309.0560196643
 20
447.9099999263
 30
0.0
 11
309.1560362582
 21
447.9099999263
 31
0.0
  0
LINE
  5
4D
330
1F
100
AcDbEntity
  8
0
  6
Continuous
 62
     7
370
    15
100
AcDbLine
 10
309.1560362582
 20
453.9099971845
 30
0.0
 11
309.0560196643
 21
453.9099971845
 31
0.0
  0
LINE
  5
4E
330
1F
100
AcDbEntity
  8
0
  6
Continuous
 62
     7
370
    15
100
AcDbLine
 10
310.3560267692
 20
87.4099920585
 30
0.0
 11
309.1560362582
 21
87.4099920585
 31
0.0
  0
LINE
  5
4F
330
1F
100
AcDbEntity
  8
0
  6
Continuous
 62
     7
370
    15
100
AcDbLine
 10
310.3560267692
 20
457.4099968269
 30
0.0
 11
309.1560362582
 21
457.4099968269
 31
0.0
  0
LINE
  5
50
330
1F
100
AcDbEntity
  8
0
  6
Continuous
 62
     7
370
    15
100
AcDbLine
 10
309.1560362582
 20
64.4099901512
 30
0.0
 11
310.3560267692
 21
64.4099901512
 31
0.0
  0
LINE
  5
51
330
1F
100
AcDbEntity
  8
0
  6
Continuous
 62
     7
370
    15
100
AcDbLine
 10
309.1560362582
 20
434.4099949195
 30
0.0
 11
310.3560267692
 21
434.4099949195
 31
0.0
  0
LINE
  5
52
330
1F
100
AcDbEntity
  8
0
  6
Continuous
 62
     7
370
    15
100
AcDbLine
 10
821.8560277228
 20
66.909987767
 30
0.0
 11
821.8560277228
 21
101.9099990919
 31
0.0
  0
LINE
  5
53
330
1F
100
AcDbEntity
  8
0
  6
Continuous
 62
     7
370
    15
100
AcDbLine
 10
821.8560277228
 20
419.9099878862
 30
0.0
 11
821.8560277228
 21
454.9099992111
 31
0.0
  0
SPLINE
  5
54
330
1F
100
AcDbEntity
  8
0
  6
Continuous
 62
     7
370
    15
100
AcDbSpline
210
0.0
220
0.0
230
1.0
 70
     8
 71
     3
 72
    11
 73
     7
 74
     0
 42
0.00000001
 43
0.00000001
 40
0.0
 40
0.0
 40
0.0
 40
0.0
 40
0.2262262702538957
 40
0.4679469806289493
 40
0.7254864912811284
 40
1.0
 40
1.0
 40
1.0
 40
1.0
 10
306.6765426402134
 20
84.14042397284882
 30
0.0
 10
306.6793633786294
 20
84.11752479737719
 30
0.0
 10
306.685198050365
 20
84.07015806137072
 30
0.0
 10
306.7019648064897
 20
83.74537768560955
 30
0.0
 10
306.7155600077189
 20
83.2448788465103
 30
0.0
 10
306.7161064220157
 20
82.82105713251961
 30
0.0
 10
306.7163883452458
 20
82.60238571906464
 30
0.0
  0
SPLINE
  5
55
330
1F
100
AcDbEntity
  8
0
  6
Continuous
 62
     7
370
    15
100
AcDbSpline
210
0.0
220
0.0
230
1.0
 70
     8
 71
     3
 72
    12
 73
     8
 74
     0
 42
0.00000001
 43
0.00000001
 40
0.0
 40
0.0
 40
0.0
 40
0.0
 40
0.2489469272997727
 40
0.4822949499668513
 40
0.6998133322848473
 40
0.9035365115921212
 40
1.0
 40
1.0
 40
1.0
 40
1.0
 10
306.7163883452457
 20
69.04375954413786
 30
0.0
 10
306.7149624737431
 20
68.90642361504388
 30
0.0
 10
306.7122000752171
 20
68.64035716558223
 30
0.0
 10
306.7012992035446
 20
68.30455664133669
 30
0.0
 10
306.698788678662
 20
68.07136854383009
 30
0.0
 10
306.7035782086489
 20
67.95128824075933
 30
0.0
 10
306.7300084441175
 20
67.94992942162048
 30
0.0
 10
306.7385016684574
 20
67.94949277186768
 30
0.0
  0
LINE
  5
56
330
1F
100
AcDbEntity
  8
0
  6
Continuous
 62
     7
370
    15
100
AcDbLine
 10
306.7155538802
 20
82.652394016
 30
0.0
 11
306.7155538802
 21
68.9937512472
 31
0.0
  0
LINE
  5
57
330
1F
100
AcDbEntity
  8
0
  6
Continuous
 62
     7
370
    15
100
AcDbLine
 10
305.1919101481
 20
86.5902791812
 30
0.0
 11
306.6792844539
 21
84.1101299121
 31
0.0
  0
LINE
  5
58
330
1F
100
AcDbEntity
  8
0
  6
Continuous
 62
     7
370
    15
100
AcDbLine
 10
309.1560362582
 20
85.8132432296
 30
0.0
 11
307.7647446399
 21
88.1332050159
 31
0.0
  0
LINE
  5
59
330
1F
100
AcDbEntity
  8
0
  6
Continuous
 62
     7
370
    15
100
AcDbLine
 10
306.7437766795
 20
67.817408879
 30
0.0
 11
305.1746844058
 21
65.2009884908
 31
0.0
  0
LINE
  5
5A
330
1F
100
AcDbEntity
  8
0
  6
Continuous
 62
     7
370
    15
100
AcDbLine
 10
307.7475188975
 20
63.6580626562
 30
0.0
 11
309.1560362582
 21
66.0067538812
 31
0.0
  0
LINE
  5
5B
330
1F
100
AcDbEntity
  8
0
  6
Continuous
 62
     7
370
    15
100
AcDbLine
 10
307.7846227889
 20
88.0976955488
 30
0.0
 11
307.6946793799
 21
88.2114808157
 31
0.0
  0
SPLINE
  5
5C
330
1F
100
AcDbEntity
  8
0
  6
Continuous
 62
     7
370
    15
100
AcDbSpline
210
0.0
220
0.0
230
1.0
 70
     8
 71
     3
 72
    20
 73
    16
 74
     0
 42
0.00000001
 43
0.00000001
 40
0.0
 40
0.0
 40
0.0
 40
0.0
 40
0.0337782405775034
 40
0.1101043005836477
 40
0.1739275687961039
 40
0.2252750761319386
 40
0.2665358011683992
 40
0.3037739527153129
 40
0.3388583768155924
 40
0.3726401412993329
 40
0.413918648772766
 40
0.6259829337212964
 40
0.8390270399522788
 40
0.9659476637516462
 40
1.0
 40
1.0
 40
1.0
 40
1.0
 10
307.582354426865
 20
88.35354848647492
 30
0.0
 10
307.5417045893215
 20
88.40973216759492
 30
0.0
 10
307.4092014791811
 20
88.59286973805935
 30
0.0
 10
307.0993232916001
 20
88.77005178083891
 30
0.0
 10
306.7120499895669
 20
88.89299590176635
 30
0.0
 10
306.3421960622834
 20
88.9078003131551
 30
0.0
 10
306.007881236137
 20
88.85720616731787
 30
0.0
 10
305.7333998515181
 20
88.75615748089943
 30
0.0
 10
305.5058960260492
 20
88.62143477982568
 30
0.0
 10
305.2998666053063
 20
88.44526094323079
 30
0.0
 10
304.95530212018
 20
88.00278052726065
 30
0.0
 10
304.7742245240847
 20
87.31608818471312
 30
0.0
 10
304.6245034946639
 20
86.13526680909767
 30
0.0
 10
304.5692984618461
 20
85.23062471908732
 30
0.0
 10
304.5627645927747
 20
84.81603664686848
 30
0.0
 10
304.5613824133915
 20
84.72833438659089
 30
0.0
  0
SPLINE
  5
5D
330
1F
100
AcDbEntity
  8
0
  6
Continuous
 62
     7
370
    15
100
AcDbSpline
210
0.0
220
0.0
230
1.0
 70
     8
 71
     3
 72
    19
 73
    15
 74
     0
 42
0.00000001
 43
0.00000001
 40
0.0
 40
0.0
 40
0.0
 40
0.0
 40
0.0102730642061893
 40
0.1295979022672064
 40
0.3268134704991493
 40
0.5525076129587677
 40
0.5858528710512171
 40
0.6186003406386424
 40
0.6529084856690517
 40
0.6960090804924961
 40
0.7523131382687676
 40
0.8223133472374703
 40
0.9054606696218666
 40
1.0
 40
1.0
 40
1.0
 40
1.0
 10
304.5585213904423
 20
67.10999115252869
 30
0.0
 10
304.5588445530381
 20
67.08279372595361
 30
0.0
 10
304.5629213497611
 20
66.73968972499975
 30
0.0
 10
304.602737036367
 20
65.91970898714288
 30
0.0
 10
304.7376962351248
 20
64.69726864381961
 30
0.0
 10
304.8281508426535
 20
64.05392226387333
 30
0.0
 10
305.1789790572043
 20
63.51381636485942
 30
0.0
 10
305.3482112120432
 20
63.32596720427757
 30
0.0
 10
305.5849337986035
 20
63.14948622730776
 30
0.0
 10
305.8985688430041
 20
62.99602205125151
 30
0.0
 10
306.3020405681177
 20
62.8942354914572
 30
0.0
 10
306.7878982620837
 20
62.91739613148942
 30
0.0
 10
307.317652683172
 20
63.12771964580044
 30
0.0
 10
307.5828858480215
 20
63.44953899040556
 30
0.0
 10
307.7240048651738
 20
63.62076504969971
 30
0.0
  0
LINE
  5
5E
330
1F
100
AcDbEntity
  8
0
  6
Continuous
 62
     7
370
    15
100
AcDbLine
 10
301.2512086635
 20
79.8099975183
 30
0.0
 11
301.2512086635
 21
71.2099860504
 31
0.0
  0
LINE
  5
5F
330
1F
100
AcDbEntity
  8
0
  6
Continuous
 62
     7
370
    15
100
AcDbLine
 10
301.856016994
 20
68.7099884346
 30
0.0
 11
301.856016994
 21
67.9102431133
 31
0.0
  0
LINE
  5
60
330
1F
100
AcDbEntity
  8
0
  6
Continuous
 62
     7
370
    15
100
AcDbLine
 10
301.856016994
 20
83.9097390964
 30
0.0
 11
301.856016994
 21
83.1099937751
 31
0.0
  0
LINE
  5
61
330
1F
100
AcDbEntity
  8
0
  6
Continuous
 62
     7
370
    15
100
AcDbLine
 10
303.2560406928
 20
84.2099974945
 30
0.0
 11
303.2560406928
 21
83.9099924161
 31
0.0
  0
ARC
  5
62
330
1F
100
AcDbEntity
  8
0
  6
Continuous
 62
     7
370
    15
100
AcDbCircle
 10
305.4560267692
 20
81.1028506319
 30
0.0
 40
3.807142857143189
100
AcDbArc
 50
77.9663271603
 51
90.0
  0
ARC
  5
63
330
1F
100
AcDbEntity
  8
0
  6
Continuous
 62
     7
370
    15
100
AcDbCircle
 10
305.4560267692
 20
81.1028506319
 30
0.0
 40
3.807142857143277
100
AcDbArc
 50
90.0
 51
125.3002484399
  0
LINE
  5
64
330
1F
100
AcDbEntity
  8
0
  6
Continuous
 62
     7
370
    15
100
AcDbLine
 10
303.3560274844
 20
67.5099979236
 30
0.0
 11
303.3560274844
 21
67.1099911525
 31
0.0
  0
ARC
  5
65
330
1F
100
AcDbEntity
  8
0
  6
Continuous
 62
     7
370
    15
100
AcDbCircle
 10
303.5560267692
 20
67.9099934891
 30
0.0
 40
0.4000000000007731
100
AcDbArc
 50
270.0
 51
0.0
  0
LINE
  5
66
330
1F
100
AcDbEntity
  8
0
  6
Continuous
 62
     7
370
    15
100
AcDbLine
 10
303.9560376411
 20
83.1099937751
 30
0.0
 11
303.9560376411
 21
82.6599936082
 31
0.0
  0
LINE
  5
67
330
1F
100
AcDbEntity
  8
0
  6
Continuous
 62
     7
370
    15
100
AcDbLine
 10
303.9560376411
 20
69.1599886014
 30
0.0
 11
303.9560376411
 21
68.7099884346
 31
0.0
  0
SPLINE
  5
68
330
1F
100
AcDbEntity
  8
0
  6
Continuous
 62
     7
370
    15
100
AcDbSpline
210
0.0
220
0.0
230
1.0
 70
     8
 71
     3
 72
    11
 73
     7
 74
     0
 42
0.00000001
 43
0.00000001
 40
0.0
 40
0.0
 40
0.0
 40
0.0
 40
0.2262262702538957
 40
0.4679469806289493
 40
0.7254864912811284
 40
1.0
 40
1.0
 40
1.0
 40
1.0
 10
306.6765426402134
 20
454.1404287412204
 30
0.0
 10
306.6793633786294
 20
454.1175295657487
 30
0.0
 10
306.685198050365
 20
454.0701628297422
 30
0.0
 10
306.7019648064897
 20
453.7453824539812
 30
0.0
 10
306.7155600077189
 20
453.2448836148819
 30
0.0
 10
306.7161064220157
 20
452.8210619008912
 30
0.0
 10
306.7163883452458
 20
452.6023904874362
 30
0.0
  0
SPLINE
  5
69
330
1F
100
AcDbEntity
  8
0
  6
Continuous
 62
     7
370
    15
100
AcDbSpline
210
0.0
220
0.0
230
1.0
 70
     8
 71
     3
 72
    12
 73
     8
 74
     0
 42
0.00000001
 43
0.00000001
 40
0.0
 40
0.0
 40
0.0
 40
0.0
 40
0.248946245326258
 40
0.4822936287519815
 40
0.699811415192867
 40
0.9035372363555159
 40
1.0
 40
1.0
 40
1.0
 40
1.0
 10
306.7163883452458
 20
439.0437643125094
 30
0.0
 10
306.7149624781882
 20
438.9064286346876
 30
0.0
 10
306.7122000882736
 20
438.6403626720257
 30
0.0
 10
306.7012991564732
 20
438.3045587488099
 30
0.0
 10
306.6987888255803
 20
438.0713811712071
 30
0.0
 10
306.7035778417307
 20
437.9512673326964
 30
0.0
 10
306.7300084442285
 20
437.9499279410741
 30
0.0
 10
306.7385016684574
 20
437.9494975402392
 30
0.0
  0
LINE
  5
6A
330
1F
100
AcDbEntity
  8
0
  6
Continuous
 62
     7
370
    15
100
AcDbLine
 10
306.7155538802
 20
452.6523838832
 30
0.0
 11
306.7155538802
 21
438.9937560155
 31
0.0
  0
LINE
  5
6B
330
1F
100
AcDbEntity
  8
0
  6
Continuous
 62
     7
370
    15
100
AcDbLine
 10
305.1919101481
 20
456.5902839496
 30
0.0
 11
306.6792844539
 21
454.1101346805
 31
0.0
  0
LINE
  5
6C
330
1F
100
AcDbEntity
  8
0
  6
Continuous
 62
     7
370
    15
100
AcDbLine
 10
309.1560362582
 20
455.8132330968
 30
0.0
 11
307.7647446399
 21
458.1332097843
 31
0.0
  0
LINE
  5
6D
330
1F
100
AcDbEntity
  8
0
  6
Continuous
 62
     7
370
    15
100
AcDbLine
 10
306.7437766795
 20
437.8174136474
 30
0.0
 11
305.1746844058
 21
435.2009932592
 31
0.0
  0
LINE
  5
6E
330
1F
100
AcDbEntity
  8
0
  6
Continuous
 62
     7
370
    15
100
AcDbLine
 10
307.7475188975
 20
433.6580674245
 30
0.0
 11
309.1560362582
 21
436.0067437484
 31
0.0
  0
LINE
  5
6F
330
1F
100
AcDbEntity
  8
0
  6
Continuous
 62
     7
370
    15
100
AcDbLine
 10
307.7846227889
 20
458.0977003171
 30
0.0
 11
307.6946793799
 21
458.211485584
 31
0.0
  0
SPLINE
  5
70
330
1F
100
AcDbEntity
  8
0
  6
Continuous
 62
     7
370
    15
100
AcDbSpline
210
0.0
220
0.0
230
1.0
 70
     8
 71
     3
 72
    20
 73
    16
 74
     0
 42
0.00000001
 43
0.00000001
 40
0.0
 40
0.0
 40
0.0
 40
0.0
 40
0.0337781961867609
 40
0.1101041558866011
 40
0.1739273402236921
 40
0.2252747800795772
 40
0.266535754440379
 40
0.303773201293483
 40
0.3388575792864577
 40
0.3726392993748248
 40
0.4139177526008025
 40
0.6259817588583504
 40
0.8390271471670725
 40
0.9659457882622028
 40
0.9999999999999999
 40
0.9999999999999999
 40
0.9999999999999999
 40
0.9999999999999999
 10
307.582354426865
 20
458.3535532548465
 30
0.0
 10
307.5417045950558
 20
458.4097369077996
 30
0.0
 10
307.4092015036078
 20
458.5928743864507
 30
0.0
 10
307.0993230568102
 20
458.7700577024643
 30
0.0
 10
306.7120506368678
 20
458.8929974906874
 30
0.0
 10
306.3421935953351
 20
458.9078137023805
 30
0.0
 10
306.0078862800142
 20
458.8571866099784
 30
0.0
 10
305.7333966266248
 20
458.7561670714771
 30
0.0
 10
305.5058964774066
 20
458.6214381448036
 30
0.0
 10
305.2998664601924
 20
458.4452661632554
 30
0.0
 10
304.9553023939756
 20
458.0027844379673
 30
0.0
 10
304.774223164449
 20
457.3160931374497
 30
0.0
 10
304.6245051446642
 20
456.1352619810939
 30
0.0
 10
304.5692978047128
 20
455.2306203713043
 30
0.0
 10
304.5627645416241
 20
454.8160315593395
 30
0.0
 10
304.5613824133915
 20
454.7283242538012
 30
0.0
  0
SPLINE
  5
71
330
1F
100
AcDbEntity
  8
0
  6
Continuous
 62
     7
370
    15
100
AcDbSpline
210
0.0
220
0.0
230
1.0
 70
     8
 71
     3
 72
    19
 73
    15
 74
     0
 42
0.00000001
 43
0.00000001
 40
0.0
 40
0.0
 40
0.0
 40
0.0
 40
0.0102730591620062
 40
0.1295978386332668
 40
0.3268133100302814
 40
0.5525085352849364
 40
0.5858524794073283
 40
0.618601222407811
 40
0.6529082330224929
 40
0.6960088066830897
 40
0.7523132598856345
 40
0.8223134344834948
 40
0.905460716041677
 40
1.0
 40
1.0
 40
1.0
 40
1.0
 10
304.5585213904423
 20
437.1099959209002
 30
0.0
 10
304.5588445541751
 20
437.0827984962477
 30
0.0
 10
304.5629213652434
 20
436.7396945195474
 30
0.0
 10
304.6027357189367
 20
435.9197115281384
 30
0.0
 10
304.7377050549522
 20
434.697285130629
 30
0.0
 10
304.8281281387452
 20
434.0538868326594
 30
0.0
 10
305.1789870785907
 20
433.5138221763573
 30
0.0
 10
305.3482015217906
 20
433.325954576712
 30
0.0
 10
305.5849403439661
 20
433.1494945303961
 30
0.0
 10
305.8985690496419
 20
432.9960280305326
 30
0.0
 10
306.302038748076
 20
432.8942194845498
 30
0.0
 10
306.7878985559034
 20
432.9173880402851
 30
0.0
 10
307.3176525919343
 20
433.1277088790516
 30
0.0
 10
307.5828858163362
 20
433.449528637453
 30
0.0
 10
307.7240048651737
 20
433.6207549169101
 30
0.0
  0
LINE
  5
72
330
1F
100
AcDbEntity
  8
0
  6
Continuous
 62
     7
370
    15
100
AcDbLine
 10
301.2512086635
 20
449.8099873855
 30
0.0
 11
301.2512086635
 21
441.2099908187
 31
0.0
  0
LINE
  5
73
330
1F
100
AcDbEntity
  8
0
  6
Continuous
 62
     7
370
    15
100
AcDbLine
 10
301.856016994
 20
438.7099932029
 30
0.0
 11
301.856016994
 21
437.9102478817
 31
0.0
  0
LINE
  5
74
330
1F
100
AcDbEntity
  8
0
  6
Continuous
 62
     7
370
    15
100
AcDbLine
 10
301.856016994
 20
453.9097438648
 30
0.0
 11
301.856016994
 21
453.1099985435
 31
0.0
  0
ARC
  5
75
330
1F
100
AcDbEntity
  8
0
  6
Continuous
 62
     7
370
    15
100
AcDbCircle
 10
305.4560267692
 20
451.1028506319
 30
0.0
 40
3.807142857143203
100
AcDbArc
 50
77.9663271603
 51
90.0
  0
ARC
  5
76
330
1F
100
AcDbEntity
  8
0
  6
Continuous
 62
     7
370
    15
100
AcDbCircle
 10
305.4560267692
 20
451.1028506319
 30
0.0
 40
3.807142857143289
100
AcDbArc
 50
90.0
 51
125.3002484399
  0
LINE
  5
77
330
1F
100
AcDbEntity
  8
0
  6
Continuous
 62
     7
370
    15
100
AcDbLine
 10
303.2560406928
 20
454.2099873617
 30
0.0
 11
303.2560406928
 21
453.9099971845
 31
0.0
  0
LINE
  5
78
330
1F
100
AcDbEntity
  8
0
  6
Continuous
 62
     7
370
    15
100
AcDbLine
 10
303.3560274844
 20
437.5099877908
 30
0.0
 11
303.3560274844
 21
437.1099959209
 31
0.0
  0
ARC
  5
79
330
1F
100
AcDbEntity
  8
0
  6
Continuous
 62
     7
370
    15
100
AcDbCircle
 10
303.5560267692
 20
437.9099934891
 30
0.0
 40
0.4000000000007731
100
AcDbArc
 50
270.0
 51
0.0
  0
LINE
  5
7A
330
1F
100
AcDbEntity
  8
0
  6
Continuous
 62
     7
370
    15
100
AcDbLine
 10
303.9560376411
 20
453.1099985435
 30
0.0
 11
303.9560376411
 21
452.6599983766
 31
0.0
  0
LINE
  5
7B
330
1F
100
AcDbEntity
  8
0
  6
Continuous
 62
     7
370
    15
100
AcDbLine
 10
303.9560376411
 20
439.1599933698
 30
0.0
 11
303.9560376411
 21
438.7099932029
 31
0.0
  0
LINE
  5
7C
330
1F
100
AcDbEntity
  8
0
  6
Continuous
 62
     7
370
    15
100
AcDbLine
 10
821.8560277228
 20
30.9099893167
 30
0.0
 11
821.8560277228
 21
65.9100006416
 31
0.0
  0
LINE
  5
7D
330
1F
100
AcDbEntity
  8
0
  6
Continuous
 62
     7
370
    15
100
AcDbLine
 10
821.8560277228
 20
455.9099863365
 30
0.0
 11
821.8560277228
 21
490.9099976614
 31
0.0
  0
LINE
  5
7E
330
1F
100
AcDbEntity
  8
0
  6
Continuous
 62
     7
370
    15
100
AcDbLine
 10
818.8560365443
 20
65.9100006416
 30
0.0
 11
818.8560365443
 21
66.909987767
 31
0.0
  0
LINE
  5
7F
330
1F
100
AcDbEntity
  8
0
  6
Continuous
 62
     7
370
    15
100
AcDbLine
 10
818.8560365443
 20
101.9099990919
 30
0.0
 11
818.8560365443
 21
102.9099862173
 31
0.0
  0
LINE
  5
80
330
1F
100
AcDbEntity
  8
0
  6
Continuous
 62
     7
370
    15
100
AcDbLine
 10
813.8560413127
 20
102.9099862173
 30
0.0
 11
813.8560413127
 21
101.9099990919
 31
0.0
  0
LINE
  5
81
330
1F
100
AcDbEntity
  8
0
  6
Continuous
 62
     7
370
    15
100
AcDbLine
 10
813.8560413127
 20
66.909987767
 30
0.0
 11
813.8560413127
 21
65.9100006416
 31
0.0
  0
LINE
  5
82
330
1F
100
AcDbEntity
  8
0
  6
Continuous
 62
     7
370
    15
100
AcDbLine
 10
813.8560413127
 20
455.9099863365
 30
0.0
 11
813.8560413127
 21
454.9099992111
 31
0.0
  0
LINE
  5
83
330
1F
100
AcDbEntity
  8
0
  6
Continuous
 62
     7
370
    15
100
AcDbLine
 10
813.8560413127
 20
419.9099878862
 30
0.0
 11
813.8560413127
 21
418.9100007608
 31
0.0
  0
LINE
  5
84
330
1F
100
AcDbEntity
  8
0
  6
Continuous
 62
     7
370
    15
100
AcDbLine
 10
818.8560365443
 20
418.9100007608
 30
0.0
 11
818.8560365443
 21
419.9099878862
 31
0.0
  0
LINE
  5
85
330
1F
100
AcDbEntity
  8
0
  6
Continuous
 62
     7
370
    15
100
AcDbLine
 10
818.8560365443
 20
454.9099992111
 30
0.0
 11
818.8560365443
 21
455.9099863365
 31
0.0
  0
LINE
  5
86
330
1F
100
AcDbEntity
  8
0
  6
Continuous
 62
     7
370
    15
100
AcDbLine
 10
302.0560203795
 20
69.4528113201
 30
0.0
 11
302.0560203795
 21
69.1599886014
 31
0.0
  0
LINE
  5
87
330
1F
100
AcDbEntity
  8
0
  6
Continuous
 62
     7
370
    15
100
AcDbLine
 10
302.0560203795
 20
82.6599936082
 30
0.0
 11
302.0560203795
 21
82.3671857908
 31
0.0
  0
LINE
  5
88
330
1F
100
AcDbEntity
  8
0
  6
Continuous
 62
     7
370
    15
100
AcDbLine
 10
302.0560203795
 20
439.4528011873
 30
0.0
 11
302.0560203795
 21
439.1599933698
 31
0.0
  0
LINE
  5
89
330
1F
100
AcDbEntity
  8
0
  6
Continuous
 62
     7
370
    15
100
AcDbLine
 10
302.0560203795
 20
452.6599983766
 30
0.0
 11
302.0560203795
 21
452.367175658
 31
0.0
  0
ARC
  5
8A
330
1F
100
AcDbEntity
  8
0
  6
Continuous
 62
     7
370
    15
100
AcDbCircle
 10
325.3560267692
 20
25.909993489
 30
0.0
 40
15.00000000000006
100
AcDbArc
 50
180.0
 51
270.0
  0
LINE
  5
8B
330
1F
100
AcDbEntity
  8
0
  6
Continuous
 62
     7
370
    15
100
AcDbLine
 10
310.3560267692
 20
25.9099940851
 30
0.0
 11
325.3560273652
 21
25.9099940851
 31
0.0
  0
LINE
  5
8C
330
1F
100
AcDbEntity
  8
0
  6
Continuous
 62
     7
370
    15
100
AcDbLine
 10
325.3560273652
 20
10.909993489
 30
0.0
 11
325.3560273652
 21
25.9099940851
 31
0.0
  0
LINE
  5
8D
330
1F
100
AcDbEntity
  8
0
  6
Continuous
 62
     7
370
    15
100
AcDbLine
 10
325.3560273652
 20
10.909993489
 30
0.0
 11
795.3560261731
 21
10.909993489
 31
0.0
  0
LINE
  5
8E
330
1F
100
AcDbEntity
  8
0
  6
Continuous
 62
     7
370
    15
100
AcDbLine
 10
325.3560273652
 20
25.9099940851
 30
0.0
 11
795.3560261731
 21
25.9099940851
 31
0.0
  0
LINE
  5
8F
330
1F
100
AcDbEntity
  8
0
  6
Continuous
 62
     7
370
    15
100
AcDbLine
 10
795.3560261731
 20
25.9099940851
 30
0.0
 11
795.3560261731
 21
10.909993489
 31
0.0
  0
LINE
  5
90
330
1F
100
AcDbEntity
  8
0
  6
Continuous
 62
     7
370
    15
100
AcDbLine
 10
325.3560273652
 20
25.9099940851
 30
0.0
 11
325.3560273652
 21
495.909992893
 31
0.0
  0
LINE
  5
91
330
1F
100
AcDbEntity
  8
0
  6
Continuous
 62
     7
370
    15
100
AcDbLine
 10
310.3560267692
 20
65.9225027158
 30
0.0
 11
310.3560267692
 21
25.9099940851
 31
0.0
  0
LINE
  5
92
330
1F
100
AcDbEntity
  8
0
  6
Continuous
 62
     7
370
    15
100
AcDbLine
 10
310.3560267692
 20
85.8974794939
 30
0.0
 11
310.3560267692
 21
435.9225074842
 31
0.0
  0
LINE
  5
93
330
1F
100
AcDbEntity
  8
0
  6
Continuous
 62
     7
370
    15
100
AcDbLine
 10
310.3560267692
 20
455.8974842622
 30
0.0
 11
310.3560267692
 21
495.909992893
 31
0.0
  0
LINE
  5
94
330
1F
100
AcDbEntity
  8
0
  6
Continuous
 62
     7
370
    15
100
AcDbLine
 10
310.3560267692
 20
495.909992893
 30
0.0
 11
325.3560273652
 21
495.909992893
 31
0.0
  0
LINE
  5
95
330
1F
100
AcDbEntity
  8
0
  6
Continuous
 62
     7
370
    15
100
AcDbLine
 10
795.3560261731
 20
25.9099940851
 30
0.0
 11
795.3560261731
 21
495.909992893
 31
0.0
  0
LINE
  5
96
330
1F
100
AcDbEntity
  8
0
  6
Continuous
 62
     7
370
    15
100
AcDbLine
 10
325.3560273652
 20
495.909992893
 30
0.0
 11
795.3560261731
 21
495.909992893
 31
0.0
  0
LINE
  5
97
330
1F
100
AcDbEntity
  8
0
  6
Continuous
 62
     7
370
    15
100
AcDbLine
 10
330.3560225968
 20
490.9099976614
 30
0.0
 11
790.3560309415
 21
490.9099976614
 31
0.0
  0
LINE
  5
98
330
1F
100
AcDbEntity
  8
0
  6
Continuous
 62
     7
370
    15
100
AcDbLine
 10
790.3560309415
 20
30.9099893167
 30
0.0
 11
790.3560309415
 21
490.9099976614
 31
0.0
  0
LINE
  5
99
330
1F
100
AcDbEntity
  8
0
  6
Continuous
 62
     7
370
    15
100
AcDbLine
 10
790.3560309415
 20
30.9099893167
 30
0.0
 11
330.3560225968
 21
30.9099893167
 31
0.0
  0
LINE
  5
9A
330
1F
100
AcDbEntity
  8
0
  6
Continuous
 62
     7
370
    15
100
AcDbLine
 10
330.3560225968
 20
30.9099893167
 30
0.0
 11
330.3560225968
 21
490.9099976614
 31
0.0
  0
LINE
  5
9B
330
1F
100
AcDbEntity
  8
0
  6
Continuous
 62
     7
370
    15
100
AcDbLine
 10
795.3560261731
 20
25.9099940851
 30
0.0
 11
810.3560267692
 21
25.9099940851
 31
0.0
  0
ARC
  5
9C
330
1F
100
AcDbEntity
  8
0
  6
Continuous
 62
     7
370
    15
100
AcDbCircle
 10
795.3560267692
 20
25.909993489
 30
0.0
 40
15.0
100
AcDbArc
 50
270.0
 51
0.0
  0
LINE
  5
9D
330
1F
100
AcDbEntity
  8
0
  6
Continuous
 62
     7
370
    15
100
AcDbLine
 10
810.3560267692
 20
495.909992893
 30
0.0
 11
795.3560261731
 21
495.909992893
 31
0.0
  0
LINE
  5
9E
330
1F
100
AcDbEntity
  8
0
  6
Continuous
 62
     7
370
    15
100
AcDbLine
 10
810.3560267692
 20
25.9099940851
 30
0.0
 11
810.3560267692
 21
495.909992893
 31
0.0
  0
ARC
  5
9F
330
1F
100
AcDbEntity
  8
0
  6
Continuous
 62
     7
370
    15
100
AcDbCircle
 10
325.3560267692
 20
495.909993489
 30
0.0
 40
15.0
100
AcDbArc
 50
90.0
 51
180.0
  0
LINE
  5
A0
330
1F
100
AcDbEntity
  8
0
  6
Continuous
 62
     7
370
    15
100
AcDbLine
 10
325.3560273652
 20
495.909992893
 30
0.0
 11
325.3560273652
 21
510.909993489
 31
0.0
  0
LINE
  5
A1
330
1F
100
AcDbEntity
  8
0
  6
Continuous
 62
     7
370
    15
100
AcDbLine
 10
325.3560273652
 20
510.909993489
 30
0.0
 11
795.3560261731
 21
510.909993489
 31
0.0
  0
LINE
  5
A2
330
1F
100
AcDbEntity
  8
0
  6
Continuous
 62
     7
370
    15
100
AcDbLine
 10
795.3560261731
 20
510.909993489
 30
0.0
 11
795.3560261731
 21
495.909992893
 31
0.0
  0
ARC
  5
A3
330
1F
100
AcDbEntity
  8
0
  6
Continuous
 62
     7
370
    15
100
AcDbCircle
 10
795.3560267692
 20
495.909993489
 30
0.0
 40
15.00000000000011
100
AcDbArc
 50
0.0
 51
90.0
  0
LINE
  5
A4
330
1F
100
AcDbEntity
  8
0
  6
Continuous
 62
     7
370
    15
100
AcDbLine
 10
309.1560362582
 20
86.9444797828
 30
0.0
 11
310.3560267692
 21
86.9444797828
 31
0.0
  0
LINE
  5
A5
330
1F
100
AcDbEntity
  8
0
  6
Continuous
 62
     7
370
    15
100
AcDbLine
 10
309.1560362582
 20
64.875517328
 30
0.0
 11
310.3560267692
 21
64.875517328
 31
0.0
  0
LINE
  5
A6
330
1F
100
AcDbEntity
  8
0
  6
Continuous
 62
     7
370
    15
100
AcDbLine
 10
309.1560362582
 20
64.875517328
 30
0.0
 11
309.1560362582
 21
86.9444797828
 31
0.0
  0
LINE
  5
A7
330
1F
100
AcDbEntity
  8
0
  6
Continuous
 62
     7
370
    15
100
AcDbLine
 10
310.3560267692
 20
85.8974794939
 30
0.0
 11
310.3560267692
 21
65.9225027158
 31
0.0
  0
LINE
  5
A8
330
1F
100
AcDbEntity
  8
0
  6
Continuous
 62
     7
370
    15
100
AcDbLine
 10
309.1560362582
 20
456.94446965
 30
0.0
 11
310.3560267692
 21
456.94446965
 31
0.0
  0
LINE
  5
A9
330
1F
100
AcDbEntity
  8
0
  6
Continuous
 62
     7
370
    15
100
AcDbLine
 10
309.1560362582
 20
434.8755071952
 30
0.0
 11
310.3560267692
 21
434.8755071952
 31
0.0
  0
LINE
  5
AA
330
1F
100
AcDbEntity
  8
0
  6
Continuous
 62
     7
370
    15
100
AcDbLine
 10
309.1560362582
 20
434.8755071952
 30
0.0
 11
309.1560362582
 21
456.94446965
 31
0.0
  0
LINE
  5
AB
330
1F
100
AcDbEntity
  8
0
  6
Continuous
 62
     7
370
    15
100
AcDbLine
 10
310.3560267692
 20
455.8974842622
 30
0.0
 11
310.3560267692
 21
435.9225074842
 31
0.0
  0
LINE
  5
AC
330
1F
100
AcDbEntity
  8
0
  6
Continuous
 62
     7
370
    15
100
AcDbLine
 10
309.0560196643
 20
67.9099897935
 30
0.0
 11
309.0560196643
 21
73.9099870517
 31
0.0
  0
LINE
  5
AD
330
1F
100
AcDbEntity
  8
0
  6
Continuous
 62
     7
370
    15
100
AcDbLine
 10
309.0560196643
 20
80.9099863365
 30
0.0
 11
309.0560196643
 21
83.9099924161
 31
0.0
  0
LINE
  5
AE
330
1F
100
AcDbEntity
  8
0
  6
Continuous
 62
     7
370
    15
100
AcDbLine
 10
309.0560196643
 20
77.909995158
 30
0.0
 11
309.0560196643
 21
80.9099863365
 31
0.0
  0
LINE
  5
AF
330
1F
100
AcDbEntity
  8
0
  6
Continuous
 62
     7
370
    15
100
AcDbLine
 10
309.0560196643
 20
437.9099945619
 30
0.0
 11
309.0560196643
 21
443.9099918201
 31
0.0
  0
LINE
  5
B0
330
1F
100
AcDbEntity
  8
0
  6
Continuous
 62
     7
370
    15
100
AcDbLine
 10
309.0560196643
 20
450.9099911048
 30
0.0
 11
309.0560196643
 21
453.9099971845
 31
0.0
  0
LINE
  5
B1
330
1F
100
AcDbEntity
  8
0
  6
Continuous
 62
     7
370
    15
100
AcDbLine
 10
309.0560196643
 20
447.9099999263
 30
0.0
 11
309.0560196643
 21
450.9099911048
 31
0.0
  0
LINE
  5
B2
330
1F
100
AcDbEntity
  8
0
  6
Continuous
 62
     7
370
    15
100
AcDbLine
 10
309.1560362582
 20
86.9444797828
 30
0.0
 11
309.1560362582
 21
87.4099920585
 31
0.0
  0
LINE
  5
B3
330
1F
100
AcDbEntity
  8
0
  6
Continuous
 62
     7
370
    15
100
AcDbLine
 10
309.1560362582
 20
456.94446965
 30
0.0
 11
309.1560362582
 21
457.4099968269
 31
0.0
  0
LINE
  5
B4
330
1F
100
AcDbEntity
  8
0
  6
Continuous
 62
     7
370
    15
100
AcDbLine
 10
309.1560362582
 20
64.4099901512
 30
0.0
 11
309.1560362582
 21
64.875517328
 31
0.0
  0
LINE
  5
B5
330
1F
100
AcDbEntity
  8
0
  6
Continuous
 62
     7
370
    15
100
AcDbLine
 10
309.1560362582
 20
434.4099949195
 30
0.0
 11
309.1560362582
 21
434.8755071952
 31
0.0
  0
LINE
  5
B6
330
1F
100
AcDbEntity
  8
0
  6
Continuous
 62
     7
370
    15
100
AcDbLine
 10
811.2573980098
 20
101.9099990919
 30
0.0
 11
811.2573980098
 21
66.909987767
 31
0.0
  0
LINE
  5
B7
330
1F
100
AcDbEntity
  8
0
  6
Continuous
 62
     7
370
    15
100
AcDbLine
 10
811.2573980098
 20
101.9099990919
 30
0.0
 11
821.8560277228
 21
101.9099990919
 31
0.0
  0
LINE
  5
B8
330
1F
100
AcDbEntity
  8
0
  6
Continuous
 62
     7
370
    15
100
AcDbLine
 10
811.2573980098
 20
66.909987767
 30
0.0
 11
821.8560277228
 21
66.909987767
 31
0.0
  0
LINE
  5
B9
330
1F
100
AcDbEntity
  8
0
  6
Continuous
 62
     7
370
    15
100
AcDbLine
 10
811.2573980098
 20
419.9099878862
 30
0.0
 11
821.8560277228
 21
419.9099878862
 31
0.0
  0
LINE
  5
BA
330
1F
100
AcDbEntity
  8
0
  6
Continuous
 62
     7
370
    15
100
AcDbLine
 10
811.2573980098
 20
454.9099992111
 30
0.0
 11
811.2573980098
 21
419.9099878862
 31
0.0
  0
LINE
  5
BB
330
1F
100
AcDbEntity
  8
0
  6
Continuous
 62
     7
370
    15
100
AcDbLine
 10
811.2573980098
 20
454.9099992111
 30
0.0
 11
821.8560277228
 21
454.9099992111
 31
0.0
  0
LINE
  5
BC
330
1F
100
AcDbEntity
  8
0
  6
Continuous
 62
     7
370
    15
100
AcDbLine
 10
810.7938824897
 20
101.9099990919
 30
0.0
 11
810.7938824897
 21
66.909987767
 31
0.0
  0
LINE
  5
BD
330
1F
100
AcDbEntity
  8
0
  6
Continuous
 62
     7
370
    15
100
AcDbLine
 10
810.7938824897
 20
101.9099990919
 30
0.0
 11
811.2573980098
 21
101.9099990919
 31
0.0
  0
LINE
  5
BE
330
1F
100
AcDbEntity
  8
0
  6
Continuous
 62
     7
370
    15
100
AcDbLine
 10
810.7938824897
 20
66.909987767
 30
0.0
 11
811.2573980098
 21
66.909987767
 31
0.0
  0
LINE
  5
BF
330
1F
100
AcDbEntity
  8
0
  6
Continuous
 62
     7
370
    15
100
AcDbLine
 10
810.7938824897
 20
454.9099992111
 30
0.0
 11
810.7938824897
 21
419.9099878862
 31
0.0
  0
LINE
  5
C0
330
1F
100
AcDbEntity
  8
0
  6
Continuous
 62
     7
370
    15
100
AcDbLine
 10
810.7938824897
 20
454.9099992111
 30
0.0
 11
811.2573980098
 21
454.9099992111
 31
0.0
  0
LINE
  5
C1
330
1F
100
AcDbEntity
  8
0
  6
Continuous
 62
     7
370
    15
100
AcDbLine
 10
810.7938824897
 20
419.9099878862
 30
0.0
 11
811.2573980098
 21
419.9099878862
 31
0.0
  0
LINE
  5
C2
330
1F
100
AcDbEntity
  8
0
  6
Continuous
 62
     7
370
    15
100
AcDbLine
 10
810.3560267692
 20
101.9099990919
 30
0.0
 11
810.7938824897
 21
101.9099990919
 31
0.0
  0
LINE
  5
C3
330
1F
100
AcDbEntity
  8
0
  6
Continuous
 62
     7
370
    15
100
AcDbLine
 10
810.3560267692
 20
66.909987767
 30
0.0
 11
810.7938824897
 21
66.909987767
 31
0.0
  0
LINE
  5
C4
330
1F
100
AcDbEntity
  8
0
  6
Continuous
 62
     7
370
    15
100
AcDbLine
 10
810.3560267692
 20
454.9099992111
 30
0.0
 11
810.7938824897
 21
454.9099992111
 31
0.0
  0
LINE
  5
C5
330
1F
100
AcDbEntity
  8
0
  6
Continuous
 62
     7
370
    15
100
AcDbLine
 10
810.3560267692
 20
419.9099878862
 30
0.0
 11
810.7938824897
 21
419.9099878862
 31
0.0
  0
LINE
  5
C6
330
1F
100
AcDbEntity
  8
0
  6
Continuous
 62
     7
370
    15
100
AcDbLine
 10
302.30805862
 20
82.4099968269
 30
0.0
 11
303.0385731463
 21
82.4099968269
 31
0.0
  0
ARC
  5
C7
330
1F
100
AcDbEntity
  8
0
  6
Continuous
 62
     7
370
    15
100
AcDbCircle
 10
303.1787035074
 20
81.3211675464
 30
0.0
 40
1.097809509998414
100
AcDbArc
 50
97.3335515103
 51
185.8123579011
  0
LINE
  5
C8
330
1F
100
AcDbEntity
  8
0
  6
Continuous
 62
     7
370
    15
100
AcDbLine
 10
302.0865379577
 20
81.2099914148
 30
0.0
 11
301.3560234313
 21
81.2099914148
 31
0.0
  0
ARC
  5
C9
330
1F
100
AcDbEntity
  8
0
  6
Continuous
 62
     7
370
    15
100
AcDbCircle
 10
302.448188981
 20
81.3211675464
 30
0.0
 40
1.097809509998414
100
AcDbArc
 50
97.3335515103
 51
185.8123579011
  0
LINE
  5
CA
330
1F
100
AcDbEntity
  8
0
  6
Continuous
 62
     7
370
    15
100
AcDbLine
 10
303.0385731463
 20
82.4099968269
 30
0.0
 11
306.5820096736
 21
82.4099968269
 31
0.0
  0
LINE
  5
CB
330
1F
100
AcDbEntity
  8
0
  6
Continuous
 62
     7
370
    15
100
AcDbLine
 10
306.5820096736
 20
82.4099968269
 30
0.0
 11
306.5820096736
 21
69.410000284
 31
0.0
  0
LINE
  5
CC
330
1F
100
AcDbEntity
  8
0
  6
Continuous
 62
     7
370
    15
100
AcDbLine
 10
306.5820096736
 20
69.410000284
 30
0.0
 11
303.0385731463
 21
69.410000284
 31
0.0
  0
ARC
  5
CD
330
1F
100
AcDbEntity
  8
0
  6
Continuous
 62
     7
370
    15
100
AcDbCircle
 10
303.178686105
 20
70.4988143775
 30
0.0
 40
1.097792225978378
100
AcDbArc
 50
174.1875352754
 51
262.6672481484
  0
LINE
  5
CE
330
1F
100
AcDbEntity
  8
0
  6
Continuous
 62
     7
370
    15
100
AcDbLine
 10
302.0865379577
 20
81.2099914148
 30
0.0
 11
302.0865379577
 21
70.6099907949
 31
0.0
  0
LINE
  5
CF
330
1F
100
AcDbEntity
  8
0
  6
Continuous
 62
     7
370
    15
100
AcDbLine
 10
301.3560234313
 20
70.6099907949
 30
0.0
 11
302.0865379577
 21
70.6099907949
 31
0.0
  0
LINE
  5
D0
330
1F
100
AcDbEntity
  8
0
  6
Continuous
 62
     7
370
    15
100
AcDbLine
 10
301.3560234313
 20
81.2099914148
 30
0.0
 11
301.3560234313
 21
70.6099907949
 31
0.0
  0
LINE
  5
D1
330
1F
100
AcDbEntity
  8
0
  6
Continuous
 62
     7
370
    15
100
AcDbLine
 10
303.0385731463
 20
69.410000284
 30
0.0
 11
302.30805862
 21
69.410000284
 31
0.0
  0
ARC
  5
D2
330
1F
100
AcDbEntity
  8
0
  6
Continuous
 62
     7
370
    15
100
AcDbCircle
 10
302.4481715786
 20
70.4988143775
 30
0.0
 40
1.097792225978378
100
AcDbArc
 50
174.1875352754
 51
262.6672481484
  0
LINE
  5
D3
330
1F
100
AcDbEntity
  8
0
  6
Continuous
 62
     7
370
    15
100
AcDbLine
 10
303.0385731463
 20
439.4099901512
 30
0.0
 11
302.30805862
 21
439.4099901512
 31
0.0
  0
ARC
  5
D4
330
1F
100
AcDbEntity
  8
0
  6
Continuous
 62
     7
370
    15
100
AcDbCircle
 10
302.448188981
 20
440.4988194317
 30
0.0
 40
1.097809509998417
100
AcDbArc
 50
174.1876420989
 51
262.6664484898
  0
LINE
  5
D5
330
1F
100
AcDbEntity
  8
0
  6
Continuous
 62
     7
370
    15
100
AcDbLine
 10
301.3560234313
 20
440.6099955633
 30
0.0
 11
302.0865379577
 21
440.6099955633
 31
0.0
  0
ARC
  5
D6
330
1F
100
AcDbEntity
  8
0
  6
Continuous
 62
     7
370
    15
100
AcDbCircle
 10
303.1787035074
 20
440.4988194317
 30
0.0
 40
1.097809509998417
100
AcDbArc
 50
174.1876420989
 51
262.6664484898
  0
ARC
  5
D7
330
1F
100
AcDbEntity
  8
0
  6
Continuous
 62
     7
370
    15
100
AcDbCircle
 10
303.178686105
 20
451.3211726006
 30
0.0
 40
1.097792225978421
100
AcDbArc
 50
97.3327518516
 51
185.8124647246
  0
LINE
  5
D8
330
1F
100
AcDbEntity
  8
0
  6
Continuous
 62
     7
370
    15
100
AcDbLine
 10
303.0385731463
 20
452.4099866941
 30
0.0
 11
306.5820096736
 21
452.4099866941
 31
0.0
  0
LINE
  5
D9
330
1F
100
AcDbEntity
  8
0
  6
Continuous
 62
     7
370
    15
100
AcDbLine
 10
306.5820096736
 20
452.4099866941
 30
0.0
 11
306.5820096736
 21
439.4099901512
 31
0.0
  0
LINE
  5
DA
330
1F
100
AcDbEntity
  8
0
  6
Continuous
 62
     7
370
    15
100
AcDbLine
 10
306.5820096736
 20
439.4099901512
 30
0.0
 11
303.0385731463
 21
439.4099901512
 31
0.0
  0
LINE
  5
DB
330
1F
100
AcDbEntity
  8
0
  6
Continuous
 62
     7
370
    15
100
AcDbLine
 10
302.0865379577
 20
451.2099961832
 30
0.0
 11
302.0865379577
 21
440.6099955633
 31
0.0
  0
LINE
  5
DC
330
1F
100
AcDbEntity
  8
0
  6
Continuous
 62
     7
370
    15
100
AcDbLine
 10
302.0865379577
 20
451.2099961832
 30
0.0
 11
301.3560234313
 21
451.2099961832
 31
0.0
  0
LINE
  5
DD
330
1F
100
AcDbEntity
  8
0
  6
Continuous
 62
     7
370
    15
100
AcDbLine
 10
301.3560234313
 20
451.2099961832
 30
0.0
 11
301.3560234313
 21
440.6099955633
 31
0.0
  0
LINE
  5
DE
330
1F
100
AcDbEntity
  8
0
  6
Continuous
 62
     7
370
    15
100
AcDbLine
 10
302.30805862
 20
452.4099866941
 30
0.0
 11
303.0385731463
 21
452.4099866941
 31
0.0
  0
ARC
  5
DF
330
1F
100
AcDbEntity
  8
0
  6
Continuous
 62
     7
370
    15
100
AcDbCircle
 10
302.4481715786
 20
451.3211726006
 30
0.0
 40
1.097792225978421
100
AcDbArc
 50
97.3327518516
 51
185.8124647246
  0
LINE
  5
E0
330
1F
100
AcDbEntity
  8
0
  6
Continuous
 62
     7
370
    15
100
AcDbLine
 10
306.6635488277
 20
82.4099968269
 30
0.0
 11
306.5820096736
 21
82.4099968269
 31
0.0
  0
LINE
  5
E1
330
1F
100
AcDbEntity
  8
0
  6
Continuous
 62
     7
370
    15
100
AcDbLine
 10
306.5820096736
 20
69.410000284
 30
0.0
 11
306.7155538802
 21
69.410000284
 31
0.0
  0
LINE
  5
E2
330
1F
100
AcDbEntity
  8
0
  6
Continuous
 62
     7
370
    15
100
AcDbLine
 10
306.6819666629
 20
452.4099866941
 30
0.0
 11
306.5820096736
 21
452.4099866941
 31
0.0
  0
LINE
  5
E3
330
1F
100
AcDbEntity
  8
0
  6
Continuous
 62
     7
370
    15
100
AcDbLine
 10
306.5820096736
 20
439.4099901512
 30
0.0
 11
306.7155538802
 21
439.4099901512
 31
0.0
  0
SPLINE
  5
E4
330
1F
100
AcDbEntity
  8
0
  6
Continuous
 62
     7
370
    15
100
AcDbSpline
210
0.0
220
0.0
230
1.0
 70
    24
 71
     3
 72
    12
 73
     8
 74
     0
 42
0.00000001
 43
0.00000001
 40
0.0
 40
0.0
 40
0.0
 40
0.0
 40
0.2185041607748386
 40
0.4370097499429002
 40
0.655519261637946
 40
0.8740302225829159
 40
1.0
 40
1.0
 40
1.0
 40
1.0
 10
308.5153757338566
 20
82.60238571906464
 30
0.0
 10
308.3186553135799
 20
82.6023857190647
 30
0.0
 10
307.9252131870365
 20
82.6023857190647
 30
0.0
 10
307.3644657458578
 20
82.60238571906456
 30
0.0
 10
306.9467702270853
 20
82.60238571906459
 30
0.0
 10
306.7202072992432
 20
82.60238571906467
 30
0.0
 10
306.737749334977
 20
82.60238571906467
 30
0.0
 10
306.7441641097111
 20
82.60238571906464
 30
0.0
  0
SPLINE
  5
E5
330
1F
100
AcDbEntity
  8
0
  6
Continuous
 62
     7
370
    15
100
AcDbSpline
210
0.0
220
0.0
230
1.0
 70
    24
 71
     3
 72
     9
 73
     5
 74
     0
 42
0.00000001
 43
0.00000001
 40
0.0
 40
0.0
 40
0.0
 40
0.0
 40
0.0025321438812077
 40
1.0
 40
1.0
 40
1.0
 40
1.0
 10
309.0560196642918
 20
82.60238571906464
 30
0.0
 10
309.0556721084203
 20
82.60238571906461
 30
0.0
 10
308.9184145560064
 20
82.60238571906552
 30
0.0
 10
308.716639683427
 20
82.60238571906505
 30
0.0
 10
308.5153757338566
 20
82.60238571906464
 30
0.0
  0
SPLINE
  5
E6
330
1F
100
AcDbEntity
  8
0
  6
Continuous
 62
     7
370
    15
100
AcDbSpline
210
0.0
220
0.0
230
1.0
 70
     8
 71
     3
 72
    13
 73
     9
 74
     0
 42
0.00000001
 43
0.00000001
 40
0.0
 40
0.0
 40
0.0
 40
0.0
 40
0.1877398966408376
 40
0.3754722616290774
 40
0.5632107834800232
 40
0.7509496527106702
 40
0.9386874459079386
 40
1.0
 40
1.0
 40
1.0
 40
1.0
 10
308.2220910792393
 20
86.21722861075776
 30
0.0
 10
308.0253947181507
 20
86.2145257863538
 30
0.0
 10
307.6320098869367
 20
86.2091202459765
 30
0.0
 10
307.0989883331414
 20
85.91859887190009
 30
0.0
 10
306.7084663978
 20
85.46369598020698
 30
0.0
 10
306.5355230436273
 20
84.90200993623803
 30
0.0
 10
306.5388053299096
 20
84.42881911125937
 30
0.0
 10
306.6661206903021
 20
84.20738121485624
 30
0.0
 10
306.6974638705296
 20
84.15286644244568
 30
0.0
  0
SPLINE
  5
E7
330
1F
100
AcDbEntity
  8
0
  6
Continuous
 62
     7
370
    15
100
AcDbSpline
210
0.0
220
0.0
230
1.0
 70
     8
 71
     3
 72
    10
 73
     6
 74
     0
 42
0.00000001
 43
0.00000001
 40
0.0
 40
0.0
 40
0.0
 40
0.0
 40
0.2093416182926
 40
0.604679116926638
 40
1.0
 40
1.0
 40
1.0
 40
1.0
 10
309.3592582945866
 20
85.41110559249299
 30
0.0
 10
309.3175626415837
 20
85.50417520201539
 30
0.0
 10
309.1971255739659
 20
85.77300492520986
 30
0.0
 10
308.7903804594953
 20
86.08962135778981
 30
0.0
 10
308.411518218748
 20
86.17469345569401
 30
0.0
 10
308.2220910792393
 20
86.21722861075776
 30
0.0
  0
SPLINE
  5
E8
330
1F
100
AcDbEntity
  8
0
  6
Continuous
 62
     7
370
    15
100
AcDbSpline
210
0.0
220
0.0
230
1.0
 70
     8
 71
     3
 72
    13
 73
     9
 74
     0
 42
0.00000001
 43
0.00000001
 40
0.0
 40
0.0
 40
0.0
 40
0.0
 40
0.1768666446852921
 40
0.3537286573976354
 40
0.5305943864519905
 40
0.7074561960043457
 40
0.8843212386046765
 40
1.0
 40
1.0
 40
1.0
 40
1.0
 10
308.2048653368992
 20
65.57403906131165
 30
0.0
 10
308.0081927213408
 20
65.57673128414201
 30
0.0
 10
307.6148526408969
 20
65.58211565929592
 30
0.0
 10
307.0814724548149
 20
65.87279957631495
 30
0.0
 10
306.6923460678235
 20
66.3271572151858
 30
0.0
 10
306.5141817988581
 20
66.89084847484567
 30
0.0
 10
306.5351500404041
 20
67.42399488809616
 30
0.0
 10
306.7012309495523
 20
67.69726611155413
 30
0.0
 10
306.7669032816929
 20
67.8053240373172
 30
0.0
  0
SPLINE
  5
E9
330
1F
100
AcDbEntity
  8
0
  6
Continuous
 62
     7
370
    15
100
AcDbSpline
210
0.0
220
0.0
230
1.0
 70
     8
 71
     3
 72
    10
 73
     6
 74
     0
 42
0.00000001
 43
0.00000001
 40
0.0
 40
0.0
 40
0.0
 40
0.0
 40
0.0588228166040073
 40
0.5294204340995383
 40
1.0
 40
1.0
 40
1.0
 40
1.0
 10
309.2349826102299
 20
66.17394490981476
 30
0.0
 10
309.2243481464433
 20
66.1524638757913
 30
0.0
 10
309.1286352452365
 20
65.95912906093245
 30
0.0
 10
308.7677303225018
 20
65.70498929804414
 30
0.0
 10
308.3924845997201
 20
65.61768858208558
 30
0.0
 10
308.2048653368992
 20
65.57403906131162
 30
0.0
  0
SPLINE
  5
EA
330
1F
100
AcDbEntity
  8
0
  6
Continuous
 62
     7
370
    15
100
AcDbSpline
210
0.0
220
0.0
230
1.0
 70
    24
 71
     3
 72
    12
 73
     8
 74
     0
 42
0.00000001
 43
0.00000001
 40
0.0
 40
0.0
 40
0.0
 40
0.0
 40
0.2193522884941657
 40
0.4387060109258876
 40
0.6580636711099509
 40
0.877422786169227
 40
1.0
 40
1.0
 40
1.0
 40
1.0
 10
308.5153757338566
 20
69.04375954413788
 30
0.0
 10
308.3186599930166
 20
69.04375954413788
 30
0.0
 10
307.9252272253773
 20
69.04375954413791
 30
0.0
 10
307.3644095916461
 20
69.04375954413791
 30
0.0
 10
306.9469808101453
 20
69.04375954413786
 30
0.0
 10
306.721123700347
 20
69.04375954413794
 30
0.0
 10
306.7381280140237
 20
69.04375954413786
 30
0.0
 10
306.7442237143559
 20
69.04375954413788
 30
0.0
  0
SPLINE
  5
EB
330
1F
100
AcDbEntity
  8
0
  6
Continuous
 62
     7
370
    15
100
AcDbSpline
210
0.0
220
0.0
230
1.0
 70
    24
 71
     3
 72
     9
 73
     5
 74
     0
 42
0.00000001
 43
0.00000001
 40
0.0
 40
0.0
 40
0.0
 40
0.0
 40
0.0025321438812077
 40
1.0
 40
1.0
 40
1.0
 40
1.0
 10
309.0560196642918
 20
69.04375954413788
 30
0.0
 10
309.0556721084203
 20
69.04375954413786
 30
0.0
 10
308.9184145560064
 20
69.04375954414024
 30
0.0
 10
308.716639683427
 20
69.04375954413905
 30
0.0
 10
308.5153757338566
 20
69.04375954413788
 30
0.0
  0
SPLINE
  5
EC
330
1F
100
AcDbEntity
  8
0
  6
Continuous
 62
     7
370
    15
100
AcDbSpline
210
0.0
220
0.0
230
1.0
 70
     8
 71
     3
 72
    13
 73
     9
 74
     0
 42
0.00000001
 43
0.00000001
 40
0.0
 40
0.0
 40
0.0
 40
0.0
 40
0.1768576985124456
 40
0.3537276817053297
 40
0.5305875817102148
 40
0.7074521439525769
 40
0.8843171741316485
 40
0.9999999999999999
 40
0.9999999999999999
 40
0.9999999999999999
 40
0.9999999999999999
 10
306.6529988055271
 20
88.8336489989795
 30
0.0
 10
306.4563380162956
 20
88.83095303077491
 30
0.0
 10
306.0630027776135
 20
88.82556090710153
 30
0.0
 10
305.529606578256
 20
88.5349086823819
 30
0.0
 10
305.1405209214752
 20
88.08051274895298
 30
0.0
 10
304.9623068206197
 20
87.51684889607353
 30
0.0
 10
304.9832759523543
 20
86.98368307445742
 30
0.0
 10
305.1493826321566
 20
86.71042073548271
 30
0.0
 10
305.2150665526432
 20
86.60236402297392
 30
0.0
  0
SPLINE
  5
ED
330
1F
100
AcDbEntity
  8
0
  6
Continuous
 62
     7
370
    15
100
AcDbSpline
210
0.0
220
0.0
230
1.0
 70
     8
 71
     3
 72
    10
 73
     6
 74
     0
 42
0.00000001
 43
0.00000001
 40
0.0
 40
0.0
 40
0.0
 40
0.0
 40
0.1474521529467936
 40
0.5737191691814364
 40
0.9999999999999999
 40
0.9999999999999999
 40
0.9999999999999999
 40
0.9999999999999999
 10
307.7415882353825
 20
88.12112017417329
 30
0.0
 10
307.7135312520358
 20
88.18141214142211
 30
0.0
 10
307.6043647946209
 20
88.41600117024956
 30
0.0
 10
307.2192999034369
 20
88.7048179208314
 30
0.0
 10
306.841767877325
 20
88.79070484236293
 30
0.0
 10
306.6529988055271
 20
88.8336489989795
 30
0.0
  0
SPLINE
  5
EE
330
1F
100
AcDbEntity
  8
0
  6
Continuous
 62
     7
370
    15
100
AcDbSpline
210
0.0
220
0.0
230
1.0
 70
     8
 71
     3
 72
    13
 73
     9
 74
     0
 42
0.00000001
 43
0.00000001
 40
0.0
 40
0.0
 40
0.0
 40
0.0
 40
0.1768650521954994
 40
0.3537334552900266
 40
0.5305917752866345
 40
0.7074547574790687
 40
0.8843182076040318
 40
0.9999999999999999
 40
0.9999999999999999
 40
0.9999999999999999
 40
0.9999999999999999
 10
306.6358028655094
 20
62.95761867308991
 30
0.0
 10
306.4391318670503
 20
62.96031323141346
 30
0.0
 10
306.045786143988
 20
62.96570239911184
 30
0.0
 10
305.5123808017063
 20
63.25635884821376
 30
0.0
 10
305.1232951883078
 20
63.71075496104972
 30
0.0
 10
304.945081075799
 20
64.27441876573705
 30
0.0
 10
304.9660502103916
 20
64.80758459917266
 30
0.0
 10
305.1321568899235
 20
65.08084693702887
 30
0.0
 10
305.1978408103031
 20
65.18890364909547
 30
0.0
  0
SPLINE
  5
EF
330
1F
100
AcDbEntity
  8
0
  6
Continuous
 62
     7
370
    15
100
AcDbSpline
210
0.0
220
0.0
230
1.0
 70
     8
 71
     3
 72
    10
 73
     6
 74
     0
 42
0.00000001
 43
0.00000001
 40
0.0
 40
0.0
 40
0.0
 40
0.0
 40
0.1474551824426036
 40
0.5737309565971126
 40
1.0
 40
1.0
 40
1.0
 40
1.0
 10
307.7243624930424
 20
63.67014749789612
 30
0.0
 10
307.6963055175161
 20
63.60985551317977
 30
0.0
 10
307.5871390905294
 20
63.37526641638816
 30
0.0
 10
307.2020815445482
 20
63.08645686388603
 30
0.0
 10
306.8245614316952
 20
63.00056451065159
 30
0.0
 10
306.6358028655094
 20
62.95761867308988
 30
0.0
  0
LINE
  5
F0
330
1F
100
AcDbEntity
  8
0
  6
Continuous
 62
     7
370
    15
100
AcDbLine
 10
301.3560234313
 20
79.8099975183
 30
0.0
 11
301.2512086635
 21
79.8099975183
 31
0.0
  0
LINE
  5
F1
330
1F
100
AcDbEntity
  8
0
  6
Continuous
 62
     7
370
    15
100
AcDbLine
 10
301.3560234313
 20
71.2099860504
 30
0.0
 11
301.2512086635
 21
71.2099860504
 31
0.0
  0
LINE
  5
F2
330
1F
100
AcDbEntity
  8
0
  6
Continuous
 62
     7
370
    15
100
AcDbLine
 10
306.7219017749
 20
68.7099884346
 30
0.0
 11
301.856016994
 21
68.7099884346
 31
0.0
  0
LINE
  5
F3
330
1F
100
AcDbEntity
  8
0
  6
Continuous
 62
     7
370
    15
100
AcDbLine
 10
306.7301868205
 20
67.9099897935
 30
0.0
 11
301.8566428428
 21
67.9099897935
 31
0.0
  0
LINE
  5
F4
330
1F
100
AcDbEntity
  8
0
  6
Continuous
 62
     7
370
    15
100
AcDbLine
 10
306.6819666629
 20
83.1099937751
 30
0.0
 11
301.856016994
 21
83.1099937751
 31
0.0
  0
LINE
  5
F5
330
1F
100
AcDbEntity
  8
0
  6
Continuous
 62
     7
370
    15
100
AcDbLine
 10
306.6844998603
 20
83.9099924161
 30
0.0
 11
301.8566428428
 21
83.9099924161
 31
0.0
  0
LINE
  5
F6
330
1F
100
AcDbEntity
  8
0
  6
Continuous
 62
     7
370
    15
100
AcDbLine
 10
305.4560183291
 20
84.2099974945
 30
0.0
 11
306.6193817859
 21
84.2099974945
 31
0.0
  0
LINE
  5
F7
330
1F
100
AcDbEntity
  8
0
  6
Continuous
 62
     7
370
    15
100
AcDbLine
 10
306.7825495009
 20
84.2099974945
 30
0.0
 11
306.8448661571
 21
84.2099974945
 31
0.0
  0
LINE
  5
F8
330
1F
100
AcDbEntity
  8
0
  6
Continuous
 62
     7
370
    15
100
AcDbLine
 10
303.2560406928
 20
84.2099974945
 30
0.0
 11
305.4560183291
 21
84.2099974945
 31
0.0
  0
LINE
  5
F9
330
1F
100
AcDbEntity
  8
0
  6
Continuous
 62
     7
370
    15
100
AcDbLine
 10
305.4560183291
 20
67.5099979236
 30
0.0
 11
306.5594195132
 21
67.5099979236
 31
0.0
  0
LINE
  5
FA
330
1F
100
AcDbEntity
  8
0
  6
Continuous
 62
     7
370
    15
100
AcDbLine
 10
303.3560274844
 20
67.5099979236
 30
0.0
 11
305.4560183291
 21
67.5099979236
 31
0.0
  0
LINE
  5
FB
330
1F
100
AcDbEntity
  8
0
  6
Continuous
 62
     7
370
    15
100
AcDbLine
 10
305.4560183291
 20
67.1099911525
 30
0.0
 11
306.3195406203
 21
67.1099911525
 31
0.0
  0
LINE
  5
FC
330
1F
100
AcDbEntity
  8
0
  6
Continuous
 62
     7
370
    15
100
AcDbLine
 10
303.3560274844
 20
67.1099911525
 30
0.0
 11
305.4560183291
 21
67.1099911525
 31
0.0
  0
ARC
  5
FD
330
1F
100
AcDbEntity
  8
0
  6
Continuous
 62
     7
370
    15
100
AcDbCircle
 10
302.3219724599
 20
68.7078297938
 30
0.0
 40
0.8029034246592697
100
AcDbArc
 50
179.8459576192
 51
234.5256721179
  0
ARC
  5
FE
330
1F
100
AcDbEntity
  8
0
  6
Continuous
 62
     7
370
    15
100
AcDbCircle
 10
302.3219843035
 20
83.1121611849
 30
0.0
 40
0.8029152918097077
100
AcDbArc
 50
125.4747622064
 51
180.154665862
  0
LINE
  5
FF
330
1F
100
AcDbEntity
  8
0
  6
Continuous
 62
     7
370
    15
100
AcDbLine
 10
302.3069261317
 20
69.1599886014
 30
0.0
 11
302.3069261317
 21
68.7099884346
 31
0.0
  0
LINE
  5
100
330
1F
100
AcDbEntity
  8
0
  6
Continuous
 62
     7
370
    15
100
AcDbLine
 10
302.3069261317
 20
83.1099937751
 30
0.0
 11
302.3069261317
 21
82.6599936082
 31
0.0
  0
LINE
  5
101
330
1F
100
AcDbEntity
  8
0
  6
Continuous
 62
     7
370
    15
100
AcDbLine
 10
301.5190719371
 20
68.7099884346
 30
0.0
 11
301.5190719371
 21
69.9384401634
 31
0.0
  0
LINE
  5
102
330
1F
100
AcDbEntity
  8
0
  6
Continuous
 62
     7
370
    15
100
AcDbLine
 10
301.5190719371
 20
81.8815569475
 30
0.0
 11
301.5190719371
 21
83.1099937751
 31
0.0
  0
SPLINE
  5
103
330
1F
100
AcDbEntity
  8
0
  6
Continuous
 62
     7
370
    15
100
AcDbSpline
210
0.0
220
0.0
230
1.0
 70
    24
 71
     3
 72
    12
 73
     8
 74
     0
 42
0.00000001
 43
0.00000001
 40
0.0
 40
0.0
 40
0.0
 40
0.0
 40
0.2185041607748386
 40
0.4370097499429002
 40
0.655519261637946
 40
0.8740302225829159
 40
1.0
 40
1.0
 40
1.0
 40
1.0
 10
308.5153757338566
 20
452.6023904874362
 30
0.0
 10
308.3186553135799
 20
452.6023904874362
 30
0.0
 10
307.9252131870365
 20
452.6023904874362
 30
0.0
 10
307.3644657458578
 20
452.6023904874363
 30
0.0
 10
306.9467702270853
 20
452.6023904874363
 30
0.0
 10
306.7202072992432
 20
452.6023904874362
 30
0.0
 10
306.737749334977
 20
452.6023904874362
 30
0.0
 10
306.7441641097111
 20
452.6023904874362
 30
0.0
  0
SPLINE
  5
104
330
1F
100
AcDbEntity
  8
0
  6
Continuous
 62
     7
370
    15
100
AcDbSpline
210
0.0
220
0.0
230
1.0
 70
    24
 71
     3
 72
     9
 73
     5
 74
     0
 42
0.00000001
 43
0.00000001
 40
0.0
 40
0.0
 40
0.0
 40
0.0
 40
0.1970399618046988
 40
1.0
 40
1.0
 40
1.0
 40
1.0
 10
309.1560362582249
 20
452.6023904874362
 30
0.0
 10
309.1233793666565
 20
452.6023904874362
 30
0.0
 10
308.9576419635971
 20
452.6023904874362
 30
0.0
 10
308.7123418901783
 20
452.6023904874362
 30
0.0
 10
308.5153757338566
 20
452.6023904874362
 30
0.0
  0
SPLINE
  5
105
330
1F
100
AcDbEntity
  8
0
  6
Continuous
 62
     7
370
    15
100
AcDbSpline
210
0.0
220
0.0
230
1.0
 70
     8
 71
     3
 72
    13
 73
     9
 74
     0
 42
0.00000001
 43
0.00000001
 40
0.0
 40
0.0
 40
0.0
 40
0.0
 40
0.1877403276500716
 40
0.375475335694488
 40
0.5632142885515116
 40
0.7509490809462165
 40
0.93868730514789
 40
0.9999999999999999
 40
0.9999999999999999
 40
0.9999999999999999
 40
0.9999999999999999
 10
308.2220910792393
 20
456.2172333791293
 30
0.0
 10
308.0253940784687
 20
456.214531773555
 30
0.0
 10
307.6320056503193
 20
456.2091286389561
 30
0.0
 10
307.0989919341435
 20
455.9185861780998
 30
0.0
 10
306.708469958284
 20
455.4636903123944
 30
0.0
 10
306.5355211349717
 20
454.9020102734657
 30
0.0
 10
306.5388054616749
 20
454.4288238489461
 30
0.0
 10
306.6661207163324
 20
454.207385977166
 30
0.0
 10
306.6974638705296
 20
454.1528712108172
 30
0.0
  0
SPLINE
  5
106
330
1F
100
AcDbEntity
  8
0
  6
Continuous
 62
     7
370
    15
100
AcDbSpline
210
0.0
220
0.0
230
1.0
 70
     8
 71
     3
 72
    10
 73
     6
 74
     0
 42
0.00000001
 43
0.00000001
 40
0.0
 40
0.0
 40
0.0
 40
0.0
 40
0.2093333647866524
 40
0.6046781482275657
 40
0.9999999999999999
 40
0.9999999999999999
 40
0.9999999999999999
 40
0.9999999999999999
 10
309.3592582945866
 20
455.4111103608645
 30
0.0
 10
309.3175615839619
 20
455.5041741497625
 30
0.0
 10
309.1971169057166
 20
455.7729972281817
 30
0.0
 10
308.7903866325381
 20
456.0896288333304
 30
0.0
 10
308.4115192675812
 20
456.1746993529618
 30
0.0
 10
308.2220910792393
 20
456.2172333791293
 30
0.0
  0
SPLINE
  5
107
330
1F
100
AcDbEntity
  8
0
  6
Continuous
 62
     7
370
    15
100
AcDbSpline
210
0.0
220
0.0
230
1.0
 70
     8
 71
     3
 72
    13
 73
     9
 74
     0
 42
0.00000001
 43
0.00000001
 40
0.0
 40
0.0
 40
0.0
 40
0.0
 40
0.1768655441741053
 40
0.3537268808725106
 40
0.5305919338987228
 40
0.7074573141850448
 40
0.8843216807598565
 40
1.0
 40
1.0
 40
1.0
 40
1.0
 10
308.2048653368992
 20
435.5740438296832
 30
0.0
 10
308.0081925845185
 20
435.5767298134035
 30
0.0
 10
307.6148517584288
 20
435.5821017169466
 30
0.0
 10
307.0814728391834
 20
435.8727906175628
 30
0.0
 10
306.6923418715722
 20
436.3271500650109
 30
0.0
 10
306.5141837337327
 20
436.8908492449036
 30
0.0
 10
306.535149717229
 20
437.4239995309566
 30
0.0
 10
306.7012308579737
 20
437.6972708443594
 30
0.0
 10
306.7669032816929
 20
437.8053288056888
 30
0.0
  0
SPLINE
  5
108
330
1F
100
AcDbEntity
  8
0
  6
Continuous
 62
     7
370
    15
100
AcDbSpline
210
0.0
220
0.0
230
1.0
 70
     8
 71
     3
 72
    10
 73
     6
 74
     0
 42
0.00000001
 43
0.00000001
 40
0.0
 40
0.0
 40
0.0
 40
0.0
 40
0.0588225777550384
 40
0.5294258028009099
 40
1.0
 40
1.0
 40
1.0
 40
1.0
 10
309.2349826102299
 20
436.1739496781863
 30
0.0
 10
309.224348114997
 20
436.1524686869948
 30
0.0
 10
309.1286335715183
 20
435.9591315120422
 30
0.0
 10
308.7677385255341
 20
435.7049733613451
 30
0.0
 10
308.3924858752565
 20
435.6176861095311
 30
0.0
 10
308.2048653368992
 20
435.5740438296832
 30
0.0
  0
SPLINE
  5
109
330
1F
100
AcDbEntity
  8
0
  6
Continuous
 62
     7
370
    15
100
AcDbSpline
210
0.0
220
0.0
230
1.0
 70
    24
 71
     3
 72
    12
 73
     8
 74
     0
 42
0.00000001
 43
0.00000001
 40
0.0
 40
0.0
 40
0.0
 40
0.0
 40
0.2193522884941657
 40
0.4387060109258876
 40
0.6580636711099509
 40
0.877422786169227
 40
1.0
 40
1.0
 40
1.0
 40
1.0
 10
308.5153757338566
 20
439.0437643125094
 30
0.0
 10
308.3186599930166
 20
439.0437643125094
 30
0.0
 10
307.9252272253773
 20
439.0437643125094
 30
0.0
 10
307.3644095916461
 20
439.0437643125094
 30
0.0
 10
306.9469808101453
 20
439.0437643125094
 30
0.0
 10
306.721123700347
 20
439.0437643125094
 30
0.0
 10
306.7381280140237
 20
439.0437643125094
 30
0.0
 10
306.7442237143559
 20
439.0437643125094
 30
0.0
  0
SPLINE
  5
10A
330
1F
100
AcDbEntity
  8
0
  6
Continuous
 62
     7
370
    15
100
AcDbSpline
210
0.0
220
0.0
230
1.0
 70
    24
 71
     3
 72
     9
 73
     5
 74
     0
 42
0.00000001
 43
0.00000001
 40
0.0
 40
0.0
 40
0.0
 40
0.0
 40
0.1970399618046988
 40
1.0
 40
1.0
 40
1.0
 40
1.0
 10
309.1560362582249
 20
439.0437643125094
 30
0.0
 10
309.1233793666565
 20
439.0437643125094
 30
0.0
 10
308.9576419635971
 20
439.0437643125094
 30
0.0
 10
308.7123418901783
 20
439.0437643125094
 30
0.0
 10
308.5153757338566
 20
439.0437643125094
 30
0.0
  0
SPLINE
  5
10B
330
1F
100
AcDbEntity
  8
0
  6
Continuous
 62
     7
370
    15
100
AcDbSpline
210
0.0
220
0.0
230
1.0
 70
     8
 71
     3
 72
    13
 73
     9
 74
     0
 42
0.00000001
 43
0.00000001
 40
0.0
 40
0.0
 40
0.0
 40
0.0
 40
0.1768566554889662
 40
0.3537260201165023
 40
0.5305853015913031
 40
0.7074492452872759
 40
0.8843136569183215
 40
1.0
 40
1.0
 40
1.0
 40
1.0
 10
306.6529988055271
 20
458.8336388661899
 30
0.0
 10
306.4563379088981
 20
458.8309491323151
 30
0.0
 10
306.0630019833443
 20
458.8255694712781
 30
0.0
 10
305.5296066094615
 20
458.5349123334145
 30
0.0
 10
305.1405211641438
 20
458.0805179584649
 30
0.0
 10
304.9623058187033
 20
457.5168530172066
 30
0.0
 10
304.9832793429111
 20
456.9836852139213
 30
0.0
 10
305.1493826282477
 20
456.7104156674798
 30
0.0
 10
305.2150665526432
 20
456.6023538901843
 30
0.0
  0
SPLINE
  5
10C
330
1F
100
AcDbEntity
  8
0
  6
Continuous
 62
     7
370
    15
100
AcDbSpline
210
0.0
220
0.0
230
1.0
 70
     8
 71
     3
 72
    10
 73
     6
 74
     0
 42
0.00000001
 43
0.00000001
 40
0.0
 40
0.0
 40
0.0
 40
0.0
 40
0.1474526147854356
 40
0.5737209661418518
 40
1.0
 40
1.0
 40
1.0
 40
1.0
 10
307.7415882353825
 20
458.1211249425448
 30
0.0
 10
307.7135312346754
 20
458.1814168516085
 30
0.0
 10
307.6043647097132
 20
458.4160056540441
 30
0.0
 10
307.2193022811466
 20
458.7048257114756
 30
0.0
 10
306.8417682075798
 20
458.7907007892774
 30
0.0
 10
306.6529988055271
 20
458.8336388661899
 30
0.0
  0
SPLINE
  5
10D
330
1F
100
AcDbEntity
  8
0
  6
Continuous
 62
     7
370
    15
100
AcDbSpline
210
0.0
220
0.0
230
1.0
 70
     8
 71
     3
 72
    13
 73
     9
 74
     0
 42
0.00000001
 43
0.00000001
 40
0.0
 40
0.0
 40
0.0
 40
0.0
 40
0.1768639517120507
 40
0.3537316787860435
 40
0.5305893228006564
 40
0.7074558756357757
 40
0.8843186497591357
 40
1.0
 40
1.0
 40
1.0
 40
1.0
 10
306.6358028655094
 20
432.9576234414615
 30
0.0
 10
306.4391317302167
 20
432.9603117606861
 30
0.0
 10
306.0457852614627
 20
432.9656884565203
 30
0.0
 10
305.5123811861758
 20
433.256349889509
 30
0.0
 10
305.1232909921416
 20
433.7107478108628
 30
0.0
 10
304.9450830109044
 20
434.274419535951
 30
0.0
 10
304.9660498871699
 20
434.8075892420004
 30
0.0
 10
305.1321567983302
 20
435.0808516698244
 30
0.0
 10
305.1978408103031
 20
435.188908417467
 30
0.0
  0
SPLINE
  5
10E
330
1F
100
AcDbEntity
  8
0
  6
Continuous
 62
     7
370
    15
100
AcDbSpline
210
0.0
220
0.0
230
1.0
 70
     8
 71
     3
 72
    10
 73
     6
 74
     0
 42
0.00000001
 43
0.00000001
 40
0.0
 40
0.0
 40
0.0
 40
0.0
 40
0.1474637029791729
 40
0.5737367829997128
 40
1.0
 40
1.0
 40
1.0
 40
1.0
 10
307.7243624930424
 20
433.6701522662677
 30
0.0
 10
307.6963060480866
 20
433.609855035863
 30
0.0
 10
307.5871468845356
 20
433.3752567021899
 30
0.0
 10
307.2020824656532
 20
433.0864446008086
 30
0.0
 10
306.8245612763724
 20
433.0005634967234
 30
0.0
 10
306.6358028655094
 20
432.9576234414615
 30
0.0
  0
LINE
  5
10F
330
1F
100
AcDbEntity
  8
0
  6
Continuous
 62
     7
370
    15
100
AcDbLine
 10
301.3560234313
 20
441.2099908187
 30
0.0
 11
301.2512086635
 21
441.2099908187
 31
0.0
  0
LINE
  5
110
330
1F
100
AcDbEntity
  8
0
  6
Continuous
 62
     7
370
    15
100
AcDbLine
 10
301.3560234313
 20
449.8099873855
 30
0.0
 11
301.2512086635
 21
449.8099873855
 31
0.0
  0
LINE
  5
111
330
1F
100
AcDbEntity
  8
0
  6
Continuous
 62
     7
370
    15
100
AcDbLine
 10
306.6819666629
 20
438.7099932029
 30
0.0
 11
301.856016994
 21
438.7099932029
 31
0.0
  0
LINE
  5
112
330
1F
100
AcDbEntity
  8
0
  6
Continuous
 62
     7
370
    15
100
AcDbLine
 10
306.7378758197
 20
437.9099945619
 30
0.0
 11
301.8566428428
 21
437.9099945619
 31
0.0
  0
LINE
  5
113
330
1F
100
AcDbEntity
  8
0
  6
Continuous
 62
     7
370
    15
100
AcDbLine
 10
306.6819666629
 20
453.1099985435
 30
0.0
 11
301.856016994
 21
453.1099985435
 31
0.0
  0
LINE
  5
114
330
1F
100
AcDbEntity
  8
0
  6
Continuous
 62
     7
370
    15
100
AcDbLine
 10
306.7860959773
 20
453.9099971845
 30
0.0
 11
301.8566428428
 21
453.9099971845
 31
0.0
  0
LINE
  5
115
330
1F
100
AcDbEntity
  8
0
  6
Continuous
 62
     7
370
    15
100
AcDbLine
 10
305.4560183291
 20
454.2099873617
 30
0.0
 11
306.6193817859
 21
454.2099873617
 31
0.0
  0
LINE
  5
116
330
1F
100
AcDbEntity
  8
0
  6
Continuous
 62
     7
370
    15
100
AcDbLine
 10
303.2560406928
 20
454.2099873617
 30
0.0
 11
305.4560183291
 21
454.2099873617
 31
0.0
  0
LINE
  5
117
330
1F
100
AcDbEntity
  8
0
  6
Continuous
 62
     7
370
    15
100
AcDbLine
 10
305.4560183291
 20
437.5099877908
 30
0.0
 11
306.5594195132
 21
437.5099877908
 31
0.0
  0
LINE
  5
118
330
1F
100
AcDbEntity
  8
0
  6
Continuous
 62
     7
370
    15
100
AcDbLine
 10
303.3560274844
 20
437.5099877908
 30
0.0
 11
305.4560183291
 21
437.5099877908
 31
0.0
  0
LINE
  5
119
330
1F
100
AcDbEntity
  8
0
  6
Continuous
 62
     7
370
    15
100
AcDbLine
 10
305.4560183291
 20
437.1099959209
 30
0.0
 11
306.3195406203
 21
437.1099959209
 31
0.0
  0
LINE
  5
11A
330
1F
100
AcDbEntity
  8
0
  6
Continuous
 62
     7
370
    15
100
AcDbLine
 10
303.3560274844
 20
437.1099959209
 30
0.0
 11
305.4560183291
 21
437.1099959209
 31
0.0
  0
ARC
  5
11B
330
1F
100
AcDbEntity
  8
0
  6
Continuous
 62
     7
370
    15
100
AcDbCircle
 10
302.3219843035
 20
438.7078257931
 30
0.0
 40
0.8029152918097557
100
AcDbArc
 50
179.845334138
 51
234.5252377937
  0
ARC
  5
11C
330
1F
100
AcDbEntity
  8
0
  6
Continuous
 62
     7
370
    15
100
AcDbCircle
 10
302.3219724599
 20
453.1121571843
 30
0.0
 40
0.8029034246592697
100
AcDbArc
 50
125.4743278821
 51
180.1540423808
  0
LINE
  5
11D
330
1F
100
AcDbEntity
  8
0
  6
Continuous
 62
     7
370
    15
100
AcDbLine
 10
302.3069261317
 20
439.1599933698
 30
0.0
 11
302.3069261317
 21
438.7099932029
 31
0.0
  0
LINE
  5
11E
330
1F
100
AcDbEntity
  8
0
  6
Continuous
 62
     7
370
    15
100
AcDbLine
 10
302.3069261317
 20
453.1099985435
 30
0.0
 11
302.3069261317
 21
452.6599983766
 31
0.0
  0
LINE
  5
11F
330
1F
100
AcDbEntity
  8
0
  6
Continuous
 62
     7
370
    15
100
AcDbLine
 10
301.5190719371
 20
438.7099932029
 30
0.0
 11
301.5190719371
 21
439.9384300306
 31
0.0
  0
LINE
  5
120
330
1F
100
AcDbEntity
  8
0
  6
Continuous
 62
     7
370
    15
100
AcDbLine
 10
301.5190719371
 20
451.8815468147
 30
0.0
 11
301.5190719371
 21
453.1099985435
 31
0.0
  0
LINE
  5
121
330
1F
100
AcDbEntity
  8
0
  6
Continuous
 62
     7
370
    15
100
AcDbLine
 10
811.2573980098
 20
65.9100006416
 30
0.0
 11
811.2573980098
 21
30.9099893167
 31
0.0
  0
LINE
  5
122
330
1F
100
AcDbEntity
  8
0
  6
Continuous
 62
     7
370
    15
100
AcDbLine
 10
821.8560277228
 20
65.9100006416
 30
0.0
 11
811.2573980098
 21
65.9100006416
 31
0.0
  0
LINE
  5
123
330
1F
100
AcDbEntity
  8
0
  6
Continuous
 62
     7
370
    15
100
AcDbLine
 10
821.8560277228
 20
30.9099893167
 30
0.0
 11
811.2573980098
 21
30.9099893167
 31
0.0
  0
LINE
  5
124
330
1F
100
AcDbEntity
  8
0
  6
Continuous
 62
     7
370
    15
100
AcDbLine
 10
811.2573980098
 20
490.9099976614
 30
0.0
 11
811.2573980098
 21
455.9099863365
 31
0.0
  0
LINE
  5
125
330
1F
100
AcDbEntity
  8
0
  6
Continuous
 62
     7
370
    15
100
AcDbLine
 10
821.8560277228
 20
490.9099976614
 30
0.0
 11
811.2573980098
 21
490.9099976614
 31
0.0
  0
LINE
  5
126
330
1F
100
AcDbEntity
  8
0
  6
Continuous
 62
     7
370
    15
100
AcDbLine
 10
821.8560277228
 20
455.9099863365
 30
0.0
 11
811.2573980098
 21
455.9099863365
 31
0.0
  0
LINE
  5
127
330
1F
100
AcDbEntity
  8
0
  6
Continuous
 62
     7
370
    15
100
AcDbLine
 10
818.8560365443
 20
102.9099862173
 30
0.0
 11
813.8560413127
 21
102.9099862173
 31
0.0
  0
LINE
  5
128
330
1F
100
AcDbEntity
  8
0
  6
Continuous
 62
     7
370
    15
100
AcDbLine
 10
813.8560413127
 20
418.9100007608
 30
0.0
 11
818.8560365443
 21
418.9100007608
 31
0.0
  0
LINE
  5
129
330
1F
100
AcDbEntity
  8
0
  6
Continuous
 62
     7
370
    15
100
AcDbLine
 10
810.7938824897
 20
30.9099893167
 30
0.0
 11
810.7938824897
 21
65.9100006416
 31
0.0
  0
LINE
  5
12A
330
1F
100
AcDbEntity
  8
0
  6
Continuous
 62
     7
370
    15
100
AcDbLine
 10
810.7938824897
 20
65.9100006416
 30
0.0
 11
811.2573980098
 21
65.9100006416
 31
0.0
  0
LINE
  5
12B
330
1F
100
AcDbEntity
  8
0
  6
Continuous
 62
     7
370
    15
100
AcDbLine
 10
811.2573980098
 20
30.9099893167
 30
0.0
 11
810.7938824897
 21
30.9099893167
 31
0.0
  0
LINE
  5
12C
330
1F
100
AcDbEntity
  8
0
  6
Continuous
 62
     7
370
    15
100
AcDbLine
 10
810.7938824897
 20
455.9099863365
 30
0.0
 11
810.7938824897
 21
490.9099976614
 31
0.0
  0
LINE
  5
12D
330
1F
100
AcDbEntity
  8
0
  6
Continuous
 62
     7
370
    15
100
AcDbLine
 10
811.2573980098
 20
455.9099863365
 30
0.0
 11
810.7938824897
 21
455.9099863365
 31
0.0
  0
LINE
  5
12E
330
1F
100
AcDbEntity
  8
0
  6
Continuous
 62
     7
370
    15
100
AcDbLine
 10
810.7938824897
 20
490.9099976614
 30
0.0
 11
811.2573980098
 21
490.9099976614
 31
0.0
  0
LINE
  5
12F
330
1F
100
AcDbEntity
  8
0
  6
Continuous
 62
     7
370
    15
100
AcDbLine
 10
810.7938824897
 20
455.9099863365
 30
0.0
 11
810.3560267692
 21
455.9099863365
 31
0.0
  0
LINE
  5
130
330
1F
100
AcDbEntity
  8
0
  6
Continuous
 62
     7
370
    15
100
AcDbLine
 10
810.7938824897
 20
490.9099976614
 30
0.0
 11
810.3560267692
 21
490.9099976614
 31
0.0
  0
LINE
  5
131
330
1F
100
AcDbEntity
  8
0
  6
Continuous
 62
     7
370
    15
100
AcDbLine
 10
810.7938824897
 20
65.9100006416
 30
0.0
 11
810.3560267692
 21
65.9100006416
 31
0.0
  0
LINE
  5
132
330
1F
100
AcDbEntity
  8
0
  6
Continuous
 62
     7
370
    15
100
AcDbLine
 10
810.7938824897
 20
30.9099893167
 30
0.0
 11
810.3560267692
 21
30.9099893167
 31
0.0
  0
LINE
  5
133
330
1F
100
AcDbEntity
  8
0
  6
Continuous
 62
     7
370
    15
100
AcDbLine
 10
305.156028152
 20
69.1599886014
 30
0.0
 11
302.0560203795
 21
69.1599886014
 31
0.0
  0
LINE
  5
134
330
1F
100
AcDbEntity
  8
0
  6
Continuous
 62
     7
370
    15
100
AcDbLine
 10
305.156028152
 20
82.6599936082
 30
0.0
 11
306.716090322
 21
82.6599936082
 31
0.0
  0
LINE
  5
135
330
1F
100
AcDbEntity
  8
0
  6
Continuous
 62
     7
370
    15
100
AcDbLine
 10
305.156028152
 20
69.1599886014
 30
0.0
 11
306.7155538802
 21
69.1599886014
 31
0.0
  0
LINE
  5
136
330
1F
100
AcDbEntity
  8
0
  6
Continuous
 62
     7
370
    15
100
AcDbLine
 10
305.156028152
 20
82.6599936082
 30
0.0
 11
302.0560203795
 21
82.6599936082
 31
0.0
  0
LINE
  5
137
330
1F
100
AcDbEntity
  8
0
  6
Continuous
 62
     7
370
    15
100
AcDbLine
 10
305.156028152
 20
439.1599933698
 30
0.0
 11
302.0560203795
 21
439.1599933698
 31
0.0
  0
LINE
  5
138
330
1F
100
AcDbEntity
  8
0
  6
Continuous
 62
     7
370
    15
100
AcDbLine
 10
305.156028152
 20
452.6599983766
 30
0.0
 11
306.716090322
 21
452.6599983766
 31
0.0
  0
LINE
  5
139
330
1F
100
AcDbEntity
  8
0
  6
Continuous
 62
     7
370
    15
100
AcDbLine
 10
305.156028152
 20
439.1599933698
 30
0.0
 11
306.7155538802
 21
439.1599933698
 31
0.0
  0
LINE
  5
13A
330
1F
100
AcDbEntity
  8
0
  6
Continuous
 62
     7
370
    15
100
AcDbLine
 10
305.156028152
 20
452.6599983766
 30
0.0
 11
302.0560203795
 21
452.6599983766
 31
0.0
  0
LINE
  5
13B
330
1F
100
AcDbEntity
  8
0
  6
Continuous
 62
     8
370
    15
100
AcDbLine
 10
305.156028152
 20
69.410000284
 30
0.0
 11
305.156028152
 21
69.1599886014
 31
0.0
  0
LINE
  5
13C
330
1F
100
AcDbEntity
  8
0
  6
Continuous
 62
     8
370
    15
100
AcDbLine
 10
305.156028152
 20
82.6599936082
 30
0.0
 11
305.156028152
 21
82.4099968269
 31
0.0
  0
LINE
  5
13D
330
1F
100
AcDbEntity
  8
0
  6
Continuous
 62
     8
370
    15
100
AcDbLine
 10
305.156028152
 20
439.4099901512
 30
0.0
 11
305.156028152
 21
439.1599933698
 31
0.0
  0
LINE
  5
13E
330
1F
100
AcDbEntity
  8
0
  6
Continuous
 62
     8
370
    15
100
AcDbLine
 10
305.156028152
 20
452.6599983766
 30
0.0
 11
305.156028152
 21
452.4099866941
 31
0.0
  0
LINE
  5
13F
330
1F
100
AcDbEntity
  8
0
  6
Continuous
 62
     7
370
    15
100
AcDbLine
 10
190.1718004578
 20
82.4099968269
 30
0.0
 11
190.1718004578
 21
69.410000284
 31
0.0
  0
LINE
  5
140
330
1F
100
AcDbEntity
  8
0
  6
Continuous
 62
     7
370
    15
100
AcDbLine
 10
190.1718004578
 20
452.4099866941
 30
0.0
 11
190.1718004578
 21
439.4099901512
 31
0.0
  0
SPLINE
  5
141
330
1F
100
AcDbEntity
  8
0
  6
Continuous
 62
     7
370
    15
100
AcDbSpline
210
0.0
220
0.0
230
1.0
 70
     8
 71
     3
 72
    15
 73
    11
 74
     0
 42
0.00000001
 43
0.00000001
 40
0.0
 40
0.0
 40
0.0
 40
0.0
 40
0.1355968776699562
 40
0.2953259741877942
 40
0.403811035414547
 40
0.5319581158885225
 40
0.6738366035801229
 40
0.8261055497331444
 40
0.9126193164003756
 40
1.0
 40
1.0
 40
1.0
 40
1.0
 10
179.1517957085134
 20
70.47604425692933
 30
0.0
 10
179.1961779331131
 20
70.4687176151027
 30
0.0
 10
179.2928411007449
 20
70.45276040670554
 30
0.0
 10
179.4996916257756
 20
70.5004372417993
 30
0.0
 10
179.6929482099238
 20
70.5881514841833
 30
0.0
 10
179.839536222018
 20
70.70782101698309
 30
0.0
 10
179.9382440324513
 20
70.8587232623164
 30
0.0
 10
179.9679002912854
 20
70.98057582944375
 30
0.0
 10
179.9467290225781
 20
71.1098049494612
 30
0.0
 10
179.9004725010963
 20
71.17648154899844
 30
0.0
 10
179.8772289389135
 20
71.2099860503711
 30
0.0
  0
SPLINE
  5
142
330
1F
100
AcDbEntity
  8
0
  6
Continuous
 62
     7
370
    15
100
AcDbSpline
210
0.0
220
0.0
230
1.0
 70
     8
 71
     3
 72
    20
 73
    16
 74
     0
 42
0.00000001
 43
0.00000001
 40
0.0
 40
0.0
 40
0.0
 40
0.0
 40
0.0607080733617801
 40
0.2265356860999659
 40
0.3908031702683526
 40
0.4705945050111417
 40
0.5476204531806254
 40
0.62285746676219
 40
0.7003373045985339
 40
0.778647399668242
 40
0.8566576561068441
 40
0.9330984830502176
 40
0.970373435824492
 40
0.9892322541317109
 40
1.0
 40
1.0
 40
1.0
 40
1.0
 10
175.4155977600576
 20
71.2099860503711
 30
0.0
 10
175.4618726284592
 20
71.15665460467929
 30
0.0
 10
175.6345499756726
 20
70.95764523127168
 30
0.0
 10
176.051508399608
 20
70.9397183767016
 30
0.0
 10
176.6164773854726
 20
70.86469311344278
 30
0.0
 10
177.1360877015279
 20
70.8217554303317
 30
0.0
 10
177.5299787787496
 20
70.79119478711296
 30
0.0
 10
177.9228906113593
 20
70.76352303813272
 30
0.0
 10
178.3040519629957
 20
70.73221343995526
 30
0.0
 10
178.6597760651123
 20
70.6997347331037
 30
0.0
 10
178.962398552465
 20
70.66891941188061
 30
0.0
 10
179.1549167036981
 20
70.64602459445653
 30
0.0
 10
179.2430310362119
 20
70.63798545732955
 30
0.0
 10
179.2884583098454
 20
70.63019314262836
 30
0.0
 10
179.2879088869707
 20
70.6341521077997
 30
0.0
 10
179.2877091997625
 20
70.63559098983185
 30
0.0
  0
SPLINE
  5
143
330
1F
100
AcDbEntity
  8
0
  6
Continuous
 62
     7
370
    15
100
AcDbSpline
210
0.0
220
0.0
230
1.0
 70
     8
 71
     3
 72
    18
 73
    14
 74
     0
 42
0.00000001
 43
0.00000001
 40
0.0
 40
0.0
 40
0.0
 40
0.0
 40
0.0057509026590458
 40
0.1156365356630773
 40
0.2383916339763188
 40
0.3593075760794307
 40
0.4757059375297732
 40
0.5872133785399697
 40
0.7047339673489821
 40
0.8265049050365603
 40
0.8891453626006172
 40
0.9517988956145745
 40
1.0
 40
1.0
 40
1.0
 40
1.0
 10
179.658420287943
 20
79.85681696677582
 30
0.0
 10
179.6537730549378
 20
79.85976916262769
 30
0.0
 10
179.5603286068206
 20
79.91913057441694
 30
0.0
 10
179.3380222933581
 20
79.92530863313188
 30
0.0
 10
178.9466239358089
 20
79.98451112106886
 30
0.0
 10
178.4347457043799
 20
80.03004790272634
 30
0.0
 10
177.8837140096005
 20
80.07621473215349
 30
0.0
 10
177.3215963750558
 20
80.11509417367648
 30
0.0
 10
176.7873163942918
 20
80.15984800786514
 30
0.0
 10
176.3896759970267
 20
80.2008870088568
 30
0.0
 10
176.1749480773039
 20
80.22203708196277
 30
0.0
 10
176.0789010905214
 20
80.22430562228178
 30
0.0
 10
176.0634524156004
 20
80.20824199251891
 30
0.0
 10
176.0567351215841
 20
80.20125730777161
 30
0.0
  0
SPLINE
  5
144
330
1F
100
AcDbEntity
  8
0
  6
Continuous
 62
     7
370
    15
100
AcDbSpline
210
0.0
220
0.0
230
1.0
 70
     8
 71
     3
 72
    12
 73
     8
 74
     0
 42
0.00000001
 43
0.00000001
 40
0.0
 40
0.0
 40
0.0
 40
0.0
 40
0.2236872246468318
 40
0.4523175361445844
 40
0.6822433783675855
 40
0.9102243843454078
 40
1.0
 40
1.0
 40
1.0
 40
1.0
 10
175.3574981325629
 20
81.01185067439451
 30
0.0
 10
175.3447567264588
 20
80.96930259388942
 30
0.0
 10
175.3189923520067
 20
80.88326619653982
 30
0.0
 10
175.4401478521775
 20
80.79163951302895
 30
0.0
 10
175.6718156739128
 20
80.69534779381004
 30
0.0
 10
175.9166754728166
 20
80.63284269794993
 30
0.0
 10
176.1000077543457
 20
80.6380686705911
 30
0.0
 10
176.1518045300008
 20
80.63954516196625
 30
0.0
  0
SPLINE
  5
145
330
1F
100
AcDbEntity
  8
0
  6
Continuous
 62
     7
370
    15
100
AcDbSpline
210
0.0
220
0.0
230
1.0
 70
     8
 71
     3
 72
    19
 73
    15
 74
     0
 42
0.00000001
 43
0.00000001
 40
0.0
 40
0.0
 40
0.0
 40
0.0
 40
0.0979056887082271
 40
0.1753760308697958
 40
0.2884836952147524
 40
0.3734533306399113
 40
0.4570019090080255
 40
0.6168876666450595
 40
0.6796676847293278
 40
0.7634260107129107
 40
0.8137554945037926
 40
0.8702991456713871
 40
0.9324008460228941
 40
1.0
 40
1.0
 40
1.0
 40
1.0
 10
175.5337341660025
 20
80.51671489024534
 30
0.0
 10
175.584243632699
 20
80.49034034230674
 30
0.0
 10
175.6747199871119
 20
80.44309626901037
 30
0.0
 10
176.0493590668867
 20
80.38244132863979
 30
0.0
 10
176.535862882227
 20
80.32856193902738
 30
0.0
 10
177.127200967811
 20
80.27531091965015
 30
0.0
 10
177.8812968231146
 20
80.2237664929549
 30
0.0
 10
178.5224068956263
 20
80.15682775840399
 30
0.0
 10
179.1716670267811
 20
80.12130929038929
 30
0.0
 10
179.5500121423105
 20
80.199491966565
 30
0.0
 10
179.8018553207652
 20
80.30769555588036
 30
0.0
 10
179.9354440934017
 20
80.3960381847498
 30
0.0
 10
179.997219383172
 20
80.46987523337546
 30
0.0
 10
179.9257751444737
 20
80.55038964910807
 30
0.0
 10
179.8885389202596
 20
80.59235318446534
 30
0.0
  0
SPLINE
  5
146
330
1F
100
AcDbEntity
  8
0
  6
Continuous
 62
     7
370
    15
100
AcDbSpline
210
0.0
220
0.0
230
1.0
 70
     8
 71
     3
 72
    25
 73
    21
 74
     0
 42
0.00000001
 43
0.00000001
 40
0.0
 40
0.0
 40
0.0
 40
0.0
 40
0.0176257042353922
 40
0.0344972663499578
 40
0.0503151614311563
 40
0.0649735404984366
 40
0.0909455917801296
 40
0.1134366221113422
 40
0.1538391872525185
 40
0.1912340175570827
 40
0.2995700890982436
 40
0.3999626722492999
 40
0.501294752980786
 40
0.5949050187530304
 40
0.6784883546428798
 40
0.7336284461388999
 40
0.8075182355711659
 40
0.895281331735917
 40
0.945308680147818
 40
1.0
 40
1.0
 40
1.0
 40
1.0
 10
179.5312239759924
 20
79.96677263522523
 30
0.0
 10
179.5709281900676
 20
79.97116263475995
 30
0.0
 10
179.6486378140281
 20
79.97975480113256
 30
0.0
 10
179.7505305773215
 20
80.02576992153845
 30
0.0
 10
179.8315371453606
 20
80.08471651362997
 30
0.0
 10
179.9077448031553
 20
80.1683167222551
 30
0.0
 10
179.9607924032546
 20
80.27194751480552
 30
0.0
 10
179.9849408902358
 20
80.4042901583767
 30
0.0
 10
179.9620654678386
 20
80.53614148397892
 30
0.0
 10
179.7908259765729
 20
80.7813749488946
 30
0.0
 10
179.4480390285606
 20
80.86843412056555
 30
0.0
 10
178.9529253865358
 20
80.92699753724456
 30
0.0
 10
178.3397143044996
 20
80.98536094413919
 30
0.0
 10
177.690238485082
 20
81.0349885372353
 30
0.0
 10
177.1505417885112
 20
81.07444986256624
 30
0.0
 10
176.7045220070957
 20
81.1136339611269
 30
0.0
 10
176.3158353124223
 20
81.1518521468395
 30
0.0
 10
176.0556583679084
 20
81.17971659908326
 30
0.0
 10
175.9252315153302
 20
81.20219878049586
 30
0.0
 10
175.9165592178402
 20
81.21465945893758
 30
0.0
 10
175.9120299452306
 20
81.22116728568452
 30
0.0
  0
SPLINE
  5
147
330
1F
100
AcDbEntity
  8
0
  6
Continuous
 62
     7
370
    15
100
AcDbSpline
210
0.0
220
0.0
230
1.0
 70
     8
 71
     3
 72
    12
 73
     8
 74
     0
 42
0.00000001
 43
0.00000001
 40
0.0
 40
0.0
 40
0.0
 40
0.0
 40
0.1756470650179405
 40
0.5723027101577256
 40
0.7586216329971905
 40
0.9207423355829982
 40
1.0
 40
1.0
 40
1.0
 40
1.0
 10
176.0003640287878
 20
80.40269120479002
 30
0.0
 10
175.9348003767799
 20
80.39351456964552
 30
0.0
 10
175.7211773610572
 20
80.36361476367507
 30
0.0
 10
175.5052579873653
 20
80.28969568402078
 30
0.0
 10
175.3441003237757
 20
80.07476963105087
 30
0.0
 10
175.3128979155859
 20
79.91454391462257
 30
0.0
 10
175.3438709342208
 20
79.83588509691039
 30
0.0
 10
175.3540410631658
 20
79.81005712294953
 30
0.0
  0
LINE
  5
148
330
1F
100
AcDbEntity
  8
0
  6
Continuous
 62
     7
370
    15
100
AcDbLine
 10
175.5115612381
 20
71.1122493341
 30
0.0
 11
174.3930949801
 21
71.1122493341
 31
0.0
  0
LINE
  5
149
330
1F
100
AcDbEntity
  8
0
  6
Continuous
 62
     7
370
    15
100
AcDbLine
 10
174.3930949801
 20
70.3122506931
 30
0.0
 11
176.15180453
 21
70.3122506931
 31
0.0
  0
LINE
  5
14A
330
1F
100
AcDbEntity
  8
0
  6
Continuous
 62
     7
370
    15
100
AcDbLine
 10
172.9828043812
 20
83.9099924161
 30
0.0
 11
172.9828043812
 21
83.9634577825
 31
0.0
  0
LINE
  5
14B
330
1F
100
AcDbEntity
  8
0
  6
Continuous
 62
     7
370
    15
100
AcDbLine
 10
169.9828132027
 20
83.9634577825
 30
0.0
 11
169.9828132027
 21
83.9099924161
 31
0.0
  0
SPLINE
  5
14C
330
1F
100
AcDbEntity
  8
0
  6
Continuous
 62
     7
370
    15
100
AcDbSpline
210
0.0
220
0.0
230
1.0
 70
     8
 71
     3
 72
    15
 73
    11
 74
     0
 42
0.00000001
 43
0.00000001
 40
0.0
 40
0.0
 40
0.0
 40
0.0
 40
0.1077555984635169
 40
0.23525132098926
 40
0.3627905294629136
 40
0.4902569079919491
 40
0.6176632052480955
 40
0.745097043409137
 40
0.8724966518631685
 40
1.0
 40
1.0
 40
1.0
 40
1.0
 10
169.9988617533209
 20
67.90998979354279
 30
0.0
 10
170.015400881942
 20
67.59746754866953
 30
0.0
 10
170.0515089998646
 20
66.91517101843522
 30
0.0
 10
170.3877216946525
 20
65.90602312542698
 30
0.0
 10
170.9458012222492
 20
64.94254440072564
 30
0.0
 10
171.7006264716343
 20
64.12161690628717
 30
0.0
 10
172.6157905714451
 20
63.48635145964091
 30
0.0
 10
173.6430460286755
 20
63.06619060822338
 30
0.0
 10
174.7390236773602
 20
62.85238957762868
 30
0.0
 10
175.4747841142111
 20
62.91791405897687
 30
0.0
 10
175.8428140514852
 20
62.95068963313477
 30
0.0
  0
SPLINE
  5
14D
330
1F
100
AcDbEntity
  8
0
  6
Continuous
 62
     7
370
    15
100
AcDbSpline
210
0.0
220
0.0
230
1.0
 70
     8
 71
     3
 72
    15
 73
    11
 74
     0
 42
0.00000001
 43
0.00000001
 40
0.0
 40
0.0
 40
0.0
 40
0.0
 40
0.1316483452905108
 40
0.2633125736960542
 40
0.3951891228075907
 40
0.5266691347667831
 40
0.6575482409241131
 40
0.7882151506106828
 40
0.9184604873266078
 40
1.0
 40
1.0
 40
1.0
 40
1.0
 10
175.3451152676107
 20
65.90837641501801
 30
0.0
 10
175.1929372986279
 20
65.89656217370077
 30
0.0
 10
174.8885630006883
 20
65.87293226570127
 30
0.0
 10
174.4376940234276
 20
65.97439970294344
 30
0.0
 10
174.0186728081895
 20
66.16127449527731
 30
0.0
 10
173.6482792916573
 20
66.43386323811245
 30
0.0
 10
173.3460063572796
 20
66.77976998672197
 30
0.0
 10
173.1268612424364
 20
67.18148357101106
 30
0.0
 10
173.0094986028605
 20
67.56779390270663
 30
0.0
 10
172.9993162002272
 20
67.81486477228168
 30
0.0
 10
172.9953958624365
 20
67.90998979354279
 30
0.0
  0
SPLINE
  5
14E
330
1F
100
AcDbEntity
  8
0
  6
Continuous
 62
     7
370
    15
100
AcDbSpline
210
0.0
220
0.0
230
1.0
 70
     8
 71
     3
 72
    15
 73
    11
 74
     0
 42
0.00000001
 43
0.00000001
 40
0.0
 40
0.0
 40
0.0
 40
0.0
 40
0.1249271724452606
 40
0.2499156778186059
 40
0.3749661225157206
 40
0.4999574189332024
 40
0.6249212965006179
 40
0.749916905720849
 40
0.8748746059781706
 40
1.0
 40
1.0
 40
1.0
 40
1.0
 10
176.0136856668951
 20
88.84051843428986
 30
0.0
 10
175.6473089988169
 20
88.88385102961988
 30
0.0
 10
174.9143757902323
 20
88.97053749439429
 30
0.0
 10
173.8103529597282
 20
88.80533819691865
 30
0.0
 10
172.7695500394689
 20
88.4164164665911
 30
0.0
 10
171.83436348029
 20
87.8113904711815
 30
0.0
 10
171.0537067234291
 20
87.01520640839433
 30
0.0
 10
170.4657507200524
 20
86.07083647532127
 30
0.0
 10
170.0699275359316
 20
85.02239319913821
 30
0.0
 10
170.0118642919323
 20
84.28327253050863
 30
0.0
 10
169.9828132027151
 20
83.91346438670533
 30
0.0
  0
SPLINE
  5
14F
330
1F
100
AcDbEntity
  8
0
  6
Continuous
 62
     7
370
    15
100
AcDbSpline
210
0.0
220
0.0
230
1.0
 70
     8
 71
     3
 72
    15
 73
    11
 74
     0
 42
0.00000001
 43
0.00000001
 40
0.0
 40
0.0
 40
0.0
 40
0.0
 40
0.1242546179904558
 40
0.2486342726399256
 40
0.3735431489101319
 40
0.498583646664115
 40
0.6236664767119504
 40
0.7490733915850996
 40
0.8744397787534529
 40
1.0
 40
1.0
 40
1.0
 40
1.0
 10
172.9828043812277
 20
83.9134643867053
 30
0.0
 10
172.9963598292717
 20
84.06542324021585
 30
0.0
 10
173.023484366124
 20
84.369493862498
 30
0.0
 10
173.1979705854535
 20
84.79680015487756
 30
0.0
 10
173.4512944054204
 20
85.17844312880213
 30
0.0
 10
173.7811154524517
 20
85.4983775445329
 30
0.0
 10
174.1720463026369
 20
85.73894823790474
 30
0.0
 10
174.6047399094948
 20
85.89057869301331
 30
0.0
 10
175.062271009865
 20
85.94404117807127
 30
0.0
 10
175.3641837475377
 20
85.90334464769566
 30
0.0
 10
175.5152567261221
 20
85.88298066401856
 30
0.0
  0
LINE
  5
150
330
1F
100
AcDbEntity
  8
0
  6
Continuous
 62
     7
370
    15
100
AcDbLine
 10
190.8858641022
 20
68.5251246288
 30
0.0
 11
175.3448917502
 21
65.9087191417
 31
0.0
  0
LINE
  5
151
330
1F
100
AcDbEntity
  8
0
  6
Continuous
 62
     7
370
    15
100
AcDbLine
 10
175.8429630631
 20
62.9503469064
 30
0.0
 11
191.383920514
 21
65.5667672946
 31
0.0
  0
LINE
  5
152
330
1F
100
AcDbEntity
  8
0
  6
Continuous
 62
     7
370
    15
100
AcDbLine
 10
175.5154802435
 20
85.8825634315
 30
0.0
 11
191.0564525956
 21
83.2661430433
 31
0.0
  0
LINE
  5
153
330
1F
100
AcDbEntity
  8
0
  6
Continuous
 62
     7
370
    15
100
AcDbLine
 10
191.5545090073
 20
86.2245003774
 30
0.0
 11
176.0135366553
 21
88.8409207656
 31
0.0
  0
SPLINE
  5
154
330
1F
100
AcDbEntity
  8
0
  6
Continuous
 62
     7
370
    15
100
AcDbSpline
210
0.0
220
0.0
230
1.0
 70
     8
 71
     3
 72
    12
 73
     8
 74
     0
 42
0.00000001
 43
0.00000001
 40
0.0
 40
0.0
 40
0.0
 40
0.0
 40
0.1526143616206806
 40
0.2973900838260376
 40
0.5623702654073864
 40
0.7966014934523973
 40
1.0
 40
1.0
 40
1.0
 40
1.0
 10
191.3835777872564
 20
65.56706531787293
 30
0.0
 10
191.6347965958816
 20
65.6198104805665
 30
0.0
 10
192.1243310129728
 20
65.72259168797254
 30
0.0
 10
192.9738639863767
 20
66.15181443016824
 30
0.0
 10
193.7858460937223
 20
66.89622036550094
 30
0.0
 10
194.3502977633431
 20
67.96725550223363
 30
0.0
 10
194.4319849802543
 20
68.70218439913906
 30
0.0
 10
194.4699509972097
 20
69.04375954413788
 30
0.0
  0
SPLINE
  5
155
330
1F
100
AcDbEntity
  8
0
  6
Continuous
 62
     7
370
    15
100
AcDbSpline
210
0.0
220
0.0
230
1.0
 70
     8
 71
     3
 72
    11
 73
     7
 74
     0
 42
0.00000001
 43
0.00000001
 40
0.0
 40
0.0
 40
0.0
 40
0.0
 40
0.2003641189614822
 40
0.4328060802232906
 40
0.699024866168115
 40
0.9999999999999999
 40
0.9999999999999999
 40
0.9999999999999999
 40
0.9999999999999999
 10
191.4716287487509
 20
69.04375954413786
 30
0.0
 10
191.4584021008467
 20
68.98733114921313
 30
0.0
 10
191.4298312486225
 20
68.8654403009552
 30
0.0
 10
191.3139364284169
 20
68.69974082664513
 30
0.0
 10
191.1292048223502
 20
68.56082316780393
 30
0.0
 10
190.9715781833367
 20
68.53744211629137
 30
0.0
 10
190.8879353636266
 20
68.52503522181885
 30
0.0
  0
SPLINE
  5
156
330
1F
100
AcDbEntity
  8
0
  6
Continuous
 62
     7
370
    15
100
AcDbSpline
210
0.0
220
0.0
230
1.0
 70
     8
 71
     3
 72
    12
 73
     8
 74
     0
 42
0.00000001
 43
0.00000001
 40
0.0
 40
0.0
 40
0.0
 40
0.0
 40
0.2034078427593986
 40
0.4376400322228931
 40
0.7026181682021735
 40
0.8473893355518703
 40
1.0
 40
1.0
 40
1.0
 40
1.0
 10
194.4699509972097
 20
82.60238571906464
 30
0.0
 10
194.4485100871497
 20
82.94539608888607
 30
0.0
 10
194.4023791197185
 20
83.68339648879694
 30
0.0
 10
193.8902822576799
 20
84.78051288798105
 30
0.0
 10
193.1150677574299
 20
85.56326020552177
 30
0.0
 10
192.2872207993915
 20
86.0329881539738
 30
0.0
 10
191.8032375670155
 20
86.1592554056633
 30
0.0
 10
191.5548666351797
 20
86.22405334258454
 30
0.0
  0
SPLINE
  5
157
330
1F
100
AcDbEntity
  8
0
  6
Continuous
 62
     7
370
    15
100
AcDbSpline
210
0.0
220
0.0
230
1.0
 70
     8
 71
     3
 72
    12
 73
     8
 74
     0
 42
0.00000001
 43
0.00000001
 40
0.0
 40
0.0
 40
0.0
 40
0.0
 40
0.1555604877376545
 40
0.3022102158253786
 40
0.5679674388781151
 40
0.7999363513240186
 40
0.9999999999999999
 40
0.9999999999999999
 40
0.9999999999999999
 40
0.9999999999999999
 10
191.0545303457739
 20
83.26705201411622
 30
0.0
 10
191.0950775373016
 20
83.2513019669659
 30
0.0
 10
191.1738493107828
 20
83.22070406117521
 30
0.0
 10
191.3034763012594
 20
83.12566709482694
 30
0.0
 10
191.417913799263
 20
82.97949050294872
 30
0.0
 10
191.4820476697587
 20
82.7852407057221
 30
0.0
 10
191.4749264229337
 20
82.66026082611677
 30
0.0
 10
191.4716287487508
 20
82.60238571906464
 30
0.0
  0
LINE
  5
158
330
1F
100
AcDbEntity
  8
0
  6
Continuous
 62
     7
370
    15
100
AcDbLine
 10
191.4707942837
 20
82.652394016
 30
0.0
 11
191.4707942837
 21
82.4099968269
 31
0.0
  0
LINE
  5
159
330
1F
100
AcDbEntity
  8
0
  6
Continuous
 62
     7
370
    15
100
AcDbLine
 10
191.4707942837
 20
69.410000284
 30
0.0
 11
191.4707942837
 21
68.9937512472
 31
0.0
  0
LINE
  5
15A
330
1F
100
AcDbEntity
  8
0
  6
Continuous
 62
     7
370
    15
100
AcDbLine
 10
194.4707854622
 20
68.9937512472
 30
0.0
 11
194.4707854622
 21
69.4127420976
 31
0.0
  0
LINE
  5
15B
330
1F
100
AcDbEntity
  8
0
  6
Continuous
 62
     7
370
    15
100
AcDbLine
 10
194.4707854622
 20
82.4072550132
 30
0.0
 11
194.4707854622
 21
82.652394016
 31
0.0
  0
LINE
  5
15C
330
1F
100
AcDbEntity
  8
0
  6
Continuous
 62
     7
370
    15
100
AcDbLine
 10
180.7700767153
 20
81.5099964931
 30
0.0
 11
179.1517957085
 21
81.5099964931
 31
0.0
  0
LINE
  5
15D
330
1F
100
AcDbEntity
  8
0
  6
Continuous
 62
     7
370
    15
100
AcDbLine
 10
179.7787173623
 20
80.7099978521
 30
0.0
 11
180.7700767153
 21
80.7099978521
 31
0.0
  0
LINE
  5
15E
330
1F
100
AcDbEntity
  8
0
  6
Continuous
 62
     7
370
    15
100
AcDbLine
 10
181.1083032721
 20
82.7781300142
 30
0.0
 11
180.8417662018
 21
81.5698842599
 31
0.0
  0
LINE
  5
15F
330
1F
100
AcDbEntity
  8
0
  6
Continuous
 62
     7
370
    15
100
AcDbLine
 10
181.6099210614
 20
81.3383351162
 30
0.0
 11
181.8895115489
 21
82.605798085
 31
0.0
  0
SPLINE
  5
160
330
1F
100
AcDbEntity
  8
0
  6
Continuous
 62
     7
370
    15
100
AcDbSpline
210
0.0
220
0.0
230
1.0
 70
     8
 71
     3
 72
    11
 73
     7
 74
     0
 42
0.00000001
 43
0.00000001
 40
0.0
 40
0.0
 40
0.0
 40
0.0
 40
0.2541311630691059
 40
0.5022676364033828
 40
0.7495179365131207
 40
1.0
 40
1.0
 40
1.0
 40
1.0
 10
180.7700767153265
 20
80.70999785209077
 30
0.0
 10
180.8701651486219
 20
80.72024297634309
 30
0.0
 10
181.0679810332049
 20
80.74049155302579
 30
0.0
 10
181.3261326203542
 20
80.89451718992937
 30
0.0
 10
181.5295740376265
 20
81.11359842117724
 30
0.0
 10
181.5913100172559
 20
81.30064844656776
 30
0.0
 10
181.622378432131
 20
81.39478071475403
 30
0.0
  0
LINE
  5
161
330
1F
100
AcDbEntity
  8
0
  6
Continuous
 62
     7
370
    15
100
AcDbLine
 10
180.3817971581
 20
67.9099897935
 30
0.0
 11
180.3817971581
 21
68.7099884346
 31
0.0
  0
LINE
  5
162
330
1F
100
AcDbEntity
  8
0
  6
Continuous
 62
     7
370
    15
100
AcDbLine
 10
180.3817971581
 20
83.1099937751
 30
0.0
 11
180.3817971581
 21
83.9099924161
 31
0.0
  0
ARC
  5
163
330
1F
100
AcDbEntity
  8
0
  6
Continuous
 62
     7
370
    15
100
AcDbCircle
 10
177.6517973107
 20
81.1028506319
 30
0.0
 40
3.80714285714331
100
AcDbArc
 50
54.6997515601
 51
125.3002484399
  0
LINE
  5
164
330
1F
100
AcDbEntity
  8
0
  6
Continuous
 62
     7
370
    15
100
AcDbLine
 10
175.4517926806
 20
84.2099974945
 30
0.0
 11
175.4517926806
 21
83.9099924161
 31
0.0
  0
LINE
  5
165
330
1F
100
AcDbEntity
  8
0
  6
Continuous
 62
     7
370
    15
100
AcDbLine
 10
179.8517926568
 20
83.9099924161
 30
0.0
 11
179.8517926568
 21
84.2099974945
 31
0.0
  0
LINE
  5
166
330
1F
100
AcDbEntity
  8
0
  6
Continuous
 62
     7
370
    15
100
AcDbLine
 10
175.5517943734
 20
67.5099979236
 30
0.0
 11
175.5517943734
 21
67.1099911525
 31
0.0
  0
LINE
  5
167
330
1F
100
AcDbEntity
  8
0
  6
Continuous
 62
     7
370
    15
100
AcDbLine
 10
179.751790964
 20
67.1099911525
 30
0.0
 11
179.751790964
 21
67.5099979236
 31
0.0
  0
ARC
  5
168
330
1F
100
AcDbEntity
  8
0
  6
Continuous
 62
     7
370
    15
100
AcDbCircle
 10
175.7517973107
 20
67.9099934891
 30
0.0
 40
0.4000000000008015
100
AcDbArc
 50
270.0
 51
0.0
  0
ARC
  5
169
330
1F
100
AcDbEntity
  8
0
  6
Continuous
 62
     7
370
    15
100
AcDbCircle
 10
179.5517973107
 20
67.9099934891
 30
0.0
 40
0.4000000000007731
100
AcDbArc
 50
180.0
 51
270.0
  0
LINE
  5
16A
330
1F
100
AcDbEntity
  8
0
  6
Continuous
 62
     7
370
    15
100
AcDbLine
 10
176.15180453
 20
83.1099937751
 30
0.0
 11
176.15180453
 21
82.6599936082
 31
0.0
  0
LINE
  5
16B
330
1F
100
AcDbEntity
  8
0
  6
Continuous
 62
     7
370
    15
100
AcDbLine
 10
176.15180453
 20
81.6599915817
 30
0.0
 11
176.15180453
 21
81.1712930992
 31
0.0
  0
LINE
  5
16C
330
1F
100
AcDbEntity
  8
0
  6
Continuous
 62
     7
370
    15
100
AcDbLine
 10
176.15180453
 20
80.3751687601
 30
0.0
 11
176.15180453
 21
80.2194814279
 31
0.0
  0
LINE
  5
16D
330
1F
100
AcDbEntity
  8
0
  6
Continuous
 62
     7
370
    15
100
AcDbLine
 10
176.15180453
 20
70.9203670814
 30
0.0
 11
176.15180453
 21
70.159990628
 31
0.0
  0
LINE
  5
16E
330
1F
100
AcDbEntity
  8
0
  6
Continuous
 62
     7
370
    15
100
AcDbLine
 10
176.15180453
 20
69.1599886014
 30
0.0
 11
176.15180453
 21
68.7099884346
 31
0.0
  0
LINE
  5
16F
330
1F
100
AcDbEntity
  8
0
  6
Continuous
 62
     7
370
    15
100
AcDbLine
 10
179.1517957085
 20
68.7099884346
 30
0.0
 11
179.1517957085
 21
69.1599886014
 31
0.0
  0
LINE
  5
170
330
1F
100
AcDbEntity
  8
0
  6
Continuous
 62
     7
370
    15
100
AcDbLine
 10
179.1517957085
 20
70.159990628
 30
0.0
 11
179.1517957085
 21
70.6471393898
 31
0.0
  0
LINE
  5
171
330
1F
100
AcDbEntity
  8
0
  6
Continuous
 62
     7
370
    15
100
AcDbLine
 10
179.1517957085
 20
79.9550603225
 30
0.0
 11
179.1517957085
 21
80.1429937675
 31
0.0
  0
LINE
  5
172
330
1F
100
AcDbEntity
  8
0
  6
Continuous
 62
     7
370
    15
100
AcDbLine
 10
179.1517957085
 20
80.8980654075
 30
0.0
 11
179.1517957085
 21
81.6599915817
 31
0.0
  0
LINE
  5
173
330
1F
100
AcDbEntity
  8
0
  6
Continuous
 62
     7
370
    15
100
AcDbLine
 10
179.1517957085
 20
82.6599936082
 30
0.0
 11
179.1517957085
 21
83.1099937751
 31
0.0
  0
SPLINE
  5
174
330
1F
100
AcDbEntity
  8
0
  6
Continuous
 62
     7
370
    15
100
AcDbSpline
210
0.0
220
0.0
230
1.0
 70
     8
 71
     3
 72
    15
 73
    11
 74
     0
 42
0.00000001
 43
0.00000001
 40
0.0
 40
0.0
 40
0.0
 40
0.0
 40
0.1355965265320355
 40
0.2953255980744156
 40
0.4038106423382971
 40
0.5319577027750214
 40
0.6738320656244405
 40
0.8261009879684832
 40
0.9126193300633378
 40
1.0
 40
1.0
 40
1.0
 40
1.0
 10
179.1517957085135
 20
440.4760341241397
 30
0.0
 10
179.1961779816278
 20
440.4687136876406
 30
0.0
 10
179.2928413821341
 20
440.4527699732801
 30
0.0
 10
179.4996915402174
 20
440.5004413619473
 30
0.0
 10
179.692948391249
 20
440.5881558569794
 30
0.0
 10
179.839533790142
 20
440.7078274398202
 30
0.0
 10
179.9382460795784
 20
440.8587120373298
 30
0.0
 10
179.9678993661824
 20
440.9805615666673
 30
0.0
 10
179.9467303802012
 20
441.1098109062306
 30
0.0
 10
179.9004725468953
 20
441.1764873032624
 30
0.0
 10
179.8772289389136
 20
441.2099908187427
 30
0.0
  0
SPLINE
  5
175
330
1F
100
AcDbEntity
  8
0
  6
Continuous
 62
     7
370
    15
100
AcDbSpline
210
0.0
220
0.0
230
1.0
 70
     8
 71
     3
 72
    20
 73
    16
 74
     0
 42
0.00000001
 43
0.00000001
 40
0.0
 40
0.0
 40
0.0
 40
0.0
 40
0.0607080786555937
 40
0.2265357058541371
 40
0.3908032043468366
 40
0.4705945460475215
 40
0.547620500933756
 40
0.6228575210760745
 40
0.7003373656687489
 40
0.7786474675671871
 40
0.8566579547793368
 40
0.933098788388438
 40
0.9703736090764431
 40
0.9892324290281727
 40
1.0
 40
1.0
 40
1.0
 40
1.0
 10
175.4155977600576
 20
441.2099908187427
 30
0.0
 10
175.4618726284541
 20
441.1566593729672
 30
0.0
 10
175.6345499756484
 20
440.9576499992477
 30
0.0
 10
176.0515083999196
 20
440.939723150163
 30
0.0
 10
176.6164773845967
 20
440.8646978675062
 30
0.0
 10
177.1360877029762
 20
440.8217602223621
 30
0.0
 10
177.5299787734853
 20
440.7911994694859
 30
0.0
 10
177.9228906307933
 20
440.7635281239786
 30
0.0
 10
178.3040518876402
 20
440.732216977311
 30
0.0
 10
178.659776689748
 20
440.6997441076467
 30
0.0
 10
178.9623980651237
 20
440.6689070424475
 30
0.0
 10
179.1549163936292
 20
440.646006057817
 30
0.0
 10
179.2430311536486
 20
440.6379876314517
 30
0.0
 10
179.288458213205
 20
440.6302049988393
 30
0.0
 10
179.2879088596875
 20
440.6341478474533
 30
0.0
 10
179.2877091997625
 20
440.6355808570422
 30
0.0
  0
SPLINE
  5
176
330
1F
100
AcDbEntity
  8
0
  6
Continuous
 62
     7
370
    15
100
AcDbSpline
210
0.0
220
0.0
230
1.0
 70
     8
 71
     3
 72
    18
 73
    14
 74
     0
 42
0.00000001
 43
0.00000001
 40
0.0
 40
0.0
 40
0.0
 40
0.0
 40
0.005750901312886
 40
0.1156365085951078
 40
0.2383915781740809
 40
0.3593074919734304
 40
0.4757058261774768
 40
0.587213241086234
 40
0.7047338023862616
 40
0.8265047115699417
 40
0.8891451544712452
 40
0.9517986728193887
 40
1.0
 40
1.0
 40
1.0
 40
1.0
 10
179.658420287943
 20
449.8568217351474
 30
0.0
 10
179.6537730549378
 20
449.8597739309991
 30
0.0
 10
179.5603286068204
 20
449.9191353427856
 30
0.0
 10
179.3380222933568
 20
449.9253134018875
 30
0.0
 10
178.9466239358145
 20
449.9845158879249
 30
0.0
 10
178.4347457043594
 20
450.0300526765297
 30
0.0
 10
177.8837140096724
 20
450.0762194814395
 30
0.0
 10
177.3215963747938
 20
450.1150990115789
 30
0.0
 10
176.787316395346
 20
450.1598524964505
 30
0.0
 10
176.3896759937825
 20
450.2008926382869
 30
0.0
 10
176.1749480830973
 20
450.2220403127017
 30
0.0
 10
176.0789009409824
 20
450.2243156894093
 30
0.0
 10
176.0634523831329
 20
450.2082379945933
 30
0.0
 10
176.0567351215841
 20
450.201247174982
 30
0.0
  0
SPLINE
  5
177
330
1F
100
AcDbEntity
  8
0
  6
Continuous
 62
     7
370
    15
100
AcDbSpline
210
0.0
220
0.0
230
1.0
 70
     8
 71
     3
 72
    12
 73
     8
 74
     0
 42
0.00000001
 43
0.00000001
 40
0.0
 40
0.0
 40
0.0
 40
0.0
 40
0.2236875025052179
 40
0.4523163209921765
 40
0.6822441054446139
 40
0.9102243234474346
 40
1.0
 40
1.0
 40
1.0
 40
1.0
 10
175.3574981325628
 20
451.0118405416049
 30
0.0
 10
175.3447565255566
 20
450.9692902717133
 30
0.0
 10
175.3189918460817
 20
450.8832497852352
 30
0.0
 10
175.4401498005749
 20
450.7916567985749
 30
0.0
 10
175.6718133548424
 20
450.6953212976587
 30
0.0
 10
175.916676207406
 20
450.63286092338
 30
0.0
 10
176.1000077963632
 20
450.6380647814566
 30
0.0
 10
176.1518045300008
 20
450.6395350291766
 30
0.0
  0
SPLINE
  5
178
330
1F
100
AcDbEntity
  8
0
  6
Continuous
 62
     7
370
    15
100
AcDbSpline
210
0.0
220
0.0
230
1.0
 70
     8
 71
     3
 72
    19
 73
    15
 74
     0
 42
0.00000001
 43
0.00000001
 40
0.0
 40
0.0
 40
0.0
 40
0.0
 40
0.0979058804119611
 40
0.1753761748235983
 40
0.2884837694530603
 40
0.3734531724706804
 40
0.457001699342457
 40
0.6168875345302438
 40
0.6796675139191678
 40
0.7634261149439612
 40
0.8137550417830408
 40
0.8702986580991632
 40
0.9324003201734166
 40
1.0
 40
1.0
 40
1.0
 40
1.0
 10
175.5337341660024
 20
450.5167196586169
 30
0.0
 10
175.5842435210506
 20
450.490338560932
 30
0.0
 10
175.6747195725798
 20
450.4430828089777
 30
0.0
 10
176.0493591972954
 20
450.3824337139065
 30
0.0
 10
176.5358619967952
 20
450.3285443362079
 30
0.0
 10
177.1272016910206
 20
450.2753202934233
 30
0.0
 10
177.8812973357046
 20
450.2237707138346
 30
0.0
 10
178.5224058879619
 20
450.1568198806393
 30
0.0
 10
179.1716684875213
 20
450.121293533203
 30
0.0
 10
179.5500091125215
 20
450.1995083021169
 30
0.0
 10
179.8018567241276
 20
450.3076793453265
 30
0.0
 10
179.9354438514366
 20
450.3960307506662
 30
0.0
 10
179.997219367047
 20
450.4698614066702
 30
0.0
 10
179.9257752373447
 20
450.5503879355089
 30
0.0
 10
179.8885389202596
 20
450.5923579528369
 30
0.0
  0
SPLINE
  5
179
330
1F
100
AcDbEntity
  8
0
  6
Continuous
 62
     7
370
    15
100
AcDbSpline
210
0.0
220
0.0
230
1.0
 70
     8
 71
     3
 72
    25
 73
    21
 74
     0
 42
0.00000001
 43
0.00000001
 40
0.0
 40
0.0
 40
0.0
 40
0.0
 40
0.0176257152332822
 40
0.0344972878751767
 40
0.0503151928262487
 40
0.0649722332787061
 40
0.0909443007661495
 40
0.1134367202712146
 40
0.1538393106223322
 40
0.1912330264523711
 40
0.2995696854287082
 40
0.3999623312216071
 40
0.5012942975292105
 40
0.5949046217113428
 40
0.678488170197744
 40
0.7336282960994625
 40
0.8075181316366539
 40
0.8952811567272466
 40
0.9453086460221393
 40
1.0
 40
1.0
 40
1.0
 40
1.0
 10
179.5312239759924
 20
449.9667774035968
 30
0.0
 10
179.5709281410938
 20
449.9711674864243
 30
0.0
 10
179.6486376692019
 20
449.9797598158187
 30
0.0
 10
179.7505311135658
 20
450.0257737778874
 30
0.0
 10
179.8315330233506
 20
450.0847226929179
 30
0.0
 10
179.9077498407744
 20
450.1683031753407
 30
0.0
 10
179.9607927482929
 20
450.271937873256
 30
0.0
 10
179.984940371621
 20
450.4042975346962
 30
0.0
 10
179.9620672299565
 20
450.5361473907321
 30
0.0
 10
179.7908205735366
 20
450.7813538332014
 30
0.0
 10
179.4480415383371
 20
450.8684462157889
 30
0.0
 10
178.9529255815187
 20
450.927004809022
 30
0.0
 10
178.3397138012927
 20
450.985348438803
 30
0.0
 10
177.6902376889173
 20
451.0349728570816
 30
0.0
 10
177.1505423827461
 20
451.074458294479
 30
0.0
 10
176.7045219032431
 20
451.1136364246392
 30
0.0
 10
176.3158357277251
 20
451.1518648112016
 30
0.0
 10
176.0556579256383
 20
451.1796937236439
 30
0.0
 10
175.9252316429075
 20
451.2022093798731
 30
0.0
 10
175.9165592584942
 20
451.2146662323208
 30
0.0
 10
175.9120299452307
 20
451.2211720540561
 30
0.0
  0
SPLINE
  5
17A
330
1F
100
AcDbEntity
  8
0
  6
Continuous
 62
     7
370
    15
100
AcDbSpline
210
0.0
220
0.0
230
1.0
 70
     8
 71
     3
 72
    12
 73
     8
 74
     0
 42
0.00000001
 43
0.00000001
 40
0.0
 40
0.0
 40
0.0
 40
0.0
 40
0.1756466610234777
 40
0.572305872467355
 40
0.7586205039160716
 40
0.9207478069704773
 40
1.0
 40
1.0
 40
1.0
 40
1.0
 10
176.0003640287878
 20
450.4026810720004
 30
0.0
 10
175.9348002093727
 20
450.3935111170094
 30
0.0
 10
175.7211749764534
 20
450.3636328428594
 30
0.0
 10
175.5052622982856
 20
450.2896699635056
 30
0.0
 10
175.3440980392581
 20
450.0747805847831
 30
0.0
 10
175.3128964717077
 20
449.9145307456714
 30
0.0
 10
175.3438711416794
 20
449.8358839984043
 30
0.0
 10
175.3540410631658
 20
449.8100618913211
 30
0.0
  0
LINE
  5
17B
330
1F
100
AcDbEntity
  8
0
  6
Continuous
 62
     7
370
    15
100
AcDbLine
 10
175.5115612381
 20
441.1122541025
 30
0.0
 11
174.3930949801
 21
441.1122541025
 31
0.0
  0
LINE
  5
17C
330
1F
100
AcDbEntity
  8
0
  6
Continuous
 62
     7
370
    15
100
AcDbLine
 10
174.3930949801
 20
440.3122554615
 30
0.0
 11
176.15180453
 21
440.3122554615
 31
0.0
  0
LINE
  5
17D
330
1F
100
AcDbEntity
  8
0
  6
Continuous
 62
     7
370
    15
100
AcDbLine
 10
172.9828043812
 20
453.9099971845
 30
0.0
 11
172.9828043812
 21
453.9634625509
 31
0.0
  0
LINE
  5
17E
330
1F
100
AcDbEntity
  8
0
  6
Continuous
 62
     7
370
    15
100
AcDbLine
 10
169.9828132027
 20
453.9634625509
 30
0.0
 11
169.9828132027
 21
453.9099971845
 31
0.0
  0
SPLINE
  5
17F
330
1F
100
AcDbEntity
  8
0
  6
Continuous
 62
     7
370
    15
100
AcDbSpline
210
0.0
220
0.0
230
1.0
 70
     8
 71
     3
 72
    15
 73
    11
 74
     0
 42
0.00000001
 43
0.00000001
 40
0.0
 40
0.0
 40
0.0
 40
0.0
 40
0.1077555579650511
 40
0.2352512325732731
 40
0.362790393113062
 40
0.4902567237356049
 40
0.6176629731078395
 40
0.7450967633746183
 40
0.8724966280894119
 40
1.0
 40
1.0
 40
1.0
 40
1.0
 10
169.9988617533209
 20
437.9099945619143
 30
0.0
 10
170.0154008816422
 20
437.5974723149408
 30
0.0
 10
170.0515089989101
 20
436.9151757801213
 30
0.0
 10
170.3877216993001
 20
435.9060279263545
 30
0.0
 10
170.9458012049157
 20
434.9425490476784
 30
0.0
 10
171.7006265362651
 20
434.1216221273906
 30
0.0
 10
172.6157903303407
 20
433.4863545391027
 30
0.0
 10
173.6430477459911
 20
433.0662013462892
 30
0.0
 10
174.7390222950089
 20
432.8523705200882
 30
0.0
 10
175.4747838770679
 20
432.9179109031559
 30
0.0
 10
175.8428140514852
 20
432.9506944015063
 30
0.0
  0
SPLINE
  5
180
330
1F
100
AcDbEntity
  8
0
  6
Continuous
 62
     7
370
    15
100
AcDbSpline
210
0.0
220
0.0
230
1.0
 70
     8
 71
     3
 72
    15
 73
    11
 74
     0
 42
0.00000001
 43
0.00000001
 40
0.0
 40
0.0
 40
0.0
 40
0.0
 40
0.131648194526239
 40
0.2633122721493212
 40
0.3951869424196063
 40
0.5266693097239488
 40
0.657548265997943
 40
0.7882113096919668
 40
0.9184605807060211
 40
1.0
 40
1.0
 40
1.0
 40
1.0
 10
175.3451152676108
 20
435.9083811833896
 30
0.0
 10
175.1929370862961
 20
435.8965665013351
 30
0.0
 10
174.8885623636672
 20
435.8729357118077
 30
0.0
 10
174.4376985448263
 20
435.974409321017
 30
0.0
 10
174.0186641784886
 20
436.1612587675058
 30
0.0
 10
173.6482838048749
 20
436.4338704077666
 30
0.0
 10
173.3460107158528
 20
436.7797714016909
 30
0.0
 10
173.1268541740433
 20
437.1814803888192
 30
0.0
 10
173.0095001464457
 20
437.5677943440981
 30
0.0
 10
172.9993165747379
 20
437.8148696620851
 30
0.0
 10
172.9953958624365
 20
437.9099945619143
 30
0.0
  0
SPLINE
  5
181
330
1F
100
AcDbEntity
  8
0
  6
Continuous
 62
     7
370
    15
100
AcDbSpline
210
0.0
220
0.0
230
1.0
 70
     8
 71
     3
 72
    15
 73
    11
 74
     0
 42
0.00000001
 43
0.00000001
 40
0.0
 40
0.0
 40
0.0
 40
0.0
 40
0.124927242033844
 40
0.249915584104946
 40
0.3749666876297332
 40
0.49995714039288
 40
0.6249210875693249
 40
0.749916766416261
 40
0.8748745362791711
 40
1.0
 40
1.0
 40
1.0
 40
1.0
 10
176.0136856668951
 20
458.8405083015002
 30
0.0
 10
175.6473094263511
 20
458.8838387911711
 30
0.0
 10
174.9143777561482
 20
458.9705209628044
 30
0.0
 10
173.8103474627352
 20
458.8053533933128
 30
0.0
 10
172.769558460215
 20
458.4163982418024
 30
0.0
 10
171.8343584467293
 20
457.8113989860879
 30
0.0
 10
171.0537075625504
 20
457.0152096534731
 30
0.0
 10
170.4657504963486
 20
456.0708416497921
 30
0.0
 10
170.0699275919381
 20
455.0223978658389
 30
0.0
 10
170.0118643106094
 20
454.2832772649747
 30
0.0
 10
169.9828132027151
 20
453.9134691550769
 30
0.0
  0
SPLINE
  5
182
330
1F
100
AcDbEntity
  8
0
  6
Continuous
 62
     7
370
    15
100
AcDbSpline
210
0.0
220
0.0
230
1.0
 70
     8
 71
     3
 72
    15
 73
    11
 74
     0
 42
0.00000001
 43
0.00000001
 40
0.0
 40
0.0
 40
0.0
 40
0.0
 40
0.1242508473014407
 40
0.2486345109813449
 40
0.3735436292148429
 40
0.4985843691870843
 40
0.6236674415351806
 40
0.7490732749463799
 40
0.8744399049642777
 40
1.0
 40
1.0
 40
1.0
 40
1.0
 10
172.9828043812277
 20
453.9134691550769
 30
0.0
 10
172.9963610437431
 20
454.0654226760878
 30
0.0
 10
173.0234888599977
 20
454.3694921469125
 30
0.0
 10
173.1979665182889
 20
454.7968015961453
 30
0.0
 10
173.451294698524
 20
455.1784480696212
 30
0.0
 10
173.781115802029
 20
455.498381105758
 30
0.0
 10
174.1720432300028
 20
455.7389568203222
 30
0.0
 10
174.6047432304866
 20
455.8905650613803
 30
0.0
 10
175.0622698001044
 20
455.9440282564788
 30
0.0
 10
175.3641834920917
 20
455.9033434964308
 30
0.0
 10
175.5152567261221
 20
455.8829854323901
 30
0.0
  0
LINE
  5
183
330
1F
100
AcDbEntity
  8
0
  6
Continuous
 62
     7
370
    15
100
AcDbLine
 10
190.8858641022
 20
438.5251293972
 30
0.0
 11
175.3448917502
 21
435.9087090089
 31
0.0
  0
LINE
  5
184
330
1F
100
AcDbEntity
  8
0
  6
Continuous
 62
     7
370
    15
100
AcDbLine
 10
175.8429630631
 20
432.9503516748
 30
0.0
 11
191.383920514
 21
435.5667571619
 31
0.0
  0
LINE
  5
185
330
1F
100
AcDbEntity
  8
0
  6
Continuous
 62
     7
370
    15
100
AcDbLine
 10
175.5154802435
 20
455.8825532987
 30
0.0
 11
191.0564525956
 21
453.2661329105
 31
0.0
  0
LINE
  5
186
330
1F
100
AcDbEntity
  8
0
  6
Continuous
 62
     7
370
    15
100
AcDbLine
 10
191.5545090073
 20
456.2245051458
 30
0.0
 11
176.0135366553
 21
458.840925534
 31
0.0
  0
SPLINE
  5
187
330
1F
100
AcDbEntity
  8
0
  6
Continuous
 62
     7
370
    15
100
AcDbSpline
210
0.0
220
0.0
230
1.0
 70
     8
 71
     3
 72
    12
 73
     8
 74
     0
 42
0.00000001
 43
0.00000001
 40
0.0
 40
0.0
 40
0.0
 40
0.0
 40
0.1526135397173891
 40
0.2973904856902686
 40
0.5623705157137553
 40
0.7966016097880517
 40
1.0
 40
1.0
 40
1.0
 40
1.0
 10
191.3835777872564
 20
435.5670700862445
 30
0.0
 10
191.6347975367844
 20
435.6198078033384
 30
0.0
 10
192.1243370852769
 20
435.7225751942907
 30
0.0
 10
192.9738576970211
 20
436.1518279775013
 30
0.0
 10
193.7858474387994
 20
436.896222152389
 30
0.0
 10
194.3502974931814
 20
437.9672608694427
 30
0.0
 10
194.4319848945319
 20
438.7021893575221
 30
0.0
 10
194.4699509972097
 20
439.0437643125094
 30
0.0
  0
SPLINE
  5
188
330
1F
100
AcDbEntity
  8
0
  6
Continuous
 62
     7
370
    15
100
AcDbSpline
210
0.0
220
0.0
230
1.0
 70
     8
 71
     3
 72
    11
 73
     7
 74
     0
 42
0.00000001
 43
0.00000001
 40
0.0
 40
0.0
 40
0.0
 40
0.0
 40
0.2003633530022297
 40
0.4328044256764416
 40
0.6990221939103936
 40
1.0
 40
1.0
 40
1.0
 40
1.0
 10
191.4716287487508
 20
439.0437643125094
 30
0.0
 10
191.4584020903054
 20
438.9873359647859
 30
0.0
 10
191.4298312153109
 20
438.8654452184871
 30
0.0
 10
191.3139365966504
 20
438.6997448417143
 30
0.0
 10
191.1292031682549
 20
438.5608307241072
 30
0.0
 10
190.9715779356697
 20
438.5374381642681
 30
0.0
 10
190.8879353636266
 20
438.5250250890292
 30
0.0
  0
SPLINE
  5
189
330
1F
100
AcDbEntity
  8
0
  6
Continuous
 62
     7
370
    15
100
AcDbSpline
210
0.0
220
0.0
230
1.0
 70
     8
 71
     3
 72
    12
 73
     8
 74
     0
 42
0.00000001
 43
0.00000001
 40
0.0
 40
0.0
 40
0.0
 40
0.0
 40
0.2034080200695087
 40
0.4376404137126195
 40
0.7026187806726812
 40
0.8473900742190442
 40
1.0
 40
1.0
 40
1.0
 40
1.0
 10
194.4699509972097
 20
452.6023904874362
 30
0.0
 10
194.448510076983
 20
452.9454008244119
 30
0.0
 10
194.4023790876778
 20
453.6834011536539
 30
0.0
 10
193.8902824171954
 20
454.7805181717018
 30
0.0
 10
193.115067206944
 20
455.5632631954306
 30
0.0
 10
192.2872231536359
 20
456.032995654409
 30
0.0
 10
191.8032379090187
 20
456.1592513720776
 30
0.0
 10
191.5548666351797
 20
456.2240432097949
 30
0.0
  0
SPLINE
  5
18A
330
1F
100
AcDbEntity
  8
0
  6
Continuous
 62
     7
370
    15
100
AcDbSpline
210
0.0
220
0.0
230
1.0
 70
     8
 71
     3
 72
    12
 73
     8
 74
     0
 42
0.00000001
 43
0.00000001
 40
0.0
 40
0.0
 40
0.0
 40
0.0
 40
0.1555606298326515
 40
0.3022104918759382
 40
0.5679679576816538
 40
0.7999533683161958
 40
0.9999999999999999
 40
0.9999999999999999
 40
0.9999999999999999
 40
0.9999999999999999
 10
191.0545303457739
 20
453.2670567824878
 30
0.0
 10
191.0950775481442
 20
453.2513067396056
 30
0.0
 10
191.1738493426896
 20
453.2207088421065
 30
0.0
 10
191.3034761420315
 20
453.1256718005202
 30
0.0
 10
191.4179177878144
 20
452.9794920082856
 30
0.0
 10
191.4820452631171
 20
452.7852395745676
 30
0.0
 10
191.474925472242
 20
452.6602604101082
 30
0.0
 10
191.4716287487508
 20
452.6023904874362
 30
0.0
  0
LINE
  5
18B
330
1F
100
AcDbEntity
  8
0
  6
Continuous
 62
     7
370
    15
100
AcDbLine
 10
191.4707942837
 20
452.6523838832
 30
0.0
 11
191.4707942837
 21
452.4099866941
 31
0.0
  0
LINE
  5
18C
330
1F
100
AcDbEntity
  8
0
  6
Continuous
 62
     7
370
    15
100
AcDbLine
 10
191.4707942837
 20
439.4099901512
 30
0.0
 11
191.4707942837
 21
438.9937560155
 31
0.0
  0
LINE
  5
18D
330
1F
100
AcDbEntity
  8
0
  6
Continuous
 62
     7
370
    15
100
AcDbLine
 10
194.4707854622
 20
438.9937560155
 30
0.0
 11
194.4707854622
 21
439.4127319648
 31
0.0
  0
LINE
  5
18E
330
1F
100
AcDbEntity
  8
0
  6
Continuous
 62
     7
370
    15
100
AcDbLine
 10
194.4707854622
 20
452.4072448804
 30
0.0
 11
194.4707854622
 21
452.6523838832
 31
0.0
  0
LINE
  5
18F
330
1F
100
AcDbEntity
  8
0
  6
Continuous
 62
     7
370
    15
100
AcDbLine
 10
180.7700767153
 20
451.5099863603
 30
0.0
 11
179.1517957085
 21
451.5099863603
 31
0.0
  0
LINE
  5
190
330
1F
100
AcDbEntity
  8
0
  6
Continuous
 62
     7
370
    15
100
AcDbLine
 10
179.7787173623
 20
450.7099877193
 30
0.0
 11
180.7700767153
 21
450.7099877193
 31
0.0
  0
LINE
  5
191
330
1F
100
AcDbEntity
  8
0
  6
Continuous
 62
     7
370
    15
100
AcDbLine
 10
181.1083032721
 20
452.7781347826
 30
0.0
 11
180.8417662018
 21
451.5698890283
 31
0.0
  0
LINE
  5
192
330
1F
100
AcDbEntity
  8
0
  6
Continuous
 62
     7
370
    15
100
AcDbLine
 10
181.6099210614
 20
451.3383398845
 30
0.0
 11
181.8895115489
 21
452.6058028533
 31
0.0
  0
SPLINE
  5
193
330
1F
100
AcDbEntity
  8
0
  6
Continuous
 62
     7
370
    15
100
AcDbSpline
210
0.0
220
0.0
230
1.0
 70
     8
 71
     3
 72
    11
 73
     7
 74
     0
 42
0.00000001
 43
0.00000001
 40
0.0
 40
0.0
 40
0.0
 40
0.0
 40
0.2541322396080093
 40
0.5022676065307782
 40
0.7495073204938133
 40
1.0
 40
1.0
 40
1.0
 40
1.0
 10
180.7700767153265
 20
450.7099877193011
 30
0.0
 10
180.8701651713401
 20
450.7202388376933
 30
0.0
 10
181.067980251083
 20
450.7404991742294
 30
0.0
 10
181.3261269171266
 20
450.8945211631047
 30
0.0
 10
181.5295822076271
 20
451.1135927445845
 30
0.0
 10
181.5913118777431
 20
451.3006470679897
 30
0.0
 10
181.622378432131
 20
451.3947854831256
 30
0.0
  0
LINE
  5
194
330
1F
100
AcDbEntity
  8
0
  6
Continuous
 62
     7
370
    15
100
AcDbLine
 10
180.3817971581
 20
453.1099985435
 30
0.0
 11
180.3817971581
 21
453.9099971845
 31
0.0
  0
LINE
  5
195
330
1F
100
AcDbEntity
  8
0
  6
Continuous
 62
     7
370
    15
100
AcDbLine
 10
180.3817971581
 20
437.9099945619
 30
0.0
 11
180.3817971581
 21
438.7099932029
 31
0.0
  0
LINE
  5
196
330
1F
100
AcDbEntity
  8
0
  6
Continuous
 62
     7
370
    15
100
AcDbLine
 10
175.4517926806
 20
454.2099873617
 30
0.0
 11
175.4517926806
 21
453.9099971845
 31
0.0
  0
LINE
  5
197
330
1F
100
AcDbEntity
  8
0
  6
Continuous
 62
     7
370
    15
100
AcDbLine
 10
179.8517926568
 20
453.9099971845
 30
0.0
 11
179.8517926568
 21
454.2099873617
 31
0.0
  0
ARC
  5
198
330
1F
100
AcDbEntity
  8
0
  6
Continuous
 62
     7
370
    15
100
AcDbCircle
 10
177.6517973107
 20
451.1028506319
 30
0.0
 40
3.807142857143322
100
AcDbArc
 50
54.6997515601
 51
125.3002484399
  0
LINE
  5
199
330
1F
100
AcDbEntity
  8
0
  6
Continuous
 62
     7
370
    15
100
AcDbLine
 10
175.5517943734
 20
437.5099877908
 30
0.0
 11
175.5517943734
 21
437.1099959209
 31
0.0
  0
LINE
  5
19A
330
1F
100
AcDbEntity
  8
0
  6
Continuous
 62
     7
370
    15
100
AcDbLine
 10
179.751790964
 20
437.1099959209
 30
0.0
 11
179.751790964
 21
437.5099877908
 31
0.0
  0
ARC
  5
19B
330
1F
100
AcDbEntity
  8
0
  6
Continuous
 62
     7
370
    15
100
AcDbCircle
 10
175.7517973107
 20
437.9099934891
 30
0.0
 40
0.4000000000008015
100
AcDbArc
 50
270.0
 51
0.0
  0
ARC
  5
19C
330
1F
100
AcDbEntity
  8
0
  6
Continuous
 62
     7
370
    15
100
AcDbCircle
 10
179.5517973107
 20
437.9099934891
 30
0.0
 40
0.4000000000007731
100
AcDbArc
 50
180.0
 51
270.0
  0
LINE
  5
19D
330
1F
100
AcDbEntity
  8
0
  6
Continuous
 62
     7
370
    15
100
AcDbLine
 10
176.15180453
 20
453.1099985435
 30
0.0
 11
176.15180453
 21
452.6599983766
 31
0.0
  0
LINE
  5
19E
330
1F
100
AcDbEntity
  8
0
  6
Continuous
 62
     7
370
    15
100
AcDbLine
 10
176.15180453
 20
451.6599963501
 30
0.0
 11
176.15180453
 21
451.1712829664
 31
0.0
  0
LINE
  5
19F
330
1F
100
AcDbEntity
  8
0
  6
Continuous
 62
     7
370
    15
100
AcDbLine
 10
176.15180453
 20
450.3751735284
 30
0.0
 11
176.15180453
 21
450.2194712951
 31
0.0
  0
LINE
  5
1A0
330
1F
100
AcDbEntity
  8
0
  6
Continuous
 62
     7
370
    15
100
AcDbLine
 10
176.15180453
 20
440.9203718498
 30
0.0
 11
176.15180453
 21
440.1599953964
 31
0.0
  0
LINE
  5
1A1
330
1F
100
AcDbEntity
  8
0
  6
Continuous
 62
     7
370
    15
100
AcDbLine
 10
176.15180453
 20
439.1599933698
 30
0.0
 11
176.15180453
 21
438.7099932029
 31
0.0
  0
LINE
  5
1A2
330
1F
100
AcDbEntity
  8
0
  6
Continuous
 62
     7
370
    15
100
AcDbLine
 10
179.1517957085
 20
438.7099932029
 30
0.0
 11
179.1517957085
 21
439.1599933698
 31
0.0
  0
LINE
  5
1A3
330
1F
100
AcDbEntity
  8
0
  6
Continuous
 62
     7
370
    15
100
AcDbLine
 10
179.1517957085
 20
440.1599953964
 30
0.0
 11
179.1517957085
 21
440.647129257
 31
0.0
  0
LINE
  5
1A4
330
1F
100
AcDbEntity
  8
0
  6
Continuous
 62
     7
370
    15
100
AcDbLine
 10
179.1517957085
 20
449.9550501897
 30
0.0
 11
179.1517957085
 21
450.1429985359
 31
0.0
  0
LINE
  5
1A5
330
1F
100
AcDbEntity
  8
0
  6
Continuous
 62
     7
370
    15
100
AcDbLine
 10
179.1517957085
 20
450.8980701759
 30
0.0
 11
179.1517957085
 21
451.6599963501
 31
0.0
  0
LINE
  5
1A6
330
1F
100
AcDbEntity
  8
0
  6
Continuous
 62
     7
370
    15
100
AcDbLine
 10
179.1517957085
 20
452.6599983766
 30
0.0
 11
179.1517957085
 21
453.1099985435
 31
0.0
  0
LINE
  5
1A7
330
1F
100
AcDbEntity
  8
0
  6
Continuous
 62
     7
370
    15
100
AcDbLine
 10
195.1519324416
 20
81.2099914148
 30
0.0
 11
194.1998972529
 21
81.2099914148
 31
0.0
  0
LINE
  5
1A8
330
1F
100
AcDbEntity
  8
0
  6
Continuous
 62
     7
370
    15
100
AcDbLine
 10
195.1519324416
 20
81.2099914148
 30
0.0
 11
195.1519324416
 21
70.6099907949
 31
0.0
  0
LINE
  5
1A9
330
1F
100
AcDbEntity
  8
0
  6
Continuous
 62
     7
370
    15
100
AcDbLine
 10
194.1998972529
 20
70.6099907949
 30
0.0
 11
195.1519324416
 21
70.6099907949
 31
0.0
  0
LINE
  5
1AA
330
1F
100
AcDbEntity
  8
0
  6
Continuous
 62
     7
370
    15
100
AcDbLine
 10
194.1998972529
 20
81.2099914148
 30
0.0
 11
194.1998972529
 21
70.6099907949
 31
0.0
  0
LINE
  5
1AB
330
1F
100
AcDbEntity
  8
0
  6
Continuous
 62
     7
370
    15
100
AcDbLine
 10
194.4214179152
 20
69.410000284
 30
0.0
 11
193.4693827265
 21
69.410000284
 31
0.0
  0
LWPOLYLINE
  5
1AC
330
1F
100
AcDbEntity
  8
0
  6
Continuous
 62
     7
370
    15
100
AcDbPolyline
 90
        9
 70
   128
 43
0.0
 10
193.4693827265
 20
69.410000284
 10
193.6118974322
 20
69.4330523803
 10
193.7489434117
 20
69.5013444021
 10
193.875245654
 20
69.6122239425
 10
193.9859463805
 20
69.7614590719
 10
194.0767838591
 20
69.9433128431
 10
194.1443010205
 20
70.1507668092
 10
194.185860359
 20
70.3758786514
 10
194.1998972529
 20
70.6099907949
  0
LWPOLYLINE
  5
1AD
330
1F
100
AcDbEntity
  8
0
  6
Continuous
 62
     7
370
    15
100
AcDbPolyline
 90
        9
 70
   128
 43
0.0
 10
195.1519324416
 20
70.6099907949
 10
195.1378955477
 20
70.3758786514
 10
195.096321308
 20
70.1507668092
 10
195.0288190478
 20
69.9433128431
 10
194.937966668
 20
69.7614590719
 10
194.8272659415
 20
69.6122239425
 10
194.7009636992
 20
69.5013444021
 10
194.5639326209
 20
69.4330523803
 10
194.4214179152
 20
69.410000284
  0
LINE
  5
1AE
330
1F
100
AcDbEntity
  8
0
  6
Continuous
 62
     7
370
    15
100
AcDbLine
 10
190.750412547
 20
82.4099968269
 30
0.0
 11
190.750412547
 21
69.410000284
 31
0.0
  0
LINE
  5
1AF
330
1F
100
AcDbEntity
  8
0
  6
Continuous
 62
     7
370
    15
100
AcDbLine
 10
190.750412547
 20
82.4099968269
 30
0.0
 11
193.4693827265
 21
82.4099968269
 31
0.0
  0
LWPOLYLINE
  5
1B0
330
1F
100
AcDbEntity
  8
0
  6
Continuous
 62
     7
370
    15
100
AcDbPolyline
 90
        9
 70
   128
 43
0.0
 10
194.1998972529
 20
81.2099914148
 10
194.185860359
 20
81.4441035583
 10
194.1443010205
 20
81.6692154005
 10
194.0767838591
 20
81.8766842678
 10
193.9859463805
 20
82.0585231378
 10
193.875245654
 20
82.2077582672
 10
193.7489434117
 20
82.3186527088
 10
193.6118974322
 20
82.3869298294
 10
193.4693827265
 20
82.4099968269
  0
LINE
  5
1B1
330
1F
100
AcDbEntity
  8
0
  6
Continuous
 62
     7
370
    15
100
AcDbLine
 10
193.4693827265
 20
69.410000284
 30
0.0
 11
190.750412547
 21
69.410000284
 31
0.0
  0
LINE
  5
1B2
330
1F
100
AcDbEntity
  8
0
  6
Continuous
 62
     7
370
    15
100
AcDbLine
 10
193.4693827265
 20
82.4099968269
 30
0.0
 11
194.4214179152
 21
82.4099968269
 31
0.0
  0
LWPOLYLINE
  5
1B3
330
1F
100
AcDbEntity
  8
0
  6
Continuous
 62
     7
370
    15
100
AcDbPolyline
 90
        9
 70
   128
 43
0.0
 10
194.4214179152
 20
82.4099968269
 10
194.5639326209
 20
82.3869298294
 10
194.7009636992
 20
82.3186527088
 10
194.8272659415
 20
82.2077582672
 10
194.937966668
 20
82.0585231378
 10
195.0288190478
 20
81.8766842678
 10
195.096321308
 20
81.6692154005
 10
195.1378955477
 20
81.4441035583
 10
195.1519324416
 20
81.2099914148
  0
LINE
  5
1B4
330
1F
100
AcDbEntity
  8
0
  6
Continuous
 62
     7
370
    15
100
AcDbLine
 10
194.4214179152
 20
439.4099901512
 30
0.0
 11
193.4693827265
 21
439.4099901512
 31
0.0
  0
LWPOLYLINE
  5
1B5
330
1F
100
AcDbEntity
  8
0
  6
Continuous
 62
     7
370
    15
100
AcDbPolyline
 90
        9
 70
   128
 43
0.0
 10
193.4693827265
 20
439.4099901512
 10
193.6118974322
 20
439.4330571487
 10
193.7489434117
 20
439.5013342693
 10
193.875245654
 20
439.6122287109
 10
193.9859463805
 20
439.7614638402
 10
194.0767838591
 20
439.9433027103
 10
194.1443010205
 20
440.1507715776
 10
194.185860359
 20
440.3758834198
 10
194.1998972529
 20
440.6099955633
  0
LINE
  5
1B6
330
1F
100
AcDbEntity
  8
0
  6
Continuous
 62
     7
370
    15
100
AcDbLine
 10
194.1998972529
 20
440.6099955633
 30
0.0
 11
195.1519324416
 21
440.6099955633
 31
0.0
  0
LWPOLYLINE
  5
1B7
330
1F
100
AcDbEntity
  8
0
  6
Continuous
 62
     7
370
    15
100
AcDbPolyline
 90
        9
 70
   128
 43
0.0
 10
195.1519324416
 20
440.6099955633
 10
195.1378955477
 20
440.3758834198
 10
195.096321308
 20
440.1507715776
 10
195.0288190478
 20
439.9433027103
 10
194.937966668
 20
439.7614638402
 10
194.8272659415
 20
439.6122287109
 10
194.7009636992
 20
439.5013342693
 10
194.5639326209
 20
439.4330571487
 10
194.4214179152
 20
439.4099901512
  0
LINE
  5
1B8
330
1F
100
AcDbEntity
  8
0
  6
Continuous
 62
     7
370
    15
100
AcDbLine
 10
190.750412547
 20
452.4099866941
 30
0.0
 11
190.750412547
 21
439.4099901512
 31
0.0
  0
LINE
  5
1B9
330
1F
100
AcDbEntity
  8
0
  6
Continuous
 62
     7
370
    15
100
AcDbLine
 10
190.750412547
 20
452.4099866941
 30
0.0
 11
193.4693827265
 21
452.4099866941
 31
0.0
  0
LWPOLYLINE
  5
1BA
330
1F
100
AcDbEntity
  8
0
  6
Continuous
 62
     7
370
    15
100
AcDbPolyline
 90
        9
 70
   128
 43
0.0
 10
194.1998972529
 20
451.2099961832
 10
194.185860359
 20
451.4441083267
 10
194.1443010205
 20
451.6692201688
 10
194.0767838591
 20
451.876674135
 10
193.9859463805
 20
452.0585279062
 10
193.875245654
 20
452.2077630355
 10
193.7489434117
 20
452.318642576
 10
193.6118974322
 20
452.3869345977
 10
193.4693827265
 20
452.4099866941
  0
LINE
  5
1BB
330
1F
100
AcDbEntity
  8
0
  6
Continuous
 62
     7
370
    15
100
AcDbLine
 10
194.1998972529
 20
451.2099961832
 30
0.0
 11
194.1998972529
 21
440.6099955633
 31
0.0
  0
LINE
  5
1BC
330
1F
100
AcDbEntity
  8
0
  6
Continuous
 62
     7
370
    15
100
AcDbLine
 10
193.4693827265
 20
439.4099901512
 30
0.0
 11
190.750412547
 21
439.4099901512
 31
0.0
  0
LINE
  5
1BD
330
1F
100
AcDbEntity
  8
0
  6
Continuous
 62
     7
370
    15
100
AcDbLine
 10
195.1519324416
 20
451.2099961832
 30
0.0
 11
194.1998972529
 21
451.2099961832
 31
0.0
  0
LINE
  5
1BE
330
1F
100
AcDbEntity
  8
0
  6
Continuous
 62
     7
370
    15
100
AcDbLine
 10
195.1519324416
 20
451.2099961832
 30
0.0
 11
195.1519324416
 21
440.6099955633
 31
0.0
  0
LINE
  5
1BF
330
1F
100
AcDbEntity
  8
0
  6
Continuous
 62
     7
370
    15
100
AcDbLine
 10
193.4693827265
 20
452.4099866941
 30
0.0
 11
194.4214179152
 21
452.4099866941
 31
0.0
  0
LWPOLYLINE
  5
1C0
330
1F
100
AcDbEntity
  8
0
  6
Continuous
 62
     7
370
    15
100
AcDbPolyline
 90
        9
 70
   128
 43
0.0
 10
194.4214179152
 20
452.4099866941
 10
194.5639326209
 20
452.3869345977
 10
194.7009636992
 20
452.318642576
 10
194.8272659415
 20
452.2077630355
 10
194.937966668
 20
452.0585279062
 10
195.0288190478
 20
451.876674135
 10
195.096321308
 20
451.6692201688
 10
195.1378955477
 20
451.4441083267
 10
195.1519324416
 20
451.2099961832
  0
LINE
  5
1C1
330
1F
100
AcDbEntity
  8
0
  6
Continuous
 62
     7
370
    15
100
AcDbLine
 10
190.1718004578
 20
82.4099968269
 30
0.0
 11
190.750412547
 21
82.4099968269
 31
0.0
  0
LINE
  5
1C2
330
1F
100
AcDbEntity
  8
0
  6
Continuous
 62
     7
370
    15
100
AcDbLine
 10
190.750412547
 20
69.410000284
 30
0.0
 11
190.1718004578
 21
69.410000284
 31
0.0
  0
LINE
  5
1C3
330
1F
100
AcDbEntity
  8
0
  6
Continuous
 62
     7
370
    15
100
AcDbLine
 10
190.1718004578
 20
452.4099866941
 30
0.0
 11
190.750412547
 21
452.4099866941
 31
0.0
  0
LINE
  5
1C4
330
1F
100
AcDbEntity
  8
0
  6
Continuous
 62
     7
370
    15
100
AcDbLine
 10
190.750412547
 20
439.4099901512
 30
0.0
 11
190.1718004578
 21
439.4099901512
 31
0.0
  0
LINE
  5
1C5
330
1F
100
AcDbEntity
  8
0
  6
Continuous
 62
     7
370
    15
100
AcDbLine
 10
201.0717912549
 20
69.0099935129
 30
0.0
 11
201.0717912549
 21
70.5099891021
 31
0.0
  0
LINE
  5
1C6
330
1F
100
AcDbEntity
  8
0
  6
Continuous
 62
     7
370
    15
100
AcDbLine
 10
202.5718017453
 20
70.5099891021
 30
0.0
 11
202.5718017453
 21
71.3099877431
 31
0.0
  0
LINE
  5
1C7
330
1F
100
AcDbEntity
  8
0
  6
Continuous
 62
     7
370
    15
100
AcDbLine
 10
202.5718017453
 20
71.3099877431
 30
0.0
 11
201.0717912549
 21
71.3099877431
 31
0.0
  0
LINE
  5
1C8
330
1F
100
AcDbEntity
  8
0
  6
Continuous
 62
     7
370
    15
100
AcDbLine
 10
201.0717912549
 20
71.3099877431
 30
0.0
 11
201.0717912549
 21
72.8099982336
 31
0.0
  0
LINE
  5
1C9
330
1F
100
AcDbEntity
  8
0
  6
Continuous
 62
     7
370
    15
100
AcDbLine
 10
200.2717926138
 20
72.8099982336
 30
0.0
 11
200.2717926138
 21
71.3099877431
 31
0.0
  0
LINE
  5
1CA
330
1F
100
AcDbEntity
  8
0
  6
Continuous
 62
     7
370
    15
100
AcDbLine
 10
198.7717970246
 20
71.3099877431
 30
0.0
 11
198.7717970246
 21
70.5099891021
 31
0.0
  0
LINE
  5
1CB
330
1F
100
AcDbEntity
  8
0
  6
Continuous
 62
     7
370
    15
100
AcDbLine
 10
198.7717970246
 20
70.5099891021
 30
0.0
 11
200.2717926138
 21
70.5099891021
 31
0.0
  0
CIRCLE
  5
1CC
330
1F
100
AcDbEntity
  8
0
  6
Continuous
 62
     7
370
    15
100
AcDbCircle
 10
200.6717973107
 20
70.909993489
 30
0.0
 40
3.0
  0
LINE
  5
1CD
330
1F
100
AcDbEntity
  8
0
  6
Continuous
 62
     7
370
    15
100
AcDbLine
 10
201.0717912549
 20
72.8099982336
 30
0.0
 11
200.2717926138
 21
72.8099982336
 31
0.0
  0
LINE
  5
1CE
330
1F
100
AcDbEntity
  8
0
  6
Continuous
 62
     7
370
    15
100
AcDbLine
 10
200.2717926138
 20
69.0099935129
 30
0.0
 11
201.0717912549
 21
69.0099935129
 31
0.0
  0
LINE
  5
1CF
330
1F
100
AcDbEntity
  8
0
  6
Continuous
 62
     7
370
    15
100
AcDbLine
 10
200.2717926138
 20
70.5099891021
 30
0.0
 11
200.2717926138
 21
69.0099935129
 31
0.0
  0
LINE
  5
1D0
330
1F
100
AcDbEntity
  8
0
  6
Continuous
 62
     7
370
    15
100
AcDbLine
 10
200.2717926138
 20
71.3099877431
 30
0.0
 11
198.7717970246
 21
71.3099877431
 31
0.0
  0
LINE
  5
1D1
330
1F
100
AcDbEntity
  8
0
  6
Continuous
 62
     7
370
    15
100
AcDbLine
 10
201.0717912549
 20
70.5099891021
 30
0.0
 11
202.5718017453
 21
70.5099891021
 31
0.0
  0
CIRCLE
  5
1D2
330
1F
100
AcDbEntity
  8
0
  6
Continuous
 62
     7
370
    15
100
AcDbCircle
 10
200.6717973107
 20
80.909993489
 30
0.0
 40
3.0
  0
LINE
  5
1D3
330
1F
100
AcDbEntity
  8
0
  6
Continuous
 62
     7
370
    15
100
AcDbLine
 10
200.2717926138
 20
81.3099931076
 30
0.0
 11
198.7717970246
 21
81.3099931076
 31
0.0
  0
LINE
  5
1D4
330
1F
100
AcDbEntity
  8
0
  6
Continuous
 62
     7
370
    15
100
AcDbLine
 10
198.7717970246
 20
81.3099931076
 30
0.0
 11
198.7717970246
 21
80.5099944665
 31
0.0
  0
LINE
  5
1D5
330
1F
100
AcDbEntity
  8
0
  6
Continuous
 62
     7
370
    15
100
AcDbLine
 10
198.7717970246
 20
80.5099944665
 30
0.0
 11
200.2717926138
 21
80.5099944665
 31
0.0
  0
LINE
  5
1D6
330
1F
100
AcDbEntity
  8
0
  6
Continuous
 62
     7
370
    15
100
AcDbLine
 10
200.2717926138
 20
80.5099944665
 30
0.0
 11
200.2717926138
 21
79.0099988773
 31
0.0
  0
LINE
  5
1D7
330
1F
100
AcDbEntity
  8
0
  6
Continuous
 62
     7
370
    15
100
AcDbLine
 10
200.2717926138
 20
79.0099988773
 30
0.0
 11
201.0717912549
 21
79.0099988773
 31
0.0
  0
LINE
  5
1D8
330
1F
100
AcDbEntity
  8
0
  6
Continuous
 62
     7
370
    15
100
AcDbLine
 10
201.0717912549
 20
79.0099988773
 30
0.0
 11
201.0717912549
 21
80.5099944665
 31
0.0
  0
LINE
  5
1D9
330
1F
100
AcDbEntity
  8
0
  6
Continuous
 62
     7
370
    15
100
AcDbLine
 10
201.0717912549
 20
80.5099944665
 30
0.0
 11
202.5718017453
 21
80.5099944665
 31
0.0
  0
LINE
  5
1DA
330
1F
100
AcDbEntity
  8
0
  6
Continuous
 62
     7
370
    15
100
AcDbLine
 10
202.5718017453
 20
80.5099944665
 30
0.0
 11
202.5718017453
 21
81.3099931076
 31
0.0
  0
LINE
  5
1DB
330
1F
100
AcDbEntity
  8
0
  6
Continuous
 62
     7
370
    15
100
AcDbLine
 10
202.5718017453
 20
81.3099931076
 30
0.0
 11
201.0717912549
 21
81.3099931076
 31
0.0
  0
LINE
  5
1DC
330
1F
100
AcDbEntity
  8
0
  6
Continuous
 62
     7
370
    15
100
AcDbLine
 10
201.0717912549
 20
81.3099931076
 30
0.0
 11
201.0717912549
 21
82.8099886968
 31
0.0
  0
LINE
  5
1DD
330
1F
100
AcDbEntity
  8
0
  6
Continuous
 62
     7
370
    15
100
AcDbLine
 10
200.2717926138
 20
82.8099886968
 30
0.0
 11
200.2717926138
 21
81.3099931076
 31
0.0
  0
LINE
  5
1DE
330
1F
100
AcDbEntity
  8
0
  6
Continuous
 62
     7
370
    15
100
AcDbLine
 10
201.0717912549
 20
82.8099886968
 30
0.0
 11
200.2717926138
 21
82.8099886968
 31
0.0
  0
LINE
  5
1DF
330
1F
100
AcDbEntity
  8
0
  6
Continuous
 62
     7
370
    15
100
AcDbLine
 10
198.7717970246
 20
441.3099925115
 30
0.0
 11
198.7717970246
 21
440.5099938705
 31
0.0
  0
LINE
  5
1E0
330
1F
100
AcDbEntity
  8
0
  6
Continuous
 62
     7
370
    15
100
AcDbLine
 10
200.2717926138
 20
440.5099938705
 30
0.0
 11
200.2717926138
 21
439.0099982812
 31
0.0
  0
LINE
  5
1E1
330
1F
100
AcDbEntity
  8
0
  6
Continuous
 62
     7
370
    15
100
AcDbLine
 10
201.0717912549
 20
442.8099881008
 30
0.0
 11
200.2717926138
 21
442.8099881008
 31
0.0
  0
LINE
  5
1E2
330
1F
100
AcDbEntity
  8
0
  6
Continuous
 62
     7
370
    15
100
AcDbLine
 10
201.0717912549
 20
441.3099925115
 30
0.0
 11
201.0717912549
 21
442.8099881008
 31
0.0
  0
LINE
  5
1E3
330
1F
100
AcDbEntity
  8
0
  6
Continuous
 62
     7
370
    15
100
AcDbLine
 10
198.7717970246
 20
440.5099938705
 30
0.0
 11
200.2717926138
 21
440.5099938705
 31
0.0
  0
LINE
  5
1E4
330
1F
100
AcDbEntity
  8
0
  6
Continuous
 62
     7
370
    15
100
AcDbLine
 10
201.0717912549
 20
440.5099938705
 30
0.0
 11
202.5718017453
 21
440.5099938705
 31
0.0
  0
LINE
  5
1E5
330
1F
100
AcDbEntity
  8
0
  6
Continuous
 62
     7
370
    15
100
AcDbLine
 10
200.2717926138
 20
441.3099925115
 30
0.0
 11
198.7717970246
 21
441.3099925115
 31
0.0
  0
LINE
  5
1E6
330
1F
100
AcDbEntity
  8
0
  6
Continuous
 62
     7
370
    15
100
AcDbLine
 10
202.5718017453
 20
440.5099938705
 30
0.0
 11
202.5718017453
 21
441.3099925115
 31
0.0
  0
LINE
  5
1E7
330
1F
100
AcDbEntity
  8
0
  6
Continuous
 62
     7
370
    15
100
AcDbLine
 10
202.5718017453
 20
441.3099925115
 30
0.0
 11
201.0717912549
 21
441.3099925115
 31
0.0
  0
LINE
  5
1E8
330
1F
100
AcDbEntity
  8
0
  6
Continuous
 62
     7
370
    15
100
AcDbLine
 10
200.2717926138
 20
439.0099982812
 30
0.0
 11
201.0717912549
 21
439.0099982812
 31
0.0
  0
LINE
  5
1E9
330
1F
100
AcDbEntity
  8
0
  6
Continuous
 62
     7
370
    15
100
AcDbLine
 10
200.2717926138
 20
442.8099881008
 30
0.0
 11
200.2717926138
 21
441.3099925115
 31
0.0
  0
CIRCLE
  5
1EA
330
1F
100
AcDbEntity
  8
0
  6
Continuous
 62
     7
370
    15
100
AcDbCircle
 10
200.6717973107
 20
440.909993489
 30
0.0
 40
3.0
  0
LINE
  5
1EB
330
1F
100
AcDbEntity
  8
0
  6
Continuous
 62
     7
370
    15
100
AcDbLine
 10
201.0717912549
 20
439.0099982812
 30
0.0
 11
201.0717912549
 21
440.5099938705
 31
0.0
  0
CIRCLE
  5
1EC
330
1F
100
AcDbEntity
  8
0
  6
Continuous
 62
     7
370
    15
100
AcDbCircle
 10
200.6717973107
 20
450.909993489
 30
0.0
 40
3.0
  0
LINE
  5
1ED
330
1F
100
AcDbEntity
  8
0
  6
Continuous
 62
     7
370
    15
100
AcDbLine
 10
200.2717926138
 20
451.3099978759
 30
0.0
 11
198.7717970246
 21
451.3099978759
 31
0.0
  0
LINE
  5
1EE
330
1F
100
AcDbEntity
  8
0
  6
Continuous
 62
     7
370
    15
100
AcDbLine
 10
198.7717970246
 20
451.3099978759
 30
0.0
 11
198.7717970246
 21
450.5099992349
 31
0.0
  0
LINE
  5
1EF
330
1F
100
AcDbEntity
  8
0
  6
Continuous
 62
     7
370
    15
100
AcDbLine
 10
198.7717970246
 20
450.5099992349
 30
0.0
 11
200.2717926138
 21
450.5099992349
 31
0.0
  0
LINE
  5
1F0
330
1F
100
AcDbEntity
  8
0
  6
Continuous
 62
     7
370
    15
100
AcDbLine
 10
200.2717926138
 20
450.5099992349
 30
0.0
 11
200.2717926138
 21
449.0099887445
 31
0.0
  0
LINE
  5
1F1
330
1F
100
AcDbEntity
  8
0
  6
Continuous
 62
     7
370
    15
100
AcDbLine
 10
200.2717926138
 20
449.0099887445
 30
0.0
 11
201.0717912549
 21
449.0099887445
 31
0.0
  0
LINE
  5
1F2
330
1F
100
AcDbEntity
  8
0
  6
Continuous
 62
     7
370
    15
100
AcDbLine
 10
201.0717912549
 20
449.0099887445
 30
0.0
 11
201.0717912549
 21
450.5099992349
 31
0.0
  0
LINE
  5
1F3
330
1F
100
AcDbEntity
  8
0
  6
Continuous
 62
     7
370
    15
100
AcDbLine
 10
201.0717912549
 20
450.5099992349
 30
0.0
 11
202.5718017453
 21
450.5099992349
 31
0.0
  0
LINE
  5
1F4
330
1F
100
AcDbEntity
  8
0
  6
Continuous
 62
     7
370
    15
100
AcDbLine
 10
202.5718017453
 20
450.5099992349
 30
0.0
 11
202.5718017453
 21
451.3099978759
 31
0.0
  0
LINE
  5
1F5
330
1F
100
AcDbEntity
  8
0
  6
Continuous
 62
     7
370
    15
100
AcDbLine
 10
202.5718017453
 20
451.3099978759
 30
0.0
 11
201.0717912549
 21
451.3099978759
 31
0.0
  0
LINE
  5
1F6
330
1F
100
AcDbEntity
  8
0
  6
Continuous
 62
     7
370
    15
100
AcDbLine
 10
201.0717912549
 20
451.3099978759
 30
0.0
 11
201.0717912549
 21
452.8099934652
 31
0.0
  0
LINE
  5
1F7
330
1F
100
AcDbEntity
  8
0
  6
Continuous
 62
     7
370
    15
100
AcDbLine
 10
201.0717912549
 20
452.8099934652
 30
0.0
 11
200.2717926138
 21
452.8099934652
 31
0.0
  0
LINE
  5
1F8
330
1F
100
AcDbEntity
  8
0
  6
Continuous
 62
     7
370
    15
100
AcDbLine
 10
200.2717926138
 20
452.8099934652
 30
0.0
 11
200.2717926138
 21
451.3099978759
 31
0.0
  0
LINE
  5
1F9
330
1F
100
AcDbEntity
  8
0
  6
Continuous
 62
     7
370
    15
100
AcDbLine
 10
194.6718021267
 20
82.4099968269
 30
0.0
 11
199.6540351742
 21
87.0118777349
 31
0.0
  0
ARC
  5
1FA
330
1F
100
AcDbEntity
  8
0
  6
Continuous
 62
     7
370
    15
100
AcDbCircle
 10
200.6717973107
 20
85.909993489
 30
0.0
 40
1.499999999999978
100
AcDbArc
 50
43.6028189726
 51
132.7273953127
  0
LINE
  5
1FB
330
1F
100
AcDbEntity
  8
0
  6
Continuous
 62
     7
370
    15
100
AcDbLine
 10
199.6540351742
 20
64.8081044748
 30
0.0
 11
194.6718021267
 21
69.410000284
 31
0.0
  0
ARC
  5
1FC
330
1F
100
AcDbEntity
  8
0
  6
Continuous
 62
     7
370
    15
100
AcDbCircle
 10
200.6717973107
 20
65.909993489
 30
0.0
 40
1.500000000000077
100
AcDbArc
 50
227.2726046868
 51
316.3971810272
  0
ARC
  5
1FD
330
1F
100
AcDbEntity
  8
0
  6
Continuous
 62
     7
370
    15
100
AcDbCircle
 10
190.1717973107
 20
75.909993489
 30
0.0
 40
16.00000000000014
100
AcDbArc
 50
316.3971810272
 51
43.6028189726
  0
LINE
  5
1FE
330
1F
100
AcDbEntity
  8
0
  6
Continuous
 62
     7
370
    15
100
AcDbLine
 10
194.4707854622
 20
82.4099968269
 30
0.0
 11
194.6718021267
 21
82.4099968269
 31
0.0
  0
LINE
  5
1FF
330
1F
100
AcDbEntity
  8
0
  6
Continuous
 62
     7
370
    15
100
AcDbLine
 10
194.6718021267
 20
69.410000284
 30
0.0
 11
194.4707854622
 21
69.410000284
 31
0.0
  0
LINE
  5
200
330
1F
100
AcDbEntity
  8
0
  6
Continuous
 62
     7
370
    15
100
AcDbLine
 10
199.6540351742
 20
434.8081092432
 30
0.0
 11
194.6718021267
 21
439.4099901512
 31
0.0
  0
LINE
  5
201
330
1F
100
AcDbEntity
  8
0
  6
Continuous
 62
     7
370
    15
100
AcDbLine
 10
194.6718021267
 20
452.4099866941
 30
0.0
 11
199.6540351742
 21
457.0118825033
 31
0.0
  0
ARC
  5
202
330
1F
100
AcDbEntity
  8
0
  6
Continuous
 62
     7
370
    15
100
AcDbCircle
 10
200.6717973107
 20
455.909993489
 30
0.0
 40
1.500000000000011
100
AcDbArc
 50
43.6028189726
 51
132.7273953127
  0
ARC
  5
203
330
1F
100
AcDbEntity
  8
0
  6
Continuous
 62
     7
370
    15
100
AcDbCircle
 10
190.1717973107
 20
445.909993489
 30
0.0
 40
16.00000000000017
100
AcDbArc
 50
316.3971810272
 51
43.6028189726
  0
ARC
  5
204
330
1F
100
AcDbEntity
  8
0
  6
Continuous
 62
     7
370
    15
100
AcDbCircle
 10
200.6717973107
 20
435.909993489
 30
0.0
 40
1.499999999999805
100
AcDbArc
 50
227.2726046868
 51
316.3971810272
  0
LINE
  5
205
330
1F
100
AcDbEntity
  8
0
  6
Continuous
 62
     7
370
    15
100
AcDbLine
 10
194.4707854622
 20
452.4099866941
 30
0.0
 11
194.6718021267
 21
452.4099866941
 31
0.0
  0
LINE
  5
206
330
1F
100
AcDbEntity
  8
0
  6
Continuous
 62
     7
370
    15
100
AcDbLine
 10
194.6718021267
 20
439.4099901512
 30
0.0
 11
194.4707854622
 21
439.4099901512
 31
0.0
  0
LINE
  5
207
330
1F
100
AcDbEntity
  8
0
  6
Continuous
 62
     7
370
    15
100
AcDbLine
 10
197.6717933053
 20
10.909993489
 30
0.0
 11
202.671803438
 21
10.909993489
 31
0.0
  0
LINE
  5
208
330
1F
100
AcDbEntity
  8
0
  6
Continuous
 62
     7
370
    15
100
AcDbLine
 10
197.6717933053
 20
25.9099940851
 30
0.0
 11
202.671803438
 21
25.9099940851
 31
0.0
  0
LINE
  5
209
330
1F
100
AcDbEntity
  8
0
  6
Continuous
 62
     7
370
    15
100
AcDbLine
 10
202.671803438
 20
25.9099940851
 30
0.0
 11
202.671803438
 21
10.909993489
 31
0.0
  0
LINE
  5
20A
330
1F
100
AcDbEntity
  8
0
  6
Continuous
 62
     7
370
    15
100
AcDbLine
 10
197.6717933053
 20
25.9099940851
 30
0.0
 11
197.6717933053
 21
10.909993489
 31
0.0
  0
LINE
  5
20B
330
1F
100
AcDbEntity
  8
0
  6
Continuous
 62
     7
370
    15
100
AcDbLine
 10
202.671803438
 20
25.9099940851
 30
0.0
 11
217.6718040341
 21
25.9099940851
 31
0.0
  0
ARC
  5
20C
330
1F
100
AcDbEntity
  8
0
  6
Continuous
 62
     7
370
    15
100
AcDbCircle
 10
202.6717973107
 20
25.909993489
 30
0.0
 40
15.00000000000001
100
AcDbArc
 50
270.0
 51
0.0
  0
LINE
  5
20D
330
1F
100
AcDbEntity
  8
0
  6
Continuous
 62
     7
370
    15
100
AcDbLine
 10
217.6718040341
 20
25.9099940851
 30
0.0
 11
217.6718040341
 21
495.909992893
 31
0.0
  0
LINE
  5
20E
330
1F
100
AcDbEntity
  8
0
  6
Continuous
 62
     7
370
    15
100
AcDbLine
 10
202.671803438
 20
65.9225027158
 30
0.0
 11
202.671803438
 21
25.9099940851
 31
0.0
  0
LINE
  5
20F
330
1F
100
AcDbEntity
  8
0
  6
Continuous
 62
     7
370
    15
100
AcDbLine
 10
202.671803438
 20
85.8974794939
 30
0.0
 11
202.671803438
 21
435.9225074842
 31
0.0
  0
LINE
  5
210
330
1F
100
AcDbEntity
  8
0
  6
Continuous
 62
     7
370
    15
100
AcDbLine
 10
202.671803438
 20
455.8974842622
 30
0.0
 11
202.671803438
 21
495.909992893
 31
0.0
  0
LINE
  5
211
330
1F
100
AcDbEntity
  8
0
  6
Continuous
 62
     7
370
    15
100
AcDbLine
 10
202.671803438
 20
495.909992893
 30
0.0
 11
217.6718040341
 21
495.909992893
 31
0.0
  0
LINE
  5
212
330
1F
100
AcDbEntity
  8
0
  6
Continuous
 62
     7
370
    15
100
AcDbLine
 10
197.6717933053
 20
66.6390101507
 30
0.0
 11
197.6717933053
 21
25.9099940851
 31
0.0
  0
LINE
  5
213
330
1F
100
AcDbEntity
  8
0
  6
Continuous
 62
     7
370
    15
100
AcDbLine
 10
197.6717933053
 20
85.180972059
 30
0.0
 11
197.6717933053
 21
436.639014919
 31
0.0
  0
LINE
  5
214
330
1F
100
AcDbEntity
  8
0
  6
Continuous
 62
     7
370
    15
100
AcDbLine
 10
197.6717933053
 20
495.909992893
 30
0.0
 11
202.671803438
 21
495.909992893
 31
0.0
  0
LINE
  5
215
330
1F
100
AcDbEntity
  8
0
  6
Continuous
 62
     7
370
    15
100
AcDbLine
 10
197.6717933053
 20
455.1809768274
 30
0.0
 11
197.6717933053
 21
495.909992893
 31
0.0
  0
LINE
  5
216
330
1F
100
AcDbEntity
  8
0
  6
Continuous
 62
     7
370
    15
100
AcDbLine
 10
202.671803438
 20
495.909992893
 30
0.0
 11
202.671803438
 21
510.909993489
 31
0.0
  0
ARC
  5
217
330
1F
100
AcDbEntity
  8
0
  6
Continuous
 62
     7
370
    15
100
AcDbCircle
 10
202.6717973107
 20
495.909993489
 30
0.0
 40
15.00000000000003
100
AcDbArc
 50
0.0
 51
90.0
  0
LINE
  5
218
330
1F
100
AcDbEntity
  8
0
  6
Continuous
 62
     7
370
    15
100
AcDbLine
 10
197.6717933053
 20
510.909993489
 30
0.0
 11
202.671803438
 21
510.909993489
 31
0.0
  0
LINE
  5
219
330
1F
100
AcDbEntity
  8
0
  6
Continuous
 62
     7
370
    15
100
AcDbLine
 10
197.6717933053
 20
495.909992893
 30
0.0
 11
197.6717933053
 21
510.909993489
 31
0.0
  0
SPLINE
  5
21A
330
1F
100
AcDbEntity
  8
0
  6
Continuous
 62
     7
370
    15
100
AcDbSpline
210
0.0
220
0.0
230
1.0
 70
     8
 71
     3
 72
    16
 73
    12
 74
     0
 42
0.00000001
 43
0.00000001
 40
0.0
 40
0.0
 40
0.0
 40
0.0
 40
0.1207066697838036
 40
0.2414156264855561
 40
0.362117701685532
 40
0.4828229587358795
 40
0.6035285351403139
 40
0.7242353167731231
 40
0.8449404638900417
 40
0.9656486359393509
 40
1.0
 40
1.0
 40
1.0
 40
1.0
 10
175.8240981930258
 20
62.95761867308988
 30
0.0
 10
175.8434992120036
 20
62.96029521184762
 30
0.0
 10
175.8823016175326
 20
62.96564834007307
 30
0.0
 10
175.8872228580773
 20
63.25657508401186
 30
0.0
 10
175.8500151913104
 20
63.70994411991499
 30
0.0
 10
175.7730846863386
 20
64.27744600383045
 30
0.0
 10
175.6692820964427
 20
64.86578013465613
 30
0.0
 10
175.5531868136178
 20
65.3924749992355
 30
0.0
 10
175.4461734922792
 20
65.75577453989231
 30
0.0
 10
175.3736018527484
 20
65.9262303291811
 30
0.0
 10
175.3540509640376
 20
65.89307235517644
 30
0.0
 10
175.3497197264196
 20
65.88572665000336
 30
0.0
  0
SPLINE
  5
21B
330
1F
100
AcDbEntity
  8
0
  6
Continuous
 62
     7
370
    15
100
AcDbSpline
210
0.0
220
0.0
230
1.0
 70
     8
 71
     3
 72
    16
 73
    12
 74
     0
 42
0.00000001
 43
0.00000001
 40
0.0
 40
0.0
 40
0.0
 40
0.0
 40
0.1205773093028023
 40
0.2411629940041617
 40
0.3617418042313628
 40
0.4823237930595241
 40
0.6029061009156373
 40
0.7234902030977304
 40
0.8440715231095615
 40
0.9646564239597908
 40
1.0
 40
1.0
 40
1.0
 40
1.0
 10
175.9946866863729
 20
88.8336489989795
 30
0.0
 10
176.014087716839
 20
88.83097102938278
 30
0.0
 10
176.0528911253827
 20
88.8256149041754
 30
0.0
 10
176.0578110135366
 20
88.5346926817141
 30
0.0
 10
176.0206041045774
 20
88.08132270703214
 30
0.0
 10
175.9436718378473
 20
87.51382495519147
 30
0.0
 10
175.8398753678602
 20
86.92547427455932
 30
0.0
 10
175.7237566492987
 20
86.3988377423876
 30
0.0
 10
175.6167445578888
 20
86.03533459479806
 30
0.0
 10
175.543982622431
 20
85.8648131701586
 30
0.0
 10
175.5243426806753
 20
85.89839183882958
 30
0.0
 10
175.5198909872533
 20
85.90600295806306
 30
0.0
  0
SPLINE
  5
21C
330
1F
100
AcDbEntity
  8
0
  6
Continuous
 62
     7
370
    15
100
AcDbSpline
210
0.0
220
0.0
230
1.0
 70
     8
 71
     3
 72
    16
 73
    12
 74
     0
 42
0.00000001
 43
0.00000001
 40
0.0
 40
0.0
 40
0.0
 40
0.0
 40
0.1205182433370418
 40
0.2410333304133654
 40
0.3615509498326964
 40
0.4820658984742974
 40
0.6025830501387655
 40
0.7231014051502135
 40
0.8436162026618527
 40
0.9641310227902649
 40
1.0
 40
1.0
 40
1.0
 40
1.0
 10
191.3650705450536
 20
65.57403906131165
 30
0.0
 10
191.3844716596739
 20
65.5767132983381
 30
0.0
 10
191.4232733808172
 20
65.58206170235523
 30
0.0
 10
191.4281943690887
 20
65.87301539937323
 30
0.0
 10
191.3909890849646
 20
66.32634786659285
 30
0.0
 10
191.3140568054804
 20
66.89386998978053
 30
0.0
 10
191.2102517860455
 20
67.48221467749063
 30
0.0
 10
191.0941701255474
 20
68.00883543234865
 30
0.0
 10
190.9871097143933
 20
68.37240098519523
 30
0.0
 10
190.9142582570552
 20
68.54300468693772
 30
0.0
 10
190.8945676626503
 20
68.50918812080734
 30
0.0
 10
190.8900513285162
 20
68.5014317824878
 30
0.0
  0
SPLINE
  5
21D
330
1F
100
AcDbEntity
  8
0
  6
Continuous
 62
     7
370
    15
100
AcDbSpline
210
0.0
220
0.0
230
1.0
 70
     8
 71
     3
 72
    16
 73
    12
 74
     0
 42
0.00000001
 43
0.00000001
 40
0.0
 40
0.0
 40
0.0
 40
0.0
 40
0.1205180639620182
 40
0.2410312930423423
 40
0.3615484744694328
 40
0.4820658788940309
 40
0.6025825925679583
 40
0.7230983245597827
 40
0.8436167710010724
 40
0.9641311531474174
 40
1.0
 40
1.0
 40
1.0
 40
1.0
 10
191.5356441372397
 20
86.21722861075773
 30
0.0
 10
191.5550515564125
 20
86.2145532216389
 30
0.0
 10
191.5938656161814
 20
86.20920255073113
 30
0.0
 10
191.5987817883951
 20
85.91826966379143
 30
0.0
 10
191.56157736795
 20
85.46493055844121
 30
0.0
 10
191.4846444865661
 20
84.89740085043013
 30
0.0
 10
191.3808488133526
 20
84.30906096199412
 30
0.0
 10
191.2647287635058
 20
83.78241635943986
 30
0.0
 10
191.1577080515158
 20
83.41887548425395
 30
0.0
 10
191.0848462156811
 20
83.24826260220597
 30
0.0
 10
191.0651560562336
 20
83.28207947981889
 30
0.0
 10
191.0606398218633
 20
83.28983588958161
 30
0.0
  0
SPLINE
  5
21E
330
1F
100
AcDbEntity
  8
0
  6
Continuous
 62
     7
370
    15
100
AcDbSpline
210
0.0
220
0.0
230
1.0
 70
    24
 71
     3
 72
    16
 73
    12
 74
     0
 42
0.00000001
 43
0.00000001
 40
0.0
 40
0.0
 40
0.0
 40
0.0
 40
0.0611042412805948
 40
0.1864670502232474
 40
0.311832109630077
 40
0.4371980005123943
 40
0.5625599899456356
 40
0.68792400593719
 40
0.8132867973268191
 40
0.9386468025897463
 40
1.0
 40
1.0
 40
1.0
 40
1.0
 10
194.4419815176489
 20
69.04375954413788
 30
0.0
 10
194.4477545405798
 20
69.04375954413788
 30
0.0
 10
194.4653716246683
 20
69.04375954413786
 30
0.0
 10
194.2469318367446
 20
69.04375954413794
 30
0.0
 10
193.8342042178267
 20
69.04375954413783
 30
0.0
 10
193.2777278283886
 20
69.04375954413791
 30
0.0
 10
192.6786187909653
 20
69.04375954413786
 30
0.0
 10
192.1199319880535
 20
69.04375954413794
 30
0.0
 10
191.702975910012
 20
69.04375954413786
 30
0.0
 10
191.4799736889868
 20
69.04375954413794
 30
0.0
 10
191.4947894381621
 20
69.04375954413788
 30
0.0
 10
191.4996578329565
 20
69.04375954413788
 30
0.0
  0
SPLINE
  5
21F
330
1F
100
AcDbEntity
  8
0
  6
Continuous
 62
     7
370
    15
100
AcDbSpline
210
0.0
220
0.0
230
1.0
 70
    24
 71
     3
 72
    16
 73
    12
 74
     0
 42
0.00000001
 43
0.00000001
 40
0.0
 40
0.0
 40
0.0
 40
0.0
 40
0.0610064913464802
 40
0.1861687543686247
 40
0.3113332642548242
 40
0.4364986042863799
 40
0.5616600491101023
 40
0.6868235172502032
 40
0.8119857627474041
 40
0.9371452265749375
 40
1.0
 40
1.0
 40
1.0
 40
1.0
 10
194.4419815176489
 20
82.60238571906464
 30
0.0
 10
194.4477545343555
 20
82.60238571906464
 30
0.0
 10
194.4653715994499
 20
82.60238571906459
 30
0.0
 10
194.246932070559
 20
82.60238571906467
 30
0.0
 10
193.8342033611468
 20
82.60238571906461
 30
0.0
 10
193.2777310212681
 20
82.60238571906461
 30
0.0
 10
192.6786068764562
 20
82.60238571906467
 30
0.0
 10
192.1199764539619
 20
82.60238571906461
 30
0.0
 10
191.702809964506
 20
82.60238571906467
 30
0.0
 10
191.4793177352857
 20
82.60238571906461
 30
0.0
 10
191.4945393231494
 20
82.60238571906461
 30
0.0
 10
191.4996280306341
 20
82.60238571906464
 30
0.0
  0
SPLINE
  5
220
330
1F
100
AcDbEntity
  8
0
  6
Continuous
 62
     7
370
    15
100
AcDbSpline
210
0.0
220
0.0
230
1.0
 70
     8
 71
     3
 72
    19
 73
    15
 74
     0
 42
0.00000001
 43
0.00000001
 40
0.0
 40
0.0
 40
0.0
 40
0.0
 40
0.0039536500810373
 40
0.1157769728464271
 40
0.2280460763080664
 40
0.3355280557841615
 40
0.4377058403813062
 40
0.5348821761991029
 40
0.6283103162910049
 40
0.7303001020746906
 40
0.8413436608750355
 40
0.9641174349415702
 40
0.9937689015616143
 40
1.0
 40
1.0
 40
1.0
 40
1.0
 10
180.7700767153265
 20
81.50999649310486
 30
0.0
 10
180.7704689761397
 20
81.50998945201552
 30
0.0
 10
180.7819557715275
 20
81.509783263812
 30
0.0
 10
180.8052726581652
 20
81.49471758094154
 30
0.0
 10
180.8487465601883
 20
81.42777615414745
 30
0.0
 10
180.8867267515463
 20
81.32310307226149
 30
0.0
 10
180.9102100546383
 20
81.19802383539553
 30
0.0
 10
180.9215482841634
 20
81.0695891780546
 30
0.0
 10
180.9221581770143
 20
80.94841595717355
 30
0.0
 10
180.9063556963243
 20
80.83919552008442
 30
0.0
 10
180.865996360344
 20
80.74976402345851
 30
0.0
 10
180.8141065059152
 20
80.71471289968932
 30
0.0
 10
180.7794169588363
 20
80.71010079965745
 30
0.0
 10
180.7714586890594
 20
80.71001308411691
 30
0.0
 10
180.7700767153265
 20
80.70999785209077
 30
0.0
  0
SPLINE
  5
221
330
1F
100
AcDbEntity
  8
0
  6
Continuous
 62
     7
370
    15
100
AcDbSpline
210
0.0
220
0.0
230
1.0
 70
     8
 71
     3
 72
    30
 73
    26
 74
     0
 42
0.00000001
 43
0.00000001
 40
0.0
 40
0.0
 40
0.0
 40
0.0
 40
0.1247236052522314
 40
0.2494256574335847
 40
0.3741230769743704
 40
0.4367857078497833
 40
0.4681556140607993
 40
0.4838446773874281
 40
0.4916958467850172
 40
0.4956150802852887
 40
0.4975731321892516
 40
0.498552085746812
 40
0.4990429722389844
 40
0.4992884154850706
 40
0.4994098307496709
 40
0.499470538381971
 40
0.4995081876572703
 40
0.4995200934034905
 40
0.499536930671265
 40
0.5609225021321016
 40
0.6646192361454764
 40
0.7325829712776323
 40
0.8111536280772027
 40
0.9002868286757383
 40
0.9999999999999999
 40
0.9999999999999999
 40
0.9999999999999999
 40
0.9999999999999999
 10
180.8417662018301
 20
81.56988425994294
 30
0.0
 10
180.8475354852894
 20
81.56809294378037
 30
0.0
 10
180.8590730552375
 20
81.56451062100662
 30
0.0
 10
180.9489160166274
 20
81.54265777899894
 30
0.0
 10
181.0563880260439
 20
81.51698385355068
 30
0.0
 10
181.1419372610488
 20
81.49657683288724
 30
0.0
 10
181.1860457752142
 20
81.48604660482228
 30
0.0
 10
181.2082666256292
 20
81.48070803290483
 30
0.0
 10
181.2194068548818
 20
81.4780639211839
 30
0.0
 10
181.2249731055128
 20
81.47671725510492
 30
0.0
 10
181.2277552276781
 20
81.4760541714801
 30
0.0
 10
181.2291482597233
 20
81.47572990043098
 30
0.0
 10
181.229842170995
 20
81.47555550667859
 30
0.0
 10
181.2301891338767
 20
81.47546713275815
 30
0.0
 10
181.2303625301285
 20
81.47542632822987
 30
0.0
 10
181.2304552848044
 20
81.47541964821112
 30
0.0
 10
181.2304958621108
 20
81.47539260982379
 30
0.0
 10
181.2305257707206
 20
81.47539884327328
 30
0.0
 10
181.2463245645227
 20
81.45148282464793
 30
0.0
 10
181.3302088899405
 20
81.46919795602228
 30
0.0
 10
181.4122326708862
 20
81.43237858745503
 30
0.0
 10
181.4976640614314
 20
81.41872059744313
 30
0.0
 10
181.5606841447913
 20
81.40491831175129
 30
0.0
 10
181.6113869476006
 20
81.39555275074898
 30
0.0
 10
181.6185802705185
 20
81.39504749559434
 30
0.0
 10
181.622378432131
 20
81.39478071475403
 30
0.0
  0
ELLIPSE
  5
222
330
1F
100
AcDbEntity
  8
0
  6
Continuous
 62
     7
370
    15
100
AcDbEllipse
 10
181.4989057044
 20
82.6919686678
 30
0.0
 11
0.3906095144045878
 21
-0.08616383961160068
 31
0.0
210
0.0
220
0.0
230
1.0
 40
0.0142285888
 41
0.0
 42
6.283185307179586
  0
LINE
  5
223
330
1F
100
AcDbEntity
  8
0
  6
Continuous
 62
     7
370
    15
100
AcDbLine
 10
180.882729494
 20
71.2099860504
 30
0.0
 11
180.882729494
 21
79.8099975183
 31
0.0
  0
LINE
  5
224
330
1F
100
AcDbEntity
  8
0
  6
Continuous
 62
     7
370
    15
100
AcDbLine
 10
175.3684355849
 20
71.2099860504
 30
0.0
 11
175.3684355849
 21
79.8099975183
 31
0.0
  0
LINE
  5
225
330
1F
100
AcDbEntity
  8
0
  6
Continuous
 62
     7
370
    15
100
AcDbLine
 10
180.882729494
 20
71.2099860504
 30
0.0
 11
175.3684355849
 21
71.2099860504
 31
0.0
  0
LINE
  5
226
330
1F
100
AcDbEntity
  8
0
  6
Continuous
 62
     7
370
    15
100
AcDbLine
 10
180.882729494
 20
79.8099975183
 30
0.0
 11
175.3684355849
 21
79.8099975183
 31
0.0
  0
LINE
  5
227
330
1F
100
AcDbEntity
  8
0
  6
Continuous
 62
     7
370
    15
100
AcDbLine
 10
174.2541714543
 20
83.1099937751
 30
0.0
 11
149.4420691365
 21
83.1099937751
 31
0.0
  0
LINE
  5
228
330
1F
100
AcDbEntity
  8
0
  6
Continuous
 62
     7
370
    15
100
AcDbLine
 10
174.2541714543
 20
79.8099975183
 30
0.0
 11
174.2541714543
 21
83.1099937751
 31
0.0
  0
LINE
  5
229
330
1F
100
AcDbEntity
  8
0
  6
Continuous
 62
     7
370
    15
100
AcDbLine
 10
174.2541714543
 20
68.7099884346
 30
0.0
 11
174.2541714543
 21
71.2099860504
 31
0.0
  0
LINE
  5
22A
330
1F
100
AcDbEntity
  8
0
  6
Continuous
 62
     7
370
    15
100
AcDbLine
 10
149.4420691365
 20
68.7099884346
 30
0.0
 11
174.2541714543
 21
68.7099884346
 31
0.0
  0
LINE
  5
22B
330
1F
100
AcDbEntity
  8
0
  6
Continuous
 62
     7
370
    15
100
AcDbLine
 10
149.4420691365
 20
68.7099884346
 30
0.0
 11
149.4420691365
 21
83.1099937751
 31
0.0
  0
LINE
  5
22C
330
1F
100
AcDbEntity
  8
0
  6
Continuous
 62
     7
370
    15
100
AcDbLine
 10
174.2541714543
 20
71.2099860504
 30
0.0
 11
175.3684355849
 21
71.2099860504
 31
0.0
  0
LINE
  5
22D
330
1F
100
AcDbEntity
  8
0
  6
Continuous
 62
     7
370
    15
100
AcDbLine
 10
174.2541714543
 20
79.8099975183
 30
0.0
 11
175.3684355849
 21
79.8099975183
 31
0.0
  0
LINE
  5
22E
330
1F
100
AcDbEntity
  8
0
  6
Continuous
 62
     7
370
    15
100
AcDbLine
 10
176.2740238541
 20
83.9073400095
 30
0.0
 11
174.3817998999
 21
83.9073400095
 31
0.0
  0
ARC
  5
22F
330
1F
100
AcDbEntity
  8
0
  6
Continuous
 62
     7
370
    15
100
AcDbCircle
 10
175.7283510199
 20
83.2829146046
 30
0.0
 40
1.484286699018922
100
AcDbArc
 50
155.1218068011
 51
186.6902058586
  0
ARC
  5
230
330
1F
100
AcDbEntity
  8
0
  6
Continuous
 62
     7
370
    15
100
AcDbCircle
 10
150.6979764222
 20
83.3039820573
 30
0.0
 40
1.270800756943123
100
AcDbArc
 50
151.5186397143
 51
188.7805542378
  0
LINE
  5
231
330
1F
100
AcDbEntity
  8
0
  6
Continuous
 62
     7
370
    15
100
AcDbLine
 10
149.5809777611
 20
83.9099924161
 30
0.0
 11
176.9467814797
 21
83.9099924161
 31
0.0
  0
LINE
  5
232
330
1F
100
AcDbEntity
  8
0
  6
Continuous
 62
     7
370
    15
100
AcDbLine
 10
176.9467814797
 20
83.9099924161
 30
0.0
 11
176.2740238541
 21
83.9073400095
 31
0.0
  0
LINE
  5
233
330
1F
100
AcDbEntity
  8
0
  6
Continuous
 62
     7
370
    15
100
AcDbLine
 10
174.3817998999
 20
67.9126422002
 30
0.0
 11
176.2740238541
 21
67.9126422002
 31
0.0
  0
LINE
  5
234
330
1F
100
AcDbEntity
  8
0
  6
Continuous
 62
     7
370
    15
100
AcDbLine
 10
176.2740238541
 20
67.9126422002
 30
0.0
 11
176.9467814797
 21
67.9099897935
 31
0.0
  0
LINE
  5
235
330
1F
100
AcDbEntity
  8
0
  6
Continuous
 62
     7
370
    15
100
AcDbLine
 10
176.9467814797
 20
67.9099897935
 30
0.0
 11
149.5809777611
 21
67.9099897935
 31
0.0
  0
ARC
  5
236
330
1F
100
AcDbEntity
  8
0
  6
Continuous
 62
     7
370
    15
100
AcDbCircle
 10
150.6979764222
 20
68.5160001524
 30
0.0
 40
1.270800756943123
100
AcDbArc
 50
171.2194457622
 51
208.4813602857
  0
ARC
  5
237
330
1F
100
AcDbEntity
  8
0
  6
Continuous
 62
     7
370
    15
100
AcDbCircle
 10
175.7283795623
 20
68.5370721738
 30
0.0
 40
1.484314514888961
100
AcDbArc
 50
173.3100976524
 51
204.877889688
  0
LINE
  5
238
330
1F
100
AcDbEntity
  8
0
  6
Continuous
 62
     7
370
    15
100
AcDbLine
 10
174.3817998999
 20
83.1099937751
 30
0.0
 11
174.3817998999
 21
83.9073400095
 31
0.0
  0
LINE
  5
239
330
1F
100
AcDbEntity
  8
0
  6
Continuous
 62
     7
370
    15
100
AcDbLine
 10
174.3930949801
 20
83.1099937751
 30
0.0
 11
174.3930949801
 21
79.8099975183
 31
0.0
  0
LINE
  5
23A
330
1F
100
AcDbEntity
  8
0
  6
Continuous
 62
     7
370
    15
100
AcDbLine
 10
174.3817998999
 20
67.9126422002
 30
0.0
 11
174.3817998999
 21
68.7099884346
 31
0.0
  0
LINE
  5
23B
330
1F
100
AcDbEntity
  8
0
  6
Continuous
 62
     7
370
    15
100
AcDbLine
 10
174.3930949801
 20
71.2099860504
 30
0.0
 11
174.3930949801
 21
68.7099884346
 31
0.0
  0
LINE
  5
23C
330
1F
100
AcDbEntity
  8
0
  6
Continuous
 62
     7
370
    15
100
AcDbLine
 10
180.3817971581
 20
67.9099897935
 30
0.0
 11
176.9467814797
 21
67.9099897935
 31
0.0
  0
LINE
  5
23D
330
1F
100
AcDbEntity
  8
0
  6
Continuous
 62
     7
370
    15
100
AcDbLine
 10
176.2740238541
 20
67.9126422002
 30
0.0
 11
176.2740238541
 21
68.7099884346
 31
0.0
  0
LINE
  5
23E
330
1F
100
AcDbEntity
  8
0
  6
Continuous
 62
     7
370
    15
100
AcDbLine
 10
180.3817971581
 20
68.7099884346
 30
0.0
 11
176.2740238541
 21
68.7099884346
 31
0.0
  0
LINE
  5
23F
330
1F
100
AcDbEntity
  8
0
  6
Continuous
 62
     7
370
    15
100
AcDbLine
 10
176.2740238541
 20
83.1099937751
 30
0.0
 11
176.2740238541
 21
83.9073400095
 31
0.0
  0
LINE
  5
240
330
1F
100
AcDbEntity
  8
0
  6
Continuous
 62
     7
370
    15
100
AcDbLine
 10
180.3817971581
 20
83.9099924161
 30
0.0
 11
176.9467814797
 21
83.9099924161
 31
0.0
  0
LINE
  5
241
330
1F
100
AcDbEntity
  8
0
  6
Continuous
 62
     7
370
    15
100
AcDbLine
 10
180.3817971581
 20
83.1099937751
 30
0.0
 11
176.2740238541
 21
83.1099937751
 31
0.0
  0
LINE
  5
242
330
1F
100
AcDbEntity
  8
0
  6
Continuous
 62
     7
370
    15
100
AcDbLine
 10
174.3817998999
 20
83.1099937751
 30
0.0
 11
176.2740238541
 21
83.1099937751
 31
0.0
  0
LINE
  5
243
330
1F
100
AcDbEntity
  8
0
  6
Continuous
 62
     7
370
    15
100
AcDbLine
 10
174.3817998999
 20
68.7099884346
 30
0.0
 11
176.2740238541
 21
68.7099884346
 31
0.0
  0
LINE
  5
244
330
1F
100
AcDbEntity
  8
0
  6
Continuous
 62
     7
370
    15
100
AcDbLine
 10
175.4517926806
 20
84.2099974945
 30
0.0
 11
179.8517926568
 21
84.2099974945
 31
0.0
  0
LINE
  5
245
330
1F
100
AcDbEntity
  8
0
  6
Continuous
 62
     7
370
    15
100
AcDbLine
 10
175.5517943734
 20
67.5099979236
 30
0.0
 11
179.751790964
 21
67.5099979236
 31
0.0
  0
LINE
  5
246
330
1F
100
AcDbEntity
  8
0
  6
Continuous
 62
     7
370
    15
100
AcDbLine
 10
175.5517943734
 20
67.1099911525
 30
0.0
 11
179.751790964
 21
67.1099911525
 31
0.0
  0
ARC
  5
247
330
1F
100
AcDbEntity
  8
0
  6
Continuous
 62
     7
370
    15
100
AcDbCircle
 10
157.8477135765
 20
75.9099911048
 30
0.0
 40
16.90401408232907
100
AcDbArc
 50
154.7901718738
 51
205.2098281262
  0
SPLINE
  5
248
330
1F
100
AcDbEntity
  8
0
  6
Continuous
 62
     7
370
    15
100
AcDbSpline
210
0.0
220
0.0
230
1.0
 70
     8
 71
     3
 72
    12
 73
     8
 74
     0
 42
0.00000001
 43
0.00000001
 40
0.0
 40
0.0
 40
0.0
 40
0.0
 40
0.1818837080735567
 40
0.36334584682646
 40
0.5550842991093163
 40
0.7712679363254195
 40
1.0
 40
1.0
 40
1.0
 40
1.0
 10
142.6861136191847
 20
67.90998979354276
 30
0.0
 10
142.7099738634957
 20
67.91731210955545
 30
0.0
 10
142.7576390489403
 20
67.93193976994652
 30
0.0
 10
142.7723875672228
 20
68.04393661670335
 30
0.0
 10
142.7451541962713
 20
68.21333218490122
 30
0.0
 10
142.6734784499453
 20
68.44173864199402
 30
0.0
 10
142.5943957368319
 20
68.61890622236727
 30
0.0
 10
142.5537391537191
 20
68.70998843455689
 30
0.0
  0
LINE
  5
249
330
1F
100
AcDbEntity
  8
0
  6
Continuous
 62
     7
370
    15
100
AcDbLine
 10
142.3017530674
 20
68.6644951894
 30
0.0
 11
142.6561995381
 21
67.9099897935
 31
0.0
  0
ARC
  5
24A
330
1F
100
AcDbEntity
  8
0
  6
Continuous
 62
     7
370
    15
100
AcDbCircle
 10
157.5723817604
 20
75.9099911048
 30
0.0
 40
16.90234633834254
100
AcDbArc
 50
154.616938827
 51
205.383061173
  0
LINE
  5
24B
330
1F
100
AcDbEntity
  8
0
  6
Continuous
 62
     7
370
    15
100
AcDbLine
 10
142.6561995381
 20
83.9099924161
 30
0.0
 11
142.3017530674
 21
83.1554870203
 31
0.0
  0
SPLINE
  5
24C
330
1F
100
AcDbEntity
  8
0
  6
Continuous
 62
     7
370
    15
100
AcDbSpline
210
0.0
220
0.0
230
1.0
 70
     8
 71
     3
 72
    12
 73
     8
 74
     0
 42
0.00000001
 43
0.00000001
 40
0.0
 40
0.0
 40
0.0
 40
0.0
 40
0.2510209911880205
 40
0.5023974552454273
 40
0.7402778730390002
 40
0.9473077450497924
 40
1.0
 40
1.0
 40
1.0
 40
1.0
 10
142.5537391537191
 20
83.10999377513306
 30
0.0
 10
142.5980569460304
 20
83.20987942888311
 30
0.0
 10
142.6867552894395
 20
83.40979218527065
 30
0.0
 10
142.7617474951662
 20
83.66850941859849
 30
0.0
 10
142.7732419607968
 20
83.84574746789761
 30
0.0
 10
142.7315959775912
 20
83.90620736637
 30
0.0
 10
142.6937847385814
 20
83.90935402425676
 30
0.0
 10
142.6861136191847
 20
83.90999241614716
 30
0.0
  0
LINE
  5
24D
330
1F
100
AcDbEntity
  8
0
  6
Continuous
 62
     7
370
    15
100
AcDbLine
 10
142.6861136192
 20
83.9099924161
 30
0.0
 11
142.6561995381
 21
83.9099924161
 31
0.0
  0
LINE
  5
24E
330
1F
100
AcDbEntity
  8
0
  6
Continuous
 62
     7
370
    15
100
AcDbLine
 10
142.6861136192
 20
67.9099897935
 30
0.0
 11
142.6561995381
 21
67.9099897935
 31
0.0
  0
LINE
  5
24F
330
1F
100
AcDbEntity
  8
0
  6
Continuous
 62
     7
370
    15
100
AcDbLine
 10
144.5432155365
 20
83.1099937751
 30
0.0
 11
142.5537391537
 21
83.1099937751
 31
0.0
  0
LINE
  5
250
330
1F
100
AcDbEntity
  8
0
  6
Continuous
 62
     7
370
    15
100
AcDbLine
 10
144.5432155365
 20
68.7099884346
 30
0.0
 11
144.5432155365
 21
83.1099937751
 31
0.0
  0
LINE
  5
251
330
1F
100
AcDbEntity
  8
0
  6
Continuous
 62
     7
370
    15
100
AcDbLine
 10
142.5537391537
 20
68.7099884346
 30
0.0
 11
144.5432155365
 21
68.7099884346
 31
0.0
  0
LWPOLYLINE
  5
252
330
1F
100
AcDbEntity
  8
0
  6
Continuous
 62
     7
370
    15
100
AcDbPolyline
 90
        9
 70
   128
 43
0.0
 10
144.5432155365
 20
83.1099937751
 10
144.5379554266
 20
83.2660685375
 10
144.5223911637
 20
83.4161381319
 10
144.4971038931
 20
83.5544507101
 10
144.4630770916
 20
83.6756716564
 10
144.4216146105
 20
83.7751667097
 10
144.3743108743
 20
83.8490913703
 10
144.322976374
 20
83.8946144178
 10
144.2696004146
 20
83.9099924161
  0
LINE
  5
253
330
1F
100
AcDbEntity
  8
0
  6
Continuous
 62
     7
370
    15
100
AcDbLine
 10
142.6861136192
 20
83.9099924161
 30
0.0
 11
144.2696004146
 21
83.9099924161
 31
0.0
  0
LWPOLYLINE
  5
254
330
1F
100
AcDbEntity
  8
0
  6
Continuous
 62
     7
370
    15
100
AcDbPolyline
 90
        9
 70
   128
 43
0.0
 10
144.5432155365
 20
68.7099884346
 10
144.5379554266
 20
68.5539285734
 10
144.5223911637
 20
68.4038440778
 10
144.4971038931
 20
68.2655314996
 10
144.4630770916
 20
68.1443105533
 10
144.4216146105
 20
68.0448155
 10
144.3743108743
 20
67.9708908393
 10
144.322976374
 20
67.9253677919
 10
144.2696004146
 20
67.9099897935
  0
LINE
  5
255
330
1F
100
AcDbEntity
  8
0
  6
Continuous
 62
     7
370
    15
100
AcDbLine
 10
144.2696004146
 20
67.9099897935
 30
0.0
 11
142.6861136192
 21
67.9099897935
 31
0.0
  0
LINE
  5
256
330
1F
100
AcDbEntity
  8
0
  6
Continuous
 62
     7
370
    15
100
AcDbLine
 10
149.4420691365
 20
83.1099937751
 30
0.0
 11
144.5432155365
 21
83.1099937751
 31
0.0
  0
LINE
  5
257
330
1F
100
AcDbEntity
  8
0
  6
Continuous
 62
     7
370
    15
100
AcDbLine
 10
144.2696004146
 20
83.9099924161
 30
0.0
 11
149.5809777611
 21
83.9099924161
 31
0.0
  0
LINE
  5
258
330
1F
100
AcDbEntity
  8
0
  6
Continuous
 62
     7
370
    15
100
AcDbLine
 10
144.5432155365
 20
68.7099884346
 30
0.0
 11
149.4420691365
 21
68.7099884346
 31
0.0
  0
LINE
  5
259
330
1F
100
AcDbEntity
  8
0
  6
Continuous
 62
     7
370
    15
100
AcDbLine
 10
149.5809777611
 20
67.9099897935
 30
0.0
 11
144.2696004146
 21
67.9099897935
 31
0.0
  0
SPLINE
  5
25A
330
1F
100
AcDbEntity
  8
0
  6
Continuous
 62
     7
370
    15
100
AcDbSpline
210
0.0
220
0.0
230
1.0
 70
     8
 71
     3
 72
    16
 73
    12
 74
     0
 42
0.00000001
 43
0.00000001
 40
0.0
 40
0.0
 40
0.0
 40
0.0
 40
0.1207062812367501
 40
0.2414151390861788
 40
0.3621171154394663
 40
0.4828251718932101
 40
0.6035306494480889
 40
0.7242346556914431
 40
0.8449397039591576
 40
0.9656486640707528
 40
1.0
 40
1.0
 40
1.0
 40
1.0
 10
175.8240981930257
 20
432.9576234414615
 30
0.0
 10
175.8434991969474
 20
432.9602937429807
 30
0.0
 10
175.8823016189269
 20
432.9656344030196
 30
0.0
 10
175.887223029253
 20
433.2565661037598
 30
0.0
 10
175.8500142113851
 20
433.7099370423712
 30
0.0
 10
175.7730858533716
 20
434.2774465530301
 30
0.0
 10
175.6692836225648
 20
434.8657814408405
 30
0.0
 10
175.553185203533
 20
435.3924681742209
 30
0.0
 10
175.4461732307451
 20
435.755759757558
 30
0.0
 10
175.3736020122585
 20
435.9262363231389
 30
0.0
 10
175.3540509726851
 20
435.893077311422
 30
0.0
 10
175.3497197264196
 20
435.8857314183749
 30
0.0
  0
SPLINE
  5
25B
330
1F
100
AcDbEntity
  8
0
  6
Continuous
 62
     7
370
    15
100
AcDbSpline
210
0.0
220
0.0
230
1.0
 70
     8
 71
     3
 72
    16
 73
    12
 74
     0
 42
0.00000001
 43
0.00000001
 40
0.0
 40
0.0
 40
0.0
 40
0.0
 40
0.1205770547840739
 40
0.2411627743848229
 40
0.361741619509424
 40
0.4823236432359054
 40
0.6029059859904309
 40
0.7234901230714557
 40
0.8440714779814131
 40
0.9646564137308051
 40
1.0
 40
1.0
 40
1.0
 40
1.0
 10
175.9946866863729
 20
458.8336388661899
 30
0.0
 10
176.0140877170101
 20
458.8309671274675
 30
0.0
 10
176.0528911724668
 20
458.8256234580284
 30
0.0
 10
176.0578110019755
 20
458.5346963734388
 30
0.0
 10
176.0206041076752
 20
458.0813277638921
 30
0.0
 10
175.9436718370173
 20
457.5138296462609
 30
0.0
 10
175.8398753680826
 20
456.9254790636479
 30
0.0
 10
175.7237566492389
 20
456.3988425051951
 30
0.0
 10
175.6167445579054
 20
456.0353393647095
 30
0.0
 10
175.5439826224301
 20
455.864817938438
 30
0.0
 10
175.5243426806751
 20
455.8983966071841
 30
0.0
 10
175.5198909872534
 20
455.9060077264346
 30
0.0
  0
SPLINE
  5
25C
330
1F
100
AcDbEntity
  8
0
  6
Continuous
 62
     7
370
    15
100
AcDbSpline
210
0.0
220
0.0
230
1.0
 70
     8
 71
     3
 72
    16
 73
    12
 74
     0
 42
0.00000001
 43
0.00000001
 40
0.0
 40
0.0
 40
0.0
 40
0.0
 40
0.1205177302061663
 40
0.2410325934015554
 40
0.3615499889352475
 40
0.4820676074668435
 40
0.6025845352465417
 40
0.7230999940129991
 40
0.8436164931761072
 40
0.9641310894240808
 40
0.9999999999999999
 40
0.9999999999999999
 40
0.9999999999999999
 40
0.9999999999999999
 10
191.3650705450536
 20
435.5740438296832
 30
0.0
 10
191.3844716449065
 20
435.5767118316631
 30
0.0
 10
191.4232733830771
 20
435.5820477721534
 30
0.0
 10
191.4281945367899
 20
435.8730063926361
 30
0.0
 10
191.3909881180328
 20
436.3263408882262
 30
0.0
 10
191.3140579238654
 20
436.8938701685281
 30
0.0
 10
191.2102534939744
 20
437.4822173650508
 30
0.0
 10
191.0941672185411
 20
438.0088262577773
 30
0.0
 10
190.9871111305623
 20
438.3724079928181
 30
0.0
 10
190.9142582015876
 20
438.5430092464067
 30
0.0
 10
190.8945676523017
 20
438.5091928502035
 30
0.0
 10
190.8900513285162
 20
438.5014365508594
 30
0.0
  0
SPLINE
  5
25D
330
1F
100
AcDbEntity
  8
0
  6
Continuous
 62
     7
370
    15
100
AcDbSpline
210
0.0
220
0.0
230
1.0
 70
     8
 71
     3
 72
    16
 73
    12
 74
     0
 42
0.00000001
 43
0.00000001
 40
0.0
 40
0.0
 40
0.0
 40
0.0
 40
0.1205181162498971
 40
0.2410328176295806
 40
0.3615500513441671
 40
0.4820646142895711
 40
0.6025813802507916
 40
0.723097164529483
 40
0.843617588722802
 40
0.9641311375853857
 40
1.0
 40
1.0
 40
1.0
 40
1.0
 10
191.5356441372396
 20
456.2172333791293
 30
0.0
 10
191.5550515628142
 20
456.2145592067344
 30
0.0
 10
191.5938658640554
 20
456.2092109377169
 30
0.0
 10
191.598781645513
 20
455.9182569910564
 30
0.0
 10
191.5615784525494
 20
455.4649247823875
 30
0.0
 10
191.4846430188227
 20
454.8974016665287
 30
0.0
 10
191.3808491526728
 20
454.3090642466585
 30
0.0
 10
191.2647274247991
 20
453.7824235013197
 30
0.0
 10
191.1577097399052
 20
453.418858475827
 30
0.0
 10
191.0848459979835
 20
453.2482688612203
 30
0.0
 10
191.0651560364203
 20
453.2820844905755
 30
0.0
 10
191.0606398218633
 20
453.2898406579532
 30
0.0
  0
SPLINE
  5
25E
330
1F
100
AcDbEntity
  8
0
  6
Continuous
 62
     7
370
    15
100
AcDbSpline
210
0.0
220
0.0
230
1.0
 70
    24
 71
     3
 72
    16
 73
    12
 74
     0
 42
0.00000001
 43
0.00000001
 40
0.0
 40
0.0
 40
0.0
 40
0.0
 40
0.0611042412805948
 40
0.1864670502232474
 40
0.311832109630077
 40
0.4371980005123943
 40
0.5625599899456356
 40
0.68792400593719
 40
0.8132867973268191
 40
0.9386468025897463
 40
1.0
 40
1.0
 40
1.0
 40
1.0
 10
194.4419815176489
 20
439.0437643125094
 30
0.0
 10
194.4477545405798
 20
439.0437643125094
 30
0.0
 10
194.4653716246683
 20
439.0437643125095
 30
0.0
 10
194.2469318367446
 20
439.0437643125094
 30
0.0
 10
193.8342042178267
 20
439.0437643125094
 30
0.0
 10
193.2777278283886
 20
439.0437643125094
 30
0.0
 10
192.6786187909653
 20
439.0437643125094
 30
0.0
 10
192.1199319880535
 20
439.0437643125094
 30
0.0
 10
191.702975910012
 20
439.0437643125094
 30
0.0
 10
191.4799736889868
 20
439.0437643125094
 30
0.0
 10
191.4947894381621
 20
439.0437643125094
 30
0.0
 10
191.4996578329565
 20
439.0437643125094
 30
0.0
  0
SPLINE
  5
25F
330
1F
100
AcDbEntity
  8
0
  6
Continuous
 62
     7
370
    15
100
AcDbSpline
210
0.0
220
0.0
230
1.0
 70
    24
 71
     3
 72
    16
 73
    12
 74
     0
 42
0.00000001
 43
0.00000001
 40
0.0
 40
0.0
 40
0.0
 40
0.0
 40
0.0610064913464802
 40
0.1861687543686247
 40
0.3113332642548242
 40
0.4364986042863799
 40
0.5616600491101023
 40
0.6868235172502032
 40
0.8119857627474041
 40
0.9371452265749375
 40
1.0
 40
1.0
 40
1.0
 40
1.0
 10
194.4419815176489
 20
452.6023904874362
 30
0.0
 10
194.4477545343555
 20
452.6023904874362
 30
0.0
 10
194.4653715994499
 20
452.6023904874363
 30
0.0
 10
194.246932070559
 20
452.6023904874362
 30
0.0
 10
193.8342033611468
 20
452.6023904874362
 30
0.0
 10
193.2777310212681
 20
452.6023904874362
 30
0.0
 10
192.6786068764562
 20
452.6023904874362
 30
0.0
 10
192.1199764539619
 20
452.6023904874362
 30
0.0
 10
191.702809964506
 20
452.6023904874362
 30
0.0
 10
191.4793177352857
 20
452.6023904874362
 30
0.0
 10
191.4945393231494
 20
452.6023904874362
 30
0.0
 10
191.4996280306341
 20
452.6023904874362
 30
0.0
  0
SPLINE
  5
260
330
1F
100
AcDbEntity
  8
0
  6
Continuous
 62
     7
370
    15
100
AcDbSpline
210
0.0
220
0.0
230
1.0
 70
     8
 71
     3
 72
    19
 73
    15
 74
     0
 42
0.00000001
 43
0.00000001
 40
0.0
 40
0.0
 40
0.0
 40
0.0
 40
0.0039535908315765
 40
0.1157766617010052
 40
0.2280455122625069
 40
0.3355272496220573
 40
0.4377154776956129
 40
0.5348915946116108
 40
0.6283085996527443
 40
0.7303075611088581
 40
0.841343901145654
 40
0.9641173986489723
 40
0.993768798475395
 40
1.0
 40
1.0
 40
1.0
 40
1.0
 10
180.7700767153265
 20
451.5099863603152
 30
0.0
 10
180.7704689762269
 20
451.5099843836076
 30
0.0
 10
180.7819559154433
 20
451.509926497848
 30
0.0
 10
180.8052726652333
 20
451.4946593684923
 30
0.0
 10
180.8487463322374
 20
451.427796938996
 30
0.0
 10
180.8867288531558
 20
451.323100788431
 30
0.0
 10
180.9102085566405
 20
451.1980189741036
 30
0.0
 10
180.9215484925498
 20
451.0695822234171
 30
0.0
 10
180.9221568526078
 20
450.9484167174762
 30
0.0
 10
180.90635856122
 20
450.839181882653
 30
0.0
 10
180.8659938961974
 20
450.7497861059974
 30
0.0
 10
180.8141067748924
 20
450.7146783755314
 30
0.0
 10
180.7794168184609
 20
450.7101272907931
 30
0.0
 10
180.7714586865786
 20
450.7100083704424
 30
0.0
 10
180.7700767153265
 20
450.7099877193011
 30
0.0
  0
SPLINE
  5
261
330
1F
100
AcDbEntity
  8
0
  6
Continuous
 62
     7
370
    15
100
AcDbSpline
210
0.0
220
0.0
230
1.0
 70
     8
 71
     3
 72
    30
 73
    26
 74
     0
 42
0.00000001
 43
0.00000001
 40
0.0
 40
0.0
 40
0.0
 40
0.0
 40
0.1247233423477871
 40
0.2494251316701278
 40
0.374122288361666
 40
0.4367874325715229
 40
0.4681545365565897
 40
0.4838435668122977
 40
0.4916947196604347
 40
0.4956139448993678
 40
0.4975747777715092
 40
0.4985537292655368
 40
0.4990418638316214
 40
0.4992873065603386
 40
0.499411605938083
 40
0.4994723134424177
 40
0.4995080306057897
 40
0.4995248678380731
 40
0.4995367735591971
 40
0.5609248167913023
 40
0.6646213322227
 40
0.7325829604551723
 40
0.8111549986055951
 40
0.9002870388607779
 40
1.0
 40
1.0
 40
1.0
 40
1.0
 10
180.8417662018301
 20
451.5698890283145
 30
0.0
 10
180.8475356058746
 20
451.5680982444991
 30
0.0
 10
180.8590734169722
 20
451.5645169863275
 30
0.0
 10
180.9489145700028
 20
451.5426561609597
 30
0.0
 10
181.0563932223751
 20
451.5170073224295
 30
0.0
 10
181.1419322866685
 20
451.4965548950718
 30
0.0
 10
181.186046927858
 20
451.4860513277175
 30
0.0
 10
181.2082673212938
 20
451.4807157803406
 30
0.0
 10
181.2194058051091
 20
451.4780641908154
 30
0.0
 10
181.2249757199734
 20
451.47672811542
 30
0.0
 10
181.2277553905521
 20
451.4760494124415
 30
0.0
 10
181.229144597453
 20
451.4757098337402
 30
0.0
 10
181.2298435952435
 20
451.4755605665675
 30
0.0
 10
181.230190574607
 20
451.4754738083702
 30
0.0
 10
181.2303644154318
 20
451.4754271400582
 30
0.0
 10
181.2304492967535
 20
451.475391106702
 30
0.0
 10
181.2305049567126
 20
451.475413328034
 30
0.0
 10
181.2305192678118
 20
451.4753827777724
 30
0.0
 10
181.2580628750531
 20
451.4800468301178
 30
0.0
 10
181.3207115116785
 20
451.4460730503323
 30
0.0
 10
181.4141549866997
 20
451.4370422597996
 30
0.0
 10
181.4971713295765
 20
451.417531510622
 30
0.0
 10
181.5608430792759
 20
451.405286217895
 30
0.0
 10
181.611339421349
 20
451.3954487409478
 30
0.0
 10
181.6185638347327
 20
451.395014675905
 30
0.0
 10
181.622378432131
 20
451.3947854831256
 30
0.0
  0
ELLIPSE
  5
262
330
1F
100
AcDbEntity
  8
0
  6
Continuous
 62
     7
370
    15
100
AcDbEllipse
 10
181.4989057044
 20
452.6919686678
 30
0.0
 11
0.3906095144045594
 21
-0.08616383961157226
 31
0.0
210
0.0
220
0.0
230
1.0
 40
0.0142285888
 41
0.0
 42
6.283185307179586
  0
LINE
  5
263
330
1F
100
AcDbEntity
  8
0
  6
Continuous
 62
     7
370
    15
100
AcDbLine
 10
180.882729494
 20
441.2099908187
 30
0.0
 11
180.882729494
 21
449.8099873855
 31
0.0
  0
LINE
  5
264
330
1F
100
AcDbEntity
  8
0
  6
Continuous
 62
     7
370
    15
100
AcDbLine
 10
175.3684355849
 20
441.2099908187
 30
0.0
 11
175.3684355849
 21
449.8099873855
 31
0.0
  0
LINE
  5
265
330
1F
100
AcDbEntity
  8
0
  6
Continuous
 62
     7
370
    15
100
AcDbLine
 10
180.882729494
 20
449.8099873855
 30
0.0
 11
175.3684355849
 21
449.8099873855
 31
0.0
  0
LINE
  5
266
330
1F
100
AcDbEntity
  8
0
  6
Continuous
 62
     7
370
    15
100
AcDbLine
 10
180.882729494
 20
441.2099908187
 30
0.0
 11
175.3684355849
 21
441.2099908187
 31
0.0
  0
LINE
  5
267
330
1F
100
AcDbEntity
  8
0
  6
Continuous
 62
     7
370
    15
100
AcDbLine
 10
174.2541714543
 20
453.1099985435
 30
0.0
 11
149.4420691365
 21
453.1099985435
 31
0.0
  0
LINE
  5
268
330
1F
100
AcDbEntity
  8
0
  6
Continuous
 62
     7
370
    15
100
AcDbLine
 10
174.2541714543
 20
449.8099873855
 30
0.0
 11
174.2541714543
 21
453.1099985435
 31
0.0
  0
LINE
  5
269
330
1F
100
AcDbEntity
  8
0
  6
Continuous
 62
     7
370
    15
100
AcDbLine
 10
174.2541714543
 20
438.7099932029
 30
0.0
 11
174.2541714543
 21
441.2099908187
 31
0.0
  0
LINE
  5
26A
330
1F
100
AcDbEntity
  8
0
  6
Continuous
 62
     7
370
    15
100
AcDbLine
 10
149.4420691365
 20
438.7099932029
 30
0.0
 11
174.2541714543
 21
438.7099932029
 31
0.0
  0
LINE
  5
26B
330
1F
100
AcDbEntity
  8
0
  6
Continuous
 62
     7
370
    15
100
AcDbLine
 10
149.4420691365
 20
438.7099932029
 30
0.0
 11
149.4420691365
 21
453.1099985435
 31
0.0
  0
LINE
  5
26C
330
1F
100
AcDbEntity
  8
0
  6
Continuous
 62
     7
370
    15
100
AcDbLine
 10
174.2541714543
 20
449.8099873855
 30
0.0
 11
175.3684355849
 21
449.8099873855
 31
0.0
  0
LINE
  5
26D
330
1F
100
AcDbEntity
  8
0
  6
Continuous
 62
     7
370
    15
100
AcDbLine
 10
174.2541714543
 20
441.2099908187
 30
0.0
 11
175.3684355849
 21
441.2099908187
 31
0.0
  0
LINE
  5
26E
330
1F
100
AcDbEntity
  8
0
  6
Continuous
 62
     7
370
    15
100
AcDbLine
 10
176.2740238541
 20
453.9073447778
 30
0.0
 11
174.3817998999
 21
453.9073447778
 31
0.0
  0
ARC
  5
26F
330
1F
100
AcDbEntity
  8
0
  6
Continuous
 62
     7
370
    15
100
AcDbCircle
 10
175.7283795623
 20
453.2829148043
 30
0.0
 40
1.484314514888966
100
AcDbArc
 50
155.122110312
 51
186.6899023476
  0
ARC
  5
270
330
1F
100
AcDbEntity
  8
0
  6
Continuous
 62
     7
370
    15
100
AcDbCircle
 10
150.6979764222
 20
453.3039868256
 30
0.0
 40
1.270800756943127
100
AcDbArc
 50
151.5186397143
 51
188.7805542378
  0
LINE
  5
271
330
1F
100
AcDbEntity
  8
0
  6
Continuous
 62
     7
370
    15
100
AcDbLine
 10
149.5809777611
 20
453.9099971845
 30
0.0
 11
176.9467814797
 21
453.9099971845
 31
0.0
  0
LINE
  5
272
330
1F
100
AcDbEntity
  8
0
  6
Continuous
 62
     7
370
    15
100
AcDbLine
 10
176.9467814797
 20
453.9099971845
 30
0.0
 11
176.2740238541
 21
453.9073447778
 31
0.0
  0
LINE
  5
273
330
1F
100
AcDbEntity
  8
0
  6
Continuous
 62
     7
370
    15
100
AcDbLine
 10
174.3817998999
 20
437.9126469686
 30
0.0
 11
176.2740238541
 21
437.9126469686
 31
0.0
  0
LINE
  5
274
330
1F
100
AcDbEntity
  8
0
  6
Continuous
 62
     7
370
    15
100
AcDbLine
 10
176.2740238541
 20
437.9126469686
 30
0.0
 11
176.9467814797
 21
437.9099945619
 31
0.0
  0
LINE
  5
275
330
1F
100
AcDbEntity
  8
0
  6
Continuous
 62
     7
370
    15
100
AcDbLine
 10
176.9467814797
 20
437.9099945619
 30
0.0
 11
149.5809777611
 21
437.9099945619
 31
0.0
  0
ARC
  5
276
330
1F
100
AcDbEntity
  8
0
  6
Continuous
 62
     7
370
    15
100
AcDbCircle
 10
150.6979764222
 20
438.5160049208
 30
0.0
 40
1.270800756943127
100
AcDbArc
 50
171.2194457622
 51
208.4813602857
  0
ARC
  5
277
330
1F
100
AcDbEntity
  8
0
  6
Continuous
 62
     7
370
    15
100
AcDbCircle
 10
175.7283510199
 20
438.5370723734
 30
0.0
 40
1.484286699018945
100
AcDbArc
 50
173.3097941414
 51
204.8781931989
  0
LINE
  5
278
330
1F
100
AcDbEntity
  8
0
  6
Continuous
 62
     7
370
    15
100
AcDbLine
 10
174.3817998999
 20
453.1099985435
 30
0.0
 11
174.3817998999
 21
453.9073447778
 31
0.0
  0
LINE
  5
279
330
1F
100
AcDbEntity
  8
0
  6
Continuous
 62
     7
370
    15
100
AcDbLine
 10
174.3930949801
 20
453.1099985435
 30
0.0
 11
174.3930949801
 21
449.8099873855
 31
0.0
  0
LINE
  5
27A
330
1F
100
AcDbEntity
  8
0
  6
Continuous
 62
     7
370
    15
100
AcDbLine
 10
174.3817998999
 20
437.9126469686
 30
0.0
 11
174.3817998999
 21
438.7099932029
 31
0.0
  0
LINE
  5
27B
330
1F
100
AcDbEntity
  8
0
  6
Continuous
 62
     7
370
    15
100
AcDbLine
 10
174.3930949801
 20
441.2099908187
 30
0.0
 11
174.3930949801
 21
438.7099932029
 31
0.0
  0
LINE
  5
27C
330
1F
100
AcDbEntity
  8
0
  6
Continuous
 62
     7
370
    15
100
AcDbLine
 10
176.2740238541
 20
453.1099985435
 30
0.0
 11
176.2740238541
 21
453.9073447778
 31
0.0
  0
LINE
  5
27D
330
1F
100
AcDbEntity
  8
0
  6
Continuous
 62
     7
370
    15
100
AcDbLine
 10
180.3817971581
 20
453.9099971845
 30
0.0
 11
176.9467814797
 21
453.9099971845
 31
0.0
  0
LINE
  5
27E
330
1F
100
AcDbEntity
  8
0
  6
Continuous
 62
     7
370
    15
100
AcDbLine
 10
180.3817971581
 20
453.1099985435
 30
0.0
 11
176.2740238541
 21
453.1099985435
 31
0.0
  0
LINE
  5
27F
330
1F
100
AcDbEntity
  8
0
  6
Continuous
 62
     7
370
    15
100
AcDbLine
 10
180.3817971581
 20
437.9099945619
 30
0.0
 11
176.9467814797
 21
437.9099945619
 31
0.0
  0
LINE
  5
280
330
1F
100
AcDbEntity
  8
0
  6
Continuous
 62
     7
370
    15
100
AcDbLine
 10
176.2740238541
 20
437.9126469686
 30
0.0
 11
176.2740238541
 21
438.7099932029
 31
0.0
  0
LINE
  5
281
330
1F
100
AcDbEntity
  8
0
  6
Continuous
 62
     7
370
    15
100
AcDbLine
 10
180.3817971581
 20
438.7099932029
 30
0.0
 11
176.2740238541
 21
438.7099932029
 31
0.0
  0
LINE
  5
282
330
1F
100
AcDbEntity
  8
0
  6
Continuous
 62
     7
370
    15
100
AcDbLine
 10
174.3817998999
 20
438.7099932029
 30
0.0
 11
176.2740238541
 21
438.7099932029
 31
0.0
  0
LINE
  5
283
330
1F
100
AcDbEntity
  8
0
  6
Continuous
 62
     7
370
    15
100
AcDbLine
 10
174.3817998999
 20
453.1099985435
 30
0.0
 11
176.2740238541
 21
453.1099985435
 31
0.0
  0
LINE
  5
284
330
1F
100
AcDbEntity
  8
0
  6
Continuous
 62
     7
370
    15
100
AcDbLine
 10
175.4517926806
 20
454.2099873617
 30
0.0
 11
179.8517926568
 21
454.2099873617
 31
0.0
  0
LINE
  5
285
330
1F
100
AcDbEntity
  8
0
  6
Continuous
 62
     7
370
    15
100
AcDbLine
 10
175.5517943734
 20
437.5099877908
 30
0.0
 11
179.751790964
 21
437.5099877908
 31
0.0
  0
LINE
  5
286
330
1F
100
AcDbEntity
  8
0
  6
Continuous
 62
     7
370
    15
100
AcDbLine
 10
175.5517943734
 20
437.1099959209
 30
0.0
 11
179.751790964
 21
437.1099959209
 31
0.0
  0
ARC
  5
287
330
1F
100
AcDbEntity
  8
0
  6
Continuous
 62
     7
370
    15
100
AcDbCircle
 10
157.8477135765
 20
445.9099958732
 30
0.0
 40
16.90401408232907
100
AcDbArc
 50
154.7901718738
 51
205.2098281262
  0
SPLINE
  5
288
330
1F
100
AcDbEntity
  8
0
  6
Continuous
 62
     7
370
    15
100
AcDbSpline
210
0.0
220
0.0
230
1.0
 70
     8
 71
     3
 72
    12
 73
     8
 74
     0
 42
0.00000001
 43
0.00000001
 40
0.0
 40
0.0
 40
0.0
 40
0.0
 40
0.181883395813801
 40
0.363345223030703
 40
0.5550762443184742
 40
0.7712683290148971
 40
1.0
 40
1.0
 40
1.0
 40
1.0
 10
142.6861136191847
 20
437.9099945619143
 30
0.0
 10
142.7099738036471
 20
437.9173166182804
 30
0.0
 10
142.7576388695331
 20
437.9319437599796
 30
0.0
 10
142.7723881110885
 20
438.0439431303049
 30
0.0
 10
142.7451516647467
 20
438.2133216920948
 30
0.0
 10
142.6734809894335
 20
438.4417431568832
 30
0.0
 10
142.5943960668613
 20
438.6189120970025
 30
0.0
 10
142.5537391537191
 20
438.7099932029284
 30
0.0
  0
LINE
  5
289
330
1F
100
AcDbEntity
  8
0
  6
Continuous
 62
     7
370
    15
100
AcDbLine
 10
142.3017530674
 20
438.6644999578
 30
0.0
 11
142.6561995381
 21
437.9099945619
 31
0.0
  0
ARC
  5
28A
330
1F
100
AcDbEntity
  8
0
  6
Continuous
 62
     7
370
    15
100
AcDbCircle
 10
157.5723817604
 20
445.9099958732
 30
0.0
 40
16.90234633834259
100
AcDbArc
 50
154.616938827
 51
205.383061173
  0
LINE
  5
28B
330
1F
100
AcDbEntity
  8
0
  6
Continuous
 62
     7
370
    15
100
AcDbLine
 10
142.6561995381
 20
453.9099971845
 30
0.0
 11
142.3017530674
 21
453.1554917886
 31
0.0
  0
SPLINE
  5
28C
330
1F
100
AcDbEntity
  8
0
  6
Continuous
 62
     7
370
    15
100
AcDbSpline
210
0.0
220
0.0
230
1.0
 70
     8
 71
     3
 72
    12
 73
     8
 74
     0
 42
0.00000001
 43
0.00000001
 40
0.0
 40
0.0
 40
0.0
 40
0.0
 40
0.2510129476244693
 40
0.5023997049789553
 40
0.7402755902731164
 40
0.9473068909495996
 40
0.9999999999999999
 40
0.9999999999999999
 40
0.9999999999999999
 40
0.9999999999999999
 10
142.5537391537191
 20
453.1099985435046
 30
0.0
 10
142.5980574194374
 20
453.2098778950702
 30
0.0
 10
142.6867599498557
 20
453.4097853390282
 30
0.0
 10
142.7617453059101
 20
453.6685138120365
 30
0.0
 10
142.7732421614249
 20
453.8457425538733
 30
0.0
 10
142.7315956437916
 20
453.9061796075081
 30
0.0
 10
142.6937847296007
 20
453.9093533025671
 30
0.0
 10
142.6861136191847
 20
453.9099971845187
 30
0.0
  0
LINE
  5
28D
330
1F
100
AcDbEntity
  8
0
  6
Continuous
 62
     7
370
    15
100
AcDbLine
 10
142.6861136192
 20
453.9099971845
 30
0.0
 11
142.6561995381
 21
453.9099971845
 31
0.0
  0
LINE
  5
28E
330
1F
100
AcDbEntity
  8
0
  6
Continuous
 62
     7
370
    15
100
AcDbLine
 10
142.6861136192
 20
437.9099945619
 30
0.0
 11
142.6561995381
 21
437.9099945619
 31
0.0
  0
LINE
  5
28F
330
1F
100
AcDbEntity
  8
0
  6
Continuous
 62
     7
370
    15
100
AcDbLine
 10
144.5432155365
 20
453.1099985435
 30
0.0
 11
142.5537391537
 21
453.1099985435
 31
0.0
  0
LINE
  5
290
330
1F
100
AcDbEntity
  8
0
  6
Continuous
 62
     7
370
    15
100
AcDbLine
 10
144.5432155365
 20
438.7099932029
 30
0.0
 11
144.5432155365
 21
453.1099985435
 31
0.0
  0
LINE
  5
291
330
1F
100
AcDbEntity
  8
0
  6
Continuous
 62
     7
370
    15
100
AcDbLine
 10
142.5537391537
 20
438.7099932029
 30
0.0
 11
144.5432155365
 21
438.7099932029
 31
0.0
  0
LWPOLYLINE
  5
292
330
1F
100
AcDbEntity
  8
0
  6
Continuous
 62
     7
370
    15
100
AcDbPolyline
 90
        9
 70
   128
 43
0.0
 10
144.5432155365
 20
453.1099985435
 10
144.5379554266
 20
453.2660584047
 10
144.5223911637
 20
453.4161429002
 10
144.4971038931
 20
453.5544554784
 10
144.4630770916
 20
453.6756764247
 10
144.4216146105
 20
453.775171478
 10
144.3743108743
 20
453.8490961387
 10
144.322976374
 20
453.8946191862
 10
144.2696004146
 20
453.9099971845
  0
LINE
  5
293
330
1F
100
AcDbEntity
  8
0
  6
Continuous
 62
     7
370
    15
100
AcDbLine
 10
142.6861136192
 20
453.9099971845
 30
0.0
 11
144.2696004146
 21
453.9099971845
 31
0.0
  0
LWPOLYLINE
  5
294
330
1F
100
AcDbEntity
  8
0
  6
Continuous
 62
     7
370
    15
100
AcDbPolyline
 90
        9
 70
   128
 43
0.0
 10
144.5432155365
 20
438.7099932029
 10
144.5379554266
 20
438.5539184406
 10
144.5223911637
 20
438.4038488462
 10
144.4971038931
 20
438.265536268
 10
144.4630770916
 20
438.1443153217
 10
144.4216146105
 20
438.0448202684
 10
144.3743108743
 20
437.9708956077
 10
144.322976374
 20
437.9253725603
 10
144.2696004146
 20
437.9099945619
  0
LINE
  5
295
330
1F
100
AcDbEntity
  8
0
  6
Continuous
 62
     7
370
    15
100
AcDbLine
 10
144.2696004146
 20
437.9099945619
 30
0.0
 11
142.6861136192
 21
437.9099945619
 31
0.0
  0
LINE
  5
296
330
1F
100
AcDbEntity
  8
0
  6
Continuous
 62
     7
370
    15
100
AcDbLine
 10
144.5432155365
 20
438.7099932029
 30
0.0
 11
149.4420691365
 21
438.7099932029
 31
0.0
  0
LINE
  5
297
330
1F
100
AcDbEntity
  8
0
  6
Continuous
 62
     7
370
    15
100
AcDbLine
 10
149.5809777611
 20
437.9099945619
 30
0.0
 11
144.2696004146
 21
437.9099945619
 31
0.0
  0
LINE
  5
298
330
1F
100
AcDbEntity
  8
0
  6
Continuous
 62
     7
370
    15
100
AcDbLine
 10
149.4420691365
 20
453.1099985435
 30
0.0
 11
144.5432155365
 21
453.1099985435
 31
0.0
  0
LINE
  5
299
330
1F
100
AcDbEntity
  8
0
  6
Continuous
 62
     7
370
    15
100
AcDbLine
 10
144.2696004146
 20
453.9099971845
 30
0.0
 11
149.5809777611
 21
453.9099971845
 31
0.0
  0
LINE
  5
29A
330
1F
100
AcDbEntity
  8
0
  6
Continuous
 62
     7
370
    15
100
AcDbLine
 10
180.6718035573
 20
452.6599983766
 30
0.0
 11
180.6718035573
 21
451.6599963501
 31
0.0
  0
LINE
  5
29B
330
1F
100
AcDbEntity
  8
0
  6
Continuous
 62
     7
370
    15
100
AcDbLine
 10
180.6718035573
 20
451.6599963501
 30
0.0
 11
174.4718029135
 21
451.6599963501
 31
0.0
  0
LINE
  5
29C
330
1F
100
AcDbEntity
  8
0
  6
Continuous
 62
     7
370
    15
100
AcDbLine
 10
174.4718029135
 20
452.6599983766
 30
0.0
 11
174.4718029135
 21
451.6599963501
 31
0.0
  0
LINE
  5
29D
330
1F
100
AcDbEntity
  8
0
  6
Continuous
 62
     7
370
    15
100
AcDbLine
 10
180.6718035573
 20
452.6599983766
 30
0.0
 11
174.4718029135
 21
452.6599983766
 31
0.0
  0
LINE
  5
29E
330
1F
100
AcDbEntity
  8
0
  6
Continuous
 62
     7
370
    15
100
AcDbLine
 10
180.6718035573
 20
82.6599936082
 30
0.0
 11
180.6718035573
 21
81.6599915817
 31
0.0
  0
LINE
  5
29F
330
1F
100
AcDbEntity
  8
0
  6
Continuous
 62
     7
370
    15
100
AcDbLine
 10
180.6718035573
 20
81.6599915817
 30
0.0
 11
174.4718029135
 21
81.6599915817
 31
0.0
  0
LINE
  5
2A0
330
1F
100
AcDbEntity
  8
0
  6
Continuous
 62
     7
370
    15
100
AcDbLine
 10
174.4718029135
 20
82.6599936082
 30
0.0
 11
174.4718029135
 21
81.6599915817
 31
0.0
  0
LINE
  5
2A1
330
1F
100
AcDbEntity
  8
0
  6
Continuous
 62
     7
370
    15
100
AcDbLine
 10
180.6718035573
 20
82.6599936082
 30
0.0
 11
174.4718029135
 21
82.6599936082
 31
0.0
  0
LINE
  5
2A2
330
1F
100
AcDbEntity
  8
0
  6
Continuous
 62
     7
370
    15
100
AcDbLine
 10
180.6718035573
 20
440.1599953964
 30
0.0
 11
180.6718035573
 21
439.1599933698
 31
0.0
  0
LINE
  5
2A3
330
1F
100
AcDbEntity
  8
0
  6
Continuous
 62
     7
370
    15
100
AcDbLine
 10
174.4718029135
 20
440.1599953964
 30
0.0
 11
174.4718029135
 21
439.1599933698
 31
0.0
  0
LINE
  5
2A4
330
1F
100
AcDbEntity
  8
0
  6
Continuous
 62
     7
370
    15
100
AcDbLine
 10
180.6718035573
 20
440.1599953964
 30
0.0
 11
174.4718029135
 21
440.1599953964
 31
0.0
  0
LINE
  5
2A5
330
1F
100
AcDbEntity
  8
0
  6
Continuous
 62
     7
370
    15
100
AcDbLine
 10
180.6718035573
 20
439.1599933698
 30
0.0
 11
174.4718029135
 21
439.1599933698
 31
0.0
  0
LINE
  5
2A6
330
1F
100
AcDbEntity
  8
0
  6
Continuous
 62
     7
370
    15
100
AcDbLine
 10
180.6718035573
 20
70.159990628
 30
0.0
 11
180.6718035573
 21
69.1599886014
 31
0.0
  0
LINE
  5
2A7
330
1F
100
AcDbEntity
  8
0
  6
Continuous
 62
     7
370
    15
100
AcDbLine
 10
174.4718029135
 20
70.159990628
 30
0.0
 11
174.4718029135
 21
69.1599886014
 31
0.0
  0
LINE
  5
2A8
330
1F
100
AcDbEntity
  8
0
  6
Continuous
 62
     7
370
    15
100
AcDbLine
 10
180.6718035573
 20
70.159990628
 30
0.0
 11
174.4718029135
 21
70.159990628
 31
0.0
  0
LINE
  5
2A9
330
1F
100
AcDbEntity
  8
0
  6
Continuous
 62
     7
370
    15
100
AcDbLine
 10
180.6718035573
 20
69.1599886014
 30
0.0
 11
174.4718029135
 21
69.1599886014
 31
0.0
  0
LWPOLYLINE
  5
2AA
330
1F
100
AcDbEntity
  8
0
  6
Continuous
 62
     7
370
    15
100
AcDbPolyline
 90
        3
 70
   128
 43
0.0
 10
174.3930949801
 20
439.5488540723
 10
174.395672881
 20
439.5426700904
 10
174.4718029135
 20
439.1599933698
  0
LWPOLYLINE
  5
2AB
330
1F
100
AcDbEntity
  8
0
  6
Continuous
 62
     7
370
    15
100
AcDbPolyline
 90
        3
 70
   128
 43
0.0
 10
174.4718029135
 20
452.6599983766
 10
174.395672881
 20
452.2773067548
 10
174.3930949801
 20
452.2711376741
  0
LINE
  5
2AC
330
1F
100
AcDbEntity
  8
0
  6
Continuous
 62
     7
370
    15
100
AcDbLine
 10
180.6718035573
 20
451.6599963501
 30
0.0
 11
180.6718035573
 21
451.5099863603
 31
0.0
  0
LINE
  5
2AD
330
1F
100
AcDbEntity
  8
0
  6
Continuous
 62
     7
370
    15
100
AcDbLine
 10
180.6718035573
 20
450.7099877193
 30
0.0
 11
180.6718035573
 21
449.8099873855
 31
0.0
  0
LINE
  5
2AE
330
1F
100
AcDbEntity
  8
0
  6
Continuous
 62
     7
370
    15
100
AcDbLine
 10
180.6718035573
 20
441.2099908187
 30
0.0
 11
180.6718035573
 21
440.1599953964
 31
0.0
  0
LWPOLYLINE
  5
2AF
330
1F
100
AcDbEntity
  8
0
  6
Continuous
 62
     7
370
    15
100
AcDbPolyline
 90
        3
 70
   128
 43
0.0
 10
174.3930949801
 20
69.548849304
 10
174.395672881
 20
69.5426802232
 10
174.4718029135
 20
69.1599886014
  0
LWPOLYLINE
  5
2B0
330
1F
100
AcDbEntity
  8
0
  6
Continuous
 62
     7
370
    15
100
AcDbPolyline
 90
        3
 70
   128
 43
0.0
 10
174.4718029135
 20
82.6599936082
 10
174.395672881
 20
82.2773168876
 10
174.3930949801
 20
82.2711329057
  0
LINE
  5
2B1
330
1F
100
AcDbEntity
  8
0
  6
Continuous
 62
     7
370
    15
100
AcDbLine
 10
180.6718035573
 20
81.6599915817
 30
0.0
 11
180.6718035573
 21
81.5099964931
 31
0.0
  0
LINE
  5
2B2
330
1F
100
AcDbEntity
  8
0
  6
Continuous
 62
     7
370
    15
100
AcDbLine
 10
180.6718035573
 20
80.7099978521
 30
0.0
 11
180.6718035573
 21
79.8099975183
 31
0.0
  0
LINE
  5
2B3
330
1F
100
AcDbEntity
  8
0
  6
Continuous
 62
     7
370
    15
100
AcDbLine
 10
180.6718035573
 20
71.2099860504
 30
0.0
 11
180.6718035573
 21
70.159990628
 31
0.0
  0
LINE
  5
2B4
330
1F
100
AcDbEntity
  8
0
  6
Continuous
 62
     7
370
    15
100
AcDbLine
 10
193.6718001002
 20
510.909993489
 30
0.0
 11
32.6717969933
 21
510.909993489
 31
0.0
  0
LINE
  5
2B5
330
1F
100
AcDbEntity
  8
0
  6
Continuous
 62
     7
370
    15
100
AcDbLine
 10
193.6718001002
 20
510.909993489
 30
0.0
 11
193.6718001002
 21
495.909992893
 31
0.0
  0
LINE
  5
2B6
330
1F
100
AcDbEntity
  8
0
  6
Continuous
 62
     7
370
    15
100
AcDbLine
 10
193.6718001002
 20
495.909992893
 30
0.0
 11
32.6717969933
 21
495.909992893
 31
0.0
  0
LINE
  5
2B7
330
1F
100
AcDbEntity
  8
0
  6
Continuous
 62
     7
370
    15
100
AcDbLine
 10
32.6717969933
 20
510.909993489
 30
0.0
 11
32.6717969933
 21
495.909992893
 31
0.0
  0
LINE
  5
2B8
330
1F
100
AcDbEntity
  8
0
  6
Continuous
 62
     7
370
    15
100
AcDbLine
 10
17.6717973286
 20
495.909992893
 30
0.0
 11
32.6717969933
 21
495.909992893
 31
0.0
  0
LINE
  5
2B9
330
1F
100
AcDbEntity
  8
0
  6
Continuous
 62
     7
370
    15
100
AcDbLine
 10
32.6717969933
 20
495.909992893
 30
0.0
 11
32.6717969933
 21
25.9099940851
 31
0.0
  0
LINE
  5
2BA
330
1F
100
AcDbEntity
  8
0
  6
Continuous
 62
     7
370
    15
100
AcDbLine
 10
32.6717969933
 20
25.9099940851
 30
0.0
 11
17.6717973286
 21
25.9099940851
 31
0.0
  0
LINE
  5
2BB
330
1F
100
AcDbEntity
  8
0
  6
Continuous
 62
     7
370
    15
100
AcDbLine
 10
17.6717973286
 20
495.909992893
 30
0.0
 11
17.6717973286
 21
25.9099940851
 31
0.0
  0
LINE
  5
2BC
330
1F
100
AcDbEntity
  8
0
  6
Continuous
 62
     7
370
    15
100
AcDbLine
 10
32.6717969933
 20
25.9099940851
 30
0.0
 11
32.6717969933
 21
10.909993489
 31
0.0
  0
ARC
  5
2BD
330
1F
100
AcDbEntity
  8
0
  6
Continuous
 62
     7
370
    15
100
AcDbCircle
 10
32.6717973107
 20
25.909993489
 30
0.0
 40
15.00000000000001
100
AcDbArc
 50
180.0
 51
270.0
  0
LINE
  5
2BE
330
1F
100
AcDbEntity
  8
0
  6
Continuous
 62
     7
370
    15
100
AcDbLine
 10
193.6718001002
 20
25.9099940851
 30
0.0
 11
32.6717969933
 21
25.9099940851
 31
0.0
  0
LINE
  5
2BF
330
1F
100
AcDbEntity
  8
0
  6
Continuous
 62
     7
370
    15
100
AcDbLine
 10
193.6718001002
 20
25.9099940851
 30
0.0
 11
193.6718001002
 21
10.909993489
 31
0.0
  0
LINE
  5
2C0
330
1F
100
AcDbEntity
  8
0
  6
Continuous
 62
     7
370
    15
100
AcDbLine
 10
193.6718001002
 20
10.909993489
 30
0.0
 11
32.6717969933
 21
10.909993489
 31
0.0
  0
ARC
  5
2C1
330
1F
100
AcDbEntity
  8
0
  6
Continuous
 62
     7
370
    15
100
AcDbCircle
 10
32.6717973107
 20
495.909993489
 30
0.0
 40
15.0
100
AcDbArc
 50
90.0
 51
180.0
  0
LINE
  5
2C2
330
1F
100
AcDbEntity
  8
0
  6
Continuous
 62
     7
370
    15
100
AcDbLine
 10
173.6718042725
 20
30.9099893167
 30
0.0
 11
173.6718042725
 21
63.0974511697
 31
0.0
  0
LINE
  5
2C3
330
1F
100
AcDbEntity
  8
0
  6
Continuous
 62
     7
370
    15
100
AcDbLine
 10
173.6718042725
 20
66.4372335269
 30
0.0
 11
173.6718042725
 21
67.9099897935
 31
0.0
  0
LINE
  5
2C4
330
1F
100
AcDbEntity
  8
0
  6
Continuous
 62
     7
370
    15
100
AcDbLine
 10
173.6718042725
 20
83.9099924161
 30
0.0
 11
173.6718042725
 21
85.3693972423
 31
0.0
  0
LINE
  5
2C5
330
1F
100
AcDbEntity
  8
0
  6
Continuous
 62
     7
370
    15
100
AcDbLine
 10
173.6718042725
 20
88.7121151283
 30
0.0
 11
173.6718042725
 21
433.0974410369
 31
0.0
  0
LINE
  5
2C6
330
1F
100
AcDbEntity
  8
0
  6
Continuous
 62
     7
370
    15
100
AcDbLine
 10
173.6718042725
 20
436.4372382953
 30
0.0
 11
173.6718042725
 21
437.9099945619
 31
0.0
  0
LINE
  5
2C7
330
1F
100
AcDbEntity
  8
0
  6
Continuous
 62
     7
370
    15
100
AcDbLine
 10
173.6718042725
 20
453.9099971845
 30
0.0
 11
173.6718042725
 21
455.3694020107
 31
0.0
  0
LINE
  5
2C8
330
1F
100
AcDbEntity
  8
0
  6
Continuous
 62
     7
370
    15
100
AcDbLine
 10
173.6718042725
 20
458.7121049955
 30
0.0
 11
173.6718042725
 21
490.9099976614
 31
0.0
  0
LINE
  5
2C9
330
1F
100
AcDbEntity
  8
0
  6
Continuous
 62
     7
370
    15
100
AcDbLine
 10
173.6718042725
 20
490.9099976614
 30
0.0
 11
37.6717968815
 21
490.9099976614
 31
0.0
  0
LINE
  5
2CA
330
1F
100
AcDbEntity
  8
0
  6
Continuous
 62
     7
370
    15
100
AcDbLine
 10
37.6717968815
 20
490.9099976614
 30
0.0
 11
37.6717968815
 21
30.9099893167
 31
0.0
  0
LINE
  5
2CB
330
1F
100
AcDbEntity
  8
0
  6
Continuous
 62
     7
370
    15
100
AcDbLine
 10
173.6718042725
 20
30.9099893167
 30
0.0
 11
37.6717968815
 21
30.9099893167
 31
0.0
  0
LINE
  5
2CC
330
1F
100
AcDbEntity
  8
0
  6
Continuous
 62
     7
370
    15
100
AcDbLine
 10
193.6718001002
 20
495.909992893
 30
0.0
 11
193.6718001002
 21
454.8859189346
 31
0.0
  0
LINE
  5
2CD
330
1F
100
AcDbEntity
  8
0
  6
Continuous
 62
     7
370
    15
100
AcDbLine
 10
193.6718001002
 20
436.9020800188
 30
0.0
 11
193.6718001002
 21
84.8859290674
 31
0.0
  0
LINE
  5
2CE
330
1F
100
AcDbEntity
  8
0
  6
Continuous
 62
     7
370
    15
100
AcDbLine
 10
193.6718001002
 20
66.9020901516
 30
0.0
 11
193.6718001002
 21
25.9099940851
 31
0.0
  0
LINE
  5
2CF
330
1F
100
AcDbEntity
  8
0
  6
Continuous
 62
     7
370
    15
100
AcDbLine
 10
197.6717933053
 20
490.9099976614
 30
0.0
 11
193.6718001002
 21
490.9099976614
 31
0.0
  0
LINE
  5
2D0
330
1F
100
AcDbEntity
  8
0
  6
Continuous
 62
     7
370
    15
100
AcDbLine
 10
197.6717933053
 20
30.9099893167
 30
0.0
 11
193.6718001002
 21
30.9099893167
 31
0.0
  0
LINE
  5
2D1
330
1F
100
AcDbEntity
  8
0
  6
Continuous
 62
     7
370
    15
100
AcDbLine
 10
197.6717933053
 20
505.9099982574
 30
0.0
 11
193.6718001002
 21
505.9099982574
 31
0.0
  0
LINE
  5
2D2
330
1F
100
AcDbEntity
  8
0
  6
Continuous
 62
     7
370
    15
100
AcDbLine
 10
197.6717933053
 20
15.9099887207
 30
0.0
 11
193.6718001002
 21
15.9099887207
 31
0.0
  0
LINE
  5
2D3
330
1F
100
AcDbEntity
  8
0
  6
Continuous
 62
     7
370
    15
100
AcDbLine
 10
309.1560362582
 20
583.2454628785
 30
0.0
 11
310.3560267692
 21
583.2454628785
 31
0.0
  0
LINE
  5
2D4
330
1F
100
AcDbEntity
  8
0
  6
Continuous
 62
     7
370
    15
100
AcDbLine
 10
309.0560196643
 20
585.7454753955
 30
0.0
 11
309.1560362582
 21
585.7454753955
 31
0.0
  0
LINE
  5
2D5
330
1F
100
AcDbEntity
  8
0
  6
Continuous
 62
     7
370
    15
100
AcDbLine
 10
309.1560362582
 20
591.7454726537
 30
0.0
 11
309.0560196643
 21
591.7454726537
 31
0.0
  0
SPLINE
  5
2D6
330
1F
100
AcDbEntity
  8
0
  6
Continuous
 62
     7
370
    15
100
AcDbSpline
210
0.0
220
0.0
230
1.0
 70
     8
 71
     3
 72
    15
 73
    11
 74
     0
 42
0.00000001
 43
0.00000001
 40
0.0
 40
0.0
 40
0.0
 40
0.0
 40
0.1250748673882798
 40
0.2501519055570974
 40
0.3752910592495298
 40
0.500304946123803
 40
0.6252883548907603
 40
0.7502627243887875
 40
0.8750788126704855
 40
1.0
 40
1.0
 40
1.0
 40
1.0
 10
307.97047007132
 20
613.8033039410835
 30
0.0
 10
307.944336956319
 20
614.0620650909742
 30
0.0
 10
307.8920702727546
 20
614.5795918817751
 30
0.0
 10
307.8132359449385
 20
615.3607075188571
 30
0.0
 10
307.7387900014887
 20
616.0978842234485
 30
0.0
 10
307.6718147004612
 20
616.7614591211453
 30
0.0
 10
307.6156647615706
 20
617.3172145164036
 30
0.0
 10
307.5731874790648
 20
617.7383262861034
 30
0.0
 10
307.5443254340792
 20
618.0239166485145
 30
0.0
 10
307.5399757247984
 20
618.0669598249257
 30
0.0
 10
307.5377999548954
 20
618.0884904702431
 30
0.0
  0
SPLINE
  5
2D7
330
1F
100
AcDbEntity
  8
0
  6
Continuous
 62
     7
370
    15
100
AcDbSpline
210
0.0
220
0.0
230
1.0
 70
     8
 71
     3
 72
    15
 73
    11
 74
     0
 42
0.00000001
 43
0.00000001
 40
0.0
 40
0.0
 40
0.0
 40
0.0
 40
0.1249401891380301
 40
0.2497680126741208
 40
0.3747500256040471
 40
0.499735923267933
 40
0.6247476940874572
 40
0.7498806685567656
 40
0.8749438504358719
 40
1.0
 40
1.0
 40
1.0
 40
1.0
 10
304.553574204926
 20
617.7871144850975
 30
0.0
 10
304.5557509866833
 20
617.7655336290869
 30
0.0
 10
304.5601025924982
 20
617.7223913259197
 30
0.0
 10
304.5889473886239
 20
617.436680678554
 30
0.0
 10
304.6314896627422
 20
617.0154951924751
 30
0.0
 10
304.6875736216303
 20
616.4597281643778
 30
0.0
 10
304.7545681220844
 20
615.7961929372393
 30
0.0
 10
304.8290023533279
 20
615.0591466016862
 30
0.0
 10
304.9078591979393
 20
614.2782353395187
 30
0.0
 10
304.96007669983
 20
613.7608809832226
 30
0.0
 10
304.9861847167057
 20
613.5022110780006
 30
0.0
  0
LINE
  5
2D8
330
1F
100
AcDbEntity
  8
0
  6
Continuous
 62
     7
370
    15
100
AcDbLine
 10
304.9859164958
 20
613.5020769675
 30
0.0
 11
306.5549789672
 21
597.9611046155
 31
0.0
  0
LINE
  5
2D9
330
1F
100
AcDbEntity
  8
0
  6
Continuous
 62
     7
370
    15
100
AcDbLine
 10
309.5398305659
 20
598.2624656995
 30
0.0
 11
307.9707382922
 21
613.8034380515
 31
0.0
  0
SPLINE
  5
2DA
330
1F
100
AcDbEntity
  8
0
  6
Continuous
 62
     7
370
    15
100
AcDbSpline
210
0.0
220
0.0
230
1.0
 70
     8
 71
     3
 72
     9
 73
     5
 74
     0
 42
0.00000001
 43
0.00000001
 40
0.0
 40
0.0
 40
0.0
 40
0.0
 40
0.4837469607972931
 40
1.0
 40
1.0
 40
1.0
 40
1.0
 10
306.7250608210606
 20
596.2797320922142
 30
0.0
 10
306.734527421337
 20
596.2155001275117
 30
0.0
 10
306.7540967438208
 20
596.0827200381102
 30
0.0
 10
306.7879374927396
 20
596.0465765531549
 30
0.0
 10
306.8054078822178
 20
596.0279173691994
 30
0.0
  0
SPLINE
  5
2DB
330
1F
100
AcDbEntity
  8
0
  6
Continuous
 62
     7
370
    15
100
AcDbSpline
210
0.0
220
0.0
230
1.0
 70
     8
 71
     3
 72
    11
 73
     7
 74
     0
 42
0.00000001
 43
0.00000001
 40
0.0
 40
0.0
 40
0.0
 40
0.0
 40
0.2484447156712717
 40
0.4978878237666461
 40
0.7483875926685355
 40
1.0
 40
1.0
 40
1.0
 40
1.0
 10
306.5552769904179
 20
597.9612685282951
 30
0.0
 10
306.5732912396526
 20
597.7827910103297
 30
0.0
 10
306.6093921296395
 20
597.4251187500407
 30
0.0
 10
306.6563927549626
 20
596.9602894739604
 30
0.0
 10
306.6951959839095
 20
596.577403600194
 30
0.0
 10
306.7102270601525
 20
596.4301160987036
 30
0.0
 10
306.7177592520756
 20
596.3563091595894
 30
0.0
  0
SPLINE
  5
2DC
330
1F
100
AcDbEntity
  8
0
  6
Continuous
 62
     7
370
    15
100
AcDbSpline
210
0.0
220
0.0
230
1.0
 70
     8
 71
     3
 72
    19
 73
    15
 74
     0
 42
0.00000001
 43
0.00000001
 40
0.0
 40
0.0
 40
0.0
 40
0.0
 40
0.0802800643913771
 40
0.1534411229989268
 40
0.219341825464344
 40
0.2779525079209502
 40
0.3728468181892265
 40
0.4421527681476329
 40
0.5315392819799751
 40
0.6554829298932067
 40
0.73035581932144
 40
0.8130797229988811
 40
0.9031426952492884
 40
1.0
 40
1.0
 40
1.0
 40
1.0
 10
306.7407070403141
 20
596.1970902522331
 30
0.0
 10
306.776067334061
 20
596.0742160385014
 30
0.0
 10
306.8436522721552
 20
595.8393637437814
 30
0.0
 10
307.0408823381176
 20
595.5449541193866
 30
0.0
 10
307.2657267674346
 20
595.3208092151108
 30
0.0
 10
307.5614135858171
 20
595.1277891699986
 30
0.0
 10
307.9033547909903
 20
595.0098797456529
 30
0.0
 10
308.313107226794
 20
594.9800779177795
 30
0.0
 10
308.7521928913294
 20
595.0823803987546
 30
0.0
 10
309.1387264633055
 20
595.3336197733398
 30
0.0
 10
309.4315691904749
 20
595.6743288400332
 30
0.0
 10
309.6123282734962
 20
596.0298032220429
 30
0.0
 10
309.7182559483682
 20
596.456740488475
 30
0.0
 10
309.6859843622474
 20
596.7518061947815
 30
0.0
 10
309.6692620520633
 20
596.9047016938453
 30
0.0
  0
SPLINE
  5
2DD
330
1F
100
AcDbEntity
  8
0
  6
Continuous
 62
     7
370
    15
100
AcDbSpline
210
0.0
220
0.0
230
1.0
 70
     8
 71
     3
 72
    11
 73
     7
 74
     0
 42
0.00000001
 43
0.00000001
 40
0.0
 40
0.0
 40
0.0
 40
0.0
 40
0.2477428091515151
 40
0.4969458216750655
 40
0.7476781578913081
 40
1.0
 40
1.0
 40
1.0
 40
1.0
 10
309.6930443053288
 20
596.737018926931
 30
0.0
 10
309.6866001309886
 20
596.8016442361273
 30
0.0
 10
309.6736738001558
 20
596.9312757579852
 30
0.0
 10
309.6377522037153
 20
597.2891552714619
 30
0.0
 10
309.5927364555605
 20
597.7354842891339
 30
0.0
 10
309.5573044985766
 20
598.086346281566
 30
0.0
 10
309.5395325427098
 20
598.2623315890556
 30
0.0
  0
LINE
  5
2DE
330
1F
100
AcDbEntity
  8
0
  6
Continuous
 62
     7
370
    15
100
AcDbLine
 10
309.8233400588
 20
607.9171366533
 30
0.0
 11
309.8233400588
 21
608.2169629176
 31
0.0
  0
LINE
  5
2DF
330
1F
100
AcDbEntity
  8
0
  6
Continuous
 62
     7
370
    15
100
AcDbLine
 10
309.0233265166
 20
608.2169629176
 30
0.0
 11
309.0233265166
 21
607.9195804437
 31
0.0
  0
SPLINE
  5
2E0
330
1F
100
AcDbEntity
  8
0
  6
Continuous
 62
     7
370
    15
100
AcDbSpline
210
0.0
220
0.0
230
1.0
 70
    24
 71
     3
 72
    11
 73
     7
 74
     0
 42
0.00000001
 43
0.00000001
 40
0.0
 40
0.0
 40
0.0
 40
0.0
 40
0.0207852832108836
 40
0.34656035810907
 40
0.6711462475793438
 40
1.0
 40
1.0
 40
1.0
 40
1.0
 10
309.0233265166324
 20
608.5032738288169
 30
0.0
 10
309.0233265166324
 20
608.4999521241356
 30
0.0
 10
309.0233265166322
 20
608.4445681703916
 30
0.0
 10
309.0233265166324
 20
608.3513310190793
 30
0.0
 10
309.0233265166325
 20
608.238615722631
 30
0.0
 10
309.0233265166326
 20
608.2040993617568
 30
0.0
 10
309.0233265166325
 20
608.1867284615761
 30
0.0
  0
SPLINE
  5
2E1
330
1F
100
AcDbEntity
  8
0
  6
Continuous
 62
     7
370
    15
100
AcDbSpline
210
0.0
220
0.0
230
1.0
 70
    24
 71
     3
 72
    11
 73
     7
 74
     0
 42
0.00000001
 43
0.00000001
 40
0.0
 40
0.0
 40
0.0
 40
0.0
 40
0.2504884286733861
 40
0.497727503351466
 40
0.7458863506510961
 40
1.0
 40
1.0
 40
1.0
 40
1.0
 10
309.8233400588078
 20
608.1842697699791
 30
0.0
 10
309.8233400588078
 20
608.2004869942434
 30
0.0
 10
309.8233400588078
 20
608.2327110717671
 30
0.0
 10
309.8233400588078
 20
608.3414881918708
 30
0.0
 10
309.8233400588078
 20
608.480324556143
 30
0.0
 10
309.8233400588078
 20
608.5873498979225
 30
0.0
 10
309.8233400588078
 20
608.6414970000511
 30
0.0
  0
LINE
  5
2E2
330
1F
100
AcDbEntity
  8
0
  6
Continuous
 62
     7
370
    15
100
AcDbLine
 10
309.8233400588
 20
608.6414970001
 30
0.0
 11
309.8233400588
 21
608.7454624017
 31
0.0
  0
LINE
  5
2E3
330
1F
100
AcDbEntity
  8
0
  6
Continuous
 62
     7
370
    15
100
AcDbLine
 10
308.8165878062
 20
608.7454624017
 30
0.0
 11
309.0255020862
 21
608.4982372363
 31
0.0
  0
LINE
  5
2E4
330
1F
100
AcDbEntity
  8
0
  6
Continuous
 62
     7
370
    15
100
AcDbLine
 10
304.5469580894
 20
617.8834951957
 30
0.0
 11
304.5313416724
 21
618.3427191814
 31
0.0
  0
SPLINE
  5
2E5
330
1F
100
AcDbEntity
  8
0
  6
Continuous
 62
     7
370
    15
100
AcDbSpline
210
0.0
220
0.0
230
1.0
 70
     8
 71
     3
 72
    11
 73
     7
 74
     0
 42
0.00000001
 43
0.00000001
 40
0.0
 40
0.0
 40
0.0
 40
0.0
 40
0.1207538811881233
 40
0.4133926476258615
 40
0.7063563973291807
 40
1.0
 40
1.0
 40
1.0
 40
1.0
 10
306.5796254878086
 20
597.7200485308891
 30
0.0
 10
306.589549258014
 20
597.6217533051218
 30
0.0
 10
306.6235226061105
 20
597.2852463272164
 30
0.0
 10
306.670853918005
 20
596.8163285911028
 30
0.0
 10
306.7137533471862
 20
596.3915862573513
 30
0.0
 10
306.7212887520313
 20
596.3170456104061
 30
0.0
 10
306.7250608210606
 20
596.2797320922142
 30
0.0
  0
LINE
  5
2E6
330
1F
100
AcDbEntity
  8
0
  6
Continuous
 62
     7
370
    15
100
AcDbLine
 10
304.9077748065
 20
648.7454689582
 30
0.0
 11
304.1560410266
 21
648.4718538364
 31
0.0
  0
LINE
  5
2E7
330
1F
100
AcDbEntity
  8
0
  6
Continuous
 62
     7
370
    15
100
AcDbLine
 10
310.3560267692
 20
647.7454669317
 30
0.0
 11
310.056036592
 21
647.7454669317
 31
0.0
  0
LINE
  5
2E8
330
1F
100
AcDbEntity
  8
0
  6
Continuous
 62
     7
370
    15
100
AcDbLine
 10
310.056036592
 20
646.7454723557
 30
0.0
 11
309.9560199981
 21
646.7454723557
 31
0.0
  0
LINE
  5
2E9
330
1F
100
AcDbEntity
  8
0
  6
Continuous
 62
     7
370
    15
100
AcDbLine
 10
309.9560199981
 20
640.7454676469
 30
0.0
 11
310.056036592
 21
640.7454676469
 31
0.0
  0
LINE
  5
2EA
330
1F
100
AcDbEntity
  8
0
  6
Continuous
 62
     7
370
    15
100
AcDbLine
 10
310.056036592
 20
623.7454629977
 30
0.0
 11
309.9560199981
 21
623.7454629977
 31
0.0
  0
LINE
  5
2EB
330
1F
100
AcDbEntity
  8
0
  6
Continuous
 62
     7
370
    15
100
AcDbLine
 10
309.9560199981
 20
617.7454657396
 30
0.0
 11
310.056036592
 21
617.7454657396
 31
0.0
  0
ARC
  5
2EC
330
1F
100
AcDbEntity
  8
0
  6
Continuous
 62
     7
370
    15
100
AcDbCircle
 10
325.3560267692
 20
586.7454686483
 30
0.0
 40
15.0
100
AcDbArc
 50
180.0
 51
270.0
  0
LINE
  5
2ED
330
1F
100
AcDbEntity
  8
0
  6
Continuous
 62
     7
370
    15
100
AcDbLine
 10
310.3560267692
 20
586.7454625209
 30
0.0
 11
325.3560273652
 21
586.7454625209
 31
0.0
  0
LINE
  5
2EE
330
1F
100
AcDbEntity
  8
0
  6
Continuous
 62
     7
370
    15
100
AcDbLine
 10
325.3560273652
 20
571.7454619249
 30
0.0
 11
325.3560273652
 21
586.7454625209
 31
0.0
  0
LINE
  5
2EF
330
1F
100
AcDbEntity
  8
0
  6
Continuous
 62
     7
370
    15
100
AcDbLine
 10
310.3560267692
 20
591.7454726537
 30
0.0
 11
310.3560267692
 21
586.7454625209
 31
0.0
  0
LINE
  5
2F0
330
1F
100
AcDbEntity
  8
0
  6
Continuous
 62
     7
370
    15
100
AcDbLine
 10
325.3560273652
 20
591.7454726537
 30
0.0
 11
325.3560273652
 21
586.7454625209
 31
0.0
  0
LINE
  5
2F1
330
1F
100
AcDbEntity
  8
0
  6
Continuous
 62
     7
370
    15
100
AcDbLine
 10
310.3560267692
 20
591.7454726537
 30
0.0
 11
325.3560273652
 21
591.7454726537
 31
0.0
  0
LINE
  5
2F2
330
1F
100
AcDbEntity
  8
0
  6
Continuous
 62
     7
370
    15
100
AcDbLine
 10
325.3560273652
 20
586.7454625209
 30
0.0
 11
795.3560261731
 21
586.7454625209
 31
0.0
  0
LINE
  5
2F3
330
1F
100
AcDbEntity
  8
0
  6
Continuous
 62
     7
370
    15
100
AcDbLine
 10
795.3560261731
 20
586.7454625209
 30
0.0
 11
795.3560261731
 21
571.7454619249
 31
0.0
  0
LINE
  5
2F4
330
1F
100
AcDbEntity
  8
0
  6
Continuous
 62
     7
370
    15
100
AcDbLine
 10
325.3560273652
 20
571.7454619249
 30
0.0
 11
795.3560261731
 21
571.7454619249
 31
0.0
  0
LINE
  5
2F5
330
1F
100
AcDbEntity
  8
0
  6
Continuous
 62
     7
370
    15
100
AcDbLine
 10
795.3560261731
 20
591.7454726537
 30
0.0
 11
795.3560261731
 21
586.7454625209
 31
0.0
  0
LINE
  5
2F6
330
1F
100
AcDbEntity
  8
0
  6
Continuous
 62
     7
370
    15
100
AcDbLine
 10
325.3560273652
 20
591.7454726537
 30
0.0
 11
795.3560261731
 21
591.7454726537
 31
0.0
  0
LINE
  5
2F7
330
1F
100
AcDbEntity
  8
0
  6
Continuous
 62
     7
370
    15
100
AcDbLine
 10
810.3560267692
 20
586.7454625209
 30
0.0
 11
795.3560261731
 21
586.7454625209
 31
0.0
  0
ARC
  5
2F8
330
1F
100
AcDbEntity
  8
0
  6
Continuous
 62
     7
370
    15
100
AcDbCircle
 10
795.3560267692
 20
586.7454686483
 30
0.0
 40
15.0
100
AcDbArc
 50
270.0
 51
0.0
  0
LINE
  5
2F9
330
1F
100
AcDbEntity
  8
0
  6
Continuous
 62
     7
370
    15
100
AcDbLine
 10
810.3560267692
 20
591.7454726537
 30
0.0
 11
810.3560267692
 21
586.7454625209
 31
0.0
  0
LINE
  5
2FA
330
1F
100
AcDbEntity
  8
0
  6
Continuous
 62
     7
370
    15
100
AcDbLine
 10
810.3560267692
 20
591.7454726537
 30
0.0
 11
795.3560261731
 21
591.7454726537
 31
0.0
  0
LINE
  5
2FB
330
1F
100
AcDbEntity
  8
0
  6
Continuous
 62
     7
370
    15
100
AcDbLine
 10
309.1560362582
 20
587.65926133
 30
0.0
 11
309.1560362582
 21
589.7632307847
 31
0.0
  0
LINE
  5
2FC
330
1F
100
AcDbEntity
  8
0
  6
Continuous
 62
     7
370
    15
100
AcDbLine
 10
309.1560362582
 20
589.7632307847
 30
0.0
 11
310.3560267692
 21
589.7632307847
 31
0.0
  0
LINE
  5
2FD
330
1F
100
AcDbEntity
  8
0
  6
Continuous
 62
     7
370
    15
100
AcDbLine
 10
309.1560362582
 20
587.65926133
 30
0.0
 11
310.3560267692
 21
587.65926133
 31
0.0
  0
LINE
  5
2FE
330
1F
100
AcDbEntity
  8
0
  6
Continuous
 62
     7
370
    15
100
AcDbLine
 10
309.1560362582
 20
594.7454638322
 30
0.0
 11
310.3560267692
 21
594.7454638322
 31
0.0
  0
LINE
  5
2FF
330
1F
100
AcDbEntity
  8
0
  6
Continuous
 62
     7
370
    15
100
AcDbLine
 10
310.3560267692
 20
591.7454726537
 30
0.0
 11
310.3560267692
 21
594.7454638322
 31
0.0
  0
LINE
  5
300
330
1F
100
AcDbEntity
  8
0
  6
Continuous
 62
     7
370
    15
100
AcDbLine
 10
309.1560362582
 20
594.7454638322
 30
0.0
 11
309.1560362582
 21
589.7632307847
 31
0.0
  0
LINE
  5
301
330
1F
100
AcDbEntity
  8
0
  6
Continuous
 62
     7
370
    15
100
AcDbLine
 10
310.3560267692
 20
586.7454625209
 30
0.0
 11
310.3560267692
 21
583.2454628785
 31
0.0
  0
LINE
  5
302
330
1F
100
AcDbEntity
  8
0
  6
Continuous
 62
     7
370
    15
100
AcDbLine
 10
309.1560362582
 20
583.2454628785
 30
0.0
 11
309.1560362582
 21
587.65926133
 31
0.0
  0
LINE
  5
303
330
1F
100
AcDbEntity
  8
0
  6
Continuous
 62
     7
370
    15
100
AcDbLine
 10
309.0560196643
 20
585.7454753955
 30
0.0
 11
309.0560196643
 21
591.7454726537
 31
0.0
  0
LINE
  5
304
330
1F
100
AcDbEntity
  8
0
  6
Continuous
 62
     7
370
    15
100
AcDbLine
 10
302.30805862
 20
595.9478832324
 30
0.0
 11
303.0385731463
 21
594.9958480438
 31
0.0
  0
LINE
  5
305
330
1F
100
AcDbEntity
  8
0
  6
Continuous
 62
     7
370
    15
100
AcDbLine
 10
305.8514951472
 20
598.666853412
 30
0.0
 11
302.30805862
 21
595.9478832324
 31
0.0
  0
ARC
  5
306
330
1F
100
AcDbEntity
  8
0
  6
Continuous
 62
     7
370
    15
100
AcDbCircle
 10
307.5560267692
 20
596.4454686483
 30
0.0
 40
2.800000000000011
100
AcDbArc
 50
0.0
 51
45.4024529621
  0
LINE
  5
307
330
1F
100
AcDbEntity
  8
0
  6
Continuous
 62
     7
370
    15
100
AcDbLine
 10
306.44837606
 20
599.0170605024
 30
0.0
 11
305.8514951472
 21
598.666853412
 31
0.0
  0
LINE
  5
308
330
1F
100
AcDbEntity
  8
0
  6
Continuous
 62
     7
370
    15
100
AcDbLine
 10
303.0385731463
 20
594.9958480438
 30
0.0
 11
306.5820096736
 21
597.7148331245
 31
0.0
  0
LINE
  5
309
330
1F
100
AcDbEntity
  8
0
  6
Continuous
 62
     7
370
    15
100
AcDbLine
 10
310.3560267692
 20
594.7454638322
 30
0.0
 11
310.3560267692
 21
595.7454658588
 31
0.0
  0
LINE
  5
30A
330
1F
100
AcDbEntity
  8
0
  6
Continuous
 62
     7
370
    15
100
AcDbLine
 10
309.1560362582
 20
595.3864074786
 30
0.0
 11
309.1560362582
 21
594.7454638322
 31
0.0
  0
LINE
  5
30B
330
1F
100
AcDbEntity
  8
0
  6
Continuous
 62
     7
370
    15
100
AcDbLine
 10
302.0865379577
 20
594.2653335174
 30
0.0
 11
301.3560234313
 21
595.2173687061
 31
0.0
  0
LWPOLYLINE
  5
30C
330
1F
100
AcDbEntity
  8
0
  6
Continuous
 62
     7
370
    15
100
AcDbPolyline
 90
        9
 70
   128
 43
0.0
 10
301.3560234313
 20
595.2173687061
 10
301.3743220573
 20
595.2314055999
 10
301.4285026794
 20
595.2729649385
 10
301.516479135
 20
595.3404820998
 10
301.6348539596
 20
595.4313195785
 10
301.7791270022
 20
595.542020305
 10
301.9437252288
 20
595.6683225473
 10
302.1223305469
 20
595.8053685268
 10
302.30805862
 20
595.9478832324
  0
LWPOLYLINE
  5
30D
330
1F
100
AcDbEntity
  8
0
  6
Continuous
 62
     7
370
    15
100
AcDbPolyline
 90
        9
 70
   128
 43
0.0
 10
303.0385731463
 20
594.9958480438
 10
302.8528450732
 20
594.8533333381
 10
302.6742397552
 20
594.7163022598
 10
302.5096415286
 20
594.5900000175
 10
302.3653684859
 20
594.479299291
 10
302.2469936614
 20
594.3884469112
 10
302.1590172057
 20
594.320944651
 10
302.1048365836
 20
594.2793704112
 10
302.0865379577
 20
594.2653335174
  0
SPLINE
  5
30E
330
1F
100
AcDbEntity
  8
0
  6
Continuous
 62
     7
370
    15
100
AcDbSpline
210
0.0
220
0.0
230
1.0
 70
     8
 71
     3
 72
    12
 73
     8
 74
     0
 42
0.00000001
 43
0.00000001
 40
0.0
 40
0.0
 40
0.0
 40
0.0
 40
0.234046632303745
 40
0.4681100834887106
 40
0.7021601909409557
 40
0.9362164682326188
 40
1.0
 40
1.0
 40
1.0
 40
1.0
 10
306.6529988055271
 20
613.4225792725807
 30
0.0
 10
306.4566122350651
 20
613.4032006499802
 30
0.0
 10
306.0638249815582
 20
613.3644420122074
 30
0.0
 10
305.5263144188138
 20
613.3591860379395
 30
0.0
 10
305.1528662009787
 20
613.3976702422833
 30
0.0
 10
304.9736034081955
 20
613.4523308860307
 30
0.0
 10
305.0023503820212
 20
613.4962850069759
 30
0.0
 10
305.0085066561741
 20
613.50569794972
 30
0.0
  0
SPLINE
  5
30F
330
1F
100
AcDbEntity
  8
0
  6
Continuous
 62
     7
370
    15
100
AcDbSpline
210
0.0
220
0.0
230
1.0
 70
     8
 71
     3
 72
    11
 73
     7
 74
     0
 42
0.00000001
 43
0.00000001
 40
0.0
 40
0.0
 40
0.0
 40
0.0
 40
0.1986858933163891
 40
0.4657907755952836
 40
0.7328920409508484
 40
1.0
 40
1.0
 40
1.0
 40
1.0
 10
307.9489229922337
 20
613.8014710982567
 30
0.0
 10
307.9477401596357
 20
613.7769774705133
 30
0.0
 10
307.9449671770951
 20
613.7195556491992
 30
0.0
 10
307.6754283945414
 20
613.6124824948013
 30
0.0
 10
307.2283774958962
 20
613.5016577660597
 30
0.0
 10
306.8447933044326
 20
613.4489389905975
 30
0.0
 10
306.6529988055271
 20
613.4225792725807
 30
0.0
  0
SPLINE
  5
310
330
1F
100
AcDbEntity
  8
0
  6
Continuous
 62
     7
370
    15
100
AcDbSpline
210
0.0
220
0.0
230
1.0
 70
     8
 71
     3
 72
    12
 73
     8
 74
     0
 42
0.00000001
 43
0.00000001
 40
0.0
 40
0.0
 40
0.0
 40
0.0
 40
0.2339746063686035
 40
0.4679314347940849
 40
0.7019014784153117
 40
0.9358644000539801
 40
1.0
 40
1.0
 40
1.0
 40
1.0
 10
306.0460447077793
 20
619.4344527562386
 30
0.0
 10
305.8499529210309
 20
619.411952573377
 30
0.0
 10
305.4577842470513
 20
619.3669539172712
 30
0.0
 10
304.9548598106762
 20
619.0194421774556
 30
0.0
 10
304.6350185995735
 20
618.5259666876253
 30
0.0
 10
304.5071364372561
 20
618.0723769496791
 30
0.0
 10
304.5648990806807
 20
617.829381198552
 30
0.0
 10
304.5773266558689
 20
617.7771009047752
 30
0.0
  0
SPLINE
  5
311
330
1F
100
AcDbEntity
  8
0
  6
Continuous
 62
     7
370
    15
100
AcDbSpline
210
0.0
220
0.0
230
1.0
 70
     8
 71
     3
 72
    11
 73
     7
 74
     0
 42
0.00000001
 43
0.00000001
 40
0.0
 40
0.0
 40
0.0
 40
0.0
 40
0.1976869012946596
 40
0.465132349840553
 40
0.7325626924186095
 40
1.0
 40
1.0
 40
1.0
 40
1.0
 10
307.5162528758091
 20
618.0841691334969
 30
0.0
 10
307.4979727398514
 20
618.2289179361629
 30
0.0
 10
307.4549618851221
 20
618.5694936155822
 30
0.0
 10
307.1294907476574
 20
619.0192547197621
 30
0.0
 10
306.6362110870361
 20
619.3669947368079
 30
0.0
 10
306.2427685419906
 20
619.4119665545552
 30
0.0
 10
306.0460447077793
 20
619.4344527562386
 30
0.0
  0
SPLINE
  5
312
330
1F
100
AcDbEntity
  8
0
  6
Continuous
 62
     7
370
    15
100
AcDbSpline
210
0.0
220
0.0
230
1.0
 70
     8
 71
     3
 72
    12
 73
     8
 74
     0
 42
0.00000001
 43
0.00000001
 40
0.0
 40
0.0
 40
0.0
 40
0.0
 40
0.2350197708745228
 40
0.4700328824845291
 40
0.7050509323460378
 40
0.9400637739983508
 40
1.0
 40
1.0
 40
1.0
 40
1.0
 10
308.2220910792393
 20
597.881621821714
 30
0.0
 10
308.0256999623144
 20
597.8622375622799
 30
0.0
 10
307.6329232931897
 20
597.8234695926633
 30
0.0
 10
307.0953214518652
 20
597.8182063291357
 30
0.0
 10
306.7222344740034
 20
597.856729963238
 30
0.0
 10
306.5432606386321
 20
597.9108514844309
 30
0.0
 10
306.5711060368079
 20
597.9541530942842
 30
0.0
 10
306.5767644648594
 20
597.96295235951
 30
0.0
  0
SPLINE
  5
313
330
1F
100
AcDbEntity
  8
0
  6
Continuous
 62
     7
370
    15
100
AcDbSpline
210
0.0
220
0.0
230
1.0
 70
     8
 71
     3
 72
    11
 73
     7
 74
     0
 42
0.00000001
 43
0.00000001
 40
0.0
 40
0.0
 40
0.0
 40
0.0
 40
0.1989213229822123
 40
0.4659441612640579
 40
0.7329798252306359
 40
1.0
 40
1.0
 40
1.0
 40
1.0
 10
309.5180450682682
 20
598.2606179555182
 30
0.0
 10
309.5168629543397
 20
598.2360856298201
 30
0.0
 10
309.514094025023
 20
598.1786222380131
 30
0.0
 10
309.2445379761412
 20
598.0715077928307
 30
0.0
 10
308.7974432165974
 20
597.960686308218
 30
0.0
 10
308.4138714167868
 20
597.9079761409652
 30
0.0
 10
308.2220910792393
 20
597.881621821714
 30
0.0
  0
ELLIPSE
  5
314
330
1F
100
AcDbEntity
  8
0
  6
Continuous
 62
     7
370
    15
100
AcDbEllipse
 10
309.4233261695
 20
607.9183602545
 30
0.0
 11
0.3991830274374024
 21
-0.02624604221148274
 31
0.0
210
0.0
220
0.0
230
1.0
 40
0.9763157485
 41
0.0
 42
6.283185307179586
  0
ARC
  5
315
330
1F
100
AcDbEntity
  8
0
  6
Continuous
 62
     7
370
    15
100
AcDbCircle
 10
309.4233263497
 20
608.1832416044
 30
0.0
 40
0.4000150304833838
100
AcDbArc
 50
0.1472684924
 51
179.5005569488
  0
SPLINE
  5
316
330
1F
100
AcDbEntity
  8
0
  6
Continuous
 62
     7
370
    15
100
AcDbSpline
210
0.0
220
0.0
230
1.0
 70
     8
 71
     3
 72
    13
 73
     9
 74
     0
 42
0.00000001
 43
0.00000001
 40
0.0
 40
0.0
 40
0.0
 40
0.0
 40
0.0081673654816838
 40
0.2391725271136144
 40
0.4710985846663859
 40
0.6931353783099381
 40
0.9042367902053071
 40
1.0
 40
1.0
 40
1.0
 40
1.0
 10
309.4233332877201
 20
608.6471892436272
 30
0.0
 10
309.4216743765796
 20
608.646796975814
 30
0.0
 10
309.3730949453509
 20
608.6353098341673
 30
0.0
 10
309.2769782069293
 20
608.6120277146106
 30
0.0
 10
309.1541485673837
 20
608.5684002675406
 30
0.0
 10
309.0684846639057
 20
608.5309508441298
 30
0.0
 10
309.0244565193112
 20
608.5098205237344
 30
0.0
 10
309.0277065120857
 20
608.5048309306111
 30
0.0
 10
309.0287207369847
 20
608.503273828817
 30
0.0
  0
SPLINE
  5
317
330
1F
100
AcDbEntity
  8
0
  6
Continuous
 62
     7
370
    15
100
AcDbSpline
210
0.0
220
0.0
230
1.0
 70
     8
 71
     3
 72
    13
 73
     9
 74
     0
 42
0.00000001
 43
0.00000001
 40
0.0
 40
0.0
 40
0.0
 40
0.0
 40
0.1252376347852963
 40
0.2499791874376688
 40
0.4999836731601437
 40
0.7499971665195992
 40
0.8747794499490972
 40
1.0
 40
1.0
 40
1.0
 40
1.0
 10
309.8233400588078
 20
608.6414970000511
 30
0.0
 10
309.8216181121243
 20
608.6415268416963
 30
0.0
 10
309.818181039606
 20
608.6415864067802
 30
0.0
 10
309.7838380327628
 20
608.642060833602
 30
0.0
 10
309.708532237664
 20
608.6431330865083
 30
0.0
 10
309.5998945314508
 20
608.6446675801086
 30
0.0
 10
309.5011794502776
 20
608.6461004753551
 30
0.0
 10
309.4493123170735
 20
608.6468258969705
 30
0.0
 10
309.4233332877201
 20
608.6471892436272
 30
0.0
  0
SPLINE
  5
318
330
1F
100
AcDbEntity
  8
0
  6
Continuous
 62
     7
370
    15
100
AcDbSpline
210
0.0
220
0.0
230
1.0
 70
     8
 71
     3
 72
    10
 73
     6
 74
     0
 42
0.00000001
 43
0.00000001
 40
0.0
 40
0.0
 40
0.0
 40
0.0
 40
0.018973590868354
 40
0.5252901025967246
 40
1.0
 40
1.0
 40
1.0
 40
1.0
 10
309.4233332877201
 20
608.6471892436272
 30
0.0
 10
309.4248526317772
 20
608.6479295070502
 30
0.0
 10
309.4669161716308
 20
608.6684239433501
 30
0.0
 10
309.5495072926304
 20
608.7066846583483
 30
0.0
 10
309.6196463624664
 20
608.7328171317532
 30
0.0
 10
309.6535860304875
 20
608.7454624017006
 30
0.0
  0
LINE
  5
319
330
1F
100
AcDbEntity
  8
0
  6
Continuous
 62
     7
370
    15
100
AcDbLine
 10
304.5468090777
 20
617.8864307245
 30
0.0
 11
304.5592664485
 21
617.7356607755
 31
0.0
  0
LINE
  5
31A
330
1F
100
AcDbEntity
  8
0
  6
Continuous
 62
     7
370
    15
100
AcDbLine
 10
307.5390218501
 20
618.0791623433
 30
0.0
 11
307.5034378772
 21
618.2893283208
 31
0.0
  0
ARC
  5
31B
330
1F
100
AcDbEntity
  8
0
  6
Continuous
 62
     7
370
    15
100
AcDbCircle
 10
305.4560267692
 20
611.7654686483
 30
0.0
 40
2.200000000000106
100
AcDbArc
 50
103.5934749692
 51
268.1042765976
  0
LINE
  5
31C
330
1F
100
AcDbEntity
  8
0
  6
Continuous
 62
     7
370
    15
100
AcDbLine
 10
301.9092141395
 20
613.1432421048
 30
0.0
 11
302.2428511386
 21
615.035466059
 31
0.0
  0
LWPOLYLINE
  5
31D
330
1F
100
AcDbEntity
  8
0
  6
Continuous
 62
     7
370
    15
100
AcDbPolyline
 90
        9
 70
   128
 43
0.0
 10
302.2428511386
 20
615.035466059
 10
302.0986078982
 20
615.0609023412
 10
301.9615768199
 20
615.0850720247
 10
301.8364666705
 20
615.1071257432
 10
301.7276285892
 20
615.1263184388
 10
301.6387878661
 20
615.1419795593
 10
301.5730439429
 20
615.1535726627
 10
301.5326915984
 20
615.1606954177
 10
301.5190719371
 20
615.1630945047
  0
LINE
  5
31E
330
1F
100
AcDbEntity
  8
0
  6
Continuous
 62
     7
370
    15
100
AcDbLine
 10
301.5190719371
 20
615.1630945047
 30
0.0
 11
305.8941124682
 21
639.9751968225
 31
0.0
  0
LWPOLYLINE
  5
31F
330
1F
100
AcDbEntity
  8
0
  6
Continuous
 62
     7
370
    15
100
AcDbPolyline
 90
        9
 70
   128
 43
0.0
 10
305.8941124682
 20
639.9751968225
 10
305.909252048
 20
639.9725295146
 10
305.9540747409
 20
639.9646318992
 10
306.0268818145
 20
639.9517870982
 10
306.1248718505
 20
639.9345166524
 10
306.244259954
 20
639.9134613117
 10
306.3804565673
 20
639.8894406398
 10
306.528246284
 20
639.8633785089
 10
306.6819666629
 20
639.8362881978
  0
LINE
  5
320
330
1F
100
AcDbEntity
  8
0
  6
Continuous
 62
     7
370
    15
100
AcDbLine
 10
306.6819666629
 20
639.8362881978
 30
0.0
 11
301.8566428428
 21
612.4704844793
 31
0.0
  0
LINE
  5
321
330
1F
100
AcDbEntity
  8
0
  6
Continuous
 62
     7
370
    15
100
AcDbLine
 10
301.8566428428
 20
612.4704844793
 30
0.0
 11
301.9092141395
 21
613.1432421048
 31
0.0
  0
LWPOLYLINE
  5
322
330
1F
100
AcDbEntity
  8
0
  6
Continuous
 62
     7
370
    15
100
AcDbPolyline
 90
        5
 70
   128
 43
0.0
 10
304.7414182429
 20
646.8635268052
 10
304.487949491
 20
647.5599325736
 10
304.3043969874
 20
648.0642474731
 10
304.1932343249
 20
648.3696020683
 10
304.1560410266
 20
648.4718538364
  0
LWPOLYLINE
  5
323
330
1F
100
AcDbEntity
  8
0
  6
Continuous
 62
     7
370
    15
100
AcDbPolyline
 90
        5
 70
   128
 43
0.0
 10
305.5010496383
 20
647.1155128916
 10
305.2441834216
 20
647.8211871823
 10
305.0581573253
 20
648.3323044618
 10
304.9455045466
 20
648.6418164809
 10
304.9077748065
 20
648.7454689582
  0
LINE
  5
324
330
1F
100
AcDbEntity
  8
0
  6
Continuous
 62
     7
370
    15
100
AcDbLine
 10
305.7231365447
 20
646.7610664209
 30
0.0
 11
305.5010496383
 21
647.1155128916
 31
0.0
  0
LINE
  5
325
330
1F
100
AcDbEntity
  8
0
  6
Continuous
 62
     7
370
    15
100
AcDbLine
 10
305.6409417396
 20
646.7311523398
 30
0.0
 11
305.7231365447
 21
646.7610664209
 31
0.0
  0
SPLINE
  5
326
330
1F
100
AcDbEntity
  8
0
  6
Continuous
 62
     7
370
    15
100
AcDbSpline
210
0.0
220
0.0
230
1.0
 70
     8
 71
     3
 72
    12
 73
     8
 74
     0
 42
0.00000001
 43
0.00000001
 40
0.0
 40
0.0
 40
0.0
 40
0.0
 40
0.2510129476244693
 40
0.5023997049789553
 40
0.7402755902731164
 40
0.9473068909495996
 40
0.9999999999999999
 40
0.9999999999999999
 40
0.9999999999999999
 40
0.9999999999999999
 10
304.7414182429356
 20
646.8635268052345
 30
0.0
 10
304.769121081348
 20
646.8192085395161
 30
0.0
 10
304.8245680133774
 20
646.7305060090979
 30
0.0
 10
305.0315787489653
 20
646.6555206530436
 30
0.0
 10
305.2929718825463
 20
646.6440237975287
 30
0.0
 10
305.5095533603258
 20
646.685670315162
 30
0.0
 10
305.6187814515545
 20
646.7234812293528
 30
0.0
 10
305.6409417395633
 20
646.7311523397689
 30
0.0
  0
LINE
  5
327
330
1F
100
AcDbEntity
  8
0
  6
Continuous
 62
     7
370
    15
100
AcDbLine
 10
305.6409417396
 20
646.7311523398
 30
0.0
 11
306.2172590499
 21
645.1476655443
 31
0.0
  0
LWPOLYLINE
  5
328
330
1F
100
AcDbEntity
  8
0
  6
Continuous
 62
     7
370
    15
100
AcDbPolyline
 90
        9
 70
   128
 43
0.0
 10
305.46552527
 20
644.8740504225
 10
305.479949594
 20
644.8793105324
 10
305.522745729
 20
644.8948747953
 10
305.5922149425
 20
644.9201620658
 10
305.6857048278
 20
644.9541888674
 10
305.799609304
 20
644.9956513484
 10
305.9295772319
 20
645.0429550846
 10
306.0706018214
 20
645.0942895849
 10
306.2172590499
 20
645.1476655443
  0
LINE
  5
329
330
1F
100
AcDbEntity
  8
0
  6
Continuous
 62
     7
370
    15
100
AcDbLine
 10
305.46552527
 20
644.8740504225
 30
0.0
 11
304.7414182429
 21
646.8635268052
 31
0.0
  0
ARC
  5
32A
330
1F
100
AcDbEntity
  8
0
  6
Continuous
 62
     7
370
    15
100
AcDbCircle
 10
306.0460322753
 20
617.9344595667
 30
0.0
 40
1.60000000000003
100
AcDbArc
 50
347.034367059
 51
204.5950707184
  0
LINE
  5
32B
330
1F
100
AcDbEntity
  8
0
  6
Continuous
 62
     7
370
    15
100
AcDbLine
 10
308.8560162787
 20
640.5611551841
 30
0.0
 11
308.8560162787
 21
612.5354684432
 31
0.0
  0
ARC
  5
32C
330
1F
100
AcDbEntity
  8
0
  6
Continuous
 62
     7
370
    15
100
AcDbCircle
 10
296.5384397287
 20
641.6248591166
 30
0.0
 40
10.3000000000002
100
AcDbArc
 50
350.0
 51
20.0
  0
LINE
  5
32D
330
1F
100
AcDbEntity
  8
0
  6
Continuous
 62
     7
370
    15
100
AcDbLine
 10
306.4407168632
 20
646.4575372179
 30
0.0
 11
306.5587340598
 21
646.4575372179
 31
0.0
  0
ARC
  5
32E
330
1F
100
AcDbEntity
  8
0
  6
Continuous
 62
     7
370
    15
100
AcDbCircle
 10
306.5587412406
 20
645.9575335026
 30
0.0
 40
0.5000000000001137
100
AcDbArc
 50
36.8410865503
 51
90.0
  0
ARC
  5
32F
330
1F
100
AcDbEntity
  8
0
  6
Continuous
 62
     7
370
    15
100
AcDbCircle
 10
299.3560267692
 20
640.5611546942
 30
0.0
 40
9.5
100
AcDbArc
 50
0.0
 51
36.8410865502
  0
ARC
  5
330
330
1F
100
AcDbEntity
  8
0
  6
Continuous
 62
     7
370
    15
100
AcDbCircle
 10
306.440728695
 20
647.4575335026
 30
0.0
 40
1.000000000000026
100
AcDbArc
 50
224.1440002858
 51
270.0
  0
LWPOLYLINE
  5
331
330
1F
100
AcDbEntity
  8
0
  6
Continuous
 62
     7
370
    15
100
AcDbPolyline
 90
        3
 70
   128
 43
0.0
 10
308.8560162787
 20
612.5354684432
 10
308.647400022
 20
611.3451934894
 10
308.2912324672
 20
610.6290287812
  0
ARC
  5
332
330
1F
100
AcDbEntity
  8
0
  6
Continuous
 62
     7
370
    15
100
AcDbCircle
 10
305.3560267692
 20
612.5354686483
 30
0.0
 40
3.500000000000111
100
AcDbArc
 50
181.0639402281
 51
271.3221928089
  0
ARC
  5
333
330
1F
100
AcDbEntity
  8
0
  6
Continuous
 62
     7
370
    15
100
AcDbCircle
 10
296.5384397287
 20
641.6248591166
 30
0.0
 40
9.50000000000002
100
AcDbArc
 50
350.0
 51
20.0
  0
ARC
  5
334
330
1F
100
AcDbEntity
  8
0
  6
Continuous
 62
     7
370
    15
100
AcDbCircle
 10
305.9496445625
 20
613.2329641751
 30
0.0
 40
4.698428302688335
100
AcDbArc
 50
170.0
 51
264.3261771657
  0
LINE
  5
335
330
1F
100
AcDbEntity
  8
0
  6
Continuous
 62
     7
370
    15
100
AcDbLine
 10
301.5190719371
 20
615.1630945047
 30
0.0
 11
301.3225852256
 21
614.0488303741
 31
0.0
  0
LINE
  5
336
330
1F
100
AcDbEntity
  8
0
  6
Continuous
 62
     7
370
    15
100
AcDbLine
 10
795.3560261731
 20
756.7454689657
 30
0.0
 11
810.3560267692
 21
756.7454689657
 31
0.0
  0
LINE
  5
337
330
1F
100
AcDbEntity
  8
0
  6
Continuous
 62
     7
370
    15
100
AcDbLine
 10
795.3560261731
 20
756.7454689657
 30
0.0
 11
795.3560261731
 21
771.7454686304
 31
0.0
  0
ARC
  5
338
330
1F
100
AcDbEntity
  8
0
  6
Continuous
 62
     7
370
    15
100
AcDbCircle
 10
795.3560267692
 20
756.7454686483
 30
0.0
 40
15.0
100
AcDbArc
 50
0.0
 51
90.0
  0
LINE
  5
339
330
1F
100
AcDbEntity
  8
0
  6
Continuous
 62
     7
370
    15
100
AcDbLine
 10
795.3560261731
 20
756.7454689657
 30
0.0
 11
325.3560273652
 21
756.7454689657
 31
0.0
  0
LINE
  5
33A
330
1F
100
AcDbEntity
  8
0
  6
Continuous
 62
     7
370
    15
100
AcDbLine
 10
325.3560273652
 20
756.7454689657
 30
0.0
 11
325.3560273652
 21
771.7454686304
 31
0.0
  0
LINE
  5
33B
330
1F
100
AcDbEntity
  8
0
  6
Continuous
 62
     7
370
    15
100
AcDbLine
 10
795.3560261731
 20
771.7454686304
 30
0.0
 11
325.3560273652
 21
771.7454686304
 31
0.0
  0
LINE
  5
33C
330
1F
100
AcDbEntity
  8
0
  6
Continuous
 62
     7
370
    15
100
AcDbLine
 10
330.3560225968
 20
615.7454616864
 30
0.0
 11
330.3560225968
 21
751.7454690774
 31
0.0
  0
LINE
  5
33D
330
1F
100
AcDbEntity
  8
0
  6
Continuous
 62
     7
370
    15
100
AcDbLine
 10
330.3560225968
 20
615.7454616864
 30
0.0
 11
790.3560309415
 21
615.7454616864
 31
0.0
  0
LINE
  5
33E
330
1F
100
AcDbEntity
  8
0
  6
Continuous
 62
     7
370
    15
100
AcDbLine
 10
790.3560309415
 20
751.7454690774
 30
0.0
 11
790.3560309415
 21
615.7454616864
 31
0.0
  0
LINE
  5
33F
330
1F
100
AcDbEntity
  8
0
  6
Continuous
 62
     7
370
    15
100
AcDbLine
 10
790.3560309415
 20
751.7454690774
 30
0.0
 11
330.3560225968
 21
751.7454690774
 31
0.0
  0
LINE
  5
340
330
1F
100
AcDbEntity
  8
0
  6
Continuous
 62
     7
370
    15
100
AcDbLine
 10
795.3560261731
 20
595.7454658588
 30
0.0
 11
325.3560273652
 21
595.7454658588
 31
0.0
  0
LINE
  5
341
330
1F
100
AcDbEntity
  8
0
  6
Continuous
 62
     7
370
    15
100
AcDbLine
 10
325.3560273652
 20
595.7454658588
 30
0.0
 11
325.3560273652
 21
756.7454689657
 31
0.0
  0
LINE
  5
342
330
1F
100
AcDbEntity
  8
0
  6
Continuous
 62
     7
370
    15
100
AcDbLine
 10
795.3560261731
 20
756.7454689657
 30
0.0
 11
795.3560261731
 21
595.7454658588
 31
0.0
  0
LINE
  5
343
330
1F
100
AcDbEntity
  8
0
  6
Continuous
 62
     7
370
    15
100
AcDbLine
 10
810.3560267692
 20
756.7454689657
 30
0.0
 11
810.3560267692
 21
595.7454658588
 31
0.0
  0
LINE
  5
344
330
1F
100
AcDbEntity
  8
0
  6
Continuous
 62
     7
370
    15
100
AcDbLine
 10
810.3560267692
 20
595.7454658588
 30
0.0
 11
795.3560261731
 21
595.7454658588
 31
0.0
  0
LINE
  5
345
330
1F
100
AcDbEntity
  8
0
  6
Continuous
 62
     7
370
    15
100
AcDbLine
 10
325.3560273652
 20
756.7454689657
 30
0.0
 11
310.3560267692
 21
756.7454689657
 31
0.0
  0
ARC
  5
346
330
1F
100
AcDbEntity
  8
0
  6
Continuous
 62
     7
370
    15
100
AcDbCircle
 10
325.3560267692
 20
756.7454686483
 30
0.0
 40
15.0
100
AcDbArc
 50
90.0
 51
180.0
  0
LINE
  5
347
330
1F
100
AcDbEntity
  8
0
  6
Continuous
 62
     7
370
    15
100
AcDbLine
 10
325.3560273652
 20
595.7454658588
 30
0.0
 11
310.3560267692
 21
595.7454658588
 31
0.0
  0
LINE
  5
348
330
1F
100
AcDbEntity
  8
0
  6
Continuous
 62
     7
370
    15
100
AcDbLine
 10
310.3560267692
 20
595.7454658588
 30
0.0
 11
310.3560267692
 21
756.7454689657
 31
0.0
  0
LINE
  5
349
330
1F
100
AcDbEntity
  8
0
  6
Continuous
 62
     7
370
    15
100
AcDbLine
 10
805.3560315375
 20
595.7454658588
 30
0.0
 11
805.3560315375
 21
591.7454726537
 31
0.0
  0
LINE
  5
34A
330
1F
100
AcDbEntity
  8
0
  6
Continuous
 62
     7
370
    15
100
AcDbLine
 10
790.3560309415
 20
591.7454726537
 30
0.0
 11
790.3560309415
 21
595.7454658588
 31
0.0
  0
LINE
  5
34B
330
1F
100
AcDbEntity
  8
0
  6
Continuous
 62
     7
370
    15
100
AcDbLine
 10
330.3560225968
 20
591.7454726537
 30
0.0
 11
330.3560225968
 21
595.7454658588
 31
0.0
  0
LINE
  5
34C
330
1F
100
AcDbEntity
  8
0
  6
Continuous
 62
     7
370
    15
100
AcDbLine
 10
315.3560220008
 20
591.7454726537
 30
0.0
 11
315.3560220008
 21
595.7454658588
 31
0.0
  0
LINE
  5
34D
330
1F
100
AcDbEntity
  8
0
  6
Continuous
 62
     7
370
    15
100
AcDbLine
 10
810.3560267692
 20
595.7454658588
 30
0.0
 11
811.0233305697
 21
595.7454658588
 31
0.0
  0
ARC
  5
34E
330
1F
100
AcDbEntity
  8
0
  6
Continuous
 62
     7
370
    15
100
AcDbCircle
 10
811.0233445172
 20
596.2454686483
 30
0.0
 40
0.499999999999953
100
AcDbArc
 50
270.0
 51
332.720387264
  0
ARC
  5
34F
330
1F
100
AcDbEntity
  8
0
  6
Continuous
 62
     7
370
    15
100
AcDbCircle
 10
816.3560267692
 20
593.4954686483
 30
0.0
 40
5.500000000000063
100
AcDbArc
 50
202.024312837
 51
152.720387264
  0
ARC
  5
350
330
1F
100
AcDbEntity
  8
0
  6
Continuous
 62
     7
370
    15
100
AcDbCircle
 10
810.7938779038
 20
591.2454686483
 30
0.0
 40
0.5000000000001137
100
AcDbArc
 50
22.024312837
 51
90.0
  0
LINE
  5
351
330
1F
100
AcDbEntity
  8
0
  6
Continuous
 62
     7
370
    15
100
AcDbLine
 10
810.7938824897
 20
591.7454726537
 30
0.0
 11
810.3560267692
 21
591.7454726537
 31
0.0
  0
LINE
  5
352
330
1F
100
AcDbEntity
  8
0
  6
Continuous
 62
     7
370
    15
100
AcDbLine
 10
310.056036592
 20
614.9454630454
 30
0.0
 11
310.3560267692
 21
614.946535929
 31
0.0
  0
LINE
  5
353
330
1F
100
AcDbEntity
  8
0
  6
Continuous
 62
     7
370
    15
100
AcDbLine
 10
310.3560267692
 20
616.9454670985
 30
0.0
 11
310.056036592
 21
616.9454670985
 31
0.0
  0
LINE
  5
354
330
1F
100
AcDbEntity
  8
0
  6
Continuous
 62
     7
370
    15
100
AcDbLine
 10
310.056036592
 20
614.9454630454
 30
0.0
 11
310.056036592
 21
616.9454670985
 31
0.0
  0
ARC
  5
355
330
1F
100
AcDbEntity
  8
0
  6
Continuous
 62
     7
370
    15
100
AcDbCircle
 10
305.1560267692
 20
611.8454686483
 30
0.0
 40
3.100000000000012
100
AcDbArc
 50
192.3149226609
 51
270.0
  0
LINE
  5
356
330
1F
100
AcDbEntity
  8
0
  6
Continuous
 62
     7
370
    15
100
AcDbLine
 10
310.056036592
 20
608.7454624017
 30
0.0
 11
310.056036592
 21
614.9454630454
 31
0.0
  0
LINE
  5
357
330
1F
100
AcDbEntity
  8
0
  6
Continuous
 62
     7
370
    15
100
AcDbLine
 10
305.156028152
 20
608.7454624017
 30
0.0
 11
305.4661511188
 21
608.7454624017
 31
0.0
  0
LINE
  5
358
330
1F
100
AcDbEntity
  8
0
  6
Continuous
 62
     7
370
    15
100
AcDbLine
 10
308.4814010863
 20
608.7454624017
 30
0.0
 11
310.056036592
 21
608.7454624017
 31
0.0
  0
LINE
  5
359
330
1F
100
AcDbEntity
  8
0
  6
Continuous
 62
     7
370
    15
100
AcDbLine
 10
310.056036592
 20
614.9454630454
 30
0.0
 11
308.8560162787
 21
614.9454630454
 31
0.0
  0
LINE
  5
35A
330
1F
100
AcDbEntity
  8
0
  6
Continuous
 62
     7
370
    15
100
AcDbLine
 10
310.3560267692
 20
608.7454624017
 30
0.0
 11
310.056036592
 21
608.7454624017
 31
0.0
  0
LINE
  5
35B
330
1F
100
AcDbEntity
  8
0
  6
Continuous
 62
     7
370
    15
100
AcDbLine
 10
310.056036592
 20
647.7454669317
 30
0.0
 11
310.056036592
 21
640.9954644283
 31
0.0
  0
LINE
  5
35C
330
1F
100
AcDbEntity
  8
0
  6
Continuous
 62
     7
370
    15
100
AcDbLine
 10
310.056036592
 20
616.9454670985
 30
0.0
 11
310.056036592
 21
640.9954644283
 31
0.0
  0
LINE
  5
35D
330
1F
100
AcDbEntity
  8
0
  6
Continuous
 62
     7
370
    15
100
AcDbLine
 10
309.9560199981
 20
640.7454676469
 30
0.0
 11
309.9560199981
 21
646.7454723557
 31
0.0
  0
LINE
  5
35E
330
1F
100
AcDbEntity
  8
0
  6
Continuous
 62
     7
370
    15
100
AcDbLine
 10
309.9560199981
 20
617.7454657396
 30
0.0
 11
309.9560199981
 21
623.7454629977
 31
0.0
  0
LINE
  5
35F
330
1F
100
AcDbEntity
  8
0
  6
Continuous
 62
     7
370
    15
100
AcDbLine
 10
310.056036592
 20
631.745464309
 30
0.0
 11
308.8560162787
 21
632.0670015653
 31
0.0
  0
LINE
  5
360
330
1F
100
AcDbEntity
  8
0
  6
Continuous
 62
     7
370
    15
100
AcDbLine
 10
308.8560162787
 20
633.1022895416
 30
0.0
 11
310.056036592
 21
632.7807373842
 31
0.0
  0
LINE
  5
361
330
1F
100
AcDbEntity
  8
0
  6
Continuous
 62
     8
370
    15
100
AcDbLine
 10
310.3560267692
 20
640.9954644283
 30
0.0
 11
310.056036592
 21
640.9954644283
 31
0.0
  0
ENDSEC
  0
SECTION
  2
OBJECTS
  0
DICTIONARY
  5
C
330
0
100
AcDbDictionary
281
     1
  3
ACAD_GROUP
350
D
  3
ACAD_LAYOUT
350
1A
  3
ACAD_MLINESTYLE
350
17
  3
ACAD_PLOTSETTINGS
350
19
  3
ACAD_PLOTSTYLENAME
350
E
  0
DICTIONARY
  5
D
102
{ACAD_REACTORS
330
C
102
}
330
C
100
AcDbDictionary
281
     1
  0
DICTIONARY
  5
1A
102
{ACAD_REACTORS
330
C
102
}
330
C
100
AcDbDictionary
281
     1
  3
Layout1
350
1E
  3
Layout2
350
26
  3
Model
350
22
  0
DICTIONARY
  5
17
102
{ACAD_REACTORS
330
C
102
}
330
C
100
AcDbDictionary
281
     1
  3
Standard
350
18
  0
DICTIONARY
  5
19
102
{ACAD_REACTORS
330
C
102
}
330
C
100
AcDbDictionary
281
     1
  0
ACDBDICTIONARYWDFLT
  5
E
102
{ACAD_REACTORS
330
C
102
}
330
C
100
AcDbDictionary
281
     1
  3
Normal
350
F
100
AcDbDictionaryWithDefault
340
F
  0
LAYOUT
  5
1E
102
{ACAD_REACTORS
330
1A
102
}
330
1A
100
AcDbPlotSettings
  1

  2
none_device
  4

  6

 40
0.0
 41
0.0
 42
0.0
 43
0.0
 44
0.0
 45
0.0
 46
0.0
 47
0.0
 48
0.0
 49
0.0
140
0.0
141
0.0
142
1.0
143
1.0
 70
   688
 72
     0
 73
     0
 74
     5
  7

 75
    16
147
1.0
148
0.0
149
0.0
100
AcDbLayout
  1
Layout1
 70
     1
 71
     1
 10
0.0
 20
0.0
 11
420.0
 21
297.0
 12
0.0
 22
0.0
 32
0.0
 14
1.0000000000E+20
 24
1.0000000000E+20
 34
1.0000000000E+20
 15
-1.0000000000E+20
 25
-1.0000000000E+20
 35
-1.0000000000E+20
146
0.0
 13
0.0
 23
0.0
 33
0.0
 16
1.0
 26
0.0
 36
0.0
 17
0.0
 27
1.0
 37
0.0
 76
     0
330
1B
  0
LAYOUT
  5
26
102
{ACAD_REACTORS
330
1A
102
}
330
1A
100
AcDbPlotSettings
  1

  2
none_device
  4

  6

 40
0.0
 41
0.0
 42
0.0
 43
0.0
 44
0.0
 45
0.0
 46
0.0
 47
0.0
 48
0.0
 49
0.0
140
0.0
141
0.0
142
1.0
143
1.0
 70
   688
 72
     0
 73
     0
 74
     5
  7

 75
    16
147
1.0
148
0.0
149
0.0
100
AcDbLayout
  1
Layout2
 70
     1
 71
     2
 10
0.0
 20
0.0
 11
0.0
 21
0.0
 12
0.0
 22
0.0
 32
0.0
 14
0.0
 24
0.0
 34
0.0
 15
0.0
 25
0.0
 35
0.0
146
0.0
 13
0.0
 23
0.0
 33
0.0
 16
1.0
 26
0.0
 36
0.0
 17
0.0
 27
1.0
 37
0.0
 76
     0
330
23
  0
LAYOUT
  5
22
102
{ACAD_REACTORS
330
1A
102
}
330
1A
100
AcDbPlotSettings
  1

  2
none_device
  4

  6

 40
0.0
 41
0.0
 42
0.0
 43
0.0
 44
0.0
 45
0.0
 46
0.0
 47
0.0
 48
0.0
 49
0.0
140
0.0
141
0.0
142
1.0
143
1.0
 70
  1712
 72
     0
 73
     0
 74
     0
  7

 75
     0
147
1.0
148
0.0
149
0.0
100
AcDbLayout
  1
Model
 70
     1
 71
     0
 10
0.0
 20
0.0
 11
840.0
 21
594.0
 12
0.0
 22
0.0
 32
0.0
 14
0.0
 24
0.0
 34
0.0
 15
840.0
 25
594.0
 35
0.0
146
0.0
 13
0.0
 23
0.0
 33
0.0
 16
1.0
 26
0.0
 36
0.0
 17
0.0
 27
1.0
 37
0.0
 76
     0
330
1F
331
29
  0
MLINESTYLE
  5
18
102
{ACAD_REACTORS
330
17
102
}
330
17
100
AcDbMlineStyle
  2
Standard
 70
     0
  3

 62
   256
 51
90.0
 52
90.0
 71
     2
 49
0.5
 62
   256
  6
BYLAYER
 49
-0.5
 62
   256
  6
BYLAYER
  0
ACDBPLACEHOLDER
  5
F
102
{ACAD_REACTORS
330
E
102
}
330
E
  0
ENDSEC
  0
EOF
