  0
SECTION
  2
HEADER
  9
$ACADVER
  1
AC1015
  9
$ACADMAINTVER
 70
     6
  9
$DWGCODEPAGE
  3
DOS932
  9
$INSBASE
 10
0.0
 20
0.0
 30
0.0
  9
$EXTMIN
 10
0.0
 20
0.0
 30
0.0
  9
$EXTMAX
 10
840.0
 20
594.0
 30
0.0
  9
$LIMMIN
 10
0.0
 20
0.0
  9
$LIMMAX
 10
840.0
 20
594.0
  9
$ORTHOMODE
 70
     0
  9
$REGENMODE
 70
     1
  9
$FILLMODE
 70
     1
  9
$QTEXTMODE
 70
     0
  9
$MIRRTEXT
 70
     1
  9
$LTSCALE
 40
2.0
  9
$ATTMODE
 70
     1
  9
$TEXTSIZE
 40
7.0
  9
$TRACEWID
 40
1.0
  9
$TEXTSTYLE
  7
Standard
  9
$CLAYER
  8
0
  9
$CELTYPE
  6
ByLayer
  9
$CECOLOR
 62
   256
  9
$CELTSCALE
 40
1.0
  9
$DISPSILH
 70
     0
  9
$DIMSCALE
 40
1.0
  9
$DIMASZ
 40
6.0
  9
$DIMEXO
 40
2.0
  9
$DIMDLI
 40
3.75
  9
$DIMRND
 40
0.0
  9
$DIMDLE
 40
0.0
  9
$DIMEXE
 40
2.0
  9
$DIMTP
 40
0.0
  9
$DIMTM
 40
0.0
  9
$DIMTXT
 40
7.0
  9
$DIMCEN
 40
2.5
  9
$DIMTSZ
 40
0.0
  9
$DIMTOL
 70
     0
  9
$DIMLIM
 70
     0
  9
$DIMTIH
 70
     1
  9
$DIMTOH
 70
     1
  9
$DIMSE1
 70
     0
  9
$DIMSE2
 70
     0
  9
$DIMTAD
 70
     1
  9
$DIMZIN
 70
     0
  9
$DIMBLK
  1

  9
$DIMASO
 70
     1
  9
$DIMSHO
 70
     1
  9
$DIMPOST
  1

  9
$DIMAPOST
  1

  9
$DIMALT
 70
     0
  9
$DIMALTD
 70
     3
  9
$DIMALTF
 40
0.0393700787
  9
$DIMLFAC
 40
1.0
  9
$DIMTOFL
 70
     1
  9
$DIMTVP
 40
0.0
  9
$DIMTIX
 70
     0
  9
$DIMSOXD
 70
     0
  9
$DIMSAH
 70
     0
  9
$DIMBLK1
  1

  9
$DIMBLK2
  1

  9
$DIMSTYLE
  2
ISO-25
  9
$DIMCLRD
 70
     0
  9
$DIMCLRE
 70
     0
  9
$DIMCLRT
 70
     0
  9
$DIMTFAC
 40
1.0
  9
$DIMGAP
 40
3.048
  9
$DIMJUST
 70
     0
  9
$DIMSD1
 70
     0
  9
$DIMSD2
 70
     0
  9
$DIMTOLJ
 70
     0
  9
$DIMTZIN
 70
     0
  9
$DIMALTZ
 70
     0
  9
$DIMALTTZ
 70
     0
  9
$DIMUPT
 70
     0
  9
$DIMDEC
 70
     1
  9
$DIMTDEC
 70
     1
  9
$DIMALTU
 70
     2
  9
$DIMALTTD
 70
     3
  9
$DIMTXSTY
  7
Standard
  9
$DIMAUNIT
 70
     0
  9
$DIMADEC
 70
     2
  9
$DIMALTRND
 40
0.0
  9
$DIMAZIN
 70
     0
  9
$DIMDSEP
 70
    44
  9
$DIMATFIT
 70
     3
  9
$DIMFRAC
 70
     0
  9
$DIMLDRBLK
  1

  9
$DIMLUNIT
 70
     2
  9
$DIMLWD
 70
    -2
  9
$DIMLWE
 70
    -2
  9
$DIMTMOVE
 70
     0
  9
$LUNITS
 70
     2
  9
$LUPREC
 70
     1
  9
$SKETCHINC
 40
1.0
  9
$FILLETRAD
 40
10.0
  9
$AUNITS
 70
     0
  9
$AUPREC
 70
     2
  9
$MENU
  1
.
  9
$ELEVATION
 40
0.0
  9
$PELEVATION
 40
0.0
  9
$THICKNESS
 40
0.0
  9
$LIMCHECK
 70
     0
  9
$CHAMFERA
 40
10.0
  9
$CHAMFERB
 40
10.0
  9
$CHAMFERC
 40
20.0
  9
$CHAMFERD
 40
0.0
  9
$SKPOLY
 70
     0
  9
$TDCREATE
 40
2460451.455691597
  9
$TDUCREATE
 40
2460451.080691597
  9
$TDUPDATE
 40
2460451.455691609
  9
$TDUUPDATE
 40
2460451.080691609
  9
$TDINDWG
 40
0.0000000116
  9
$TDUSRTIMER
 40
0.0000000116
  9
$USRTIMER
 70
     1
  9
$ANGBASE
 50
0.0
  9
$ANGDIR
 70
     0
  9
$PDMODE
 70
     0
  9
$PDSIZE
 40
-1.0
  9
$PLINEWID
 40
0.0
  9
$SPLFRAME
 70
     0
  9
$SPLINETYPE
 70
     6
  9
$SPLINESEGS
 70
     8
  9
$HANDSEED
  5
363
  9
$SURFTAB1
 70
     6
  9
$SURFTAB2
 70
     6
  9
$SURFTYPE
 70
     6
  9
$SURFU
 70
     6
  9
$SURFV
 70
     6
  9
$UCSBASE
  2

  9
$UCSNAME
  2

  9
$UCSORG
 10
0.0
 20
0.0
 30
0.0
  9
$UCSXDIR
 10
1.0
 20
0.0
 30
0.0
  9
$UCSYDIR
 10
0.0
 20
1.0
 30
0.0
  9
$UCSORTHOREF
  2

  9
$UCSORTHOVIEW
 70
     0
  9
$UCSORGTOP
 10
0.0
 20
0.0
 30
0.0
  9
$UCSORGBOTTOM
 10
0.0
 20
0.0
 30
0.0
  9
$UCSORGLEFT
 10
0.0
 20
0.0
 30
0.0
  9
$UCSORGRIGHT
 10
0.0
 20
0.0
 30
0.0
  9
$UCSORGFRONT
 10
0.0
 20
0.0
 30
0.0
  9
$UCSORGBACK
 10
0.0
 20
0.0
 30
0.0
  9
$PUCSBASE
  2

  9
$PUCSNAME
  2

  9
$PUCSORG
 10
0.0
 20
0.0
 30
0.0
  9
$PUCSXDIR
 10
1.0
 20
0.0
 30
0.0
  9
$PUCSYDIR
 10
0.0
 20
1.0
 30
0.0
  9
$PUCSORTHOREF
  2

  9
$PUCSORTHOVIEW
 70
     0
  9
$PUCSORGTOP
 10
0.0
 20
0.0
 30
0.0
  9
$PUCSORGBOTTOM
 10
0.0
 20
0.0
 30
0.0
  9
$PUCSORGLEFT
 10
0.0
 20
0.0
 30
0.0
  9
$PUCSORGRIGHT
 10
0.0
 20
0.0
 30
0.0
  9
$PUCSORGFRONT
 10
0.0
 20
0.0
 30
0.0
  9
$PUCSORGBACK
 10
0.0
 20
0.0
 30
0.0
  9
$USERI1
 70
     0
  9
$USERI2
 70
     0
  9
$USERI3
 70
     0
  9
$USERI4
 70
     0
  9
$USERI5
 70
     0
  9
$USERR1
 40
0.0
  9
$USERR2
 40
0.0
  9
$USERR3
 40
0.0
  9
$USERR4
 40
0.0
  9
$USERR5
 40
0.0
  9
$WORLDVIEW
 70
     1
  9
$SHADEDGE
 70
     3
  9
$SHADEDIF
 70
    70
  9
$TILEMODE
 70
     1
  9
$MAXACTVP
 70
    64
  9
$PINSBASE
 10
0.0
 20
0.0
 30
0.0
  9
$PLIMCHECK
 70
     0
  9
$PEXTMIN
 10
1.0000000000E+20
 20
1.0000000000E+20
 30
1.0000000000E+20
  9
$PEXTMAX
 10
-1.0000000000E+20
 20
-1.0000000000E+20
 30
-1.0000000000E+20
  9
$PLIMMIN
 10
0.0
 20
0.0
  9
$PLIMMAX
 10
420.0
 20
297.0
  9
$UNITMODE
 70
     0
  9
$VISRETAIN
 70
     1
  9
$PLINEGEN
 70
     0
  9
$PSLTSCALE
 70
     1
  9
$TREEDEPTH
 70
  3020
  9
$CMLSTYLE
  2
Standard
  9
$CMLJUST
 70
     0
  9
$CMLSCALE
 40
20.0
  9
$PROXYGRAPHICS
 70
     1
  9
$MEASUREMENT
 70
     1
  9
$CELWEIGHT
370
    -1
  9
$ENDCAPS
280
     0
  9
$JOINSTYLE
280
     0
  9
$LWDISPLAY
290
     1
  9
$INSUNITS
 70
     4
  9
$HYPERLINKBASE
  1

  9
$STYLESHEET
  1

  9
$XEDIT
290
     1
  9
$CEPSNTYPE
380
     0
  9
$PSTYLEMODE
290
     1
  9
$FINGERPRINTGUID
  2
{1F5C2652-991D-4EBB-80C5-8247ADABB01F}
  9
$VERSIONGUID
  2
{FAEB1C32-E019-11D5-929B-00C0DF256EC4}
  9
$EXTNAMES
290
     1
  9
$PSVPSCALE
 40
0.0
  9
$OLESTARTUP
290
     0
  0
ENDSEC
  0
SECTION
  2
CLASSES
  0
CLASS
  1
ACDBDICTIONARYWDFLT
  2
AcDbDictionaryWithDefault
  3
ObjectDBX Classes
 90
        0
280
     0
281
     0
  0
CLASS
  1
VISUALSTYLE
  2
AcDbVisualStyle
  3
ObjectDBX Classes
 90
     4095
280
     0
281
     0
  0
CLASS
  1
MATERIAL
  2
AcDbMaterial
  3
ObjectDBX Classes
 90
     1153
280
     0
281
     0
  0
CLASS
  1
ACDBPLACEHOLDER
  2
AcDbPlaceHolder
  3
ObjectDBX Classes
 90
        0
280
     0
281
     0
  0
CLASS
  1
LAYOUT
  2
AcDbLayout
  3
ObjectDBX Classes
 90
        0
280
     0
281
     0
  0
ENDSEC
  0
SECTION
  2
TABLES
  0
TABLE
  2
VPORT
  5
8
330
0
100
AcDbSymbolTable
 70
     1
  0
VPORT
  5
29
330
8
100
AcDbSymbolTableRecord
100
AcDbViewportTableRecord
  2
*Active
 70
     0
 10
0.0
 20
0.0
 11
1.0
 21
1.0
 12
420.0
 22
297.0
 13
0.0
 23
0.0
 14
10.0
 24
10.0
 15
10.0
 25
10.0
 16
0.0
 26
0.0
 36
1.0
 17
0.0
 27
0.0
 37
0.0
 40
594.0
 41
1.4141414141
 42
50.0
 43
0.0
 44
0.0
 50
0.0
 51
0.0
 71
     0
 72
  2000
 73
     1
 74
     3
 75
     0
 76
     0
 77
     0
 78
     0
281
     0
 65
     1
110
0.0
120
0.0
130
0.0
111
1.0
121
0.0
131
0.0
112
0.0
122
1.0
132
0.0
 79
     0
146
0.0
  0
ENDTAB
  0
TABLE
  2
LTYPE
  5
5
330
0
100
AcDbSymbolTable
 70
     6
  0
LTYPE
  5
14
330
5
100
AcDbSymbolTableRecord
100
AcDbLinetypeTableRecord
  2
ByBlock
 70
     0
  3

 72
    65
 73
     0
 40
0.0
  0
LTYPE
  5
15
330
5
100
AcDbSymbolTableRecord
100
AcDbLinetypeTableRecord
  2
ByLayer
 70
     0
  3

 72
    65
 73
     0
 40
0.0
  0
LTYPE
  5
16
330
5
100
AcDbSymbolTableRecord
100
AcDbLinetypeTableRecord
  2
Continuous
 70
     0
  3
Solid line
 72
    65
 73
     0
 40
0.0
  0
LTYPE
  5
3F
330
5
100
AcDbSymbolTableRecord
100
AcDbLinetypeTableRecord
  2
HIDDEN
 70
     0
  3
Hidden __ __ __ __ __ __ __ __ __ __ __ __ __ __
 72
    65
 73
     2
 40
1.905
 49
1.27
 74
     0
 49
-0.635
 74
     0
  0
LTYPE
  5
40
330
5
100
AcDbSymbolTableRecord
100
AcDbLinetypeTableRecord
  2
PHANTOM
 70
     0
  3
Phantom ______  __  __  ______  __  __  ______
 72
    65
 73
     6
 40
12.7
 49
6.35
 74
     0
 49
-1.27
 74
     0
 49
1.27
 74
     0
 49
-1.27
 74
     0
 49
1.27
 74
     0
 49
-1.27
 74
     0
  0
LTYPE
  5
41
330
5
100
AcDbSymbolTableRecord
100
AcDbLinetypeTableRecord
  2
CENTER
 70
     0
  3
Center ____ _ ____ _ ____ _ ____ _ ____ _ ____
 72
    65
 73
     4
 40
10.16
 49
6.35
 74
     0
 49
-1.27
 74
     0
 49
1.27
 74
     0
 49
-1.27
 74
     0
  0
LTYPE
  5
42
330
5
100
AcDbSymbolTableRecord
100
AcDbLinetypeTableRecord
  2
CENTERX2
 70
     0
  3
Center (2x) ________  __  ________  __  _____
 72
    65
 73
     4
 40
20.32
 49
12.7
 74
     0
 49
-2.54
 74
     0
 49
2.54
 74
     0
 49
-2.54
 74
     0
  0
LTYPE
  5
43
330
5
100
AcDbSymbolTableRecord
100
AcDbLinetypeTableRecord
  2
DOT2
 70
     0
  3
Dot (.5x) ........................................
 72
    65
 73
     2
 40
0.635
 49
0.0
 74
     0
 49
-0.635
 74
     0
  0
ENDTAB
  0
TABLE
  2
LAYER
  5
2
330
0
100
AcDbSymbolTable
 70
     1
  0
LAYER
  5
10
330
2
100
AcDbSymbolTableRecord
100
AcDbLayerTableRecord
  2
0
 70
     0
 62
     7
  6
Continuous
370
    -3
390
F
  0
ENDTAB
  0
TABLE
  2
STYLE
  5
3
330
0
100
AcDbSymbolTable
 70
     2
  0
STYLE
  5
11
330
3
100
AcDbSymbolTableRecord
100
AcDbTextStyleTableRecord
  2
Standard
 70
     0
 40
0.0
 41
1.0
 50
0.0
 71
     0
 42
2.5
  3
txt
  4
bigfont
  0
STYLE
  5
44
330
3
100
AcDbSymbolTableRecord
100
AcDbTextStyleTableRecord
  2
SLDTEXTSTYLE0
 70
     0
 40
0.0
 41
0.7
 50
0.0
 71
     0
 42
0.2
  3
TXT
  4
bigfont
  0
ENDTAB
  0
TABLE
  2
VIEW
  5
6
330
0
100
AcDbSymbolTable
 70
     0
  0
ENDTAB
  0
TABLE
  2
UCS
  5
7
330
0
100
AcDbSymbolTable
 70
     0
  0
ENDTAB
  0
TABLE
  2
APPID
  5
9
330
0
100
AcDbSymbolTable
 70
     1
  0
APPID
  5
12
330
9
100
AcDbSymbolTableRecord
100
AcDbRegAppTableRecord
  2
ACAD
 70
     0
  0
ENDTAB
  0
TABLE
  2
DIMSTYLE
  5
A
330
0
100
AcDbSymbolTable
 70
     1
100
AcDbDimStyleTable
  0
DIMSTYLE
105
27
330
A
100
AcDbSymbolTableRecord
100
AcDbDimStyleTableRecord
  2
ISO-25
 70
     0
 41
2.5
 42
0.625
 43
3.75
 44
1.25
 73
     0
 74
     0
 77
     1
 78
     8
140
2.5
141
2.5
143
0.0393700787
147
0.625
171
     3
172
     1
178
     0
271
     2
272
     2
274
     3
278
    44
283
     0
284
     8
340
11
  0
ENDTAB
  0
TABLE
  2
BLOCK_RECORD
  5
1
330
0
100
AcDbSymbolTable
 70
     1
  0
BLOCK_RECORD
  5
1F
330
1
100
AcDbSymbolTableRecord
100
AcDbBlockTableRecord
  2
*Model_Space
340
22
  0
BLOCK_RECORD
  5
1B
330
1
100
AcDbSymbolTableRecord
100
AcDbBlockTableRecord
  2
*Paper_Space
340
1E
  0
BLOCK_RECORD
  5
23
330
1
100
AcDbSymbolTableRecord
100
AcDbBlockTableRecord
  2
*Paper_Space0
340
26
  0
ENDTAB
  0
ENDSEC
  0
SECTION
  2
BLOCKS
  0
BLOCK
  5
20
330
1F
100
AcDbEntity
  8
0
100
AcDbBlockBegin
  2
*Model_Space
 70
     0
 10
0.0
 20
0.0
 30
0.0
  3
*Model_Space
  1

  0
ENDBLK
  5
21
330
1F
100
AcDbEntity
  8
0
100
AcDbBlockEnd
  0
BLOCK
  5
1C
330
1B
100
AcDbEntity
 67
     1
  8
0
100
AcDbBlockBegin
  2
*Paper_Space
 70
     0
 10
0.0
 20
0.0
 30
0.0
  3
*Paper_Space
  1

  0
ENDBLK
  5
1D
330
1B
100
AcDbEntity
 67
     1
  8
0
100
AcDbBlockEnd
  0
BLOCK
  5
24
330
23
100
AcDbEntity
  8
0
100
AcDbBlockBegin
  2
*Paper_Space0
 70
     0
 10
0.0
 20
0.0
 30
0.0
  3
*Paper_Space0
  1

  0
ENDBLK
  5
25
330
23
100
AcDbEntity
  8
0
100
AcDbBlockEnd
  0
ENDSEC
  0
SECTION
  2
ENTITIES
  0
MTEXT
  5
45
330
1F
100
AcDbEntity
  8
0
  6
Continuous
 62
     7
370
     0
100
AcDbMText
 10
167.3818471904
 20
563.9120835269
 30
0.0
 40
7.0
 41
0.0
 71
     1
 72
     1
  1
CHB-511P
  7
SLDTEXTSTYLE0
 73
     1
 44
1.0
  0
LINE
  5
46
330
1F
100
AcDbEntity
  8
0
  6
Continuous
 62
     7
370
    15
100
AcDbLine
 10
404.3819195399
 20
79.1119160638
 30
0.0
 11
404.4819212327
 21
79.1119160638
 31
0.0
  0
LINE
  5
47
330
1F
100
AcDbEntity
  8
0
  6
Continuous
 62
     7
370
    15
100
AcDbLine
 10
404.4819212327
 20
85.111913322
 30
0.0
 11
404.3819195399
 21
85.111913322
 31
0.0
  0
LINE
  5
48
330
1F
100
AcDbEntity
  8
0
  6
Continuous
 62
     7
370
    15
100
AcDbLine
 10
404.3819195399
 20
449.1119208322
 30
0.0
 11
404.4819212327
 21
449.1119208322
 31
0.0
  0
LINE
  5
49
330
1F
100
AcDbEntity
  8
0
  6
Continuous
 62
     7
370
    15
100
AcDbLine
 10
404.4819212327
 20
455.1119180904
 30
0.0
 11
404.3819195399
 21
455.1119180904
 31
0.0
  0
LINE
  5
4A
330
1F
100
AcDbEntity
  8
0
  6
Continuous
 62
     7
370
    15
100
AcDbLine
 10
404.3819195399
 20
439.1119154678
 30
0.0
 11
404.4819212327
 21
439.1119154678
 31
0.0
  0
LINE
  5
4B
330
1F
100
AcDbEntity
  8
0
  6
Continuous
 62
     7
370
    15
100
AcDbLine
 10
404.4819212327
 20
445.111912726
 30
0.0
 11
404.3819195399
 21
445.111912726
 31
0.0
  0
LINE
  5
4C
330
1F
100
AcDbEntity
  8
0
  6
Continuous
 62
     7
370
    15
100
AcDbLine
 10
404.3819195399
 20
69.1119106994
 30
0.0
 11
404.4819212327
 21
69.1119106994
 31
0.0
  0
LINE
  5
4D
330
1F
100
AcDbEntity
  8
0
  6
Continuous
 62
     7
370
    15
100
AcDbLine
 10
404.4819212327
 20
75.1119079576
 30
0.0
 11
404.3819195399
 21
75.1119079576
 31
0.0
  0
LINE
  5
4E
330
1F
100
AcDbEntity
  8
0
  6
Continuous
 62
     7
370
    15
100
AcDbLine
 10
405.6819117436
 20
88.6119129644
 30
0.0
 11
404.4819212327
 21
88.6119129644
 31
0.0
  0
LINE
  5
4F
330
1F
100
AcDbEntity
  8
0
  6
Continuous
 62
     7
370
    15
100
AcDbLine
 10
405.6819117436
 20
458.6119177328
 30
0.0
 11
404.4819212327
 21
458.6119177328
 31
0.0
  0
LINE
  5
50
330
1F
100
AcDbEntity
  8
0
  6
Continuous
 62
     7
370
    15
100
AcDbLine
 10
404.4819212327
 20
435.6119158254
 30
0.0
 11
405.6819117436
 21
435.6119158254
 31
0.0
  0
LINE
  5
51
330
1F
100
AcDbEntity
  8
0
  6
Continuous
 62
     7
370
    15
100
AcDbLine
 10
404.4819212327
 20
65.611911057
 30
0.0
 11
405.6819117436
 21
65.611911057
 31
0.0
  0
LINE
  5
52
330
1F
100
AcDbEntity
  8
0
  6
Continuous
 62
     7
370
    15
100
AcDbLine
 10
817.1819186578
 20
421.1119087921
 30
0.0
 11
817.1819186578
 21
456.1119201169
 31
0.0
  0
LINE
  5
53
330
1F
100
AcDbEntity
  8
0
  6
Continuous
 62
     7
370
    15
100
AcDbLine
 10
817.1819186578
 20
68.1119086729
 30
0.0
 11
817.1819186578
 21
103.1119199977
 31
0.0
  0
LINE
  5
54
330
1F
100
AcDbEntity
  8
0
  6
Continuous
 62
     7
370
    15
100
AcDbLine
 10
396.5771085391
 20
451.0119082914
 30
0.0
 11
396.5771085391
 21
442.4119117246
 31
0.0
  0
LINE
  5
55
330
1F
100
AcDbEntity
  8
0
  6
Continuous
 62
     7
370
    15
100
AcDbLine
 10
397.1819168696
 20
439.9119141088
 30
0.0
 11
397.1819168696
 21
439.1121687875
 31
0.0
  0
LINE
  5
56
330
1F
100
AcDbEntity
  8
0
  6
Continuous
 62
     7
370
    15
100
AcDbLine
 10
397.1819168696
 20
455.1116647707
 30
0.0
 11
397.1819168696
 21
454.3119194494
 31
0.0
  0
LINE
  5
57
330
1F
100
AcDbEntity
  8
0
  6
Continuous
 62
     7
370
    15
100
AcDbLine
 10
398.5819107661
 20
455.4119082675
 30
0.0
 11
398.5819107661
 21
455.1119180904
 31
0.0
  0
ARC
  5
58
330
1F
100
AcDbEntity
  8
0
  6
Continuous
 62
     7
370
    15
100
AcDbCircle
 10
400.7819147239
 20
452.3047715378
 30
0.0
 40
3.80714285714318
100
AcDbArc
 50
77.9663271603
 51
90.0
  0
ARC
  5
59
330
1F
100
AcDbEntity
  8
0
  6
Continuous
 62
     7
370
    15
100
AcDbCircle
 10
400.7819147239
 20
452.3047715378
 30
0.0
 40
3.807142857143242
100
AcDbArc
 50
90.0
 51
125.3002484399
  0
LINE
  5
5A
330
1F
100
AcDbEntity
  8
0
  6
Continuous
 62
     7
370
    15
100
AcDbLine
 10
398.6819124589
 20
438.7119086967
 30
0.0
 11
398.6819124589
 21
438.3119168268
 31
0.0
  0
ARC
  5
5B
330
1F
100
AcDbEntity
  8
0
  6
Continuous
 62
     7
370
    15
100
AcDbCircle
 10
398.8819147239
 20
439.1119143949
 30
0.0
 40
0.4000000000007731
100
AcDbArc
 50
270.0
 51
0.0
  0
LINE
  5
5C
330
1F
100
AcDbEntity
  8
0
  6
Continuous
 62
     7
370
    15
100
AcDbLine
 10
399.2819077144
 20
454.3119194494
 30
0.0
 11
399.2819077144
 21
453.8619192825
 31
0.0
  0
LINE
  5
5D
330
1F
100
AcDbEntity
  8
0
  6
Continuous
 62
     7
370
    15
100
AcDbLine
 10
399.2819077144
 20
440.3619142757
 30
0.0
 11
399.2819077144
 21
439.9119141088
 31
0.0
  0
SPLINE
  5
5E
330
1F
100
AcDbEntity
  8
0
  6
Continuous
 62
     7
370
    15
100
AcDbSpline
210
0.0
220
0.0
230
1.0
 70
     8
 71
     3
 72
    11
 73
     7
 74
     0
 42
0.00000001
 43
0.00000001
 40
0.0
 40
0.0
 40
0.0
 40
0.0
 40
0.2262262418928945
 40
0.4679470766254474
 40
0.7254865549910208
 40
1.0
 40
1.0
 40
1.0
 40
1.0
 10
402.0024276146877
 20
455.3423496470936
 30
0.0
 10
402.0052469055844
 20
455.3194504476473
 30
0.0
 10
402.011078585067
 20
455.2720836463942
 30
0.0
 10
402.0278695114429
 20
454.9473035185448
 30
0.0
 10
402.0414620245238
 20
454.4468045403599
 30
0.0
 10
402.0419971968267
 20
454.0229828059855
 30
0.0
 10
402.04227331972
 20
453.8043113933094
 30
0.0
  0
SPLINE
  5
5F
330
1F
100
AcDbEntity
  8
0
  6
Continuous
 62
     7
370
    15
100
AcDbSpline
210
0.0
220
0.0
230
1.0
 70
     8
 71
     3
 72
    12
 73
     8
 74
     0
 42
0.00000001
 43
0.00000001
 40
0.0
 40
0.0
 40
0.0
 40
0.0
 40
0.248946245326258
 40
0.4822936287519815
 40
0.699811415192867
 40
0.9035372363555159
 40
1.0
 40
1.0
 40
1.0
 40
1.0
 10
402.04227331972
 20
440.2456852183827
 30
0.0
 10
402.0408474526624
 20
440.1083495405609
 30
0.0
 10
402.0380850627478
 20
439.842283577899
 30
0.0
 10
402.0271841309475
 20
439.5064796546831
 30
0.0
 10
402.0246738000546
 20
439.2733020770804
 30
0.0
 10
402.029462816205
 20
439.1531882385696
 30
0.0
 10
402.0558934187027
 20
439.1518488469473
 30
0.0
 10
402.0643866429317
 20
439.1514184461125
 30
0.0
  0
LINE
  5
60
330
1F
100
AcDbEntity
  8
0
  6
Continuous
 62
     7
370
    15
100
AcDbLine
 10
402.0414239535
 20
453.8543047891
 30
0.0
 11
402.0414239535
 21
440.1956769214
 31
0.0
  0
LINE
  5
61
330
1F
100
AcDbEntity
  8
0
  6
Continuous
 62
     7
370
    15
100
AcDbLine
 10
400.5178100238
 20
457.7922048555
 30
0.0
 11
402.0051694283
 21
455.3120555864
 31
0.0
  0
LINE
  5
62
330
1F
100
AcDbEntity
  8
0
  6
Continuous
 62
     7
370
    15
100
AcDbLine
 10
404.4819212327
 20
457.0151540027
 30
0.0
 11
403.0906296144
 21
459.3351306901
 31
0.0
  0
LINE
  5
63
330
1F
100
AcDbEntity
  8
0
  6
Continuous
 62
     7
370
    15
100
AcDbLine
 10
402.069661654
 20
439.0193345533
 30
0.0
 11
400.5005842814
 21
436.4029141651
 31
0.0
  0
LINE
  5
64
330
1F
100
AcDbEntity
  8
0
  6
Continuous
 62
     7
370
    15
100
AcDbLine
 10
403.073403872
 20
434.8599883304
 30
0.0
 11
404.4819212327
 21
437.2086646543
 31
0.0
  0
LINE
  5
65
330
1F
100
AcDbEntity
  8
0
  6
Continuous
 62
     7
370
    15
100
AcDbLine
 10
403.1105226645
 20
459.299621223
 30
0.0
 11
403.0205643544
 21
459.4134064899
 31
0.0
  0
SPLINE
  5
66
330
1F
100
AcDbEntity
  8
0
  6
Continuous
 62
     7
370
    15
100
AcDbSpline
210
0.0
220
0.0
230
1.0
 70
     8
 71
     3
 72
    20
 73
    16
 74
     0
 42
0.00000001
 43
0.00000001
 40
0.0
 40
0.0
 40
0.0
 40
0.0
 40
0.0337800955033005
 40
0.1101060740967977
 40
0.1739277399875213
 40
0.225273431121625
 40
0.2665362994497256
 40
0.3037737555205526
 40
0.3388581421982815
 40
0.372639870648944
 40
0.4139173765216811
 40
0.6259814352733555
 40
0.8390272731315624
 40
0.9659457437364803
 40
1.0
 40
1.0
 40
1.0
 40
1.0
 10
402.9082543025005
 20
459.5554741607197
 30
0.0
 10
402.8675934835299
 20
459.6116575363166
 30
0.0
 10
402.7350597212742
 20
459.7947870042564
 30
0.0
 10
402.4251983357194
 20
459.9719776516769
 30
0.0
 10
402.0379353199153
 20
460.0949186846938
 30
0.0
 10
401.6680853448242
 20
460.1097329537922
 30
0.0
 10
401.3337755579589
 20
460.0591095644019
 30
0.0
 10
401.0592814699853
 20
459.9580879595919
 30
0.0
 10
400.831782144022
 20
459.8233588070329
 30
0.0
 10
400.6257504451769
 20
459.647189641073
 30
0.0
 10
400.2812240678857
 20
459.2046945283514
 30
0.0
 10
400.1001364389666
 20
458.5180158746528
 30
0.0
 10
399.9503374092778
 20
457.3371854743361
 30
0.0
 10
399.895216796394
 20
456.4325402569849
 30
0.0
 10
399.8886554583307
 20
456.0179524383753
 30
0.0
 10
399.8872673878658
 20
455.9302451596745
 30
0.0
  0
SPLINE
  5
67
330
1F
100
AcDbEntity
  8
0
  6
Continuous
 62
     7
370
    15
100
AcDbSpline
210
0.0
220
0.0
230
1.0
 70
     8
 71
     3
 72
    19
 73
    15
 74
     0
 42
0.00000001
 43
0.00000001
 40
0.0
 40
0.0
 40
0.0
 40
0.0
 40
0.0102730714165747
 40
0.1295978376680625
 40
0.3268135443202696
 40
0.5525093915006145
 40
0.5858542524929087
 40
0.6186030345588449
 40
0.6529071182181078
 40
0.6960077432926919
 40
0.7523139361176508
 40
0.8223158227889674
 40
0.9054617395681033
 40
1.0
 40
1.0
 40
1.0
 40
1.0
 10
399.8844212660778
 20
438.3119168267735
 30
0.0
 10
399.8847444755552
 20
438.2847194043145
 30
0.0
 10
399.8888218588111
 20
437.9416158671252
 30
0.0
 10
399.9285825379273
 20
437.1216306404663
 30
0.0
 10
400.0635894425637
 20
435.8992091067248
 30
0.0
 10
400.1539835188754
 20
435.255796069172
 30
0.0
 10
400.504888072296
 20
434.7157449648456
 30
0.0
 10
400.6740987652121
 20
434.5278850638103
 30
0.0
 10
400.910812354593
 20
434.3514052783123
 30
0.0
 10
401.2244444895699
 20
434.1979490363809
 30
0.0
 10
401.6279230498192
 20
434.0961407230513
 30
0.0
 10
402.1137942033081
 20
434.1193062032237
 30
0.0
 10
402.6435372157015
 20
434.3296310171762
 30
0.0
 10
402.908760701936
 20
434.6514496790434
 30
0.0
 10
403.0498749384868
 20
434.8226758227833
 30
0.0
  0
LINE
  5
68
330
1F
100
AcDbEntity
  8
0
  6
Continuous
 62
     7
370
    15
100
AcDbLine
 10
396.5771085391
 20
81.0119184242
 30
0.0
 11
396.5771085391
 21
72.4119069562
 31
0.0
  0
LINE
  5
69
330
1F
100
AcDbEntity
  8
0
  6
Continuous
 62
     7
370
    15
100
AcDbLine
 10
397.1819168696
 20
69.9119093404
 30
0.0
 11
397.1819168696
 21
69.1121640192
 31
0.0
  0
LINE
  5
6A
330
1F
100
AcDbEntity
  8
0
  6
Continuous
 62
     7
370
    15
100
AcDbLine
 10
397.1819168696
 20
85.1116600023
 30
0.0
 11
397.1819168696
 21
84.311914681
 31
0.0
  0
ARC
  5
6B
330
1F
100
AcDbEntity
  8
0
  6
Continuous
 62
     7
370
    15
100
AcDbCircle
 10
400.7819147239
 20
82.3047715378
 30
0.0
 40
3.807142857143182
100
AcDbArc
 50
77.9663271603
 51
90.0
  0
ARC
  5
6C
330
1F
100
AcDbEntity
  8
0
  6
Continuous
 62
     7
370
    15
100
AcDbCircle
 10
400.7819147239
 20
82.3047715378
 30
0.0
 40
3.807142857143277
100
AcDbArc
 50
90.0
 51
125.3002484399
  0
LINE
  5
6D
330
1F
100
AcDbEntity
  8
0
  6
Continuous
 62
     7
370
    15
100
AcDbLine
 10
398.5819107661
 20
85.4119184003
 30
0.0
 11
398.5819107661
 21
85.111913322
 31
0.0
  0
LINE
  5
6E
330
1F
100
AcDbEntity
  8
0
  6
Continuous
 62
     7
370
    15
100
AcDbLine
 10
398.6819124589
 20
68.7119188295
 30
0.0
 11
398.6819124589
 21
68.3119120584
 31
0.0
  0
ARC
  5
6F
330
1F
100
AcDbEntity
  8
0
  6
Continuous
 62
     7
370
    15
100
AcDbCircle
 10
398.8819147239
 20
69.1119143949
 30
0.0
 40
0.4000000000007731
100
AcDbArc
 50
270.0
 51
0.0
  0
LINE
  5
70
330
1F
100
AcDbEntity
  8
0
  6
Continuous
 62
     7
370
    15
100
AcDbLine
 10
399.2819077144
 20
84.311914681
 30
0.0
 11
399.2819077144
 21
83.8619145141
 31
0.0
  0
LINE
  5
71
330
1F
100
AcDbEntity
  8
0
  6
Continuous
 62
     7
370
    15
100
AcDbLine
 10
399.2819077144
 20
70.3619095073
 30
0.0
 11
399.2819077144
 21
69.9119093404
 31
0.0
  0
SPLINE
  5
72
330
1F
100
AcDbEntity
  8
0
  6
Continuous
 62
     7
370
    15
100
AcDbSpline
210
0.0
220
0.0
230
1.0
 70
     8
 71
     3
 72
    11
 73
     7
 74
     0
 42
0.00000001
 43
0.00000001
 40
0.0
 40
0.0
 40
0.0
 40
0.0
 40
0.2262262418928945
 40
0.4679470766254474
 40
0.7254865549910208
 40
1.0
 40
1.0
 40
1.0
 40
1.0
 10
402.0024276146877
 20
85.34234487872206
 30
0.0
 10
402.0052469055844
 20
85.31944567927569
 30
0.0
 10
402.011078585067
 20
85.27207887802248
 30
0.0
 10
402.0278695114429
 20
84.94729875017335
 30
0.0
 10
402.0414620245238
 20
84.44679977198832
 30
0.0
 10
402.0419971968267
 20
84.022978037614
 30
0.0
 10
402.04227331972
 20
83.80430662493788
 30
0.0
  0
SPLINE
  5
73
330
1F
100
AcDbEntity
  8
0
  6
Continuous
 62
     7
370
    15
100
AcDbSpline
210
0.0
220
0.0
230
1.0
 70
     8
 71
     3
 72
    12
 73
     8
 74
     0
 42
0.00000001
 43
0.00000001
 40
0.0
 40
0.0
 40
0.0
 40
0.0
 40
0.2489469272997727
 40
0.4822949499668513
 40
0.6998133322848473
 40
0.9035365115921212
 40
1.0
 40
1.0
 40
1.0
 40
1.0
 10
402.04227331972
 20
70.2456804500111
 30
0.0
 10
402.0408474482173
 20
70.1083445209171
 30
0.0
 10
402.0380850496913
 20
69.84227807145545
 30
0.0
 10
402.0271841780188
 20
69.50647754720993
 30
0.0
 10
402.0246736531363
 20
69.27328944970331
 30
0.0
 10
402.029463183123
 20
69.15320914663256
 30
0.0
 10
402.0558934185918
 20
69.15185032749372
 30
0.0
 10
402.0643866429317
 20
69.15141367774092
 30
0.0
  0
LINE
  5
74
330
1F
100
AcDbEntity
  8
0
  6
Continuous
 62
     7
370
    15
100
AcDbLine
 10
402.0414239535
 20
83.8543149219
 30
0.0
 11
402.0414239535
 21
70.195672153
 31
0.0
  0
LINE
  5
75
330
1F
100
AcDbEntity
  8
0
  6
Continuous
 62
     7
370
    15
100
AcDbLine
 10
400.5178100238
 20
87.7922000871
 30
0.0
 11
402.0051694283
 21
85.312050818
 31
0.0
  0
LINE
  5
76
330
1F
100
AcDbEntity
  8
0
  6
Continuous
 62
     7
370
    15
100
AcDbLine
 10
404.4819212327
 20
87.0151641355
 30
0.0
 11
403.0906296144
 21
89.3351259218
 31
0.0
  0
LINE
  5
77
330
1F
100
AcDbEntity
  8
0
  6
Continuous
 62
     7
370
    15
100
AcDbLine
 10
402.069661654
 20
69.0193297849
 30
0.0
 11
400.5005842814
 21
66.4029093967
 31
0.0
  0
LINE
  5
78
330
1F
100
AcDbEntity
  8
0
  6
Continuous
 62
     7
370
    15
100
AcDbLine
 10
403.073403872
 20
64.859983562
 30
0.0
 11
404.4819212327
 21
67.2086747871
 31
0.0
  0
LINE
  5
79
330
1F
100
AcDbEntity
  8
0
  6
Continuous
 62
     7
370
    15
100
AcDbLine
 10
403.1105226645
 20
89.2996164546
 30
0.0
 11
403.0205643544
 21
89.4134017215
 31
0.0
  0
SPLINE
  5
7A
330
1F
100
AcDbEntity
  8
0
  6
Continuous
 62
     7
370
    15
100
AcDbSpline
210
0.0
220
0.0
230
1.0
 70
     8
 71
     3
 72
    20
 73
    16
 74
     0
 42
0.00000001
 43
0.00000001
 40
0.0
 40
0.0
 40
0.0
 40
0.0
 40
0.0337801398958173
 40
0.1101062187940126
 40
0.1739279685567422
 40
0.2252737271674004
 40
0.2665363461865499
 40
0.3037745069505653
 40
0.3388589397348609
 40
0.3726407125801861
 40
0.4139182726982515
 40
0.6259826101364464
 40
0.8390271659154751
 40
0.9659476192250326
 40
0.9999999999999999
 40
0.9999999999999999
 40
0.9999999999999999
 40
0.9999999999999999
 10
402.9082543025005
 20
89.55546939234816
 30
0.0
 10
402.8675934777953
 20
89.61165279611322
 30
0.0
 10
402.7350596968475
 20
89.79478235586721
 30
0.0
 10
402.4251985704922
 20
89.97197173011514
 30
0.0
 10
402.0379346726797
 20
90.09491709550679
 30
0.0
 10
401.6680878115878
 20
90.10971956513309
 30
0.0
 10
401.3337705140689
 20
90.05912912187422
 30
0.0
 10
401.0592846948489
 20
89.95807836910197
 30
0.0
 10
400.8317816926702
 20
89.82335544203463
 30
0.0
 10
400.6257505902858
 20
89.64718442106675
 30
0.0
 10
400.2812237940853
 20
89.20469061762381
 30
0.0
 10
400.1001377988772
 20
88.5180109218753
 30
0.0
 10
399.9503357587866
 20
87.33719030233911
 30
0.0
 10
399.8952174546417
 20
86.43254460473754
 30
0.0
 10
399.888655509403
 20
86.01795752590641
 30
0.0
 10
399.8872673878658
 20
85.93025529246412
 30
0.0
  0
SPLINE
  5
7B
330
1F
100
AcDbEntity
  8
0
  6
Continuous
 62
     7
370
    15
100
AcDbSpline
210
0.0
220
0.0
230
1.0
 70
     8
 71
     3
 72
    19
 73
    15
 74
     0
 42
0.00000001
 43
0.00000001
 40
0.0
 40
0.0
 40
0.0
 40
0.0
 40
0.010273076459979
 40
0.1295979012921002
 40
0.3268137047642836
 40
0.5525084691330953
 40
0.585854644060767
 40
0.6186021527096249
 40
0.6529073708785755
 40
0.6960080171127396
 40
0.7523138145200396
 40
0.822315735557691
 40
0.9054616931560184
 40
1.0
 40
1.0
 40
1.0
 40
1.0
 10
399.8844212660778
 20
68.31191205840193
 30
0.0
 10
399.884744474418
 20
68.28471463402039
 30
0.0
 10
399.8888218433283
 20
67.94161107257717
 30
0.0
 10
399.928583855396
 20
67.12162809950104
 30
0.0
 10
400.0635806223882
 20
65.89919261967289
 30
0.0
 10
400.1540062236683
 20
65.25583150122796
 30
0.0
 10
400.5048800505202
 20
64.71573915298737
 30
0.0
 10
400.6741084555028
 20
64.52789769062348
 30
0.0
 10
400.910805808616
 20
64.35139697533063
 30
0.0
 10
401.2244442832068
 20
64.19794305723006
 30
0.0
 10
401.6279248697242
 20
64.09615672994148
 30
0.0
 10
402.1137939095452
 20
64.11931429452889
 30
0.0
 10
402.6435373069209
 20
64.32964178388804
 30
0.0
 10
402.9087607336149
 20
64.65146003198349
 30
0.0
 10
403.0498749384868
 20
64.82268595557295
 30
0.0
  0
LINE
  5
7C
330
1F
100
AcDbEntity
  8
0
  6
Continuous
 62
     7
370
    15
100
AcDbLine
 10
817.1819186578
 20
32.1119102226
 30
0.0
 11
817.1819186578
 21
67.1119215475
 31
0.0
  0
LINE
  5
7D
330
1F
100
AcDbEntity
  8
0
  6
Continuous
 62
     7
370
    15
100
AcDbLine
 10
817.1819186578
 20
457.1119072423
 30
0.0
 11
817.1819186578
 21
492.1119185672
 31
0.0
  0
LINE
  5
7E
330
1F
100
AcDbEntity
  8
0
  6
Continuous
 62
     7
370
    15
100
AcDbLine
 10
814.1819125781
 20
67.1119215475
 30
0.0
 11
814.1819125781
 21
68.1119086729
 31
0.0
  0
LINE
  5
7F
330
1F
100
AcDbEntity
  8
0
  6
Continuous
 62
     7
370
    15
100
AcDbLine
 10
814.1819125781
 20
103.1119199977
 30
0.0
 11
814.1819125781
 21
104.1119071231
 31
0.0
  0
LINE
  5
80
330
1F
100
AcDbEntity
  8
0
  6
Continuous
 62
     7
370
    15
100
AcDbLine
 10
809.1819173465
 20
104.1119071231
 30
0.0
 11
809.1819173465
 21
103.1119199977
 31
0.0
  0
LINE
  5
81
330
1F
100
AcDbEntity
  8
0
  6
Continuous
 62
     7
370
    15
100
AcDbLine
 10
809.1819173465
 20
68.1119086729
 30
0.0
 11
809.1819173465
 21
67.1119215475
 31
0.0
  0
LINE
  5
82
330
1F
100
AcDbEntity
  8
0
  6
Continuous
 62
     7
370
    15
100
AcDbLine
 10
809.1819173465
 20
457.1119072423
 30
0.0
 11
809.1819173465
 21
456.1119201169
 31
0.0
  0
LINE
  5
83
330
1F
100
AcDbEntity
  8
0
  6
Continuous
 62
     7
370
    15
100
AcDbLine
 10
809.1819173465
 20
421.1119087921
 30
0.0
 11
809.1819173465
 21
420.1119216667
 31
0.0
  0
LINE
  5
84
330
1F
100
AcDbEntity
  8
0
  6
Continuous
 62
     7
370
    15
100
AcDbLine
 10
814.1819125781
 20
420.1119216667
 30
0.0
 11
814.1819125781
 21
421.1119087921
 31
0.0
  0
LINE
  5
85
330
1F
100
AcDbEntity
  8
0
  6
Continuous
 62
     7
370
    15
100
AcDbLine
 10
814.1819125781
 20
456.1119201169
 30
0.0
 11
814.1819125781
 21
457.1119072423
 31
0.0
  0
LINE
  5
86
330
1F
100
AcDbEntity
  8
0
  6
Continuous
 62
     7
370
    15
100
AcDbLine
 10
397.3819202552
 20
70.6547322259
 30
0.0
 11
397.3819202552
 21
70.3619095073
 31
0.0
  0
LINE
  5
87
330
1F
100
AcDbEntity
  8
0
  6
Continuous
 62
     7
370
    15
100
AcDbLine
 10
397.3819202552
 20
83.8619145141
 30
0.0
 11
397.3819202552
 21
83.5691066967
 31
0.0
  0
LINE
  5
88
330
1F
100
AcDbEntity
  8
0
  6
Continuous
 62
     7
370
    15
100
AcDbLine
 10
397.3819202552
 20
440.6547220932
 30
0.0
 11
397.3819202552
 21
440.3619142757
 31
0.0
  0
LINE
  5
89
330
1F
100
AcDbEntity
  8
0
  6
Continuous
 62
     7
370
    15
100
AcDbLine
 10
397.3819202552
 20
453.8619192825
 30
0.0
 11
397.3819202552
 21
453.5690965639
 31
0.0
  0
ARC
  5
8A
330
1F
100
AcDbEntity
  8
0
  6
Continuous
 62
     7
370
    15
100
AcDbCircle
 10
420.6819147239
 20
27.1119143949
 30
0.0
 40
15.00000000000001
100
AcDbArc
 50
180.0
 51
270.0
  0
LINE
  5
8B
330
1F
100
AcDbEntity
  8
0
  6
Continuous
 62
     7
370
    15
100
AcDbLine
 10
405.6819117436
 20
27.111914991
 30
0.0
 11
420.6819123397
 21
27.111914991
 31
0.0
  0
LINE
  5
8C
330
1F
100
AcDbEntity
  8
0
  6
Continuous
 62
     7
370
    15
100
AcDbLine
 10
420.6819123397
 20
12.1119143949
 30
0.0
 11
420.6819123397
 21
27.111914991
 31
0.0
  0
LINE
  5
8D
330
1F
100
AcDbEntity
  8
0
  6
Continuous
 62
     7
370
    15
100
AcDbLine
 10
420.6819123397
 20
497.1119137989
 30
0.0
 11
420.6819123397
 21
512.1119143949
 31
0.0
  0
LINE
  5
8E
330
1F
100
AcDbEntity
  8
0
  6
Continuous
 62
     7
370
    15
100
AcDbLine
 10
420.6819123397
 20
512.1119143949
 30
0.0
 11
790.6819171081
 21
512.1119143949
 31
0.0
  0
LINE
  5
8F
330
1F
100
AcDbEntity
  8
0
  6
Continuous
 62
     7
370
    15
100
AcDbLine
 10
790.6819171081
 20
512.1119143949
 30
0.0
 11
790.6819171081
 21
497.1119137989
 31
0.0
  0
LINE
  5
90
330
1F
100
AcDbEntity
  8
0
  6
Continuous
 62
     7
370
    15
100
AcDbLine
 10
420.6819123397
 20
497.1119137989
 30
0.0
 11
790.6819171081
 21
497.1119137989
 31
0.0
  0
LINE
  5
91
330
1F
100
AcDbEntity
  8
0
  6
Continuous
 62
     7
370
    15
100
AcDbLine
 10
420.6819123397
 20
12.1119143949
 30
0.0
 11
790.6819171081
 21
12.1119143949
 31
0.0
  0
LINE
  5
92
330
1F
100
AcDbEntity
  8
0
  6
Continuous
 62
     7
370
    15
100
AcDbLine
 10
420.6819123397
 20
27.111914991
 30
0.0
 11
790.6819171081
 21
27.111914991
 31
0.0
  0
LINE
  5
93
330
1F
100
AcDbEntity
  8
0
  6
Continuous
 62
     7
370
    15
100
AcDbLine
 10
790.6819171081
 20
27.111914991
 30
0.0
 11
790.6819171081
 21
12.1119143949
 31
0.0
  0
LINE
  5
94
330
1F
100
AcDbEntity
  8
0
  6
Continuous
 62
     7
370
    15
100
AcDbLine
 10
420.6819123397
 20
27.111914991
 30
0.0
 11
420.6819123397
 21
497.1119137989
 31
0.0
  0
LINE
  5
95
330
1F
100
AcDbEntity
  8
0
  6
Continuous
 62
     7
370
    15
100
AcDbLine
 10
405.6819117436
 20
27.111914991
 30
0.0
 11
405.6819117436
 21
67.1244236217
 31
0.0
  0
LINE
  5
96
330
1F
100
AcDbEntity
  8
0
  6
Continuous
 62
     7
370
    15
100
AcDbLine
 10
405.6819117436
 20
87.0994003997
 30
0.0
 11
405.6819117436
 21
437.1244283901
 31
0.0
  0
LINE
  5
97
330
1F
100
AcDbEntity
  8
0
  6
Continuous
 62
     7
370
    15
100
AcDbLine
 10
405.6819117436
 20
457.0994051681
 30
0.0
 11
405.6819117436
 21
497.1119137989
 31
0.0
  0
LINE
  5
98
330
1F
100
AcDbEntity
  8
0
  6
Continuous
 62
     7
370
    15
100
AcDbLine
 10
405.6819117436
 20
497.1119137989
 30
0.0
 11
420.6819123397
 21
497.1119137989
 31
0.0
  0
LINE
  5
99
330
1F
100
AcDbEntity
  8
0
  6
Continuous
 62
     7
370
    15
100
AcDbLine
 10
425.6819075713
 20
32.1119102226
 30
0.0
 11
425.6819075713
 21
492.1119185672
 31
0.0
  0
LINE
  5
9A
330
1F
100
AcDbEntity
  8
0
  6
Continuous
 62
     7
370
    15
100
AcDbLine
 10
785.6819218764
 20
32.1119102226
 30
0.0
 11
785.6819218764
 21
492.1119185672
 31
0.0
  0
LINE
  5
9B
330
1F
100
AcDbEntity
  8
0
  6
Continuous
 62
     7
370
    15
100
AcDbLine
 10
425.6819075713
 20
492.1119185672
 30
0.0
 11
785.6819218764
 21
492.1119185672
 31
0.0
  0
LINE
  5
9C
330
1F
100
AcDbEntity
  8
0
  6
Continuous
 62
     7
370
    15
100
AcDbLine
 10
790.6819171081
 20
27.111914991
 30
0.0
 11
790.6819171081
 21
497.1119137989
 31
0.0
  0
LINE
  5
9D
330
1F
100
AcDbEntity
  8
0
  6
Continuous
 62
     7
370
    15
100
AcDbLine
 10
785.6819218764
 20
32.1119102226
 30
0.0
 11
425.6819075713
 21
32.1119102226
 31
0.0
  0
ARC
  5
9E
330
1F
100
AcDbEntity
  8
0
  6
Continuous
 62
     7
370
    15
100
AcDbCircle
 10
420.6819147239
 20
497.1119143949
 30
0.0
 40
15.00000000000006
100
AcDbArc
 50
90.0
 51
180.0
  0
LINE
  5
9F
330
1F
100
AcDbEntity
  8
0
  6
Continuous
 62
     7
370
    15
100
AcDbLine
 10
805.6819177041
 20
497.1119137989
 30
0.0
 11
790.6819171081
 21
497.1119137989
 31
0.0
  0
LINE
  5
A0
330
1F
100
AcDbEntity
  8
0
  6
Continuous
 62
     7
370
    15
100
AcDbLine
 10
805.6819177041
 20
27.111914991
 30
0.0
 11
805.6819177041
 21
497.1119137989
 31
0.0
  0
LINE
  5
A1
330
1F
100
AcDbEntity
  8
0
  6
Continuous
 62
     7
370
    15
100
AcDbLine
 10
790.6819171081
 20
27.111914991
 30
0.0
 11
805.6819177041
 21
27.111914991
 31
0.0
  0
ARC
  5
A2
330
1F
100
AcDbEntity
  8
0
  6
Continuous
 62
     7
370
    15
100
AcDbCircle
 10
790.6819147239
 20
497.1119143949
 30
0.0
 40
15.0
100
AcDbArc
 50
0.0
 51
90.0
  0
ARC
  5
A3
330
1F
100
AcDbEntity
  8
0
  6
Continuous
 62
     7
370
    15
100
AcDbCircle
 10
790.6819147239
 20
27.1119143949
 30
0.0
 40
15.0
100
AcDbArc
 50
270.0
 51
0.0
  0
LINE
  5
A4
330
1F
100
AcDbEntity
  8
0
  6
Continuous
 62
     7
370
    15
100
AcDbLine
 10
404.4819212327
 20
88.1464006887
 30
0.0
 11
405.6819117436
 21
88.1464006887
 31
0.0
  0
LINE
  5
A5
330
1F
100
AcDbEntity
  8
0
  6
Continuous
 62
     7
370
    15
100
AcDbLine
 10
405.6819117436
 20
87.0994003997
 30
0.0
 11
405.6819117436
 21
67.1244236217
 31
0.0
  0
LINE
  5
A6
330
1F
100
AcDbEntity
  8
0
  6
Continuous
 62
     7
370
    15
100
AcDbLine
 10
404.4819212327
 20
66.0774382339
 30
0.0
 11
405.6819117436
 21
66.0774382339
 31
0.0
  0
LINE
  5
A7
330
1F
100
AcDbEntity
  8
0
  6
Continuous
 62
     7
370
    15
100
AcDbLine
 10
404.4819212327
 20
66.0774382339
 30
0.0
 11
404.4819212327
 21
88.1464006887
 31
0.0
  0
LINE
  5
A8
330
1F
100
AcDbEntity
  8
0
  6
Continuous
 62
     7
370
    15
100
AcDbLine
 10
404.4819212327
 20
458.1463905559
 30
0.0
 11
405.6819117436
 21
458.1463905559
 31
0.0
  0
LINE
  5
A9
330
1F
100
AcDbEntity
  8
0
  6
Continuous
 62
     7
370
    15
100
AcDbLine
 10
404.4819212327
 20
436.0774281011
 30
0.0
 11
405.6819117436
 21
436.0774281011
 31
0.0
  0
LINE
  5
AA
330
1F
100
AcDbEntity
  8
0
  6
Continuous
 62
     7
370
    15
100
AcDbLine
 10
405.6819117436
 20
457.0994051681
 30
0.0
 11
405.6819117436
 21
437.1244283901
 31
0.0
  0
LINE
  5
AB
330
1F
100
AcDbEntity
  8
0
  6
Continuous
 62
     7
370
    15
100
AcDbLine
 10
404.4819212327
 20
436.0774281011
 30
0.0
 11
404.4819212327
 21
458.1463905559
 31
0.0
  0
LINE
  5
AC
330
1F
100
AcDbEntity
  8
0
  6
Continuous
 62
     7
370
    15
100
AcDbLine
 10
404.3819195399
 20
82.1119072423
 30
0.0
 11
404.3819195399
 21
85.111913322
 31
0.0
  0
LINE
  5
AD
330
1F
100
AcDbEntity
  8
0
  6
Continuous
 62
     7
370
    15
100
AcDbLine
 10
404.3819195399
 20
79.1119160638
 30
0.0
 11
404.3819195399
 21
82.1119072423
 31
0.0
  0
LINE
  5
AE
330
1F
100
AcDbEntity
  8
0
  6
Continuous
 62
     7
370
    15
100
AcDbLine
 10
404.3819195399
 20
452.1119120107
 30
0.0
 11
404.3819195399
 21
455.1119180904
 31
0.0
  0
LINE
  5
AF
330
1F
100
AcDbEntity
  8
0
  6
Continuous
 62
     7
370
    15
100
AcDbLine
 10
404.3819195399
 20
449.1119208322
 30
0.0
 11
404.3819195399
 21
452.1119120107
 31
0.0
  0
LINE
  5
B0
330
1F
100
AcDbEntity
  8
0
  6
Continuous
 62
     7
370
    15
100
AcDbLine
 10
404.3819195399
 20
439.1119154678
 30
0.0
 11
404.3819195399
 21
445.111912726
 31
0.0
  0
LINE
  5
B1
330
1F
100
AcDbEntity
  8
0
  6
Continuous
 62
     7
370
    15
100
AcDbLine
 10
404.3819195399
 20
69.1119106994
 30
0.0
 11
404.3819195399
 21
75.1119079576
 31
0.0
  0
LINE
  5
B2
330
1F
100
AcDbEntity
  8
0
  6
Continuous
 62
     7
370
    15
100
AcDbLine
 10
404.4819212327
 20
88.1464006887
 30
0.0
 11
404.4819212327
 21
88.6119129644
 31
0.0
  0
LINE
  5
B3
330
1F
100
AcDbEntity
  8
0
  6
Continuous
 62
     7
370
    15
100
AcDbLine
 10
404.4819212327
 20
458.1463905559
 30
0.0
 11
404.4819212327
 21
458.6119177328
 31
0.0
  0
LINE
  5
B4
330
1F
100
AcDbEntity
  8
0
  6
Continuous
 62
     7
370
    15
100
AcDbLine
 10
404.4819212327
 20
435.6119158254
 30
0.0
 11
404.4819212327
 21
436.0774281011
 31
0.0
  0
LINE
  5
B5
330
1F
100
AcDbEntity
  8
0
  6
Continuous
 62
     7
370
    15
100
AcDbLine
 10
404.4819212327
 20
65.611911057
 30
0.0
 11
404.4819212327
 21
66.0774382339
 31
0.0
  0
LINE
  5
B6
330
1F
100
AcDbEntity
  8
0
  6
Continuous
 62
     7
370
    15
100
AcDbLine
 10
806.5832740436
 20
456.1119201169
 30
0.0
 11
806.5832740436
 21
421.1119087921
 31
0.0
  0
LINE
  5
B7
330
1F
100
AcDbEntity
  8
0
  6
Continuous
 62
     7
370
    15
100
AcDbLine
 10
806.5832740436
 20
421.1119087921
 30
0.0
 11
817.1819186578
 21
421.1119087921
 31
0.0
  0
LINE
  5
B8
330
1F
100
AcDbEntity
  8
0
  6
Continuous
 62
     7
370
    15
100
AcDbLine
 10
806.5832740436
 20
456.1119201169
 30
0.0
 11
817.1819186578
 21
456.1119201169
 31
0.0
  0
LINE
  5
B9
330
1F
100
AcDbEntity
  8
0
  6
Continuous
 62
     7
370
    15
100
AcDbLine
 10
806.5832740436
 20
103.1119199977
 30
0.0
 11
806.5832740436
 21
68.1119086729
 31
0.0
  0
LINE
  5
BA
330
1F
100
AcDbEntity
  8
0
  6
Continuous
 62
     7
370
    15
100
AcDbLine
 10
806.5832740436
 20
103.1119199977
 30
0.0
 11
817.1819186578
 21
103.1119199977
 31
0.0
  0
LINE
  5
BB
330
1F
100
AcDbEntity
  8
0
  6
Continuous
 62
     7
370
    15
100
AcDbLine
 10
806.5832740436
 20
68.1119086729
 30
0.0
 11
817.1819186578
 21
68.1119086729
 31
0.0
  0
LINE
  5
BC
330
1F
100
AcDbEntity
  8
0
  6
Continuous
 62
     7
370
    15
100
AcDbLine
 10
806.1197585235
 20
456.1119201169
 30
0.0
 11
806.1197585235
 21
421.1119087921
 31
0.0
  0
LINE
  5
BD
330
1F
100
AcDbEntity
  8
0
  6
Continuous
 62
     7
370
    15
100
AcDbLine
 10
806.1197585235
 20
421.1119087921
 30
0.0
 11
806.5832740436
 21
421.1119087921
 31
0.0
  0
LINE
  5
BE
330
1F
100
AcDbEntity
  8
0
  6
Continuous
 62
     7
370
    15
100
AcDbLine
 10
806.1197585235
 20
456.1119201169
 30
0.0
 11
806.5832740436
 21
456.1119201169
 31
0.0
  0
LINE
  5
BF
330
1F
100
AcDbEntity
  8
0
  6
Continuous
 62
     7
370
    15
100
AcDbLine
 10
806.1197585235
 20
103.1119199977
 30
0.0
 11
806.1197585235
 21
68.1119086729
 31
0.0
  0
LINE
  5
C0
330
1F
100
AcDbEntity
  8
0
  6
Continuous
 62
     7
370
    15
100
AcDbLine
 10
806.1197585235
 20
103.1119199977
 30
0.0
 11
806.5832740436
 21
103.1119199977
 31
0.0
  0
LINE
  5
C1
330
1F
100
AcDbEntity
  8
0
  6
Continuous
 62
     7
370
    15
100
AcDbLine
 10
806.1197585235
 20
68.1119086729
 30
0.0
 11
806.5832740436
 21
68.1119086729
 31
0.0
  0
LINE
  5
C2
330
1F
100
AcDbEntity
  8
0
  6
Continuous
 62
     7
370
    15
100
AcDbLine
 10
805.6819177041
 20
421.1119087921
 30
0.0
 11
806.1197585235
 21
421.1119087921
 31
0.0
  0
LINE
  5
C3
330
1F
100
AcDbEntity
  8
0
  6
Continuous
 62
     7
370
    15
100
AcDbLine
 10
805.6819177041
 20
456.1119201169
 30
0.0
 11
806.1197585235
 21
456.1119201169
 31
0.0
  0
LINE
  5
C4
330
1F
100
AcDbEntity
  8
0
  6
Continuous
 62
     7
370
    15
100
AcDbLine
 10
805.6819177041
 20
103.1119199977
 30
0.0
 11
806.1197585235
 21
103.1119199977
 31
0.0
  0
LINE
  5
C5
330
1F
100
AcDbEntity
  8
0
  6
Continuous
 62
     7
370
    15
100
AcDbLine
 10
805.6819177041
 20
68.1119086729
 30
0.0
 11
806.1197585235
 21
68.1119086729
 31
0.0
  0
ARC
  5
C6
330
1F
100
AcDbEntity
  8
0
  6
Continuous
 62
     7
370
    15
100
AcDbCircle
 10
398.504598726
 20
82.523080325
 30
0.0
 40
1.097818878412345
100
AcDbArc
 50
97.334027639
 51
185.8118817723
  0
LINE
  5
C7
330
1F
100
AcDbEntity
  8
0
  6
Continuous
 62
     7
370
    15
100
AcDbLine
 10
398.3644581208
 20
83.6119177328
 30
0.0
 11
401.9078946481
 21
83.6119177328
 31
0.0
  0
LINE
  5
C8
330
1F
100
AcDbEntity
  8
0
  6
Continuous
 62
     7
370
    15
100
AcDbLine
 10
401.9078946481
 20
83.6119177328
 30
0.0
 11
401.9078946481
 21
70.6119211898
 31
0.0
  0
LINE
  5
C9
330
1F
100
AcDbEntity
  8
0
  6
Continuous
 62
     7
370
    15
100
AcDbLine
 10
401.9078946481
 20
70.6119211898
 30
0.0
 11
398.3644581208
 21
70.6119211898
 31
0.0
  0
ARC
  5
CA
330
1F
100
AcDbEntity
  8
0
  6
Continuous
 62
     7
370
    15
100
AcDbCircle
 10
398.5045813229
 20
71.7007434102
 30
0.0
 40
1.097801593831381
100
AcDbArc
 50
174.1880113907
 51
262.6667720331
  0
LINE
  5
CB
330
1F
100
AcDbEntity
  8
0
  6
Continuous
 62
     7
370
    15
100
AcDbLine
 10
397.4124229321
 20
82.4119123207
 30
0.0
 11
397.4124229321
 21
71.8119117008
 31
0.0
  0
LINE
  5
CC
330
1F
100
AcDbEntity
  8
0
  6
Continuous
 62
     7
370
    15
100
AcDbLine
 10
397.4124229321
 20
82.4119123207
 30
0.0
 11
396.6819084058
 21
82.4119123207
 31
0.0
  0
LINE
  5
CD
330
1F
100
AcDbEntity
  8
0
  6
Continuous
 62
     7
370
    15
100
AcDbLine
 10
396.6819084058
 20
71.8119117008
 30
0.0
 11
397.4124229321
 21
71.8119117008
 31
0.0
  0
LINE
  5
CE
330
1F
100
AcDbEntity
  8
0
  6
Continuous
 62
     7
370
    15
100
AcDbLine
 10
396.6819084058
 20
82.4119123207
 30
0.0
 11
396.6819084058
 21
71.8119117008
 31
0.0
  0
ARC
  5
CF
330
1F
100
AcDbEntity
  8
0
  6
Continuous
 62
     7
370
    15
100
AcDbCircle
 10
398.5045813229
 20
452.5230853796
 30
0.0
 40
1.097801593831361
100
AcDbArc
 50
97.3332279669
 51
185.8119886093
  0
LINE
  5
D0
330
1F
100
AcDbEntity
  8
0
  6
Continuous
 62
     7
370
    15
100
AcDbLine
 10
398.3644581208
 20
453.6119076
 30
0.0
 11
401.9078946481
 21
453.6119076
 31
0.0
  0
LINE
  5
D1
330
1F
100
AcDbEntity
  8
0
  6
Continuous
 62
     7
370
    15
100
AcDbLine
 10
401.9078946481
 20
453.6119076
 30
0.0
 11
401.9078946481
 21
440.611911057
 31
0.0
  0
LINE
  5
D2
330
1F
100
AcDbEntity
  8
0
  6
Continuous
 62
     7
370
    15
100
AcDbLine
 10
401.9078946481
 20
440.611911057
 30
0.0
 11
398.3644581208
 21
440.611911057
 31
0.0
  0
ARC
  5
D3
330
1F
100
AcDbEntity
  8
0
  6
Continuous
 62
     7
370
    15
100
AcDbCircle
 10
398.504598726
 20
441.7007484648
 30
0.0
 40
1.09781887841235
100
AcDbArc
 50
174.1881182276
 51
262.665972361
  0
LINE
  5
D4
330
1F
100
AcDbEntity
  8
0
  6
Continuous
 62
     7
370
    15
100
AcDbLine
 10
397.4124229321
 20
452.411917089
 30
0.0
 11
397.4124229321
 21
441.8119164691
 31
0.0
  0
LINE
  5
D5
330
1F
100
AcDbEntity
  8
0
  6
Continuous
 62
     7
370
    15
100
AcDbLine
 10
397.6339435945
 20
83.6119177328
 30
0.0
 11
398.3644581208
 21
83.6119177328
 31
0.0
  0
ARC
  5
D6
330
1F
100
AcDbEntity
  8
0
  6
Continuous
 62
     7
370
    15
100
AcDbCircle
 10
397.7740841996
 20
82.523080325
 30
0.0
 40
1.097818878412345
100
AcDbArc
 50
97.334027639
 51
185.8118817723
  0
LINE
  5
D7
330
1F
100
AcDbEntity
  8
0
  6
Continuous
 62
     7
370
    15
100
AcDbLine
 10
397.6339435945
 20
453.6119076
 30
0.0
 11
398.3644581208
 21
453.6119076
 31
0.0
  0
LINE
  5
D8
330
1F
100
AcDbEntity
  8
0
  6
Continuous
 62
     7
370
    15
100
AcDbLine
 10
397.4124229321
 20
452.411917089
 30
0.0
 11
396.6819084058
 21
452.411917089
 31
0.0
  0
ARC
  5
D9
330
1F
100
AcDbEntity
  8
0
  6
Continuous
 62
     7
370
    15
100
AcDbCircle
 10
397.7740667966
 20
452.5230853796
 30
0.0
 40
1.097801593831361
100
AcDbArc
 50
97.3332279669
 51
185.8119886093
  0
LINE
  5
DA
330
1F
100
AcDbEntity
  8
0
  6
Continuous
 62
     7
370
    15
100
AcDbLine
 10
396.6819084058
 20
441.8119164691
 30
0.0
 11
397.4124229321
 21
441.8119164691
 31
0.0
  0
LINE
  5
DB
330
1F
100
AcDbEntity
  8
0
  6
Continuous
 62
     7
370
    15
100
AcDbLine
 10
396.6819084058
 20
452.411917089
 30
0.0
 11
396.6819084058
 21
441.8119164691
 31
0.0
  0
LINE
  5
DC
330
1F
100
AcDbEntity
  8
0
  6
Continuous
 62
     7
370
    15
100
AcDbLine
 10
398.3644581208
 20
440.611911057
 30
0.0
 11
397.6339435945
 21
440.611911057
 31
0.0
  0
ARC
  5
DD
330
1F
100
AcDbEntity
  8
0
  6
Continuous
 62
     7
370
    15
100
AcDbCircle
 10
397.7740841996
 20
441.7007484648
 30
0.0
 40
1.09781887841235
100
AcDbArc
 50
174.1881182276
 51
262.665972361
  0
LINE
  5
DE
330
1F
100
AcDbEntity
  8
0
  6
Continuous
 62
     7
370
    15
100
AcDbLine
 10
398.3644581208
 20
70.6119211898
 30
0.0
 11
397.6339435945
 21
70.6119211898
 31
0.0
  0
ARC
  5
DF
330
1F
100
AcDbEntity
  8
0
  6
Continuous
 62
     7
370
    15
100
AcDbCircle
 10
397.7740667966
 20
71.7007434102
 30
0.0
 40
1.097801593831381
100
AcDbArc
 50
174.1880113907
 51
262.6667720331
  0
LINE
  5
E0
330
1F
100
AcDbEntity
  8
0
  6
Continuous
 62
     7
370
    15
100
AcDbLine
 10
401.9894338021
 20
453.6119076
 30
0.0
 11
401.9078946481
 21
453.6119076
 31
0.0
  0
LINE
  5
E1
330
1F
100
AcDbEntity
  8
0
  6
Continuous
 62
     7
370
    15
100
AcDbLine
 10
401.9078946481
 20
440.611911057
 30
0.0
 11
402.0414239535
 21
440.611911057
 31
0.0
  0
LINE
  5
E2
330
1F
100
AcDbEntity
  8
0
  6
Continuous
 62
     7
370
    15
100
AcDbLine
 10
401.9894338021
 20
83.6119177328
 30
0.0
 11
401.9078946481
 21
83.6119177328
 31
0.0
  0
LINE
  5
E3
330
1F
100
AcDbEntity
  8
0
  6
Continuous
 62
     7
370
    15
100
AcDbLine
 10
401.9078946481
 20
70.6119211898
 30
0.0
 11
402.0414239535
 21
70.6119211898
 31
0.0
  0
LINE
  5
E4
330
1F
100
AcDbEntity
  8
0
  6
Continuous
 62
     7
370
    15
100
AcDbLine
 10
396.6819084058
 20
451.0119082914
 30
0.0
 11
396.5771085391
 21
451.0119082914
 31
0.0
  0
LINE
  5
E5
330
1F
100
AcDbEntity
  8
0
  6
Continuous
 62
     7
370
    15
100
AcDbLine
 10
396.6819084058
 20
442.4119117246
 30
0.0
 11
396.5771085391
 21
442.4119117246
 31
0.0
  0
LINE
  5
E6
330
1F
100
AcDbEntity
  8
0
  6
Continuous
 62
     7
370
    15
100
AcDbLine
 10
402.056071795
 20
439.1119154678
 30
0.0
 11
397.1825129161
 21
439.1119154678
 31
0.0
  0
LINE
  5
E7
330
1F
100
AcDbEntity
  8
0
  6
Continuous
 62
     7
370
    15
100
AcDbLine
 10
402.0478016505
 20
439.9119141088
 30
0.0
 11
397.1819168696
 21
439.9119141088
 31
0.0
  0
LINE
  5
E8
330
1F
100
AcDbEntity
  8
0
  6
Continuous
 62
     7
370
    15
100
AcDbLine
 10
402.050066627
 20
454.3119194494
 30
0.0
 11
397.1819168696
 21
454.3119194494
 31
0.0
  0
LINE
  5
E9
330
1F
100
AcDbEntity
  8
0
  6
Continuous
 62
     7
370
    15
100
AcDbLine
 10
402.0103848348
 20
455.1119180904
 30
0.0
 11
397.1825129161
 21
455.1119180904
 31
0.0
  0
LINE
  5
EA
330
1F
100
AcDbEntity
  8
0
  6
Continuous
 62
     7
370
    15
100
AcDbLine
 10
400.7819182048
 20
455.4119082675
 30
0.0
 11
401.9452667603
 21
455.4119082675
 31
0.0
  0
LINE
  5
EB
330
1F
100
AcDbEntity
  8
0
  6
Continuous
 62
     7
370
    15
100
AcDbLine
 10
402.1084195743
 20
455.4119082675
 30
0.0
 11
402.1707660327
 21
455.4119082675
 31
0.0
  0
LINE
  5
EC
330
1F
100
AcDbEntity
  8
0
  6
Continuous
 62
     7
370
    15
100
AcDbLine
 10
398.5819107661
 20
455.4119082675
 30
0.0
 11
400.7819182048
 21
455.4119082675
 31
0.0
  0
LINE
  5
ED
330
1F
100
AcDbEntity
  8
0
  6
Continuous
 62
     7
370
    15
100
AcDbLine
 10
400.7819182048
 20
438.7119086967
 30
0.0
 11
401.8853044877
 21
438.7119086967
 31
0.0
  0
LINE
  5
EE
330
1F
100
AcDbEntity
  8
0
  6
Continuous
 62
     7
370
    15
100
AcDbLine
 10
398.6819124589
 20
438.7119086967
 30
0.0
 11
400.7819182048
 21
438.7119086967
 31
0.0
  0
LINE
  5
EF
330
1F
100
AcDbEntity
  8
0
  6
Continuous
 62
     7
370
    15
100
AcDbLine
 10
400.7819182048
 20
438.3119168268
 30
0.0
 11
401.6454255948
 21
438.3119168268
 31
0.0
  0
LINE
  5
F0
330
1F
100
AcDbEntity
  8
0
  6
Continuous
 62
     7
370
    15
100
AcDbLine
 10
398.6819124589
 20
438.3119168268
 30
0.0
 11
400.7819182048
 21
438.3119168268
 31
0.0
  0
ARC
  5
F1
330
1F
100
AcDbEntity
  8
0
  6
Continuous
 62
     7
370
    15
100
AcDbCircle
 10
397.6476496401
 20
454.3141742379
 30
0.0
 40
0.802695895376158
100
AcDbArc
 50
125.4653655412
 51
180.1609451829
  0
ARC
  5
F2
330
1F
100
AcDbEntity
  8
0
  6
Continuous
 62
     7
370
    15
100
AcDbCircle
 10
397.6476614856
 20
439.9096505547
 30
0.0
 40
0.802707765506467
100
AcDbArc
 50
179.8384315232
 51
234.5341999199
  0
LINE
  5
F3
330
1F
100
AcDbEntity
  8
0
  6
Continuous
 62
     7
370
    15
100
AcDbLine
 10
397.632796205
 20
440.3619142757
 30
0.0
 11
397.632796205
 21
439.9119141088
 31
0.0
  0
LINE
  5
F4
330
1F
100
AcDbEntity
  8
0
  6
Continuous
 62
     7
370
    15
100
AcDbLine
 10
397.632796205
 20
454.3119194494
 30
0.0
 11
397.632796205
 21
453.8619192825
 31
0.0
  0
LINE
  5
F5
330
1F
100
AcDbEntity
  8
0
  6
Continuous
 62
     7
370
    15
100
AcDbLine
 10
396.8449569116
 20
439.9119141088
 30
0.0
 11
396.8449569116
 21
441.1403509365
 31
0.0
  0
LINE
  5
F6
330
1F
100
AcDbEntity
  8
0
  6
Continuous
 62
     7
370
    15
100
AcDbLine
 10
396.8449569116
 20
453.0834677206
 30
0.0
 11
396.8449569116
 21
454.3119194494
 31
0.0
  0
SPLINE
  5
F7
330
1F
100
AcDbEntity
  8
0
  6
Continuous
 62
     7
370
    15
100
AcDbSpline
210
0.0
220
0.0
230
1.0
 70
    24
 71
     3
 72
    12
 73
     8
 74
     0
 42
0.00000001
 43
0.00000001
 40
0.0
 40
0.0
 40
0.0
 40
0.0
 40
0.21850475705506
 40
0.4370160926338405
 40
0.655518294428951
 40
0.8740298516726993
 40
1.0
 40
1.0
 40
1.0
 40
1.0
 10
403.8412607083309
 20
453.8043113933094
 30
0.0
 10
403.6445410125624
 20
453.8043113933094
 30
0.0
 10
403.2510956983848
 20
453.8043113933094
 30
0.0
 10
402.6903400936296
 20
453.8043113933093
 30
0.0
 10
402.2726695288862
 20
453.8043113933094
 30
0.0
 10
402.0461138665047
 20
453.8043113933094
 30
0.0
 10
402.0636400905837
 20
453.8043113933094
 30
0.0
 10
402.0700490841854
 20
453.8043113933094
 30
0.0
  0
SPLINE
  5
F8
330
1F
100
AcDbEntity
  8
0
  6
Continuous
 62
     7
370
    15
100
AcDbSpline
210
0.0
220
0.0
230
1.0
 70
    24
 71
     3
 72
     9
 73
     5
 74
     0
 42
0.00000001
 43
0.00000001
 40
0.0
 40
0.0
 40
0.0
 40
0.0
 40
0.1970246968420801
 40
1.0
 40
1.0
 40
1.0
 40
1.0
 10
404.4819212326992
 20
453.8043113933094
 30
0.0
 10
404.4492694182842
 20
453.8043113933094
 30
0.0
 10
404.2835449434423
 20
453.8043113933095
 30
0.0
 10
404.0382369603897
 20
453.8043113933094
 30
0.0
 10
403.8412607083309
 20
453.8043113933094
 30
0.0
  0
SPLINE
  5
F9
330
1F
100
AcDbEntity
  8
0
  6
Continuous
 62
     7
370
    15
100
AcDbSpline
210
0.0
220
0.0
230
1.0
 70
     8
 71
     3
 72
    13
 73
     9
 74
     0
 42
0.00000001
 43
0.00000001
 40
0.0
 40
0.0
 40
0.0
 40
0.0
 40
0.1877395758425157
 40
0.3754738321006785
 40
0.5632120331556514
 40
0.7509475412553512
 40
0.9386853892717286
 40
1.0
 40
1.0
 40
1.0
 40
1.0
 10
403.5479760537136
 20
457.4191542850025
 30
0.0
 10
403.3512791802162
 20
457.4164526335561
 30
0.0
 10
402.95789100661
 20
457.4110494072143
 30
0.0
 10
402.424875381389
 20
457.1205076344195
 30
0.0
 10
402.0343596424271
 20
456.6656079687793
 30
0.0
 10
401.8613839949464
 20
456.1039354449234
 30
0.0
 10
401.8646816391934
 20
455.6307375572691
 30
0.0
 10
401.9920152798634
 20
455.4093065576074
 30
0.0
 10
402.023363746165
 20
455.3547921166905
 30
0.0
  0
SPLINE
  5
FA
330
1F
100
AcDbEntity
  8
0
  6
Continuous
 62
     7
370
    15
100
AcDbSpline
210
0.0
220
0.0
230
1.0
 70
     8
 71
     3
 72
    10
 73
     6
 74
     0
 42
0.00000001
 43
0.00000001
 40
0.0
 40
0.0
 40
0.0
 40
0.0
 40
0.2093381590159411
 40
0.6046681624693032
 40
0.9999999999999999
 40
0.9999999999999999
 40
0.9999999999999999
 40
0.9999999999999999
 10
404.6851432690609
 20
456.6130312667378
 30
0.0
 10
404.6434406166221
 20
456.7060942905421
 30
0.0
 10
404.5229835229952
 20
456.9749045631752
 30
0.0
 10
404.1162827107161
 20
457.2915619753853
 30
0.0
 10
403.7374118989999
 20
457.3766234493586
 30
0.0
 10
403.5479760537136
 20
457.4191542850025
 30
0.0
  0
SPLINE
  5
FB
330
1F
100
AcDbEntity
  8
0
  6
Continuous
 62
     7
370
    15
100
AcDbSpline
210
0.0
220
0.0
230
1.0
 70
     8
 71
     3
 72
    13
 73
     9
 74
     0
 42
0.00000001
 43
0.00000001
 40
0.0
 40
0.0
 40
0.0
 40
0.0
 40
0.1768608012637254
 40
0.3537258533392639
 40
0.530590630319506
 40
0.7074557345593472
 40
0.8843198250892601
 40
1.0
 40
1.0
 40
1.0
 40
1.0
 10
403.5307503113735
 20
436.7759647355564
 30
0.0
 10
403.3340830719306
 20
436.7786523109841
 30
0.0
 10
402.9407438661895
 20
436.7840275264346
 30
0.0
 10
402.4073600208465
 20
437.074706390495
 30
0.0
 10
402.0182266700781
 20
437.5290716165099
 30
0.0
 10
401.840070132165
 20
438.0927692832592
 30
0.0
 10
401.8610300635268
 20
438.6259251482577
 30
0.0
 10
402.027124698666
 20
438.8991922612466
 30
0.0
 10
402.0928031573283
 20
439.007249711562
 30
0.0
  0
SPLINE
  5
FC
330
1F
100
AcDbEntity
  8
0
  6
Continuous
 62
     7
370
    15
100
AcDbSpline
210
0.0
220
0.0
230
1.0
 70
     8
 71
     3
 72
    10
 73
     6
 74
     0
 42
0.00000001
 43
0.00000001
 40
0.0
 40
0.0
 40
0.0
 40
0.0
 40
0.0588280775976518
 40
0.5294138126066582
 40
1.0
 40
1.0
 40
1.0
 40
1.0
 10
404.5608675847042
 20
437.3758705840596
 30
0.0
 10
404.5502279147439
 20
437.3543897108653
 30
0.0
 10
404.4544779179982
 20
437.1610760511247
 30
0.0
 10
404.0936448710863
 20
436.9068766221926
 30
0.0
 10
403.7183818914025
 20
436.819602045085
 30
0.0
 10
403.5307503113735
 20
436.7759647355564
 30
0.0
  0
SPLINE
  5
FD
330
1F
100
AcDbEntity
  8
0
  6
Continuous
 62
     7
370
    15
100
AcDbSpline
210
0.0
220
0.0
230
1.0
 70
    24
 71
     3
 72
    12
 73
     8
 74
     0
 42
0.00000001
 43
0.00000001
 40
0.0
 40
0.0
 40
0.0
 40
0.0
 40
0.2193528834461185
 40
0.4387123709505026
 40
0.6580626892184281
 40
0.8774223992481727
 40
1.0
 40
1.0
 40
1.0
 40
1.0
 10
403.8412607083308
 20
440.2456852183827
 30
0.0
 10
403.6445456340198
 20
440.2456852183827
 30
0.0
 10
403.2511095628961
 20
440.2456852183828
 30
0.0
 10
402.6902846346018
 20
440.2456852183826
 30
0.0
 10
402.2728774940836
 20
440.2456852183827
 30
0.0
 10
402.0470381533435
 20
440.2456852183826
 30
0.0
 10
402.0640097971031
 20
440.2456852183827
 30
0.0
 10
402.0700937876689
 20
440.2456852183827
 30
0.0
  0
SPLINE
  5
FE
330
1F
100
AcDbEntity
  8
0
  6
Continuous
 62
     7
370
    15
100
AcDbSpline
210
0.0
220
0.0
230
1.0
 70
    24
 71
     3
 72
     9
 73
     5
 74
     0
 42
0.00000001
 43
0.00000001
 40
0.0
 40
0.0
 40
0.0
 40
0.0
 40
0.1970246968420801
 40
1.0
 40
1.0
 40
1.0
 40
1.0
 10
404.4819212326992
 20
440.2456852183827
 30
0.0
 10
404.4492694182842
 20
440.2456852183827
 30
0.0
 10
404.2835449434423
 20
440.2456852183827
 30
0.0
 10
404.0382369603897
 20
440.2456852183827
 30
0.0
 10
403.8412607083309
 20
440.2456852183827
 30
0.0
  0
SPLINE
  5
FF
330
1F
100
AcDbEntity
  8
0
  6
Continuous
 62
     7
370
    15
100
AcDbSpline
210
0.0
220
0.0
230
1.0
 70
     8
 71
     3
 72
    13
 73
     9
 74
     0
 42
0.00000001
 43
0.00000001
 40
0.0
 40
0.0
 40
0.0
 40
0.0
 40
0.1768608587238816
 40
0.3537259682609574
 40
0.5305908027026474
 40
0.7074517176621629
 40
0.8843158656533007
 40
1.0
 40
1.0
 40
1.0
 40
1.0
 10
401.9788986811626
 20
460.0355597720631
 30
0.0
 10
401.7822314711502
 20
460.0328721919048
 30
0.0
 10
401.3888923242708
 20
460.0274969669929
 30
0.0
 10
400.8555080374574
 20
459.7368181738939
 30
0.0
 10
400.4663794787895
 20
459.2824563148458
 30
0.0
 10
400.2882155651665
 20
458.7187654800202
 30
0.0
 10
400.3091821469075
 20
458.1856115059041
 30
0.0
 10
400.4752731561164
 20
457.9123372755919
 30
0.0
 10
400.5409515271175
 20
457.8042747960575
 30
0.0
  0
SPLINE
  5
100
330
1F
100
AcDbEntity
  8
0
  6
Continuous
 62
     7
370
    15
100
AcDbSpline
210
0.0
220
0.0
230
1.0
 70
     8
 71
     3
 72
    10
 73
     6
 74
     0
 42
0.00000001
 43
0.00000001
 40
0.0
 40
0.0
 40
0.0
 40
0.0
 40
0.1474583140153851
 40
0.5737289521160597
 40
1.0
 40
1.0
 40
1.0
 40
1.0
 10
403.0674881110179
 20
459.3230458484181
 30
0.0
 10
403.0394257280171
 20
459.3833375757281
 30
0.0
 10
402.9302409614585
 20
459.6179198694551
 30
0.0
 10
402.5451946011513
 20
459.9067448878542
 30
0.0
 10
402.1676640483135
 20
459.9926214635677
 30
0.0
 10
401.9788986811626
 20
460.0355597720631
 30
0.0
  0
SPLINE
  5
101
330
1F
100
AcDbEntity
  8
0
  6
Continuous
 62
     7
370
    15
100
AcDbSpline
210
0.0
220
0.0
230
1.0
 70
     8
 71
     3
 72
    13
 73
     9
 74
     0
 42
0.00000001
 43
0.00000001
 40
0.0
 40
0.0
 40
0.0
 40
0.0
 40
0.1768608012637254
 40
0.3537258533392639
 40
0.530590630319506
 40
0.7074557345593472
 40
0.8843198250892601
 40
1.0
 40
1.0
 40
1.0
 40
1.0
 10
401.9616729388225
 20
434.1595443473347
 30
0.0
 10
401.7650056993797
 20
434.1622319227624
 30
0.0
 10
401.3716664936385
 20
434.1676071382129
 30
0.0
 10
400.8382826482955
 20
434.4582860022733
 30
0.0
 10
400.4491492975272
 20
434.9126512282882
 30
0.0
 10
400.270992759614
 20
435.4763488950375
 30
0.0
 10
400.2919526909758
 20
436.009504760036
 30
0.0
 10
400.4580473261151
 20
436.2827718730249
 30
0.0
 10
400.5237257847774
 20
436.3908293233403
 30
0.0
  0
SPLINE
  5
102
330
1F
100
AcDbEntity
  8
0
  6
Continuous
 62
     7
370
    15
100
AcDbSpline
210
0.0
220
0.0
230
1.0
 70
     8
 71
     3
 72
    10
 73
     6
 74
     0
 42
0.00000001
 43
0.00000001
 40
0.0
 40
0.0
 40
0.0
 40
0.0
 40
0.1474609766504071
 40
0.5737343911954349
 40
1.0
 40
1.0
 40
1.0
 40
1.0
 10
403.0502623686779
 20
434.8720731721409
 30
0.0
 10
403.0222060137959
 20
434.8117758331898
 30
0.0
 10
402.9130456375868
 20
434.5771737178392
 30
0.0
 10
402.5279647909207
 20
434.2883658522206
 30
0.0
 10
402.150435737319
 20
434.2024845868573
 30
0.0
 10
401.9616729388225
 20
434.1595443473347
 30
0.0
  0
LINE
  5
103
330
1F
100
AcDbEntity
  8
0
  6
Continuous
 62
     7
370
    15
100
AcDbLine
 10
396.6819084058
 20
81.0119184242
 30
0.0
 11
396.5771085391
 21
81.0119184242
 31
0.0
  0
LINE
  5
104
330
1F
100
AcDbEntity
  8
0
  6
Continuous
 62
     7
370
    15
100
AcDbLine
 10
396.6819084058
 20
72.4119069562
 30
0.0
 11
396.5771085391
 21
72.4119069562
 31
0.0
  0
LINE
  5
105
330
1F
100
AcDbEntity
  8
0
  6
Continuous
 62
     7
370
    15
100
AcDbLine
 10
402.0478016505
 20
69.9119093404
 30
0.0
 11
397.1819168696
 21
69.9119093404
 31
0.0
  0
LINE
  5
106
330
1F
100
AcDbEntity
  8
0
  6
Continuous
 62
     7
370
    15
100
AcDbLine
 10
402.056071795
 20
69.1119106994
 30
0.0
 11
397.1825129161
 21
69.1119106994
 31
0.0
  0
LINE
  5
107
330
1F
100
AcDbEntity
  8
0
  6
Continuous
 62
     7
370
    15
100
AcDbLine
 10
402.0103848348
 20
85.111913322
 30
0.0
 11
397.1825129161
 21
85.111913322
 31
0.0
  0
LINE
  5
108
330
1F
100
AcDbEntity
  8
0
  6
Continuous
 62
     7
370
    15
100
AcDbLine
 10
402.050066627
 20
84.311914681
 30
0.0
 11
397.1819168696
 21
84.311914681
 31
0.0
  0
LINE
  5
109
330
1F
100
AcDbEntity
  8
0
  6
Continuous
 62
     7
370
    15
100
AcDbLine
 10
400.7819182048
 20
85.4119184003
 30
0.0
 11
401.9452667603
 21
85.4119184003
 31
0.0
  0
LINE
  5
10A
330
1F
100
AcDbEntity
  8
0
  6
Continuous
 62
     7
370
    15
100
AcDbLine
 10
402.1084195743
 20
85.4119184003
 30
0.0
 11
402.1707660327
 21
85.4119184003
 31
0.0
  0
LINE
  5
10B
330
1F
100
AcDbEntity
  8
0
  6
Continuous
 62
     7
370
    15
100
AcDbLine
 10
398.5819107661
 20
85.4119184003
 30
0.0
 11
400.7819182048
 21
85.4119184003
 31
0.0
  0
LINE
  5
10C
330
1F
100
AcDbEntity
  8
0
  6
Continuous
 62
     7
370
    15
100
AcDbLine
 10
400.7819182048
 20
68.3119120584
 30
0.0
 11
401.6454255948
 21
68.3119120584
 31
0.0
  0
LINE
  5
10D
330
1F
100
AcDbEntity
  8
0
  6
Continuous
 62
     7
370
    15
100
AcDbLine
 10
398.6819124589
 20
68.3119120584
 30
0.0
 11
400.7819182048
 21
68.3119120584
 31
0.0
  0
LINE
  5
10E
330
1F
100
AcDbEntity
  8
0
  6
Continuous
 62
     7
370
    15
100
AcDbLine
 10
400.7819182048
 20
68.7119188295
 30
0.0
 11
401.8853044877
 21
68.7119188295
 31
0.0
  0
LINE
  5
10F
330
1F
100
AcDbEntity
  8
0
  6
Continuous
 62
     7
370
    15
100
AcDbLine
 10
398.6819124589
 20
68.7119188295
 30
0.0
 11
400.7819182048
 21
68.7119188295
 31
0.0
  0
ARC
  5
110
330
1F
100
AcDbEntity
  8
0
  6
Continuous
 62
     7
370
    15
100
AcDbCircle
 10
397.6476496401
 20
69.9096545519
 30
0.0
 40
0.802695895376158
100
AcDbArc
 50
179.8390548171
 51
234.5346344588
  0
ARC
  5
111
330
1F
100
AcDbEntity
  8
0
  6
Continuous
 62
     7
370
    15
100
AcDbCircle
 10
397.6476614856
 20
84.3141782351
 30
0.0
 40
0.8027077655064766
100
AcDbArc
 50
125.4658000801
 51
180.1615684768
  0
LINE
  5
112
330
1F
100
AcDbEntity
  8
0
  6
Continuous
 62
     7
370
    15
100
AcDbLine
 10
397.632796205
 20
70.3619095073
 30
0.0
 11
397.632796205
 21
69.9119093404
 31
0.0
  0
LINE
  5
113
330
1F
100
AcDbEntity
  8
0
  6
Continuous
 62
     7
370
    15
100
AcDbLine
 10
397.632796205
 20
84.311914681
 30
0.0
 11
397.632796205
 21
83.8619145141
 31
0.0
  0
LINE
  5
114
330
1F
100
AcDbEntity
  8
0
  6
Continuous
 62
     7
370
    15
100
AcDbLine
 10
396.8449569116
 20
69.9119093404
 30
0.0
 11
396.8449569116
 21
71.1403610693
 31
0.0
  0
LINE
  5
115
330
1F
100
AcDbEntity
  8
0
  6
Continuous
 62
     7
370
    15
100
AcDbLine
 10
396.8449569116
 20
83.0834778533
 30
0.0
 11
396.8449569116
 21
84.311914681
 31
0.0
  0
SPLINE
  5
116
330
1F
100
AcDbEntity
  8
0
  6
Continuous
 62
     7
370
    15
100
AcDbSpline
210
0.0
220
0.0
230
1.0
 70
    24
 71
     3
 72
    12
 73
     8
 74
     0
 42
0.00000001
 43
0.00000001
 40
0.0
 40
0.0
 40
0.0
 40
0.0
 40
0.21850475705506
 40
0.4370160926338405
 40
0.655518294428951
 40
0.8740298516726993
 40
1.0
 40
1.0
 40
1.0
 40
1.0
 10
403.8412607083309
 20
83.80430662493788
 30
0.0
 10
403.6445410125624
 20
83.80430662493788
 30
0.0
 10
403.2510956983848
 20
83.80430662493788
 30
0.0
 10
402.6903400936296
 20
83.80430662493795
 30
0.0
 10
402.2726695288862
 20
83.80430662493785
 30
0.0
 10
402.0461138665047
 20
83.80430662493788
 30
0.0
 10
402.0636400905837
 20
83.80430662493785
 30
0.0
 10
402.0700490841854
 20
83.80430662493788
 30
0.0
  0
SPLINE
  5
117
330
1F
100
AcDbEntity
  8
0
  6
Continuous
 62
     7
370
    15
100
AcDbSpline
210
0.0
220
0.0
230
1.0
 70
    24
 71
     3
 72
     9
 73
     5
 74
     0
 42
0.00000001
 43
0.00000001
 40
0.0
 40
0.0
 40
0.0
 40
0.0
 40
0.1970246968420801
 40
1.0
 40
1.0
 40
1.0
 40
1.0
 10
404.4819212326992
 20
83.80430662493788
 30
0.0
 10
404.4492694182842
 20
83.80430662493791
 30
0.0
 10
404.2835449434423
 20
83.80430662493777
 30
0.0
 10
404.0382369603897
 20
83.80430662493785
 30
0.0
 10
403.8412607083309
 20
83.80430662493788
 30
0.0
  0
SPLINE
  5
118
330
1F
100
AcDbEntity
  8
0
  6
Continuous
 62
     7
370
    15
100
AcDbSpline
210
0.0
220
0.0
230
1.0
 70
     8
 71
     3
 72
    13
 73
     9
 74
     0
 42
0.00000001
 43
0.00000001
 40
0.0
 40
0.0
 40
0.0
 40
0.0
 40
0.1877391448433487
 40
0.3754707580642599
 40
0.5632085281232221
 40
0.7509481130122744
 40
0.9386855300334515
 40
1.0
 40
1.0
 40
1.0
 40
1.0
 10
403.5479760537136
 20
87.419149516631
 30
0.0
 10
403.351279819895
 20
87.416446646357
 30
0.0
 10
402.957895243216
 20
87.41104101424143
 30
0.0
 10
402.4248717804456
 20
87.12052032818798
 30
0.0
 10
402.0343560818877
 20
86.6656136366774
 30
0.0
 10
401.8613859036285
 20
86.10393510762862
 30
0.0
 10
401.8646815074126
 20
85.63073281959049
 30
0.0
 10
401.9920152538294
 20
85.40930179529926
 30
0.0
 10
402.023363746165
 20
85.3547873483189
 30
0.0
  0
SPLINE
  5
119
330
1F
100
AcDbEntity
  8
0
  6
Continuous
 62
     7
370
    15
100
AcDbSpline
210
0.0
220
0.0
230
1.0
 70
     8
 71
     3
 72
    10
 73
     6
 74
     0
 42
0.00000001
 43
0.00000001
 40
0.0
 40
0.0
 40
0.0
 40
0.0
 40
0.2093464124199966
 40
0.6046691310223726
 40
1.0
 40
1.0
 40
1.0
 40
1.0
 10
404.6851432690609
 20
86.61302649836622
 30
0.0
 10
404.6434416742206
 20
86.706095342783
 30
0.0
 10
404.5229921913619
 20
86.97491226029408
 30
0.0
 10
404.1162765372686
 20
87.29155449971385
 30
0.0
 10
403.7374108500652
 20
87.37661755203719
 30
0.0
 10
403.5479760537136
 20
87.419149516631
 30
0.0
  0
SPLINE
  5
11A
330
1F
100
AcDbEntity
  8
0
  6
Continuous
 62
     7
370
    15
100
AcDbSpline
210
0.0
220
0.0
230
1.0
 70
     8
 71
     3
 72
    13
 73
     9
 74
     0
 42
0.00000001
 43
0.00000001
 40
0.0
 40
0.0
 40
0.0
 40
0.0
 40
0.1768619017638906
 40
0.3537276298646171
 40
0.5305930828689958
 40
0.707454616377492
 40
0.8843193829289175
 40
1.0
 40
1.0
 40
1.0
 40
1.0
 10
403.5307503113735
 20
66.77595996718489
 30
0.0
 10
403.3340832087538
 20
66.77865378169601
 30
0.0
 10
402.9407447487001
 20
66.78404146899791
 30
0.0
 10
402.4073596364628
 20
67.0747153491917
 30
0.0
 10
402.0182308663282
 20
67.52907876668162
 30
0.0
 10
401.8400681972525
 20
68.09276851321991
 30
0.0
 10
401.8610303867057
 20
68.62592050540148
 30
0.0
 10
402.0271247902466
 20
68.89918752844282
 30
0.0
 10
402.0928031573284
 20
69.00724494319044
 30
0.0
  0
SPLINE
  5
11B
330
1F
100
AcDbEntity
  8
0
  6
Continuous
 62
     7
370
    15
100
AcDbSpline
210
0.0
220
0.0
230
1.0
 70
     8
 71
     3
 72
    10
 73
     6
 74
     0
 42
0.00000001
 43
0.00000001
 40
0.0
 40
0.0
 40
0.0
 40
0.0
 40
0.0588283164912342
 40
0.5294084437569221
 40
1.0
 40
1.0
 40
1.0
 40
1.0
 10
404.5608675847041
 20
67.37586581568797
 30
0.0
 10
404.5502279461942
 20
67.35438489965581
 30
0.0
 10
404.4544795923124
 20
67.16107359983755
 30
0.0
 10
404.0936366680096
 20
66.90689255857896
 30
0.0
 10
403.718380615874
 20
66.81960451763926
 30
0.0
 10
403.5307503113734
 20
66.77595996718486
 30
0.0
  0
SPLINE
  5
11C
330
1F
100
AcDbEntity
  8
0
  6
Continuous
 62
     7
370
    15
100
AcDbSpline
210
0.0
220
0.0
230
1.0
 70
    24
 71
     3
 72
    12
 73
     8
 74
     0
 42
0.00000001
 43
0.00000001
 40
0.0
 40
0.0
 40
0.0
 40
0.0
 40
0.2193528834461185
 40
0.4387123709505026
 40
0.6580626892184281
 40
0.8774223992481727
 40
1.0
 40
1.0
 40
1.0
 40
1.0
 10
403.8412607083308
 20
70.2456804500111
 30
0.0
 10
403.6445456340198
 20
70.24568045001106
 30
0.0
 10
403.2511095628961
 20
70.24568045001104
 30
0.0
 10
402.6902846346018
 20
70.24568045001118
 30
0.0
 10
402.2728774940836
 20
70.24568045001112
 30
0.0
 10
402.0470381533435
 20
70.24568045001118
 30
0.0
 10
402.0640097971031
 20
70.24568045001106
 30
0.0
 10
402.0700937876689
 20
70.2456804500111
 30
0.0
  0
SPLINE
  5
11D
330
1F
100
AcDbEntity
  8
0
  6
Continuous
 62
     7
370
    15
100
AcDbSpline
210
0.0
220
0.0
230
1.0
 70
    24
 71
     3
 72
     9
 73
     5
 74
     0
 42
0.00000001
 43
0.00000001
 40
0.0
 40
0.0
 40
0.0
 40
0.0
 40
0.1970246968420801
 40
1.0
 40
1.0
 40
1.0
 40
1.0
 10
404.4819212326992
 20
70.24568045001112
 30
0.0
 10
404.4492694182842
 20
70.24568045001112
 30
0.0
 10
404.2835449434423
 20
70.24568045001104
 30
0.0
 10
404.0382369603897
 20
70.2456804500111
 30
0.0
 10
403.8412607083309
 20
70.24568045001112
 30
0.0
  0
SPLINE
  5
11E
330
1F
100
AcDbEntity
  8
0
  6
Continuous
 62
     7
370
    15
100
AcDbSpline
210
0.0
220
0.0
230
1.0
 70
     8
 71
     3
 72
    13
 73
     9
 74
     0
 42
0.00000001
 43
0.00000001
 40
0.0
 40
0.0
 40
0.0
 40
0.0
 40
0.1768619017638906
 40
0.3537276298646171
 40
0.5305930828689958
 40
0.707454616377492
 40
0.8843193829289175
 40
1.0
 40
1.0
 40
1.0
 40
1.0
 10
401.9788986811626
 20
90.03556990485274
 30
0.0
 10
401.782231578543
 20
90.03287609034157
 30
0.0
 10
401.3888931184892
 20
90.02748840303975
 30
0.0
 10
400.855508006252
 20
89.73681452284588
 30
0.0
 10
400.4663792361173
 20
89.2824511053561
 30
0.0
 10
400.2882165670416
 20
88.71876135881759
 30
0.0
 10
400.3091787564949
 20
88.18560936663609
 30
0.0
 10
400.4752731600357
 20
87.91234234359483
 30
0.0
 10
400.5409515271175
 20
87.80428492884718
 30
0.0
  0
SPLINE
  5
11F
330
1F
100
AcDbEntity
  8
0
  6
Continuous
 62
     7
370
    15
100
AcDbSpline
210
0.0
220
0.0
230
1.0
 70
     8
 71
     3
 72
    10
 73
     6
 74
     0
 42
0.00000001
 43
0.00000001
 40
0.0
 40
0.0
 40
0.0
 40
0.0
 40
0.1474578521452845
 40
0.5737271550776858
 40
0.9999999999999999
 40
0.9999999999999999
 40
0.9999999999999999
 40
0.9999999999999999
 10
403.0674881110179
 20
89.3230410800465
 30
0.0
 10
403.0394257453798
 20
89.38333286554706
 30
0.0
 10
402.9302410463752
 20
89.61791538568114
 30
0.0
 10
402.5451922233889
 20
89.9067370971636
 30
0.0
 10
402.1676637180673
 20
89.99262551667836
 30
0.0
 10
401.9788986811625
 20
90.03556990485271
 30
0.0
  0
SPLINE
  5
120
330
1F
100
AcDbEntity
  8
0
  6
Continuous
 62
     7
370
    15
100
AcDbSpline
210
0.0
220
0.0
230
1.0
 70
     8
 71
     3
 72
    13
 73
     9
 74
     0
 42
0.00000001
 43
0.00000001
 40
0.0
 40
0.0
 40
0.0
 40
0.0
 40
0.1768619017638906
 40
0.3537276298646171
 40
0.5305930828689958
 40
0.707454616377492
 40
0.8843193829289175
 40
1.0
 40
1.0
 40
1.0
 40
1.0
 10
401.9616729388225
 20
64.15953957896315
 30
0.0
 10
401.7650058362029
 20
64.1622333934743
 30
0.0
 10
401.3716673761492
 20
64.1676210807762
 30
0.0
 10
400.8382822639118
 20
64.45829496096997
 30
0.0
 10
400.4491534937772
 20
64.91265837845991
 30
0.0
 10
400.2709908247015
 20
65.47634812499817
 30
0.0
 10
400.2919530141548
 20
66.00950011717977
 30
0.0
 10
400.4580474176956
 20
66.28276714022108
 30
0.0
 10
400.5237257847774
 20
66.3908245549687
 30
0.0
  0
SPLINE
  5
121
330
1F
100
AcDbEntity
  8
0
  6
Continuous
 62
     7
370
    15
100
AcDbSpline
210
0.0
220
0.0
230
1.0
 70
     8
 71
     3
 72
    10
 73
     6
 74
     0
 42
0.00000001
 43
0.00000001
 40
0.0
 40
0.0
 40
0.0
 40
0.0
 40
0.1474524562652673
 40
0.5737285649287461
 40
1.0
 40
1.0
 40
1.0
 40
1.0
 10
403.0502623686779
 20
64.87206840376936
 30
0.0
 10
403.0222054832176
 20
64.81177631051874
 30
0.0
 10
402.9130378434292
 20
64.5771834321539
 30
0.0
 10
402.5279638698881
 20
64.2883781153231
 30
0.0
 10
402.1504358926524
 20
64.202485600798
 30
0.0
 10
401.9616729388225
 20
64.15953957896315
 30
0.0
  0
LINE
  5
122
330
1F
100
AcDbEntity
  8
0
  6
Continuous
 62
     7
370
    15
100
AcDbLine
 10
806.5832740436
 20
67.1119215475
 30
0.0
 11
806.5832740436
 21
32.1119102226
 31
0.0
  0
LINE
  5
123
330
1F
100
AcDbEntity
  8
0
  6
Continuous
 62
     7
370
    15
100
AcDbLine
 10
817.1819186578
 20
67.1119215475
 30
0.0
 11
806.5832740436
 21
67.1119215475
 31
0.0
  0
LINE
  5
124
330
1F
100
AcDbEntity
  8
0
  6
Continuous
 62
     7
370
    15
100
AcDbLine
 10
817.1819186578
 20
32.1119102226
 30
0.0
 11
806.5832740436
 21
32.1119102226
 31
0.0
  0
LINE
  5
125
330
1F
100
AcDbEntity
  8
0
  6
Continuous
 62
     7
370
    15
100
AcDbLine
 10
806.5832740436
 20
492.1119185672
 30
0.0
 11
806.5832740436
 21
457.1119072423
 31
0.0
  0
LINE
  5
126
330
1F
100
AcDbEntity
  8
0
  6
Continuous
 62
     7
370
    15
100
AcDbLine
 10
817.1819186578
 20
492.1119185672
 30
0.0
 11
806.5832740436
 21
492.1119185672
 31
0.0
  0
LINE
  5
127
330
1F
100
AcDbEntity
  8
0
  6
Continuous
 62
     7
370
    15
100
AcDbLine
 10
817.1819186578
 20
457.1119072423
 30
0.0
 11
806.5832740436
 21
457.1119072423
 31
0.0
  0
LINE
  5
128
330
1F
100
AcDbEntity
  8
0
  6
Continuous
 62
     7
370
    15
100
AcDbLine
 10
814.1819125781
 20
104.1119071231
 30
0.0
 11
809.1819173465
 21
104.1119071231
 31
0.0
  0
LINE
  5
129
330
1F
100
AcDbEntity
  8
0
  6
Continuous
 62
     7
370
    15
100
AcDbLine
 10
809.1819173465
 20
420.1119216667
 30
0.0
 11
814.1819125781
 21
420.1119216667
 31
0.0
  0
LINE
  5
12A
330
1F
100
AcDbEntity
  8
0
  6
Continuous
 62
     7
370
    15
100
AcDbLine
 10
806.1197585235
 20
32.1119102226
 30
0.0
 11
806.1197585235
 21
67.1119215475
 31
0.0
  0
LINE
  5
12B
330
1F
100
AcDbEntity
  8
0
  6
Continuous
 62
     7
370
    15
100
AcDbLine
 10
806.1197585235
 20
67.1119215475
 30
0.0
 11
806.5832740436
 21
67.1119215475
 31
0.0
  0
LINE
  5
12C
330
1F
100
AcDbEntity
  8
0
  6
Continuous
 62
     7
370
    15
100
AcDbLine
 10
806.5832740436
 20
32.1119102226
 30
0.0
 11
806.1197585235
 21
32.1119102226
 31
0.0
  0
LINE
  5
12D
330
1F
100
AcDbEntity
  8
0
  6
Continuous
 62
     7
370
    15
100
AcDbLine
 10
806.1197585235
 20
457.1119072423
 30
0.0
 11
806.1197585235
 21
492.1119185672
 31
0.0
  0
LINE
  5
12E
330
1F
100
AcDbEntity
  8
0
  6
Continuous
 62
     7
370
    15
100
AcDbLine
 10
806.1197585235
 20
492.1119185672
 30
0.0
 11
806.5832740436
 21
492.1119185672
 31
0.0
  0
LINE
  5
12F
330
1F
100
AcDbEntity
  8
0
  6
Continuous
 62
     7
370
    15
100
AcDbLine
 10
806.5832740436
 20
457.1119072423
 30
0.0
 11
806.1197585235
 21
457.1119072423
 31
0.0
  0
LINE
  5
130
330
1F
100
AcDbEntity
  8
0
  6
Continuous
 62
     7
370
    15
100
AcDbLine
 10
806.1197585235
 20
492.1119185672
 30
0.0
 11
805.6819177041
 21
492.1119185672
 31
0.0
  0
LINE
  5
131
330
1F
100
AcDbEntity
  8
0
  6
Continuous
 62
     7
370
    15
100
AcDbLine
 10
806.1197585235
 20
457.1119072423
 30
0.0
 11
805.6819177041
 21
457.1119072423
 31
0.0
  0
LINE
  5
132
330
1F
100
AcDbEntity
  8
0
  6
Continuous
 62
     7
370
    15
100
AcDbLine
 10
806.1197585235
 20
67.1119215475
 30
0.0
 11
805.6819177041
 21
67.1119215475
 31
0.0
  0
LINE
  5
133
330
1F
100
AcDbEntity
  8
0
  6
Continuous
 62
     7
370
    15
100
AcDbLine
 10
806.1197585235
 20
32.1119102226
 30
0.0
 11
805.6819177041
 21
32.1119102226
 31
0.0
  0
LINE
  5
134
330
1F
100
AcDbEntity
  8
0
  6
Continuous
 62
     7
370
    15
100
AcDbLine
 10
400.4819131265
 20
70.3619095073
 30
0.0
 11
402.0414239535
 21
70.3619095073
 31
0.0
  0
LINE
  5
135
330
1F
100
AcDbEntity
  8
0
  6
Continuous
 62
     7
370
    15
100
AcDbLine
 10
400.4819131265
 20
83.8619145141
 30
0.0
 11
402.0419901977
 21
83.8619145141
 31
0.0
  0
LINE
  5
136
330
1F
100
AcDbEntity
  8
0
  6
Continuous
 62
     7
370
    15
100
AcDbLine
 10
400.4819131265
 20
70.3619095073
 30
0.0
 11
397.3819202552
 21
70.3619095073
 31
0.0
  0
LINE
  5
137
330
1F
100
AcDbEntity
  8
0
  6
Continuous
 62
     7
370
    15
100
AcDbLine
 10
400.4819131265
 20
83.8619145141
 30
0.0
 11
397.3819202552
 21
83.8619145141
 31
0.0
  0
LINE
  5
138
330
1F
100
AcDbEntity
  8
0
  6
Continuous
 62
     7
370
    15
100
AcDbLine
 10
400.4819131265
 20
440.3619142757
 30
0.0
 11
402.0414239535
 21
440.3619142757
 31
0.0
  0
LINE
  5
139
330
1F
100
AcDbEntity
  8
0
  6
Continuous
 62
     7
370
    15
100
AcDbLine
 10
400.4819131265
 20
453.8619192825
 30
0.0
 11
402.0419901977
 21
453.8619192825
 31
0.0
  0
LINE
  5
13A
330
1F
100
AcDbEntity
  8
0
  6
Continuous
 62
     7
370
    15
100
AcDbLine
 10
400.4819131265
 20
440.3619142757
 30
0.0
 11
397.3819202552
 21
440.3619142757
 31
0.0
  0
LINE
  5
13B
330
1F
100
AcDbEntity
  8
0
  6
Continuous
 62
     7
370
    15
100
AcDbLine
 10
400.4819131265
 20
453.8619192825
 30
0.0
 11
397.3819202552
 21
453.8619192825
 31
0.0
  0
LINE
  5
13C
330
1F
100
AcDbEntity
  8
0
  6
Continuous
 62
     8
370
    15
100
AcDbLine
 10
400.4819131265
 20
70.6119211898
 30
0.0
 11
400.4819131265
 21
70.3619095073
 31
0.0
  0
LINE
  5
13D
330
1F
100
AcDbEntity
  8
0
  6
Continuous
 62
     8
370
    15
100
AcDbLine
 10
400.4819131265
 20
83.8619145141
 30
0.0
 11
400.4819131265
 21
83.6119177328
 31
0.0
  0
LINE
  5
13E
330
1F
100
AcDbEntity
  8
0
  6
Continuous
 62
     8
370
    15
100
AcDbLine
 10
400.4819131265
 20
440.611911057
 30
0.0
 11
400.4819131265
 21
440.3619142757
 31
0.0
  0
LINE
  5
13F
330
1F
100
AcDbEntity
  8
0
  6
Continuous
 62
     8
370
    15
100
AcDbLine
 10
400.4819131265
 20
453.8619192825
 30
0.0
 11
400.4819131265
 21
453.6119076
 31
0.0
  0
LINE
  5
140
330
1F
100
AcDbEntity
  8
0
  6
Continuous
 62
     7
370
    15
100
AcDbLine
 10
281.1939959568
 20
83.6119177328
 30
0.0
 11
281.1939959568
 21
70.6119211898
 31
0.0
  0
LINE
  5
141
330
1F
100
AcDbEntity
  8
0
  6
Continuous
 62
     7
370
    15
100
AcDbLine
 10
281.1939959568
 20
453.6119076
 30
0.0
 11
281.1939959568
 21
440.611911057
 31
0.0
  0
LINE
  5
142
330
1F
100
AcDbEntity
  8
0
  6
Continuous
 62
     7
370
    15
100
AcDbLine
 10
271.403992657
 20
454.3119194494
 30
0.0
 11
271.403992657
 21
455.1119180904
 31
0.0
  0
LINE
  5
143
330
1F
100
AcDbEntity
  8
0
  6
Continuous
 62
     7
370
    15
100
AcDbLine
 10
271.403992657
 20
439.1119154678
 30
0.0
 11
271.403992657
 21
439.9119141088
 31
0.0
  0
LINE
  5
144
330
1F
100
AcDbEntity
  8
0
  6
Continuous
 62
     7
370
    15
100
AcDbLine
 10
266.4739881795
 20
455.4119082675
 30
0.0
 11
266.4739881795
 21
455.1119180904
 31
0.0
  0
LINE
  5
145
330
1F
100
AcDbEntity
  8
0
  6
Continuous
 62
     7
370
    15
100
AcDbLine
 10
270.8739881557
 20
455.1119180904
 30
0.0
 11
270.8739881557
 21
455.4119082675
 31
0.0
  0
ARC
  5
146
330
1F
100
AcDbEntity
  8
0
  6
Continuous
 62
     7
370
    15
100
AcDbCircle
 10
268.6739928096
 20
452.3047715378
 30
0.0
 40
3.807142857143275
100
AcDbArc
 50
54.6997515601
 51
125.3002484399
  0
LINE
  5
147
330
1F
100
AcDbEntity
  8
0
  6
Continuous
 62
     7
370
    15
100
AcDbLine
 10
266.5739898723
 20
438.7119086967
 30
0.0
 11
266.5739898723
 21
438.3119168268
 31
0.0
  0
LINE
  5
148
330
1F
100
AcDbEntity
  8
0
  6
Continuous
 62
     7
370
    15
100
AcDbLine
 10
270.7739864629
 20
438.3119168268
 30
0.0
 11
270.7739864629
 21
438.7119086967
 31
0.0
  0
ARC
  5
149
330
1F
100
AcDbEntity
  8
0
  6
Continuous
 62
     7
370
    15
100
AcDbCircle
 10
266.7739928096
 20
439.1119143949
 30
0.0
 40
0.4000000000007162
100
AcDbArc
 50
270.0
 51
0.0
  0
ARC
  5
14A
330
1F
100
AcDbEntity
  8
0
  6
Continuous
 62
     7
370
    15
100
AcDbCircle
 10
270.5739928096
 20
439.1119143949
 30
0.0
 40
0.4000000000007162
100
AcDbArc
 50
180.0
 51
270.0
  0
LINE
  5
14B
330
1F
100
AcDbEntity
  8
0
  6
Continuous
 62
     7
370
    15
100
AcDbLine
 10
267.1740000289
 20
454.3119194494
 30
0.0
 11
267.1740000289
 21
453.8619192825
 31
0.0
  0
LINE
  5
14C
330
1F
100
AcDbEntity
  8
0
  6
Continuous
 62
     7
370
    15
100
AcDbLine
 10
267.1740000289
 20
452.8619172559
 30
0.0
 11
267.1740000289
 21
452.3732038723
 31
0.0
  0
LINE
  5
14D
330
1F
100
AcDbEntity
  8
0
  6
Continuous
 62
     7
370
    15
100
AcDbLine
 10
267.1740000289
 20
451.5770944343
 30
0.0
 11
267.1740000289
 21
451.421392201
 31
0.0
  0
LINE
  5
14E
330
1F
100
AcDbEntity
  8
0
  6
Continuous
 62
     7
370
    15
100
AcDbLine
 10
267.1740000289
 20
442.1222927557
 30
0.0
 11
267.1740000289
 21
441.3619163023
 31
0.0
  0
LINE
  5
14F
330
1F
100
AcDbEntity
  8
0
  6
Continuous
 62
     7
370
    15
100
AcDbLine
 10
267.1740000289
 20
440.3619142757
 30
0.0
 11
267.1740000289
 21
439.9119141088
 31
0.0
  0
LINE
  5
150
330
1F
100
AcDbEntity
  8
0
  6
Continuous
 62
     7
370
    15
100
AcDbLine
 10
270.1739912075
 20
439.9119141088
 30
0.0
 11
270.1739912075
 21
440.3619142757
 31
0.0
  0
LINE
  5
151
330
1F
100
AcDbEntity
  8
0
  6
Continuous
 62
     7
370
    15
100
AcDbLine
 10
270.1739912075
 20
441.3619163023
 30
0.0
 11
270.1739912075
 21
441.8490501628
 31
0.0
  0
LINE
  5
152
330
1F
100
AcDbEntity
  8
0
  6
Continuous
 62
     7
370
    15
100
AcDbLine
 10
270.1739912075
 20
451.1569710956
 30
0.0
 11
270.1739912075
 21
451.3449194417
 31
0.0
  0
LINE
  5
153
330
1F
100
AcDbEntity
  8
0
  6
Continuous
 62
     7
370
    15
100
AcDbLine
 10
270.1739912075
 20
452.0999910818
 30
0.0
 11
270.1739912075
 21
452.8619172559
 31
0.0
  0
LINE
  5
154
330
1F
100
AcDbEntity
  8
0
  6
Continuous
 62
     7
370
    15
100
AcDbLine
 10
270.1739912075
 20
453.8619192825
 30
0.0
 11
270.1739912075
 21
454.3119194494
 31
0.0
  0
SPLINE
  5
155
330
1F
100
AcDbEntity
  8
0
  6
Continuous
 62
     7
370
    15
100
AcDbSpline
210
0.0
220
0.0
230
1.0
 70
     8
 71
     3
 72
    15
 73
    11
 74
     0
 42
0.00000001
 43
0.00000001
 40
0.0
 40
0.0
 40
0.0
 40
0.0
 40
0.1356021060610673
 40
0.2953301951074361
 40
0.4038100919400804
 40
0.5319613946579616
 40
0.6738407583735175
 40
0.8261087441090432
 40
0.9126143524011999
 40
0.9999999999999999
 40
0.9999999999999999
 40
0.9999999999999999
 40
0.9999999999999999
 10
270.1739912074519
 20
441.6779550300129
 30
0.0
 10
270.2183729280315
 20
441.6706345557506
 30
0.0
 10
270.3150326524172
 20
441.6546911670011
 30
0.0
 10
270.5218812123955
 20
441.7023593744065
 30
0.0
 10
270.7151520393977
 20
441.7900816164116
 30
0.0
 10
270.861728239644
 20
441.9097475201567
 30
0.0
 10
270.9604391222332
 20
442.060632390593
 30
0.0
 10
270.9900975620652
 20
442.1824684229484
 30
0.0
 10
270.9689207000206
 20
442.3117447433135
 30
0.0
 10
270.9226678849161
 20
442.3784102692167
 30
0.0
 10
270.899424437852
 20
442.4119117246159
 30
0.0
  0
SPLINE
  5
156
330
1F
100
AcDbEntity
  8
0
  6
Continuous
 62
     7
370
    15
100
AcDbSpline
210
0.0
220
0.0
230
1.0
 70
     8
 71
     3
 72
    20
 73
    16
 74
     0
 42
0.00000001
 43
0.00000001
 40
0.0
 40
0.0
 40
0.0
 40
0.0
 40
0.0607081407044129
 40
0.2265336832249089
 40
0.3908030416487357
 40
0.4705944649029576
 40
0.5476201143003872
 40
0.6228570175088496
 40
0.7003369412925144
 40
0.7786471232305363
 40
0.8566576901760383
 40
0.9330986019141723
 40
0.9703708135221807
 40
0.9892324180227995
 40
1.0
 40
1.0
 40
1.0
 40
1.0
 10
266.4377932589961
 20
442.4119117246159
 30
0.0
 10
266.4840678966655
 20
442.3585802855625
 30
0.0
 10
266.656742664654
 20
442.1595729171891
 30
0.0
 10
267.0737144462016
 20
442.141642414921
 30
0.0
 10
267.6386690935666
 20
442.0666192000508
 30
0.0
 10
268.1582822021049
 20
442.0236811870969
 30
0.0
 10
268.5521748609282
 20
441.9931203365034
 30
0.0
 10
268.9450866104584
 20
441.9654489936476
 30
0.0
 10
269.3262475025584
 20
441.9341378684377
 30
0.0
 10
269.6819715544918
 20
441.9016650832726
 30
0.0
 10
269.9845959515571
 20
441.8708276876958
 30
0.0
 10
270.1771023944827
 20
441.8479280261411
 30
0.0
 10
270.2652344108416
 20
441.8399076508524
 30
0.0
 10
270.3106526610339
 20
441.8321257264005
 30
0.0
 10
270.31010406479
 20
441.8360688038917
 30
0.0
 10
270.309904698701
 20
441.8375017629155
 30
0.0
  0
SPLINE
  5
157
330
1F
100
AcDbEntity
  8
0
  6
Continuous
 62
     7
370
    15
100
AcDbSpline
210
0.0
220
0.0
230
1.0
 70
     8
 71
     3
 72
    18
 73
    14
 74
     0
 42
0.00000001
 43
0.00000001
 40
0.0
 40
0.0
 40
0.0
 40
0.0
 40
0.0057533514063981
 40
0.1156382960031969
 40
0.238392625285081
 40
0.3593078098787095
 40
0.4757054421211319
 40
0.5872121845638562
 40
0.7047320371344623
 40
0.8265002904977976
 40
0.8891455465757248
 40
0.9517928563765098
 40
1.0
 40
1.0
 40
1.0
 40
1.0
 10
270.6806157868816
 20
451.0587426410206
 30
0.0
 10
270.6759686208031
 20
451.0616948403762
 30
0.0
 10
270.5825638678875
 20
451.1210319603987
 30
0.0
 10
270.3601989765987
 20
451.1272464751785
 30
0.0
 10
269.9688246605421
 20
451.1864334321761
 30
0.0
 10
269.456939757997
 20
451.2319744491447
 30
0.0
 10
268.9059102576118
 20
451.2781401425834
 30
0.0
 10
268.3437902647973
 20
451.3170200846347
 30
0.0
 10
267.8095209482167
 20
451.3617727087627
 30
0.0
 10
267.4118508355492
 20
451.4028150517594
 30
0.0
 10
267.1971597948108
 20
451.4239606126453
 30
0.0
 10
267.1010878601134
 20
451.4262350094959
 30
0.0
 10
267.0856458632404
 20
451.4101590250088
 30
0.0
 10
267.0789306205226
 20
451.4031680808552
 30
0.0
  0
SPLINE
  5
158
330
1F
100
AcDbEntity
  8
0
  6
Continuous
 62
     7
370
    15
100
AcDbSpline
210
0.0
220
0.0
230
1.0
 70
     8
 71
     3
 72
    12
 73
     8
 74
     0
 42
0.00000001
 43
0.00000001
 40
0.0
 40
0.0
 40
0.0
 40
0.0
 40
0.2236730604743266
 40
0.4523097477733537
 40
0.6822380724137703
 40
0.9102241125301616
 40
1.0
 40
1.0
 40
1.0
 40
1.0
 10
266.3796936315013
 20
452.2137614474781
 30
0.0
 10
266.3669534204216
 20
452.1712103328942
 30
0.0
 10
266.3411902746594
 20
452.0851638333108
 30
0.0
 10
266.4623414150533
 20
451.9935807071185
 30
0.0
 10
266.6940139416267
 20
451.8972404723135
 30
0.0
 10
266.9388678749604
 20
451.8347820307728
 30
0.0
 10
267.122203123189
 20
451.839985750794
 30
0.0
 10
267.1740000289394
 20
451.8414559350499
 30
0.0
  0
SPLINE
  5
159
330
1F
100
AcDbEntity
  8
0
  6
Continuous
 62
     7
370
    15
100
AcDbSpline
210
0.0
220
0.0
230
1.0
 70
     8
 71
     3
 72
    19
 73
    15
 74
     0
 42
0.00000001
 43
0.00000001
 40
0.0
 40
0.0
 40
0.0
 40
0.0
 40
0.0979037310136482
 40
0.175375800298335
 40
0.288481933334479
 40
0.3734521067040712
 40
0.4570005822300097
 40
0.6168869827790471
 40
0.6796660910945799
 40
0.7634258804621143
 40
0.8137530652187078
 40
0.8702966467852126
 40
0.9323982706940787
 40
1.0
 40
1.0
 40
1.0
 40
1.0
 10
266.5559296649409
 20
451.7186405644902
 30
0.0
 10
266.6064412966699
 20
451.6922591483984
 30
0.0
 10
266.696923219546
 20
451.645001889536
 30
0.0
 10
267.0715438177699
 20
451.5843562912478
 30
0.0
 10
267.5580673711952
 20
451.5304641852663
 30
0.0
 10
268.1493925991678
 20
451.4772415776308
 30
0.0
 10
268.9034977109798
 20
451.4256914007485
 30
0.0
 10
269.5445906138106
 20
451.3587405358488
 30
0.0
 10
270.1938734462225
 20
451.3232153106538
 30
0.0
 10
270.5721938701513
 20
451.4014258092205
 30
0.0
 10
270.824056937885
 20
451.5096023105677
 30
0.0
 10
270.9576385444763
 20
451.5979510760313
 30
0.0
 10
271.0194147820732
 20
451.6717842528097
 30
0.0
 10
270.9479710700643
 20
451.7523090975478
 30
0.0
 10
270.9107344191981
 20
451.7942788587101
 30
0.0
  0
SPLINE
  5
15A
330
1F
100
AcDbEntity
  8
0
  6
Continuous
 62
     7
370
    15
100
AcDbSpline
210
0.0
220
0.0
230
1.0
 70
     8
 71
     3
 72
    25
 73
    21
 74
     0
 42
0.00000001
 43
0.00000001
 40
0.0
 40
0.0
 40
0.0
 40
0.0
 40
0.0176246502364221
 40
0.0344969783807093
 40
0.0503140015806232
 40
0.0649721768491231
 40
0.0909442969752835
 40
0.1134383776733819
 40
0.1538393252383461
 40
0.1912331168558527
 40
0.2995699954028009
 40
0.3999628446658344
 40
0.5012950163473342
 40
0.5949055302535755
 40
0.6784888739928571
 40
0.7336300391793612
 40
0.807520024472291
 40
0.8952850467831737
 40
0.9453085351767971
 40
1.0
 40
1.0
 40
1.0
 40
1.0
 10
270.5534194749309
 20
451.16869830947
 30
0.0
 10
270.5931249547635
 20
451.1730891363035
 30
0.0
 10
270.670841054715
 20
451.1816833640651
 30
0.0
 10
270.7727193690111
 20
451.2276903921997
 30
0.0
 10
270.853735232357
 20
451.2866494597828
 30
0.0
 10
270.9299401279038
 20
451.370218061172
 30
0.0
 10
270.9829909377795
 20
451.4738655898441
 30
0.0
 10
271.0071342668938
 20
451.6062069193418
 30
0.0
 10
270.9842615886041
 20
451.7380746393436
 30
0.0
 10
270.8130157015746
 20
451.9832713186714
 30
0.0
 10
270.4702371085975
 20
452.0703682938118
 30
0.0
 10
269.9751212368959
 20
452.1289253918515
 30
0.0
 10
269.3619086145398
 20
452.1872694802291
 30
0.0
 10
268.7124363226693
 20
452.236893484158
 30
0.0
 10
268.172731058606
 20
452.2763797850269
 30
0.0
 10
267.7267226241592
 20
452.3155568285455
 30
0.0
 10
267.3380238130607
 20
452.3537866144047
 30
0.0
 10
267.0778655593363
 20
452.3816127668389
 30
0.0
 10
266.9474228881073
 20
452.404131324214
 30
0.0
 10
266.9387534145594
 20
452.4165873270605
 30
0.0
 10
266.9342254441692
 20
452.4230929599293
 30
0.0
  0
SPLINE
  5
15B
330
1F
100
AcDbEntity
  8
0
  6
Continuous
 62
     7
370
    15
100
AcDbSpline
210
0.0
220
0.0
230
1.0
 70
     8
 71
     3
 72
    12
 73
     8
 74
     0
 42
0.00000001
 43
0.00000001
 40
0.0
 40
0.0
 40
0.0
 40
0.0
 40
0.1756478533397407
 40
0.5723172248007734
 40
0.758618956876225
 40
0.9207543209684056
 40
1.0
 40
1.0
 40
1.0
 40
1.0
 10
267.0225595277263
 20
451.6046019778736
 30
0.0
 10
266.95699532134
 20
451.5954314669998
 30
0.0
 10
266.7433660401858
 20
451.5655509917562
 30
0.0
 10
266.5274708113024
 20
451.4916093843398
 30
0.0
 10
266.3662884306065
 20
451.2766860954252
 30
0.0
 10
266.3350904160051
 20
451.1164619825615
 30
0.0
 10
266.3660669347406
 20
451.0378057352621
 30
0.0
 10
266.3762365621043
 20
451.0119827971943
 30
0.0
  0
LINE
  5
15C
330
1F
100
AcDbEntity
  8
0
  6
Continuous
 62
     7
370
    15
100
AcDbLine
 10
266.5337567371
 20
442.3141750083
 30
0.0
 11
265.415290479
 21
442.3141750083
 31
0.0
  0
LINE
  5
15D
330
1F
100
AcDbEntity
  8
0
  6
Continuous
 62
     7
370
    15
100
AcDbLine
 10
265.415290479
 20
441.5141763673
 30
0.0
 11
267.1740000289
 21
441.5141763673
 31
0.0
  0
LINE
  5
15E
330
1F
100
AcDbEntity
  8
0
  6
Continuous
 62
     7
370
    15
100
AcDbLine
 10
264.0049998802
 20
455.1119180904
 30
0.0
 11
264.0049998802
 21
455.1653834568
 31
0.0
  0
LINE
  5
15F
330
1F
100
AcDbEntity
  8
0
  6
Continuous
 62
     7
370
    15
100
AcDbLine
 10
261.0050087017
 20
455.1653834568
 30
0.0
 11
261.0050087017
 21
455.1119180904
 31
0.0
  0
SPLINE
  5
160
330
1F
100
AcDbEntity
  8
0
  6
Continuous
 62
     7
370
    15
100
AcDbSpline
210
0.0
220
0.0
230
1.0
 70
     8
 71
     3
 72
    15
 73
    11
 74
     0
 42
0.00000001
 43
0.00000001
 40
0.0
 40
0.0
 40
0.0
 40
0.0
 40
0.1077555507154688
 40
0.2352511983336943
 40
0.362790350292899
 40
0.4902567554394754
 40
0.6176629962400678
 40
0.7450967779333516
 40
0.8724964982314105
 40
1.0
 40
1.0
 40
1.0
 40
1.0
 10
261.0210572522594
 20
439.1119154677876
 30
0.0
 10
261.0375963787133
 20
438.7993932308451
 30
0.0
 10
261.0737044890781
 20
438.1170967713261
 30
0.0
 10
261.4099171853404
 20
437.1079487779854
 30
0.0
 10
261.9679970228991
 20
436.1444695750067
 30
0.0
 10
262.7228216338436
 20
435.3235433760869
 30
0.0
 10
263.637986009821
 20
434.688275380935
 30
0.0
 10
264.6652423600405
 20
434.2681224529006
 30
0.0
 10
265.7612192985638
 20
434.0542913221371
 30
0.0
 10
266.4969796138193
 20
434.1198317509072
 30
0.0
 10
266.8650095504237
 20
434.1526153073796
 30
0.0
  0
SPLINE
  5
161
330
1F
100
AcDbEntity
  8
0
  6
Continuous
 62
     7
370
    15
100
AcDbSpline
210
0.0
220
0.0
230
1.0
 70
     8
 71
     3
 72
    15
 73
    11
 74
     0
 42
0.00000001
 43
0.00000001
 40
0.0
 40
0.0
 40
0.0
 40
0.0
 40
0.1316475507757376
 40
0.2633128491346627
 40
0.3951875029123529
 40
0.526669308143609
 40
0.6575482480495349
 40
0.7882108661984782
 40
0.9184601209232142
 40
1.0
 40
1.0
 40
1.0
 40
1.0
 10
266.3673107665492
 20
437.1103020892628
 30
0.0
 10
266.2151319346397
 20
437.0984875816821
 30
0.0
 10
265.9107537553876
 20
437.0748569737911
 30
0.0
 10
265.459896900285
 20
437.1763295738846
 30
0.0
 10
265.040860357459
 20
437.3631789879495
 30
0.0
 10
264.6704783615775
 20
437.6357922670007
 30
0.0
 10
264.3682068771709
 20
437.9816914371357
 30
0.0
 10
264.1490492206002
 20
438.383401991174
 30
0.0
 10
264.0316955231462
 20
438.7697164563456
 30
0.0
 10
264.0215120497311
 20
439.016790659848
 30
0.0
 10
264.017591361375
 20
439.1119154677876
 30
0.0
  0
SPLINE
  5
162
330
1F
100
AcDbEntity
  8
0
  6
Continuous
 62
     7
370
    15
100
AcDbSpline
210
0.0
220
0.0
230
1.0
 70
     8
 71
     3
 72
    15
 73
    11
 74
     0
 42
0.00000001
 43
0.00000001
 40
0.0
 40
0.0
 40
0.0
 40
0.0
 40
0.1249272269019948
 40
0.2499156875276417
 40
0.3749667759055768
 40
0.4999572135292178
 40
0.6249211455693676
 40
0.7499168092761651
 40
0.8748745640035281
 40
1.0
 40
1.0
 40
1.0
 40
1.0
 10
267.0358811658336
 20
460.0424292073735
 30
0.0
 10
266.6695047933712
 20
460.0857596687104
 30
0.0
 10
265.9365724671807
 20
460.1724418300328
 30
0.0
 10
264.832543758131
 20
460.0072744690651
 30
0.0
 10
263.7917538452019
 20
459.6183191394566
 30
0.0
 10
262.8565539761696
 20
459.0133198936254
 30
0.0
 10
262.075903053381
 20
458.2171305609046
 30
0.0
 10
261.4879459972105
 20
457.2727625477661
 30
0.0
 10
261.0921231045518
 20
456.2243188368889
 30
0.0
 10
261.0340598131365
 20
455.4851981802123
 30
0.0
 10
261.0050087016536
 20
455.1153900609501
 30
0.0
  0
SPLINE
  5
163
330
1F
100
AcDbEntity
  8
0
  6
Continuous
 62
     7
370
    15
100
AcDbSpline
210
0.0
220
0.0
230
1.0
 70
     8
 71
     3
 72
    15
 73
    11
 74
     0
 42
0.00000001
 43
0.00000001
 40
0.0
 40
0.0
 40
0.0
 40
0.0
 40
0.1242509868954406
 40
0.2486341873107757
 40
0.3735436135288574
 40
0.4985842367338467
 40
0.6236671922751594
 40
0.7490729085781701
 40
0.8744400222165211
 40
1.0
 40
1.0
 40
1.0
 40
1.0
 10
264.0049998801662
 20
455.1153900609501
 30
0.0
 10
264.0185564171101
 20
455.2673433359913
 30
0.0
 10
264.0456839162956
 20
455.5714115771623
 30
0.0
 10
264.2201629356994
 20
455.9987242997008
 30
0.0
 10
264.4734894833943
 20
456.3803679824991
 30
0.0
 10
264.8033114445725
 20
456.7003021830665
 30
0.0
 10
265.1942384950385
 20
456.9408776715212
 30
0.0
 10
265.6269402147753
 20
457.0924862564041
 30
0.0
 10
266.0844638376377
 20
457.1459491217305
 30
0.0
 10
266.3863787446857
 20
457.1052643562749
 30
0.0
 10
266.5374522250606
 20
457.0849063382634
 30
0.0
  0
LINE
  5
164
330
1F
100
AcDbEntity
  8
0
  6
Continuous
 62
     7
370
    15
100
AcDbLine
 10
281.9080596012
 20
439.727050303
 30
0.0
 11
266.3670872491
 21
437.1106299148
 31
0.0
  0
LINE
  5
165
330
1F
100
AcDbEntity
  8
0
  6
Continuous
 62
     7
370
    15
100
AcDbLine
 10
266.865158562
 20
434.1522725807
 30
0.0
 11
282.4061160129
 21
436.7686780677
 31
0.0
  0
LINE
  5
166
330
1F
100
AcDbEntity
  8
0
  6
Continuous
 62
     7
370
    15
100
AcDbLine
 10
266.5376757425
 20
457.0844742046
 30
0.0
 11
282.0786480945
 21
454.4680538164
 31
0.0
  0
LINE
  5
167
330
1F
100
AcDbEntity
  8
0
  6
Continuous
 62
     7
370
    15
100
AcDbLine
 10
282.5767045062
 20
457.4264260517
 30
0.0
 11
267.0357321542
 21
460.0428464399
 31
0.0
  0
SPLINE
  5
168
330
1F
100
AcDbEntity
  8
0
  6
Continuous
 62
     7
370
    15
100
AcDbSpline
210
0.0
220
0.0
230
1.0
 70
     8
 71
     3
 72
    12
 73
     8
 74
     0
 42
0.00000001
 43
0.00000001
 40
0.0
 40
0.0
 40
0.0
 40
0.0
 40
0.1526135502442328
 40
0.2973905062034102
 40
0.5623705545044584
 40
0.7966015967691097
 40
1.0
 40
1.0
 40
1.0
 40
1.0
 10
282.4057732861949
 20
436.7689909921177
 30
0.0
 10
282.6569930352013
 20
436.8217287078986
 30
0.0
 10
283.1465325826775
 20
436.924496096292
 30
0.0
 10
283.9960532037354
 20
437.3537489029508
 30
0.0
 10
284.8080427976532
 20
438.0981428427706
 30
0.0
 10
285.372493059081
 20
439.1691819700251
 30
0.0
 10
285.4541804107607
 20
439.9041102895807
 30
0.0
 10
285.4921464961482
 20
440.2456852183827
 30
0.0
  0
SPLINE
  5
169
330
1F
100
AcDbEntity
  8
0
  6
Continuous
 62
     7
370
    15
100
AcDbSpline
210
0.0
220
0.0
230
1.0
 70
     8
 71
     3
 72
    11
 73
     7
 74
     0
 42
0.00000001
 43
0.00000001
 40
0.0
 40
0.0
 40
0.0
 40
0.0
 40
0.2003604523961388
 40
0.432804763221977
 40
0.6990176740182689
 40
1.0
 40
1.0
 40
1.0
 40
1.0
 10
282.4938242476894
 20
440.2456852183827
 30
0.0
 10
282.4805972206
 20
440.1892564732681
 30
0.0
 10
282.4520251133849
 20
440.0673630088835
 30
0.0
 10
282.3361355506113
 20
439.9016693783166
 30
0.0
 10
282.15139394382
 20
439.7627490639671
 30
0.0
 10
281.9937726502413
 20
439.7393583071604
 30
0.0
 10
281.9101308625652
 20
439.7269459949025
 30
0.0
  0
SPLINE
  5
16A
330
1F
100
AcDbEntity
  8
0
  6
Continuous
 62
     7
370
    15
100
AcDbSpline
210
0.0
220
0.0
230
1.0
 70
     8
 71
     3
 72
    12
 73
     8
 74
     0
 42
0.00000001
 43
0.00000001
 40
0.0
 40
0.0
 40
0.0
 40
0.0
 40
0.20340806467641
 40
0.4376405506491179
 40
0.7026190855415463
 40
0.8473900528225254
 40
1.0
 40
1.0
 40
1.0
 40
1.0
 10
285.4921464961482
 20
453.8043113933094
 30
0.0
 10
285.4707055960895
 20
454.1473217290239
 30
0.0
 10
285.4245746458589
 20
454.8853221246288
 30
0.0
 10
284.9124774444805
 20
455.9824393936775
 30
0.0
 10
284.1372644740626
 20
456.7651829722213
 30
0.0
 10
283.3094175845868
 20
457.2349170487239
 30
0.0
 10
282.8254332370443
 20
457.3611723937012
 30
0.0
 10
282.5770621341183
 20
457.4259641156681
 30
0.0
  0
SPLINE
  5
16B
330
1F
100
AcDbEntity
  8
0
  6
Continuous
 62
     7
370
    15
100
AcDbSpline
210
0.0
220
0.0
230
1.0
 70
     8
 71
     3
 72
    12
 73
     8
 74
     0
 42
0.00000001
 43
0.00000001
 40
0.0
 40
0.0
 40
0.0
 40
0.0
 40
0.155561090840467
 40
0.3022073696712271
 40
0.5679690148706087
 40
0.7999527754730017
 40
0.9999999999999999
 40
0.9999999999999999
 40
0.9999999999999999
 40
0.9999999999999999
 10
282.0767258447124
 20
454.468977688361
 30
0.0
 10
282.1172727264016
 20
454.4532279393939
 30
0.0
 10
282.1960428507135
 20
454.4226310196718
 30
0.0
 10
282.3256754049118
 20
454.3275894007345
 30
0.0
 10
282.4401111466878
 20
454.1814163194466
 30
0.0
 10
282.5042412016577
 20
453.9871590620762
 30
0.0
 10
282.4971211225026
 20
453.8621810810936
 30
0.0
 10
282.4938242476894
 20
453.8043113933094
 30
0.0
  0
LINE
  5
16C
330
1F
100
AcDbEntity
  8
0
  6
Continuous
 62
     7
370
    15
100
AcDbLine
 10
282.4929897827
 20
453.8543047891
 30
0.0
 11
282.4929897827
 21
453.6119076
 31
0.0
  0
LINE
  5
16D
330
1F
100
AcDbEntity
  8
0
  6
Continuous
 62
     7
370
    15
100
AcDbLine
 10
282.4929897827
 20
440.611911057
 30
0.0
 11
282.4929897827
 21
440.1956769214
 31
0.0
  0
LINE
  5
16E
330
1F
100
AcDbEntity
  8
0
  6
Continuous
 62
     7
370
    15
100
AcDbLine
 10
285.4929809612
 20
440.1956769214
 30
0.0
 11
285.4929809612
 21
440.6146528707
 31
0.0
  0
LINE
  5
16F
330
1F
100
AcDbEntity
  8
0
  6
Continuous
 62
     7
370
    15
100
AcDbLine
 10
285.4929809612
 20
453.6091657863
 30
0.0
 11
285.4929809612
 21
453.8543047891
 31
0.0
  0
LINE
  5
170
330
1F
100
AcDbEntity
  8
0
  6
Continuous
 62
     7
370
    15
100
AcDbLine
 10
271.7922722143
 20
452.7119072662
 30
0.0
 11
270.1739912075
 21
452.7119072662
 31
0.0
  0
LINE
  5
171
330
1F
100
AcDbEntity
  8
0
  6
Continuous
 62
     7
370
    15
100
AcDbLine
 10
270.8009128612
 20
451.9119086252
 30
0.0
 11
271.7922722143
 21
451.9119086252
 31
0.0
  0
LINE
  5
172
330
1F
100
AcDbEntity
  8
0
  6
Continuous
 62
     7
370
    15
100
AcDbLine
 10
272.130498771
 20
453.9800556884
 30
0.0
 11
271.8639617008
 21
452.7718099342
 31
0.0
  0
LINE
  5
173
330
1F
100
AcDbEntity
  8
0
  6
Continuous
 62
     7
370
    15
100
AcDbLine
 10
272.6321165603
 20
452.5402607904
 30
0.0
 11
272.9117070478
 21
453.8077237592
 31
0.0
  0
SPLINE
  5
174
330
1F
100
AcDbEntity
  8
0
  6
Continuous
 62
     7
370
    15
100
AcDbSpline
210
0.0
220
0.0
230
1.0
 70
     8
 71
     3
 72
    11
 73
     7
 74
     0
 42
0.00000001
 43
0.00000001
 40
0.0
 40
0.0
 40
0.0
 40
0.0
 40
0.2541322396080093
 40
0.5022676065307782
 40
0.7495073204938133
 40
1.0
 40
1.0
 40
1.0
 40
1.0
 10
271.792272214265
 20
451.9119086251744
 30
0.0
 10
271.8923606702785
 20
451.9221597435666
 30
0.0
 10
272.0901757500215
 20
451.9424200801026
 30
0.0
 10
272.3483224160651
 20
452.0964420689779
 30
0.0
 10
272.5517777065656
 20
452.3155136504577
 30
0.0
 10
272.6135073766815
 20
452.5025679738629
 30
0.0
 10
272.6445739310695
 20
452.5967063889988
 30
0.0
  0
LINE
  5
175
330
1F
100
AcDbEntity
  8
0
  6
Continuous
 62
     7
370
    15
100
AcDbLine
 10
271.403992657
 20
69.1119106994
 30
0.0
 11
271.403992657
 21
69.9119093404
 31
0.0
  0
LINE
  5
176
330
1F
100
AcDbEntity
  8
0
  6
Continuous
 62
     7
370
    15
100
AcDbLine
 10
271.403992657
 20
84.311914681
 30
0.0
 11
271.403992657
 21
85.111913322
 31
0.0
  0
LINE
  5
177
330
1F
100
AcDbEntity
  8
0
  6
Continuous
 62
     7
370
    15
100
AcDbLine
 10
266.4739881795
 20
85.4119184003
 30
0.0
 11
266.4739881795
 21
85.111913322
 31
0.0
  0
LINE
  5
178
330
1F
100
AcDbEntity
  8
0
  6
Continuous
 62
     7
370
    15
100
AcDbLine
 10
270.8739881557
 20
85.111913322
 30
0.0
 11
270.8739881557
 21
85.4119184003
 31
0.0
  0
ARC
  5
179
330
1F
100
AcDbEntity
  8
0
  6
Continuous
 62
     7
370
    15
100
AcDbCircle
 10
268.6739928096
 20
82.3047715378
 30
0.0
 40
3.807142857143277
100
AcDbArc
 50
54.6997515601
 51
125.3002484399
  0
LINE
  5
17A
330
1F
100
AcDbEntity
  8
0
  6
Continuous
 62
     7
370
    15
100
AcDbLine
 10
266.5739898723
 20
68.7119188295
 30
0.0
 11
266.5739898723
 21
68.3119120584
 31
0.0
  0
LINE
  5
17B
330
1F
100
AcDbEntity
  8
0
  6
Continuous
 62
     7
370
    15
100
AcDbLine
 10
270.7739864629
 20
68.3119120584
 30
0.0
 11
270.7739864629
 21
68.7119188295
 31
0.0
  0
ARC
  5
17C
330
1F
100
AcDbEntity
  8
0
  6
Continuous
 62
     7
370
    15
100
AcDbCircle
 10
266.7739928096
 20
69.1119143949
 30
0.0
 40
0.4000000000007731
100
AcDbArc
 50
270.0
 51
0.0
  0
ARC
  5
17D
330
1F
100
AcDbEntity
  8
0
  6
Continuous
 62
     7
370
    15
100
AcDbCircle
 10
270.5739928096
 20
69.1119143949
 30
0.0
 40
0.4000000000007731
100
AcDbArc
 50
180.0
 51
270.0
  0
LINE
  5
17E
330
1F
100
AcDbEntity
  8
0
  6
Continuous
 62
     7
370
    15
100
AcDbLine
 10
267.1740000289
 20
84.311914681
 30
0.0
 11
267.1740000289
 21
83.8619145141
 31
0.0
  0
LINE
  5
17F
330
1F
100
AcDbEntity
  8
0
  6
Continuous
 62
     7
370
    15
100
AcDbLine
 10
267.1740000289
 20
82.8619124876
 30
0.0
 11
267.1740000289
 21
82.373214005
 31
0.0
  0
LINE
  5
180
330
1F
100
AcDbEntity
  8
0
  6
Continuous
 62
     7
370
    15
100
AcDbLine
 10
267.1740000289
 20
81.5770896659
 30
0.0
 11
267.1740000289
 21
81.4214023338
 31
0.0
  0
LINE
  5
181
330
1F
100
AcDbEntity
  8
0
  6
Continuous
 62
     7
370
    15
100
AcDbLine
 10
267.1740000289
 20
72.1222879873
 30
0.0
 11
267.1740000289
 21
71.3619115339
 31
0.0
  0
LINE
  5
182
330
1F
100
AcDbEntity
  8
0
  6
Continuous
 62
     7
370
    15
100
AcDbLine
 10
267.1740000289
 20
70.3619095073
 30
0.0
 11
267.1740000289
 21
69.9119093404
 31
0.0
  0
LINE
  5
183
330
1F
100
AcDbEntity
  8
0
  6
Continuous
 62
     7
370
    15
100
AcDbLine
 10
270.1739912075
 20
69.9119093404
 30
0.0
 11
270.1739912075
 21
70.3619095073
 31
0.0
  0
LINE
  5
184
330
1F
100
AcDbEntity
  8
0
  6
Continuous
 62
     7
370
    15
100
AcDbLine
 10
270.1739912075
 20
71.3619115339
 30
0.0
 11
270.1739912075
 21
71.8490602956
 31
0.0
  0
LINE
  5
185
330
1F
100
AcDbEntity
  8
0
  6
Continuous
 62
     7
370
    15
100
AcDbLine
 10
270.1739912075
 20
81.1569812284
 30
0.0
 11
270.1739912075
 21
81.3449146734
 31
0.0
  0
LINE
  5
186
330
1F
100
AcDbEntity
  8
0
  6
Continuous
 62
     7
370
    15
100
AcDbLine
 10
270.1739912075
 20
82.0999863134
 30
0.0
 11
270.1739912075
 21
82.8619124876
 31
0.0
  0
LINE
  5
187
330
1F
100
AcDbEntity
  8
0
  6
Continuous
 62
     7
370
    15
100
AcDbLine
 10
270.1739912075
 20
83.8619145141
 30
0.0
 11
270.1739912075
 21
84.311914681
 31
0.0
  0
SPLINE
  5
188
330
1F
100
AcDbEntity
  8
0
  6
Continuous
 62
     7
370
    15
100
AcDbSpline
210
0.0
220
0.0
230
1.0
 70
     8
 71
     3
 72
    15
 73
    11
 74
     0
 42
0.00000001
 43
0.00000001
 40
0.0
 40
0.0
 40
0.0
 40
0.0
 40
0.1356024572950179
 40
0.2953305714495502
 40
0.4038104853344925
 40
0.5319618081968823
 40
0.6738452966783458
 40
0.8261133063493578
 40
0.9126143386647737
 40
1.0
 40
1.0
 40
1.0
 40
1.0
 10
270.1739912074519
 20
71.67796516280256
 30
0.0
 10
270.2183728795184
 20
71.67063848318361
 30
0.0
 10
270.3150323710551
 20
71.65468160067681
 30
0.0
 10
270.5218812979438
 20
71.70235525416416
 30
0.0
 10
270.7151518580897
 20
71.79007724359133
 30
0.0
 10
270.8617306713279
 20
71.90974109706875
 30
0.0
 10
270.9604370750943
 20
72.06064361564712
 30
0.0
 10
270.9900984873994
 20
72.18248268545338
 30
0.0
 10
270.9689193421767
 20
72.31173878650785
 30
0.0
 10
270.922667839069
 20
72.37840451486419
 30
0.0
 10
270.899424437852
 20
72.41190695624434
 30
0.0
  0
SPLINE
  5
189
330
1F
100
AcDbEntity
  8
0
  6
Continuous
 62
     7
370
    15
100
AcDbSpline
210
0.0
220
0.0
230
1.0
 70
     8
 71
     3
 72
    20
 73
    16
 74
     0
 42
0.00000001
 43
0.00000001
 40
0.0
 40
0.0
 40
0.0
 40
0.0
 40
0.060708135410005
 40
0.2265336634687164
 40
0.3908030075664746
 40
0.4705944238620196
 40
0.5476200665419776
 40
0.6228569631889666
 40
0.7003368802155423
 40
0.7786470553240675
 40
0.8566573914950292
 40
0.9330982965666872
 40
0.9703706402705808
 40
0.9892322431262632
 40
0.9999999999999999
 40
0.9999999999999999
 40
0.9999999999999999
 40
0.9999999999999999
 10
266.4377932589961
 20
72.41190695624434
 30
0.0
 10
266.4840678966707
 20
72.35857551727459
 30
0.0
 10
266.6567426646782
 20
72.15956814921304
 30
0.0
 10
267.0737144458899
 20
72.14163764145975
 30
0.0
 10
267.6386690944424
 20
72.06661444598723
 30
0.0
 10
268.1582822006567
 20
72.02367639506681
 30
0.0
 10
268.5521748661923
 20
71.99311565412847
 30
0.0
 10
268.9450865910249
 20
71.96544390780826
 30
0.0
 10
269.3262475779125
 20
71.93413433106025
 30
0.0
 10
269.6819709298626
 20
71.9016557088114
 30
0.0
 10
269.9845964388702
 20
71.87084005682779
 30
0.0
 10
270.1771027046153
 20
71.84794656355889
 30
0.0
 10
270.265234293384
 20
71.83990547602978
 30
0.0
 10
270.3106527576624
 20
71.83211386900906
 30
0.0
 10
270.3101040920662
 20
71.8360730643243
 30
0.0
 10
270.309904698701
 20
71.83751189570509
 30
0.0
  0
SPLINE
  5
18A
330
1F
100
AcDbEntity
  8
0
  6
Continuous
 62
     7
370
    15
100
AcDbSpline
210
0.0
220
0.0
230
1.0
 70
     8
 71
     3
 72
    18
 73
    14
 74
     0
 42
0.00000001
 43
0.00000001
 40
0.0
 40
0.0
 40
0.0
 40
0.0
 40
0.0449133917480374
 40
0.150470361828502
 40
0.2683898376111091
 40
0.3845426060295347
 40
0.4963557523084313
 40
0.60347064342464
 40
0.7163618097911877
 40
0.8333340476549583
 40
0.8935119314020412
 40
0.9536917879831922
 40
1.0
 40
1.0
 40
1.0
 40
1.0
 10
270.7802300494624
 20
80.99658512930952
 30
0.0
 10
270.7429274142668
 20
81.02239711360407
 30
0.0
 10
270.617954866067
 20
81.10887329509792
 30
0.0
 10
270.3613380818564
 20
81.13166617194493
 30
0.0
 10
269.9685101510664
 20
81.18520706064477
 30
0.0
 10
269.4570201224132
 20
81.23228182340445
 30
0.0
 10
268.9058900973557
 20
81.27805708793973
 30
0.0
 10
268.3437958903767
 20
81.31703709637092
 30
0.0
 10
267.8095193110152
 20
81.36176186506624
 30
0.0
 10
267.4118510517444
 20
81.40281024962545
 30
0.0
 10
267.1971597480829
 20
81.42395722268436
 30
0.0
 10
267.1010880171688
 20
81.42622497294339
 30
0.0
 10
267.0856458979986
 20
81.41016303167575
 30
0.0
 10
267.0789306205227
 20
81.40317821364482
 30
0.0
  0
SPLINE
  5
18B
330
1F
100
AcDbEntity
  8
0
  6
Continuous
 62
     7
370
    15
100
AcDbSpline
210
0.0
220
0.0
230
1.0
 70
     8
 71
     3
 72
    12
 73
     8
 74
     0
 42
0.00000001
 43
0.00000001
 40
0.0
 40
0.0
 40
0.0
 40
0.0
 40
0.2236727826515283
 40
0.4523109629168071
 40
0.6822373453413663
 40
0.910224173421194
 40
0.9999999999999999
 40
0.9999999999999999
 40
0.9999999999999999
 40
0.9999999999999999
 10
266.3796936315013
 20
82.21377158026777
 30
0.0
 10
266.3669536212903
 20
82.17122265479155
 30
0.0
 10
266.3411907805111
 20
82.08518024397554
 30
0.0
 10
266.4623394666851
 20
81.99356342141486
 30
0.0
 10
266.6940162606283
 20
81.89726696846697
 30
0.0
 10
266.9388671403973
 20
81.83476380509543
 30
0.0
 10
267.1222030811747
 20
81.83998963995475
 30
0.0
 10
267.1740000289394
 20
81.84146606783949
 30
0.0
  0
SPLINE
  5
18C
330
1F
100
AcDbEntity
  8
0
  6
Continuous
 62
     7
370
    15
100
AcDbSpline
210
0.0
220
0.0
230
1.0
 70
     8
 71
     3
 72
    19
 73
    15
 74
     0
 42
0.00000001
 43
0.00000001
 40
0.0
 40
0.0
 40
0.0
 40
0.0
 40
0.0979035393000115
 40
0.1753756563330696
 40
0.2884818590799323
 40
0.3734522648527735
 40
0.4570007918721557
 40
0.6168871148661501
 40
0.6796662618743397
 40
0.7634257762035627
 40
0.8137535179267188
 40
0.8702971343427371
 40
0.9323987965267058
 40
1.0
 40
1.0
 40
1.0
 40
1.0
 10
266.5559296649409
 20
81.7186357961186
 30
0.0
 10
266.6064414083131
 20
81.69226092974327
 30
0.0
 10
266.6969236340813
 20
81.64501534971266
 30
0.0
 10
267.0715436873589
 20
81.5843639059316
 30
0.0
 10
267.5580682566082
 20
81.53048178792746
 30
0.0
 10
268.1493918759704
 20
81.47723220389751
 30
0.0
 10
268.9034971983855
 20
81.42568717985846
 30
0.0
 10
269.5445916214811
 20
81.3587484135869
 30
0.0
 10
270.1938719854741
 20
81.32323106779121
 30
0.0
 10
270.5721969000732
 20
81.4014094734464
 30
0.0
 10
270.8240555344345
 20
81.50961852121652
 30
0.0
 10
270.9576387864782
 20
81.5979585100885
 30
0.0
 10
271.0194147981679
 20
81.67179807945779
 30
0.0
 10
270.9479709771905
 20
81.75231081117951
 30
0.0
 10
270.9107344191981
 20
81.79427409033858
 30
0.0
  0
SPLINE
  5
18D
330
1F
100
AcDbEntity
  8
0
  6
Continuous
 62
     7
370
    15
100
AcDbSpline
210
0.0
220
0.0
230
1.0
 70
     8
 71
     3
 72
    25
 73
    21
 74
     0
 42
0.00000001
 43
0.00000001
 40
0.0
 40
0.0
 40
0.0
 40
0.0
 40
0.0176246392394413
 40
0.0344969568561625
 40
0.0503139701869726
 40
0.0649734839709211
 40
0.0909455878916588
 40
0.1134382795111672
 40
0.1538392018677761
 40
0.1912341079625859
 40
0.2995703990746714
 40
0.3999631856971291
 40
0.5012954718041503
 40
0.5949059273016848
 40
0.6784890584446596
 40
0.7336301892255824
 40
0.8075201284145191
 40
0.8952852217971792
 40
0.945308569301786
 40
1.0
 40
1.0
 40
1.0
 40
1.0
 10
270.5534194749309
 20
81.16869354109846
 30
0.0
 10
270.5931250037161
 20
81.17308428464376
 30
0.0
 10
270.6708411994833
 20
81.18167834938406
 30
0.0
 10
270.772718832937
 20
81.22768653590664
 30
0.0
 10
270.8537393538572
 20
81.28664328062624
 30
0.0
 10
270.9299350911211
 20
81.37023160828701
 30
0.0
 10
270.9829905926425
 20
81.47387523139848
 30
0.0
 10
271.0071347854206
 20
81.60619954313961
 30
0.0
 10
270.9842598265842
 20
81.73806873296712
 30
0.0
 10
270.8130211045986
 20
81.98329243434155
 30
0.0
 10
270.470234598825
 20
82.07035619859317
 30
0.0
 10
269.9751210419128
 20
82.12891812007366
 30
0.0
 10
269.3619091177434
 20
82.1872819855571
 30
0.0
 10
268.7124371188405
 20
82.23690916433596
 30
0.0
 10
268.1727304643689
 20
82.27637135302618
 30
0.0
 10
267.7267227280148
 20
82.31555436510182
 30
0.0
 10
267.3380233977555
 20
82.35377394979837
 30
0.0
 10
267.0778660016368
 20
82.38163564290014
 30
0.0
 10
266.947422760512
 20
82.40412072446968
 30
0.0
 10
266.9387533738975
 20
82.41658055349951
 30
0.0
 10
266.9342254441692
 20
82.42308819155775
 30
0.0
  0
SPLINE
  5
18E
330
1F
100
AcDbEntity
  8
0
  6
Continuous
 62
     7
370
    15
100
AcDbSpline
210
0.0
220
0.0
230
1.0
 70
     8
 71
     3
 72
    12
 73
     8
 74
     0
 42
0.00000001
 43
0.00000001
 40
0.0
 40
0.0
 40
0.0
 40
0.0
 40
0.1756482571246792
 40
0.5723140617958544
 40
0.7586200854858739
 40
0.9207488491061101
 40
1.0
 40
1.0
 40
1.0
 40
1.0
 10
267.0225595277263
 20
81.60461211066325
 30
0.0
 10
266.9569954887521
 20
81.59543491964244
 30
0.0
 10
266.7433684248273
 20
81.56553291232973
 30
0.0
 10
266.5274664999324
 20
81.49163510467949
 30
0.0
 10
266.3662907153036
 20
81.27667514196871
 30
0.0
 10
266.3350918603493
 20
81.1164751514121
 30
0.0
 10
266.3660667273033
 20
81.03780683371342
 30
0.0
 10
266.3762365621043
 20
81.01197802882277
 30
0.0
  0
LINE
  5
18F
330
1F
100
AcDbEntity
  8
0
  6
Continuous
 62
     7
370
    15
100
AcDbLine
 10
266.5337567371
 20
72.31417024
 30
0.0
 11
265.415290479
 21
72.31417024
 31
0.0
  0
LINE
  5
190
330
1F
100
AcDbEntity
  8
0
  6
Continuous
 62
     7
370
    15
100
AcDbLine
 10
265.415290479
 20
71.514171599
 30
0.0
 11
267.1740000289
 21
71.514171599
 31
0.0
  0
LINE
  5
191
330
1F
100
AcDbEntity
  8
0
  6
Continuous
 62
     7
370
    15
100
AcDbLine
 10
264.0049998802
 20
85.111913322
 30
0.0
 11
264.0049998802
 21
85.1653786884
 31
0.0
  0
LINE
  5
192
330
1F
100
AcDbEntity
  8
0
  6
Continuous
 62
     7
370
    15
100
AcDbLine
 10
261.0050087017
 20
85.1653786884
 30
0.0
 11
261.0050087017
 21
85.111913322
 31
0.0
  0
SPLINE
  5
193
330
1F
100
AcDbEntity
  8
0
  6
Continuous
 62
     7
370
    15
100
AcDbSpline
210
0.0
220
0.0
230
1.0
 70
     8
 71
     3
 72
    15
 73
    11
 74
     0
 42
0.00000001
 43
0.00000001
 40
0.0
 40
0.0
 40
0.0
 40
0.0
 40
0.1077555912139558
 40
0.2352512867497204
 40
0.3627904866428148
 40
0.4902569396959399
 40
0.6176632283804692
 40
0.7450970579680405
 40
0.8724965220050076
 40
1.0
 40
1.0
 40
1.0
 40
1.0
 10
261.0210572522594
 20
69.111910699416
 30
0.0
 10
261.0375963790131
 20
68.79938846457367
 30
0.0
 10
261.0737044900325
 20
68.11709200964006
 30
0.0
 10
261.4099171806928
 20
67.10794397705774
 30
0.0
 10
261.9679970402326
 20
66.14446492805435
 30
0.0
 10
262.7228215692124
 20
65.32353815498284
 30
0.0
 10
263.6379862509264
 20
64.68827230147434
 30
0.0
 10
264.6652406427212
 20
64.26811171483321
 30
0.0
 10
265.7612206809198
 20
64.05431037967877
 30
0.0
 10
266.4969798509642
 20
64.11983490673417
 30
0.0
 10
266.8650095504237
 20
64.15261053900801
 30
0.0
  0
SPLINE
  5
194
330
1F
100
AcDbEntity
  8
0
  6
Continuous
 62
     7
370
    15
100
AcDbSpline
210
0.0
220
0.0
230
1.0
 70
     8
 71
     3
 72
    15
 73
    11
 74
     0
 42
0.00000001
 43
0.00000001
 40
0.0
 40
0.0
 40
0.0
 40
0.0
 40
0.1316477015390902
 40
0.2633131506816926
 40
0.3951896833002169
 40
0.5266691331754115
 40
0.6575482229644736
 40
0.7882147071164683
 40
0.9184600275433871
 40
1.0
 40
1.0
 40
1.0
 40
1.0
 10
266.3673107665492
 20
67.11029732089125
 30
0.0
 10
266.2151321469717
 20
67.09848325404516
 30
0.0
 10
265.9107543924125
 20
67.07485352768258
 30
0.0
 10
265.4598923788724
 20
67.17631995574754
 30
0.0
 10
265.0408689872027
 20
67.36319471568176
 30
0.0
 10
264.6704738483271
 20
67.63578509734758
 30
0.0
 10
264.3682025185825
 20
67.98169002219132
 30
0.0
 10
264.14905628902
 20
68.38340517330893
 30
0.0
 10
264.0316939795505
 20
68.7697160149292
 30
0.0
 10
264.0215116752159
 20
69.01678577004618
 30
0.0
 10
264.017591361375
 20
69.11191069941603
 30
0.0
  0
SPLINE
  5
195
330
1F
100
AcDbEntity
  8
0
  6
Continuous
 62
     7
370
    15
100
AcDbSpline
210
0.0
220
0.0
230
1.0
 70
     8
 71
     3
 72
    15
 73
    11
 74
     0
 42
0.00000001
 43
0.00000001
 40
0.0
 40
0.0
 40
0.0
 40
0.0
 40
0.1249271573134593
 40
0.2499157812410455
 40
0.3749662107914277
 40
0.4999574920693412
 40
0.6249213545005095
 40
0.74991694858065
 40
0.8748746337024725
 40
1.0
 40
1.0
 40
1.0
 40
1.0
 10
267.0358811658336
 20
90.0424393401631
 30
0.0
 10
266.6695043658378
 20
90.08577190715683
 30
0.0
 10
265.9365705012674
 20
90.17245836161808
 30
0.0
 10
264.8325492551216
 20
90.00725927266859
 30
0.0
 10
263.7917454244561
 20
89.61833736424263
 30
0.0
 10
262.8565590097301
 20
89.01331137871962
 30
0.0
 10
262.0759022142598
 20
88.21712731582565
 30
0.0
 10
261.4879462209144
 20
87.27275737329532
 30
0.0
 10
261.0921230485453
 20
86.22431417018825
 30
0.0
 10
261.0340597944594
 20
85.48519344574618
 30
0.0
 10
261.0050087016536
 20
85.11538529257857
 30
0.0
  0
SPLINE
  5
196
330
1F
100
AcDbEntity
  8
0
  6
Continuous
 62
     7
370
    15
100
AcDbSpline
210
0.0
220
0.0
230
1.0
 70
     8
 71
     3
 72
    15
 73
    11
 74
     0
 42
0.00000001
 43
0.00000001
 40
0.0
 40
0.0
 40
0.0
 40
0.0
 40
0.1242547575747437
 40
0.2486339489561042
 40
0.3735431332128678
 40
0.498583514202398
 40
0.62366622744625
 40
0.7490730252127812
 40
0.8744398960032305
 40
1.0
 40
1.0
 40
1.0
 40
1.0
 10
264.0049998801662
 20
85.11538529257857
 30
0.0
 10
264.0185552026265
 20
85.26734390010392
 30
0.0
 10
264.0456794224026
 20
85.57141329273205
 30
0.0
 10
264.2201670028772
 20
85.99872285844032
 30
0.0
 10
264.4734891902854
 20
86.38036304167196
 30
0.0
 10
264.8033110949968
 20
86.70029862184236
 30
0.0
 10
265.1942415676701
 20
86.94086908910559
 30
0.0
 10
265.6269368937836
 20
87.09249988806167
 30
0.0
 10
266.0844650473996
 20
87.14596204334215
 30
0.0
 10
266.3863790001307
 20
87.10526550753686
 30
0.0
 10
266.5374522250606
 20
87.0849015698918
 30
0.0
  0
LINE
  5
197
330
1F
100
AcDbEntity
  8
0
  6
Continuous
 62
     7
370
    15
100
AcDbLine
 10
281.9080596012
 20
69.7270455347
 30
0.0
 11
266.3670872491
 21
67.1106400476
 31
0.0
  0
LINE
  5
198
330
1F
100
AcDbEntity
  8
0
  6
Continuous
 62
     7
370
    15
100
AcDbLine
 10
266.865158562
 20
64.1522678123
 30
0.0
 11
282.4061160129
 21
66.7686882005
 31
0.0
  0
LINE
  5
199
330
1F
100
AcDbEntity
  8
0
  6
Continuous
 62
     7
370
    15
100
AcDbLine
 10
266.5376757425
 20
87.0844843374
 30
0.0
 11
282.0786480945
 21
84.4680639492
 31
0.0
  0
LINE
  5
19A
330
1F
100
AcDbEntity
  8
0
  6
Continuous
 62
     7
370
    15
100
AcDbLine
 10
282.5767045062
 20
87.4264212833
 30
0.0
 11
267.0357321542
 21
90.0428416715
 31
0.0
  0
SPLINE
  5
19B
330
1F
100
AcDbEntity
  8
0
  6
Continuous
 62
     7
370
    15
100
AcDbSpline
210
0.0
220
0.0
230
1.0
 70
     8
 71
     3
 72
    12
 73
     8
 74
     0
 42
0.00000001
 43
0.00000001
 40
0.0
 40
0.0
 40
0.0
 40
0.0
 40
0.152614372147587
 40
0.2973901043391633
 40
0.5623703041980945
 40
0.7966014804334398
 40
1.0
 40
1.0
 40
1.0
 40
1.0
 10
282.4057732861949
 20
66.76898622374617
 30
0.0
 10
282.6569920942986
 20
66.82173138512668
 30
0.0
 10
283.1465265103734
 20
66.92451258997394
 30
0.0
 10
283.9960594930907
 20
67.35373535561735
 30
0.0
 10
284.8080414525766
 20
68.09814105588153
 30
0.0
 10
285.3724933292427
 20
69.16917660281612
 30
0.0
 10
285.4541804964831
 20
69.90410533119778
 30
0.0
 10
285.4921464961483
 20
70.2456804500111
 30
0.0
  0
SPLINE
  5
19C
330
1F
100
AcDbEntity
  8
0
  6
Continuous
 62
     7
370
    15
100
AcDbSpline
210
0.0
220
0.0
230
1.0
 70
     8
 71
     3
 72
    11
 73
     7
 74
     0
 42
0.00000001
 43
0.00000001
 40
0.0
 40
0.0
 40
0.0
 40
0.0
 40
0.2003612183303601
 40
0.4328064177399985
 40
0.6990203462100683
 40
1.0
 40
1.0
 40
1.0
 40
1.0
 10
282.4938242476894
 20
70.2456804500111
 30
0.0
 10
282.4805972311403
 20
70.18925165769733
 30
0.0
 10
282.4520251466936
 20
70.06735809135623
 30
0.0
 10
282.3361353823892
 20
69.90166536323855
 30
0.0
 10
282.1513955978661
 20
69.76274150779493
 30
0.0
 10
281.9937728979186
 20
69.73936225917241
 30
0.0
 10
281.9101308625652
 20
69.72695612769209
 30
0.0
  0
SPLINE
  5
19D
330
1F
100
AcDbEntity
  8
0
  6
Continuous
 62
     7
370
    15
100
AcDbSpline
210
0.0
220
0.0
230
1.0
 70
     8
 71
     3
 72
    12
 73
     8
 74
     0
 42
0.00000001
 43
0.00000001
 40
0.0
 40
0.0
 40
0.0
 40
0.0
 40
0.2034078873662362
 40
0.4376401691592187
 40
0.7026184730706869
 40
0.8473893141552667
 40
1.0
 40
1.0
 40
1.0
 40
1.0
 10
285.4921464961482
 20
83.80430662493788
 30
0.0
 10
285.4707056062562
 20
84.1473169934981
 30
0.0
 10
285.4245746778996
 20
84.88531745977195
 30
0.0
 10
284.9124772849654
 20
85.98243410995646
 30
0.0
 10
284.1372650245475
 20
86.76517998231212
 30
0.0
 10
283.3094152303419
 20
87.23490954830018
 30
0.0
 10
282.8254328950392
 20
87.36117642728658
 30
0.0
 10
282.5770621341182
 20
87.42597424845778
 30
0.0
  0
SPLINE
  5
19E
330
1F
100
AcDbEntity
  8
0
  6
Continuous
 62
     7
370
    15
100
AcDbSpline
210
0.0
220
0.0
230
1.0
 70
     8
 71
     3
 72
    12
 73
     8
 74
     0
 42
0.00000001
 43
0.00000001
 40
0.0
 40
0.0
 40
0.0
 40
0.0
 40
0.155560948770158
 40
0.3022070936722985
 40
0.56796849615778
 40
0.7999357583981019
 40
1.0
 40
1.0
 40
1.0
 40
1.0
 10
282.0767258447124
 20
84.46897291998945
 30
0.0
 10
282.117272715558
 20
84.45322316675585
 30
0.0
 10
282.1960428188046
 20
84.42262623874525
 30
0.0
 10
282.3256755641489
 20
84.32758469501667
 30
0.0
 10
282.4401071581404
 20
84.18141481414723
 30
0.0
 10
282.5042436083745
 20
83.98716019304547
 30
0.0
 10
282.4971220732299
 20
83.86218149704594
 30
0.0
 10
282.4938242476894
 20
83.80430662493785
 30
0.0
  0
LINE
  5
19F
330
1F
100
AcDbEntity
  8
0
  6
Continuous
 62
     7
370
    15
100
AcDbLine
 10
282.4929897827
 20
83.8543149219
 30
0.0
 11
282.4929897827
 21
83.6119177328
 31
0.0
  0
LINE
  5
1A0
330
1F
100
AcDbEntity
  8
0
  6
Continuous
 62
     7
370
    15
100
AcDbLine
 10
282.4929897827
 20
70.6119211898
 30
0.0
 11
282.4929897827
 21
70.195672153
 31
0.0
  0
LINE
  5
1A1
330
1F
100
AcDbEntity
  8
0
  6
Continuous
 62
     7
370
    15
100
AcDbLine
 10
285.4929809612
 20
70.195672153
 30
0.0
 11
285.4929809612
 21
70.6146630035
 31
0.0
  0
LINE
  5
1A2
330
1F
100
AcDbEntity
  8
0
  6
Continuous
 62
     7
370
    15
100
AcDbLine
 10
285.4929809612
 20
83.6091759191
 30
0.0
 11
285.4929809612
 21
83.8543149219
 31
0.0
  0
LINE
  5
1A3
330
1F
100
AcDbEntity
  8
0
  6
Continuous
 62
     7
370
    15
100
AcDbLine
 10
271.7922722143
 20
82.711917399
 30
0.0
 11
270.1739912075
 21
82.711917399
 31
0.0
  0
LINE
  5
1A4
330
1F
100
AcDbEntity
  8
0
  6
Continuous
 62
     7
370
    15
100
AcDbLine
 10
270.8009128612
 20
81.911918758
 30
0.0
 11
271.7922722143
 21
81.911918758
 31
0.0
  0
LINE
  5
1A5
330
1F
100
AcDbEntity
  8
0
  6
Continuous
 62
     7
370
    15
100
AcDbLine
 10
272.130498771
 20
83.9800509201
 30
0.0
 11
271.8639617008
 21
82.7718051658
 31
0.0
  0
LINE
  5
1A6
330
1F
100
AcDbEntity
  8
0
  6
Continuous
 62
     7
370
    15
100
AcDbLine
 10
272.6321165603
 20
82.540256022
 30
0.0
 11
272.9117070478
 21
83.8077189909
 31
0.0
  0
SPLINE
  5
1A7
330
1F
100
AcDbEntity
  8
0
  6
Continuous
 62
     7
370
    15
100
AcDbSpline
210
0.0
220
0.0
230
1.0
 70
     8
 71
     3
 72
    11
 73
     7
 74
     0
 42
0.00000001
 43
0.00000001
 40
0.0
 40
0.0
 40
0.0
 40
0.0
 40
0.2541311630691059
 40
0.5022676364033828
 40
0.7495179365131207
 40
1.0
 40
1.0
 40
1.0
 40
1.0
 10
271.792272214265
 20
81.911918757964
 30
0.0
 10
271.8923606475605
 20
81.92216388221632
 30
0.0
 10
272.0901765321435
 20
81.94241245889903
 30
0.0
 10
272.3483281192928
 20
82.09643809580261
 30
0.0
 10
272.551769536565
 20
82.31551932705047
 30
0.0
 10
272.6135055161944
 20
82.50256935244099
 30
0.0
 10
272.6445739310695
 20
82.59670162062727
 30
0.0
  0
LINE
  5
1A8
330
1F
100
AcDbEntity
  8
0
  6
Continuous
 62
     7
370
    15
100
AcDbLine
 10
281.7726080459
 20
83.6119177328
 30
0.0
 11
281.7726080459
 21
70.6119211898
 31
0.0
  0
LINE
  5
1A9
330
1F
100
AcDbEntity
  8
0
  6
Continuous
 62
     7
370
    15
100
AcDbLine
 10
281.7726080459
 20
83.6119177328
 30
0.0
 11
284.4915782255
 21
83.6119177328
 31
0.0
  0
LWPOLYLINE
  5
1AA
330
1F
100
AcDbEntity
  8
0
  6
Continuous
 62
     7
370
    15
100
AcDbPolyline
 90
        9
 70
   128
 43
0.0
 10
285.2220927518
 20
82.4119123207
 10
285.208055858
 20
82.6460244642
 10
285.1664965194
 20
82.8711363063
 10
285.098979358
 20
83.0786051736
 10
285.0081418794
 20
83.2604440437
 10
284.8974411529
 20
83.409679173
 10
284.7711389106
 20
83.5205736146
 10
284.6340929311
 20
83.5888507352
 10
284.4915782255
 20
83.6119177328
  0
LINE
  5
1AB
330
1F
100
AcDbEntity
  8
0
  6
Continuous
 62
     7
370
    15
100
AcDbLine
 10
285.2220927518
 20
82.4119123207
 30
0.0
 11
285.2220927518
 21
71.8119117008
 31
0.0
  0
LWPOLYLINE
  5
1AC
330
1F
100
AcDbEntity
  8
0
  6
Continuous
 62
     7
370
    15
100
AcDbPolyline
 90
        9
 70
   128
 43
0.0
 10
284.4915782255
 20
70.6119211898
 10
284.6340929311
 20
70.6349732862
 10
284.7711389106
 20
70.703265308
 10
284.8974411529
 20
70.8141448484
 10
285.0081418794
 20
70.9633799778
 10
285.098979358
 20
71.145233749
 10
285.1664965194
 20
71.3526877151
 10
285.208055858
 20
71.5777995573
 10
285.2220927518
 20
71.8119117008
  0
LINE
  5
1AD
330
1F
100
AcDbEntity
  8
0
  6
Continuous
 62
     7
370
    15
100
AcDbLine
 10
284.4915782255
 20
70.6119211898
 30
0.0
 11
281.7726080459
 21
70.6119211898
 31
0.0
  0
LINE
  5
1AE
330
1F
100
AcDbEntity
  8
0
  6
Continuous
 62
     7
370
    15
100
AcDbLine
 10
286.1741279405
 20
82.4119123207
 30
0.0
 11
285.2220927518
 21
82.4119123207
 31
0.0
  0
LINE
  5
1AF
330
1F
100
AcDbEntity
  8
0
  6
Continuous
 62
     7
370
    15
100
AcDbLine
 10
286.1741279405
 20
82.4119123207
 30
0.0
 11
286.1741279405
 21
71.8119117008
 31
0.0
  0
LINE
  5
1B0
330
1F
100
AcDbEntity
  8
0
  6
Continuous
 62
     7
370
    15
100
AcDbLine
 10
285.2220927518
 20
71.8119117008
 30
0.0
 11
286.1741279405
 21
71.8119117008
 31
0.0
  0
LINE
  5
1B1
330
1F
100
AcDbEntity
  8
0
  6
Continuous
 62
     7
370
    15
100
AcDbLine
 10
285.4436134141
 20
70.6119211898
 30
0.0
 11
284.4915782255
 21
70.6119211898
 31
0.0
  0
LWPOLYLINE
  5
1B2
330
1F
100
AcDbEntity
  8
0
  6
Continuous
 62
     7
370
    15
100
AcDbPolyline
 90
        9
 70
   128
 43
0.0
 10
286.1741279405
 20
71.8119117008
 10
286.1600910467
 20
71.5777995573
 10
286.1185168069
 20
71.3526877151
 10
286.0510145467
 20
71.145233749
 10
285.9601621669
 20
70.9633799778
 10
285.8494614404
 20
70.8141448484
 10
285.7231591981
 20
70.703265308
 10
285.5861281198
 20
70.6349732862
 10
285.4436134141
 20
70.6119211898
  0
LINE
  5
1B3
330
1F
100
AcDbEntity
  8
0
  6
Continuous
 62
     7
370
    15
100
AcDbLine
 10
284.4915782255
 20
83.6119177328
 30
0.0
 11
285.4436134141
 21
83.6119177328
 31
0.0
  0
LWPOLYLINE
  5
1B4
330
1F
100
AcDbEntity
  8
0
  6
Continuous
 62
     7
370
    15
100
AcDbPolyline
 90
        9
 70
   128
 43
0.0
 10
285.4436134141
 20
83.6119177328
 10
285.5861281198
 20
83.5888507352
 10
285.7231591981
 20
83.5205736146
 10
285.8494614404
 20
83.409679173
 10
285.9601621669
 20
83.2604440437
 10
286.0510145467
 20
83.0786051736
 10
286.1185168069
 20
82.8711363063
 10
286.1600910467
 20
82.6460244642
 10
286.1741279405
 20
82.4119123207
  0
LINE
  5
1B5
330
1F
100
AcDbEntity
  8
0
  6
Continuous
 62
     7
370
    15
100
AcDbLine
 10
281.7726080459
 20
453.6119076
 30
0.0
 11
281.7726080459
 21
440.611911057
 31
0.0
  0
LINE
  5
1B6
330
1F
100
AcDbEntity
  8
0
  6
Continuous
 62
     7
370
    15
100
AcDbLine
 10
281.7726080459
 20
453.6119076
 30
0.0
 11
284.4915782255
 21
453.6119076
 31
0.0
  0
LWPOLYLINE
  5
1B7
330
1F
100
AcDbEntity
  8
0
  6
Continuous
 62
     7
370
    15
100
AcDbPolyline
 90
        9
 70
   128
 43
0.0
 10
285.2220927518
 20
452.411917089
 10
285.208055858
 20
452.6460292326
 10
285.1664965194
 20
452.8711410747
 10
285.098979358
 20
453.0785950408
 10
285.0081418794
 20
453.2604488121
 10
284.8974411529
 20
453.4096839414
 10
284.7711389106
 20
453.5205634819
 10
284.6340929311
 20
453.5888555036
 10
284.4915782255
 20
453.6119076
  0
LINE
  5
1B8
330
1F
100
AcDbEntity
  8
0
  6
Continuous
 62
     7
370
    15
100
AcDbLine
 10
285.2220927518
 20
452.411917089
 30
0.0
 11
285.2220927518
 21
441.8119164691
 31
0.0
  0
LWPOLYLINE
  5
1B9
330
1F
100
AcDbEntity
  8
0
  6
Continuous
 62
     7
370
    15
100
AcDbPolyline
 90
        9
 70
   128
 43
0.0
 10
284.4915782255
 20
440.611911057
 10
284.6340929311
 20
440.6349780546
 10
284.7711389106
 20
440.7032551752
 10
284.8974411529
 20
440.8141496168
 10
285.0081418794
 20
440.9633847461
 10
285.098979358
 20
441.1452236162
 10
285.1664965194
 20
441.3526924835
 10
285.208055858
 20
441.5778043256
 10
285.2220927518
 20
441.8119164691
  0
LINE
  5
1BA
330
1F
100
AcDbEntity
  8
0
  6
Continuous
 62
     7
370
    15
100
AcDbLine
 10
284.4915782255
 20
440.611911057
 30
0.0
 11
281.7726080459
 21
440.611911057
 31
0.0
  0
LINE
  5
1BB
330
1F
100
AcDbEntity
  8
0
  6
Continuous
 62
     7
370
    15
100
AcDbLine
 10
285.4436134141
 20
440.611911057
 30
0.0
 11
284.4915782255
 21
440.611911057
 31
0.0
  0
LINE
  5
1BC
330
1F
100
AcDbEntity
  8
0
  6
Continuous
 62
     7
370
    15
100
AcDbLine
 10
285.2220927518
 20
441.8119164691
 30
0.0
 11
286.1741279405
 21
441.8119164691
 31
0.0
  0
LWPOLYLINE
  5
1BD
330
1F
100
AcDbEntity
  8
0
  6
Continuous
 62
     7
370
    15
100
AcDbPolyline
 90
        9
 70
   128
 43
0.0
 10
286.1741279405
 20
441.8119164691
 10
286.1600910467
 20
441.5778043256
 10
286.1185168069
 20
441.3526924835
 10
286.0510145467
 20
441.1452236162
 10
285.9601621669
 20
440.9633847461
 10
285.8494614404
 20
440.8141496168
 10
285.7231591981
 20
440.7032551752
 10
285.5861281198
 20
440.6349780546
 10
285.4436134141
 20
440.611911057
  0
LINE
  5
1BE
330
1F
100
AcDbEntity
  8
0
  6
Continuous
 62
     7
370
    15
100
AcDbLine
 10
286.1741279405
 20
452.411917089
 30
0.0
 11
285.2220927518
 21
452.411917089
 31
0.0
  0
LINE
  5
1BF
330
1F
100
AcDbEntity
  8
0
  6
Continuous
 62
     7
370
    15
100
AcDbLine
 10
286.1741279405
 20
452.411917089
 30
0.0
 11
286.1741279405
 21
441.8119164691
 31
0.0
  0
LINE
  5
1C0
330
1F
100
AcDbEntity
  8
0
  6
Continuous
 62
     7
370
    15
100
AcDbLine
 10
284.4915782255
 20
453.6119076
 30
0.0
 11
285.4436134141
 21
453.6119076
 31
0.0
  0
LWPOLYLINE
  5
1C1
330
1F
100
AcDbEntity
  8
0
  6
Continuous
 62
     7
370
    15
100
AcDbPolyline
 90
        9
 70
   128
 43
0.0
 10
285.4436134141
 20
453.6119076
 10
285.5861281198
 20
453.5888555036
 10
285.7231591981
 20
453.5205634819
 10
285.8494614404
 20
453.4096839414
 10
285.9601621669
 20
453.2604488121
 10
286.0510145467
 20
453.0785950408
 10
286.1185168069
 20
452.8711410747
 10
286.1600910467
 20
452.6460292326
 10
286.1741279405
 20
452.411917089
  0
LINE
  5
1C2
330
1F
100
AcDbEntity
  8
0
  6
Continuous
 62
     7
370
    15
100
AcDbLine
 10
281.1939959568
 20
83.6119177328
 30
0.0
 11
281.7726080459
 21
83.6119177328
 31
0.0
  0
LINE
  5
1C3
330
1F
100
AcDbEntity
  8
0
  6
Continuous
 62
     7
370
    15
100
AcDbLine
 10
281.7726080459
 20
70.6119211898
 30
0.0
 11
281.1939959568
 21
70.6119211898
 31
0.0
  0
LINE
  5
1C4
330
1F
100
AcDbEntity
  8
0
  6
Continuous
 62
     7
370
    15
100
AcDbLine
 10
281.1939959568
 20
453.6119076
 30
0.0
 11
281.7726080459
 21
453.6119076
 31
0.0
  0
LINE
  5
1C5
330
1F
100
AcDbEntity
  8
0
  6
Continuous
 62
     7
370
    15
100
AcDbLine
 10
281.7726080459
 20
440.611911057
 30
0.0
 11
281.1939959568
 21
440.611911057
 31
0.0
  0
CIRCLE
  5
1C6
330
1F
100
AcDbEntity
  8
0
  6
Continuous
 62
     7
370
    15
100
AcDbCircle
 10
291.6939928096
 20
72.1119143949
 30
0.0
 40
3.0
  0
LINE
  5
1C7
330
1F
100
AcDbEntity
  8
0
  6
Continuous
 62
     7
370
    15
100
AcDbLine
 10
291.2939881128
 20
70.2119144187
 30
0.0
 11
292.0939867538
 21
70.2119144187
 31
0.0
  0
LINE
  5
1C8
330
1F
100
AcDbEntity
  8
0
  6
Continuous
 62
     7
370
    15
100
AcDbLine
 10
292.0939867538
 20
70.2119144187
 30
0.0
 11
292.0939867538
 21
71.711910008
 31
0.0
  0
LINE
  5
1C9
330
1F
100
AcDbEntity
  8
0
  6
Continuous
 62
     7
370
    15
100
AcDbLine
 10
292.0939867538
 20
71.711910008
 30
0.0
 11
293.5939972442
 21
71.711910008
 31
0.0
  0
LINE
  5
1CA
330
1F
100
AcDbEntity
  8
0
  6
Continuous
 62
     7
370
    15
100
AcDbLine
 10
293.5939972442
 20
71.711910008
 30
0.0
 11
293.5939972442
 21
72.511908649
 31
0.0
  0
LINE
  5
1CB
330
1F
100
AcDbEntity
  8
0
  6
Continuous
 62
     7
370
    15
100
AcDbLine
 10
293.5939972442
 20
72.511908649
 30
0.0
 11
292.0939867538
 21
72.511908649
 31
0.0
  0
LINE
  5
1CC
330
1F
100
AcDbEntity
  8
0
  6
Continuous
 62
     7
370
    15
100
AcDbLine
 10
292.0939867538
 20
72.511908649
 30
0.0
 11
292.0939867538
 21
74.0119191394
 31
0.0
  0
LINE
  5
1CD
330
1F
100
AcDbEntity
  8
0
  6
Continuous
 62
     7
370
    15
100
AcDbLine
 10
292.0939867538
 20
74.0119191394
 30
0.0
 11
291.2939881128
 21
74.0119191394
 31
0.0
  0
LINE
  5
1CE
330
1F
100
AcDbEntity
  8
0
  6
Continuous
 62
     7
370
    15
100
AcDbLine
 10
291.2939881128
 20
74.0119191394
 30
0.0
 11
291.2939881128
 21
72.511908649
 31
0.0
  0
LINE
  5
1CF
330
1F
100
AcDbEntity
  8
0
  6
Continuous
 62
     7
370
    15
100
AcDbLine
 10
291.2939881128
 20
72.511908649
 30
0.0
 11
289.7939925235
 21
72.511908649
 31
0.0
  0
LINE
  5
1D0
330
1F
100
AcDbEntity
  8
0
  6
Continuous
 62
     7
370
    15
100
AcDbLine
 10
289.7939925235
 20
72.511908649
 30
0.0
 11
289.7939925235
 21
71.711910008
 31
0.0
  0
LINE
  5
1D1
330
1F
100
AcDbEntity
  8
0
  6
Continuous
 62
     7
370
    15
100
AcDbLine
 10
289.7939925235
 20
71.711910008
 30
0.0
 11
291.2939881128
 21
71.711910008
 31
0.0
  0
LINE
  5
1D2
330
1F
100
AcDbEntity
  8
0
  6
Continuous
 62
     7
370
    15
100
AcDbLine
 10
291.2939881128
 20
71.711910008
 30
0.0
 11
291.2939881128
 21
70.2119144187
 31
0.0
  0
CIRCLE
  5
1D3
330
1F
100
AcDbEntity
  8
0
  6
Continuous
 62
     7
370
    15
100
AcDbCircle
 10
291.6939928096
 20
82.1119143949
 30
0.0
 40
3.0
  0
LINE
  5
1D4
330
1F
100
AcDbEntity
  8
0
  6
Continuous
 62
     7
370
    15
100
AcDbLine
 10
291.2939881128
 20
82.5119140134
 30
0.0
 11
289.7939925235
 21
82.5119140134
 31
0.0
  0
LINE
  5
1D5
330
1F
100
AcDbEntity
  8
0
  6
Continuous
 62
     7
370
    15
100
AcDbLine
 10
289.7939925235
 20
82.5119140134
 30
0.0
 11
289.7939925235
 21
81.7119153724
 31
0.0
  0
LINE
  5
1D6
330
1F
100
AcDbEntity
  8
0
  6
Continuous
 62
     7
370
    15
100
AcDbLine
 10
289.7939925235
 20
81.7119153724
 30
0.0
 11
291.2939881128
 21
81.7119153724
 31
0.0
  0
LINE
  5
1D7
330
1F
100
AcDbEntity
  8
0
  6
Continuous
 62
     7
370
    15
100
AcDbLine
 10
291.2939881128
 20
81.7119153724
 30
0.0
 11
291.2939881128
 21
80.2119197832
 31
0.0
  0
LINE
  5
1D8
330
1F
100
AcDbEntity
  8
0
  6
Continuous
 62
     7
370
    15
100
AcDbLine
 10
291.2939881128
 20
80.2119197832
 30
0.0
 11
292.0939867538
 21
80.2119197832
 31
0.0
  0
LINE
  5
1D9
330
1F
100
AcDbEntity
  8
0
  6
Continuous
 62
     7
370
    15
100
AcDbLine
 10
292.0939867538
 20
80.2119197832
 30
0.0
 11
292.0939867538
 21
81.7119153724
 31
0.0
  0
LINE
  5
1DA
330
1F
100
AcDbEntity
  8
0
  6
Continuous
 62
     7
370
    15
100
AcDbLine
 10
292.0939867538
 20
81.7119153724
 30
0.0
 11
293.5939972442
 21
81.7119153724
 31
0.0
  0
LINE
  5
1DB
330
1F
100
AcDbEntity
  8
0
  6
Continuous
 62
     7
370
    15
100
AcDbLine
 10
293.5939972442
 20
81.7119153724
 30
0.0
 11
293.5939972442
 21
82.5119140134
 31
0.0
  0
LINE
  5
1DC
330
1F
100
AcDbEntity
  8
0
  6
Continuous
 62
     7
370
    15
100
AcDbLine
 10
293.5939972442
 20
82.5119140134
 30
0.0
 11
292.0939867538
 21
82.5119140134
 31
0.0
  0
LINE
  5
1DD
330
1F
100
AcDbEntity
  8
0
  6
Continuous
 62
     7
370
    15
100
AcDbLine
 10
292.0939867538
 20
82.5119140134
 30
0.0
 11
292.0939867538
 21
84.0119096027
 31
0.0
  0
LINE
  5
1DE
330
1F
100
AcDbEntity
  8
0
  6
Continuous
 62
     7
370
    15
100
AcDbLine
 10
292.0939867538
 20
84.0119096027
 30
0.0
 11
291.2939881128
 21
84.0119096027
 31
0.0
  0
LINE
  5
1DF
330
1F
100
AcDbEntity
  8
0
  6
Continuous
 62
     7
370
    15
100
AcDbLine
 10
291.2939881128
 20
84.0119096027
 30
0.0
 11
291.2939881128
 21
82.5119140134
 31
0.0
  0
LINE
  5
1E0
330
1F
100
AcDbEntity
  8
0
  6
Continuous
 62
     7
370
    15
100
AcDbLine
 10
291.2939881128
 20
440.2119191871
 30
0.0
 11
292.0939867538
 21
440.2119191871
 31
0.0
  0
LINE
  5
1E1
330
1F
100
AcDbEntity
  8
0
  6
Continuous
 62
     7
370
    15
100
AcDbLine
 10
292.0939867538
 20
440.2119191871
 30
0.0
 11
292.0939867538
 21
441.7119147764
 31
0.0
  0
LINE
  5
1E2
330
1F
100
AcDbEntity
  8
0
  6
Continuous
 62
     7
370
    15
100
AcDbLine
 10
292.0939867538
 20
441.7119147764
 30
0.0
 11
293.5939972442
 21
441.7119147764
 31
0.0
  0
LINE
  5
1E3
330
1F
100
AcDbEntity
  8
0
  6
Continuous
 62
     7
370
    15
100
AcDbLine
 10
293.5939972442
 20
441.7119147764
 30
0.0
 11
293.5939972442
 21
442.5119134174
 31
0.0
  0
LINE
  5
1E4
330
1F
100
AcDbEntity
  8
0
  6
Continuous
 62
     7
370
    15
100
AcDbLine
 10
293.5939972442
 20
442.5119134174
 30
0.0
 11
292.0939867538
 21
442.5119134174
 31
0.0
  0
LINE
  5
1E5
330
1F
100
AcDbEntity
  8
0
  6
Continuous
 62
     7
370
    15
100
AcDbLine
 10
292.0939867538
 20
442.5119134174
 30
0.0
 11
292.0939867538
 21
444.0119090066
 31
0.0
  0
LINE
  5
1E6
330
1F
100
AcDbEntity
  8
0
  6
Continuous
 62
     7
370
    15
100
AcDbLine
 10
292.0939867538
 20
444.0119090066
 30
0.0
 11
291.2939881128
 21
444.0119090066
 31
0.0
  0
LINE
  5
1E7
330
1F
100
AcDbEntity
  8
0
  6
Continuous
 62
     7
370
    15
100
AcDbLine
 10
291.2939881128
 20
444.0119090066
 30
0.0
 11
291.2939881128
 21
442.5119134174
 31
0.0
  0
LINE
  5
1E8
330
1F
100
AcDbEntity
  8
0
  6
Continuous
 62
     7
370
    15
100
AcDbLine
 10
291.2939881128
 20
441.7119147764
 30
0.0
 11
291.2939881128
 21
440.2119191871
 31
0.0
  0
LINE
  5
1E9
330
1F
100
AcDbEntity
  8
0
  6
Continuous
 62
     7
370
    15
100
AcDbLine
 10
289.7939925235
 20
442.5119134174
 30
0.0
 11
289.7939925235
 21
441.7119147764
 31
0.0
  0
CIRCLE
  5
1EA
330
1F
100
AcDbEntity
  8
0
  6
Continuous
 62
     7
370
    15
100
AcDbCircle
 10
291.6939928096
 20
442.1119143949
 30
0.0
 40
3.0
  0
LINE
  5
1EB
330
1F
100
AcDbEntity
  8
0
  6
Continuous
 62
     7
370
    15
100
AcDbLine
 10
289.7939925235
 20
441.7119147764
 30
0.0
 11
291.2939881128
 21
441.7119147764
 31
0.0
  0
LINE
  5
1EC
330
1F
100
AcDbEntity
  8
0
  6
Continuous
 62
     7
370
    15
100
AcDbLine
 10
291.2939881128
 20
442.5119134174
 30
0.0
 11
289.7939925235
 21
442.5119134174
 31
0.0
  0
CIRCLE
  5
1ED
330
1F
100
AcDbEntity
  8
0
  6
Continuous
 62
     7
370
    15
100
AcDbCircle
 10
291.6939928096
 20
452.1119143949
 30
0.0
 40
3.0
  0
LINE
  5
1EE
330
1F
100
AcDbEntity
  8
0
  6
Continuous
 62
     7
370
    15
100
AcDbLine
 10
291.2939881128
 20
451.7119201408
 30
0.0
 11
291.2939881128
 21
450.2119096504
 31
0.0
  0
LINE
  5
1EF
330
1F
100
AcDbEntity
  8
0
  6
Continuous
 62
     7
370
    15
100
AcDbLine
 10
291.2939881128
 20
450.2119096504
 30
0.0
 11
292.0939867538
 21
450.2119096504
 31
0.0
  0
LINE
  5
1F0
330
1F
100
AcDbEntity
  8
0
  6
Continuous
 62
     7
370
    15
100
AcDbLine
 10
292.0939867538
 20
450.2119096504
 30
0.0
 11
292.0939867538
 21
451.7119201408
 31
0.0
  0
LINE
  5
1F1
330
1F
100
AcDbEntity
  8
0
  6
Continuous
 62
     7
370
    15
100
AcDbLine
 10
292.0939867538
 20
451.7119201408
 30
0.0
 11
293.5939972442
 21
451.7119201408
 31
0.0
  0
LINE
  5
1F2
330
1F
100
AcDbEntity
  8
0
  6
Continuous
 62
     7
370
    15
100
AcDbLine
 10
293.5939972442
 20
451.7119201408
 30
0.0
 11
293.5939972442
 21
452.5119187818
 31
0.0
  0
LINE
  5
1F3
330
1F
100
AcDbEntity
  8
0
  6
Continuous
 62
     7
370
    15
100
AcDbLine
 10
293.5939972442
 20
452.5119187818
 30
0.0
 11
292.0939867538
 21
452.5119187818
 31
0.0
  0
LINE
  5
1F4
330
1F
100
AcDbEntity
  8
0
  6
Continuous
 62
     7
370
    15
100
AcDbLine
 10
292.0939867538
 20
452.5119187818
 30
0.0
 11
292.0939867538
 21
454.0119143711
 31
0.0
  0
LINE
  5
1F5
330
1F
100
AcDbEntity
  8
0
  6
Continuous
 62
     7
370
    15
100
AcDbLine
 10
292.0939867538
 20
454.0119143711
 30
0.0
 11
291.2939881128
 21
454.0119143711
 31
0.0
  0
LINE
  5
1F6
330
1F
100
AcDbEntity
  8
0
  6
Continuous
 62
     7
370
    15
100
AcDbLine
 10
291.2939881128
 20
454.0119143711
 30
0.0
 11
291.2939881128
 21
452.5119187818
 31
0.0
  0
LINE
  5
1F7
330
1F
100
AcDbEntity
  8
0
  6
Continuous
 62
     7
370
    15
100
AcDbLine
 10
289.7939925235
 20
451.7119201408
 30
0.0
 11
291.2939881128
 21
451.7119201408
 31
0.0
  0
LINE
  5
1F8
330
1F
100
AcDbEntity
  8
0
  6
Continuous
 62
     7
370
    15
100
AcDbLine
 10
291.2939881128
 20
452.5119187818
 30
0.0
 11
289.7939925235
 21
452.5119187818
 31
0.0
  0
LINE
  5
1F9
330
1F
100
AcDbEntity
  8
0
  6
Continuous
 62
     7
370
    15
100
AcDbLine
 10
289.7939925235
 20
452.5119187818
 30
0.0
 11
289.7939925235
 21
451.7119201408
 31
0.0
  0
LINE
  5
1FA
330
1F
100
AcDbEntity
  8
0
  6
Continuous
 62
     7
370
    15
100
AcDbLine
 10
285.6939976257
 20
83.6119177328
 30
0.0
 11
290.6762306732
 21
88.2137986408
 31
0.0
  0
ARC
  5
1FB
330
1F
100
AcDbEntity
  8
0
  6
Continuous
 62
     7
370
    15
100
AcDbCircle
 10
291.6939928097
 20
87.1119143949
 30
0.0
 40
1.50000000000002
100
AcDbArc
 50
43.6028189726
 51
132.7273953127
  0
ARC
  5
1FC
330
1F
100
AcDbEntity
  8
0
  6
Continuous
 62
     7
370
    15
100
AcDbCircle
 10
281.1939928096
 20
77.1119143949
 30
0.0
 40
16.00000000000016
100
AcDbArc
 50
316.3971810272
 51
43.6028189726
  0
LINE
  5
1FD
330
1F
100
AcDbEntity
  8
0
  6
Continuous
 62
     7
370
    15
100
AcDbLine
 10
290.6762306732
 20
66.0100253807
 30
0.0
 11
285.6939976257
 21
70.6119211898
 31
0.0
  0
ARC
  5
1FE
330
1F
100
AcDbEntity
  8
0
  6
Continuous
 62
     7
370
    15
100
AcDbCircle
 10
291.6939928096
 20
67.1119143949
 30
0.0
 40
1.500000000000157
100
AcDbArc
 50
227.2726046868
 51
316.3971810272
  0
LINE
  5
1FF
330
1F
100
AcDbEntity
  8
0
  6
Continuous
 62
     7
370
    15
100
AcDbLine
 10
285.4929809612
 20
83.6119177328
 30
0.0
 11
285.6939976257
 21
83.6119177328
 31
0.0
  0
LINE
  5
200
330
1F
100
AcDbEntity
  8
0
  6
Continuous
 62
     7
370
    15
100
AcDbLine
 10
285.6939976257
 20
70.6119211898
 30
0.0
 11
285.4929809612
 21
70.6119211898
 31
0.0
  0
LINE
  5
201
330
1F
100
AcDbEntity
  8
0
  6
Continuous
 62
     7
370
    15
100
AcDbLine
 10
285.6939976257
 20
453.6119076
 30
0.0
 11
290.6762306732
 21
458.2138034091
 31
0.0
  0
ARC
  5
202
330
1F
100
AcDbEntity
  8
0
  6
Continuous
 62
     7
370
    15
100
AcDbCircle
 10
291.6939928097
 20
457.1119143949
 30
0.0
 40
1.500000000000029
100
AcDbArc
 50
43.6028189726
 51
132.7273953127
  0
ARC
  5
203
330
1F
100
AcDbEntity
  8
0
  6
Continuous
 62
     7
370
    15
100
AcDbCircle
 10
281.1939928096
 20
447.1119143949
 30
0.0
 40
16.00000000000018
100
AcDbArc
 50
316.3971810272
 51
43.6028189726
  0
ARC
  5
204
330
1F
100
AcDbEntity
  8
0
  6
Continuous
 62
     7
370
    15
100
AcDbCircle
 10
291.6939928096
 20
437.1119143949
 30
0.0
 40
1.500000000000178
100
AcDbArc
 50
227.2726046868
 51
316.3971810272
  0
LINE
  5
205
330
1F
100
AcDbEntity
  8
0
  6
Continuous
 62
     7
370
    15
100
AcDbLine
 10
290.6762306732
 20
436.010030149
 30
0.0
 11
285.6939976257
 21
440.611911057
 31
0.0
  0
LINE
  5
206
330
1F
100
AcDbEntity
  8
0
  6
Continuous
 62
     7
370
    15
100
AcDbLine
 10
285.4929809612
 20
453.6119076
 30
0.0
 11
285.6939976257
 21
453.6119076
 31
0.0
  0
LINE
  5
207
330
1F
100
AcDbEntity
  8
0
  6
Continuous
 62
     7
370
    15
100
AcDbLine
 10
285.6939976257
 20
440.611911057
 30
0.0
 11
285.4929809612
 21
440.611911057
 31
0.0
  0
LINE
  5
208
330
1F
100
AcDbEntity
  8
0
  6
Continuous
 62
     7
370
    15
100
AcDbLine
 10
288.6939888042
 20
12.1119143949
 30
0.0
 11
293.693998937
 21
12.1119143949
 31
0.0
  0
LINE
  5
209
330
1F
100
AcDbEntity
  8
0
  6
Continuous
 62
     7
370
    15
100
AcDbLine
 10
288.6939888042
 20
27.111914991
 30
0.0
 11
293.693998937
 21
27.111914991
 31
0.0
  0
LINE
  5
20A
330
1F
100
AcDbEntity
  8
0
  6
Continuous
 62
     7
370
    15
100
AcDbLine
 10
293.693998937
 20
27.111914991
 30
0.0
 11
293.693998937
 21
12.1119143949
 31
0.0
  0
LINE
  5
20B
330
1F
100
AcDbEntity
  8
0
  6
Continuous
 62
     7
370
    15
100
AcDbLine
 10
288.6939888042
 20
27.111914991
 30
0.0
 11
288.6939888042
 21
12.1119143949
 31
0.0
  0
LINE
  5
20C
330
1F
100
AcDbEntity
  8
0
  6
Continuous
 62
     7
370
    15
100
AcDbLine
 10
293.693998937
 20
27.111914991
 30
0.0
 11
308.693999533
 21
27.111914991
 31
0.0
  0
ARC
  5
20D
330
1F
100
AcDbEntity
  8
0
  6
Continuous
 62
     7
370
    15
100
AcDbCircle
 10
293.6939928096
 20
27.1119143949
 30
0.0
 40
15.00000000000001
100
AcDbArc
 50
270.0
 51
0.0
  0
LINE
  5
20E
330
1F
100
AcDbEntity
  8
0
  6
Continuous
 62
     7
370
    15
100
AcDbLine
 10
293.693998937
 20
27.111914991
 30
0.0
 11
293.693998937
 21
67.1244236217
 31
0.0
  0
LINE
  5
20F
330
1F
100
AcDbEntity
  8
0
  6
Continuous
 62
     7
370
    15
100
AcDbLine
 10
288.6939888042
 20
27.111914991
 30
0.0
 11
288.6939888042
 21
67.8409310565
 31
0.0
  0
LINE
  5
210
330
1F
100
AcDbEntity
  8
0
  6
Continuous
 62
     7
370
    15
100
AcDbLine
 10
308.693999533
 20
27.111914991
 30
0.0
 11
308.693999533
 21
497.1119137989
 31
0.0
  0
LINE
  5
211
330
1F
100
AcDbEntity
  8
0
  6
Continuous
 62
     7
370
    15
100
AcDbLine
 10
293.693998937
 20
87.0994003997
 30
0.0
 11
293.693998937
 21
437.1244283901
 31
0.0
  0
LINE
  5
212
330
1F
100
AcDbEntity
  8
0
  6
Continuous
 62
     7
370
    15
100
AcDbLine
 10
293.693998937
 20
457.0994051681
 30
0.0
 11
293.693998937
 21
497.1119137989
 31
0.0
  0
LINE
  5
213
330
1F
100
AcDbEntity
  8
0
  6
Continuous
 62
     7
370
    15
100
AcDbLine
 10
293.693998937
 20
497.1119137989
 30
0.0
 11
308.693999533
 21
497.1119137989
 31
0.0
  0
LINE
  5
214
330
1F
100
AcDbEntity
  8
0
  6
Continuous
 62
     7
370
    15
100
AcDbLine
 10
288.6939888042
 20
86.3828929649
 30
0.0
 11
288.6939888042
 21
437.8409358249
 31
0.0
  0
LINE
  5
215
330
1F
100
AcDbEntity
  8
0
  6
Continuous
 62
     7
370
    15
100
AcDbLine
 10
288.6939888042
 20
497.1119137989
 30
0.0
 11
293.693998937
 21
497.1119137989
 31
0.0
  0
LINE
  5
216
330
1F
100
AcDbEntity
  8
0
  6
Continuous
 62
     7
370
    15
100
AcDbLine
 10
288.6939888042
 20
456.3828977333
 30
0.0
 11
288.6939888042
 21
497.1119137989
 31
0.0
  0
LINE
  5
217
330
1F
100
AcDbEntity
  8
0
  6
Continuous
 62
     7
370
    15
100
AcDbLine
 10
288.6939888042
 20
512.1119143949
 30
0.0
 11
293.693998937
 21
512.1119143949
 31
0.0
  0
LINE
  5
218
330
1F
100
AcDbEntity
  8
0
  6
Continuous
 62
     7
370
    15
100
AcDbLine
 10
293.693998937
 20
497.1119137989
 30
0.0
 11
293.693998937
 21
512.1119143949
 31
0.0
  0
LINE
  5
219
330
1F
100
AcDbEntity
  8
0
  6
Continuous
 62
     7
370
    15
100
AcDbLine
 10
288.6939888042
 20
497.1119137989
 30
0.0
 11
288.6939888042
 21
512.1119143949
 31
0.0
  0
ARC
  5
21A
330
1F
100
AcDbEntity
  8
0
  6
Continuous
 62
     7
370
    15
100
AcDbCircle
 10
293.6939928096
 20
497.1119143949
 30
0.0
 40
15.00000000000006
100
AcDbArc
 50
0.0
 51
90.0
  0
LINE
  5
21B
330
1F
100
AcDbEntity
  8
0
  6
Continuous
 62
     7
370
    15
100
AcDbLine
 10
271.9049249929
 20
442.4119117246
 30
0.0
 11
271.9049249929
 21
451.0119082914
 31
0.0
  0
LINE
  5
21C
330
1F
100
AcDbEntity
  8
0
  6
Continuous
 62
     7
370
    15
100
AcDbLine
 10
271.9049249929
 20
442.4119117246
 30
0.0
 11
266.3906310838
 21
442.4119117246
 31
0.0
  0
LINE
  5
21D
330
1F
100
AcDbEntity
  8
0
  6
Continuous
 62
     7
370
    15
100
AcDbLine
 10
266.3906310838
 20
442.4119117246
 30
0.0
 11
266.3906310838
 21
451.0119082914
 31
0.0
  0
LINE
  5
21E
330
1F
100
AcDbEntity
  8
0
  6
Continuous
 62
     7
370
    15
100
AcDbLine
 10
271.9049249929
 20
451.0119082914
 30
0.0
 11
266.3906310838
 21
451.0119082914
 31
0.0
  0
LINE
  5
21F
330
1F
100
AcDbEntity
  8
0
  6
Continuous
 62
     7
370
    15
100
AcDbLine
 10
265.2763669532
 20
454.3119194494
 30
0.0
 11
240.4642646354
 21
454.3119194494
 31
0.0
  0
LINE
  5
220
330
1F
100
AcDbEntity
  8
0
  6
Continuous
 62
     7
370
    15
100
AcDbLine
 10
265.2763669532
 20
451.0119082914
 30
0.0
 11
265.2763669532
 21
454.3119194494
 31
0.0
  0
LINE
  5
221
330
1F
100
AcDbEntity
  8
0
  6
Continuous
 62
     7
370
    15
100
AcDbLine
 10
265.2763669532
 20
439.9119141088
 30
0.0
 11
265.2763669532
 21
442.4119117246
 31
0.0
  0
LINE
  5
222
330
1F
100
AcDbEntity
  8
0
  6
Continuous
 62
     7
370
    15
100
AcDbLine
 10
240.4642646354
 20
439.9119141088
 30
0.0
 11
265.2763669532
 21
439.9119141088
 31
0.0
  0
LINE
  5
223
330
1F
100
AcDbEntity
  8
0
  6
Continuous
 62
     7
370
    15
100
AcDbLine
 10
240.4642646354
 20
439.9119141088
 30
0.0
 11
240.4642646354
 21
454.3119194494
 31
0.0
  0
LINE
  5
224
330
1F
100
AcDbEntity
  8
0
  6
Continuous
 62
     7
370
    15
100
AcDbLine
 10
265.2763669532
 20
442.4119117246
 30
0.0
 11
266.3906310838
 21
442.4119117246
 31
0.0
  0
LINE
  5
225
330
1F
100
AcDbEntity
  8
0
  6
Continuous
 62
     7
370
    15
100
AcDbLine
 10
265.2763669532
 20
451.0119082914
 30
0.0
 11
266.3906310838
 21
451.0119082914
 31
0.0
  0
LINE
  5
226
330
1F
100
AcDbEntity
  8
0
  6
Continuous
 62
     7
370
    15
100
AcDbLine
 10
265.4039953989
 20
439.1145678745
 30
0.0
 11
267.2962193531
 21
439.1145678745
 31
0.0
  0
LINE
  5
227
330
1F
100
AcDbEntity
  8
0
  6
Continuous
 62
     7
370
    15
100
AcDbLine
 10
267.2962193531
 20
439.1145678745
 30
0.0
 11
267.9689769786
 21
439.1119154678
 31
0.0
  0
LINE
  5
228
330
1F
100
AcDbEntity
  8
0
  6
Continuous
 62
     7
370
    15
100
AcDbLine
 10
267.9689769786
 20
439.1119154678
 30
0.0
 11
240.6031732601
 21
439.1119154678
 31
0.0
  0
ARC
  5
229
330
1F
100
AcDbEntity
  8
0
  6
Continuous
 62
     7
370
    15
100
AcDbCircle
 10
241.7201719211
 20
439.7179258267
 30
0.0
 40
1.270800756943154
100
AcDbArc
 50
171.2194457622
 51
208.4813602857
  0
ARC
  5
22A
330
1F
100
AcDbEntity
  8
0
  6
Continuous
 62
     7
370
    15
100
AcDbCircle
 10
266.7505465188
 20
439.7389932793
 30
0.0
 40
1.484286699018974
100
AcDbArc
 50
173.3097941414
 51
204.8781931989
  0
LINE
  5
22B
330
1F
100
AcDbEntity
  8
0
  6
Continuous
 62
     7
370
    15
100
AcDbLine
 10
267.2962193531
 20
455.1092656837
 30
0.0
 11
265.4039953989
 21
455.1092656837
 31
0.0
  0
ARC
  5
22C
330
1F
100
AcDbEntity
  8
0
  6
Continuous
 62
     7
370
    15
100
AcDbCircle
 10
266.7505750613
 20
454.4848357102
 30
0.0
 40
1.48431451488894
100
AcDbArc
 50
155.122110312
 51
186.6899023476
  0
ARC
  5
22D
330
1F
100
AcDbEntity
  8
0
  6
Continuous
 62
     7
370
    15
100
AcDbCircle
 10
241.7201719211
 20
454.5059077315
 30
0.0
 40
1.27080075694313
100
AcDbArc
 50
151.5186397143
 51
188.7805542378
  0
LINE
  5
22E
330
1F
100
AcDbEntity
  8
0
  6
Continuous
 62
     7
370
    15
100
AcDbLine
 10
240.6031732601
 20
455.1119180904
 30
0.0
 11
267.9689769786
 21
455.1119180904
 31
0.0
  0
LINE
  5
22F
330
1F
100
AcDbEntity
  8
0
  6
Continuous
 62
     7
370
    15
100
AcDbLine
 10
267.9689769786
 20
455.1119180904
 30
0.0
 11
267.2962193531
 21
455.1092656837
 31
0.0
  0
LINE
  5
230
330
1F
100
AcDbEntity
  8
0
  6
Continuous
 62
     7
370
    15
100
AcDbLine
 10
265.4039953989
 20
439.1145678745
 30
0.0
 11
265.4039953989
 21
439.9119141088
 31
0.0
  0
LINE
  5
231
330
1F
100
AcDbEntity
  8
0
  6
Continuous
 62
     7
370
    15
100
AcDbLine
 10
265.415290479
 20
442.4119117246
 30
0.0
 11
265.415290479
 21
439.9119141088
 31
0.0
  0
LINE
  5
232
330
1F
100
AcDbEntity
  8
0
  6
Continuous
 62
     7
370
    15
100
AcDbLine
 10
265.4039953989
 20
454.3119194494
 30
0.0
 11
265.4039953989
 21
455.1092656837
 31
0.0
  0
LINE
  5
233
330
1F
100
AcDbEntity
  8
0
  6
Continuous
 62
     7
370
    15
100
AcDbLine
 10
265.415290479
 20
454.3119194494
 30
0.0
 11
265.415290479
 21
451.0119082914
 31
0.0
  0
LINE
  5
234
330
1F
100
AcDbEntity
  8
0
  6
Continuous
 62
     7
370
    15
100
AcDbLine
 10
267.2962193531
 20
454.3119194494
 30
0.0
 11
267.2962193531
 21
455.1092656837
 31
0.0
  0
LINE
  5
235
330
1F
100
AcDbEntity
  8
0
  6
Continuous
 62
     7
370
    15
100
AcDbLine
 10
271.403992657
 20
455.1119180904
 30
0.0
 11
267.9689769786
 21
455.1119180904
 31
0.0
  0
LINE
  5
236
330
1F
100
AcDbEntity
  8
0
  6
Continuous
 62
     7
370
    15
100
AcDbLine
 10
271.403992657
 20
454.3119194494
 30
0.0
 11
267.2962193531
 21
454.3119194494
 31
0.0
  0
LINE
  5
237
330
1F
100
AcDbEntity
  8
0
  6
Continuous
 62
     7
370
    15
100
AcDbLine
 10
271.403992657
 20
439.1119154678
 30
0.0
 11
267.9689769786
 21
439.1119154678
 31
0.0
  0
LINE
  5
238
330
1F
100
AcDbEntity
  8
0
  6
Continuous
 62
     7
370
    15
100
AcDbLine
 10
267.2962193531
 20
439.1145678745
 30
0.0
 11
267.2962193531
 21
439.9119141088
 31
0.0
  0
LINE
  5
239
330
1F
100
AcDbEntity
  8
0
  6
Continuous
 62
     7
370
    15
100
AcDbLine
 10
271.403992657
 20
439.9119141088
 30
0.0
 11
267.2962193531
 21
439.9119141088
 31
0.0
  0
LINE
  5
23A
330
1F
100
AcDbEntity
  8
0
  6
Continuous
 62
     7
370
    15
100
AcDbLine
 10
265.4039953989
 20
454.3119194494
 30
0.0
 11
267.2962193531
 21
454.3119194494
 31
0.0
  0
LINE
  5
23B
330
1F
100
AcDbEntity
  8
0
  6
Continuous
 62
     7
370
    15
100
AcDbLine
 10
265.4039953989
 20
439.9119141088
 30
0.0
 11
267.2962193531
 21
439.9119141088
 31
0.0
  0
LINE
  5
23C
330
1F
100
AcDbEntity
  8
0
  6
Continuous
 62
     7
370
    15
100
AcDbLine
 10
266.4739881795
 20
455.4119082675
 30
0.0
 11
270.8739881557
 21
455.4119082675
 31
0.0
  0
LINE
  5
23D
330
1F
100
AcDbEntity
  8
0
  6
Continuous
 62
     7
370
    15
100
AcDbLine
 10
266.5739898723
 20
438.7119086967
 30
0.0
 11
270.7739864629
 21
438.7119086967
 31
0.0
  0
LINE
  5
23E
330
1F
100
AcDbEntity
  8
0
  6
Continuous
 62
     7
370
    15
100
AcDbLine
 10
266.5739898723
 20
438.3119168268
 30
0.0
 11
270.7739864629
 21
438.3119168268
 31
0.0
  0
LINE
  5
23F
330
1F
100
AcDbEntity
  8
0
  6
Continuous
 62
     7
370
    15
100
AcDbLine
 10
235.5654110354
 20
454.3119194494
 30
0.0
 11
233.5759346527
 21
454.3119194494
 31
0.0
  0
LINE
  5
240
330
1F
100
AcDbEntity
  8
0
  6
Continuous
 62
     7
370
    15
100
AcDbLine
 10
235.5654110354
 20
439.9119141088
 30
0.0
 11
235.5654110354
 21
454.3119194494
 31
0.0
  0
LINE
  5
241
330
1F
100
AcDbEntity
  8
0
  6
Continuous
 62
     7
370
    15
100
AcDbLine
 10
233.5759346527
 20
439.9119141088
 30
0.0
 11
235.5654110354
 21
439.9119141088
 31
0.0
  0
ARC
  5
242
330
1F
100
AcDbEntity
  8
0
  6
Continuous
 62
     7
370
    15
100
AcDbCircle
 10
248.8699090754
 20
447.1119167791
 30
0.0
 40
16.90401408232907
100
AcDbArc
 50
154.7901718738
 51
205.2098281262
  0
SPLINE
  5
243
330
1F
100
AcDbEntity
  8
0
  6
Continuous
 62
     7
370
    15
100
AcDbSpline
210
0.0
220
0.0
230
1.0
 70
     8
 71
     3
 72
    12
 73
     8
 74
     0
 42
0.00000001
 43
0.00000001
 40
0.0
 40
0.0
 40
0.0
 40
0.0
 40
0.1818728559357568
 40
0.3633448534898268
 40
0.5550759860662463
 40
0.7712681962495348
 40
1.0
 40
1.0
 40
1.0
 40
1.0
 10
233.7083091181232
 20
439.1119154677876
 30
0.0
 10
233.73216936683
 20
439.1192389222428
 30
0.0
 10
233.7798372748641
 20
439.1338696898324
 30
0.0
 10
233.7945830789576
 20
439.2458592967042
 30
0.0
 10
233.7673474738351
 20
439.415243172998
 30
0.0
 10
233.6956764014938
 20
439.6436639016808
 30
0.0
 10
233.6165915363014
 20
439.8208329481845
 30
0.0
 10
233.5759346526576
 20
439.9119141088017
 30
0.0
  0
LINE
  5
244
330
1F
100
AcDbEntity
  8
0
  6
Continuous
 62
     7
370
    15
100
AcDbLine
 10
233.3239485663
 20
439.8664208637
 30
0.0
 11
233.678395037
 21
439.1119154678
 31
0.0
  0
ARC
  5
245
330
1F
100
AcDbEntity
  8
0
  6
Continuous
 62
     7
370
    15
100
AcDbCircle
 10
248.5945772593
 20
447.1119167791
 30
0.0
 40
16.90234633834254
100
AcDbArc
 50
154.616938827
 51
205.383061173
  0
LINE
  5
246
330
1F
100
AcDbEntity
  8
0
  6
Continuous
 62
     7
370
    15
100
AcDbLine
 10
233.678395037
 20
455.1119180904
 30
0.0
 11
233.3239485663
 21
454.3574126945
 31
0.0
  0
SPLINE
  5
247
330
1F
100
AcDbEntity
  8
0
  6
Continuous
 62
     7
370
    15
100
AcDbSpline
210
0.0
220
0.0
230
1.0
 70
     8
 71
     3
 72
    12
 73
     8
 74
     0
 42
0.00000001
 43
0.00000001
 40
0.0
 40
0.0
 40
0.0
 40
0.0
 40
0.2510172357647315
 40
0.5023980923729131
 40
0.7402747485671194
 40
0.9473067201835714
 40
1.0
 40
1.0
 40
1.0
 40
1.0
 10
233.5759346526576
 20
454.3119194493779
 30
0.0
 10
233.6202526515015
 20
454.4117977321858
 30
0.0
 10
233.7089528477613
 20
454.6116989803984
 30
0.0
 10
233.7839419068085
 20
454.8704392395164
 30
0.0
 10
233.795437429452
 20
455.0476628045031
 30
0.0
 10
233.7537911537473
 20
455.1081005446443
 30
0.0
 10
233.7159802303974
 20
455.1112742137132
 30
0.0
 10
233.7083091181232
 20
455.111918090392
 30
0.0
  0
LINE
  5
248
330
1F
100
AcDbEntity
  8
0
  6
Continuous
 62
     7
370
    15
100
AcDbLine
 10
233.7083091181
 20
455.1119180904
 30
0.0
 11
233.678395037
 21
455.1119180904
 31
0.0
  0
LINE
  5
249
330
1F
100
AcDbEntity
  8
0
  6
Continuous
 62
     7
370
    15
100
AcDbLine
 10
233.7083091181
 20
439.1119154678
 30
0.0
 11
233.678395037
 21
439.1119154678
 31
0.0
  0
LWPOLYLINE
  5
24A
330
1F
100
AcDbEntity
  8
0
  6
Continuous
 62
     7
370
    15
100
AcDbPolyline
 90
        9
 70
   128
 43
0.0
 10
235.5654110354
 20
454.3119194494
 10
235.5601509255
 20
454.4679793106
 10
235.5445866626
 20
454.6180638061
 10
235.5192993921
 20
454.7563763843
 10
235.4852725905
 20
454.8775973306
 10
235.4438101095
 20
454.9770923839
 10
235.3965063733
 20
455.0510170446
 10
235.3451718729
 20
455.096540092
 10
235.2917959135
 20
455.1119180904
  0
LINE
  5
24B
330
1F
100
AcDbEntity
  8
0
  6
Continuous
 62
     7
370
    15
100
AcDbLine
 10
233.7083091181
 20
455.1119180904
 30
0.0
 11
235.2917959135
 21
455.1119180904
 31
0.0
  0
LWPOLYLINE
  5
24C
330
1F
100
AcDbEntity
  8
0
  6
Continuous
 62
     7
370
    15
100
AcDbPolyline
 90
        9
 70
   128
 43
0.0
 10
235.5654110354
 20
439.9119141088
 10
235.5601509255
 20
439.7558393465
 10
235.5445866626
 20
439.6057697521
 10
235.5192993921
 20
439.4674571739
 10
235.4852725905
 20
439.3462362276
 10
235.4438101095
 20
439.2467411743
 10
235.3965063733
 20
439.1728165136
 10
235.3451718729
 20
439.1272934661
 10
235.2917959135
 20
439.1119154678
  0
LINE
  5
24D
330
1F
100
AcDbEntity
  8
0
  6
Continuous
 62
     7
370
    15
100
AcDbLine
 10
235.2917959135
 20
439.1119154678
 30
0.0
 11
233.7083091181
 21
439.1119154678
 31
0.0
  0
LINE
  5
24E
330
1F
100
AcDbEntity
  8
0
  6
Continuous
 62
     7
370
    15
100
AcDbLine
 10
235.5654110354
 20
439.9119141088
 30
0.0
 11
240.4642646354
 21
439.9119141088
 31
0.0
  0
LINE
  5
24F
330
1F
100
AcDbEntity
  8
0
  6
Continuous
 62
     7
370
    15
100
AcDbLine
 10
240.6031732601
 20
439.1119154678
 30
0.0
 11
235.2917959135
 21
439.1119154678
 31
0.0
  0
LINE
  5
250
330
1F
100
AcDbEntity
  8
0
  6
Continuous
 62
     7
370
    15
100
AcDbLine
 10
240.4642646354
 20
454.3119194494
 30
0.0
 11
235.5654110354
 21
454.3119194494
 31
0.0
  0
LINE
  5
251
330
1F
100
AcDbEntity
  8
0
  6
Continuous
 62
     7
370
    15
100
AcDbLine
 10
235.2917959135
 20
455.1119180904
 30
0.0
 11
240.6031732601
 21
455.1119180904
 31
0.0
  0
SPLINE
  5
252
330
1F
100
AcDbEntity
  8
0
  6
Continuous
 62
     7
370
    15
100
AcDbSpline
210
0.0
220
0.0
230
1.0
 70
     8
 71
     3
 72
    16
 73
    12
 74
     0
 42
0.00000001
 43
0.00000001
 40
0.0
 40
0.0
 40
0.0
 40
0.0
 40
0.1207042841326677
 40
0.2414114693671807
 40
0.362118466854151
 40
0.4828256876898528
 40
0.603532216686943
 40
0.7242358845895902
 40
0.8449443106953923
 40
0.9656514133820531
 40
1.0
 40
1.0
 40
1.0
 40
1.0
 10
266.8462936919643
 20
434.1595443473347
 30
0.0
 10
266.8656947786494
 20
434.1622139059358
 30
0.0
 10
266.9044974183205
 20
434.1675530873001
 30
0.0
 10
266.9094176153222
 20
434.4585022118473
 30
0.0
 10
266.8722115786024
 20
434.9118404438096
 30
0.0
 10
266.7952801644072
 20
435.4793758226457
 30
0.0
 10
266.6914803510362
 20
436.0676960412213
 30
0.0
 10
266.5753781937103
 20
436.5943994317282
 30
0.0
 10
266.4683715142659
 20
436.9576702548893
 30
0.0
 10
266.3957988188874
 20
437.1281581820253
 30
0.0
 10
266.3762465303252
 20
437.0949980874713
 30
0.0
 10
266.3719152253581
 20
437.0876523242482
 30
0.0
  0
SPLINE
  5
253
330
1F
100
AcDbEntity
  8
0
  6
Continuous
 62
     7
370
    15
100
AcDbSpline
210
0.0
220
0.0
230
1.0
 70
     8
 71
     3
 72
    16
 73
    12
 74
     0
 42
0.00000001
 43
0.00000001
 40
0.0
 40
0.0
 40
0.0
 40
0.0
 40
0.1205800310013593
 40
0.2411629601181662
 40
0.361745701680698
 40
0.4823257710223353
 40
0.602908044577251
 40
0.723490724155747
 40
0.8440743338822523
 40
0.9646533885898586
 40
1.0
 40
1.0
 40
1.0
 40
1.0
 10
267.0168821853114
 20
460.0355597720631
 30
0.0
 10
267.0362832952962
 20
460.0328901874244
 30
0.0
 10
267.0750859815672
 20
460.0275509539844
 30
0.0
 10
267.0800058290642
 20
459.7366022200129
 30
0.0
 10
267.0428014182432
 20
459.2832661322668
 30
0.0
 10
266.9658661338478
 20
458.7157422129126
 30
0.0
 10
266.8620722100288
 20
458.1274062180614
 30
0.0
 10
266.7459491996333
 20
457.6007532622937
 30
0.0
 10
266.6389453460163
 20
457.2372728417312
 30
0.0
 10
266.5661750226457
 20
457.0667394594853
 30
0.0
 10
266.5465379840696
 20
457.1003169820212
 30
0.0
 10
266.5420864861919
 20
457.1079286323078
 30
0.0
  0
SPLINE
  5
254
330
1F
100
AcDbEntity
  8
0
  6
Continuous
 62
     7
370
    15
100
AcDbSpline
210
0.0
220
0.0
230
1.0
 70
     8
 71
     3
 72
    16
 73
    12
 74
     0
 42
0.00000001
 43
0.00000001
 40
0.0
 40
0.0
 40
0.0
 40
0.0
 40
0.1205146127847613
 40
0.2410321221126572
 40
0.3615494439880318
 40
0.4820669888611739
 40
0.6025838429828403
 40
0.7230978405059076
 40
0.8436165887552223
 40
0.9641311113465891
 40
1.0
 40
1.0
 40
1.0
 40
1.0
 10
282.3872660439922
 20
436.7759647355564
 30
0.0
 10
282.4066671264922
 20
436.7786343211934
 30
0.0
 10
282.4454697577931
 20
436.78397355663
 30
0.0
 10
282.4503900175729
 20
437.0749222756273
 30
0.0
 10
282.4131837422949
 20
437.5282620486859
 30
0.0
 10
282.336253219554
 20
438.0957916686918
 30
0.0
 10
282.2324500789674
 20
438.6841333812123
 30
0.0
 10
282.1163603389246
 20
439.2107565555771
 30
0.0
 10
282.009308176109
 20
439.5743238379069
 30
0.0
 10
281.9364536434783
 20
439.7449303736269
 30
0.0
 10
281.9167631405967
 20
439.7111137973739
 30
0.0
 10
281.9122468274547
 20
439.7033574567326
 30
0.0
  0
SPLINE
  5
255
330
1F
100
AcDbEntity
  8
0
  6
Continuous
 62
     7
370
    15
100
AcDbSpline
210
0.0
220
0.0
230
1.0
 70
     8
 71
     3
 72
    16
 73
    12
 74
     0
 42
0.00000001
 43
0.00000001
 40
0.0
 40
0.0
 40
0.0
 40
0.0
 40
0.1205180162860302
 40
0.2410326177046793
 40
0.3615497514561308
 40
0.4820651564850901
 40
0.6025820636060562
 40
0.7230991354071967
 40
0.8436148140991446
 40
0.9641311673368481
 40
1.0
 40
1.0
 40
1.0
 40
1.0
 10
282.5578396361781
 20
457.4191542850025
 30
0.0
 10
282.5772470552965
 20
457.416480072925
 30
0.0
 10
282.6160613436257
 20
457.4111317245434
 30
0.0
 10
282.6209772219221
 20
457.1201783731051
 30
0.0
 10
282.5837735640311
 20
456.6668427213675
 30
0.0
 10
282.506839098361
 20
456.0993257541916
 30
0.0
 10
282.4030434134129
 20
455.5109798910199
 30
0.0
 10
282.2869269943009
 20
454.9843598263562
 30
0.0
 10
282.1799006238619
 20
454.6207656953898
 30
0.0
 10
282.1070421814305
 20
454.4501901309879
 30
0.0
 10
282.0873515948421
 20
454.484005581511
 30
0.0
 10
282.0828353208018
 20
454.4917615638264
 30
0.0
  0
SPLINE
  5
256
330
1F
100
AcDbEntity
  8
0
  6
Continuous
 62
     7
370
    15
100
AcDbSpline
210
0.0
220
0.0
230
1.0
 70
    24
 71
     3
 72
    16
 73
    12
 74
     0
 42
0.00000001
 43
0.00000001
 40
0.0
 40
0.0
 40
0.0
 40
0.0
 40
0.0611070903526417
 40
0.1864721510444355
 40
0.3118319714710453
 40
0.4371971593372122
 40
0.5625584614195136
 40
0.6879205673632984
 40
0.8132849015740912
 40
0.9386471466409737
 40
0.9999999999999999
 40
0.9999999999999999
 40
0.9999999999999999
 40
0.9999999999999999
 10
285.4641770165874
 20
440.2456852183827
 30
0.0
 10
285.4699500459386
 20
440.2456852183827
 30
0.0
 10
285.48756681013
 20
440.2456852183826
 30
0.0
 10
285.2691418133407
 20
440.2456852183827
 30
0.0
 10
284.8563877253101
 20
440.2456852183827
 30
0.0
 10
284.2999240991481
 20
440.2456852183827
 30
0.0
 10
283.7008182618281
 20
440.2456852183826
 30
0.0
 10
283.1421188473075
 20
440.2456852183827
 30
0.0
 10
282.7251716883443
 20
440.2456852183827
 30
0.0
 10
282.5021697238206
 20
440.2456852183827
 30
0.0
 10
282.5169851273928
 20
440.2456852183827
 30
0.0
 10
282.521853331895
 20
440.2456852183827
 30
0.0
  0
SPLINE
  5
257
330
1F
100
AcDbEntity
  8
0
  6
Continuous
 62
     7
370
    15
100
AcDbSpline
210
0.0
220
0.0
230
1.0
 70
    24
 71
     3
 72
    16
 73
    12
 74
     0
 42
0.00000001
 43
0.00000001
 40
0.0
 40
0.0
 40
0.0
 40
0.0
 40
0.0610095308224137
 40
0.186174441967608
 40
0.3113341212138785
 40
0.4364991593304078
 40
0.5616603178668566
 40
0.6868222789813968
 40
0.8119864648054415
 40
0.9371485648209648
 40
1.0
 40
1.0
 40
1.0
 40
1.0
 10
285.4641770165874
 20
453.8043113933094
 30
0.0
 10
285.4699500397259
 20
453.8043113933094
 30
0.0
 10
285.4875667849589
 20
453.8043113933094
 30
0.0
 10
285.2691420467028
 20
453.8043113933094
 30
0.0
 10
284.8563868703299
 20
453.8043113933094
 30
0.0
 10
284.2999272858278
 20
453.8043113933095
 30
0.0
 10
283.7008063705147
 20
453.8043113933094
 30
0.0
 10
283.1421632266793
 20
453.8043113933094
 30
0.0
 10
282.7250060602692
 20
453.8043113933095
 30
0.0
 10
282.5015151285406
 20
453.8043113933093
 30
0.0
 10
282.5167354849997
 20
453.8043113933094
 30
0.0
 10
282.5218235295726
 20
453.8043113933094
 30
0.0
  0
SPLINE
  5
258
330
1F
100
AcDbEntity
  8
0
  6
Continuous
 62
     7
370
    15
100
AcDbSpline
210
0.0
220
0.0
230
1.0
 70
     8
 71
     3
 72
    19
 73
    15
 74
     0
 42
0.00000001
 43
0.00000001
 40
0.0
 40
0.0
 40
0.0
 40
0.0
 40
0.0039536265253916
 40
0.1157666902650994
 40
0.2280462038299728
 40
0.3355217786070849
 40
0.4377109292565653
 40
0.534887923498138
 40
0.6283021191888023
 40
0.7302955051147538
 40
0.841332847610013
 40
0.9641269820168189
 40
0.9937687422188515
 40
1.0
 40
1.0
 40
1.0
 40
1.0
 10
271.792272214265
 20
452.7119072661885
 30
0.0
 10
271.792664473761
 20
452.7119052912108
 30
0.0
 10
271.8041502788286
 20
452.711847461612
 30
0.0
 10
271.8274738579383
 20
452.6965732003521
 30
0.0
 10
271.8709371747979
 20
452.6297271848235
 30
0.0
 10
271.9089262373809
 20
452.5250162511379
 30
0.0
 10
271.9324037067323
 20
452.3999402116149
 30
0.0
 10
271.9437439942867
 20
452.2715056835509
 30
0.0
 10
271.9443521421792
 20
452.1503391943942
 30
0.0
 10
271.9285550999007
 20
452.0410992660248
 30
0.0
 10
271.8881781237725
 20
451.9516999420334
 30
0.0
 10
271.8363217020769
 20
451.9166031305463
 30
0.0
 10
271.8016097987627
 20
451.9120480856194
 30
0.0
 10
271.7936541379533
 20
451.9119292647404
 30
0.0
 10
271.792272214265
 20
451.9119086251744
 30
0.0
  0
SPLINE
  5
259
330
1F
100
AcDbEntity
  8
0
  6
Continuous
 62
     7
370
    15
100
AcDbSpline
210
0.0
220
0.0
230
1.0
 70
     8
 71
     3
 72
    30
 73
    26
 74
     0
 42
0.00000001
 43
0.00000001
 40
0.0
 40
0.0
 40
0.0
 40
0.0
 40
0.1247110291474251
 40
0.2494220798899728
 40
0.3741185996794427
 40
0.4367834238213764
 40
0.4681521141105316
 40
0.4838393114059731
 40
0.4916908664665389
 40
0.4956100716876726
 40
0.4975707861090831
 40
0.4985498049969256
 40
0.4990379370698185
 40
0.4992833785449147
 40
0.4994076772877886
 40
0.4994683844820542
 40
0.4995041014629976
 40
0.4995209386092833
 40
0.4995328442695977
 40
0.5609194298326556
 40
0.6646154156246699
 40
0.7325836593867454
 40
0.8111463162042166
 40
0.9002993070745071
 40
1.0
 40
1.0
 40
1.0
 40
1.0
 10
271.8639617007686
 20
452.7718099341877
 30
0.0
 10
271.8697327710101
 20
452.7700187472491
 30
0.0
 10
271.8812749124925
 20
452.7664363730618
 30
0.0
 10
271.9711053326735
 20
452.7445782250676
 30
0.0
 10
272.0785867322624
 20
452.7189287000519
 30
0.0
 10
272.1641316047563
 20
452.6984748885345
 30
0.0
 10
272.2082386701974
 20
452.6879731319706
 30
0.0
 10
272.2304644457433
 20
452.6826362983039
 30
0.0
 10
272.2416011183817
 20
452.679985140874
 30
0.0
 10
272.2471710256144
 20
452.6786490679613
 30
0.0
 10
272.2499510557851
 20
452.6779702783001
 30
0.0
 10
272.251340050903
 20
452.6776307498712
 30
0.0
 10
272.2520390955992
 20
452.6774814720897
 30
0.0
 10
272.2523860734178
 20
452.6773947142751
 30
0.0
 10
272.2525599143814
 20
452.6773480459287
 30
0.0
 10
272.2526447956909
 20
452.6773120125756
 30
0.0
 10
272.2527004556512
 20
452.6773342339072
 30
0.0
 10
272.2527147667503
 20
452.6773036836456
 30
0.0
 10
272.280257860964
 20
452.6819676492844
 30
0.0
 10
272.342907648056
 20
452.6479938127713
 30
0.0
 10
272.4363579157269
 20
452.6389618618076
 30
0.0
 10
272.519356415241
 20
452.6194545713647
 30
0.0
 10
272.5830532706772
 20
452.6072042691794
 30
0.0
 10
272.6335250746298
 20
452.5973714185702
 30
0.0
 10
272.6407563537533
 20
452.5969361685982
 30
0.0
 10
272.6445739310695
 20
452.5967063889988
 30
0.0
  0
ELLIPSE
  5
25A
330
1F
100
AcDbEntity
  8
0
  6
Continuous
 62
     7
370
    15
100
AcDbEllipse
 10
272.5211012034
 20
453.8938895737
 30
0.0
 11
0.3906095144045594
 21
-0.08616383961157226
 31
0.0
210
0.0
220
0.0
230
1.0
 40
0.0142285888
 41
0.0
 42
6.283185307179586
  0
LINE
  5
25B
330
1F
100
AcDbEntity
  8
0
  6
Continuous
 62
     7
370
    15
100
AcDbLine
 10
271.9049249929
 20
72.4119069562
 30
0.0
 11
271.9049249929
 21
81.0119184242
 31
0.0
  0
LINE
  5
25C
330
1F
100
AcDbEntity
  8
0
  6
Continuous
 62
     7
370
    15
100
AcDbLine
 10
271.9049249929
 20
72.4119069562
 30
0.0
 11
266.3906310838
 21
72.4119069562
 31
0.0
  0
LINE
  5
25D
330
1F
100
AcDbEntity
  8
0
  6
Continuous
 62
     7
370
    15
100
AcDbLine
 10
266.3906310838
 20
72.4119069562
 30
0.0
 11
266.3906310838
 21
81.0119184242
 31
0.0
  0
LINE
  5
25E
330
1F
100
AcDbEntity
  8
0
  6
Continuous
 62
     7
370
    15
100
AcDbLine
 10
271.9049249929
 20
81.0119184242
 30
0.0
 11
266.3906310838
 21
81.0119184242
 31
0.0
  0
LINE
  5
25F
330
1F
100
AcDbEntity
  8
0
  6
Continuous
 62
     7
370
    15
100
AcDbLine
 10
265.2763669532
 20
84.311914681
 30
0.0
 11
240.4642646354
 21
84.311914681
 31
0.0
  0
LINE
  5
260
330
1F
100
AcDbEntity
  8
0
  6
Continuous
 62
     7
370
    15
100
AcDbLine
 10
265.2763669532
 20
81.0119184242
 30
0.0
 11
265.2763669532
 21
84.311914681
 31
0.0
  0
LINE
  5
261
330
1F
100
AcDbEntity
  8
0
  6
Continuous
 62
     7
370
    15
100
AcDbLine
 10
265.2763669532
 20
69.9119093404
 30
0.0
 11
265.2763669532
 21
72.4119069562
 31
0.0
  0
LINE
  5
262
330
1F
100
AcDbEntity
  8
0
  6
Continuous
 62
     7
370
    15
100
AcDbLine
 10
240.4642646354
 20
69.9119093404
 30
0.0
 11
265.2763669532
 21
69.9119093404
 31
0.0
  0
LINE
  5
263
330
1F
100
AcDbEntity
  8
0
  6
Continuous
 62
     7
370
    15
100
AcDbLine
 10
240.4642646354
 20
69.9119093404
 30
0.0
 11
240.4642646354
 21
84.311914681
 31
0.0
  0
LINE
  5
264
330
1F
100
AcDbEntity
  8
0
  6
Continuous
 62
     7
370
    15
100
AcDbLine
 10
265.2763669532
 20
81.0119184242
 30
0.0
 11
266.3906310838
 21
81.0119184242
 31
0.0
  0
LINE
  5
265
330
1F
100
AcDbEntity
  8
0
  6
Continuous
 62
     7
370
    15
100
AcDbLine
 10
265.2763669532
 20
72.4119069562
 30
0.0
 11
266.3906310838
 21
72.4119069562
 31
0.0
  0
LINE
  5
266
330
1F
100
AcDbEntity
  8
0
  6
Continuous
 62
     7
370
    15
100
AcDbLine
 10
267.2962193531
 20
85.1092609153
 30
0.0
 11
265.4039953989
 21
85.1092609153
 31
0.0
  0
ARC
  5
267
330
1F
100
AcDbEntity
  8
0
  6
Continuous
 62
     7
370
    15
100
AcDbCircle
 10
266.7505465188
 20
84.4848355105
 30
0.0
 40
1.484286699018928
100
AcDbArc
 50
155.1218068011
 51
186.6902058586
  0
ARC
  5
268
330
1F
100
AcDbEntity
  8
0
  6
Continuous
 62
     7
370
    15
100
AcDbCircle
 10
241.7201719211
 20
84.5059029631
 30
0.0
 40
1.270800756943123
100
AcDbArc
 50
151.5186397143
 51
188.7805542378
  0
LINE
  5
269
330
1F
100
AcDbEntity
  8
0
  6
Continuous
 62
     7
370
    15
100
AcDbLine
 10
240.6031732601
 20
85.111913322
 30
0.0
 11
267.9689769786
 21
85.111913322
 31
0.0
  0
LINE
  5
26A
330
1F
100
AcDbEntity
  8
0
  6
Continuous
 62
     7
370
    15
100
AcDbLine
 10
267.9689769786
 20
85.111913322
 30
0.0
 11
267.2962193531
 21
85.1092609153
 31
0.0
  0
LINE
  5
26B
330
1F
100
AcDbEntity
  8
0
  6
Continuous
 62
     7
370
    15
100
AcDbLine
 10
265.4039953989
 20
69.1145631061
 30
0.0
 11
267.2962193531
 21
69.1145631061
 31
0.0
  0
LINE
  5
26C
330
1F
100
AcDbEntity
  8
0
  6
Continuous
 62
     7
370
    15
100
AcDbLine
 10
267.2962193531
 20
69.1145631061
 30
0.0
 11
267.9689769786
 21
69.1119106994
 31
0.0
  0
LINE
  5
26D
330
1F
100
AcDbEntity
  8
0
  6
Continuous
 62
     7
370
    15
100
AcDbLine
 10
267.9689769786
 20
69.1119106994
 30
0.0
 11
240.6031732601
 21
69.1119106994
 31
0.0
  0
ARC
  5
26E
330
1F
100
AcDbEntity
  8
0
  6
Continuous
 62
     7
370
    15
100
AcDbCircle
 10
241.7201719211
 20
69.7179210583
 30
0.0
 40
1.270800756943123
100
AcDbArc
 50
171.2194457622
 51
208.4813602857
  0
ARC
  5
26F
330
1F
100
AcDbEntity
  8
0
  6
Continuous
 62
     7
370
    15
100
AcDbCircle
 10
266.7505750613
 20
69.7389930796
 30
0.0
 40
1.48431451488894
100
AcDbArc
 50
173.3100976524
 51
204.877889688
  0
LINE
  5
270
330
1F
100
AcDbEntity
  8
0
  6
Continuous
 62
     7
370
    15
100
AcDbLine
 10
265.4039953989
 20
69.1145631061
 30
0.0
 11
265.4039953989
 21
69.9119093404
 31
0.0
  0
LINE
  5
271
330
1F
100
AcDbEntity
  8
0
  6
Continuous
 62
     7
370
    15
100
AcDbLine
 10
265.415290479
 20
72.4119069562
 30
0.0
 11
265.415290479
 21
69.9119093404
 31
0.0
  0
LINE
  5
272
330
1F
100
AcDbEntity
  8
0
  6
Continuous
 62
     7
370
    15
100
AcDbLine
 10
265.4039953989
 20
84.311914681
 30
0.0
 11
265.4039953989
 21
85.1092609153
 31
0.0
  0
LINE
  5
273
330
1F
100
AcDbEntity
  8
0
  6
Continuous
 62
     7
370
    15
100
AcDbLine
 10
265.415290479
 20
84.311914681
 30
0.0
 11
265.415290479
 21
81.0119184242
 31
0.0
  0
LINE
  5
274
330
1F
100
AcDbEntity
  8
0
  6
Continuous
 62
     7
370
    15
100
AcDbLine
 10
271.403992657
 20
69.1119106994
 30
0.0
 11
267.9689769786
 21
69.1119106994
 31
0.0
  0
LINE
  5
275
330
1F
100
AcDbEntity
  8
0
  6
Continuous
 62
     7
370
    15
100
AcDbLine
 10
267.2962193531
 20
69.1145631061
 30
0.0
 11
267.2962193531
 21
69.9119093404
 31
0.0
  0
LINE
  5
276
330
1F
100
AcDbEntity
  8
0
  6
Continuous
 62
     7
370
    15
100
AcDbLine
 10
271.403992657
 20
69.9119093404
 30
0.0
 11
267.2962193531
 21
69.9119093404
 31
0.0
  0
LINE
  5
277
330
1F
100
AcDbEntity
  8
0
  6
Continuous
 62
     7
370
    15
100
AcDbLine
 10
267.2962193531
 20
84.311914681
 30
0.0
 11
267.2962193531
 21
85.1092609153
 31
0.0
  0
LINE
  5
278
330
1F
100
AcDbEntity
  8
0
  6
Continuous
 62
     7
370
    15
100
AcDbLine
 10
271.403992657
 20
85.111913322
 30
0.0
 11
267.9689769786
 21
85.111913322
 31
0.0
  0
LINE
  5
279
330
1F
100
AcDbEntity
  8
0
  6
Continuous
 62
     7
370
    15
100
AcDbLine
 10
271.403992657
 20
84.311914681
 30
0.0
 11
267.2962193531
 21
84.311914681
 31
0.0
  0
LINE
  5
27A
330
1F
100
AcDbEntity
  8
0
  6
Continuous
 62
     7
370
    15
100
AcDbLine
 10
265.4039953989
 20
84.311914681
 30
0.0
 11
267.2962193531
 21
84.311914681
 31
0.0
  0
LINE
  5
27B
330
1F
100
AcDbEntity
  8
0
  6
Continuous
 62
     7
370
    15
100
AcDbLine
 10
265.4039953989
 20
69.9119093404
 30
0.0
 11
267.2962193531
 21
69.9119093404
 31
0.0
  0
LINE
  5
27C
330
1F
100
AcDbEntity
  8
0
  6
Continuous
 62
     7
370
    15
100
AcDbLine
 10
266.4739881795
 20
85.4119184003
 30
0.0
 11
270.8739881557
 21
85.4119184003
 31
0.0
  0
LINE
  5
27D
330
1F
100
AcDbEntity
  8
0
  6
Continuous
 62
     7
370
    15
100
AcDbLine
 10
266.5739898723
 20
68.7119188295
 30
0.0
 11
270.7739864629
 21
68.7119188295
 31
0.0
  0
LINE
  5
27E
330
1F
100
AcDbEntity
  8
0
  6
Continuous
 62
     7
370
    15
100
AcDbLine
 10
266.5739898723
 20
68.3119120584
 30
0.0
 11
270.7739864629
 21
68.3119120584
 31
0.0
  0
LINE
  5
27F
330
1F
100
AcDbEntity
  8
0
  6
Continuous
 62
     7
370
    15
100
AcDbLine
 10
235.5654110354
 20
84.311914681
 30
0.0
 11
233.5759346527
 21
84.311914681
 31
0.0
  0
LINE
  5
280
330
1F
100
AcDbEntity
  8
0
  6
Continuous
 62
     7
370
    15
100
AcDbLine
 10
235.5654110354
 20
69.9119093404
 30
0.0
 11
235.5654110354
 21
84.311914681
 31
0.0
  0
LINE
  5
281
330
1F
100
AcDbEntity
  8
0
  6
Continuous
 62
     7
370
    15
100
AcDbLine
 10
233.5759346527
 20
69.9119093404
 30
0.0
 11
235.5654110354
 21
69.9119093404
 31
0.0
  0
ARC
  5
282
330
1F
100
AcDbEntity
  8
0
  6
Continuous
 62
     7
370
    15
100
AcDbCircle
 10
248.8699090754
 20
77.1119120107
 30
0.0
 40
16.90401408232907
100
AcDbArc
 50
154.7901718738
 51
205.2098281262
  0
SPLINE
  5
283
330
1F
100
AcDbEntity
  8
0
  6
Continuous
 62
     7
370
    15
100
AcDbSpline
210
0.0
220
0.0
230
1.0
 70
     8
 71
     3
 72
    12
 73
     8
 74
     0
 42
0.00000001
 43
0.00000001
 40
0.0
 40
0.0
 40
0.0
 40
0.0
 40
0.1818731681775988
 40
0.3633454772853114
 40
0.5550840408613205
 40
0.7712678035596012
 40
1.0
 40
1.0
 40
1.0
 40
1.0
 10
233.7083091181232
 20
69.11191069941603
 30
0.0
 10
233.7321694266725
 20
69.1192344134941
 30
0.0
 10
233.7798374542595
 20
69.13386569975724
 30
0.0
 10
233.7945825350162
 20
69.24585278280298
 30
0.0
 10
233.7673500053447
 20
69.41525366576273
 30
0.0
 10
233.6956738620083
 20
69.64365938680059
 30
0.0
 10
233.6165912062725
 20
69.82082707355156
 30
0.0
 10
233.5759346526576
 20
69.91190934043013
 30
0.0
  0
LINE
  5
284
330
1F
100
AcDbEntity
  8
0
  6
Continuous
 62
     7
370
    15
100
AcDbLine
 10
233.3239485663
 20
69.8664160953
 30
0.0
 11
233.678395037
 21
69.1119106994
 31
0.0
  0
ARC
  5
285
330
1F
100
AcDbEntity
  8
0
  6
Continuous
 62
     7
370
    15
100
AcDbCircle
 10
248.5945772593
 20
77.1119120107
 30
0.0
 40
16.90234633834254
100
AcDbArc
 50
154.616938827
 51
205.383061173
  0
LINE
  5
286
330
1F
100
AcDbEntity
  8
0
  6
Continuous
 62
     7
370
    15
100
AcDbLine
 10
233.678395037
 20
85.111913322
 30
0.0
 11
233.3239485663
 21
84.3574079261
 31
0.0
  0
SPLINE
  5
287
330
1F
100
AcDbEntity
  8
0
  6
Continuous
 62
     7
370
    15
100
AcDbSpline
210
0.0
220
0.0
230
1.0
 70
     8
 71
     3
 72
    12
 73
     8
 74
     0
 42
0.00000001
 43
0.00000001
 40
0.0
 40
0.0
 40
0.0
 40
0.0
 40
0.2510252792808068
 40
0.502395842462116
 40
0.7402770312516813
 40
0.9473075742685327
 40
1.0
 40
1.0
 40
1.0
 40
1.0
 10
233.5759346526576
 20
84.3119146810063
 30
0.0
 10
233.6202521780466
 20
84.4117992659493
 30
0.0
 10
233.7089481873386
 20
84.61170582653632
 30
0.0
 10
233.7839440961356
 20
84.87043484634418
 30
0.0
 10
233.7954372288033
 20
85.04766771850223
 30
0.0
 10
233.7537914875478
 20
85.10812830350653
 30
0.0
 10
233.7159802393782
 20
85.11127493540293
 30
0.0
 10
233.7083091181232
 20
85.1119133220204
 30
0.0
  0
LINE
  5
288
330
1F
100
AcDbEntity
  8
0
  6
Continuous
 62
     7
370
    15
100
AcDbLine
 10
233.7083091181
 20
69.1119106994
 30
0.0
 11
233.678395037
 21
69.1119106994
 31
0.0
  0
LINE
  5
289
330
1F
100
AcDbEntity
  8
0
  6
Continuous
 62
     7
370
    15
100
AcDbLine
 10
233.7083091181
 20
85.111913322
 30
0.0
 11
233.678395037
 21
85.111913322
 31
0.0
  0
LWPOLYLINE
  5
28A
330
1F
100
AcDbEntity
  8
0
  6
Continuous
 62
     7
370
    15
100
AcDbPolyline
 90
        9
 70
   128
 43
0.0
 10
235.5654110354
 20
84.311914681
 10
235.5601509255
 20
84.4679894434
 10
235.5445866626
 20
84.6180590377
 10
235.5192993921
 20
84.7563716159
 10
235.4852725905
 20
84.8775925622
 10
235.4438101095
 20
84.9770876155
 10
235.3965063733
 20
85.0510122762
 10
235.3451718729
 20
85.0965353237
 10
235.2917959135
 20
85.111913322
  0
LINE
  5
28B
330
1F
100
AcDbEntity
  8
0
  6
Continuous
 62
     7
370
    15
100
AcDbLine
 10
233.7083091181
 20
85.111913322
 30
0.0
 11
235.2917959135
 21
85.111913322
 31
0.0
  0
LWPOLYLINE
  5
28C
330
1F
100
AcDbEntity
  8
0
  6
Continuous
 62
     7
370
    15
100
AcDbPolyline
 90
        9
 70
   128
 43
0.0
 10
235.5654110354
 20
69.9119093404
 10
235.5601509255
 20
69.7558494792
 10
235.5445866626
 20
69.6057649837
 10
235.5192993921
 20
69.4674524055
 10
235.4852725905
 20
69.3462314592
 10
235.4438101095
 20
69.2467364059
 10
235.3965063733
 20
69.1728117452
 10
235.3451718729
 20
69.1272886978
 10
235.2917959135
 20
69.1119106994
  0
LINE
  5
28D
330
1F
100
AcDbEntity
  8
0
  6
Continuous
 62
     7
370
    15
100
AcDbLine
 10
235.2917959135
 20
69.1119106994
 30
0.0
 11
233.7083091181
 21
69.1119106994
 31
0.0
  0
LINE
  5
28E
330
1F
100
AcDbEntity
  8
0
  6
Continuous
 62
     7
370
    15
100
AcDbLine
 10
240.4642646354
 20
84.311914681
 30
0.0
 11
235.5654110354
 21
84.311914681
 31
0.0
  0
LINE
  5
28F
330
1F
100
AcDbEntity
  8
0
  6
Continuous
 62
     7
370
    15
100
AcDbLine
 10
235.5654110354
 20
69.9119093404
 30
0.0
 11
240.4642646354
 21
69.9119093404
 31
0.0
  0
LINE
  5
290
330
1F
100
AcDbEntity
  8
0
  6
Continuous
 62
     7
370
    15
100
AcDbLine
 10
240.6031732601
 20
69.1119106994
 30
0.0
 11
235.2917959135
 21
69.1119106994
 31
0.0
  0
LINE
  5
291
330
1F
100
AcDbEntity
  8
0
  6
Continuous
 62
     7
370
    15
100
AcDbLine
 10
235.2917959135
 20
85.111913322
 30
0.0
 11
240.6031732601
 21
85.111913322
 31
0.0
  0
SPLINE
  5
292
330
1F
100
AcDbEntity
  8
0
  6
Continuous
 62
     7
370
    15
100
AcDbSpline
210
0.0
220
0.0
230
1.0
 70
     8
 71
     3
 72
    16
 73
    12
 74
     0
 42
0.00000001
 43
0.00000001
 40
0.0
 40
0.0
 40
0.0
 40
0.0
 40
0.1207046726922333
 40
0.2414119567820077
 40
0.3621190531240857
 40
0.4828234744894566
 40
0.6035301023412709
 40
0.7242365456915353
 40
0.8449450706536153
 40
0.9656513852516769
 40
1.0
 40
1.0
 40
1.0
 40
1.0
 10
266.8462936919643
 20
64.15953957896315
 30
0.0
 10
266.8656947937064
 20
64.16221537478745
 30
0.0
 10
266.9044974169256
 20
64.1675670243258
 30
0.0
 10
266.9094174441386
 20
64.4585111920888
 30
0.0
 10
266.8722125585737
 20
64.91184752134465
 30
0.0
 10
266.7952789973471
 20
65.47937527358266
 30
0.0
 10
266.6914788248905
 20
66.06769473508969
 30
0.0
 10
266.5753798038238
 20
66.59440625670382
 30
0.0
 10
266.4683717758162
 20
66.95768503754626
 30
0.0
 10
266.3957986593647
 20
67.12815218813978
 30
0.0
 10
266.3762465216782
 20
67.09499313124998
 30
0.0
 10
266.3719152253581
 20
67.0876475558766
 30
0.0
  0
SPLINE
  5
293
330
1F
100
AcDbEntity
  8
0
  6
Continuous
 62
     7
370
    15
100
AcDbSpline
210
0.0
220
0.0
230
1.0
 70
     8
 71
     3
 72
    16
 73
    12
 74
     0
 42
0.00000001
 43
0.00000001
 40
0.0
 40
0.0
 40
0.0
 40
0.0
 40
0.1205802855126522
 40
0.2411631797317785
 40
0.361745886396684
 40
0.4823259208414682
 40
0.6029081594988932
 40
0.7234908041797807
 40
0.8440743790084085
 40
0.9646533988194554
 40
1.0
 40
1.0
 40
1.0
 40
1.0
 10
267.0168821853114
 20
90.03556990485274
 30
0.0
 10
267.036283295125
 20
90.03289408931653
 30
0.0
 10
267.0750859344874
 20
90.02754240035397
 30
0.0
 10
267.0800058406246
 20
89.73659852827731
 30
0.0
 10
267.0428014151457
 20
89.28326107541865
 30
0.0
 10
266.9658661346778
 20
88.71573752183976
 30
0.0
 10
266.8620722098063
 20
88.12740142897394
 30
0.0
 10
266.7459491996931
 20
87.60074849948613
 30
0.0
 10
266.6389453459997
 20
87.23726807181984
 30
0.0
 10
266.5661750226467
 20
87.06673469120588
 30
0.0
 10
266.5465379840697
 20
87.10031221366671
 30
0.0
 10
266.5420864861919
 20
87.10792386393629
 30
0.0
  0
SPLINE
  5
294
330
1F
100
AcDbEntity
  8
0
  6
Continuous
 62
     7
370
    15
100
AcDbSpline
210
0.0
220
0.0
230
1.0
 70
     8
 71
     3
 72
    16
 73
    12
 74
     0
 42
0.00000001
 43
0.00000001
 40
0.0
 40
0.0
 40
0.0
 40
0.0
 40
0.1205151259077762
 40
0.2410328591123244
 40
0.361550404864003
 40
0.4820652798395842
 40
0.6025823578366858
 40
0.7230992516219666
 40
0.8436162982530805
 40
0.9641310447155514
 40
1.0
 40
1.0
 40
1.0
 40
1.0
 10
282.3872660439922
 20
66.77595996718489
 30
0.0
 10
282.4066671412592
 20
66.77863578784185
 30
0.0
 10
282.4454697555284
 20
66.78398748704615
 30
0.0
 10
282.4503898498684
 20
67.07493128230882
 30
0.0
 10
282.4131847092216
 20
67.52826902705964
 30
0.0
 10
282.3362521011805
 20
68.09579148990063
 30
0.0
 10
282.2324483710156
 20
68.68413069377047
 30
0.0
 10
282.1163632459246
 20
69.21076573010792
 30
0.0
 10
282.0093067599687
 20
69.574316830264
 30
0.0
 10
281.9364536989436
 20
69.74492581415753
 30
0.0
 10
281.9167631509449
 20
69.71110906797762
 30
0.0
 10
281.9122468274547
 20
69.70335268836104
 30
0.0
  0
SPLINE
  5
295
330
1F
100
AcDbEntity
  8
0
  6
Continuous
 62
     7
370
    15
100
AcDbSpline
210
0.0
220
0.0
230
1.0
 70
     8
 71
     3
 72
    16
 73
    12
 74
     0
 42
0.00000001
 43
0.00000001
 40
0.0
 40
0.0
 40
0.0
 40
0.0
 40
0.1205179640124812
 40
0.2410310931472781
 40
0.3615481746255634
 40
0.4820664211226183
 40
0.6025832759705165
 40
0.7231002954985177
 40
0.8436139963821563
 40
0.9641311828946146
 40
1.0
 40
1.0
 40
1.0
 40
1.0
 10
282.5578396361781
 20
87.419149516631
 30
0.0
 10
282.5772470488954
 20
87.41647408783152
 30
0.0
 10
282.6160610957532
 20
87.41112333756412
 30
0.0
 10
282.620977364798
 20
87.12019104580995
 30
0.0
 10
282.5837724794478
 20
86.6668484975078
 30
0.0
 10
282.5068405660965
 20
86.09932493800291
 30
0.0
 10
282.4030430740722
 20
85.51097660637267
 30
0.0
 10
282.286928333086
 20
84.9843526845746
 30
0.0
 10
282.1798989354019
 20
84.62078270344567
 30
0.0
 10
282.1070423991281
 20
84.45018387199451
 30
0.0
 10
282.0873516146553
 20
84.48400057076033
 30
0.0
 10
282.0828353208018
 20
84.49175679545485
 30
0.0
  0
SPLINE
  5
296
330
1F
100
AcDbEntity
  8
0
  6
Continuous
 62
     7
370
    15
100
AcDbSpline
210
0.0
220
0.0
230
1.0
 70
    24
 71
     3
 72
    16
 73
    12
 74
     0
 42
0.00000001
 43
0.00000001
 40
0.0
 40
0.0
 40
0.0
 40
0.0
 40
0.0611070903526417
 40
0.1864721510444355
 40
0.3118319714710453
 40
0.4371971593372122
 40
0.5625584614195136
 40
0.6879205673632984
 40
0.8132849015740912
 40
0.9386471466409737
 40
0.9999999999999999
 40
0.9999999999999999
 40
0.9999999999999999
 40
0.9999999999999999
 10
285.4641770165874
 20
70.2456804500111
 30
0.0
 10
285.4699500459386
 20
70.2456804500111
 30
0.0
 10
285.48756681013
 20
70.24568045001118
 30
0.0
 10
285.2691418133407
 20
70.24568045001106
 30
0.0
 10
284.8563877253101
 20
70.2456804500111
 30
0.0
 10
284.2999240991481
 20
70.24568045001112
 30
0.0
 10
283.7008182618281
 20
70.24568045001115
 30
0.0
 10
283.1421188473075
 20
70.24568045001115
 30
0.0
 10
282.7251716883443
 20
70.24568045001115
 30
0.0
 10
282.5021697238206
 20
70.24568045001112
 30
0.0
 10
282.5169851273928
 20
70.24568045001106
 30
0.0
 10
282.521853331895
 20
70.2456804500111
 30
0.0
  0
SPLINE
  5
297
330
1F
100
AcDbEntity
  8
0
  6
Continuous
 62
     7
370
    15
100
AcDbSpline
210
0.0
220
0.0
230
1.0
 70
    24
 71
     3
 72
    16
 73
    12
 74
     0
 42
0.00000001
 43
0.00000001
 40
0.0
 40
0.0
 40
0.0
 40
0.0
 40
0.0610095308224137
 40
0.186174441967608
 40
0.3113341212138785
 40
0.4364991593304078
 40
0.5616603178668566
 40
0.6868222789813968
 40
0.8119864648054415
 40
0.9371485648209648
 40
1.0
 40
1.0
 40
1.0
 40
1.0
 10
285.4641770165874
 20
83.80430662493785
 30
0.0
 10
285.4699500397259
 20
83.80430662493788
 30
0.0
 10
285.4875667849589
 20
83.80430662493788
 30
0.0
 10
285.2691420467028
 20
83.80430662493791
 30
0.0
 10
284.8563868703299
 20
83.80430662493794
 30
0.0
 10
284.2999272858278
 20
83.80430662493788
 30
0.0
 10
283.7008063705147
 20
83.80430662493788
 30
0.0
 10
283.1421632266793
 20
83.80430662493791
 30
0.0
 10
282.7250060602692
 20
83.80430662493785
 30
0.0
 10
282.5015151285406
 20
83.80430662493791
 30
0.0
 10
282.5167354849997
 20
83.80430662493788
 30
0.0
 10
282.5218235295726
 20
83.80430662493788
 30
0.0
  0
SPLINE
  5
298
330
1F
100
AcDbEntity
  8
0
  6
Continuous
 62
     7
370
    15
100
AcDbSpline
210
0.0
220
0.0
230
1.0
 70
     8
 71
     3
 72
    19
 73
    15
 74
     0
 42
0.00000001
 43
0.00000001
 40
0.0
 40
0.0
 40
0.0
 40
0.0
 40
0.0039536857761478
 40
0.1157670014107801
 40
0.2280467679214062
 40
0.3355225848218525
 40
0.4377012919202888
 40
0.5348785050843273
 40
0.6283038363631652
 40
0.7302880459396967
 40
0.8413326072850351
 40
0.9641270183251623
 40
0.9937688453048029
 40
0.9999999999999999
 40
0.9999999999999999
 40
0.9999999999999999
 40
0.9999999999999999
 10
271.792272214265
 20
82.7119173989781
 30
0.0
 10
271.7926644736737
 20
82.71191035961064
 30
0.0
 10
271.8041501349267
 20
82.71170424144486
 30
0.0
 10
271.8274738508851
 20
82.69663141881828
 30
0.0
 10
271.8709374027485
 20
82.62970639999843
 30
0.0
 10
271.9089241356905
 20
82.52501853533187
 30
0.0
 10
271.93240520477
 20
82.39994507302032
 30
0.0
 10
271.9437437858963
 20
82.27151263751664
 30
0.0
 10
271.9443534666585
 20
82.15033843589397
 30
0.0
 10
271.9285522347309
 20
82.04111290188912
 30
0.0
 10
271.8881805875407
 20
81.95167785830284
 30
0.0
 10
271.8363214330893
 20
81.91663765910052
 30
0.0
 10
271.8016099391038
 20
81.91202160232164
 30
0.0
 10
271.7936541404364
 20
81.91193397829996
 30
0.0
 10
271.792272214265
 20
81.911918757964
 30
0.0
  0
SPLINE
  5
299
330
1F
100
AcDbEntity
  8
0
  6
Continuous
 62
     7
370
    15
100
AcDbSpline
210
0.0
220
0.0
230
1.0
 70
     8
 71
     3
 72
    30
 73
    26
 74
     0
 42
0.00000001
 43
0.00000001
 40
0.0
 40
0.0
 40
0.0
 40
0.0
 40
0.124711292145107
 40
0.2494226058853823
 40
0.3741193886419359
 40
0.4367816995221521
 40
0.4681531919042845
 40
0.4838404222817763
 40
0.491691993900146
 40
0.4956112073863218
 40
0.4975691407011547
 40
0.4985481616536077
 40
0.4990390456390019
 40
0.499284487631699
 40
0.4994059022762757
 40
0.4994666095985641
 40
0.4995042586816024
 40
0.4995161643670242
 40
0.499533001548817
 40
0.5609171153610046
 40
0.6646133198329871
 40
0.732583670362476
 40
0.8111449457154783
 40
0.9002990968200388
 40
1.0
 40
1.0
 40
1.0
 40
1.0
 10
271.8639617007686
 20
82.77180516581618
 30
0.0
 10
271.8697326504541
 20
82.77001344661895
 30
0.0
 10
271.8812745508242
 20
82.76643000791437
 30
0.0
 10
271.9711067792766
 20
82.74457984349037
 30
0.0
 10
272.0785815363973
 20
82.71890523178865
 30
0.0
 10
272.164136578451
 20
82.69849682591851
 30
0.0
 10
272.2082375177631
 20
82.68796840981746
 30
0.0
 10
272.2304637499069
 20
82.68262855088285
 30
0.0
 10
272.2416021685579
 20
82.6799848719758
 30
0.0
 10
272.2471684106686
 20
82.67863820711565
 30
0.0
 10
272.2499508930306
 20
82.67797503795896
 30
0.0
 10
272.2513437132675
 20
82.67765081740816
 30
0.0
 10
272.2520376713632
 20
82.67747641221956
 30
0.0
 10
272.2523846326901
 20
82.67738803866051
 30
0.0
 10
272.2525580290779
 20
82.67734723410055
 30
0.0
 10
272.2526507837417
 20
82.67734055408465
 30
0.0
 10
272.2526913610496
 20
82.67731351569697
 30
0.0
 10
272.252721269659
 20
82.67731974914652
 30
0.0
 10
272.2685197691061
 20
82.65340417607351
 30
0.0
 10
272.3524050098555
 20
82.67111867818161
 30
0.0
 10
272.4344353588317
 20
82.63429760296462
 30
0.0
 10
272.5198491093964
 20
82.6206435666548
 30
0.0
 10
272.5828942968437
 20
82.60683626792768
 30
0.0
 10
272.6335725994273
 20
82.59747542646578
 30
0.0
 10
272.6407727872271
 20
82.5969689834697
 30
0.0
 10
272.6445739310695
 20
82.59670162062727
 30
0.0
  0
ELLIPSE
  5
29A
330
1F
100
AcDbEntity
  8
0
  6
Continuous
 62
     7
370
    15
100
AcDbEllipse
 10
272.5211012034
 20
83.8938895737
 30
0.0
 11
0.3906095144045594
 21
-0.08616383961160068
 31
0.0
210
0.0
220
0.0
230
1.0
 40
0.0142285888
 41
0.0
 42
6.283185307179586
  0
LINE
  5
29B
330
1F
100
AcDbEntity
  8
0
  6
Continuous
 62
     7
370
    15
100
AcDbLine
 10
271.6939990562
 20
71.3619115339
 30
0.0
 11
271.6939990562
 21
70.3619095073
 31
0.0
  0
LINE
  5
29C
330
1F
100
AcDbEntity
  8
0
  6
Continuous
 62
     7
370
    15
100
AcDbLine
 10
271.6939990562
 20
70.3619095073
 30
0.0
 11
265.4939984125
 21
70.3619095073
 31
0.0
  0
LINE
  5
29D
330
1F
100
AcDbEntity
  8
0
  6
Continuous
 62
     7
370
    15
100
AcDbLine
 10
265.4939984125
 20
71.3619115339
 30
0.0
 11
265.4939984125
 21
70.3619095073
 31
0.0
  0
LINE
  5
29E
330
1F
100
AcDbEntity
  8
0
  6
Continuous
 62
     7
370
    15
100
AcDbLine
 10
271.6939990562
 20
71.3619115339
 30
0.0
 11
265.4939984125
 21
71.3619115339
 31
0.0
  0
LINE
  5
29F
330
1F
100
AcDbEntity
  8
0
  6
Continuous
 62
     7
370
    15
100
AcDbLine
 10
271.6939990562
 20
441.3619163023
 30
0.0
 11
271.6939990562
 21
440.3619142757
 31
0.0
  0
LINE
  5
2A0
330
1F
100
AcDbEntity
  8
0
  6
Continuous
 62
     7
370
    15
100
AcDbLine
 10
265.4939984125
 20
441.3619163023
 30
0.0
 11
265.4939984125
 21
440.3619142757
 31
0.0
  0
LINE
  5
2A1
330
1F
100
AcDbEntity
  8
0
  6
Continuous
 62
     7
370
    15
100
AcDbLine
 10
271.6939990562
 20
441.3619163023
 30
0.0
 11
265.4939984125
 21
441.3619163023
 31
0.0
  0
LINE
  5
2A2
330
1F
100
AcDbEntity
  8
0
  6
Continuous
 62
     7
370
    15
100
AcDbLine
 10
271.6939990562
 20
440.3619142757
 30
0.0
 11
265.4939984125
 21
440.3619142757
 31
0.0
  0
LINE
  5
2A3
330
1F
100
AcDbEntity
  8
0
  6
Continuous
 62
     7
370
    15
100
AcDbLine
 10
271.6939990562
 20
453.8619192825
 30
0.0
 11
271.6939990562
 21
452.8619172559
 31
0.0
  0
LINE
  5
2A4
330
1F
100
AcDbEntity
  8
0
  6
Continuous
 62
     7
370
    15
100
AcDbLine
 10
265.4939984125
 20
453.8619192825
 30
0.0
 11
265.4939984125
 21
452.8619172559
 31
0.0
  0
LINE
  5
2A5
330
1F
100
AcDbEntity
  8
0
  6
Continuous
 62
     7
370
    15
100
AcDbLine
 10
271.6939990562
 20
452.8619172559
 30
0.0
 11
265.4939984125
 21
452.8619172559
 31
0.0
  0
LINE
  5
2A6
330
1F
100
AcDbEntity
  8
0
  6
Continuous
 62
     7
370
    15
100
AcDbLine
 10
271.6939990562
 20
453.8619192825
 30
0.0
 11
265.4939984125
 21
453.8619192825
 31
0.0
  0
LINE
  5
2A7
330
1F
100
AcDbEntity
  8
0
  6
Continuous
 62
     7
370
    15
100
AcDbLine
 10
271.6939990562
 20
83.8619145141
 30
0.0
 11
265.4939984125
 21
83.8619145141
 31
0.0
  0
LINE
  5
2A8
330
1F
100
AcDbEntity
  8
0
  6
Continuous
 62
     7
370
    15
100
AcDbLine
 10
271.6939990562
 20
83.8619145141
 30
0.0
 11
271.6939990562
 21
82.8619124876
 31
0.0
  0
LINE
  5
2A9
330
1F
100
AcDbEntity
  8
0
  6
Continuous
 62
     7
370
    15
100
AcDbLine
 10
271.6939990562
 20
82.8619124876
 30
0.0
 11
265.4939984125
 21
82.8619124876
 31
0.0
  0
LINE
  5
2AA
330
1F
100
AcDbEntity
  8
0
  6
Continuous
 62
     7
370
    15
100
AcDbLine
 10
265.4939984125
 20
83.8619145141
 30
0.0
 11
265.4939984125
 21
82.8619124876
 31
0.0
  0
LWPOLYLINE
  5
2AB
330
1F
100
AcDbEntity
  8
0
  6
Continuous
 62
     7
370
    15
100
AcDbPolyline
 90
        3
 70
   128
 43
0.0
 10
265.415290479
 20
70.7507702098
 10
265.4178683799
 20
70.7446011291
 10
265.4939984125
 20
70.3619095073
  0
LWPOLYLINE
  5
2AC
330
1F
100
AcDbEntity
  8
0
  6
Continuous
 62
     7
370
    15
100
AcDbPolyline
 90
        3
 70
   128
 43
0.0
 10
265.4939984125
 20
83.8619145141
 10
265.4178683799
 20
83.4792377935
 10
265.415290479
 20
83.4730538116
  0
LINE
  5
2AD
330
1F
100
AcDbEntity
  8
0
  6
Continuous
 62
     7
370
    15
100
AcDbLine
 10
271.6939990562
 20
82.8619124876
 30
0.0
 11
271.6939990562
 21
82.711917399
 31
0.0
  0
LINE
  5
2AE
330
1F
100
AcDbEntity
  8
0
  6
Continuous
 62
     7
370
    15
100
AcDbLine
 10
271.6939990562
 20
81.911918758
 30
0.0
 11
271.6939990562
 21
81.0119184242
 31
0.0
  0
LINE
  5
2AF
330
1F
100
AcDbEntity
  8
0
  6
Continuous
 62
     7
370
    15
100
AcDbLine
 10
271.6939990562
 20
72.4119069562
 30
0.0
 11
271.6939990562
 21
71.3619115339
 31
0.0
  0
LWPOLYLINE
  5
2B0
330
1F
100
AcDbEntity
  8
0
  6
Continuous
 62
     7
370
    15
100
AcDbPolyline
 90
        3
 70
   128
 43
0.0
 10
265.415290479
 20
440.7507749782
 10
265.4178683799
 20
440.7445909963
 10
265.4939984125
 20
440.3619142757
  0
LWPOLYLINE
  5
2B1
330
1F
100
AcDbEntity
  8
0
  6
Continuous
 62
     7
370
    15
100
AcDbPolyline
 90
        3
 70
   128
 43
0.0
 10
265.4939984125
 20
453.8619192825
 10
265.4178683799
 20
453.4792276607
 10
265.415290479
 20
453.47305858
  0
LINE
  5
2B2
330
1F
100
AcDbEntity
  8
0
  6
Continuous
 62
     7
370
    15
100
AcDbLine
 10
271.6939990562
 20
452.8619172559
 30
0.0
 11
271.6939990562
 21
452.7119072662
 31
0.0
  0
LINE
  5
2B3
330
1F
100
AcDbEntity
  8
0
  6
Continuous
 62
     7
370
    15
100
AcDbLine
 10
271.6939990562
 20
451.9119086252
 30
0.0
 11
271.6939990562
 21
451.0119082914
 31
0.0
  0
LINE
  5
2B4
330
1F
100
AcDbEntity
  8
0
  6
Continuous
 62
     7
370
    15
100
AcDbLine
 10
271.6939990562
 20
442.4119117246
 30
0.0
 11
271.6939990562
 21
441.3619163023
 31
0.0
  0
LINE
  5
2B5
330
1F
100
AcDbEntity
  8
0
  6
Continuous
 62
     7
370
    15
100
AcDbLine
 10
123.6939924922
 20
497.1119137989
 30
0.0
 11
123.6939924922
 21
27.111914991
 31
0.0
  0
LINE
  5
2B6
330
1F
100
AcDbEntity
  8
0
  6
Continuous
 62
     7
370
    15
100
AcDbLine
 10
123.6939924922
 20
27.111914991
 30
0.0
 11
108.6939928275
 21
27.111914991
 31
0.0
  0
LINE
  5
2B7
330
1F
100
AcDbEntity
  8
0
  6
Continuous
 62
     7
370
    15
100
AcDbLine
 10
108.6939928275
 20
497.1119137989
 30
0.0
 11
108.6939928275
 21
27.111914991
 31
0.0
  0
LINE
  5
2B8
330
1F
100
AcDbEntity
  8
0
  6
Continuous
 62
     7
370
    15
100
AcDbLine
 10
108.6939928275
 20
497.1119137989
 30
0.0
 11
123.6939924922
 21
497.1119137989
 31
0.0
  0
LINE
  5
2B9
330
1F
100
AcDbEntity
  8
0
  6
Continuous
 62
     7
370
    15
100
AcDbLine
 10
123.6939924922
 20
27.111914991
 30
0.0
 11
123.6939924922
 21
12.1119143949
 31
0.0
  0
ARC
  5
2BA
330
1F
100
AcDbEntity
  8
0
  6
Continuous
 62
     7
370
    15
100
AcDbCircle
 10
123.6939928096
 20
27.1119143949
 30
0.0
 40
15.00000000000001
100
AcDbArc
 50
180.0
 51
270.0
  0
ARC
  5
2BB
330
1F
100
AcDbEntity
  8
0
  6
Continuous
 62
     7
370
    15
100
AcDbCircle
 10
123.6939928096
 20
497.1119143949
 30
0.0
 40
15.00000000000006
100
AcDbArc
 50
90.0
 51
180.0
  0
LINE
  5
2BC
330
1F
100
AcDbEntity
  8
0
  6
Continuous
 62
     7
370
    15
100
AcDbLine
 10
123.6939924922
 20
512.1119143949
 30
0.0
 11
123.6939924922
 21
497.1119137989
 31
0.0
  0
LINE
  5
2BD
330
1F
100
AcDbEntity
  8
0
  6
Continuous
 62
     7
370
    15
100
AcDbLine
 10
284.6939955991
 20
497.1119137989
 30
0.0
 11
123.6939924922
 21
497.1119137989
 31
0.0
  0
LINE
  5
2BE
330
1F
100
AcDbEntity
  8
0
  6
Continuous
 62
     7
370
    15
100
AcDbLine
 10
284.6939955991
 20
512.1119143949
 30
0.0
 11
123.6939924922
 21
512.1119143949
 31
0.0
  0
LINE
  5
2BF
330
1F
100
AcDbEntity
  8
0
  6
Continuous
 62
     7
370
    15
100
AcDbLine
 10
284.6939955991
 20
512.1119143949
 30
0.0
 11
284.6939955991
 21
497.1119137989
 31
0.0
  0
LINE
  5
2C0
330
1F
100
AcDbEntity
  8
0
  6
Continuous
 62
     7
370
    15
100
AcDbLine
 10
284.6939955991
 20
27.111914991
 30
0.0
 11
284.6939955991
 21
68.1040110574
 31
0.0
  0
LINE
  5
2C1
330
1F
100
AcDbEntity
  8
0
  6
Continuous
 62
     7
370
    15
100
AcDbLine
 10
284.6939955991
 20
86.0878499733
 30
0.0
 11
284.6939955991
 21
438.1040009246
 31
0.0
  0
LINE
  5
2C2
330
1F
100
AcDbEntity
  8
0
  6
Continuous
 62
     7
370
    15
100
AcDbLine
 10
284.6939955991
 20
456.0878398405
 30
0.0
 11
284.6939955991
 21
497.1119137989
 31
0.0
  0
LINE
  5
2C3
330
1F
100
AcDbEntity
  8
0
  6
Continuous
 62
     7
370
    15
100
AcDbLine
 10
284.6939955991
 20
27.111914991
 30
0.0
 11
123.6939924922
 21
27.111914991
 31
0.0
  0
LINE
  5
2C4
330
1F
100
AcDbEntity
  8
0
  6
Continuous
 62
     7
370
    15
100
AcDbLine
 10
264.6939997714
 20
32.1119102226
 30
0.0
 11
128.6939923805
 21
32.1119102226
 31
0.0
  0
LINE
  5
2C5
330
1F
100
AcDbEntity
  8
0
  6
Continuous
 62
     7
370
    15
100
AcDbLine
 10
264.6939997714
 20
32.1119102226
 30
0.0
 11
264.6939997714
 21
64.2993720756
 31
0.0
  0
LINE
  5
2C6
330
1F
100
AcDbEntity
  8
0
  6
Continuous
 62
     7
370
    15
100
AcDbLine
 10
264.6939997714
 20
67.6391544328
 30
0.0
 11
264.6939997714
 21
69.1119106994
 31
0.0
  0
LINE
  5
2C7
330
1F
100
AcDbEntity
  8
0
  6
Continuous
 62
     7
370
    15
100
AcDbLine
 10
264.6939997714
 20
85.111913322
 30
0.0
 11
264.6939997714
 21
86.5713181482
 31
0.0
  0
LINE
  5
2C8
330
1F
100
AcDbEntity
  8
0
  6
Continuous
 62
     7
370
    15
100
AcDbLine
 10
264.6939997714
 20
89.9140360342
 30
0.0
 11
264.6939997714
 21
434.2993619428
 31
0.0
  0
LINE
  5
2C9
330
1F
100
AcDbEntity
  8
0
  6
Continuous
 62
     7
370
    15
100
AcDbLine
 10
264.6939997714
 20
437.6391592012
 30
0.0
 11
264.6939997714
 21
439.1119154678
 31
0.0
  0
LINE
  5
2CA
330
1F
100
AcDbEntity
  8
0
  6
Continuous
 62
     7
370
    15
100
AcDbLine
 10
264.6939997714
 20
455.1119180904
 30
0.0
 11
264.6939997714
 21
456.5713229166
 31
0.0
  0
LINE
  5
2CB
330
1F
100
AcDbEntity
  8
0
  6
Continuous
 62
     7
370
    15
100
AcDbLine
 10
264.6939997714
 20
459.9140259014
 30
0.0
 11
264.6939997714
 21
492.1119185672
 31
0.0
  0
LINE
  5
2CC
330
1F
100
AcDbEntity
  8
0
  6
Continuous
 62
     7
370
    15
100
AcDbLine
 10
264.6939997714
 20
492.1119185672
 30
0.0
 11
128.6939923805
 21
492.1119185672
 31
0.0
  0
LINE
  5
2CD
330
1F
100
AcDbEntity
  8
0
  6
Continuous
 62
     7
370
    15
100
AcDbLine
 10
128.6939923805
 20
492.1119185672
 30
0.0
 11
128.6939923805
 21
32.1119102226
 31
0.0
  0
LINE
  5
2CE
330
1F
100
AcDbEntity
  8
0
  6
Continuous
 62
     7
370
    15
100
AcDbLine
 10
284.6939955991
 20
12.1119143949
 30
0.0
 11
123.6939924922
 21
12.1119143949
 31
0.0
  0
LINE
  5
2CF
330
1F
100
AcDbEntity
  8
0
  6
Continuous
 62
     7
370
    15
100
AcDbLine
 10
284.6939955991
 20
27.111914991
 30
0.0
 11
284.6939955991
 21
12.1119143949
 31
0.0
  0
LINE
  5
2D0
330
1F
100
AcDbEntity
  8
0
  6
Continuous
 62
     7
370
    15
100
AcDbLine
 10
288.6939888042
 20
492.1119185672
 30
0.0
 11
284.6939955991
 21
492.1119185672
 31
0.0
  0
LINE
  5
2D1
330
1F
100
AcDbEntity
  8
0
  6
Continuous
 62
     7
370
    15
100
AcDbLine
 10
288.6939888042
 20
32.1119102226
 30
0.0
 11
284.6939955991
 21
32.1119102226
 31
0.0
  0
LINE
  5
2D2
330
1F
100
AcDbEntity
  8
0
  6
Continuous
 62
     7
370
    15
100
AcDbLine
 10
288.6939888042
 20
17.1119096265
 30
0.0
 11
284.6939955991
 21
17.1119096265
 31
0.0
  0
LINE
  5
2D3
330
1F
100
AcDbEntity
  8
0
  6
Continuous
 62
     7
370
    15
100
AcDbLine
 10
288.6939888042
 20
507.1119191633
 30
0.0
 11
284.6939955991
 21
507.1119191633
 31
0.0
  0
LINE
  5
2D4
330
1F
100
AcDbEntity
  8
0
  6
Continuous
 62
     7
370
    15
100
AcDbLine
 10
404.4819212327
 20
540.2871518807
 30
0.0
 11
405.6819117436
 21
540.2871518807
 31
0.0
  0
LINE
  5
2D5
330
1F
100
AcDbEntity
  8
0
  6
Continuous
 62
     7
370
    15
100
AcDbLine
 10
404.3819195399
 20
542.7871643976
 30
0.0
 11
404.4819212327
 21
542.7871643976
 31
0.0
  0
LINE
  5
2D6
330
1F
100
AcDbEntity
  8
0
  6
Continuous
 62
     7
370
    15
100
AcDbLine
 10
404.4819212327
 20
548.7871616558
 30
0.0
 11
404.3819195399
 21
548.7871616558
 31
0.0
  0
LINE
  5
2D7
330
1F
100
AcDbEntity
  8
0
  6
Continuous
 62
     7
370
    15
100
AcDbLine
 10
400.2336746821
 20
605.7871579603
 30
0.0
 11
399.4819110999
 21
605.5135428385
 31
0.0
  0
SPLINE
  5
2D8
330
1F
100
AcDbEntity
  8
0
  6
Continuous
 62
     7
370
    15
100
AcDbSpline
210
0.0
220
0.0
230
1.0
 70
     8
 71
     3
 72
    15
 73
    11
 74
     0
 42
0.00000001
 43
0.00000001
 40
0.0
 40
0.0
 40
0.0
 40
0.0
 40
0.1250746233969379
 40
0.2501518927358305
 40
0.3752910406730606
 40
0.5003051235315468
 40
0.6252883574130363
 40
0.7502628503292366
 40
0.8750788495600447
 40
0.9999999999999999
 40
0.9999999999999999
 40
0.9999999999999999
 40
0.9999999999999999
 10
403.2963550457943
 20
570.8449929432054
 30
0.0
 10
403.2702300492716
 20
571.1037544015785
 30
0.0
 10
403.2179795035543
 20
571.6212827923989
 30
0.0
 10
403.1391126484504
 20
572.4023952953864
 30
0.0
 10
403.064683987593
 20
573.1395742482117
 30
0.0
 10
402.9976717751734
 20
573.8031467744911
 30
0.0
 10
402.9415632719501
 20
574.3589044708868
 30
0.0
 10
402.8990460279975
 20
574.7800147600416
 30
0.0
 10
402.8702132964766
 20
575.0656057849275
 30
0.0
 10
402.8658715952003
 20
575.1086488688245
 30
0.0
 10
402.8636998305309
 20
575.130179472365
 30
0.0
  0
SPLINE
  5
2D9
330
1F
100
AcDbEntity
  8
0
  6
Continuous
 62
     7
370
    15
100
AcDbSpline
210
0.0
220
0.0
230
1.0
 70
     8
 71
     3
 72
    15
 73
    11
 74
     0
 42
0.00000001
 43
0.00000001
 40
0.0
 40
0.0
 40
0.0
 40
0.0
 40
0.1249401884440822
 40
0.2497679801185012
 40
0.3747498318965526
 40
0.4997360360050155
 40
0.6247477749159165
 40
0.7498804928923557
 40
0.8749434058586835
 40
1.0
 40
1.0
 40
1.0
 40
1.0
 10
399.879444278239
 20
574.8288034872194
 30
0.0
 10
399.8816266718761
 20
574.8072226110552
 30
0.0
 10
399.885989495859
 20
574.7640802729824
 30
0.0
 10
399.9148395074541
 20
574.4783701013741
 30
0.0
 10
399.9573440466256
 20
574.057182916688
 30
0.0
 10
400.013484761523
 20
573.501418239003
 30
0.0
 10
400.0804680815713
 20
572.8378824816646
 30
0.0
 10
400.1548902454475
 20
572.1008359175107
 30
0.0
 10
400.2337176280414
 20
571.3199216792877
 30
0.0
 10
400.2859627108677
 20
570.8025695898506
 30
0.0
 10
400.3120845923412
 20
570.5439000801225
 30
0.0
  0
LINE
  5
2DA
330
1F
100
AcDbEntity
  8
0
  6
Continuous
 62
     7
370
    15
100
AcDbLine
 10
400.3118014703
 20
570.5437659697
 30
0.0
 11
401.8808788428
 21
555.0027936176
 31
0.0
  0
LINE
  5
2DB
330
1F
100
AcDbEntity
  8
0
  6
Continuous
 62
     7
370
    15
100
AcDbLine
 10
404.8657006392
 20
555.3041547016
 30
0.0
 11
403.2966232667
 21
570.8451270537
 31
0.0
  0
SPLINE
  5
2DC
330
1F
100
AcDbEntity
  8
0
  6
Continuous
 62
     7
370
    15
100
AcDbSpline
210
0.0
220
0.0
230
1.0
 70
     8
 71
     3
 72
     9
 73
     5
 74
     0
 42
0.00000001
 43
0.00000001
 40
0.0
 40
0.0
 40
0.0
 40
0.0
 40
0.4837463529603662
 40
1.0
 40
1.0
 40
1.0
 40
1.0
 10
402.0509606966961
 20
553.3214210943361
 30
0.0
 10
402.0604211388582
 20
553.2571891240766
 30
0.0
 10
402.0799777558834
 20
553.1244088563466
 30
0.0
 10
402.1138211045269
 20
553.0882655071568
 30
0.0
 10
402.1312928566921
 20
553.0696063713212
 30
0.0
  0
SPLINE
  5
2DD
330
1F
100
AcDbEntity
  8
0
  6
Continuous
 62
     7
370
    15
100
AcDbSpline
210
0.0
220
0.0
230
1.0
 70
     8
 71
     3
 72
    11
 73
     7
 74
     0
 42
0.00000001
 43
0.00000001
 40
0.0
 40
0.0
 40
0.0
 40
0.0
 40
0.2484445011412592
 40
0.4978879558437819
 40
0.748387508441137
 40
0.9999999999999999
 40
0.9999999999999999
 40
0.9999999999999999
 40
0.9999999999999999
 10
401.8811470637309
 20
555.002957530417
 30
0.0
 10
401.8991595630092
 20
554.8244798993802
 30
0.0
 10
401.9352569867964
 20
554.4668070087646
 30
0.0
 10
401.9822840597049
 20
554.0019791729237
 30
0.0
 10
402.0210756716142
 20
553.6190922874864
 30
0.0
 10
402.0361201935418
 20
553.47180502512
 30
0.0
 10
402.0436591277111
 20
553.3979981617113
 30
0.0
  0
SPLINE
  5
2DE
330
1F
100
AcDbEntity
  8
0
  6
Continuous
 62
     7
370
    15
100
AcDbSpline
210
0.0
220
0.0
230
1.0
 70
     8
 71
     3
 72
    19
 73
    15
 74
     0
 42
0.00000001
 43
0.00000001
 40
0.0
 40
0.0
 40
0.0
 40
0.0
 40
0.0802801907277056
 40
0.1534413644684406
 40
0.2193421706414576
 40
0.2779477476206599
 40
0.3728451425950048
 40
0.4421542992520472
 40
0.5315379721726201
 40
0.6554818151353391
 40
0.7303548223906573
 40
0.8130802744411477
 40
0.9031426883518893
 40
1.0
 40
1.0
 40
1.0
 40
1.0
 10
402.0666069159496
 20
553.238779254355
 30
0.0
 10
402.1019673085747
 20
553.1159051979628
 30
0.0
 10
402.1695524356571
 20
552.8810532039687
 30
0.0
 10
402.3667812227098
 20
552.5866415445187
 30
0.0
 10
402.5916238942141
 20
552.3625091446324
 30
0.0
 10
402.8872894877005
 20
552.1694629029814
 30
0.0
 10
403.2292414603967
 20
552.0515714885714
 30
0.0
 10
403.6389973826474
 20
552.0217648112508
 30
0.0
 10
404.0780811481562
 20
552.1240733546417
 30
0.0
 10
404.4646138027396
 20
552.3753075616702
 30
0.0
 10
404.7574504862517
 20
552.7160218517273
 30
0.0
 10
404.9382372108394
 20
553.071485565302
 30
0.0
 10
405.0441306237967
 20
553.4984320734891
 30
0.0
 10
405.011875669958
 20
553.793495774201
 30
0.0
 10
404.9951619276989
 20
553.9463906959672
 30
0.0
  0
SPLINE
  5
2DF
330
1F
100
AcDbEntity
  8
0
  6
Continuous
 62
     7
370
    15
100
AcDbSpline
210
0.0
220
0.0
230
1.0
 70
     8
 71
     3
 72
    11
 73
     7
 74
     0
 42
0.00000001
 43
0.00000001
 40
0.0
 40
0.0
 40
0.0
 40
0.0
 40
0.2477426625315676
 40
0.4969466688513492
 40
0.7476780258035077
 40
1.0
 40
1.0
 40
1.0
 40
1.0
 10
405.018929279803
 20
553.7787079290529
 30
0.0
 10
405.01249558341
 20
553.8433334860465
 30
0.0
 10
404.9995902405906
 20
553.9729658026707
 30
0.0
 10
404.963600129129
 20
554.3308420862622
 30
0.0
 10
404.9186493509303
 20
554.7771748070115
 30
0.0
 10
404.8832087493896
 20
555.128035531278
 30
0.0
 10
404.8654324183452
 20
555.3040205911775
 30
0.0
  0
LINE
  5
2E0
330
1F
100
AcDbEntity
  8
0
  6
Continuous
 62
     7
370
    15
100
AcDbLine
 10
405.1492250333
 20
564.9588256554
 30
0.0
 11
405.1492101321
 21
565.2586519198
 31
0.0
  0
LINE
  5
2E1
330
1F
100
AcDbEntity
  8
0
  6
Continuous
 62
     7
370
    15
100
AcDbLine
 10
404.3492114911
 20
565.2586519198
 30
0.0
 11
404.3492114911
 21
564.9612694458
 31
0.0
  0
SPLINE
  5
2E2
330
1F
100
AcDbEntity
  8
0
  6
Continuous
 62
     7
370
    15
100
AcDbSpline
210
0.0
220
0.0
230
1.0
 70
    24
 71
     3
 72
    11
 73
     7
 74
     0
 42
0.00000001
 43
0.00000001
 40
0.0
 40
0.0
 40
0.0
 40
0.0
 40
0.0207852832108836
 40
0.34656035810907
 40
0.6711462475793438
 40
1.0
 40
1.0
 40
1.0
 40
1.0
 10
404.3492114911067
 20
565.5449628309389
 30
0.0
 10
404.3492114911067
 20
565.5416411262574
 30
0.0
 10
404.3492114911064
 20
565.4862571725137
 30
0.0
 10
404.3492114911068
 20
565.3930200212014
 30
0.0
 10
404.3492114911068
 20
565.2803047247531
 30
0.0
 10
404.3492114911068
 20
565.2457883638789
 30
0.0
 10
404.3492114911068
 20
565.228417463698
 30
0.0
  0
SPLINE
  5
2E3
330
1F
100
AcDbEntity
  8
0
  6
Continuous
 62
     7
370
    15
100
AcDbSpline
210
0.0
220
0.0
230
1.0
 70
    24
 71
     3
 72
    11
 73
     7
 74
     0
 42
0.00000001
 43
0.00000001
 40
0.0
 40
0.0
 40
0.0
 40
0.0
 40
0.2504884286733861
 40
0.497727503351466
 40
0.7458863506510961
 40
1.0
 40
1.0
 40
1.0
 40
1.0
 10
405.1492250332821
 20
565.225958772101
 30
0.0
 10
405.1492250332821
 20
565.2421759963654
 30
0.0
 10
405.1492250332821
 20
565.2744000738892
 30
0.0
 10
405.149225033282
 20
565.3831771939928
 30
0.0
 10
405.1492250332821
 20
565.5220135582651
 30
0.0
 10
405.1492250332821
 20
565.6290389000445
 30
0.0
 10
405.1492250332821
 20
565.683186002173
 30
0.0
  0
LINE
  5
2E4
330
1F
100
AcDbEntity
  8
0
  6
Continuous
 62
     7
370
    15
100
AcDbLine
 10
405.1492250333
 20
565.6831860022
 30
0.0
 11
405.1492250333
 21
565.7871514038
 31
0.0
  0
LINE
  5
2E5
330
1F
100
AcDbEntity
  8
0
  6
Continuous
 62
     7
370
    15
100
AcDbLine
 10
404.1424727807
 20
565.7871514038
 30
0.0
 11
404.3513870606
 21
565.5399262385
 31
0.0
  0
LINE
  5
2E6
330
1F
100
AcDbEntity
  8
0
  6
Continuous
 62
     7
370
    15
100
AcDbLine
 10
399.8728281627
 20
574.9251841978
 30
0.0
 11
399.8572117457
 21
575.3844081835
 31
0.0
  0
SPLINE
  5
2E7
330
1F
100
AcDbEntity
  8
0
  6
Continuous
 62
     7
370
    15
100
AcDbSpline
210
0.0
220
0.0
230
1.0
 70
     8
 71
     3
 72
    11
 73
     7
 74
     0
 42
0.00000001
 43
0.00000001
 40
0.0
 40
0.0
 40
0.0
 40
0.0
 40
0.1207538077136109
 40
0.413392871813957
 40
0.7063564432590831
 40
1.0
 40
1.0
 40
1.0
 40
1.0
 10
401.9054955611217
 20
554.761737533011
 30
0.0
 10
401.9154188932634
 20
554.6634422827644
 30
0.0
 10
401.9493907807733
 20
554.3269348338109
 30
0.0
 10
401.9967458671716
 20
553.8580182313875
 30
0.0
 10
402.0396328582218
 20
553.4332750862177
 30
0.0
 10
402.0471818336554
 20
553.3587345603455
 30
0.0
 10
402.0509606966961
 20
553.3214210943361
 30
0.0
  0
LINE
  5
2E8
330
1F
100
AcDbEntity
  8
0
  6
Continuous
 62
     7
370
    15
100
AcDbLine
 10
405.6819117436
 20
604.7871559338
 30
0.0
 11
405.3819215665
 21
604.7871559338
 31
0.0
  0
LINE
  5
2E9
330
1F
100
AcDbEntity
  8
0
  6
Continuous
 62
     7
370
    15
100
AcDbLine
 10
405.3819215665
 20
603.7871613578
 30
0.0
 11
405.2819198737
 21
603.7871613578
 31
0.0
  0
LINE
  5
2EA
330
1F
100
AcDbEntity
  8
0
  6
Continuous
 62
     7
370
    15
100
AcDbLine
 10
405.2819198737
 20
597.787156649
 30
0.0
 11
405.3819215665
 21
597.787156649
 31
0.0
  0
LINE
  5
2EB
330
1F
100
AcDbEntity
  8
0
  6
Continuous
 62
     7
370
    15
100
AcDbLine
 10
405.3819215665
 20
580.7871519999
 30
0.0
 11
405.2819198737
 21
580.7871519999
 31
0.0
  0
LINE
  5
2EC
330
1F
100
AcDbEntity
  8
0
  6
Continuous
 62
     7
370
    15
100
AcDbLine
 10
405.2819198737
 20
574.7871547417
 30
0.0
 11
405.3819215665
 21
574.7871547417
 31
0.0
  0
ARC
  5
2ED
330
1F
100
AcDbEntity
  8
0
  6
Continuous
 62
     7
370
    15
100
AcDbCircle
 10
420.6819147239
 20
543.7871576504
 30
0.0
 40
15.0
100
AcDbArc
 50
180.0
 51
270.0
  0
LINE
  5
2EE
330
1F
100
AcDbEntity
  8
0
  6
Continuous
 62
     7
370
    15
100
AcDbLine
 10
405.6819117436
 20
543.787151523
 30
0.0
 11
420.6819123397
 21
543.787151523
 31
0.0
  0
LINE
  5
2EF
330
1F
100
AcDbEntity
  8
0
  6
Continuous
 62
     7
370
    15
100
AcDbLine
 10
420.6819123397
 20
528.787150927
 30
0.0
 11
420.6819123397
 21
543.787151523
 31
0.0
  0
LINE
  5
2F0
330
1F
100
AcDbEntity
  8
0
  6
Continuous
 62
     7
370
    15
100
AcDbLine
 10
405.6819117436
 20
548.7871616558
 30
0.0
 11
405.6819117436
 21
543.787151523
 31
0.0
  0
LINE
  5
2F1
330
1F
100
AcDbEntity
  8
0
  6
Continuous
 62
     7
370
    15
100
AcDbLine
 10
420.6819123397
 20
548.7871616558
 30
0.0
 11
420.6819123397
 21
543.787151523
 31
0.0
  0
LINE
  5
2F2
330
1F
100
AcDbEntity
  8
0
  6
Continuous
 62
     7
370
    15
100
AcDbLine
 10
405.6819117436
 20
548.7871616558
 30
0.0
 11
420.6819123397
 21
548.7871616558
 31
0.0
  0
LINE
  5
2F3
330
1F
100
AcDbEntity
  8
0
  6
Continuous
 62
     7
370
    15
100
AcDbLine
 10
790.6819171081
 20
548.7871616558
 30
0.0
 11
790.6819171081
 21
543.787151523
 31
0.0
  0
LINE
  5
2F4
330
1F
100
AcDbEntity
  8
0
  6
Continuous
 62
     7
370
    15
100
AcDbLine
 10
420.6819123397
 20
543.787151523
 30
0.0
 11
790.6819171081
 21
543.787151523
 31
0.0
  0
LINE
  5
2F5
330
1F
100
AcDbEntity
  8
0
  6
Continuous
 62
     7
370
    15
100
AcDbLine
 10
420.6819123397
 20
548.7871616558
 30
0.0
 11
790.6819171081
 21
548.7871616558
 31
0.0
  0
LINE
  5
2F6
330
1F
100
AcDbEntity
  8
0
  6
Continuous
 62
     7
370
    15
100
AcDbLine
 10
790.6819171081
 20
543.787151523
 30
0.0
 11
790.6819171081
 21
528.787150927
 31
0.0
  0
LINE
  5
2F7
330
1F
100
AcDbEntity
  8
0
  6
Continuous
 62
     7
370
    15
100
AcDbLine
 10
420.6819123397
 20
528.787150927
 30
0.0
 11
790.6819171081
 21
528.787150927
 31
0.0
  0
LINE
  5
2F8
330
1F
100
AcDbEntity
  8
0
  6
Continuous
 62
     7
370
    15
100
AcDbLine
 10
805.6819177041
 20
548.7871616558
 30
0.0
 11
805.6819177041
 21
543.787151523
 31
0.0
  0
LINE
  5
2F9
330
1F
100
AcDbEntity
  8
0
  6
Continuous
 62
     7
370
    15
100
AcDbLine
 10
805.6819177041
 20
543.787151523
 30
0.0
 11
790.6819171081
 21
543.787151523
 31
0.0
  0
LINE
  5
2FA
330
1F
100
AcDbEntity
  8
0
  6
Continuous
 62
     7
370
    15
100
AcDbLine
 10
805.6819177041
 20
548.7871616558
 30
0.0
 11
790.6819171081
 21
548.7871616558
 31
0.0
  0
ARC
  5
2FB
330
1F
100
AcDbEntity
  8
0
  6
Continuous
 62
     7
370
    15
100
AcDbCircle
 10
790.6819147239
 20
543.7871576504
 30
0.0
 40
15.0
100
AcDbArc
 50
270.0
 51
0.0
  0
LINE
  5
2FC
330
1F
100
AcDbEntity
  8
0
  6
Continuous
 62
     7
370
    15
100
AcDbLine
 10
404.4819212327
 20
544.7009503321
 30
0.0
 11
404.4819212327
 21
546.8049197868
 31
0.0
  0
LINE
  5
2FD
330
1F
100
AcDbEntity
  8
0
  6
Continuous
 62
     7
370
    15
100
AcDbLine
 10
404.4819212327
 20
546.8049197868
 30
0.0
 11
405.6819117436
 21
546.8049197868
 31
0.0
  0
LINE
  5
2FE
330
1F
100
AcDbEntity
  8
0
  6
Continuous
 62
     7
370
    15
100
AcDbLine
 10
404.4819212327
 20
544.7009503321
 30
0.0
 11
405.6819117436
 21
544.7009503321
 31
0.0
  0
LINE
  5
2FF
330
1F
100
AcDbEntity
  8
0
  6
Continuous
 62
     7
370
    15
100
AcDbLine
 10
404.4819212327
 20
551.7871528343
 30
0.0
 11
405.6819117436
 21
551.7871528343
 31
0.0
  0
LINE
  5
300
330
1F
100
AcDbEntity
  8
0
  6
Continuous
 62
     7
370
    15
100
AcDbLine
 10
405.6819117436
 20
548.7871616558
 30
0.0
 11
405.6819117436
 21
551.7871528343
 31
0.0
  0
LINE
  5
301
330
1F
100
AcDbEntity
  8
0
  6
Continuous
 62
     7
370
    15
100
AcDbLine
 10
404.4819212327
 20
551.7871528343
 30
0.0
 11
404.4819212327
 21
546.8049197868
 31
0.0
  0
LINE
  5
302
330
1F
100
AcDbEntity
  8
0
  6
Continuous
 62
     7
370
    15
100
AcDbLine
 10
405.6819117436
 20
543.787151523
 30
0.0
 11
405.6819117436
 21
540.2871518807
 31
0.0
  0
LINE
  5
303
330
1F
100
AcDbEntity
  8
0
  6
Continuous
 62
     7
370
    15
100
AcDbLine
 10
404.4819212327
 20
540.2871518807
 30
0.0
 11
404.4819212327
 21
544.7009503321
 31
0.0
  0
LINE
  5
304
330
1F
100
AcDbEntity
  8
0
  6
Continuous
 62
     7
370
    15
100
AcDbLine
 10
404.3819195399
 20
542.7871643976
 30
0.0
 11
404.3819195399
 21
548.7871616558
 31
0.0
  0
ARC
  5
305
330
1F
100
AcDbEntity
  8
0
  6
Continuous
 62
     7
370
    15
100
AcDbCircle
 10
402.8819147239
 20
553.4871576504
 30
0.0
 40
2.800000000000011
100
AcDbArc
 50
0.0
 51
45.7322600129
  0
LINE
  5
306
330
1F
100
AcDbEntity
  8
0
  6
Continuous
 62
     7
370
    15
100
AcDbLine
 10
401.7742610345
 20
556.0587495045
 30
0.0
 11
401.1773801217
 21
555.7085424141
 31
0.0
  0
LINE
  5
307
330
1F
100
AcDbEntity
  8
0
  6
Continuous
 62
     7
370
    15
100
AcDbLine
 10
398.3644581208
 20
552.0375370459
 30
0.0
 11
401.9078946481
 21
554.7565221266
 31
0.0
  0
LINE
  5
308
330
1F
100
AcDbEntity
  8
0
  6
Continuous
 62
     7
370
    15
100
AcDbLine
 10
397.6339435945
 20
552.9895722345
 30
0.0
 11
398.3644581208
 21
552.0375370459
 31
0.0
  0
LINE
  5
309
330
1F
100
AcDbEntity
  8
0
  6
Continuous
 62
     7
370
    15
100
AcDbLine
 10
401.1773801217
 20
555.7085424141
 30
0.0
 11
397.6339435945
 21
552.9895722345
 31
0.0
  0
LINE
  5
30A
330
1F
100
AcDbEntity
  8
0
  6
Continuous
 62
     7
370
    15
100
AcDbLine
 10
405.6819117436
 20
551.7871528343
 30
0.0
 11
405.6819117436
 21
552.7871548609
 31
0.0
  0
LINE
  5
30B
330
1F
100
AcDbEntity
  8
0
  6
Continuous
 62
     7
370
    15
100
AcDbLine
 10
404.4819212327
 20
552.4280964808
 30
0.0
 11
404.4819212327
 21
551.7871528343
 31
0.0
  0
LINE
  5
30C
330
1F
100
AcDbEntity
  8
0
  6
Continuous
 62
     7
370
    15
100
AcDbLine
 10
397.4124229321
 20
551.3070225195
 30
0.0
 11
396.6819084058
 21
552.2590577082
 31
0.0
  0
LWPOLYLINE
  5
30D
330
1F
100
AcDbEntity
  8
0
  6
Continuous
 62
     7
370
    15
100
AcDbPolyline
 90
        9
 70
   128
 43
0.0
 10
396.6819084058
 20
552.2590577082
 10
396.7002070317
 20
552.273094602
 10
396.7543876538
 20
552.3146539406
 10
396.8423641095
 20
552.382171102
 10
396.9607538352
 20
552.4730085806
 10
397.1050268779
 20
552.5837093071
 10
397.2696102033
 20
552.7100115494
 10
397.4482006202
 20
552.8470575289
 10
397.6339435945
 20
552.9895722345
  0
LWPOLYLINE
  5
30E
330
1F
100
AcDbEntity
  8
0
  6
Continuous
 62
     7
370
    15
100
AcDbPolyline
 90
        9
 70
   128
 43
0.0
 10
398.3644581208
 20
552.0375370459
 10
398.1787151465
 20
551.8950223402
 10
398.0001247296
 20
551.7579912619
 10
397.8355414042
 20
551.6316890196
 10
397.6912683616
 20
551.5209882931
 10
397.5728786359
 20
551.4301359133
 10
397.4849021802
 20
551.3626336531
 10
397.4307215581
 20
551.3210594134
 10
397.4124229321
 20
551.3070225195
  0
ARC
  5
30F
330
1F
100
AcDbEntity
  8
0
  6
Continuous
 62
     7
370
    15
100
AcDbCircle
 10
400.7819147239
 20
568.8071576504
 30
0.0
 40
2.200000000000049
100
AcDbArc
 50
103.5934783353
 51
268.1042765976
  0
LINE
  5
310
330
1F
100
AcDbEntity
  8
0
  6
Continuous
 62
     7
370
    15
100
AcDbLine
 10
397.2350842128
 20
570.184931107
 30
0.0
 11
397.5687361131
 21
572.0771550612
 31
0.0
  0
LWPOLYLINE
  5
311
330
1F
100
AcDbEntity
  8
0
  6
Continuous
 62
     7
370
    15
100
AcDbPolyline
 90
        9
 70
   128
 43
0.0
 10
397.5687361131
 20
572.0771550612
 10
397.4244928727
 20
572.1025913433
 10
397.2874617944
 20
572.1267610268
 10
397.162351645
 20
572.1488147453
 10
397.0534986625
 20
572.168007441
 10
396.9646728406
 20
572.1836685614
 10
396.8989438186
 20
572.1952616648
 10
396.8585765729
 20
572.2023844198
 10
396.8449569116
 20
572.2047835068
  0
LINE
  5
312
330
1F
100
AcDbEntity
  8
0
  6
Continuous
 62
     7
370
    15
100
AcDbLine
 10
396.8449569116
 20
572.2047835068
 30
0.0
 11
401.2199974427
 21
597.0168858246
 31
0.0
  0
LWPOLYLINE
  5
313
330
1F
100
AcDbEntity
  8
0
  6
Continuous
 62
     7
370
    15
100
AcDbPolyline
 90
        9
 70
   128
 43
0.0
 10
401.2199974427
 20
597.0168858246
 10
401.2351370225
 20
597.0142185167
 10
401.2799746165
 20
597.0063209013
 10
401.3527816901
 20
596.9934761004
 10
401.450756825
 20
596.9762056545
 10
401.5701449285
 20
596.9551503138
 10
401.7063564429
 20
596.9311296419
 10
401.8541461596
 20
596.905067511
 10
402.0078516374
 20
596.8779771999
  0
LINE
  5
314
330
1F
100
AcDbEntity
  8
0
  6
Continuous
 62
     7
370
    15
100
AcDbLine
 10
402.0078516374
 20
596.8779771999
 30
0.0
 11
397.1825129161
 21
569.5121734814
 31
0.0
  0
LINE
  5
315
330
1F
100
AcDbEntity
  8
0
  6
Continuous
 62
     7
370
    15
100
AcDbLine
 10
397.1825129161
 20
569.5121734814
 30
0.0
 11
397.2350842128
 21
570.184931107
 31
0.0
  0
LWPOLYLINE
  5
316
330
1F
100
AcDbEntity
  8
0
  6
Continuous
 62
     7
370
    15
100
AcDbPolyline
 90
        5
 70
   128
 43
0.0
 10
400.0673032174
 20
603.9052158074
 10
399.8138195643
 20
604.6016215758
 10
399.6302670608
 20
605.1059364752
 10
399.5191342006
 20
605.4112910704
 10
399.4819110999
 20
605.5135428385
  0
LWPOLYLINE
  5
317
330
1F
100
AcDbEntity
  8
0
  6
Continuous
 62
     7
370
    15
100
AcDbPolyline
 90
        5
 70
   128
 43
0.0
 10
400.8269197116
 20
604.1572018937
 10
400.5700832973
 20
604.8628761844
 10
400.3840422997
 20
605.3739934639
 10
400.2713895211
 20
605.6835054831
 10
400.2336746821
 20
605.7871579603
  0
LINE
  5
318
330
1F
100
AcDbEntity
  8
0
  6
Continuous
 62
     7
370
    15
100
AcDbLine
 10
401.0490215192
 20
603.802755423
 30
0.0
 11
400.8269197116
 21
604.1572018937
 31
0.0
  0
LINE
  5
319
330
1F
100
AcDbEntity
  8
0
  6
Continuous
 62
     7
370
    15
100
AcDbLine
 10
400.966826714
 20
603.7728413419
 30
0.0
 11
401.0490215192
 21
603.802755423
 31
0.0
  0
SPLINE
  5
31A
330
1F
100
AcDbEntity
  8
0
  6
Continuous
 62
     7
370
    15
100
AcDbSpline
210
0.0
220
0.0
230
1.0
 70
     8
 71
     3
 72
    12
 73
     8
 74
     0
 42
0.00000001
 43
0.00000001
 40
0.0
 40
0.0
 40
0.0
 40
0.0
 40
0.2510172357647315
 40
0.5023980923729131
 40
0.7402747485671194
 40
0.9473067201835714
 40
1.0
 40
1.0
 40
1.0
 40
1.0
 10
400.0673032174099
 20
603.9052158073564
 30
0.0
 10
400.0950130669674
 20
603.8608978085126
 30
0.0
 10
400.1504729062697
 20
603.7721976122529
 30
0.0
 10
400.3574618082453
 20
603.6972085532055
 30
0.0
 10
400.6188578906115
 20
603.6857130305622
 30
0.0
 10
400.8354382854854
 20
603.7273593062667
 30
0.0
 10
400.9446664177112
 20
603.7651702296167
 30
0.0
 10
400.9668267140377
 20
603.7728413418909
 30
0.0
  0
LINE
  5
31B
330
1F
100
AcDbEntity
  8
0
  6
Continuous
 62
     7
370
    15
100
AcDbLine
 10
400.966826714
 20
603.7728413419
 30
0.0
 11
401.5431589255
 21
602.1893545465
 31
0.0
  0
LWPOLYLINE
  5
31C
330
1F
100
AcDbEntity
  8
0
  6
Continuous
 62
     7
370
    15
100
AcDbPolyline
 90
        9
 70
   128
 43
0.0
 10
400.7914102445
 20
601.9157394246
 10
400.8058494697
 20
601.9209995345
 10
400.8486307034
 20
601.9365637974
 10
400.9180999169
 20
601.9618510679
 10
401.0115898023
 20
601.9958778695
 10
401.1255091796
 20
602.0373403505
 10
401.2554771075
 20
602.0846440868
 10
401.3965016971
 20
602.1359785871
 10
401.5431589255
 20
602.1893545465
  0
LINE
  5
31D
330
1F
100
AcDbEntity
  8
0
  6
Continuous
 62
     7
370
    15
100
AcDbLine
 10
400.7914102445
 20
601.9157394246
 30
0.0
 11
400.0673032174
 21
603.9052158074
 31
0.0
  0
ARC
  5
31E
330
1F
100
AcDbEntity
  8
0
  6
Continuous
 62
     7
370
    15
100
AcDbCircle
 10
401.37192023
 20
574.9761485689
 30
0.0
 40
1.600000000000037
100
AcDbArc
 50
347.034367059
 51
204.5705045339
  0
LINE
  5
31F
330
1F
100
AcDbEntity
  8
0
  6
Continuous
 62
     7
370
    15
100
AcDbLine
 10
404.1819161544
 20
597.6028441862
 30
0.0
 11
404.1819161544
 21
569.5771574453
 31
0.0
  0
ARC
  5
320
330
1F
100
AcDbEntity
  8
0
  6
Continuous
 62
     7
370
    15
100
AcDbCircle
 10
391.8643276834
 20
598.6665481187
 30
0.0
 40
10.30000000000011
100
AcDbArc
 50
350.0
 51
20.0
  0
ARC
  5
321
330
1F
100
AcDbEntity
  8
0
  6
Continuous
 62
     7
370
    15
100
AcDbCircle
 10
401.8846291953
 20
602.9992225047
 30
0.0
 40
0.5
100
AcDbArc
 50
36.8410865502
 51
90.0
  0
LINE
  5
322
330
1F
100
AcDbEntity
  8
0
  6
Continuous
 62
     7
370
    15
100
AcDbLine
 10
401.7666167388
 20
603.49922622
 30
0.0
 11
401.8846339355
 21
603.49922622
 31
0.0
  0
ARC
  5
323
330
1F
100
AcDbEntity
  8
0
  6
Continuous
 62
     7
370
    15
100
AcDbCircle
 10
401.7666166497
 20
604.4992225047
 30
0.0
 40
1.0
100
AcDbArc
 50
224.1440002858
 51
270.0
  0
ARC
  5
324
330
1F
100
AcDbEntity
  8
0
  6
Continuous
 62
     7
370
    15
100
AcDbCircle
 10
394.6819147239
 20
597.6028436963
 30
0.0
 40
9.5
100
AcDbArc
 50
0.0
 51
36.8410865502
  0
LWPOLYLINE
  5
325
330
1F
100
AcDbEntity
  8
0
  6
Continuous
 62
     7
370
    15
100
AcDbPolyline
 90
        3
 70
   128
 43
0.0
 10
404.1819161544
 20
569.5771574453
 10
403.9732998977
 20
568.3868824915
 10
403.6171323428
 20
567.6707177834
  0
ARC
  5
326
330
1F
100
AcDbEntity
  8
0
  6
Continuous
 62
     7
370
    15
100
AcDbCircle
 10
400.6819147239
 20
569.5771576504
 30
0.0
 40
3.50000000000001
100
AcDbArc
 50
181.0639402281
 51
271.3221928089
  0
ARC
  5
327
330
1F
100
AcDbEntity
  8
0
  6
Continuous
 62
     7
370
    15
100
AcDbCircle
 10
391.8643276834
 20
598.6665481187
 30
0.0
 40
9.50000000000002
100
AcDbArc
 50
350.0
 51
20.0
  0
ARC
  5
328
330
1F
100
AcDbEntity
  8
0
  6
Continuous
 62
     7
370
    15
100
AcDbCircle
 10
401.2755325172
 20
570.2746531772
 30
0.0
 40
4.698428302688391
100
AcDbArc
 50
170.0
 51
264.3261771657
  0
LINE
  5
329
330
1F
100
AcDbEntity
  8
0
  6
Continuous
 62
     7
370
    15
100
AcDbLine
 10
396.8449569116
 20
572.2047835068
 30
0.0
 11
396.6484851012
 21
571.0905193762
 31
0.0
  0
SPLINE
  5
32A
330
1F
100
AcDbEntity
  8
0
  6
Continuous
 62
     7
370
    15
100
AcDbSpline
210
0.0
220
0.0
230
1.0
 70
     8
 71
     3
 72
    12
 73
     8
 74
     0
 42
0.00000001
 43
0.00000001
 40
0.0
 40
0.0
 40
0.0
 40
0.0
 40
0.2340515608573606
 40
0.4681087470943003
 40
0.702165569279494
 40
0.9362172045571531
 40
1.0
 40
1.0
 40
1.0
 40
1.0
 10
401.9788986811626
 20
570.4642682747026
 30
0.0
 10
401.7825056242822
 20
570.444889575628
 30
0.0
 10
401.3897147902559
 20
570.4061317117157
 30
0.0
 10
400.852218083399
 20
570.4008756905079
 30
0.0
 10
400.4787166597582
 20
570.4393575564317
 30
0.0
 10
400.2995225376332
 20
570.4940202324004
 30
0.0
 10
400.3282413477909
 20
570.5379740193174
 30
0.0
 10
400.3343916306484
 20
570.5473869518419
 30
0.0
  0
SPLINE
  5
32B
330
1F
100
AcDbEntity
  8
0
  6
Continuous
 62
     7
370
    15
100
AcDbSpline
210
0.0
220
0.0
230
1.0
 70
     8
 71
     3
 72
    11
 73
     7
 74
     0
 42
0.00000001
 43
0.00000001
 40
0.0
 40
0.0
 40
0.0
 40
0.0
 40
0.19868717225048
 40
0.4657937738740854
 40
0.7328967585510789
 40
1.0
 40
1.0
 40
1.0
 40
1.0
 10
403.2748079667079
 20
570.8431601003786
 30
0.0
 10
403.2736251321255
 20
570.8186664794234
 30
0.0
 10
403.2708521449329
 20
570.7612446740231
 30
0.0
 10
403.0013134065409
 20
570.6541713685612
 30
0.0
 10
402.554265922172
 20
570.5433481350692
 30
0.0
 10
402.170687822956
 20
570.4906282366051
 30
0.0
 10
401.9788986811626
 20
570.4642682747026
 30
0.0
  0
SPLINE
  5
32C
330
1F
100
AcDbEntity
  8
0
  6
Continuous
 62
     7
370
    15
100
AcDbSpline
210
0.0
220
0.0
230
1.0
 70
     8
 71
     3
 72
    12
 73
     8
 74
     0
 42
0.00000001
 43
0.00000001
 40
0.0
 40
0.0
 40
0.0
 40
0.0
 40
0.2339647271648549
 40
0.4679283139645976
 40
0.7018968537062504
 40
0.9358627429943501
 40
1.0
 40
1.0
 40
1.0
 40
1.0
 10
401.3719147810924
 20
576.4761417583604
 30
0.0
 10
401.1758345773651
 20
576.4536387463777
 30
0.0
 10
400.7836751256231
 20
576.4086328320938
 30
0.0
 10
400.2807408698399
 20
576.0611411888154
 30
0.0
 10
399.9609332707086
 20
575.5676490075917
 30
0.0
 10
399.8330039481431
 20
575.1140631608929
 30
0.0
 10
399.8907931203343
 20
574.8710701506412
 30
0.0
 10
399.9032265315044
 20
574.8187899068971
 30
0.0
  0
SPLINE
  5
32D
330
1F
100
AcDbEntity
  8
0
  6
Continuous
 62
     7
370
    15
100
AcDbSpline
210
0.0
220
0.0
230
1.0
 70
     8
 71
     3
 72
    11
 73
     7
 74
     0
 42
0.00000001
 43
0.00000001
 40
0.0
 40
0.0
 40
0.0
 40
0.0
 40
0.1976852097385363
 40
0.4651245869200603
 40
0.7325583026066619
 40
1.0
 40
1.0
 40
1.0
 40
1.0
 10
402.8421378502833
 20
575.1258581356187
 30
0.0
 10
402.8238569856174
 20
575.270606371008
 30
0.0
 10
402.7808447661523
 20
575.6111779457951
 30
0.0
 10
402.455391250504
 20
576.0609536438906
 30
0.0
 10
401.962093251548
 20
576.408682742089
 30
0.0
 10
401.5686428950055
 20
576.4536551959021
 30
0.0
 10
401.3719147810924
 20
576.4761417583604
 30
0.0
  0
SPLINE
  5
32E
330
1F
100
AcDbEntity
  8
0
  6
Continuous
 62
     7
370
    15
100
AcDbSpline
210
0.0
220
0.0
230
1.0
 70
     8
 71
     3
 72
    12
 73
     8
 74
     0
 42
0.00000001
 43
0.00000001
 40
0.0
 40
0.0
 40
0.0
 40
0.0
 40
0.2350191181569456
 40
0.4700315770678694
 40
0.7050489742165806
 40
0.9400630002275301
 40
0.9999999999999999
 40
0.9999999999999999
 40
0.9999999999999999
 40
0.9999999999999999
 10
403.5479760537136
 20
554.9233108238359
 30
0.0
 10
403.3515853718828
 20
554.9039265660043
 30
0.0
 10
402.9588095729339
 20
554.8651585995921
 30
0.0
 10
402.4212012053868
 20
554.8598953120315
 30
0.0
 10
402.0481380552941
 20
554.8984191378369
 30
0.0
 10
401.8690940186196
 20
554.9525407844816
 30
0.0
 10
401.8969946525096
 20
554.9958421008627
 30
0.0
 10
401.9026643404949
 20
555.0046413616319
 30
0.0
  0
SPLINE
  5
32F
330
1F
100
AcDbEntity
  8
0
  6
Continuous
 62
     7
370
    15
100
AcDbSpline
210
0.0
220
0.0
230
1.0
 70
     8
 71
     3
 72
    11
 73
     7
 74
     0
 42
0.00000001
 43
0.00000001
 40
0.0
 40
0.0
 40
0.0
 40
0.0
 40
0.1989204392996813
 40
0.4659489571846094
 40
0.732973859180274
 40
1.0
 40
1.0
 40
1.0
 40
1.0
 10
404.8439300427425
 20
555.3023069576402
 30
0.0
 10
404.8427557882637
 20
555.2777743351729
 30
0.0
 10
404.8400052280306
 20
555.2203094014742
 30
0.0
 10
404.5704003340988
 20
555.1132016967974
 30
0.0
 10
404.1233398091717
 20
555.0023711839901
 30
0.0
 10
403.7397642687896
 20
554.9496643179749
 30
0.0
 10
403.5479760537136
 20
554.9233108238359
 30
0.0
  0
ELLIPSE
  5
330
330
1F
100
AcDbEntity
  8
0
  6
Continuous
 62
     7
370
    15
100
AcDbEllipse
 10
404.7492141242
 20
564.9600492566
 30
0.0
 11
0.3991830274372887
 21
-0.02624604221148274
 31
0.0
210
0.0
220
0.0
230
0.9999999999999999
 40
0.9763157485
 41
0.0
 42
6.283185307179586
  0
ARC
  5
331
330
1F
100
AcDbEntity
  8
0
  6
Continuous
 62
     7
370
    15
100
AcDbCircle
 10
404.7492038723
 20
565.2249302295
 30
0.0
 40
0.4000075821846523
100
AcDbArc
 50
0.1473252397
 51
179.5004936418
  0
SPLINE
  5
332
330
1F
100
AcDbEntity
  8
0
  6
Continuous
 62
     7
370
    15
100
AcDbSpline
210
0.0
220
0.0
230
1.0
 70
     8
 71
     3
 72
    13
 73
     9
 74
     0
 42
0.00000001
 43
0.00000001
 40
0.0
 40
0.0
 40
0.0
 40
0.0
 40
0.0081675096491551
 40
0.2391539903221627
 40
0.4711040757826782
 40
0.6931300533005237
 40
0.9042351914839856
 40
1.0
 40
1.0
 40
1.0
 40
1.0
 10
404.7492182621944
 20
565.688878245749
 30
0.0
 10
404.7475593501063
 20
565.6884859793405
 30
0.0
 10
404.6989845136507
 20
565.6769999718651
 30
0.0
 10
404.6028731386932
 20
565.6537110188016
 30
0.0
 10
404.4800345136699
 20
565.610093924405
 30
0.0
 10
404.3943831907288
 20
565.5726379056231
 30
0.0
 10
404.3503656330118
 20
565.5515096629408
 30
0.0
 10
404.353597228472
 20
565.5465199645568
 30
0.0
 10
404.3546057114589
 20
565.5449628309389
 30
0.0
  0
SPLINE
  5
333
330
1F
100
AcDbEntity
  8
0
  6
Continuous
 62
     7
370
    15
100
AcDbSpline
210
0.0
220
0.0
230
1.0
 70
     8
 71
     3
 72
    13
 73
     9
 74
     0
 42
0.00000001
 43
0.00000001
 40
0.0
 40
0.0
 40
0.0
 40
0.0
 40
0.1252342312151606
 40
0.2499826029374545
 40
0.4999855906772176
 40
0.7499975859999892
 40
0.8747563623506611
 40
1.0
 40
1.0
 40
1.0
 40
1.0
 10
405.1492250332821
 20
565.683186002173
 30
0.0
 10
405.1475106619642
 20
565.683215847685
 30
0.0
 10
405.1440885704141
 20
565.6832754229201
 30
0.0
 10
405.1097112611267
 20
565.6837498019578
 30
0.0
 10
405.0344219126496
 20
565.6848221561569
 30
0.0
 10
404.9257820297802
 20
565.686356344662
 30
0.0
 10
404.8270705257792
 20
565.6877897255417
 30
0.0
 10
404.7752025480989
 20
565.6885149368487
 30
0.0
 10
404.7492182621944
 20
565.688878245749
 30
0.0
  0
SPLINE
  5
334
330
1F
100
AcDbEntity
  8
0
  6
Continuous
 62
     7
370
    15
100
AcDbSpline
210
0.0
220
0.0
230
1.0
 70
     8
 71
     3
 72
    10
 73
     6
 74
     0
 42
0.00000001
 43
0.00000001
 40
0.0
 40
0.0
 40
0.0
 40
0.0
 40
0.0190227725338933
 40
0.5253139011644135
 40
1.0
 40
1.0
 40
1.0
 40
1.0
 10
404.7492182621944
 20
565.688878245749
 30
0.0
 10
404.75074258999
 20
565.6896184696288
 30
0.0
 10
404.7928369050813
 20
565.7100597535327
 30
0.0
 10
404.8753974490606
 20
565.7483935952184
 30
0.0
 10
404.9455430687073
 20
565.7745126345184
 30
0.0
 10
404.9794859061229
 20
565.7871514038225
 30
0.0
  0
LINE
  5
335
330
1F
100
AcDbEntity
  8
0
  6
Continuous
 62
     7
370
    15
100
AcDbLine
 10
399.8727238545
 20
574.9270170406
 30
0.0
 11
399.885151423
 21
574.7773497776
 31
0.0
  0
LINE
  5
336
330
1F
100
AcDbEntity
  8
0
  6
Continuous
 62
     7
370
    15
100
AcDbLine
 10
402.8649217257
 20
575.1208513455
 30
0.0
 11
402.8293377528
 21
575.3310173229
 31
0.0
  0
LINE
  5
337
330
1F
100
AcDbEntity
  8
0
  6
Continuous
 62
     7
370
    15
100
AcDbLine
 10
420.6819123397
 20
713.7871579678
 30
0.0
 11
420.6819123397
 21
728.7871576325
 31
0.0
  0
LINE
  5
338
330
1F
100
AcDbEntity
  8
0
  6
Continuous
 62
     7
370
    15
100
AcDbLine
 10
420.6819123397
 20
713.7871579678
 30
0.0
 11
405.6819117436
 21
713.7871579678
 31
0.0
  0
ARC
  5
339
330
1F
100
AcDbEntity
  8
0
  6
Continuous
 62
     7
370
    15
100
AcDbCircle
 10
420.6819147239
 20
713.7871576504
 30
0.0
 40
15.00000000000011
100
AcDbArc
 50
90.0
 51
180.0
  0
LINE
  5
33A
330
1F
100
AcDbEntity
  8
0
  6
Continuous
 62
     7
370
    15
100
AcDbLine
 10
790.6819171081
 20
713.7871579678
 30
0.0
 11
420.6819123397
 21
713.7871579678
 31
0.0
  0
LINE
  5
33B
330
1F
100
AcDbEntity
  8
0
  6
Continuous
 62
     7
370
    15
100
AcDbLine
 10
790.6819171081
 20
728.7871576325
 30
0.0
 11
420.6819123397
 21
728.7871576325
 31
0.0
  0
LINE
  5
33C
330
1F
100
AcDbEntity
  8
0
  6
Continuous
 62
     7
370
    15
100
AcDbLine
 10
790.6819171081
 20
713.7871579678
 30
0.0
 11
790.6819171081
 21
728.7871576325
 31
0.0
  0
LINE
  5
33D
330
1F
100
AcDbEntity
  8
0
  6
Continuous
 62
     7
370
    15
100
AcDbLine
 10
790.6819171081
 20
713.7871579678
 30
0.0
 11
805.6819177041
 21
713.7871579678
 31
0.0
  0
ARC
  5
33E
330
1F
100
AcDbEntity
  8
0
  6
Continuous
 62
     7
370
    15
100
AcDbCircle
 10
790.6819147239
 20
713.7871576504
 30
0.0
 40
15.00000000000011
100
AcDbArc
 50
0.0
 51
90.0
  0
LINE
  5
33F
330
1F
100
AcDbEntity
  8
0
  6
Continuous
 62
     7
370
    15
100
AcDbLine
 10
790.6819171081
 20
552.7871548609
 30
0.0
 11
790.6819171081
 21
713.7871579678
 31
0.0
  0
LINE
  5
340
330
1F
100
AcDbEntity
  8
0
  6
Continuous
 62
     7
370
    15
100
AcDbLine
 10
805.6819177041
 20
552.7871548609
 30
0.0
 11
805.6819177041
 21
713.7871579678
 31
0.0
  0
LINE
  5
341
330
1F
100
AcDbEntity
  8
0
  6
Continuous
 62
     7
370
    15
100
AcDbLine
 10
805.6819177041
 20
552.7871548609
 30
0.0
 11
790.6819171081
 21
552.7871548609
 31
0.0
  0
LINE
  5
342
330
1F
100
AcDbEntity
  8
0
  6
Continuous
 62
     7
370
    15
100
AcDbLine
 10
405.6819117436
 20
552.7871548609
 30
0.0
 11
405.6819117436
 21
713.7871579678
 31
0.0
  0
LINE
  5
343
330
1F
100
AcDbEntity
  8
0
  6
Continuous
 62
     7
370
    15
100
AcDbLine
 10
420.6819123397
 20
552.7871548609
 30
0.0
 11
420.6819123397
 21
713.7871579678
 31
0.0
  0
LINE
  5
344
330
1F
100
AcDbEntity
  8
0
  6
Continuous
 62
     7
370
    15
100
AcDbLine
 10
420.6819123397
 20
552.7871548609
 30
0.0
 11
405.6819117436
 21
552.7871548609
 31
0.0
  0
LINE
  5
345
330
1F
100
AcDbEntity
  8
0
  6
Continuous
 62
     7
370
    15
100
AcDbLine
 10
420.6819123397
 20
552.7871548609
 30
0.0
 11
790.6819171081
 21
552.7871548609
 31
0.0
  0
LINE
  5
346
330
1F
100
AcDbEntity
  8
0
  6
Continuous
 62
     7
370
    15
100
AcDbLine
 10
425.6819075713
 20
572.7871506886
 30
0.0
 11
425.6819075713
 21
708.7871580795
 31
0.0
  0
LINE
  5
347
330
1F
100
AcDbEntity
  8
0
  6
Continuous
 62
     7
370
    15
100
AcDbLine
 10
425.6819075713
 20
572.7871506886
 30
0.0
 11
785.6819218764
 21
572.7871506886
 31
0.0
  0
LINE
  5
348
330
1F
100
AcDbEntity
  8
0
  6
Continuous
 62
     7
370
    15
100
AcDbLine
 10
785.6819218764
 20
708.7871580795
 30
0.0
 11
785.6819218764
 21
572.7871506886
 31
0.0
  0
LINE
  5
349
330
1F
100
AcDbEntity
  8
0
  6
Continuous
 62
     7
370
    15
100
AcDbLine
 10
785.6819218764
 20
708.7871580795
 30
0.0
 11
425.6819075713
 21
708.7871580795
 31
0.0
  0
LINE
  5
34A
330
1F
100
AcDbEntity
  8
0
  6
Continuous
 62
     7
370
    15
100
AcDbLine
 10
800.6819075713
 20
552.7871548609
 30
0.0
 11
800.6819075713
 21
548.7871616558
 31
0.0
  0
LINE
  5
34B
330
1F
100
AcDbEntity
  8
0
  6
Continuous
 62
     7
370
    15
100
AcDbLine
 10
785.6819218764
 20
548.7871616558
 30
0.0
 11
785.6819218764
 21
552.7871548609
 31
0.0
  0
LINE
  5
34C
330
1F
100
AcDbEntity
  8
0
  6
Continuous
 62
     7
370
    15
100
AcDbLine
 10
425.6819075713
 20
548.7871616558
 30
0.0
 11
425.6819075713
 21
552.7871548609
 31
0.0
  0
LINE
  5
34D
330
1F
100
AcDbEntity
  8
0
  6
Continuous
 62
     7
370
    15
100
AcDbLine
 10
410.6819218764
 20
548.7871616558
 30
0.0
 11
410.6819218764
 21
552.7871548609
 31
0.0
  0
LINE
  5
34E
330
1F
100
AcDbEntity
  8
0
  6
Continuous
 62
     7
370
    15
100
AcDbLine
 10
805.6819177041
 20
552.7871548609
 30
0.0
 11
806.3492364058
 21
552.7871548609
 31
0.0
  0
ARC
  5
34F
330
1F
100
AcDbEntity
  8
0
  6
Continuous
 62
     7
370
    15
100
AcDbCircle
 10
806.3492324719
 20
553.2871576504
 30
0.0
 40
0.5000000000001137
100
AcDbArc
 50
270.0
 51
332.720387264
  0
ARC
  5
350
330
1F
100
AcDbEntity
  8
0
  6
Continuous
 62
     7
370
    15
100
AcDbCircle
 10
811.6819147239
 20
550.5371576504
 30
0.0
 40
5.500000000000167
100
AcDbArc
 50
202.024312837
 51
152.720387264
  0
ARC
  5
351
330
1F
100
AcDbEntity
  8
0
  6
Continuous
 62
     7
370
    15
100
AcDbCircle
 10
806.1197658586
 20
548.2871576504
 30
0.0
 40
0.4999999999998863
100
AcDbArc
 50
22.024312837
 51
90.0
  0
LINE
  5
352
330
1F
100
AcDbEntity
  8
0
  6
Continuous
 62
     7
370
    15
100
AcDbLine
 10
806.1197585235
 20
548.7871616558
 30
0.0
 11
805.6819177041
 21
548.7871616558
 31
0.0
  0
ARC
  5
353
330
1F
100
AcDbEntity
  8
0
  6
Continuous
 62
     7
370
    15
100
AcDbCircle
 10
400.4819147239
 20
568.8871576504
 30
0.0
 40
3.100000000000023
100
AcDbArc
 50
192.3149276259
 51
270.0
  0
LINE
  5
354
330
1F
100
AcDbEntity
  8
0
  6
Continuous
 62
     7
370
    15
100
AcDbLine
 10
405.3819215665
 20
571.9871520476
 30
0.0
 11
404.1819161544
 21
571.9871520476
 31
0.0
  0
LINE
  5
355
330
1F
100
AcDbEntity
  8
0
  6
Continuous
 62
     7
370
    15
100
AcDbLine
 10
405.3819215665
 20
565.7871514038
 30
0.0
 11
405.3819215665
 21
571.9871520476
 31
0.0
  0
LINE
  5
356
330
1F
100
AcDbEntity
  8
0
  6
Continuous
 62
     7
370
    15
100
AcDbLine
 10
400.4819131265
 20
565.7871514038
 30
0.0
 11
400.7920509944
 21
565.7871514038
 31
0.0
  0
LINE
  5
357
330
1F
100
AcDbEntity
  8
0
  6
Continuous
 62
     7
370
    15
100
AcDbLine
 10
403.807300962
 20
565.7871514038
 30
0.0
 11
405.3819215665
 21
565.7871514038
 31
0.0
  0
LINE
  5
358
330
1F
100
AcDbEntity
  8
0
  6
Continuous
 62
     7
370
    15
100
AcDbLine
 10
405.3819215665
 20
571.9871520476
 30
0.0
 11
405.6819117436
 21
571.9882249312
 31
0.0
  0
LINE
  5
359
330
1F
100
AcDbEntity
  8
0
  6
Continuous
 62
     7
370
    15
100
AcDbLine
 10
405.6819117436
 20
573.9871561007
 30
0.0
 11
405.3819215665
 21
573.9871561007
 31
0.0
  0
LINE
  5
35A
330
1F
100
AcDbEntity
  8
0
  6
Continuous
 62
     7
370
    15
100
AcDbLine
 10
405.3819215665
 20
571.9871520476
 30
0.0
 11
405.3819215665
 21
573.9871561007
 31
0.0
  0
LINE
  5
35B
330
1F
100
AcDbEntity
  8
0
  6
Continuous
 62
     7
370
    15
100
AcDbLine
 10
405.6819117436
 20
565.7871514038
 30
0.0
 11
405.3819215665
 21
565.7871514038
 31
0.0
  0
LINE
  5
35C
330
1F
100
AcDbEntity
  8
0
  6
Continuous
 62
     7
370
    15
100
AcDbLine
 10
405.3819215665
 20
604.7871559338
 30
0.0
 11
405.3819215665
 21
598.0371534304
 31
0.0
  0
LINE
  5
35D
330
1F
100
AcDbEntity
  8
0
  6
Continuous
 62
     7
370
    15
100
AcDbLine
 10
405.3819215665
 20
573.9871561007
 30
0.0
 11
405.3819215665
 21
598.0371534304
 31
0.0
  0
LINE
  5
35E
330
1F
100
AcDbEntity
  8
0
  6
Continuous
 62
     7
370
    15
100
AcDbLine
 10
405.2819198737
 20
597.787156649
 30
0.0
 11
405.2819198737
 21
603.7871613578
 31
0.0
  0
LINE
  5
35F
330
1F
100
AcDbEntity
  8
0
  6
Continuous
 62
     7
370
    15
100
AcDbLine
 10
405.2819198737
 20
574.7871547417
 30
0.0
 11
405.2819198737
 21
580.7871519999
 31
0.0
  0
LINE
  5
360
330
1F
100
AcDbEntity
  8
0
  6
Continuous
 62
     7
370
    15
100
AcDbLine
 10
405.3819215665
 20
588.7871533112
 30
0.0
 11
404.1819161544
 21
589.1086905674
 31
0.0
  0
LINE
  5
361
330
1F
100
AcDbEntity
  8
0
  6
Continuous
 62
     7
370
    15
100
AcDbLine
 10
404.1819161544
 20
590.1439785437
 30
0.0
 11
405.3819215665
 21
589.8224263863
 31
0.0
  0
LINE
  5
362
330
1F
100
AcDbEntity
  8
0
  6
Continuous
 62
     8
370
    15
100
AcDbLine
 10
405.6819117436
 20
598.0371534304
 30
0.0
 11
405.3819215665
 21
598.0371534304
 31
0.0
  0
ENDSEC
  0
SECTION
  2
OBJECTS
  0
DICTIONARY
  5
C
330
0
100
AcDbDictionary
281
     1
  3
ACAD_GROUP
350
D
  3
ACAD_LAYOUT
350
1A
  3
ACAD_MLINESTYLE
350
17
  3
ACAD_PLOTSETTINGS
350
19
  3
ACAD_PLOTSTYLENAME
350
E
  0
DICTIONARY
  5
D
102
{ACAD_REACTORS
330
C
102
}
330
C
100
AcDbDictionary
281
     1
  0
DICTIONARY
  5
1A
102
{ACAD_REACTORS
330
C
102
}
330
C
100
AcDbDictionary
281
     1
  3
Layout1
350
1E
  3
Layout2
350
26
  3
Model
350
22
  0
DICTIONARY
  5
17
102
{ACAD_REACTORS
330
C
102
}
330
C
100
AcDbDictionary
281
     1
  3
Standard
350
18
  0
DICTIONARY
  5
19
102
{ACAD_REACTORS
330
C
102
}
330
C
100
AcDbDictionary
281
     1
  0
ACDBDICTIONARYWDFLT
  5
E
102
{ACAD_REACTORS
330
C
102
}
330
C
100
AcDbDictionary
281
     1
  3
Normal
350
F
100
AcDbDictionaryWithDefault
340
F
  0
LAYOUT
  5
1E
102
{ACAD_REACTORS
330
1A
102
}
330
1A
100
AcDbPlotSettings
  1

  2
none_device
  4

  6

 40
0.0
 41
0.0
 42
0.0
 43
0.0
 44
0.0
 45
0.0
 46
0.0
 47
0.0
 48
0.0
 49
0.0
140
0.0
141
0.0
142
1.0
143
1.0
 70
   688
 72
     0
 73
     0
 74
     5
  7

 75
    16
147
1.0
148
0.0
149
0.0
100
AcDbLayout
  1
Layout1
 70
     1
 71
     1
 10
0.0
 20
0.0
 11
420.0
 21
297.0
 12
0.0
 22
0.0
 32
0.0
 14
1.0000000000E+20
 24
1.0000000000E+20
 34
1.0000000000E+20
 15
-1.0000000000E+20
 25
-1.0000000000E+20
 35
-1.0000000000E+20
146
0.0
 13
0.0
 23
0.0
 33
0.0
 16
1.0
 26
0.0
 36
0.0
 17
0.0
 27
1.0
 37
0.0
 76
     0
330
1B
  0
LAYOUT
  5
26
102
{ACAD_REACTORS
330
1A
102
}
330
1A
100
AcDbPlotSettings
  1

  2
none_device
  4

  6

 40
0.0
 41
0.0
 42
0.0
 43
0.0
 44
0.0
 45
0.0
 46
0.0
 47
0.0
 48
0.0
 49
0.0
140
0.0
141
0.0
142
1.0
143
1.0
 70
   688
 72
     0
 73
     0
 74
     5
  7

 75
    16
147
1.0
148
0.0
149
0.0
100
AcDbLayout
  1
Layout2
 70
     1
 71
     2
 10
0.0
 20
0.0
 11
0.0
 21
0.0
 12
0.0
 22
0.0
 32
0.0
 14
0.0
 24
0.0
 34
0.0
 15
0.0
 25
0.0
 35
0.0
146
0.0
 13
0.0
 23
0.0
 33
0.0
 16
1.0
 26
0.0
 36
0.0
 17
0.0
 27
1.0
 37
0.0
 76
     0
330
23
  0
LAYOUT
  5
22
102
{ACAD_REACTORS
330
1A
102
}
330
1A
100
AcDbPlotSettings
  1

  2
none_device
  4

  6

 40
0.0
 41
0.0
 42
0.0
 43
0.0
 44
0.0
 45
0.0
 46
0.0
 47
0.0
 48
0.0
 49
0.0
140
0.0
141
0.0
142
1.0
143
1.0
 70
  1712
 72
     0
 73
     0
 74
     0
  7

 75
     0
147
1.0
148
0.0
149
0.0
100
AcDbLayout
  1
Model
 70
     1
 71
     0
 10
0.0
 20
0.0
 11
840.0
 21
594.0
 12
0.0
 22
0.0
 32
0.0
 14
0.0
 24
0.0
 34
0.0
 15
840.0
 25
594.0
 35
0.0
146
0.0
 13
0.0
 23
0.0
 33
0.0
 16
1.0
 26
0.0
 36
0.0
 17
0.0
 27
1.0
 37
0.0
 76
     0
330
1F
331
29
  0
MLINESTYLE
  5
18
102
{ACAD_REACTORS
330
17
102
}
330
17
100
AcDbMlineStyle
  2
Standard
 70
     0
  3

 62
   256
 51
90.0
 52
90.0
 71
     2
 49
0.5
 62
   256
  6
BYLAYER
 49
-0.5
 62
   256
  6
BYLAYER
  0
ACDBPLACEHOLDER
  5
F
102
{ACAD_REACTORS
330
E
102
}
330
E
  0
ENDSEC
  0
EOF
