  0
SECTION
  2
HEADER
  9
$ACADVER
  1
AC1015
  9
$ACADMAINTVER
 70
     6
  9
$DWGCODEPAGE
  3
DOS932
  9
$INSBASE
 10
0.0
 20
0.0
 30
0.0
  9
$EXTMIN
 10
0.0
 20
0.0
 30
0.0
  9
$EXTMAX
 10
840.0
 20
594.0
 30
0.0
  9
$LIMMIN
 10
0.0
 20
0.0
  9
$LIMMAX
 10
840.0
 20
594.0
  9
$ORTHOMODE
 70
     0
  9
$REGENMODE
 70
     1
  9
$FILLMODE
 70
     1
  9
$QTEXTMODE
 70
     0
  9
$MIRRTEXT
 70
     1
  9
$LTSCALE
 40
2.0
  9
$ATTMODE
 70
     1
  9
$TEXTSIZE
 40
7.0
  9
$TRACEWID
 40
1.0
  9
$TEXTSTYLE
  7
Standard
  9
$CLAYER
  8
0
  9
$CELTYPE
  6
ByLayer
  9
$CECOLOR
 62
   256
  9
$CELTSCALE
 40
1.0
  9
$DISPSILH
 70
     0
  9
$DIMSCALE
 40
1.0
  9
$DIMASZ
 40
6.0
  9
$DIMEXO
 40
2.0
  9
$DIMDLI
 40
3.75
  9
$DIMRND
 40
0.0
  9
$DIMDLE
 40
0.0
  9
$DIMEXE
 40
2.0
  9
$DIMTP
 40
0.0
  9
$DIMTM
 40
0.0
  9
$DIMTXT
 40
7.0
  9
$DIMCEN
 40
2.5
  9
$DIMTSZ
 40
0.0
  9
$DIMTOL
 70
     0
  9
$DIMLIM
 70
     0
  9
$DIMTIH
 70
     1
  9
$DIMTOH
 70
     1
  9
$DIMSE1
 70
     0
  9
$DIMSE2
 70
     0
  9
$DIMTAD
 70
     1
  9
$DIMZIN
 70
     0
  9
$DIMBLK
  1

  9
$DIMASO
 70
     1
  9
$DIMSHO
 70
     1
  9
$DIMPOST
  1

  9
$DIMAPOST
  1

  9
$DIMALT
 70
     0
  9
$DIMALTD
 70
     3
  9
$DIMALTF
 40
0.0393700787
  9
$DIMLFAC
 40
1.0
  9
$DIMTOFL
 70
     1
  9
$DIMTVP
 40
0.0
  9
$DIMTIX
 70
     0
  9
$DIMSOXD
 70
     0
  9
$DIMSAH
 70
     0
  9
$DIMBLK1
  1

  9
$DIMBLK2
  1

  9
$DIMSTYLE
  2
ISO-25
  9
$DIMCLRD
 70
     0
  9
$DIMCLRE
 70
     0
  9
$DIMCLRT
 70
     0
  9
$DIMTFAC
 40
1.0
  9
$DIMGAP
 40
3.048
  9
$DIMJUST
 70
     0
  9
$DIMSD1
 70
     0
  9
$DIMSD2
 70
     0
  9
$DIMTOLJ
 70
     0
  9
$DIMTZIN
 70
     0
  9
$DIMALTZ
 70
     0
  9
$DIMALTTZ
 70
     0
  9
$DIMUPT
 70
     0
  9
$DIMDEC
 70
     1
  9
$DIMTDEC
 70
     1
  9
$DIMALTU
 70
     2
  9
$DIMALTTD
 70
     3
  9
$DIMTXSTY
  7
Standard
  9
$DIMAUNIT
 70
     0
  9
$DIMADEC
 70
     2
  9
$DIMALTRND
 40
0.0
  9
$DIMAZIN
 70
     0
  9
$DIMDSEP
 70
    44
  9
$DIMATFIT
 70
     3
  9
$DIMFRAC
 70
     0
  9
$DIMLDRBLK
  1

  9
$DIMLUNIT
 70
     2
  9
$DIMLWD
 70
    -2
  9
$DIMLWE
 70
    -2
  9
$DIMTMOVE
 70
     0
  9
$LUNITS
 70
     2
  9
$LUPREC
 70
     1
  9
$SKETCHINC
 40
1.0
  9
$FILLETRAD
 40
10.0
  9
$AUNITS
 70
     0
  9
$AUPREC
 70
     2
  9
$MENU
  1
.
  9
$ELEVATION
 40
0.0
  9
$PELEVATION
 40
0.0
  9
$THICKNESS
 40
0.0
  9
$LIMCHECK
 70
     0
  9
$CHAMFERA
 40
10.0
  9
$CHAMFERB
 40
10.0
  9
$CHAMFERC
 40
20.0
  9
$CHAMFERD
 40
0.0
  9
$SKPOLY
 70
     0
  9
$TDCREATE
 40
2460451.445776389
  9
$TDUCREATE
 40
2460451.070776389
  9
$TDUPDATE
 40
2460451.445776401
  9
$TDUUPDATE
 40
2460451.070776401
  9
$TDINDWG
 40
0.0000000116
  9
$TDUSRTIMER
 40
0.0000000116
  9
$USRTIMER
 70
     1
  9
$ANGBASE
 50
0.0
  9
$ANGDIR
 70
     0
  9
$PDMODE
 70
     0
  9
$PDSIZE
 40
-1.0
  9
$PLINEWID
 40
0.0
  9
$SPLFRAME
 70
     0
  9
$SPLINETYPE
 70
     6
  9
$SPLINESEGS
 70
     8
  9
$HANDSEED
  5
364
  9
$SURFTAB1
 70
     6
  9
$SURFTAB2
 70
     6
  9
$SURFTYPE
 70
     6
  9
$SURFU
 70
     6
  9
$SURFV
 70
     6
  9
$UCSBASE
  2

  9
$UCSNAME
  2

  9
$UCSORG
 10
0.0
 20
0.0
 30
0.0
  9
$UCSXDIR
 10
1.0
 20
0.0
 30
0.0
  9
$UCSYDIR
 10
0.0
 20
1.0
 30
0.0
  9
$UCSORTHOREF
  2

  9
$UCSORTHOVIEW
 70
     0
  9
$UCSORGTOP
 10
0.0
 20
0.0
 30
0.0
  9
$UCSORGBOTTOM
 10
0.0
 20
0.0
 30
0.0
  9
$UCSORGLEFT
 10
0.0
 20
0.0
 30
0.0
  9
$UCSORGRIGHT
 10
0.0
 20
0.0
 30
0.0
  9
$UCSORGFRONT
 10
0.0
 20
0.0
 30
0.0
  9
$UCSORGBACK
 10
0.0
 20
0.0
 30
0.0
  9
$PUCSBASE
  2

  9
$PUCSNAME
  2

  9
$PUCSORG
 10
0.0
 20
0.0
 30
0.0
  9
$PUCSXDIR
 10
1.0
 20
0.0
 30
0.0
  9
$PUCSYDIR
 10
0.0
 20
1.0
 30
0.0
  9
$PUCSORTHOREF
  2

  9
$PUCSORTHOVIEW
 70
     0
  9
$PUCSORGTOP
 10
0.0
 20
0.0
 30
0.0
  9
$PUCSORGBOTTOM
 10
0.0
 20
0.0
 30
0.0
  9
$PUCSORGLEFT
 10
0.0
 20
0.0
 30
0.0
  9
$PUCSORGRIGHT
 10
0.0
 20
0.0
 30
0.0
  9
$PUCSORGFRONT
 10
0.0
 20
0.0
 30
0.0
  9
$PUCSORGBACK
 10
0.0
 20
0.0
 30
0.0
  9
$USERI1
 70
     0
  9
$USERI2
 70
     0
  9
$USERI3
 70
     0
  9
$USERI4
 70
     0
  9
$USERI5
 70
     0
  9
$USERR1
 40
0.0
  9
$USERR2
 40
0.0
  9
$USERR3
 40
0.0
  9
$USERR4
 40
0.0
  9
$USERR5
 40
0.0
  9
$WORLDVIEW
 70
     1
  9
$SHADEDGE
 70
     3
  9
$SHADEDIF
 70
    70
  9
$TILEMODE
 70
     1
  9
$MAXACTVP
 70
    64
  9
$PINSBASE
 10
0.0
 20
0.0
 30
0.0
  9
$PLIMCHECK
 70
     0
  9
$PEXTMIN
 10
1.0000000000E+20
 20
1.0000000000E+20
 30
1.0000000000E+20
  9
$PEXTMAX
 10
-1.0000000000E+20
 20
-1.0000000000E+20
 30
-1.0000000000E+20
  9
$PLIMMIN
 10
0.0
 20
0.0
  9
$PLIMMAX
 10
420.0
 20
297.0
  9
$UNITMODE
 70
     0
  9
$VISRETAIN
 70
     1
  9
$PLINEGEN
 70
     0
  9
$PSLTSCALE
 70
     1
  9
$TREEDEPTH
 70
  3020
  9
$CMLSTYLE
  2
Standard
  9
$CMLJUST
 70
     0
  9
$CMLSCALE
 40
20.0
  9
$PROXYGRAPHICS
 70
     1
  9
$MEASUREMENT
 70
     1
  9
$CELWEIGHT
370
    -1
  9
$ENDCAPS
280
     0
  9
$JOINSTYLE
280
     0
  9
$LWDISPLAY
290
     1
  9
$INSUNITS
 70
     4
  9
$HYPERLINKBASE
  1

  9
$STYLESHEET
  1

  9
$XEDIT
290
     1
  9
$CEPSNTYPE
380
     0
  9
$PSTYLEMODE
290
     1
  9
$FINGERPRINTGUID
  2
{3947582D-0B78-4DC3-8932-E93C21AB5D8B}
  9
$VERSIONGUID
  2
{FAEB1C32-E019-11D5-929B-00C0DF256EC4}
  9
$EXTNAMES
290
     1
  9
$PSVPSCALE
 40
0.0
  9
$OLESTARTUP
290
     0
  0
ENDSEC
  0
SECTION
  2
CLASSES
  0
CLASS
  1
ACDBDICTIONARYWDFLT
  2
AcDbDictionaryWithDefault
  3
ObjectDBX Classes
 90
        0
280
     0
281
     0
  0
CLASS
  1
VISUALSTYLE
  2
AcDbVisualStyle
  3
ObjectDBX Classes
 90
     4095
280
     0
281
     0
  0
CLASS
  1
MATERIAL
  2
AcDbMaterial
  3
ObjectDBX Classes
 90
     1153
280
     0
281
     0
  0
CLASS
  1
ACDBPLACEHOLDER
  2
AcDbPlaceHolder
  3
ObjectDBX Classes
 90
        0
280
     0
281
     0
  0
CLASS
  1
LAYOUT
  2
AcDbLayout
  3
ObjectDBX Classes
 90
        0
280
     0
281
     0
  0
ENDSEC
  0
SECTION
  2
TABLES
  0
TABLE
  2
VPORT
  5
8
330
0
100
AcDbSymbolTable
 70
     1
  0
VPORT
  5
29
330
8
100
AcDbSymbolTableRecord
100
AcDbViewportTableRecord
  2
*Active
 70
     0
 10
0.0
 20
0.0
 11
1.0
 21
1.0
 12
420.0
 22
297.0
 13
0.0
 23
0.0
 14
10.0
 24
10.0
 15
10.0
 25
10.0
 16
0.0
 26
0.0
 36
1.0
 17
0.0
 27
0.0
 37
0.0
 40
594.0
 41
1.4141414141
 42
50.0
 43
0.0
 44
0.0
 50
0.0
 51
0.0
 71
     0
 72
  2000
 73
     1
 74
     3
 75
     0
 76
     0
 77
     0
 78
     0
281
     0
 65
     1
110
0.0
120
0.0
130
0.0
111
1.0
121
0.0
131
0.0
112
0.0
122
1.0
132
0.0
 79
     0
146
0.0
  0
ENDTAB
  0
TABLE
  2
LTYPE
  5
5
330
0
100
AcDbSymbolTable
 70
     6
  0
LTYPE
  5
14
330
5
100
AcDbSymbolTableRecord
100
AcDbLinetypeTableRecord
  2
ByBlock
 70
     0
  3

 72
    65
 73
     0
 40
0.0
  0
LTYPE
  5
15
330
5
100
AcDbSymbolTableRecord
100
AcDbLinetypeTableRecord
  2
ByLayer
 70
     0
  3

 72
    65
 73
     0
 40
0.0
  0
LTYPE
  5
16
330
5
100
AcDbSymbolTableRecord
100
AcDbLinetypeTableRecord
  2
Continuous
 70
     0
  3
Solid line
 72
    65
 73
     0
 40
0.0
  0
LTYPE
  5
3F
330
5
100
AcDbSymbolTableRecord
100
AcDbLinetypeTableRecord
  2
HIDDEN
 70
     0
  3
Hidden __ __ __ __ __ __ __ __ __ __ __ __ __ __
 72
    65
 73
     2
 40
1.905
 49
1.27
 74
     0
 49
-0.635
 74
     0
  0
LTYPE
  5
40
330
5
100
AcDbSymbolTableRecord
100
AcDbLinetypeTableRecord
  2
PHANTOM
 70
     0
  3
Phantom ______  __  __  ______  __  __  ______
 72
    65
 73
     6
 40
12.7
 49
6.35
 74
     0
 49
-1.27
 74
     0
 49
1.27
 74
     0
 49
-1.27
 74
     0
 49
1.27
 74
     0
 49
-1.27
 74
     0
  0
LTYPE
  5
41
330
5
100
AcDbSymbolTableRecord
100
AcDbLinetypeTableRecord
  2
CENTER
 70
     0
  3
Center ____ _ ____ _ ____ _ ____ _ ____ _ ____
 72
    65
 73
     4
 40
10.16
 49
6.35
 74
     0
 49
-1.27
 74
     0
 49
1.27
 74
     0
 49
-1.27
 74
     0
  0
LTYPE
  5
42
330
5
100
AcDbSymbolTableRecord
100
AcDbLinetypeTableRecord
  2
CENTERX2
 70
     0
  3
Center (2x) ________  __  ________  __  _____
 72
    65
 73
     4
 40
20.32
 49
12.7
 74
     0
 49
-2.54
 74
     0
 49
2.54
 74
     0
 49
-2.54
 74
     0
  0
LTYPE
  5
43
330
5
100
AcDbSymbolTableRecord
100
AcDbLinetypeTableRecord
  2
DOT2
 70
     0
  3
Dot (.5x) ........................................
 72
    65
 73
     2
 40
0.635
 49
0.0
 74
     0
 49
-0.635
 74
     0
  0
ENDTAB
  0
TABLE
  2
LAYER
  5
2
330
0
100
AcDbSymbolTable
 70
     1
  0
LAYER
  5
10
330
2
100
AcDbSymbolTableRecord
100
AcDbLayerTableRecord
  2
0
 70
     0
 62
     7
  6
Continuous
370
    -3
390
F
  0
ENDTAB
  0
TABLE
  2
STYLE
  5
3
330
0
100
AcDbSymbolTable
 70
     2
  0
STYLE
  5
11
330
3
100
AcDbSymbolTableRecord
100
AcDbTextStyleTableRecord
  2
Standard
 70
     0
 40
0.0
 41
1.0
 50
0.0
 71
     0
 42
2.5
  3
txt
  4
bigfont
  0
STYLE
  5
44
330
3
100
AcDbSymbolTableRecord
100
AcDbTextStyleTableRecord
  2
SLDTEXTSTYLE0
 70
     0
 40
0.0
 41
0.7
 50
0.0
 71
     0
 42
0.2
  3
TXT
  4
bigfont
  0
ENDTAB
  0
TABLE
  2
VIEW
  5
6
330
0
100
AcDbSymbolTable
 70
     0
  0
ENDTAB
  0
TABLE
  2
UCS
  5
7
330
0
100
AcDbSymbolTable
 70
     0
  0
ENDTAB
  0
TABLE
  2
APPID
  5
9
330
0
100
AcDbSymbolTable
 70
     1
  0
APPID
  5
12
330
9
100
AcDbSymbolTableRecord
100
AcDbRegAppTableRecord
  2
ACAD
 70
     0
  0
ENDTAB
  0
TABLE
  2
DIMSTYLE
  5
A
330
0
100
AcDbSymbolTable
 70
     1
100
AcDbDimStyleTable
  0
DIMSTYLE
105
27
330
A
100
AcDbSymbolTableRecord
100
AcDbDimStyleTableRecord
  2
ISO-25
 70
     0
 41
2.5
 42
0.625
 43
3.75
 44
1.25
 73
     0
 74
     0
 77
     1
 78
     8
140
2.5
141
2.5
143
0.0393700787
147
0.625
171
     3
172
     1
178
     0
271
     2
272
     2
274
     3
278
    44
283
     0
284
     8
340
11
  0
ENDTAB
  0
TABLE
  2
BLOCK_RECORD
  5
1
330
0
100
AcDbSymbolTable
 70
     1
  0
BLOCK_RECORD
  5
1F
330
1
100
AcDbSymbolTableRecord
100
AcDbBlockTableRecord
  2
*Model_Space
340
22
  0
BLOCK_RECORD
  5
1B
330
1
100
AcDbSymbolTableRecord
100
AcDbBlockTableRecord
  2
*Paper_Space
340
1E
  0
BLOCK_RECORD
  5
23
330
1
100
AcDbSymbolTableRecord
100
AcDbBlockTableRecord
  2
*Paper_Space0
340
26
  0
ENDTAB
  0
ENDSEC
  0
SECTION
  2
BLOCKS
  0
BLOCK
  5
20
330
1F
100
AcDbEntity
  8
0
100
AcDbBlockBegin
  2
*Model_Space
 70
     0
 10
0.0
 20
0.0
 30
0.0
  3
*Model_Space
  1

  0
ENDBLK
  5
21
330
1F
100
AcDbEntity
  8
0
100
AcDbBlockEnd
  0
BLOCK
  5
1C
330
1B
100
AcDbEntity
 67
     1
  8
0
100
AcDbBlockBegin
  2
*Paper_Space
 70
     0
 10
0.0
 20
0.0
 30
0.0
  3
*Paper_Space
  1

  0
ENDBLK
  5
1D
330
1B
100
AcDbEntity
 67
     1
  8
0
100
AcDbBlockEnd
  0
BLOCK
  5
24
330
23
100
AcDbEntity
  8
0
100
AcDbBlockBegin
  2
*Paper_Space0
 70
     0
 10
0.0
 20
0.0
 30
0.0
  3
*Paper_Space0
  1

  0
ENDBLK
  5
25
330
23
100
AcDbEntity
  8
0
100
AcDbBlockEnd
  0
ENDSEC
  0
SECTION
  2
ENTITIES
  0
MTEXT
  5
45
330
1F
100
AcDbEntity
  8
0
  6
Continuous
 62
     7
370
     0
100
AcDbMText
 10
200.6729840057
 20
561.3942664569
 30
0.0
 40
7.0
 41
0.0
 71
     1
 72
     1
  1
CHB-511N
  7
SLDTEXTSTYLE0
 73
     1
 44
1.0
  0
LINE
  5
46
330
1F
100
AcDbEntity
  8
0
  6
Continuous
 62
     7
370
    15
100
AcDbLine
 10
383.062070368
 20
75.6680783993
 30
0.0
 11
383.1620720607
 21
75.6680783993
 31
0.0
  0
LINE
  5
47
330
1F
100
AcDbEntity
  8
0
  6
Continuous
 62
     7
370
    15
100
AcDbLine
 10
383.1620720607
 20
81.6680756575
 30
0.0
 11
383.062070368
 21
81.6680756575
 31
0.0
  0
LINE
  5
48
330
1F
100
AcDbEntity
  8
0
  6
Continuous
 62
     7
370
    15
100
AcDbLine
 10
383.062070368
 20
85.6680837638
 30
0.0
 11
383.1620720607
 21
85.6680837638
 31
0.0
  0
LINE
  5
49
330
1F
100
AcDbEntity
  8
0
  6
Continuous
 62
     7
370
    15
100
AcDbLine
 10
383.1620720607
 20
91.6680810219
 30
0.0
 11
383.062070368
 21
91.6680810219
 31
0.0
  0
LINE
  5
4A
330
1F
100
AcDbEntity
  8
0
  6
Continuous
 62
     7
370
    15
100
AcDbLine
 10
383.062070368
 20
455.6680885321
 30
0.0
 11
383.1620720607
 21
455.6680885321
 31
0.0
  0
LINE
  5
4B
330
1F
100
AcDbEntity
  8
0
  6
Continuous
 62
     7
370
    15
100
AcDbLine
 10
383.1620720607
 20
461.6680857903
 30
0.0
 11
383.062070368
 21
461.6680857903
 31
0.0
  0
LINE
  5
4C
330
1F
100
AcDbEntity
  8
0
  6
Continuous
 62
     7
370
    15
100
AcDbLine
 10
383.062070368
 20
445.6680831677
 30
0.0
 11
383.1620720607
 21
445.6680831677
 31
0.0
  0
LINE
  5
4D
330
1F
100
AcDbEntity
  8
0
  6
Continuous
 62
     7
370
    15
100
AcDbLine
 10
383.1620720607
 20
451.6680804259
 30
0.0
 11
383.062070368
 21
451.6680804259
 31
0.0
  0
LINE
  5
4E
330
1F
100
AcDbEntity
  8
0
  6
Continuous
 62
     7
370
    15
100
AcDbLine
 10
384.3620625717
 20
95.1680806643
 30
0.0
 11
383.1620720607
 21
95.1680806643
 31
0.0
  0
LINE
  5
4F
330
1F
100
AcDbEntity
  8
0
  6
Continuous
 62
     7
370
    15
100
AcDbLine
 10
384.3620625717
 20
465.1680854327
 30
0.0
 11
383.1620720607
 21
465.1680854327
 31
0.0
  0
LINE
  5
50
330
1F
100
AcDbEntity
  8
0
  6
Continuous
 62
     7
370
    15
100
AcDbLine
 10
383.1620720607
 20
72.168078757
 30
0.0
 11
384.3620625717
 21
72.168078757
 31
0.0
  0
LINE
  5
51
330
1F
100
AcDbEntity
  8
0
  6
Continuous
 62
     7
370
    15
100
AcDbLine
 10
383.1620720607
 20
442.1680835253
 30
0.0
 11
384.3620625717
 21
442.1680835253
 31
0.0
  0
LINE
  5
52
330
1F
100
AcDbEntity
  8
0
  6
Continuous
 62
     7
370
    15
100
AcDbLine
 10
795.8620694858
 20
74.6680763728
 30
0.0
 11
795.8620694858
 21
109.6680876977
 31
0.0
  0
LINE
  5
53
330
1F
100
AcDbEntity
  8
0
  6
Continuous
 62
     7
370
    15
100
AcDbLine
 10
795.8620694858
 20
427.668076492
 30
0.0
 11
795.8620694858
 21
462.6680878169
 31
0.0
  0
LINE
  5
54
330
1F
100
AcDbEntity
  8
0
  6
Continuous
 62
     7
370
    15
100
AcDbLine
 10
375.2572593671
 20
457.5680759913
 30
0.0
 11
375.2572593671
 21
448.9680794245
 31
0.0
  0
LINE
  5
55
330
1F
100
AcDbEntity
  8
0
  6
Continuous
 62
     7
370
    15
100
AcDbLine
 10
375.8620676977
 20
446.4680818087
 30
0.0
 11
375.8620676977
 21
445.6683364875
 31
0.0
  0
LINE
  5
56
330
1F
100
AcDbEntity
  8
0
  6
Continuous
 62
     7
370
    15
100
AcDbLine
 10
375.8620676977
 20
461.6678324706
 30
0.0
 11
375.8620676977
 21
460.8680871493
 31
0.0
  0
ARC
  5
57
330
1F
100
AcDbEntity
  8
0
  6
Continuous
 62
     7
370
    15
100
AcDbCircle
 10
379.4620655519
 20
458.8609392377
 30
0.0
 40
3.807142857143235
100
AcDbArc
 50
77.9663271603
 51
90.0
  0
ARC
  5
58
330
1F
100
AcDbEntity
  8
0
  6
Continuous
 62
     7
370
    15
100
AcDbCircle
 10
379.4620655519
 20
458.8609392377
 30
0.0
 40
3.807142857143322
100
AcDbArc
 50
90.0
 51
125.3002484399
  0
LINE
  5
59
330
1F
100
AcDbEntity
  8
0
  6
Continuous
 62
     7
370
    15
100
AcDbLine
 10
377.2620615941
 20
461.9680759675
 30
0.0
 11
377.2620615941
 21
461.6680857903
 31
0.0
  0
LINE
  5
5A
330
1F
100
AcDbEntity
  8
0
  6
Continuous
 62
     7
370
    15
100
AcDbLine
 10
377.3620632869
 20
445.2680763966
 30
0.0
 11
377.3620632869
 21
444.8680845267
 31
0.0
  0
ARC
  5
5B
330
1F
100
AcDbEntity
  8
0
  6
Continuous
 62
     7
370
    15
100
AcDbCircle
 10
377.5620655519
 20
445.6680820949
 30
0.0
 40
0.4000000000008299
100
AcDbArc
 50
270.0
 51
0.0
  0
LINE
  5
5C
330
1F
100
AcDbEntity
  8
0
  6
Continuous
 62
     7
370
    15
100
AcDbLine
 10
377.9620585424
 20
460.8680871493
 30
0.0
 11
377.9620585424
 21
460.4180869824
 31
0.0
  0
LINE
  5
5D
330
1F
100
AcDbEntity
  8
0
  6
Continuous
 62
     7
370
    15
100
AcDbLine
 10
377.9620585424
 20
446.9180819756
 30
0.0
 11
377.9620585424
 21
446.4680818087
 31
0.0
  0
SPLINE
  5
5E
330
1F
100
AcDbEntity
  8
0
  6
Continuous
 62
     7
370
    15
100
AcDbSpline
210
0.0
220
0.0
230
1.0
 70
     8
 71
     3
 72
    11
 73
     7
 74
     0
 42
0.00000001
 43
0.00000001
 40
0.0
 40
0.0
 40
0.0
 40
0.0
 40
0.2262262418928945
 40
0.4679470766254474
 40
0.7254865549910208
 40
1.0
 40
1.0
 40
1.0
 40
1.0
 10
380.6825784427133
 20
461.8985173470231
 30
0.0
 10
380.6853977336101
 20
461.8756181475767
 30
0.0
 10
380.6912294130927
 20
461.8282513463236
 30
0.0
 10
380.7080203394685
 20
461.5034712184743
 30
0.0
 10
380.7216128525495
 20
461.0029722402894
 30
0.0
 10
380.7221480248524
 20
460.579150505915
 30
0.0
 10
380.7224241477457
 20
460.3604790932389
 30
0.0
  0
SPLINE
  5
5F
330
1F
100
AcDbEntity
  8
0
  6
Continuous
 62
     7
370
    15
100
AcDbSpline
210
0.0
220
0.0
230
1.0
 70
     8
 71
     3
 72
    12
 73
     8
 74
     0
 42
0.00000001
 43
0.00000001
 40
0.0
 40
0.0
 40
0.0
 40
0.0
 40
0.248946245326258
 40
0.4822936287519815
 40
0.699811415192867
 40
0.9035372363555159
 40
1.0
 40
1.0
 40
1.0
 40
1.0
 10
380.7224241477457
 20
446.8018529183121
 30
0.0
 10
380.720998280688
 20
446.6645172404903
 30
0.0
 10
380.7182358907735
 20
446.3984512778284
 30
0.0
 10
380.7073349589732
 20
446.0626473546126
 30
0.0
 10
380.7048246280802
 20
445.8294697770098
 30
0.0
 10
380.7096136442306
 20
445.7093559384991
 30
0.0
 10
380.7360442467284
 20
445.7080165468768
 30
0.0
 10
380.7445374709574
 20
445.7075861460419
 30
0.0
  0
LINE
  5
60
330
1F
100
AcDbEntity
  8
0
  6
Continuous
 62
     7
370
    15
100
AcDbLine
 10
380.7215747816
 20
460.410472489
 30
0.0
 11
380.7215747816
 21
446.7518446213
 31
0.0
  0
LINE
  5
61
330
1F
100
AcDbEntity
  8
0
  6
Continuous
 62
     7
370
    15
100
AcDbLine
 10
379.1979608518
 20
464.3483725554
 30
0.0
 11
380.6853202564
 21
461.8682232863
 31
0.0
  0
LINE
  5
62
330
1F
100
AcDbEntity
  8
0
  6
Continuous
 62
     7
370
    15
100
AcDbLine
 10
383.1620720607
 20
463.5713217026
 30
0.0
 11
381.7707804424
 21
465.8912983901
 31
0.0
  0
LINE
  5
63
330
1F
100
AcDbEntity
  8
0
  6
Continuous
 62
     7
370
    15
100
AcDbLine
 10
380.749812482
 20
445.5755022532
 30
0.0
 11
379.1807351095
 21
442.959081865
 31
0.0
  0
LINE
  5
64
330
1F
100
AcDbEntity
  8
0
  6
Continuous
 62
     7
370
    15
100
AcDbLine
 10
381.7535547
 20
441.4161560303
 30
0.0
 11
383.1620720607
 21
443.7648323542
 31
0.0
  0
LINE
  5
65
330
1F
100
AcDbEntity
  8
0
  6
Continuous
 62
     7
370
    15
100
AcDbLine
 10
381.7906734926
 20
465.855788923
 30
0.0
 11
381.7007151824
 21
465.9695741898
 31
0.0
  0
SPLINE
  5
66
330
1F
100
AcDbEntity
  8
0
  6
Continuous
 62
     7
370
    15
100
AcDbSpline
210
0.0
220
0.0
230
1.0
 70
     8
 71
     3
 72
    20
 73
    16
 74
     0
 42
0.00000001
 43
0.00000001
 40
0.0
 40
0.0
 40
0.0
 40
0.0
 40
0.0337800955033005
 40
0.1101060740967977
 40
0.1739277399875213
 40
0.225273431121625
 40
0.2665362994497256
 40
0.3037737555205526
 40
0.3388581421982815
 40
0.372639870648944
 40
0.4139173765216811
 40
0.6259814352733555
 40
0.8390272731315624
 40
0.9659457437364803
 40
1.0
 40
1.0
 40
1.0
 40
1.0
 10
381.5884051305262
 20
466.1116418606492
 30
0.0
 10
381.5477443115556
 20
466.167825236246
 30
0.0
 10
381.4152105493
 20
466.3509547041858
 30
0.0
 10
381.1053491637452
 20
466.5281453516063
 30
0.0
 10
380.718086147941
 20
466.6510863846233
 30
0.0
 10
380.34823617285
 20
466.6659006537217
 30
0.0
 10
380.0139263859845
 20
466.6152772643313
 30
0.0
 10
379.7394322980109
 20
466.5142556595213
 30
0.0
 10
379.5119329720476
 20
466.3795265069623
 30
0.0
 10
379.3059012732025
 20
466.2033573410024
 30
0.0
 10
378.9613748959114
 20
465.7608622282808
 30
0.0
 10
378.7802872669922
 20
465.0741835745823
 30
0.0
 10
378.6304882373034
 20
463.8933531742656
 30
0.0
 10
378.5753676244197
 20
462.9887079569143
 30
0.0
 10
378.5688062863564
 20
462.5741201383047
 30
0.0
 10
378.5674182158915
 20
462.4864128596039
 30
0.0
  0
SPLINE
  5
67
330
1F
100
AcDbEntity
  8
0
  6
Continuous
 62
     7
370
    15
100
AcDbSpline
210
0.0
220
0.0
230
1.0
 70
     8
 71
     3
 72
    19
 73
    15
 74
     0
 42
0.00000001
 43
0.00000001
 40
0.0
 40
0.0
 40
0.0
 40
0.0
 40
0.0102730714165747
 40
0.1295978376680625
 40
0.3268135443202696
 40
0.5525093915006145
 40
0.5858542524929087
 40
0.6186030345588449
 40
0.6529071182181078
 40
0.6960077432926919
 40
0.7523139361176508
 40
0.8223158227889674
 40
0.9054617395681033
 40
1.0
 40
1.0
 40
1.0
 40
1.0
 10
378.5645720941034
 20
444.8680845267029
 30
0.0
 10
378.5648953035808
 20
444.840887104244
 30
0.0
 10
378.5689726868368
 20
444.4977835670546
 30
0.0
 10
378.608733365953
 20
443.6777983403957
 30
0.0
 10
378.7437402705893
 20
442.4553768066543
 30
0.0
 10
378.8341343469011
 20
441.8119637691015
 30
0.0
 10
379.1850389003217
 20
441.271912664775
 30
0.0
 10
379.3542495932378
 20
441.0840527637397
 30
0.0
 10
379.5909631826186
 20
440.9075729782417
 30
0.0
 10
379.9045953175955
 20
440.7541167363104
 30
0.0
 10
380.3080738778449
 20
440.6523084229808
 30
0.0
 10
380.7939450313339
 20
440.6754739031531
 30
0.0
 10
381.3236880437272
 20
440.8857987171056
 30
0.0
 10
381.5889115299616
 20
441.2076173789728
 30
0.0
 10
381.7300257665125
 20
441.3788435227128
 30
0.0
  0
LINE
  5
68
330
1F
100
AcDbEntity
  8
0
  6
Continuous
 62
     7
370
    15
100
AcDbLine
 10
375.2572593671
 20
87.5680861241
 30
0.0
 11
375.2572593671
 21
78.9680746562
 31
0.0
  0
LINE
  5
69
330
1F
100
AcDbEntity
  8
0
  6
Continuous
 62
     7
370
    15
100
AcDbLine
 10
375.8620676977
 20
76.4680770404
 30
0.0
 11
375.8620676977
 21
75.6683317191
 31
0.0
  0
LINE
  5
6A
330
1F
100
AcDbEntity
  8
0
  6
Continuous
 62
     7
370
    15
100
AcDbLine
 10
375.8620676977
 20
91.6678277022
 30
0.0
 11
375.8620676977
 21
90.8680823809
 31
0.0
  0
LINE
  5
6B
330
1F
100
AcDbEntity
  8
0
  6
Continuous
 62
     7
370
    15
100
AcDbLine
 10
377.2620615941
 20
91.9680861003
 30
0.0
 11
377.2620615941
 21
91.6680810219
 31
0.0
  0
ARC
  5
6C
330
1F
100
AcDbEntity
  8
0
  6
Continuous
 62
     7
370
    15
100
AcDbCircle
 10
379.4620655519
 20
88.8609392377
 30
0.0
 40
3.807142857143194
100
AcDbArc
 50
77.9663271603
 51
90.0
  0
ARC
  5
6D
330
1F
100
AcDbEntity
  8
0
  6
Continuous
 62
     7
370
    15
100
AcDbCircle
 10
379.4620655519
 20
88.8609392377
 30
0.0
 40
3.80714285714331
100
AcDbArc
 50
90.0
 51
125.3002484399
  0
LINE
  5
6E
330
1F
100
AcDbEntity
  8
0
  6
Continuous
 62
     7
370
    15
100
AcDbLine
 10
377.3620632869
 20
75.2680865294
 30
0.0
 11
377.3620632869
 21
74.8680797583
 31
0.0
  0
ARC
  5
6F
330
1F
100
AcDbEntity
  8
0
  6
Continuous
 62
     7
370
    15
100
AcDbCircle
 10
377.5620655519
 20
75.6680820949
 30
0.0
 40
0.4000000000008299
100
AcDbArc
 50
270.0
 51
0.0
  0
LINE
  5
70
330
1F
100
AcDbEntity
  8
0
  6
Continuous
 62
     7
370
    15
100
AcDbLine
 10
377.9620585424
 20
90.8680823809
 30
0.0
 11
377.9620585424
 21
90.418082214
 31
0.0
  0
LINE
  5
71
330
1F
100
AcDbEntity
  8
0
  6
Continuous
 62
     7
370
    15
100
AcDbLine
 10
377.9620585424
 20
76.9180772073
 30
0.0
 11
377.9620585424
 21
76.4680770404
 31
0.0
  0
SPLINE
  5
72
330
1F
100
AcDbEntity
  8
0
  6
Continuous
 62
     7
370
    15
100
AcDbSpline
210
0.0
220
0.0
230
1.0
 70
     8
 71
     3
 72
    11
 73
     7
 74
     0
 42
0.00000001
 43
0.00000001
 40
0.0
 40
0.0
 40
0.0
 40
0.0
 40
0.2262262418928945
 40
0.4679470766254474
 40
0.7254865549910208
 40
1.0
 40
1.0
 40
1.0
 40
1.0
 10
380.6825784427133
 20
91.8985125786515
 30
0.0
 10
380.6853977336101
 20
91.87561337920513
 30
0.0
 10
380.6912294130927
 20
91.82824657795194
 30
0.0
 10
380.7080203394685
 20
91.50346645010279
 30
0.0
 10
380.7216128525495
 20
91.00296747191777
 30
0.0
 10
380.7221480248524
 20
90.57914573754344
 30
0.0
 10
380.7224241477457
 20
90.36047432486733
 30
0.0
  0
SPLINE
  5
73
330
1F
100
AcDbEntity
  8
0
  6
Continuous
 62
     7
370
    15
100
AcDbSpline
210
0.0
220
0.0
230
1.0
 70
     8
 71
     3
 72
    12
 73
     8
 74
     0
 42
0.00000001
 43
0.00000001
 40
0.0
 40
0.0
 40
0.0
 40
0.0
 40
0.2489469272997727
 40
0.4822949499668513
 40
0.6998133322848473
 40
0.9035365115921212
 40
1.0
 40
1.0
 40
1.0
 40
1.0
 10
380.7224241477457
 20
76.80184814994054
 30
0.0
 10
380.7209982762431
 20
76.66451222084655
 30
0.0
 10
380.718235877717
 20
76.39844577138491
 30
0.0
 10
380.7073350060445
 20
76.06264524713937
 30
0.0
 10
380.7048244811619
 20
75.82945714963277
 30
0.0
 10
380.7096140111488
 20
75.70937684656201
 30
0.0
 10
380.7360442466174
 20
75.70801802742317
 30
0.0
 10
380.7445374709574
 20
75.70758137767037
 30
0.0
  0
LINE
  5
74
330
1F
100
AcDbEntity
  8
0
  6
Continuous
 62
     7
370
    15
100
AcDbLine
 10
380.7215747816
 20
90.4104826218
 30
0.0
 11
380.7215747816
 21
76.751839853
 31
0.0
  0
LINE
  5
75
330
1F
100
AcDbEntity
  8
0
  6
Continuous
 62
     7
370
    15
100
AcDbLine
 10
379.1979608518
 20
94.348367787
 30
0.0
 11
380.6853202564
 21
91.8682185179
 31
0.0
  0
LINE
  5
76
330
1F
100
AcDbEntity
  8
0
  6
Continuous
 62
     7
370
    15
100
AcDbLine
 10
383.1620720607
 20
93.5713318354
 30
0.0
 11
381.7707804424
 21
95.8912936217
 31
0.0
  0
LINE
  5
77
330
1F
100
AcDbEntity
  8
0
  6
Continuous
 62
     7
370
    15
100
AcDbLine
 10
380.749812482
 20
75.5754974848
 30
0.0
 11
379.1807351095
 21
72.9590770966
 31
0.0
  0
LINE
  5
78
330
1F
100
AcDbEntity
  8
0
  6
Continuous
 62
     7
370
    15
100
AcDbLine
 10
381.7535547
 20
71.416151262
 30
0.0
 11
383.1620720607
 21
73.764842487
 31
0.0
  0
LINE
  5
79
330
1F
100
AcDbEntity
  8
0
  6
Continuous
 62
     7
370
    15
100
AcDbLine
 10
381.7906734926
 20
95.8557841546
 30
0.0
 11
381.7007151824
 21
95.9695694215
 31
0.0
  0
SPLINE
  5
7A
330
1F
100
AcDbEntity
  8
0
  6
Continuous
 62
     7
370
    15
100
AcDbSpline
210
0.0
220
0.0
230
1.0
 70
     8
 71
     3
 72
    20
 73
    16
 74
     0
 42
0.00000001
 43
0.00000001
 40
0.0
 40
0.0
 40
0.0
 40
0.0
 40
0.0337801398958173
 40
0.1101062187940126
 40
0.1739279685567422
 40
0.2252737271674004
 40
0.2665363461865499
 40
0.3037745069505653
 40
0.3388589397348609
 40
0.3726407125801861
 40
0.4139182726982515
 40
0.6259826101364464
 40
0.8390271659154751
 40
0.9659476192250326
 40
0.9999999999999999
 40
0.9999999999999999
 40
0.9999999999999999
 40
0.9999999999999999
 10
381.5884051305262
 20
96.1116370922776
 30
0.0
 10
381.547744305821
 20
96.16782049604267
 30
0.0
 10
381.4152105248732
 20
96.35095005579666
 30
0.0
 10
381.1053493985179
 20
96.52813943004459
 30
0.0
 10
380.7180855007053
 20
96.65108479543625
 30
0.0
 10
380.3482386396135
 20
96.66588726506254
 30
0.0
 10
380.0139213420945
 20
96.61529682180367
 30
0.0
 10
379.7394355228745
 20
96.51424606903142
 30
0.0
 10
379.511932520696
 20
96.37952314196407
 30
0.0
 10
379.3059014183116
 20
96.2033521209962
 30
0.0
 10
378.9613746221111
 20
95.76085831755327
 30
0.0
 10
378.7802886269029
 20
95.07417862180476
 30
0.0
 10
378.6304865868122
 20
93.89335800226856
 30
0.0
 10
378.5753682826674
 20
92.98871230466699
 30
0.0
 10
378.5688063374287
 20
92.57412522583586
 30
0.0
 10
378.5674182158915
 20
92.48642299239357
 30
0.0
  0
SPLINE
  5
7B
330
1F
100
AcDbEntity
  8
0
  6
Continuous
 62
     7
370
    15
100
AcDbSpline
210
0.0
220
0.0
230
1.0
 70
     8
 71
     3
 72
    19
 73
    15
 74
     0
 42
0.00000001
 43
0.00000001
 40
0.0
 40
0.0
 40
0.0
 40
0.0
 40
0.010273076459979
 40
0.1295979012921002
 40
0.3268137047642836
 40
0.5525084691330953
 40
0.585854644060767
 40
0.6186021527096249
 40
0.6529073708785755
 40
0.6960080171127396
 40
0.7523138145200396
 40
0.822315735557691
 40
0.9054616931560184
 40
1.0
 40
1.0
 40
1.0
 40
1.0
 10
378.5645720941034
 20
74.86807975833138
 30
0.0
 10
378.5648953024436
 20
74.84088233394984
 30
0.0
 10
378.5689726713539
 20
74.49777877250663
 30
0.0
 10
378.6087346834216
 20
73.67779579943048
 30
0.0
 10
378.7437314504139
 20
72.45536031960233
 30
0.0
 10
378.8341570516939
 20
71.8119992011574
 30
0.0
 10
379.1850308785459
 20
71.27190685291681
 30
0.0
 10
379.3542592835285
 20
71.08406539055292
 30
0.0
 10
379.5909566366417
 20
70.90756467526008
 30
0.0
 10
379.9045951112325
 20
70.75411075715951
 30
0.0
 10
380.3080756977499
 20
70.65232442987093
 30
0.0
 10
380.7939447375708
 20
70.67548199445834
 30
0.0
 10
381.3236881349466
 20
70.88580948381748
 30
0.0
 10
381.5889115616407
 20
71.20762773191294
 30
0.0
 10
381.7300257665125
 20
71.3788536555024
 30
0.0
  0
LINE
  5
7C
330
1F
100
AcDbEntity
  8
0
  6
Continuous
 62
     7
370
    15
100
AcDbLine
 10
795.8620694858
 20
38.6680779225
 30
0.0
 11
795.8620694858
 21
73.6680892474
 31
0.0
  0
LINE
  5
7D
330
1F
100
AcDbEntity
  8
0
  6
Continuous
 62
     7
370
    15
100
AcDbLine
 10
795.8620694858
 20
463.6680749423
 30
0.0
 11
795.8620694858
 21
498.6680862672
 31
0.0
  0
LINE
  5
7E
330
1F
100
AcDbEntity
  8
0
  6
Continuous
 62
     7
370
    15
100
AcDbLine
 10
792.8620634061
 20
73.6680892474
 30
0.0
 11
792.8620634061
 21
74.6680763728
 31
0.0
  0
LINE
  5
7F
330
1F
100
AcDbEntity
  8
0
  6
Continuous
 62
     7
370
    15
100
AcDbLine
 10
792.8620634061
 20
109.6680876977
 30
0.0
 11
792.8620634061
 21
110.6680748231
 31
0.0
  0
LINE
  5
80
330
1F
100
AcDbEntity
  8
0
  6
Continuous
 62
     7
370
    15
100
AcDbLine
 10
787.8620681745
 20
110.6680748231
 30
0.0
 11
787.8620681745
 21
109.6680876977
 31
0.0
  0
LINE
  5
81
330
1F
100
AcDbEntity
  8
0
  6
Continuous
 62
     7
370
    15
100
AcDbLine
 10
787.8620681745
 20
74.6680763728
 30
0.0
 11
787.8620681745
 21
73.6680892474
 31
0.0
  0
LINE
  5
82
330
1F
100
AcDbEntity
  8
0
  6
Continuous
 62
     7
370
    15
100
AcDbLine
 10
787.8620681745
 20
463.6680749423
 30
0.0
 11
787.8620681745
 21
462.6680878169
 31
0.0
  0
LINE
  5
83
330
1F
100
AcDbEntity
  8
0
  6
Continuous
 62
     7
370
    15
100
AcDbLine
 10
787.8620681745
 20
427.668076492
 30
0.0
 11
787.8620681745
 21
426.6680893666
 31
0.0
  0
LINE
  5
84
330
1F
100
AcDbEntity
  8
0
  6
Continuous
 62
     7
370
    15
100
AcDbLine
 10
792.8620634061
 20
426.6680893666
 30
0.0
 11
792.8620634061
 21
427.668076492
 31
0.0
  0
LINE
  5
85
330
1F
100
AcDbEntity
  8
0
  6
Continuous
 62
     7
370
    15
100
AcDbLine
 10
792.8620634061
 20
462.6680878169
 30
0.0
 11
792.8620634061
 21
463.6680749423
 31
0.0
  0
LINE
  5
86
330
1F
100
AcDbEntity
  8
0
  6
Continuous
 62
     7
370
    15
100
AcDbLine
 10
376.0620710832
 20
77.2108999259
 30
0.0
 11
376.0620710832
 21
76.9180772073
 31
0.0
  0
LINE
  5
87
330
1F
100
AcDbEntity
  8
0
  6
Continuous
 62
     7
370
    15
100
AcDbLine
 10
376.0620710832
 20
90.418082214
 30
0.0
 11
376.0620710832
 21
90.1252743966
 31
0.0
  0
LINE
  5
88
330
1F
100
AcDbEntity
  8
0
  6
Continuous
 62
     7
370
    15
100
AcDbLine
 10
376.0620710832
 20
447.2108897931
 30
0.0
 11
376.0620710832
 21
446.9180819756
 31
0.0
  0
LINE
  5
89
330
1F
100
AcDbEntity
  8
0
  6
Continuous
 62
     7
370
    15
100
AcDbLine
 10
376.0620710832
 20
460.4180869824
 30
0.0
 11
376.0620710832
 21
460.1252642638
 31
0.0
  0
ARC
  5
8A
330
1F
100
AcDbEntity
  8
0
  6
Continuous
 62
     7
370
    15
100
AcDbCircle
 10
399.3620655519
 20
33.6680820948
 30
0.0
 40
15.00000000000006
100
AcDbArc
 50
180.0
 51
270.0
  0
LINE
  5
8B
330
1F
100
AcDbEntity
  8
0
  6
Continuous
 62
     7
370
    15
100
AcDbLine
 10
384.3620625717
 20
33.6680826909
 30
0.0
 11
399.3620631677
 21
33.6680826909
 31
0.0
  0
LINE
  5
8C
330
1F
100
AcDbEntity
  8
0
  6
Continuous
 62
     7
370
    15
100
AcDbLine
 10
399.3620631677
 20
18.6680820948
 30
0.0
 11
399.3620631677
 21
33.6680826909
 31
0.0
  0
LINE
  5
8D
330
1F
100
AcDbEntity
  8
0
  6
Continuous
 62
     7
370
    15
100
AcDbLine
 10
399.3620631677
 20
18.6680820948
 30
0.0
 11
769.3620679361
 21
18.6680820948
 31
0.0
  0
LINE
  5
8E
330
1F
100
AcDbEntity
  8
0
  6
Continuous
 62
     7
370
    15
100
AcDbLine
 10
399.3620631677
 20
33.6680826909
 30
0.0
 11
769.3620679361
 21
33.6680826909
 31
0.0
  0
LINE
  5
8F
330
1F
100
AcDbEntity
  8
0
  6
Continuous
 62
     7
370
    15
100
AcDbLine
 10
769.3620679361
 20
33.6680826909
 30
0.0
 11
769.3620679361
 21
18.6680820948
 31
0.0
  0
LINE
  5
90
330
1F
100
AcDbEntity
  8
0
  6
Continuous
 62
     7
370
    15
100
AcDbLine
 10
399.3620631677
 20
33.6680826909
 30
0.0
 11
399.3620631677
 21
503.6680814988
 31
0.0
  0
LINE
  5
91
330
1F
100
AcDbEntity
  8
0
  6
Continuous
 62
     7
370
    15
100
AcDbLine
 10
384.3620625717
 20
33.6680826909
 30
0.0
 11
384.3620625717
 21
73.6805913216
 31
0.0
  0
LINE
  5
92
330
1F
100
AcDbEntity
  8
0
  6
Continuous
 62
     7
370
    15
100
AcDbLine
 10
384.3620625717
 20
93.6555680997
 30
0.0
 11
384.3620625717
 21
443.68059609
 31
0.0
  0
LINE
  5
93
330
1F
100
AcDbEntity
  8
0
  6
Continuous
 62
     7
370
    15
100
AcDbLine
 10
384.3620625717
 20
463.655572868
 30
0.0
 11
384.3620625717
 21
503.6680814988
 31
0.0
  0
LINE
  5
94
330
1F
100
AcDbEntity
  8
0
  6
Continuous
 62
     7
370
    15
100
AcDbLine
 10
384.3620625717
 20
503.6680814988
 30
0.0
 11
399.3620631677
 21
503.6680814988
 31
0.0
  0
LINE
  5
95
330
1F
100
AcDbEntity
  8
0
  6
Continuous
 62
     7
370
    15
100
AcDbLine
 10
764.3620727045
 20
38.6680779225
 30
0.0
 11
404.3620583993
 21
38.6680779225
 31
0.0
  0
LINE
  5
96
330
1F
100
AcDbEntity
  8
0
  6
Continuous
 62
     7
370
    15
100
AcDbLine
 10
764.3620727045
 20
38.6680779225
 30
0.0
 11
764.3620727045
 21
498.6680862672
 31
0.0
  0
LINE
  5
97
330
1F
100
AcDbEntity
  8
0
  6
Continuous
 62
     7
370
    15
100
AcDbLine
 10
404.3620583993
 20
498.6680862672
 30
0.0
 11
764.3620727045
 21
498.6680862672
 31
0.0
  0
LINE
  5
98
330
1F
100
AcDbEntity
  8
0
  6
Continuous
 62
     7
370
    15
100
AcDbLine
 10
399.3620631677
 20
503.6680814988
 30
0.0
 11
769.3620679361
 21
503.6680814988
 31
0.0
  0
LINE
  5
99
330
1F
100
AcDbEntity
  8
0
  6
Continuous
 62
     7
370
    15
100
AcDbLine
 10
769.3620679361
 20
33.6680826909
 30
0.0
 11
769.3620679361
 21
503.6680814988
 31
0.0
  0
LINE
  5
9A
330
1F
100
AcDbEntity
  8
0
  6
Continuous
 62
     7
370
    15
100
AcDbLine
 10
404.3620583993
 20
38.6680779225
 30
0.0
 11
404.3620583993
 21
498.6680862672
 31
0.0
  0
LINE
  5
9B
330
1F
100
AcDbEntity
  8
0
  6
Continuous
 62
     7
370
    15
100
AcDbLine
 10
769.3620679361
 20
33.6680826909
 30
0.0
 11
784.3620685321
 21
33.6680826909
 31
0.0
  0
ARC
  5
9C
330
1F
100
AcDbEntity
  8
0
  6
Continuous
 62
     7
370
    15
100
AcDbCircle
 10
769.3620655519
 20
33.6680820948
 30
0.0
 40
15.0
100
AcDbArc
 50
270.0
 51
0.0
  0
LINE
  5
9D
330
1F
100
AcDbEntity
  8
0
  6
Continuous
 62
     7
370
    15
100
AcDbLine
 10
784.3620685321
 20
503.6680814988
 30
0.0
 11
769.3620679361
 21
503.6680814988
 31
0.0
  0
LINE
  5
9E
330
1F
100
AcDbEntity
  8
0
  6
Continuous
 62
     7
370
    15
100
AcDbLine
 10
784.3620685321
 20
33.6680826909
 30
0.0
 11
784.3620685321
 21
503.6680814988
 31
0.0
  0
ARC
  5
9F
330
1F
100
AcDbEntity
  8
0
  6
Continuous
 62
     7
370
    15
100
AcDbCircle
 10
399.3620655519
 20
503.6680820948
 30
0.0
 40
15.00000000000011
100
AcDbArc
 50
90.0
 51
180.0
  0
LINE
  5
A0
330
1F
100
AcDbEntity
  8
0
  6
Continuous
 62
     7
370
    15
100
AcDbLine
 10
399.3620631677
 20
503.6680814988
 30
0.0
 11
399.3620631677
 21
518.6680820948
 31
0.0
  0
LINE
  5
A1
330
1F
100
AcDbEntity
  8
0
  6
Continuous
 62
     7
370
    15
100
AcDbLine
 10
399.3620631677
 20
518.6680820948
 30
0.0
 11
769.3620679361
 21
518.6680820948
 31
0.0
  0
LINE
  5
A2
330
1F
100
AcDbEntity
  8
0
  6
Continuous
 62
     7
370
    15
100
AcDbLine
 10
769.3620679361
 20
518.6680820948
 30
0.0
 11
769.3620679361
 21
503.6680814988
 31
0.0
  0
ARC
  5
A3
330
1F
100
AcDbEntity
  8
0
  6
Continuous
 62
     7
370
    15
100
AcDbCircle
 10
769.3620655519
 20
503.6680820948
 30
0.0
 40
15.0
100
AcDbArc
 50
0.0
 51
90.0
  0
LINE
  5
A4
330
1F
100
AcDbEntity
  8
0
  6
Continuous
 62
     7
370
    15
100
AcDbLine
 10
383.1620720607
 20
94.7025683886
 30
0.0
 11
384.3620625717
 21
94.7025683886
 31
0.0
  0
LINE
  5
A5
330
1F
100
AcDbEntity
  8
0
  6
Continuous
 62
     7
370
    15
100
AcDbLine
 10
384.3620625717
 20
93.6555680997
 30
0.0
 11
384.3620625717
 21
73.6805913216
 31
0.0
  0
LINE
  5
A6
330
1F
100
AcDbEntity
  8
0
  6
Continuous
 62
     7
370
    15
100
AcDbLine
 10
383.1620720607
 20
72.6336059338
 30
0.0
 11
384.3620625717
 21
72.6336059338
 31
0.0
  0
LINE
  5
A7
330
1F
100
AcDbEntity
  8
0
  6
Continuous
 62
     7
370
    15
100
AcDbLine
 10
383.1620720607
 20
72.6336059338
 30
0.0
 11
383.1620720607
 21
94.7025683886
 31
0.0
  0
LINE
  5
A8
330
1F
100
AcDbEntity
  8
0
  6
Continuous
 62
     7
370
    15
100
AcDbLine
 10
383.1620720607
 20
464.7025582558
 30
0.0
 11
384.3620625717
 21
464.7025582558
 31
0.0
  0
LINE
  5
A9
330
1F
100
AcDbEntity
  8
0
  6
Continuous
 62
     7
370
    15
100
AcDbLine
 10
383.1620720607
 20
442.633595801
 30
0.0
 11
384.3620625717
 21
442.633595801
 31
0.0
  0
LINE
  5
AA
330
1F
100
AcDbEntity
  8
0
  6
Continuous
 62
     7
370
    15
100
AcDbLine
 10
384.3620625717
 20
463.655572868
 30
0.0
 11
384.3620625717
 21
443.68059609
 31
0.0
  0
LINE
  5
AB
330
1F
100
AcDbEntity
  8
0
  6
Continuous
 62
     7
370
    15
100
AcDbLine
 10
383.1620720607
 20
442.633595801
 30
0.0
 11
383.1620720607
 21
464.7025582558
 31
0.0
  0
LINE
  5
AC
330
1F
100
AcDbEntity
  8
0
  6
Continuous
 62
     7
370
    15
100
AcDbLine
 10
383.062070368
 20
75.6680783993
 30
0.0
 11
383.062070368
 21
81.6680756575
 31
0.0
  0
LINE
  5
AD
330
1F
100
AcDbEntity
  8
0
  6
Continuous
 62
     7
370
    15
100
AcDbLine
 10
383.062070368
 20
88.6680749423
 30
0.0
 11
383.062070368
 21
91.6680810219
 31
0.0
  0
LINE
  5
AE
330
1F
100
AcDbEntity
  8
0
  6
Continuous
 62
     7
370
    15
100
AcDbLine
 10
383.062070368
 20
85.6680837638
 30
0.0
 11
383.062070368
 21
88.6680749423
 31
0.0
  0
LINE
  5
AF
330
1F
100
AcDbEntity
  8
0
  6
Continuous
 62
     7
370
    15
100
AcDbLine
 10
383.062070368
 20
458.6680797106
 30
0.0
 11
383.062070368
 21
461.6680857903
 31
0.0
  0
LINE
  5
B0
330
1F
100
AcDbEntity
  8
0
  6
Continuous
 62
     7
370
    15
100
AcDbLine
 10
383.062070368
 20
455.6680885321
 30
0.0
 11
383.062070368
 21
458.6680797106
 31
0.0
  0
LINE
  5
B1
330
1F
100
AcDbEntity
  8
0
  6
Continuous
 62
     7
370
    15
100
AcDbLine
 10
383.062070368
 20
445.6680831677
 30
0.0
 11
383.062070368
 21
451.6680804259
 31
0.0
  0
LINE
  5
B2
330
1F
100
AcDbEntity
  8
0
  6
Continuous
 62
     7
370
    15
100
AcDbLine
 10
383.1620720607
 20
94.7025683886
 30
0.0
 11
383.1620720607
 21
95.1680806643
 31
0.0
  0
LINE
  5
B3
330
1F
100
AcDbEntity
  8
0
  6
Continuous
 62
     7
370
    15
100
AcDbLine
 10
383.1620720607
 20
464.7025582558
 30
0.0
 11
383.1620720607
 21
465.1680854327
 31
0.0
  0
LINE
  5
B4
330
1F
100
AcDbEntity
  8
0
  6
Continuous
 62
     7
370
    15
100
AcDbLine
 10
383.1620720607
 20
72.168078757
 30
0.0
 11
383.1620720607
 21
72.6336059338
 31
0.0
  0
LINE
  5
B5
330
1F
100
AcDbEntity
  8
0
  6
Continuous
 62
     7
370
    15
100
AcDbLine
 10
383.1620720607
 20
442.1680835253
 30
0.0
 11
383.1620720607
 21
442.633595801
 31
0.0
  0
LINE
  5
B6
330
1F
100
AcDbEntity
  8
0
  6
Continuous
 62
     7
370
    15
100
AcDbLine
 10
785.2634248716
 20
74.6680763728
 30
0.0
 11
795.8620694858
 21
74.6680763728
 31
0.0
  0
LINE
  5
B7
330
1F
100
AcDbEntity
  8
0
  6
Continuous
 62
     7
370
    15
100
AcDbLine
 10
785.2634248716
 20
109.6680876977
 30
0.0
 11
785.2634248716
 21
74.6680763728
 31
0.0
  0
LINE
  5
B8
330
1F
100
AcDbEntity
  8
0
  6
Continuous
 62
     7
370
    15
100
AcDbLine
 10
785.2634248716
 20
109.6680876977
 30
0.0
 11
795.8620694858
 21
109.6680876977
 31
0.0
  0
LINE
  5
B9
330
1F
100
AcDbEntity
  8
0
  6
Continuous
 62
     7
370
    15
100
AcDbLine
 10
785.2634248716
 20
462.6680878169
 30
0.0
 11
785.2634248716
 21
427.668076492
 31
0.0
  0
LINE
  5
BA
330
1F
100
AcDbEntity
  8
0
  6
Continuous
 62
     7
370
    15
100
AcDbLine
 10
785.2634248716
 20
462.6680878169
 30
0.0
 11
795.8620694858
 21
462.6680878169
 31
0.0
  0
LINE
  5
BB
330
1F
100
AcDbEntity
  8
0
  6
Continuous
 62
     7
370
    15
100
AcDbLine
 10
785.2634248716
 20
427.668076492
 30
0.0
 11
795.8620694858
 21
427.668076492
 31
0.0
  0
LINE
  5
BC
330
1F
100
AcDbEntity
  8
0
  6
Continuous
 62
     7
370
    15
100
AcDbLine
 10
784.7999093515
 20
109.6680876977
 30
0.0
 11
784.7999093515
 21
74.6680763728
 31
0.0
  0
LINE
  5
BD
330
1F
100
AcDbEntity
  8
0
  6
Continuous
 62
     7
370
    15
100
AcDbLine
 10
784.7999093515
 20
109.6680876977
 30
0.0
 11
785.2634248716
 21
109.6680876977
 31
0.0
  0
LINE
  5
BE
330
1F
100
AcDbEntity
  8
0
  6
Continuous
 62
     7
370
    15
100
AcDbLine
 10
784.7999093515
 20
74.6680763728
 30
0.0
 11
785.2634248716
 21
74.6680763728
 31
0.0
  0
LINE
  5
BF
330
1F
100
AcDbEntity
  8
0
  6
Continuous
 62
     7
370
    15
100
AcDbLine
 10
784.7999093515
 20
462.6680878169
 30
0.0
 11
784.7999093515
 21
427.668076492
 31
0.0
  0
LINE
  5
C0
330
1F
100
AcDbEntity
  8
0
  6
Continuous
 62
     7
370
    15
100
AcDbLine
 10
784.7999093515
 20
462.6680878169
 30
0.0
 11
785.2634248716
 21
462.6680878169
 31
0.0
  0
LINE
  5
C1
330
1F
100
AcDbEntity
  8
0
  6
Continuous
 62
     7
370
    15
100
AcDbLine
 10
784.7999093515
 20
427.668076492
 30
0.0
 11
785.2634248716
 21
427.668076492
 31
0.0
  0
LINE
  5
C2
330
1F
100
AcDbEntity
  8
0
  6
Continuous
 62
     7
370
    15
100
AcDbLine
 10
784.3620685321
 20
109.6680876977
 30
0.0
 11
784.7999093515
 21
109.6680876977
 31
0.0
  0
LINE
  5
C3
330
1F
100
AcDbEntity
  8
0
  6
Continuous
 62
     7
370
    15
100
AcDbLine
 10
784.3620685321
 20
74.6680763728
 30
0.0
 11
784.7999093515
 21
74.6680763728
 31
0.0
  0
LINE
  5
C4
330
1F
100
AcDbEntity
  8
0
  6
Continuous
 62
     7
370
    15
100
AcDbLine
 10
784.3620685321
 20
462.6680878169
 30
0.0
 11
784.7999093515
 21
462.6680878169
 31
0.0
  0
LINE
  5
C5
330
1F
100
AcDbEntity
  8
0
  6
Continuous
 62
     7
370
    15
100
AcDbLine
 10
784.3620685321
 20
427.668076492
 30
0.0
 11
784.7999093515
 21
427.668076492
 31
0.0
  0
LINE
  5
C6
330
1F
100
AcDbEntity
  8
0
  6
Continuous
 62
     7
370
    15
100
AcDbLine
 10
376.0925737602
 20
88.9680800206
 30
0.0
 11
375.3620592338
 21
88.9680800206
 31
0.0
  0
LINE
  5
C7
330
1F
100
AcDbEntity
  8
0
  6
Continuous
 62
     7
370
    15
100
AcDbLine
 10
376.0925737602
 20
88.9680800206
 30
0.0
 11
376.0925737602
 21
78.3680794007
 31
0.0
  0
LINE
  5
C8
330
1F
100
AcDbEntity
  8
0
  6
Continuous
 62
     7
370
    15
100
AcDbLine
 10
375.3620592338
 20
78.3680794007
 30
0.0
 11
376.0925737602
 21
78.3680794007
 31
0.0
  0
LINE
  5
C9
330
1F
100
AcDbEntity
  8
0
  6
Continuous
 62
     7
370
    15
100
AcDbLine
 10
375.3620592338
 20
88.9680800206
 30
0.0
 11
375.3620592338
 21
78.3680794007
 31
0.0
  0
ARC
  5
CA
330
1F
100
AcDbEntity
  8
0
  6
Continuous
 62
     7
370
    15
100
AcDbCircle
 10
377.184749554
 20
89.0792480249
 30
0.0
 40
1.097818878412401
100
AcDbArc
 50
97.3340276391
 51
185.8118817723
  0
LINE
  5
CB
330
1F
100
AcDbEntity
  8
0
  6
Continuous
 62
     7
370
    15
100
AcDbLine
 10
377.0446089488
 20
90.1680854327
 30
0.0
 11
380.5880454761
 21
90.1680854327
 31
0.0
  0
LINE
  5
CC
330
1F
100
AcDbEntity
  8
0
  6
Continuous
 62
     7
370
    15
100
AcDbLine
 10
380.5880454761
 20
90.1680854327
 30
0.0
 11
380.5880454761
 21
77.1680888898
 31
0.0
  0
LINE
  5
CD
330
1F
100
AcDbEntity
  8
0
  6
Continuous
 62
     7
370
    15
100
AcDbLine
 10
380.5880454761
 20
77.1680888898
 30
0.0
 11
377.0446089488
 21
77.1680888898
 31
0.0
  0
ARC
  5
CE
330
1F
100
AcDbEntity
  8
0
  6
Continuous
 62
     7
370
    15
100
AcDbCircle
 10
377.184732151
 20
78.2569111102
 30
0.0
 40
1.097801593831413
100
AcDbArc
 50
174.1880113907
 51
262.6667720331
  0
LINE
  5
CF
330
1F
100
AcDbEntity
  8
0
  6
Continuous
 62
     7
370
    15
100
AcDbLine
 10
376.3140944225
 20
90.1680854327
 30
0.0
 11
377.0446089488
 21
90.1680854327
 31
0.0
  0
ARC
  5
D0
330
1F
100
AcDbEntity
  8
0
  6
Continuous
 62
     7
370
    15
100
AcDbCircle
 10
376.4542350276
 20
89.0792480249
 30
0.0
 40
1.097818878412345
100
AcDbArc
 50
97.334027639
 51
185.8118817723
  0
LINE
  5
D1
330
1F
100
AcDbEntity
  8
0
  6
Continuous
 62
     7
370
    15
100
AcDbLine
 10
377.0446089488
 20
77.1680888898
 30
0.0
 11
376.3140944225
 21
77.1680888898
 31
0.0
  0
ARC
  5
D2
330
1F
100
AcDbEntity
  8
0
  6
Continuous
 62
     7
370
    15
100
AcDbCircle
 10
376.4542176246
 20
78.2569111102
 30
0.0
 40
1.097801593831413
100
AcDbArc
 50
174.1880113907
 51
262.6667720331
  0
ARC
  5
D3
330
1F
100
AcDbEntity
  8
0
  6
Continuous
 62
     7
370
    15
100
AcDbCircle
 10
377.184732151
 20
459.0792530795
 30
0.0
 40
1.097801593831411
100
AcDbArc
 50
97.3332279669
 51
185.8119886093
  0
LINE
  5
D4
330
1F
100
AcDbEntity
  8
0
  6
Continuous
 62
     7
370
    15
100
AcDbLine
 10
377.0446089488
 20
460.1680752999
 30
0.0
 11
380.5880454761
 21
460.1680752999
 31
0.0
  0
LINE
  5
D5
330
1F
100
AcDbEntity
  8
0
  6
Continuous
 62
     7
370
    15
100
AcDbLine
 10
380.5880454761
 20
460.1680752999
 30
0.0
 11
380.5880454761
 21
447.168078757
 31
0.0
  0
LINE
  5
D6
330
1F
100
AcDbEntity
  8
0
  6
Continuous
 62
     7
370
    15
100
AcDbLine
 10
380.5880454761
 20
447.168078757
 30
0.0
 11
377.0446089488
 21
447.168078757
 31
0.0
  0
ARC
  5
D7
330
1F
100
AcDbEntity
  8
0
  6
Continuous
 62
     7
370
    15
100
AcDbCircle
 10
377.184749554
 20
448.2569161648
 30
0.0
 40
1.097818878412345
100
AcDbArc
 50
174.1881182277
 51
262.665972361
  0
LINE
  5
D8
330
1F
100
AcDbEntity
  8
0
  6
Continuous
 62
     7
370
    15
100
AcDbLine
 10
376.0925737602
 20
458.968084789
 30
0.0
 11
376.0925737602
 21
448.3680841691
 31
0.0
  0
LINE
  5
D9
330
1F
100
AcDbEntity
  8
0
  6
Continuous
 62
     7
370
    15
100
AcDbLine
 10
376.0925737602
 20
458.968084789
 30
0.0
 11
375.3620592338
 21
458.968084789
 31
0.0
  0
LINE
  5
DA
330
1F
100
AcDbEntity
  8
0
  6
Continuous
 62
     7
370
    15
100
AcDbLine
 10
375.3620592338
 20
448.3680841691
 30
0.0
 11
376.0925737602
 21
448.3680841691
 31
0.0
  0
LINE
  5
DB
330
1F
100
AcDbEntity
  8
0
  6
Continuous
 62
     7
370
    15
100
AcDbLine
 10
375.3620592338
 20
458.968084789
 30
0.0
 11
375.3620592338
 21
448.3680841691
 31
0.0
  0
LINE
  5
DC
330
1F
100
AcDbEntity
  8
0
  6
Continuous
 62
     7
370
    15
100
AcDbLine
 10
377.0446089488
 20
447.168078757
 30
0.0
 11
376.3140944225
 21
447.168078757
 31
0.0
  0
ARC
  5
DD
330
1F
100
AcDbEntity
  8
0
  6
Continuous
 62
     7
370
    15
100
AcDbCircle
 10
376.4542350276
 20
448.2569161648
 30
0.0
 40
1.097818878412401
100
AcDbArc
 50
174.1881182277
 51
262.665972361
  0
LINE
  5
DE
330
1F
100
AcDbEntity
  8
0
  6
Continuous
 62
     7
370
    15
100
AcDbLine
 10
376.3140944225
 20
460.1680752999
 30
0.0
 11
377.0446089488
 21
460.1680752999
 31
0.0
  0
ARC
  5
DF
330
1F
100
AcDbEntity
  8
0
  6
Continuous
 62
     7
370
    15
100
AcDbCircle
 10
376.4542176246
 20
459.0792530795
 30
0.0
 40
1.097801593831411
100
AcDbArc
 50
97.3332279669
 51
185.8119886093
  0
LINE
  5
E0
330
1F
100
AcDbEntity
  8
0
  6
Continuous
 62
     7
370
    15
100
AcDbLine
 10
380.6695846302
 20
90.1680854327
 30
0.0
 11
380.5880454761
 21
90.1680854327
 31
0.0
  0
LINE
  5
E1
330
1F
100
AcDbEntity
  8
0
  6
Continuous
 62
     7
370
    15
100
AcDbLine
 10
380.5880454761
 20
77.1680888898
 30
0.0
 11
380.7215747816
 21
77.1680888898
 31
0.0
  0
LINE
  5
E2
330
1F
100
AcDbEntity
  8
0
  6
Continuous
 62
     7
370
    15
100
AcDbLine
 10
380.6695846302
 20
460.1680752999
 30
0.0
 11
380.5880454761
 21
460.1680752999
 31
0.0
  0
LINE
  5
E3
330
1F
100
AcDbEntity
  8
0
  6
Continuous
 62
     7
370
    15
100
AcDbLine
 10
380.5880454761
 20
447.168078757
 30
0.0
 11
380.7215747816
 21
447.168078757
 31
0.0
  0
LINE
  5
E4
330
1F
100
AcDbEntity
  8
0
  6
Continuous
 62
     7
370
    15
100
AcDbLine
 10
375.3620592338
 20
448.9680794245
 30
0.0
 11
375.2572593671
 21
448.9680794245
 31
0.0
  0
LINE
  5
E5
330
1F
100
AcDbEntity
  8
0
  6
Continuous
 62
     7
370
    15
100
AcDbLine
 10
375.3620592338
 20
457.5680759913
 30
0.0
 11
375.2572593671
 21
457.5680759913
 31
0.0
  0
LINE
  5
E6
330
1F
100
AcDbEntity
  8
0
  6
Continuous
 62
     7
370
    15
100
AcDbLine
 10
380.736222623
 20
445.6680831677
 30
0.0
 11
375.8626637441
 21
445.6680831677
 31
0.0
  0
LINE
  5
E7
330
1F
100
AcDbEntity
  8
0
  6
Continuous
 62
     7
370
    15
100
AcDbLine
 10
380.7279524785
 20
446.4680818087
 30
0.0
 11
375.8620676977
 21
446.4680818087
 31
0.0
  0
LINE
  5
E8
330
1F
100
AcDbEntity
  8
0
  6
Continuous
 62
     7
370
    15
100
AcDbLine
 10
380.6880024654
 20
460.8680871493
 30
0.0
 11
375.8620676977
 21
460.8680871493
 31
0.0
  0
LINE
  5
E9
330
1F
100
AcDbEntity
  8
0
  6
Continuous
 62
     7
370
    15
100
AcDbLine
 10
380.6905356628
 20
461.6680857903
 30
0.0
 11
375.8626637441
 21
461.6680857903
 31
0.0
  0
LINE
  5
EA
330
1F
100
AcDbEntity
  8
0
  6
Continuous
 62
     7
370
    15
100
AcDbLine
 10
379.4620690328
 20
461.9680759675
 30
0.0
 11
380.6254175884
 21
461.9680759675
 31
0.0
  0
LINE
  5
EB
330
1F
100
AcDbEntity
  8
0
  6
Continuous
 62
     7
370
    15
100
AcDbLine
 10
380.7885704023
 20
461.9680759675
 30
0.0
 11
380.8509168607
 21
461.9680759675
 31
0.0
  0
LINE
  5
EC
330
1F
100
AcDbEntity
  8
0
  6
Continuous
 62
     7
370
    15
100
AcDbLine
 10
377.2620615941
 20
461.9680759675
 30
0.0
 11
379.4620690328
 21
461.9680759675
 31
0.0
  0
LINE
  5
ED
330
1F
100
AcDbEntity
  8
0
  6
Continuous
 62
     7
370
    15
100
AcDbLine
 10
379.4620690328
 20
444.8680845267
 30
0.0
 11
380.3255764228
 21
444.8680845267
 31
0.0
  0
LINE
  5
EE
330
1F
100
AcDbEntity
  8
0
  6
Continuous
 62
     7
370
    15
100
AcDbLine
 10
377.3620632869
 20
444.8680845267
 30
0.0
 11
379.4620690328
 21
444.8680845267
 31
0.0
  0
LINE
  5
EF
330
1F
100
AcDbEntity
  8
0
  6
Continuous
 62
     7
370
    15
100
AcDbLine
 10
379.4620690328
 20
445.2680763966
 30
0.0
 11
380.5654553157
 21
445.2680763966
 31
0.0
  0
LINE
  5
F0
330
1F
100
AcDbEntity
  8
0
  6
Continuous
 62
     7
370
    15
100
AcDbLine
 10
377.3620632869
 20
445.2680763966
 30
0.0
 11
379.4620690328
 21
445.2680763966
 31
0.0
  0
ARC
  5
F1
330
1F
100
AcDbEntity
  8
0
  6
Continuous
 62
     7
370
    15
100
AcDbCircle
 10
376.3278004681
 20
460.8703419379
 30
0.0
 40
0.8026958953761126
100
AcDbArc
 50
125.4653655412
 51
180.1609451829
  0
ARC
  5
F2
330
1F
100
AcDbEntity
  8
0
  6
Continuous
 62
     7
370
    15
100
AcDbCircle
 10
376.3278123136
 20
446.4658182546
 30
0.0
 40
0.8027077655065461
100
AcDbArc
 50
179.8384315233
 51
234.5341999199
  0
LINE
  5
F3
330
1F
100
AcDbEntity
  8
0
  6
Continuous
 62
     7
370
    15
100
AcDbLine
 10
376.3129470331
 20
446.9180819756
 30
0.0
 11
376.3129470331
 21
446.4680818087
 31
0.0
  0
LINE
  5
F4
330
1F
100
AcDbEntity
  8
0
  6
Continuous
 62
     7
370
    15
100
AcDbLine
 10
376.3129470331
 20
460.8680871493
 30
0.0
 11
376.3129470331
 21
460.4180869824
 31
0.0
  0
LINE
  5
F5
330
1F
100
AcDbEntity
  8
0
  6
Continuous
 62
     7
370
    15
100
AcDbLine
 10
375.5251077396
 20
446.4680818087
 30
0.0
 11
375.5251077396
 21
447.6965186364
 31
0.0
  0
LINE
  5
F6
330
1F
100
AcDbEntity
  8
0
  6
Continuous
 62
     7
370
    15
100
AcDbLine
 10
375.5251077396
 20
459.6396354205
 30
0.0
 11
375.5251077396
 21
460.8680871493
 31
0.0
  0
SPLINE
  5
F7
330
1F
100
AcDbEntity
  8
0
  6
Continuous
 62
     7
370
    15
100
AcDbSpline
210
0.0
220
0.0
230
1.0
 70
    24
 71
     3
 72
    12
 73
     8
 74
     0
 42
0.00000001
 43
0.00000001
 40
0.0
 40
0.0
 40
0.0
 40
0.0
 40
0.21850475705506
 40
0.4370160926338405
 40
0.655518294428951
 40
0.8740298516726993
 40
1.0
 40
1.0
 40
1.0
 40
1.0
 10
382.5214115363565
 20
460.3604790932389
 30
0.0
 10
382.3246918405881
 20
460.3604790932389
 30
0.0
 10
381.9312465264105
 20
460.360479093239
 30
0.0
 10
381.3704909216553
 20
460.3604790932388
 30
0.0
 10
380.9528203569118
 20
460.360479093239
 30
0.0
 10
380.7262646945304
 20
460.360479093239
 30
0.0
 10
380.7437909186094
 20
460.3604790932389
 30
0.0
 10
380.750199912211
 20
460.3604790932389
 30
0.0
  0
SPLINE
  5
F8
330
1F
100
AcDbEntity
  8
0
  6
Continuous
 62
     7
370
    15
100
AcDbSpline
210
0.0
220
0.0
230
1.0
 70
    24
 71
     3
 72
     9
 73
     5
 74
     0
 42
0.00000001
 43
0.00000001
 40
0.0
 40
0.0
 40
0.0
 40
0.0
 40
0.002532084591488
 40
1.0
 40
1.0
 40
1.0
 40
1.0
 10
383.0620703679529
 20
460.3604790932389
 30
0.0
 10
383.0617228120806
 20
460.3604790932389
 30
0.0
 10
382.9244620453987
 20
460.3604790932426
 30
0.0
 10
382.7226813279549
 20
460.3604790932407
 30
0.0
 10
382.5214115363565
 20
460.3604790932389
 30
0.0
  0
SPLINE
  5
F9
330
1F
100
AcDbEntity
  8
0
  6
Continuous
 62
     7
370
    15
100
AcDbSpline
210
0.0
220
0.0
230
1.0
 70
     8
 71
     3
 72
    13
 73
     9
 74
     0
 42
0.00000001
 43
0.00000001
 40
0.0
 40
0.0
 40
0.0
 40
0.0
 40
0.1877395758425157
 40
0.3754738321006785
 40
0.5632120331556514
 40
0.7509475412553512
 40
0.9386853892717286
 40
1.0
 40
1.0
 40
1.0
 40
1.0
 10
382.2281268817392
 20
463.975321984932
 30
0.0
 10
382.0314300082418
 20
463.9726203334856
 30
0.0
 10
381.6380418346357
 20
463.9672171071438
 30
0.0
 10
381.1050262094148
 20
463.6766753343489
 30
0.0
 10
380.7145104704528
 20
463.2217756687088
 30
0.0
 10
380.5415348229721
 20
462.6601031448528
 30
0.0
 10
380.5448324672191
 20
462.1869052571985
 30
0.0
 10
380.672166107889
 20
461.9654742575368
 30
0.0
 10
380.7035145741907
 20
461.9109598166199
 30
0.0
  0
SPLINE
  5
FA
330
1F
100
AcDbEntity
  8
0
  6
Continuous
 62
     7
370
    15
100
AcDbSpline
210
0.0
220
0.0
230
1.0
 70
     8
 71
     3
 72
    10
 73
     6
 74
     0
 42
0.00000001
 43
0.00000001
 40
0.0
 40
0.0
 40
0.0
 40
0.0
 40
0.2093381590159411
 40
0.6046681624693032
 40
0.9999999999999999
 40
0.9999999999999999
 40
0.9999999999999999
 40
0.9999999999999999
 10
383.3652940970865
 20
463.1691989666672
 30
0.0
 10
383.3235914446477
 20
463.2622619904716
 30
0.0
 10
383.2031343510209
 20
463.5310722631047
 30
0.0
 10
382.7964335387418
 20
463.8477296753148
 30
0.0
 10
382.4175627270256
 20
463.9327911492881
 30
0.0
 10
382.2281268817392
 20
463.975321984932
 30
0.0
  0
SPLINE
  5
FB
330
1F
100
AcDbEntity
  8
0
  6
Continuous
 62
     7
370
    15
100
AcDbSpline
210
0.0
220
0.0
230
1.0
 70
     8
 71
     3
 72
    13
 73
     9
 74
     0
 42
0.00000001
 43
0.00000001
 40
0.0
 40
0.0
 40
0.0
 40
0.0
 40
0.1768608012637254
 40
0.3537258533392639
 40
0.530590630319506
 40
0.7074557345593472
 40
0.8843198250892601
 40
1.0
 40
1.0
 40
1.0
 40
1.0
 10
382.2109011393991
 20
443.3321324354859
 30
0.0
 10
382.0142338999563
 20
443.3348200109136
 30
0.0
 10
381.6208946942152
 20
443.3401952263641
 30
0.0
 10
381.0875108488721
 20
443.6308740904245
 30
0.0
 10
380.6983774981038
 20
444.0852393164393
 30
0.0
 10
380.5202209601907
 20
444.6489369831887
 30
0.0
 10
380.5411808915525
 20
445.1820928481871
 30
0.0
 10
380.7072755266917
 20
445.4553599611761
 30
0.0
 10
380.772953985354
 20
445.5634174114915
 30
0.0
  0
SPLINE
  5
FC
330
1F
100
AcDbEntity
  8
0
  6
Continuous
 62
     7
370
    15
100
AcDbSpline
210
0.0
220
0.0
230
1.0
 70
     8
 71
     3
 72
    10
 73
     6
 74
     0
 42
0.00000001
 43
0.00000001
 40
0.0
 40
0.0
 40
0.0
 40
0.0
 40
0.0588280775976518
 40
0.5294138126066582
 40
1.0
 40
1.0
 40
1.0
 40
1.0
 10
383.2410184127298
 20
443.932038283989
 30
0.0
 10
383.2303787427697
 20
443.9105574107947
 30
0.0
 10
383.134628746024
 20
443.717243751054
 30
0.0
 10
382.773795699112
 20
443.463044322122
 30
0.0
 10
382.3985327194281
 20
443.3757697450145
 30
0.0
 10
382.2109011393991
 20
443.3321324354859
 30
0.0
  0
SPLINE
  5
FD
330
1F
100
AcDbEntity
  8
0
  6
Continuous
 62
     7
370
    15
100
AcDbSpline
210
0.0
220
0.0
230
1.0
 70
    24
 71
     3
 72
    12
 73
     8
 74
     0
 42
0.00000001
 43
0.00000001
 40
0.0
 40
0.0
 40
0.0
 40
0.0
 40
0.2193528834461185
 40
0.4387123709505026
 40
0.6580626892184281
 40
0.8774223992481727
 40
1.0
 40
1.0
 40
1.0
 40
1.0
 10
382.5214115363565
 20
446.8018529183122
 30
0.0
 10
382.3246964620455
 20
446.8018529183122
 30
0.0
 10
381.9312603909219
 20
446.8018529183122
 30
0.0
 10
381.3704354626275
 20
446.8018529183121
 30
0.0
 10
380.9530283221093
 20
446.8018529183121
 30
0.0
 10
380.7271889813691
 20
446.8018529183121
 30
0.0
 10
380.7441606251288
 20
446.8018529183122
 30
0.0
 10
380.7502446156946
 20
446.8018529183122
 30
0.0
  0
SPLINE
  5
FE
330
1F
100
AcDbEntity
  8
0
  6
Continuous
 62
     7
370
    15
100
AcDbSpline
210
0.0
220
0.0
230
1.0
 70
    24
 71
     3
 72
     9
 73
     5
 74
     0
 42
0.00000001
 43
0.00000001
 40
0.0
 40
0.0
 40
0.0
 40
0.0
 40
0.002532084591488
 40
1.0
 40
1.0
 40
1.0
 40
1.0
 10
383.0620703679529
 20
446.8018529183121
 30
0.0
 10
383.0617228120806
 20
446.8018529183122
 30
0.0
 10
382.9244620453987
 20
446.8018529183118
 30
0.0
 10
382.7226813279549
 20
446.801852918312
 30
0.0
 10
382.5214115363565
 20
446.8018529183121
 30
0.0
  0
SPLINE
  5
FF
330
1F
100
AcDbEntity
  8
0
  6
Continuous
 62
     7
370
    15
100
AcDbSpline
210
0.0
220
0.0
230
1.0
 70
     8
 71
     3
 72
    13
 73
     9
 74
     0
 42
0.00000001
 43
0.00000001
 40
0.0
 40
0.0
 40
0.0
 40
0.0
 40
0.1768608587238816
 40
0.3537259682609574
 40
0.5305908027026474
 40
0.7074517176621629
 40
0.8843158656533007
 40
1.0
 40
1.0
 40
1.0
 40
1.0
 10
380.6590495091883
 20
466.5917274719926
 30
0.0
 10
380.4623822991759
 20
466.5890398918343
 30
0.0
 10
380.0690431522964
 20
466.5836646669223
 30
0.0
 10
379.535658865483
 20
466.2929858738234
 30
0.0
 10
379.1465303068152
 20
465.8386240147753
 30
0.0
 10
378.9683663931921
 20
465.2749331799496
 30
0.0
 10
378.9893329749332
 20
464.7417792058335
 30
0.0
 10
379.1554239841421
 20
464.4685049755213
 30
0.0
 10
379.2211023551432
 20
464.360442495987
 30
0.0
  0
SPLINE
  5
100
330
1F
100
AcDbEntity
  8
0
  6
Continuous
 62
     7
370
    15
100
AcDbSpline
210
0.0
220
0.0
230
1.0
 70
     8
 71
     3
 72
    10
 73
     6
 74
     0
 42
0.00000001
 43
0.00000001
 40
0.0
 40
0.0
 40
0.0
 40
0.0
 40
0.1474583140153851
 40
0.5737289521160597
 40
1.0
 40
1.0
 40
1.0
 40
1.0
 10
381.7476389390436
 20
465.8792135483476
 30
0.0
 10
381.7195765560429
 20
465.9395052756577
 30
0.0
 10
381.6103917894842
 20
466.1740875693846
 30
0.0
 10
381.2253454291769
 20
466.4629125877836
 30
0.0
 10
380.8478148763391
 20
466.5487891634971
 30
0.0
 10
380.6590495091883
 20
466.5917274719926
 30
0.0
  0
SPLINE
  5
101
330
1F
100
AcDbEntity
  8
0
  6
Continuous
 62
     7
370
    15
100
AcDbSpline
210
0.0
220
0.0
230
1.0
 70
     8
 71
     3
 72
    13
 73
     9
 74
     0
 42
0.00000001
 43
0.00000001
 40
0.0
 40
0.0
 40
0.0
 40
0.0
 40
0.1768608012637254
 40
0.3537258533392639
 40
0.530590630319506
 40
0.7074557345593472
 40
0.8843198250892601
 40
1.0
 40
1.0
 40
1.0
 40
1.0
 10
380.6418237668482
 20
440.7157120472642
 30
0.0
 10
380.4451565274053
 20
440.7183996226918
 30
0.0
 10
380.0518173216643
 20
440.7237748381424
 30
0.0
 10
379.5184334763211
 20
441.0144537022027
 30
0.0
 10
379.1293001255529
 20
441.4688189282176
 30
0.0
 10
378.9511435876397
 20
442.0325165949669
 30
0.0
 10
378.9721035190015
 20
442.5656724599654
 30
0.0
 10
379.1381981541408
 20
442.8389395729544
 30
0.0
 10
379.2038766128031
 20
442.9469970232698
 30
0.0
  0
SPLINE
  5
102
330
1F
100
AcDbEntity
  8
0
  6
Continuous
 62
     7
370
    15
100
AcDbSpline
210
0.0
220
0.0
230
1.0
 70
     8
 71
     3
 72
    10
 73
     6
 74
     0
 42
0.00000001
 43
0.00000001
 40
0.0
 40
0.0
 40
0.0
 40
0.0
 40
0.1474609766504071
 40
0.5737343911954349
 40
1.0
 40
1.0
 40
1.0
 40
1.0
 10
381.7304131967035
 20
441.4282408720704
 30
0.0
 10
381.7023568418217
 20
441.3679435331193
 30
0.0
 10
381.5931964656125
 20
441.1333414177686
 30
0.0
 10
381.2081156189464
 20
440.84453355215
 30
0.0
 10
380.8305865653447
 20
440.7586522867867
 30
0.0
 10
380.6418237668482
 20
440.7157120472642
 30
0.0
  0
LINE
  5
103
330
1F
100
AcDbEntity
  8
0
  6
Continuous
 62
     7
370
    15
100
AcDbLine
 10
375.3620592338
 20
87.5680861241
 30
0.0
 11
375.2572593671
 21
87.5680861241
 31
0.0
  0
LINE
  5
104
330
1F
100
AcDbEntity
  8
0
  6
Continuous
 62
     7
370
    15
100
AcDbLine
 10
375.3620592338
 20
78.9680746562
 30
0.0
 11
375.2572593671
 21
78.9680746562
 31
0.0
  0
LINE
  5
105
330
1F
100
AcDbEntity
  8
0
  6
Continuous
 62
     7
370
    15
100
AcDbLine
 10
380.7279524785
 20
76.4680770404
 30
0.0
 11
375.8620676977
 21
76.4680770404
 31
0.0
  0
LINE
  5
106
330
1F
100
AcDbEntity
  8
0
  6
Continuous
 62
     7
370
    15
100
AcDbLine
 10
380.736222623
 20
75.6680783993
 30
0.0
 11
375.8626637441
 21
75.6680783993
 31
0.0
  0
LINE
  5
107
330
1F
100
AcDbEntity
  8
0
  6
Continuous
 62
     7
370
    15
100
AcDbLine
 10
380.7302174551
 20
90.8680823809
 30
0.0
 11
375.8620676977
 21
90.8680823809
 31
0.0
  0
LINE
  5
108
330
1F
100
AcDbEntity
  8
0
  6
Continuous
 62
     7
370
    15
100
AcDbLine
 10
380.6905356628
 20
91.6680810219
 30
0.0
 11
375.8626637441
 21
91.6680810219
 31
0.0
  0
LINE
  5
109
330
1F
100
AcDbEntity
  8
0
  6
Continuous
 62
     7
370
    15
100
AcDbLine
 10
379.4620690328
 20
91.9680861003
 30
0.0
 11
380.6254175884
 21
91.9680861003
 31
0.0
  0
LINE
  5
10A
330
1F
100
AcDbEntity
  8
0
  6
Continuous
 62
     7
370
    15
100
AcDbLine
 10
380.7885704023
 20
91.9680861003
 30
0.0
 11
380.8509168607
 21
91.9680861003
 31
0.0
  0
LINE
  5
10B
330
1F
100
AcDbEntity
  8
0
  6
Continuous
 62
     7
370
    15
100
AcDbLine
 10
377.2620615941
 20
91.9680861003
 30
0.0
 11
379.4620690328
 21
91.9680861003
 31
0.0
  0
LINE
  5
10C
330
1F
100
AcDbEntity
  8
0
  6
Continuous
 62
     7
370
    15
100
AcDbLine
 10
379.4620690328
 20
75.2680865294
 30
0.0
 11
380.5654553157
 21
75.2680865294
 31
0.0
  0
LINE
  5
10D
330
1F
100
AcDbEntity
  8
0
  6
Continuous
 62
     7
370
    15
100
AcDbLine
 10
377.3620632869
 20
75.2680865294
 30
0.0
 11
379.4620690328
 21
75.2680865294
 31
0.0
  0
LINE
  5
10E
330
1F
100
AcDbEntity
  8
0
  6
Continuous
 62
     7
370
    15
100
AcDbLine
 10
379.4620690328
 20
74.8680797583
 30
0.0
 11
380.3255764228
 21
74.8680797583
 31
0.0
  0
LINE
  5
10F
330
1F
100
AcDbEntity
  8
0
  6
Continuous
 62
     7
370
    15
100
AcDbLine
 10
377.3620632869
 20
74.8680797583
 30
0.0
 11
379.4620690328
 21
74.8680797583
 31
0.0
  0
ARC
  5
110
330
1F
100
AcDbEntity
  8
0
  6
Continuous
 62
     7
370
    15
100
AcDbCircle
 10
376.3278004681
 20
76.4658222518
 30
0.0
 40
0.8026958953761011
100
AcDbArc
 50
179.8390548171
 51
234.5346344588
  0
ARC
  5
111
330
1F
100
AcDbEntity
  8
0
  6
Continuous
 62
     7
370
    15
100
AcDbCircle
 10
376.3278123136
 20
90.8703459351
 30
0.0
 40
0.802707765506467
100
AcDbArc
 50
125.4658000801
 51
180.1615684768
  0
LINE
  5
112
330
1F
100
AcDbEntity
  8
0
  6
Continuous
 62
     7
370
    15
100
AcDbLine
 10
376.3129470331
 20
76.9180772073
 30
0.0
 11
376.3129470331
 21
76.4680770404
 31
0.0
  0
LINE
  5
113
330
1F
100
AcDbEntity
  8
0
  6
Continuous
 62
     7
370
    15
100
AcDbLine
 10
376.3129470331
 20
90.8680823809
 30
0.0
 11
376.3129470331
 21
90.418082214
 31
0.0
  0
LINE
  5
114
330
1F
100
AcDbEntity
  8
0
  6
Continuous
 62
     7
370
    15
100
AcDbLine
 10
375.5251077396
 20
76.4680770404
 30
0.0
 11
375.5251077396
 21
77.6965287692
 31
0.0
  0
LINE
  5
115
330
1F
100
AcDbEntity
  8
0
  6
Continuous
 62
     7
370
    15
100
AcDbLine
 10
375.5251077396
 20
89.6396455533
 30
0.0
 11
375.5251077396
 21
90.8680823809
 31
0.0
  0
SPLINE
  5
116
330
1F
100
AcDbEntity
  8
0
  6
Continuous
 62
     7
370
    15
100
AcDbSpline
210
0.0
220
0.0
230
1.0
 70
    24
 71
     3
 72
    12
 73
     8
 74
     0
 42
0.00000001
 43
0.00000001
 40
0.0
 40
0.0
 40
0.0
 40
0.0
 40
0.21850475705506
 40
0.4370160926338405
 40
0.655518294428951
 40
0.8740298516726993
 40
1.0
 40
1.0
 40
1.0
 40
1.0
 10
382.5214115363565
 20
90.36047432486733
 30
0.0
 10
382.3246918405881
 20
90.36047432486733
 30
0.0
 10
381.9312465264105
 20
90.36047432486733
 30
0.0
 10
381.3704909216553
 20
90.36047432486741
 30
0.0
 10
380.9528203569118
 20
90.3604743248673
 30
0.0
 10
380.7262646945304
 20
90.36047432486733
 30
0.0
 10
380.7437909186094
 20
90.3604743248673
 30
0.0
 10
380.750199912211
 20
90.36047432486733
 30
0.0
  0
SPLINE
  5
117
330
1F
100
AcDbEntity
  8
0
  6
Continuous
 62
     7
370
    15
100
AcDbSpline
210
0.0
220
0.0
230
1.0
 70
    24
 71
     3
 72
     9
 73
     5
 74
     0
 42
0.00000001
 43
0.00000001
 40
0.0
 40
0.0
 40
0.0
 40
0.0
 40
0.1970246968420801
 40
1.0
 40
1.0
 40
1.0
 40
1.0
 10
383.1620720607248
 20
90.36047432486733
 30
0.0
 10
383.1294202463098
 20
90.36047432486735
 30
0.0
 10
382.963695771468
 20
90.36047432486721
 30
0.0
 10
382.7183877884153
 20
90.3604743248673
 30
0.0
 10
382.5214115363565
 20
90.36047432486733
 30
0.0
  0
SPLINE
  5
118
330
1F
100
AcDbEntity
  8
0
  6
Continuous
 62
     7
370
    15
100
AcDbSpline
210
0.0
220
0.0
230
1.0
 70
     8
 71
     3
 72
    13
 73
     9
 74
     0
 42
0.00000001
 43
0.00000001
 40
0.0
 40
0.0
 40
0.0
 40
0.0
 40
0.1877391448433487
 40
0.3754707580642599
 40
0.5632085281232221
 40
0.7509481130122744
 40
0.9386855300334515
 40
1.0
 40
1.0
 40
1.0
 40
1.0
 10
382.2281268817392
 20
93.97531721656044
 30
0.0
 10
382.0314306479206
 20
93.97261434628645
 30
0.0
 10
381.6380460712417
 20
93.96720871417088
 30
0.0
 10
381.1050226084714
 20
93.67668802811744
 30
0.0
 10
380.7145069099134
 20
93.22178133660685
 30
0.0
 10
380.5415367316542
 20
92.66010280755808
 30
0.0
 10
380.5448323354382
 20
92.18690051951994
 30
0.0
 10
380.672166081855
 20
91.96546949522872
 30
0.0
 10
380.7035145741907
 20
91.91095504824834
 30
0.0
  0
SPLINE
  5
119
330
1F
100
AcDbEntity
  8
0
  6
Continuous
 62
     7
370
    15
100
AcDbSpline
210
0.0
220
0.0
230
1.0
 70
     8
 71
     3
 72
    10
 73
     6
 74
     0
 42
0.00000001
 43
0.00000001
 40
0.0
 40
0.0
 40
0.0
 40
0.0
 40
0.2093464124199966
 40
0.6046691310223726
 40
1.0
 40
1.0
 40
1.0
 40
1.0
 10
383.3652940970865
 20
93.16919419829567
 30
0.0
 10
383.3235925022463
 20
93.26226304271246
 30
0.0
 10
383.2031430193876
 20
93.53107996022352
 30
0.0
 10
382.7964273652943
 20
93.8477221996433
 30
0.0
 10
382.4175616780908
 20
93.93278525196664
 30
0.0
 10
382.2281268817392
 20
93.97531721656044
 30
0.0
  0
SPLINE
  5
11A
330
1F
100
AcDbEntity
  8
0
  6
Continuous
 62
     7
370
    15
100
AcDbSpline
210
0.0
220
0.0
230
1.0
 70
     8
 71
     3
 72
    13
 73
     9
 74
     0
 42
0.00000001
 43
0.00000001
 40
0.0
 40
0.0
 40
0.0
 40
0.0
 40
0.1768619017638906
 40
0.3537276298646171
 40
0.5305930828689958
 40
0.707454616377492
 40
0.8843193829289175
 40
1.0
 40
1.0
 40
1.0
 40
1.0
 10
382.2109011393991
 20
73.33212766711434
 30
0.0
 10
382.0142340367795
 20
73.33482148162545
 30
0.0
 10
381.6208955767258
 20
73.34020916892736
 30
0.0
 10
381.0875104644885
 20
73.63088304912117
 30
0.0
 10
380.6983816943538
 20
74.08524646661108
 30
0.0
 10
380.5202190252782
 20
74.64893621314936
 30
0.0
 10
380.5411812147314
 20
75.18208820533093
 30
0.0
 10
380.7072756182722
 20
75.45535522837227
 30
0.0
 10
380.772953985354
 20
75.56341264311989
 30
0.0
  0
SPLINE
  5
11B
330
1F
100
AcDbEntity
  8
0
  6
Continuous
 62
     7
370
    15
100
AcDbSpline
210
0.0
220
0.0
230
1.0
 70
     8
 71
     3
 72
    10
 73
     6
 74
     0
 42
0.00000001
 43
0.00000001
 40
0.0
 40
0.0
 40
0.0
 40
0.0
 40
0.0588283164912342
 40
0.5294084437569221
 40
1.0
 40
1.0
 40
1.0
 40
1.0
 10
383.2410184127298
 20
73.93203351561742
 30
0.0
 10
383.2303787742198
 20
73.91055259958526
 30
0.0
 10
383.1346304203381
 20
73.71724129976701
 30
0.0
 10
382.7737874960353
 20
73.4630602585084
 30
0.0
 10
382.3985314438997
 20
73.37577221756872
 30
0.0
 10
382.2109011393991
 20
73.3321276671143
 30
0.0
  0
SPLINE
  5
11C
330
1F
100
AcDbEntity
  8
0
  6
Continuous
 62
     7
370
    15
100
AcDbSpline
210
0.0
220
0.0
230
1.0
 70
    24
 71
     3
 72
    12
 73
     8
 74
     0
 42
0.00000001
 43
0.00000001
 40
0.0
 40
0.0
 40
0.0
 40
0.0
 40
0.2193528834461185
 40
0.4387123709505026
 40
0.6580626892184281
 40
0.8774223992481727
 40
1.0
 40
1.0
 40
1.0
 40
1.0
 10
382.5214115363565
 20
76.80184814994054
 30
0.0
 10
382.3246964620455
 20
76.80184814994051
 30
0.0
 10
381.9312603909219
 20
76.80184814994048
 30
0.0
 10
381.3704354626275
 20
76.80184814994062
 30
0.0
 10
380.9530283221093
 20
76.80184814994057
 30
0.0
 10
380.7271889813691
 20
76.80184814994062
 30
0.0
 10
380.7441606251288
 20
76.80184814994051
 30
0.0
 10
380.7502446156946
 20
76.80184814994054
 30
0.0
  0
SPLINE
  5
11D
330
1F
100
AcDbEntity
  8
0
  6
Continuous
 62
     7
370
    15
100
AcDbSpline
210
0.0
220
0.0
230
1.0
 70
    24
 71
     3
 72
     9
 73
     5
 74
     0
 42
0.00000001
 43
0.00000001
 40
0.0
 40
0.0
 40
0.0
 40
0.0
 40
0.1970246968420801
 40
1.0
 40
1.0
 40
1.0
 40
1.0
 10
383.1620720607248
 20
76.80184814994057
 30
0.0
 10
383.1294202463098
 20
76.80184814994057
 30
0.0
 10
382.963695771468
 20
76.80184814994048
 30
0.0
 10
382.7183877884153
 20
76.80184814994054
 30
0.0
 10
382.5214115363565
 20
76.80184814994057
 30
0.0
  0
SPLINE
  5
11E
330
1F
100
AcDbEntity
  8
0
  6
Continuous
 62
     7
370
    15
100
AcDbSpline
210
0.0
220
0.0
230
1.0
 70
     8
 71
     3
 72
    13
 73
     9
 74
     0
 42
0.00000001
 43
0.00000001
 40
0.0
 40
0.0
 40
0.0
 40
0.0
 40
0.1768619017638906
 40
0.3537276298646171
 40
0.5305930828689958
 40
0.707454616377492
 40
0.8843193829289175
 40
1.0
 40
1.0
 40
1.0
 40
1.0
 10
380.6590495091883
 20
96.59173760478218
 30
0.0
 10
380.4623824065686
 20
96.58904379027103
 30
0.0
 10
380.0690439465149
 20
96.5836561029692
 30
0.0
 10
379.5356588342776
 20
96.29298222277532
 30
0.0
 10
379.1465300641429
 20
95.83861880528555
 30
0.0
 10
378.9683673950673
 20
95.27492905874705
 30
0.0
 10
378.9893295845206
 20
94.74177706656553
 30
0.0
 10
379.1554239880613
 20
94.46851004352428
 30
0.0
 10
379.2211023551432
 20
94.36045262877663
 30
0.0
  0
SPLINE
  5
11F
330
1F
100
AcDbEntity
  8
0
  6
Continuous
 62
     7
370
    15
100
AcDbSpline
210
0.0
220
0.0
230
1.0
 70
     8
 71
     3
 72
    10
 73
     6
 74
     0
 42
0.00000001
 43
0.00000001
 40
0.0
 40
0.0
 40
0.0
 40
0.0
 40
0.1474578521452845
 40
0.5737271550776858
 40
0.9999999999999999
 40
0.9999999999999999
 40
0.9999999999999999
 40
0.9999999999999999
 10
381.7476389390436
 20
95.87920877997594
 30
0.0
 10
381.7195765734054
 20
95.93950056547651
 30
0.0
 10
381.6103918744009
 20
96.17408308561059
 30
0.0
 10
381.2253430514147
 20
96.46290479709305
 30
0.0
 10
380.847814546093
 20
96.5487932166078
 30
0.0
 10
380.6590495091883
 20
96.59173760478215
 30
0.0
  0
SPLINE
  5
120
330
1F
100
AcDbEntity
  8
0
  6
Continuous
 62
     7
370
    15
100
AcDbSpline
210
0.0
220
0.0
230
1.0
 70
     8
 71
     3
 72
    13
 73
     9
 74
     0
 42
0.00000001
 43
0.00000001
 40
0.0
 40
0.0
 40
0.0
 40
0.0
 40
0.1768619017638906
 40
0.3537276298646171
 40
0.5305930828689958
 40
0.707454616377492
 40
0.8843193829289175
 40
1.0
 40
1.0
 40
1.0
 40
1.0
 10
380.6418237668482
 20
70.7157072788926
 30
0.0
 10
380.4451566642286
 20
70.71840109340374
 30
0.0
 10
380.0518182041749
 20
70.72378878070565
 30
0.0
 10
379.5184330919375
 20
71.01446266089943
 30
0.0
 10
379.1293043218029
 20
71.46882607838937
 30
0.0
 10
378.9511416527272
 20
72.03251582492761
 30
0.0
 10
378.9721038421805
 20
72.56566781710922
 30
0.0
 10
379.1381982457212
 20
72.83893484015053
 30
0.0
 10
379.2038766128031
 20
72.94699225489815
 30
0.0
  0
SPLINE
  5
121
330
1F
100
AcDbEntity
  8
0
  6
Continuous
 62
     7
370
    15
100
AcDbSpline
210
0.0
220
0.0
230
1.0
 70
     8
 71
     3
 72
    10
 73
     6
 74
     0
 42
0.00000001
 43
0.00000001
 40
0.0
 40
0.0
 40
0.0
 40
0.0
 40
0.1474524562652673
 40
0.5737285649287461
 40
1.0
 40
1.0
 40
1.0
 40
1.0
 10
381.7304131967035
 20
71.42823610369881
 30
0.0
 10
381.7023563112432
 20
71.36794401044818
 30
0.0
 10
381.5931886714548
 20
71.13335113208336
 30
0.0
 10
381.2081146979138
 20
70.84454581525254
 30
0.0
 10
380.8305867206781
 20
70.75865330072745
 30
0.0
 10
380.6418237668482
 20
70.7157072788926
 30
0.0
  0
LINE
  5
122
330
1F
100
AcDbEntity
  8
0
  6
Continuous
 62
     7
370
    15
100
AcDbLine
 10
785.2634248716
 20
73.6680892474
 30
0.0
 11
785.2634248716
 21
38.6680779225
 31
0.0
  0
LINE
  5
123
330
1F
100
AcDbEntity
  8
0
  6
Continuous
 62
     7
370
    15
100
AcDbLine
 10
795.8620694858
 20
73.6680892474
 30
0.0
 11
785.2634248716
 21
73.6680892474
 31
0.0
  0
LINE
  5
124
330
1F
100
AcDbEntity
  8
0
  6
Continuous
 62
     7
370
    15
100
AcDbLine
 10
795.8620694858
 20
38.6680779225
 30
0.0
 11
785.2634248716
 21
38.6680779225
 31
0.0
  0
LINE
  5
125
330
1F
100
AcDbEntity
  8
0
  6
Continuous
 62
     7
370
    15
100
AcDbLine
 10
785.2634248716
 20
498.6680862672
 30
0.0
 11
785.2634248716
 21
463.6680749423
 31
0.0
  0
LINE
  5
126
330
1F
100
AcDbEntity
  8
0
  6
Continuous
 62
     7
370
    15
100
AcDbLine
 10
795.8620694858
 20
498.6680862672
 30
0.0
 11
785.2634248716
 21
498.6680862672
 31
0.0
  0
LINE
  5
127
330
1F
100
AcDbEntity
  8
0
  6
Continuous
 62
     7
370
    15
100
AcDbLine
 10
795.8620694858
 20
463.6680749423
 30
0.0
 11
785.2634248716
 21
463.6680749423
 31
0.0
  0
LINE
  5
128
330
1F
100
AcDbEntity
  8
0
  6
Continuous
 62
     7
370
    15
100
AcDbLine
 10
792.8620634061
 20
110.6680748231
 30
0.0
 11
787.8620681745
 21
110.6680748231
 31
0.0
  0
LINE
  5
129
330
1F
100
AcDbEntity
  8
0
  6
Continuous
 62
     7
370
    15
100
AcDbLine
 10
787.8620681745
 20
426.6680893666
 30
0.0
 11
792.8620634061
 21
426.6680893666
 31
0.0
  0
LINE
  5
12A
330
1F
100
AcDbEntity
  8
0
  6
Continuous
 62
     7
370
    15
100
AcDbLine
 10
784.7999093515
 20
38.6680779225
 30
0.0
 11
784.7999093515
 21
73.6680892474
 31
0.0
  0
LINE
  5
12B
330
1F
100
AcDbEntity
  8
0
  6
Continuous
 62
     7
370
    15
100
AcDbLine
 10
784.7999093515
 20
73.6680892474
 30
0.0
 11
785.2634248716
 21
73.6680892474
 31
0.0
  0
LINE
  5
12C
330
1F
100
AcDbEntity
  8
0
  6
Continuous
 62
     7
370
    15
100
AcDbLine
 10
785.2634248716
 20
38.6680779225
 30
0.0
 11
784.7999093515
 21
38.6680779225
 31
0.0
  0
LINE
  5
12D
330
1F
100
AcDbEntity
  8
0
  6
Continuous
 62
     7
370
    15
100
AcDbLine
 10
784.7999093515
 20
463.6680749423
 30
0.0
 11
784.7999093515
 21
498.6680862672
 31
0.0
  0
LINE
  5
12E
330
1F
100
AcDbEntity
  8
0
  6
Continuous
 62
     7
370
    15
100
AcDbLine
 10
784.7999093515
 20
498.6680862672
 30
0.0
 11
785.2634248716
 21
498.6680862672
 31
0.0
  0
LINE
  5
12F
330
1F
100
AcDbEntity
  8
0
  6
Continuous
 62
     7
370
    15
100
AcDbLine
 10
785.2634248716
 20
463.6680749423
 30
0.0
 11
784.7999093515
 21
463.6680749423
 31
0.0
  0
LINE
  5
130
330
1F
100
AcDbEntity
  8
0
  6
Continuous
 62
     7
370
    15
100
AcDbLine
 10
784.7999093515
 20
498.6680862672
 30
0.0
 11
784.3620685321
 21
498.6680862672
 31
0.0
  0
LINE
  5
131
330
1F
100
AcDbEntity
  8
0
  6
Continuous
 62
     7
370
    15
100
AcDbLine
 10
784.7999093515
 20
463.6680749423
 30
0.0
 11
784.3620685321
 21
463.6680749423
 31
0.0
  0
LINE
  5
132
330
1F
100
AcDbEntity
  8
0
  6
Continuous
 62
     7
370
    15
100
AcDbLine
 10
784.7999093515
 20
73.6680892474
 30
0.0
 11
784.3620685321
 21
73.6680892474
 31
0.0
  0
LINE
  5
133
330
1F
100
AcDbEntity
  8
0
  6
Continuous
 62
     7
370
    15
100
AcDbLine
 10
784.7999093515
 20
38.6680779225
 30
0.0
 11
784.3620685321
 21
38.6680779225
 31
0.0
  0
LINE
  5
134
330
1F
100
AcDbEntity
  8
0
  6
Continuous
 62
     7
370
    15
100
AcDbLine
 10
379.1620639545
 20
90.418082214
 30
0.0
 11
380.7221410257
 21
90.418082214
 31
0.0
  0
LINE
  5
135
330
1F
100
AcDbEntity
  8
0
  6
Continuous
 62
     7
370
    15
100
AcDbLine
 10
379.1620639545
 20
76.9180772073
 30
0.0
 11
380.7215747816
 21
76.9180772073
 31
0.0
  0
LINE
  5
136
330
1F
100
AcDbEntity
  8
0
  6
Continuous
 62
     7
370
    15
100
AcDbLine
 10
379.1620639545
 20
76.9180772073
 30
0.0
 11
376.0620710832
 21
76.9180772073
 31
0.0
  0
LINE
  5
137
330
1F
100
AcDbEntity
  8
0
  6
Continuous
 62
     7
370
    15
100
AcDbLine
 10
379.1620639545
 20
90.418082214
 30
0.0
 11
376.0620710832
 21
90.418082214
 31
0.0
  0
LINE
  5
138
330
1F
100
AcDbEntity
  8
0
  6
Continuous
 62
     7
370
    15
100
AcDbLine
 10
379.1620639545
 20
446.9180819756
 30
0.0
 11
380.7215747816
 21
446.9180819756
 31
0.0
  0
LINE
  5
139
330
1F
100
AcDbEntity
  8
0
  6
Continuous
 62
     7
370
    15
100
AcDbLine
 10
379.1620639545
 20
460.4180869824
 30
0.0
 11
380.7221410257
 21
460.4180869824
 31
0.0
  0
LINE
  5
13A
330
1F
100
AcDbEntity
  8
0
  6
Continuous
 62
     7
370
    15
100
AcDbLine
 10
379.1620639545
 20
446.9180819756
 30
0.0
 11
376.0620710832
 21
446.9180819756
 31
0.0
  0
LINE
  5
13B
330
1F
100
AcDbEntity
  8
0
  6
Continuous
 62
     7
370
    15
100
AcDbLine
 10
379.1620639545
 20
460.4180869824
 30
0.0
 11
376.0620710832
 21
460.4180869824
 31
0.0
  0
LINE
  5
13C
330
1F
100
AcDbEntity
  8
0
  6
Continuous
 62
     8
370
    15
100
AcDbLine
 10
379.1620639545
 20
77.1680888898
 30
0.0
 11
379.1620639545
 21
76.9180772073
 31
0.0
  0
LINE
  5
13D
330
1F
100
AcDbEntity
  8
0
  6
Continuous
 62
     8
370
    15
100
AcDbLine
 10
379.1620639545
 20
90.418082214
 30
0.0
 11
379.1620639545
 21
90.1680854327
 31
0.0
  0
LINE
  5
13E
330
1F
100
AcDbEntity
  8
0
  6
Continuous
 62
     8
370
    15
100
AcDbLine
 10
379.1620639545
 20
447.168078757
 30
0.0
 11
379.1620639545
 21
446.9180819756
 31
0.0
  0
LINE
  5
13F
330
1F
100
AcDbEntity
  8
0
  6
Continuous
 62
     8
370
    15
100
AcDbLine
 10
379.1620639545
 20
460.4180869824
 30
0.0
 11
379.1620639545
 21
460.1680752999
 31
0.0
  0
LINE
  5
140
330
1F
100
AcDbEntity
  8
0
  6
Continuous
 62
     7
370
    15
100
AcDbLine
 10
301.0774978393
 20
90.1680854327
 30
0.0
 11
301.0774978393
 21
77.1680888898
 31
0.0
  0
LINE
  5
141
330
1F
100
AcDbEntity
  8
0
  6
Continuous
 62
     7
370
    15
100
AcDbLine
 10
301.0774978393
 20
460.1680752999
 30
0.0
 11
301.0774978393
 21
447.168078757
 31
0.0
  0
LINE
  5
142
330
1F
100
AcDbEntity
  8
0
  6
Continuous
 62
     7
370
    15
100
AcDbLine
 10
291.2874945396
 20
445.6680831677
 30
0.0
 11
291.2874945396
 21
446.4680818087
 31
0.0
  0
LINE
  5
143
330
1F
100
AcDbEntity
  8
0
  6
Continuous
 62
     7
370
    15
100
AcDbLine
 10
291.2874945396
 20
460.8680871493
 30
0.0
 11
291.2874945396
 21
461.6680857903
 31
0.0
  0
LINE
  5
144
330
1F
100
AcDbEntity
  8
0
  6
Continuous
 62
     7
370
    15
100
AcDbLine
 10
286.3574900621
 20
461.9680759675
 30
0.0
 11
286.3574900621
 21
461.6680857903
 31
0.0
  0
LINE
  5
145
330
1F
100
AcDbEntity
  8
0
  6
Continuous
 62
     7
370
    15
100
AcDbLine
 10
290.7574900382
 20
461.6680857903
 30
0.0
 11
290.7574900382
 21
461.9680759675
 31
0.0
  0
ARC
  5
146
330
1F
100
AcDbEntity
  8
0
  6
Continuous
 62
     7
370
    15
100
AcDbCircle
 10
288.5574946921
 20
458.8609392377
 30
0.0
 40
3.807142857143322
100
AcDbArc
 50
54.6997515601
 51
125.3002484399
  0
LINE
  5
147
330
1F
100
AcDbEntity
  8
0
  6
Continuous
 62
     7
370
    15
100
AcDbLine
 10
286.4574917548
 20
445.2680763966
 30
0.0
 11
286.4574917548
 21
444.8680845267
 31
0.0
  0
LINE
  5
148
330
1F
100
AcDbEntity
  8
0
  6
Continuous
 62
     7
370
    15
100
AcDbLine
 10
290.6574883454
 20
444.8680845267
 30
0.0
 11
290.6574883454
 21
445.2680763966
 31
0.0
  0
ARC
  5
149
330
1F
100
AcDbEntity
  8
0
  6
Continuous
 62
     7
370
    15
100
AcDbCircle
 10
286.6574946921
 20
445.6680820949
 30
0.0
 40
0.4000000000008299
100
AcDbArc
 50
270.0
 51
0.0
  0
ARC
  5
14A
330
1F
100
AcDbEntity
  8
0
  6
Continuous
 62
     7
370
    15
100
AcDbCircle
 10
290.4574946921
 20
445.6680820949
 30
0.0
 40
0.4000000000007731
100
AcDbArc
 50
180.0
 51
270.0
  0
LINE
  5
14B
330
1F
100
AcDbEntity
  8
0
  6
Continuous
 62
     7
370
    15
100
AcDbLine
 10
287.0575019115
 20
460.8680871493
 30
0.0
 11
287.0575019115
 21
460.4180869824
 31
0.0
  0
LINE
  5
14C
330
1F
100
AcDbEntity
  8
0
  6
Continuous
 62
     7
370
    15
100
AcDbLine
 10
287.0575019115
 20
459.4180849559
 30
0.0
 11
287.0575019115
 21
458.9293715722
 31
0.0
  0
LINE
  5
14D
330
1F
100
AcDbEntity
  8
0
  6
Continuous
 62
     7
370
    15
100
AcDbLine
 10
287.0575019115
 20
458.1332621342
 30
0.0
 11
287.0575019115
 21
457.9775599009
 31
0.0
  0
LINE
  5
14E
330
1F
100
AcDbEntity
  8
0
  6
Continuous
 62
     7
370
    15
100
AcDbLine
 10
287.0575019115
 20
448.6784604556
 30
0.0
 11
287.0575019115
 21
447.9180840022
 31
0.0
  0
LINE
  5
14F
330
1F
100
AcDbEntity
  8
0
  6
Continuous
 62
     7
370
    15
100
AcDbLine
 10
287.0575019115
 20
446.9180819756
 30
0.0
 11
287.0575019115
 21
446.4680818087
 31
0.0
  0
LINE
  5
150
330
1F
100
AcDbEntity
  8
0
  6
Continuous
 62
     7
370
    15
100
AcDbLine
 10
290.05749309
 20
446.4680818087
 30
0.0
 11
290.05749309
 21
446.9180819756
 31
0.0
  0
LINE
  5
151
330
1F
100
AcDbEntity
  8
0
  6
Continuous
 62
     7
370
    15
100
AcDbLine
 10
290.05749309
 20
447.9180840022
 30
0.0
 11
290.05749309
 21
448.4052178628
 31
0.0
  0
LINE
  5
152
330
1F
100
AcDbEntity
  8
0
  6
Continuous
 62
     7
370
    15
100
AcDbLine
 10
290.05749309
 20
457.7131387955
 30
0.0
 11
290.05749309
 21
457.9010871417
 31
0.0
  0
LINE
  5
153
330
1F
100
AcDbEntity
  8
0
  6
Continuous
 62
     7
370
    15
100
AcDbLine
 10
290.05749309
 20
458.6561587817
 30
0.0
 11
290.05749309
 21
459.4180849559
 31
0.0
  0
LINE
  5
154
330
1F
100
AcDbEntity
  8
0
  6
Continuous
 62
     7
370
    15
100
AcDbLine
 10
290.05749309
 20
460.4180869824
 30
0.0
 11
290.05749309
 21
460.8680871493
 31
0.0
  0
SPLINE
  5
155
330
1F
100
AcDbEntity
  8
0
  6
Continuous
 62
     7
370
    15
100
AcDbSpline
210
0.0
220
0.0
230
1.0
 70
     8
 71
     3
 72
    15
 73
    11
 74
     0
 42
0.00000001
 43
0.00000001
 40
0.0
 40
0.0
 40
0.0
 40
0.0
 40
0.1356021060610673
 40
0.2953301951074361
 40
0.4038100919400804
 40
0.5319613946579616
 40
0.6738407583735175
 40
0.8261087441090432
 40
0.9126143524011999
 40
0.9999999999999999
 40
0.9999999999999999
 40
0.9999999999999999
 40
0.9999999999999999
 10
290.0574930899713
 20
448.2341227299424
 30
0.0
 10
290.1018748105508
 20
448.22680225568
 30
0.0
 10
290.1985345349365
 20
448.2108588669305
 30
0.0
 10
290.4053830949149
 20
448.258527074336
 30
0.0
 10
290.5986539219171
 20
448.346249316341
 30
0.0
 10
290.7452301221634
 20
448.4659152200862
 30
0.0
 10
290.8439410047525
 20
448.6168000905224
 30
0.0
 10
290.8735994445845
 20
448.7386361228778
 30
0.0
 10
290.85242258254
 20
448.867912443243
 30
0.0
 10
290.8061697674353
 20
448.9345779691462
 30
0.0
 10
290.7829263203714
 20
448.9680794245454
 30
0.0
  0
SPLINE
  5
156
330
1F
100
AcDbEntity
  8
0
  6
Continuous
 62
     7
370
    15
100
AcDbSpline
210
0.0
220
0.0
230
1.0
 70
     8
 71
     3
 72
    20
 73
    16
 74
     0
 42
0.00000001
 43
0.00000001
 40
0.0
 40
0.0
 40
0.0
 40
0.0
 40
0.0607081407044129
 40
0.2265336832249089
 40
0.3908030416487357
 40
0.4705944649029576
 40
0.5476201143003872
 40
0.6228570175088496
 40
0.7003369412925144
 40
0.7786471232305363
 40
0.8566576901760383
 40
0.9330986019141723
 40
0.9703708135221807
 40
0.9892324180227995
 40
1.0
 40
1.0
 40
1.0
 40
1.0
 10
286.3212951415155
 20
448.9680794245454
 30
0.0
 10
286.3675697791849
 20
448.914747985492
 30
0.0
 10
286.5402445471733
 20
448.7157406171185
 30
0.0
 10
286.9572163287209
 20
448.6978101148505
 30
0.0
 10
287.5221709760859
 20
448.6227868999802
 30
0.0
 10
288.0417840846243
 20
448.5798488870263
 30
0.0
 10
288.4356767434475
 20
448.5492880364329
 30
0.0
 10
288.8285884929776
 20
448.521616693577
 30
0.0
 10
289.2097493850778
 20
448.4903055683671
 30
0.0
 10
289.5654734370112
 20
448.457832783202
 30
0.0
 10
289.8680978340765
 20
448.4269953876253
 30
0.0
 10
290.060604277002
 20
448.4040957260705
 30
0.0
 10
290.148736293361
 20
448.3960753507818
 30
0.0
 10
290.1941545435532
 20
448.3882934263299
 30
0.0
 10
290.1936059473094
 20
448.3922365038212
 30
0.0
 10
290.1934065812204
 20
448.3936694628449
 30
0.0
  0
SPLINE
  5
157
330
1F
100
AcDbEntity
  8
0
  6
Continuous
 62
     7
370
    15
100
AcDbSpline
210
0.0
220
0.0
230
1.0
 70
     8
 71
     3
 72
    18
 73
    14
 74
     0
 42
0.00000001
 43
0.00000001
 40
0.0
 40
0.0
 40
0.0
 40
0.0
 40
0.0057533514063981
 40
0.1156382960031969
 40
0.238392625285081
 40
0.3593078098787095
 40
0.4757054421211319
 40
0.5872121845638562
 40
0.7047320371344623
 40
0.8265002904977976
 40
0.8891455465757248
 40
0.9517928563765098
 40
1.0
 40
1.0
 40
1.0
 40
1.0
 10
290.564117669401
 20
457.6149103409501
 30
0.0
 10
290.5594705033225
 20
457.6178625403056
 30
0.0
 10
290.4660657504068
 20
457.6771996603281
 30
0.0
 10
290.2437008591181
 20
457.683414175108
 30
0.0
 10
289.8523265430614
 20
457.7426011321055
 30
0.0
 10
289.3404416405164
 20
457.7881421490742
 30
0.0
 10
288.7894121401311
 20
457.8343078425129
 30
0.0
 10
288.2272921473166
 20
457.8731877845642
 30
0.0
 10
287.6930228307361
 20
457.9179404086922
 30
0.0
 10
287.2953527180685
 20
457.9589827516888
 30
0.0
 10
287.0806616773302
 20
457.9801283125748
 30
0.0
 10
286.9845897426327
 20
457.9824027094254
 30
0.0
 10
286.9691477457596
 20
457.9663267249382
 30
0.0
 10
286.962432503042
 20
457.9593357807847
 30
0.0
  0
SPLINE
  5
158
330
1F
100
AcDbEntity
  8
0
  6
Continuous
 62
     7
370
    15
100
AcDbSpline
210
0.0
220
0.0
230
1.0
 70
     8
 71
     3
 72
    12
 73
     8
 74
     0
 42
0.00000001
 43
0.00000001
 40
0.0
 40
0.0
 40
0.0
 40
0.0
 40
0.2236730604743266
 40
0.4523097477733537
 40
0.6822380724137703
 40
0.9102241125301616
 40
1.0
 40
1.0
 40
1.0
 40
1.0
 10
286.2631955140207
 20
458.7699291474076
 30
0.0
 10
286.2504553029409
 20
458.7273780328237
 30
0.0
 10
286.2246921571787
 20
458.6413315332401
 30
0.0
 10
286.3458432975726
 20
458.549748407048
 30
0.0
 10
286.577515824146
 20
458.4534081722429
 30
0.0
 10
286.8223697574796
 20
458.3909497307022
 30
0.0
 10
287.0057050057083
 20
458.3961534507234
 30
0.0
 10
287.0575019114588
 20
458.3976236349793
 30
0.0
  0
SPLINE
  5
159
330
1F
100
AcDbEntity
  8
0
  6
Continuous
 62
     7
370
    15
100
AcDbSpline
210
0.0
220
0.0
230
1.0
 70
     8
 71
     3
 72
    19
 73
    15
 74
     0
 42
0.00000001
 43
0.00000001
 40
0.0
 40
0.0
 40
0.0
 40
0.0
 40
0.0979037310136482
 40
0.175375800298335
 40
0.288481933334479
 40
0.3734521067040712
 40
0.4570005822300097
 40
0.6168869827790471
 40
0.6796660910945799
 40
0.7634258804621143
 40
0.8137530652187078
 40
0.8702966467852126
 40
0.9323982706940787
 40
1.0
 40
1.0
 40
1.0
 40
1.0
 10
286.4394315474603
 20
458.2748082644196
 30
0.0
 10
286.4899431791893
 20
458.2484268483278
 30
0.0
 10
286.5804251020652
 20
458.2011695894656
 30
0.0
 10
286.9550457002892
 20
458.1405239911772
 30
0.0
 10
287.4415692537145
 20
458.0866318851958
 30
0.0
 10
288.0328944816871
 20
458.0334092775602
 30
0.0
 10
288.786999593499
 20
457.9818591006779
 30
0.0
 10
289.4280924963298
 20
457.9149082357783
 30
0.0
 10
290.0773753287419
 20
457.8793830105833
 30
0.0
 10
290.4556957526706
 20
457.9575935091499
 30
0.0
 10
290.7075588204044
 20
458.0657700104971
 30
0.0
 10
290.8411404269957
 20
458.1541187759607
 30
0.0
 10
290.9029166645925
 20
458.2279519527392
 30
0.0
 10
290.8314729525837
 20
458.3084767974772
 30
0.0
 10
290.7942363017175
 20
458.3504465586396
 30
0.0
  0
SPLINE
  5
15A
330
1F
100
AcDbEntity
  8
0
  6
Continuous
 62
     7
370
    15
100
AcDbSpline
210
0.0
220
0.0
230
1.0
 70
     8
 71
     3
 72
    25
 73
    21
 74
     0
 42
0.00000001
 43
0.00000001
 40
0.0
 40
0.0
 40
0.0
 40
0.0
 40
0.0176246502364221
 40
0.0344969783807093
 40
0.0503140015806232
 40
0.0649721768491231
 40
0.0909442969752835
 40
0.1134383776733819
 40
0.1538393252383461
 40
0.1912331168558527
 40
0.2995699954028009
 40
0.3999628446658344
 40
0.5012950163473342
 40
0.5949055302535755
 40
0.6784888739928571
 40
0.7336300391793612
 40
0.807520024472291
 40
0.8952850467831737
 40
0.9453085351767971
 40
1.0
 40
1.0
 40
1.0
 40
1.0
 10
290.4369213574503
 20
457.7248660093995
 30
0.0
 10
290.4766268372829
 20
457.729256836233
 30
0.0
 10
290.5543429372343
 20
457.7378510639945
 30
0.0
 10
290.6562212515304
 20
457.7838580921291
 30
0.0
 10
290.7372371148764
 20
457.8428171597123
 30
0.0
 10
290.8134420104232
 20
457.9263857611014
 30
0.0
 10
290.8664928202988
 20
458.0300332897735
 30
0.0
 10
290.8906361494131
 20
458.1623746192713
 30
0.0
 10
290.8677634711234
 20
458.294242339273
 30
0.0
 10
290.6965175840939
 20
458.5394390186009
 30
0.0
 10
290.3537389911168
 20
458.6265359937412
 30
0.0
 10
289.8586231194153
 20
458.685093091781
 30
0.0
 10
289.2454104970591
 20
458.7434371801585
 30
0.0
 10
288.5959382051886
 20
458.7930611840874
 30
0.0
 10
288.0562329411253
 20
458.8325474849563
 30
0.0
 10
287.6102245066785
 20
458.8717245284749
 30
0.0
 10
287.22152569558
 20
458.9099543143342
 30
0.0
 10
286.9613674418557
 20
458.9377804667683
 30
0.0
 10
286.8309247706267
 20
458.9602990241435
 30
0.0
 10
286.8222552970788
 20
458.9727550269899
 30
0.0
 10
286.8177273266886
 20
458.9792606598588
 30
0.0
  0
SPLINE
  5
15B
330
1F
100
AcDbEntity
  8
0
  6
Continuous
 62
     7
370
    15
100
AcDbSpline
210
0.0
220
0.0
230
1.0
 70
     8
 71
     3
 72
    12
 73
     8
 74
     0
 42
0.00000001
 43
0.00000001
 40
0.0
 40
0.0
 40
0.0
 40
0.0
 40
0.1756478533397407
 40
0.5723172248007734
 40
0.758618956876225
 40
0.9207543209684056
 40
1.0
 40
1.0
 40
1.0
 40
1.0
 10
286.9060614102457
 20
458.1607696778031
 30
0.0
 10
286.8404972038593
 20
458.1515991669293
 30
0.0
 10
286.6268679227051
 20
458.1217186916857
 30
0.0
 10
286.4109726938217
 20
458.0477770842691
 30
0.0
 10
286.2497903131258
 20
457.8328537953548
 30
0.0
 10
286.2185922985244
 20
457.672629682491
 30
0.0
 10
286.24956881726
 20
457.5939734351915
 30
0.0
 10
286.2597384446237
 20
457.5681504971238
 30
0.0
  0
LINE
  5
15C
330
1F
100
AcDbEntity
  8
0
  6
Continuous
 62
     7
370
    15
100
AcDbLine
 10
286.4172586196
 20
448.8703427083
 30
0.0
 11
285.2987923616
 21
448.8703427083
 31
0.0
  0
LINE
  5
15D
330
1F
100
AcDbEntity
  8
0
  6
Continuous
 62
     7
370
    15
100
AcDbLine
 10
285.2987923616
 20
448.0703440673
 30
0.0
 11
287.0575019115
 21
448.0703440673
 31
0.0
  0
LINE
  5
15E
330
1F
100
AcDbEntity
  8
0
  6
Continuous
 62
     7
370
    15
100
AcDbLine
 10
283.8885017627
 20
461.6680857903
 30
0.0
 11
283.8885017627
 21
461.7215511567
 31
0.0
  0
LINE
  5
15F
330
1F
100
AcDbEntity
  8
0
  6
Continuous
 62
     7
370
    15
100
AcDbLine
 10
280.8885105842
 20
461.7215511567
 30
0.0
 11
280.8885105842
 21
461.6680857903
 31
0.0
  0
SPLINE
  5
160
330
1F
100
AcDbEntity
  8
0
  6
Continuous
 62
     7
370
    15
100
AcDbSpline
210
0.0
220
0.0
230
1.0
 70
     8
 71
     3
 72
    15
 73
    11
 74
     0
 42
0.00000001
 43
0.00000001
 40
0.0
 40
0.0
 40
0.0
 40
0.0
 40
0.1077555507154688
 40
0.2352511983336943
 40
0.362790350292899
 40
0.4902567554394754
 40
0.6176629962400678
 40
0.7450967779333516
 40
0.8724964982314105
 40
1.0
 40
1.0
 40
1.0
 40
1.0
 10
280.9045591347788
 20
445.668083167717
 30
0.0
 10
280.9210982612325
 20
445.3555609307745
 30
0.0
 10
280.9572063715974
 20
444.6732644712555
 30
0.0
 10
281.2934190678598
 20
443.6641164779149
 30
0.0
 10
281.8514989054184
 20
442.7006372749362
 30
0.0
 10
282.6063235163629
 20
441.8797110760163
 30
0.0
 10
283.5214878923403
 20
441.2444430808644
 30
0.0
 10
284.5487442425598
 20
440.82429015283
 30
0.0
 10
285.6447211810832
 20
440.6104590220666
 30
0.0
 10
286.3804814963387
 20
440.6759994508367
 30
0.0
 10
286.7485114329431
 20
440.708783007309
 30
0.0
  0
SPLINE
  5
161
330
1F
100
AcDbEntity
  8
0
  6
Continuous
 62
     7
370
    15
100
AcDbSpline
210
0.0
220
0.0
230
1.0
 70
     8
 71
     3
 72
    15
 73
    11
 74
     0
 42
0.00000001
 43
0.00000001
 40
0.0
 40
0.0
 40
0.0
 40
0.0
 40
0.1316475507757376
 40
0.2633128491346627
 40
0.3951875029123529
 40
0.526669308143609
 40
0.6575482480495349
 40
0.7882108661984782
 40
0.9184601209232142
 40
1.0
 40
1.0
 40
1.0
 40
1.0
 10
286.2508126490686
 20
443.6664697891923
 30
0.0
 10
286.0986338171589
 20
443.6546552816115
 30
0.0
 10
285.7942556379069
 20
443.6310246737205
 30
0.0
 10
285.3433987828043
 20
443.732497273814
 30
0.0
 10
284.9243622399783
 20
443.919346687879
 30
0.0
 10
284.5539802440969
 20
444.1919599669302
 30
0.0
 10
284.2517087596902
 20
444.5378591370653
 30
0.0
 10
284.0325511031195
 20
444.9395696911034
 30
0.0
 10
283.9151974056655
 20
445.3258841562751
 30
0.0
 10
283.9050139322504
 20
445.5729583597774
 30
0.0
 10
283.9010932438944
 20
445.668083167717
 30
0.0
  0
SPLINE
  5
162
330
1F
100
AcDbEntity
  8
0
  6
Continuous
 62
     7
370
    15
100
AcDbSpline
210
0.0
220
0.0
230
1.0
 70
     8
 71
     3
 72
    15
 73
    11
 74
     0
 42
0.00000001
 43
0.00000001
 40
0.0
 40
0.0
 40
0.0
 40
0.0
 40
0.1249272269019948
 40
0.2499156875276417
 40
0.3749667759055768
 40
0.4999572135292178
 40
0.6249211455693676
 40
0.7499168092761651
 40
0.8748745640035281
 40
1.0
 40
1.0
 40
1.0
 40
1.0
 10
286.919383048353
 20
466.598596907303
 30
0.0
 10
286.5530066758906
 20
466.6419273686398
 30
0.0
 10
285.8200743497
 20
466.7286095299623
 30
0.0
 10
284.7160456406504
 20
466.5634421689945
 30
0.0
 10
283.6752557277212
 20
466.1744868393861
 30
0.0
 10
282.7400558586889
 20
465.5694875935549
 30
0.0
 10
281.9594049359004
 20
464.7732982608341
 30
0.0
 10
281.3714478797298
 20
463.8289302476956
 30
0.0
 10
280.9756249870711
 20
462.7804865368183
 30
0.0
 10
280.9175616956559
 20
462.0413658801417
 30
0.0
 10
280.888510584173
 20
461.6715577608796
 30
0.0
  0
SPLINE
  5
163
330
1F
100
AcDbEntity
  8
0
  6
Continuous
 62
     7
370
    15
100
AcDbSpline
210
0.0
220
0.0
230
1.0
 70
     8
 71
     3
 72
    15
 73
    11
 74
     0
 42
0.00000001
 43
0.00000001
 40
0.0
 40
0.0
 40
0.0
 40
0.0
 40
0.1242509868954406
 40
0.2486341873107757
 40
0.3735436135288574
 40
0.4985842367338467
 40
0.6236671922751594
 40
0.7490729085781701
 40
0.8744400222165211
 40
1.0
 40
1.0
 40
1.0
 40
1.0
 10
283.8885017626856
 20
461.6715577608796
 30
0.0
 10
283.9020582996295
 20
461.8235110359207
 30
0.0
 10
283.929185798815
 20
462.1275792770918
 30
0.0
 10
284.1036648182188
 20
462.5548919996302
 30
0.0
 10
284.3569913659136
 20
462.9365356824285
 30
0.0
 10
284.6868133270918
 20
463.2564698829959
 30
0.0
 10
285.0777403775579
 20
463.4970453714506
 30
0.0
 10
285.5104420972946
 20
463.6486539563336
 30
0.0
 10
285.9679657201571
 20
463.70211682166
 30
0.0
 10
286.2698806272051
 20
463.6614320562043
 30
0.0
 10
286.42095410758
 20
463.6410740381928
 30
0.0
  0
LINE
  5
164
330
1F
100
AcDbEntity
  8
0
  6
Continuous
 62
     7
370
    15
100
AcDbLine
 10
301.7915614837
 20
446.283218003
 30
0.0
 11
286.2505891317
 21
443.6667976147
 31
0.0
  0
LINE
  5
165
330
1F
100
AcDbEntity
  8
0
  6
Continuous
 62
     7
370
    15
100
AcDbLine
 10
286.7486604446
 20
440.7084402806
 30
0.0
 11
302.2896178954
 21
443.3248457677
 31
0.0
  0
LINE
  5
166
330
1F
100
AcDbEntity
  8
0
  6
Continuous
 62
     7
370
    15
100
AcDbLine
 10
286.421177625
 20
463.6406419045
 30
0.0
 11
301.962149977
 21
461.0242215163
 31
0.0
  0
LINE
  5
167
330
1F
100
AcDbEntity
  8
0
  6
Continuous
 62
     7
370
    15
100
AcDbLine
 10
302.4602063888
 20
463.9825937516
 30
0.0
 11
286.9192340367
 21
466.5990141398
 31
0.0
  0
SPLINE
  5
168
330
1F
100
AcDbEntity
  8
0
  6
Continuous
 62
     7
370
    15
100
AcDbSpline
210
0.0
220
0.0
230
1.0
 70
     8
 71
     3
 72
    12
 73
     8
 74
     0
 42
0.00000001
 43
0.00000001
 40
0.0
 40
0.0
 40
0.0
 40
0.0
 40
0.1526135502442328
 40
0.2973905062034102
 40
0.5623705545044584
 40
0.7966015967691097
 40
1.0
 40
1.0
 40
1.0
 40
1.0
 10
302.2892751687143
 20
443.3251586920472
 30
0.0
 10
302.5404949177206
 20
443.377896407828
 30
0.0
 10
303.0300344651968
 20
443.4806637962215
 30
0.0
 10
303.8795550862546
 20
443.9099166028803
 30
0.0
 10
304.6915446801725
 20
444.6543105427
 30
0.0
 10
305.2559949416004
 20
445.7253496699545
 30
0.0
 10
305.33768229328
 20
446.4602779895101
 30
0.0
 10
305.3756483786676
 20
446.8018529183121
 30
0.0
  0
SPLINE
  5
169
330
1F
100
AcDbEntity
  8
0
  6
Continuous
 62
     7
370
    15
100
AcDbSpline
210
0.0
220
0.0
230
1.0
 70
     8
 71
     3
 72
    11
 73
     7
 74
     0
 42
0.00000001
 43
0.00000001
 40
0.0
 40
0.0
 40
0.0
 40
0.0
 40
0.2003604523961388
 40
0.432804763221977
 40
0.6990176740182689
 40
1.0
 40
1.0
 40
1.0
 40
1.0
 10
302.3773261302088
 20
446.8018529183121
 30
0.0
 10
302.3640991031193
 20
446.7454241731976
 30
0.0
 10
302.3355269959042
 20
446.623530708813
 30
0.0
 10
302.2196374331306
 20
446.4578370782461
 30
0.0
 10
302.0348958263394
 20
446.3189167638966
 30
0.0
 10
301.8772745327607
 20
446.2955260070899
 30
0.0
 10
301.7936327450846
 20
446.2831136948319
 30
0.0
  0
SPLINE
  5
16A
330
1F
100
AcDbEntity
  8
0
  6
Continuous
 62
     7
370
    15
100
AcDbSpline
210
0.0
220
0.0
230
1.0
 70
     8
 71
     3
 72
    12
 73
     8
 74
     0
 42
0.00000001
 43
0.00000001
 40
0.0
 40
0.0
 40
0.0
 40
0.0
 40
0.20340806467641
 40
0.4376405506491179
 40
0.7026190855415463
 40
0.8473900528225254
 40
1.0
 40
1.0
 40
1.0
 40
1.0
 10
305.3756483786676
 20
460.3604790932389
 30
0.0
 10
305.3542074786089
 20
460.7034894289534
 30
0.0
 10
305.3080765283782
 20
461.4414898245583
 30
0.0
 10
304.7959793269999
 20
462.5386070936069
 30
0.0
 10
304.0207663565819
 20
463.3213506721507
 30
0.0
 10
303.1929194671062
 20
463.7910847486534
 30
0.0
 10
302.7089351195635
 20
463.9173400936307
 30
0.0
 10
302.4605640166376
 20
463.9821318155977
 30
0.0
  0
SPLINE
  5
16B
330
1F
100
AcDbEntity
  8
0
  6
Continuous
 62
     7
370
    15
100
AcDbSpline
210
0.0
220
0.0
230
1.0
 70
     8
 71
     3
 72
    12
 73
     8
 74
     0
 42
0.00000001
 43
0.00000001
 40
0.0
 40
0.0
 40
0.0
 40
0.0
 40
0.155561090840467
 40
0.3022073696712271
 40
0.5679690148706087
 40
0.7999527754730017
 40
0.9999999999999999
 40
0.9999999999999999
 40
0.9999999999999999
 40
0.9999999999999999
 10
301.9602277272318
 20
461.0251453882905
 30
0.0
 10
302.0007746089208
 20
461.0093956393234
 30
0.0
 10
302.0795447332329
 20
460.9787987196012
 30
0.0
 10
302.2091772874311
 20
460.883757100664
 30
0.0
 10
302.3236130292072
 20
460.737584019376
 30
0.0
 10
302.387743084177
 20
460.5433267620056
 30
0.0
 10
302.3806230050219
 20
460.418348781023
 30
0.0
 10
302.3773261302088
 20
460.3604790932389
 30
0.0
  0
LINE
  5
16C
330
1F
100
AcDbEntity
  8
0
  6
Continuous
 62
     7
370
    15
100
AcDbLine
 10
302.3764916652
 20
460.410472489
 30
0.0
 11
302.3764916652
 21
460.1680752999
 31
0.0
  0
LINE
  5
16D
330
1F
100
AcDbEntity
  8
0
  6
Continuous
 62
     7
370
    15
100
AcDbLine
 10
302.3764916652
 20
447.168078757
 30
0.0
 11
302.3764916652
 21
446.7518446213
 31
0.0
  0
LINE
  5
16E
330
1F
100
AcDbEntity
  8
0
  6
Continuous
 62
     7
370
    15
100
AcDbLine
 10
305.3764828437
 20
446.7518446213
 30
0.0
 11
305.3764828437
 21
447.1708205706
 31
0.0
  0
LINE
  5
16F
330
1F
100
AcDbEntity
  8
0
  6
Continuous
 62
     7
370
    15
100
AcDbLine
 10
305.3764828437
 20
460.1653334862
 30
0.0
 11
305.3764828437
 21
460.410472489
 31
0.0
  0
LINE
  5
170
330
1F
100
AcDbEntity
  8
0
  6
Continuous
 62
     7
370
    15
100
AcDbLine
 10
291.6757740968
 20
459.2680749661
 30
0.0
 11
290.05749309
 21
459.2680749661
 31
0.0
  0
LINE
  5
171
330
1F
100
AcDbEntity
  8
0
  6
Continuous
 62
     7
370
    15
100
AcDbLine
 10
290.6844147437
 20
458.4680763251
 30
0.0
 11
291.6757740968
 21
458.4680763251
 31
0.0
  0
LINE
  5
172
330
1F
100
AcDbEntity
  8
0
  6
Continuous
 62
     7
370
    15
100
AcDbLine
 10
292.0140006536
 20
460.5362233884
 30
0.0
 11
291.7474635833
 21
459.3279776341
 31
0.0
  0
LINE
  5
173
330
1F
100
AcDbEntity
  8
0
  6
Continuous
 62
     7
370
    15
100
AcDbLine
 10
292.5156184428
 20
459.0964284903
 30
0.0
 11
292.7952089303
 21
460.3638914592
 31
0.0
  0
SPLINE
  5
174
330
1F
100
AcDbEntity
  8
0
  6
Continuous
 62
     7
370
    15
100
AcDbSpline
210
0.0
220
0.0
230
1.0
 70
     8
 71
     3
 72
    11
 73
     7
 74
     0
 42
0.00000001
 43
0.00000001
 40
0.0
 40
0.0
 40
0.0
 40
0.0
 40
0.2541322396080093
 40
0.5022676065307782
 40
0.7495073204938133
 40
1.0
 40
1.0
 40
1.0
 40
1.0
 10
291.6757740967844
 20
458.4680763251038
 30
0.0
 10
291.7758625527979
 20
458.478327443496
 30
0.0
 10
291.9736776325408
 20
458.498587780032
 30
0.0
 10
292.2318242985844
 20
458.6526097689074
 30
0.0
 10
292.435279589085
 20
458.8716813503871
 30
0.0
 10
292.4970092592009
 20
459.0587356737924
 30
0.0
 10
292.5280758135889
 20
459.1528740889283
 30
0.0
  0
LINE
  5
175
330
1F
100
AcDbEntity
  8
0
  6
Continuous
 62
     7
370
    15
100
AcDbLine
 10
291.2874945396
 20
90.8680823809
 30
0.0
 11
291.2874945396
 21
91.6680810219
 31
0.0
  0
LINE
  5
176
330
1F
100
AcDbEntity
  8
0
  6
Continuous
 62
     7
370
    15
100
AcDbLine
 10
291.2874945396
 20
75.6680783993
 30
0.0
 11
291.2874945396
 21
76.4680770404
 31
0.0
  0
ARC
  5
177
330
1F
100
AcDbEntity
  8
0
  6
Continuous
 62
     7
370
    15
100
AcDbCircle
 10
288.5574946921
 20
88.8609392377
 30
0.0
 40
3.80714285714331
100
AcDbArc
 50
54.6997515601
 51
125.3002484399
  0
LINE
  5
178
330
1F
100
AcDbEntity
  8
0
  6
Continuous
 62
     7
370
    15
100
AcDbLine
 10
286.3574900621
 20
91.9680861003
 30
0.0
 11
286.3574900621
 21
91.6680810219
 31
0.0
  0
LINE
  5
179
330
1F
100
AcDbEntity
  8
0
  6
Continuous
 62
     7
370
    15
100
AcDbLine
 10
290.7574900382
 20
91.6680810219
 30
0.0
 11
290.7574900382
 21
91.9680861003
 31
0.0
  0
LINE
  5
17A
330
1F
100
AcDbEntity
  8
0
  6
Continuous
 62
     7
370
    15
100
AcDbLine
 10
286.4574917548
 20
75.2680865294
 30
0.0
 11
286.4574917548
 21
74.8680797583
 31
0.0
  0
LINE
  5
17B
330
1F
100
AcDbEntity
  8
0
  6
Continuous
 62
     7
370
    15
100
AcDbLine
 10
290.6574883454
 20
74.8680797583
 30
0.0
 11
290.6574883454
 21
75.2680865294
 31
0.0
  0
ARC
  5
17C
330
1F
100
AcDbEntity
  8
0
  6
Continuous
 62
     7
370
    15
100
AcDbCircle
 10
286.6574946921
 20
75.6680820949
 30
0.0
 40
0.4000000000007731
100
AcDbArc
 50
270.0
 51
0.0
  0
ARC
  5
17D
330
1F
100
AcDbEntity
  8
0
  6
Continuous
 62
     7
370
    15
100
AcDbCircle
 10
290.4574946921
 20
75.6680820949
 30
0.0
 40
0.4000000000007162
100
AcDbArc
 50
180.0
 51
270.0
  0
LINE
  5
17E
330
1F
100
AcDbEntity
  8
0
  6
Continuous
 62
     7
370
    15
100
AcDbLine
 10
287.0575019115
 20
90.8680823809
 30
0.0
 11
287.0575019115
 21
90.418082214
 31
0.0
  0
LINE
  5
17F
330
1F
100
AcDbEntity
  8
0
  6
Continuous
 62
     7
370
    15
100
AcDbLine
 10
287.0575019115
 20
89.4180801875
 30
0.0
 11
287.0575019115
 21
88.929381705
 31
0.0
  0
LINE
  5
180
330
1F
100
AcDbEntity
  8
0
  6
Continuous
 62
     7
370
    15
100
AcDbLine
 10
287.0575019115
 20
88.1332573659
 30
0.0
 11
287.0575019115
 21
87.9775700337
 31
0.0
  0
LINE
  5
181
330
1F
100
AcDbEntity
  8
0
  6
Continuous
 62
     7
370
    15
100
AcDbLine
 10
287.0575019115
 20
78.6784556872
 30
0.0
 11
287.0575019115
 21
77.9180792338
 31
0.0
  0
LINE
  5
182
330
1F
100
AcDbEntity
  8
0
  6
Continuous
 62
     7
370
    15
100
AcDbLine
 10
287.0575019115
 20
76.9180772073
 30
0.0
 11
287.0575019115
 21
76.4680770404
 31
0.0
  0
LINE
  5
183
330
1F
100
AcDbEntity
  8
0
  6
Continuous
 62
     7
370
    15
100
AcDbLine
 10
290.05749309
 20
76.4680770404
 30
0.0
 11
290.05749309
 21
76.9180772073
 31
0.0
  0
LINE
  5
184
330
1F
100
AcDbEntity
  8
0
  6
Continuous
 62
     7
370
    15
100
AcDbLine
 10
290.05749309
 20
77.9180792338
 30
0.0
 11
290.05749309
 21
78.4052279956
 31
0.0
  0
LINE
  5
185
330
1F
100
AcDbEntity
  8
0
  6
Continuous
 62
     7
370
    15
100
AcDbLine
 10
290.05749309
 20
87.7131489283
 30
0.0
 11
290.05749309
 21
87.9010823733
 31
0.0
  0
LINE
  5
186
330
1F
100
AcDbEntity
  8
0
  6
Continuous
 62
     7
370
    15
100
AcDbLine
 10
290.05749309
 20
88.6561540133
 30
0.0
 11
290.05749309
 21
89.4180801875
 31
0.0
  0
LINE
  5
187
330
1F
100
AcDbEntity
  8
0
  6
Continuous
 62
     7
370
    15
100
AcDbLine
 10
290.05749309
 20
90.418082214
 30
0.0
 11
290.05749309
 21
90.8680823809
 31
0.0
  0
SPLINE
  5
188
330
1F
100
AcDbEntity
  8
0
  6
Continuous
 62
     7
370
    15
100
AcDbSpline
210
0.0
220
0.0
230
1.0
 70
     8
 71
     3
 72
    15
 73
    11
 74
     0
 42
0.00000001
 43
0.00000001
 40
0.0
 40
0.0
 40
0.0
 40
0.0
 40
0.1356024572950179
 40
0.2953305714495502
 40
0.4038104853344925
 40
0.5319618081968823
 40
0.6738452966783458
 40
0.8261133063493578
 40
0.9126143386647737
 40
1.0
 40
1.0
 40
1.0
 40
1.0
 10
290.0574930899713
 20
78.23413286273201
 30
0.0
 10
290.1018747620378
 20
78.22680618311307
 30
0.0
 10
290.1985342535743
 20
78.21084930060626
 30
0.0
 10
290.405383180463
 20
78.2585229540936
 30
0.0
 10
290.598653740609
 20
78.34624494352077
 30
0.0
 10
290.7452325538472
 20
78.46590879699819
 30
0.0
 10
290.8439389576136
 20
78.61681131557657
 30
0.0
 10
290.8736003699188
 20
78.73865038538283
 30
0.0
 10
290.8524212246961
 20
78.86790648643729
 30
0.0
 10
290.8061697215883
 20
78.93457221479363
 30
0.0
 10
290.7829263203714
 20
78.96807465617378
 30
0.0
  0
SPLINE
  5
189
330
1F
100
AcDbEntity
  8
0
  6
Continuous
 62
     7
370
    15
100
AcDbSpline
210
0.0
220
0.0
230
1.0
 70
     8
 71
     3
 72
    20
 73
    16
 74
     0
 42
0.00000001
 43
0.00000001
 40
0.0
 40
0.0
 40
0.0
 40
0.0
 40
0.060708135410005
 40
0.2265336634687164
 40
0.3908030075664746
 40
0.4705944238620196
 40
0.5476200665419776
 40
0.6228569631889666
 40
0.7003368802155423
 40
0.7786470553240675
 40
0.8566573914950292
 40
0.9330982965666872
 40
0.9703706402705808
 40
0.9892322431262632
 40
0.9999999999999999
 40
0.9999999999999999
 40
0.9999999999999999
 40
0.9999999999999999
 10
286.3212951415155
 20
78.96807465617378
 30
0.0
 10
286.36756977919
 20
78.91474321720405
 30
0.0
 10
286.5402445471976
 20
78.71573584914249
 30
0.0
 10
286.9572163284093
 20
78.6978053413892
 30
0.0
 10
287.5221709769618
 20
78.62278214591667
 30
0.0
 10
288.041784083176
 20
78.57984409499628
 30
0.0
 10
288.4356767487117
 20
78.54928335405792
 30
0.0
 10
288.8285884735442
 20
78.52161160773771
 30
0.0
 10
289.2097494604317
 20
78.4903020309897
 30
0.0
 10
289.5654728123819
 20
78.45782340874085
 30
0.0
 10
289.8680983213895
 20
78.42700775675723
 30
0.0
 10
290.0606045871345
 20
78.40411426348834
 30
0.0
 10
290.1487361759033
 20
78.39607317595923
 30
0.0
 10
290.1941546401818
 20
78.38828156893851
 30
0.0
 10
290.1936059745855
 20
78.39224076425374
 30
0.0
 10
290.1934065812204
 20
78.39367959563454
 30
0.0
  0
SPLINE
  5
18A
330
1F
100
AcDbEntity
  8
0
  6
Continuous
 62
     7
370
    15
100
AcDbSpline
210
0.0
220
0.0
230
1.0
 70
     8
 71
     3
 72
    18
 73
    14
 74
     0
 42
0.00000001
 43
0.00000001
 40
0.0
 40
0.0
 40
0.0
 40
0.0
 40
0.0057533527529526
 40
0.1156383230679924
 40
0.2383926810801581
 40
0.359307893973622
 40
0.4757055534585603
 40
0.5872123219991023
 40
0.7047322020748766
 40
0.8265004839377055
 40
0.8891457546775664
 40
0.9517930791407659
 40
1.0
 40
1.0
 40
1.0
 40
1.0
 10
290.564117669401
 20
87.61490557257851
 30
0.0
 10
290.5594705033225
 20
87.61785777193415
 30
0.0
 10
290.4660657504068
 20
87.67719489195963
 30
0.0
 10
290.2437008591195
 20
87.68340940635225
 30
0.0
 10
289.8523265430557
 20
87.74259636524943
 30
0.0
 10
289.3404416405367
 20
87.78813737527166
 30
0.0
 10
288.7894121400594
 20
87.83430309322368
 30
0.0
 10
288.2272921475782
 20
87.87318294667345
 30
0.0
 10
287.6930228296835
 20
87.91793592005779
 30
0.0
 10
287.295352721308
 20
87.95897712240108
 30
0.0
 10
287.080661671545
 20
87.98012508164193
 30
0.0
 10
286.9845898921536
 20
87.98239264360794
 30
0.0
 10
286.9691477782345
 20
87.9663307227359
 30
0.0
 10
286.962432503042
 20
87.9593459135743
 30
0.0
  0
SPLINE
  5
18B
330
1F
100
AcDbEntity
  8
0
  6
Continuous
 62
     7
370
    15
100
AcDbSpline
210
0.0
220
0.0
230
1.0
 70
     8
 71
     3
 72
    12
 73
     8
 74
     0
 42
0.00000001
 43
0.00000001
 40
0.0
 40
0.0
 40
0.0
 40
0.0
 40
0.2236727826515283
 40
0.4523109629168071
 40
0.6822373453413663
 40
0.910224173421194
 40
0.9999999999999999
 40
0.9999999999999999
 40
0.9999999999999999
 40
0.9999999999999999
 10
286.2631955140207
 20
88.76993928019722
 30
0.0
 10
286.2504555038097
 20
88.727390354721
 30
0.0
 10
286.2246926630304
 20
88.64134794390499
 30
0.0
 10
286.3458413492045
 20
88.54973112134432
 30
0.0
 10
286.5775181431476
 20
88.45343466839643
 30
0.0
 10
286.8223690229167
 20
88.3909315050249
 30
0.0
 10
287.005704963694
 20
88.39615733988421
 30
0.0
 10
287.0575019114588
 20
88.39763376776894
 30
0.0
  0
SPLINE
  5
18C
330
1F
100
AcDbEntity
  8
0
  6
Continuous
 62
     7
370
    15
100
AcDbSpline
210
0.0
220
0.0
230
1.0
 70
     8
 71
     3
 72
    19
 73
    15
 74
     0
 42
0.00000001
 43
0.00000001
 40
0.0
 40
0.0
 40
0.0
 40
0.0
 40
0.0979035393000115
 40
0.1753756563330696
 40
0.2884818590799323
 40
0.3734522648527735
 40
0.4570007918721557
 40
0.6168871148661501
 40
0.6796662618743397
 40
0.7634257762035627
 40
0.8137535179267188
 40
0.8702971343427371
 40
0.9323987965267058
 40
1.0
 40
1.0
 40
1.0
 40
1.0
 10
286.4394315474603
 20
88.27480349604805
 30
0.0
 10
286.4899432908325
 20
88.24842862967272
 30
0.0
 10
286.5804255166005
 20
88.20118304964211
 30
0.0
 10
286.9550455698782
 20
88.14053160586106
 30
0.0
 10
287.4415701391275
 20
88.08664948785692
 30
0.0
 10
288.0328937584897
 20
88.03339990382698
 30
0.0
 10
288.7869990809049
 20
87.9818548797879
 30
0.0
 10
289.4280935040004
 20
87.91491611351634
 30
0.0
 10
290.0773738679934
 20
87.87939876772066
 30
0.0
 10
290.4556987825925
 20
87.95757717337585
 30
0.0
 10
290.7075574169539
 20
88.06578622114597
 30
0.0
 10
290.8411406689975
 20
88.15412621001795
 30
0.0
 10
290.9029166806873
 20
88.22796577938725
 30
0.0
 10
290.8314728597098
 20
88.30847851110896
 30
0.0
 10
290.7942363017175
 20
88.35044179026802
 30
0.0
  0
SPLINE
  5
18D
330
1F
100
AcDbEntity
  8
0
  6
Continuous
 62
     7
370
    15
100
AcDbSpline
210
0.0
220
0.0
230
1.0
 70
     8
 71
     3
 72
    25
 73
    21
 74
     0
 42
0.00000001
 43
0.00000001
 40
0.0
 40
0.0
 40
0.0
 40
0.0
 40
0.0176246392394413
 40
0.0344969568561625
 40
0.0503139701869726
 40
0.0649734839709211
 40
0.0909455878916588
 40
0.1134382795111672
 40
0.1538392018677761
 40
0.1912341079625859
 40
0.2995703990746714
 40
0.3999631856971291
 40
0.5012954718041503
 40
0.5949059273016848
 40
0.6784890584446596
 40
0.7336301892255824
 40
0.8075201284145191
 40
0.8952852217971792
 40
0.945308569301786
 40
1.0
 40
1.0
 40
1.0
 40
1.0
 10
290.4369213574503
 20
87.72486124102791
 30
0.0
 10
290.4766268862355
 20
87.72925198457321
 30
0.0
 10
290.5543430820027
 20
87.7378460493135
 30
0.0
 10
290.6562207154563
 20
87.78385423583609
 30
0.0
 10
290.7372412363766
 20
87.84281098055568
 30
0.0
 10
290.8134369736405
 20
87.92639930821647
 30
0.0
 10
290.8664924751619
 20
88.03004293132794
 30
0.0
 10
290.89063666794
 20
88.16236724306906
 30
0.0
 10
290.8677617091035
 20
88.29423643289658
 30
0.0
 10
290.696522987118
 20
88.539460134271
 30
0.0
 10
290.3537364813443
 20
88.62652389852263
 30
0.0
 10
289.8586229244321
 20
88.68508582000312
 30
0.0
 10
289.2454110002627
 20
88.74344968548655
 30
0.0
 10
288.5959390013599
 20
88.7930768642654
 30
0.0
 10
288.0562323468882
 20
88.83253905295562
 30
0.0
 10
287.6102246105341
 20
88.87172206503128
 30
0.0
 10
287.2215252802749
 20
88.90994164972781
 30
0.0
 10
286.9613678841562
 20
88.93780334282958
 30
0.0
 10
286.8309246430314
 20
88.96028842439912
 30
0.0
 10
286.8222552564168
 20
88.97274825342896
 30
0.0
 10
286.8177273266886
 20
88.9792558914872
 30
0.0
  0
SPLINE
  5
18E
330
1F
100
AcDbEntity
  8
0
  6
Continuous
 62
     7
370
    15
100
AcDbSpline
210
0.0
220
0.0
230
1.0
 70
     8
 71
     3
 72
    12
 73
     8
 74
     0
 42
0.00000001
 43
0.00000001
 40
0.0
 40
0.0
 40
0.0
 40
0.0
 40
0.1756482571246792
 40
0.5723140617958544
 40
0.7586200854858739
 40
0.9207488491061101
 40
1.0
 40
1.0
 40
1.0
 40
1.0
 10
286.9060614102457
 20
88.1607798105927
 30
0.0
 10
286.8404973712715
 20
88.15160261957189
 30
0.0
 10
286.6268703073467
 20
88.12170061225919
 30
0.0
 10
286.4109683824517
 20
88.04780280460895
 30
0.0
 10
286.2497925978229
 20
87.83284284189816
 30
0.0
 10
286.2185937428686
 20
87.67264285134155
 30
0.0
 10
286.2495686098226
 20
87.59397453364286
 30
0.0
 10
286.2597384446237
 20
87.56814572875221
 30
0.0
  0
LINE
  5
18F
330
1F
100
AcDbEntity
  8
0
  6
Continuous
 62
     7
370
    15
100
AcDbLine
 10
286.4172586196
 20
78.8703379399
 30
0.0
 11
285.2987923616
 21
78.8703379399
 31
0.0
  0
LINE
  5
190
330
1F
100
AcDbEntity
  8
0
  6
Continuous
 62
     7
370
    15
100
AcDbLine
 10
285.2987923616
 20
78.0703392989
 30
0.0
 11
287.0575019115
 21
78.0703392989
 31
0.0
  0
LINE
  5
191
330
1F
100
AcDbEntity
  8
0
  6
Continuous
 62
     7
370
    15
100
AcDbLine
 10
283.8885017627
 20
91.6680810219
 30
0.0
 11
283.8885017627
 21
91.7215463883
 31
0.0
  0
LINE
  5
192
330
1F
100
AcDbEntity
  8
0
  6
Continuous
 62
     7
370
    15
100
AcDbLine
 10
280.8885105842
 20
91.7215463883
 30
0.0
 11
280.8885105842
 21
91.6680810219
 31
0.0
  0
SPLINE
  5
193
330
1F
100
AcDbEntity
  8
0
  6
Continuous
 62
     7
370
    15
100
AcDbSpline
210
0.0
220
0.0
230
1.0
 70
     8
 71
     3
 72
    15
 73
    11
 74
     0
 42
0.00000001
 43
0.00000001
 40
0.0
 40
0.0
 40
0.0
 40
0.0
 40
0.1077555912139558
 40
0.2352512867497204
 40
0.3627904866428148
 40
0.4902569396959399
 40
0.6176632283804692
 40
0.7450970579680405
 40
0.8724965220050076
 40
1.0
 40
1.0
 40
1.0
 40
1.0
 10
280.9045591347788
 20
75.66807839934545
 30
0.0
 10
280.9210982615324
 20
75.35555616450313
 30
0.0
 10
280.9572063725518
 20
74.6732597095695
 30
0.0
 10
281.2934190632121
 20
73.66411167698719
 30
0.0
 10
281.8514989227519
 20
72.7006326279838
 30
0.0
 10
282.6063234517318
 20
71.8797058549123
 30
0.0
 10
283.5214881334458
 20
71.24444000140379
 30
0.0
 10
284.5487425252405
 20
70.82427941476266
 30
0.0
 10
285.6447225634391
 20
70.61047807960821
 30
0.0
 10
286.3804817334836
 20
70.67600260666363
 30
0.0
 10
286.7485114329431
 20
70.70877823893746
 30
0.0
  0
SPLINE
  5
194
330
1F
100
AcDbEntity
  8
0
  6
Continuous
 62
     7
370
    15
100
AcDbSpline
210
0.0
220
0.0
230
1.0
 70
     8
 71
     3
 72
    15
 73
    11
 74
     0
 42
0.00000001
 43
0.00000001
 40
0.0
 40
0.0
 40
0.0
 40
0.0
 40
0.1316477015390902
 40
0.2633131506816926
 40
0.3951896833002169
 40
0.5266691331754115
 40
0.6575482229644736
 40
0.7882147071164683
 40
0.9184600275433871
 40
1.0
 40
1.0
 40
1.0
 40
1.0
 10
286.2508126490686
 20
73.6664650208207
 30
0.0
 10
286.098634029491
 20
73.65465095397461
 30
0.0
 10
285.7942562749319
 20
73.63102122761204
 30
0.0
 10
285.3433942613918
 20
73.732487655677
 30
0.0
 10
284.9243708697221
 20
73.9193624156112
 30
0.0
 10
284.5539757308464
 20
74.19195279727703
 30
0.0
 10
284.2517044011018
 20
74.53785772212076
 30
0.0
 10
284.0325581715393
 20
74.93957287323838
 30
0.0
 10
283.9151958620698
 20
75.32588371485865
 30
0.0
 10
283.9050135577352
 20
75.57295346997564
 30
0.0
 10
283.9010932438944
 20
75.66807839934548
 30
0.0
  0
SPLINE
  5
195
330
1F
100
AcDbEntity
  8
0
  6
Continuous
 62
     7
370
    15
100
AcDbSpline
210
0.0
220
0.0
230
1.0
 70
     8
 71
     3
 72
    15
 73
    11
 74
     0
 42
0.00000001
 43
0.00000001
 40
0.0
 40
0.0
 40
0.0
 40
0.0
 40
0.1249271573134593
 40
0.2499157812410455
 40
0.3749662107914277
 40
0.4999574920693412
 40
0.6249213545005095
 40
0.74991694858065
 40
0.8748746337024725
 40
1.0
 40
1.0
 40
1.0
 40
1.0
 10
286.919383048353
 20
96.59860704009255
 30
0.0
 10
286.5530062483571
 20
96.64193960708629
 30
0.0
 10
285.8200723837867
 20
96.72862606154753
 30
0.0
 10
284.716051137641
 20
96.56342697259804
 30
0.0
 10
283.6752473069754
 20
96.17450506417208
 30
0.0
 10
282.7400608922494
 20
95.56947907864907
 30
0.0
 10
281.9594040967791
 20
94.7732950157551
 30
0.0
 10
281.3714481034337
 20
93.82892507322477
 30
0.0
 10
280.9756249310647
 20
92.7804818701177
 30
0.0
 10
280.9175616769787
 20
92.04136114567562
 30
0.0
 10
280.888510584173
 20
91.67155299250801
 30
0.0
  0
SPLINE
  5
196
330
1F
100
AcDbEntity
  8
0
  6
Continuous
 62
     7
370
    15
100
AcDbSpline
210
0.0
220
0.0
230
1.0
 70
     8
 71
     3
 72
    15
 73
    11
 74
     0
 42
0.00000001
 43
0.00000001
 40
0.0
 40
0.0
 40
0.0
 40
0.0
 40
0.1242547575747437
 40
0.2486339489561042
 40
0.3735431332128678
 40
0.498583514202398
 40
0.62366622744625
 40
0.7490730252127812
 40
0.8744398960032305
 40
1.0
 40
1.0
 40
1.0
 40
1.0
 10
283.8885017626856
 20
91.67155299250801
 30
0.0
 10
283.9020570851458
 20
91.82351160003338
 30
0.0
 10
283.9291813049219
 20
92.12758099266149
 30
0.0
 10
284.1036688853966
 20
92.55489055836976
 30
0.0
 10
284.3569910728047
 20
92.9365307416014
 30
0.0
 10
284.6868129775162
 20
93.25646632177181
 30
0.0
 10
285.0777434501894
 20
93.49703678903504
 30
0.0
 10
285.5104387763029
 20
93.64866758799111
 30
0.0
 10
285.9679669299189
 20
93.70212974327161
 30
0.0
 10
286.2698808826501
 20
93.66143320746632
 30
0.0
 10
286.42095410758
 20
93.64106926982124
 30
0.0
  0
LINE
  5
197
330
1F
100
AcDbEntity
  8
0
  6
Continuous
 62
     7
370
    15
100
AcDbLine
 10
301.7915614837
 20
76.2832132346
 30
0.0
 11
286.2505891317
 21
73.6668077475
 31
0.0
  0
LINE
  5
198
330
1F
100
AcDbEntity
  8
0
  6
Continuous
 62
     7
370
    15
100
AcDbLine
 10
286.7486604446
 20
70.7084355122
 30
0.0
 11
302.2896178954
 21
73.3248559005
 31
0.0
  0
LINE
  5
199
330
1F
100
AcDbEntity
  8
0
  6
Continuous
 62
     7
370
    15
100
AcDbLine
 10
286.421177625
 20
93.6406520373
 30
0.0
 11
301.962149977
 21
91.0242316491
 31
0.0
  0
LINE
  5
19A
330
1F
100
AcDbEntity
  8
0
  6
Continuous
 62
     7
370
    15
100
AcDbLine
 10
302.4602063888
 20
93.9825889832
 30
0.0
 11
286.9192340367
 21
96.5990093714
 31
0.0
  0
SPLINE
  5
19B
330
1F
100
AcDbEntity
  8
0
  6
Continuous
 62
     7
370
    15
100
AcDbSpline
210
0.0
220
0.0
230
1.0
 70
     8
 71
     3
 72
    12
 73
     8
 74
     0
 42
0.00000001
 43
0.00000001
 40
0.0
 40
0.0
 40
0.0
 40
0.0
 40
0.152614372147587
 40
0.2973901043391633
 40
0.5623703041980945
 40
0.7966014804334398
 40
1.0
 40
1.0
 40
1.0
 40
1.0
 10
302.2892751687143
 20
73.32515392367561
 30
0.0
 10
302.5404939768179
 20
73.37789908505613
 30
0.0
 10
303.0300283928927
 20
73.4806802899034
 30
0.0
 10
303.8795613756101
 20
73.90990305554679
 30
0.0
 10
304.691543335096
 20
74.65430875581097
 30
0.0
 10
305.2559952117621
 20
75.72534430274558
 30
0.0
 10
305.3376823790024
 20
76.46027303112723
 30
0.0
 10
305.3756483786676
 20
76.80184814994054
 30
0.0
  0
SPLINE
  5
19C
330
1F
100
AcDbEntity
  8
0
  6
Continuous
 62
     7
370
    15
100
AcDbSpline
210
0.0
220
0.0
230
1.0
 70
     8
 71
     3
 72
    11
 73
     7
 74
     0
 42
0.00000001
 43
0.00000001
 40
0.0
 40
0.0
 40
0.0
 40
0.0
 40
0.2003612183303601
 40
0.4328064177399985
 40
0.6990203462100683
 40
1.0
 40
1.0
 40
1.0
 40
1.0
 10
302.3773261302088
 20
76.80184814994054
 30
0.0
 10
302.3640991136597
 20
76.74541935762677
 30
0.0
 10
302.335527029213
 20
76.62352579128567
 30
0.0
 10
302.2196372649086
 20
76.457833063168
 30
0.0
 10
302.0348974803855
 20
76.31890920772439
 30
0.0
 10
301.8772747804379
 20
76.29552995910186
 30
0.0
 10
301.7936327450846
 20
76.28312382762154
 30
0.0
  0
SPLINE
  5
19D
330
1F
100
AcDbEntity
  8
0
  6
Continuous
 62
     7
370
    15
100
AcDbSpline
210
0.0
220
0.0
230
1.0
 70
     8
 71
     3
 72
    12
 73
     8
 74
     0
 42
0.00000001
 43
0.00000001
 40
0.0
 40
0.0
 40
0.0
 40
0.0
 40
0.2034078873662362
 40
0.4376401691592187
 40
0.7026184730706869
 40
0.8473893141552667
 40
1.0
 40
1.0
 40
1.0
 40
1.0
 10
305.3756483786676
 20
90.36047432486733
 30
0.0
 10
305.3542074887756
 20
90.70348469342754
 30
0.0
 10
305.3080765604189
 20
91.44148515970141
 30
0.0
 10
304.7959791674847
 20
92.5386018098859
 30
0.0
 10
304.0207669070668
 20
93.32134768224157
 30
0.0
 10
303.1929171128612
 20
93.79107724822963
 30
0.0
 10
302.7089347775586
 20
93.91734412721603
 30
0.0
 10
302.4605640166376
 20
93.98214194838722
 30
0.0
  0
SPLINE
  5
19E
330
1F
100
AcDbEntity
  8
0
  6
Continuous
 62
     7
370
    15
100
AcDbSpline
210
0.0
220
0.0
230
1.0
 70
     8
 71
     3
 72
    12
 73
     8
 74
     0
 42
0.00000001
 43
0.00000001
 40
0.0
 40
0.0
 40
0.0
 40
0.0
 40
0.155560948770158
 40
0.3022070936722985
 40
0.56796849615778
 40
0.7999357583981019
 40
1.0
 40
1.0
 40
1.0
 40
1.0
 10
301.9602277272318
 20
91.0251406199189
 30
0.0
 10
302.0007745980774
 20
91.00939086668531
 30
0.0
 10
302.0795447013239
 20
90.9787939386747
 30
0.0
 10
302.2091774466682
 20
90.88375239494611
 30
0.0
 10
302.3236090406598
 20
90.73758251407668
 30
0.0
 10
302.3877454908937
 20
90.54332789297493
 30
0.0
 10
302.3806239557493
 20
90.41834919697538
 30
0.0
 10
302.3773261302088
 20
90.3604743248673
 30
0.0
  0
LINE
  5
19F
330
1F
100
AcDbEntity
  8
0
  6
Continuous
 62
     7
370
    15
100
AcDbLine
 10
302.3764916652
 20
90.4104826218
 30
0.0
 11
302.3764916652
 21
90.1680854327
 31
0.0
  0
LINE
  5
1A0
330
1F
100
AcDbEntity
  8
0
  6
Continuous
 62
     7
370
    15
100
AcDbLine
 10
302.3764916652
 20
77.1680888898
 30
0.0
 11
302.3764916652
 21
76.751839853
 31
0.0
  0
LINE
  5
1A1
330
1F
100
AcDbEntity
  8
0
  6
Continuous
 62
     7
370
    15
100
AcDbLine
 10
305.3764828437
 20
76.751839853
 30
0.0
 11
305.3764828437
 21
77.1708307034
 31
0.0
  0
LINE
  5
1A2
330
1F
100
AcDbEntity
  8
0
  6
Continuous
 62
     7
370
    15
100
AcDbLine
 10
305.3764828437
 20
90.165343619
 30
0.0
 11
305.3764828437
 21
90.4104826218
 31
0.0
  0
LINE
  5
1A3
330
1F
100
AcDbEntity
  8
0
  6
Continuous
 62
     7
370
    15
100
AcDbLine
 10
291.6757740968
 20
89.2680850989
 30
0.0
 11
290.05749309
 21
89.2680850989
 31
0.0
  0
LINE
  5
1A4
330
1F
100
AcDbEntity
  8
0
  6
Continuous
 62
     7
370
    15
100
AcDbLine
 10
290.6844147437
 20
88.4680864579
 30
0.0
 11
291.6757740968
 21
88.4680864579
 31
0.0
  0
LINE
  5
1A5
330
1F
100
AcDbEntity
  8
0
  6
Continuous
 62
     7
370
    15
100
AcDbLine
 10
292.0140006536
 20
90.53621862
 30
0.0
 11
291.7474635833
 21
89.3279728657
 31
0.0
  0
LINE
  5
1A6
330
1F
100
AcDbEntity
  8
0
  6
Continuous
 62
     7
370
    15
100
AcDbLine
 10
292.5156184428
 20
89.096423722
 30
0.0
 11
292.7952089303
 21
90.3638866908
 31
0.0
  0
SPLINE
  5
1A7
330
1F
100
AcDbEntity
  8
0
  6
Continuous
 62
     7
370
    15
100
AcDbSpline
210
0.0
220
0.0
230
1.0
 70
     8
 71
     3
 72
    11
 73
     7
 74
     0
 42
0.00000001
 43
0.00000001
 40
0.0
 40
0.0
 40
0.0
 40
0.0
 40
0.2541311630691059
 40
0.5022676364033828
 40
0.7495179365131207
 40
1.0
 40
1.0
 40
1.0
 40
1.0
 10
291.6757740967844
 20
88.46808645789345
 30
0.0
 10
291.7758625300798
 20
88.47833158214577
 30
0.0
 10
291.9736784146628
 20
88.49858015882847
 30
0.0
 10
292.2318300018121
 20
88.65260579573206
 30
0.0
 10
292.4352714190844
 20
88.87168702697993
 30
0.0
 10
292.4970073987138
 20
89.05873705237045
 30
0.0
 10
292.5280758135889
 20
89.15286932055672
 30
0.0
  0
LINE
  5
1A8
330
1F
100
AcDbEntity
  8
0
  6
Continuous
 62
     7
370
    15
100
AcDbLine
 10
301.6561099284
 20
90.1680854327
 30
0.0
 11
301.6561099284
 21
77.1680888898
 31
0.0
  0
LINE
  5
1A9
330
1F
100
AcDbEntity
  8
0
  6
Continuous
 62
     7
370
    15
100
AcDbLine
 10
301.6561099284
 20
90.1680854327
 30
0.0
 11
304.375080108
 21
90.1680854327
 31
0.0
  0
LWPOLYLINE
  5
1AA
330
1F
100
AcDbEntity
  8
0
  6
Continuous
 62
     7
370
    15
100
AcDbPolyline
 90
        9
 70
   128
 43
0.0
 10
305.1055946344
 20
88.9680800206
 10
305.0915577405
 20
89.2021921641
 10
305.0499984019
 20
89.4273040063
 10
304.9824812406
 20
89.6347728736
 10
304.8916437619
 20
89.8166117436
 10
304.7809430354
 20
89.965846873
 10
304.6546407931
 20
90.0767413146
 10
304.5175948136
 20
90.1450184352
 10
304.375080108
 20
90.1680854327
  0
LINE
  5
1AB
330
1F
100
AcDbEntity
  8
0
  6
Continuous
 62
     7
370
    15
100
AcDbLine
 10
305.1055946344
 20
88.9680800206
 30
0.0
 11
305.1055946344
 21
78.3680794007
 31
0.0
  0
LWPOLYLINE
  5
1AC
330
1F
100
AcDbEntity
  8
0
  6
Continuous
 62
     7
370
    15
100
AcDbPolyline
 90
        9
 70
   128
 43
0.0
 10
304.375080108
 20
77.1680888898
 10
304.5175948136
 20
77.1911409861
 10
304.6546407931
 20
77.2594330079
 10
304.7809430354
 20
77.3703125483
 10
304.8916437619
 20
77.5195476777
 10
304.9824812406
 20
77.7014014489
 10
305.0499984019
 20
77.908855415
 10
305.0915577405
 20
78.1339672572
 10
305.1055946344
 20
78.3680794007
  0
LINE
  5
1AD
330
1F
100
AcDbEntity
  8
0
  6
Continuous
 62
     7
370
    15
100
AcDbLine
 10
304.375080108
 20
77.1680888898
 30
0.0
 11
301.6561099284
 21
77.1680888898
 31
0.0
  0
LINE
  5
1AE
330
1F
100
AcDbEntity
  8
0
  6
Continuous
 62
     7
370
    15
100
AcDbLine
 10
305.3271152967
 20
77.1680888898
 30
0.0
 11
304.375080108
 21
77.1680888898
 31
0.0
  0
LINE
  5
1AF
330
1F
100
AcDbEntity
  8
0
  6
Continuous
 62
     7
370
    15
100
AcDbLine
 10
305.1055946344
 20
78.3680794007
 30
0.0
 11
306.057629823
 21
78.3680794007
 31
0.0
  0
LWPOLYLINE
  5
1B0
330
1F
100
AcDbEntity
  8
0
  6
Continuous
 62
     7
370
    15
100
AcDbPolyline
 90
        9
 70
   128
 43
0.0
 10
306.057629823
 20
78.3680794007
 10
306.0435929292
 20
78.1339672572
 10
306.0020186895
 20
77.908855415
 10
305.9345164292
 20
77.7014014489
 10
305.8436640494
 20
77.5195476777
 10
305.7329633229
 20
77.3703125483
 10
305.6066610807
 20
77.2594330079
 10
305.4696300023
 20
77.1911409861
 10
305.3271152967
 20
77.1680888898
  0
LINE
  5
1B1
330
1F
100
AcDbEntity
  8
0
  6
Continuous
 62
     7
370
    15
100
AcDbLine
 10
306.057629823
 20
88.9680800206
 30
0.0
 11
305.1055946344
 21
88.9680800206
 31
0.0
  0
LINE
  5
1B2
330
1F
100
AcDbEntity
  8
0
  6
Continuous
 62
     7
370
    15
100
AcDbLine
 10
306.057629823
 20
88.9680800206
 30
0.0
 11
306.057629823
 21
78.3680794007
 31
0.0
  0
LINE
  5
1B3
330
1F
100
AcDbEntity
  8
0
  6
Continuous
 62
     7
370
    15
100
AcDbLine
 10
304.375080108
 20
90.1680854327
 30
0.0
 11
305.3271152967
 21
90.1680854327
 31
0.0
  0
LWPOLYLINE
  5
1B4
330
1F
100
AcDbEntity
  8
0
  6
Continuous
 62
     7
370
    15
100
AcDbPolyline
 90
        9
 70
   128
 43
0.0
 10
305.3271152967
 20
90.1680854327
 10
305.4696300023
 20
90.1450184352
 10
305.6066610807
 20
90.0767413146
 10
305.7329633229
 20
89.965846873
 10
305.8436640494
 20
89.8166117436
 10
305.9345164292
 20
89.6347728736
 10
306.0020186895
 20
89.4273040063
 10
306.0435929292
 20
89.2021921641
 10
306.057629823
 20
88.9680800206
  0
LINE
  5
1B5
330
1F
100
AcDbEntity
  8
0
  6
Continuous
 62
     7
370
    15
100
AcDbLine
 10
301.6561099284
 20
460.1680752999
 30
0.0
 11
301.6561099284
 21
447.168078757
 31
0.0
  0
LINE
  5
1B6
330
1F
100
AcDbEntity
  8
0
  6
Continuous
 62
     7
370
    15
100
AcDbLine
 10
301.6561099284
 20
460.1680752999
 30
0.0
 11
304.375080108
 21
460.1680752999
 31
0.0
  0
LWPOLYLINE
  5
1B7
330
1F
100
AcDbEntity
  8
0
  6
Continuous
 62
     7
370
    15
100
AcDbPolyline
 90
        9
 70
   128
 43
0.0
 10
305.1055946344
 20
458.968084789
 10
305.0915577405
 20
459.2021969325
 10
305.0499984019
 20
459.4273087746
 10
304.9824812406
 20
459.6347627408
 10
304.8916437619
 20
459.816616512
 10
304.7809430354
 20
459.9658516413
 10
304.6546407931
 20
460.0767311818
 10
304.5175948136
 20
460.1450232035
 10
304.375080108
 20
460.1680752999
  0
LINE
  5
1B8
330
1F
100
AcDbEntity
  8
0
  6
Continuous
 62
     7
370
    15
100
AcDbLine
 10
305.1055946344
 20
458.968084789
 30
0.0
 11
305.1055946344
 21
448.3680841691
 31
0.0
  0
LWPOLYLINE
  5
1B9
330
1F
100
AcDbEntity
  8
0
  6
Continuous
 62
     7
370
    15
100
AcDbPolyline
 90
        9
 70
   128
 43
0.0
 10
304.375080108
 20
447.168078757
 10
304.5175948136
 20
447.1911457545
 10
304.6546407931
 20
447.2594228751
 10
304.7809430354
 20
447.3703173167
 10
304.8916437619
 20
447.5195524461
 10
304.9824812406
 20
447.7013913161
 10
305.0499984019
 20
447.9088601834
 10
305.0915577405
 20
448.1339720256
 10
305.1055946344
 20
448.3680841691
  0
LINE
  5
1BA
330
1F
100
AcDbEntity
  8
0
  6
Continuous
 62
     7
370
    15
100
AcDbLine
 10
304.375080108
 20
447.168078757
 30
0.0
 11
301.6561099284
 21
447.168078757
 31
0.0
  0
LINE
  5
1BB
330
1F
100
AcDbEntity
  8
0
  6
Continuous
 62
     7
370
    15
100
AcDbLine
 10
304.375080108
 20
460.1680752999
 30
0.0
 11
305.3271152967
 21
460.1680752999
 31
0.0
  0
LWPOLYLINE
  5
1BC
330
1F
100
AcDbEntity
  8
0
  6
Continuous
 62
     7
370
    15
100
AcDbPolyline
 90
        9
 70
   128
 43
0.0
 10
305.3271152967
 20
460.1680752999
 10
305.4696300023
 20
460.1450232035
 10
305.6066610807
 20
460.0767311818
 10
305.7329633229
 20
459.9658516413
 10
305.8436640494
 20
459.816616512
 10
305.9345164292
 20
459.6347627408
 10
306.0020186895
 20
459.4273087746
 10
306.0435929292
 20
459.2021969325
 10
306.057629823
 20
458.968084789
  0
LINE
  5
1BD
330
1F
100
AcDbEntity
  8
0
  6
Continuous
 62
     7
370
    15
100
AcDbLine
 10
306.057629823
 20
458.968084789
 30
0.0
 11
305.1055946344
 21
458.968084789
 31
0.0
  0
LINE
  5
1BE
330
1F
100
AcDbEntity
  8
0
  6
Continuous
 62
     7
370
    15
100
AcDbLine
 10
305.3271152967
 20
447.168078757
 30
0.0
 11
304.375080108
 21
447.168078757
 31
0.0
  0
LINE
  5
1BF
330
1F
100
AcDbEntity
  8
0
  6
Continuous
 62
     7
370
    15
100
AcDbLine
 10
305.1055946344
 20
448.3680841691
 30
0.0
 11
306.057629823
 21
448.3680841691
 31
0.0
  0
LWPOLYLINE
  5
1C0
330
1F
100
AcDbEntity
  8
0
  6
Continuous
 62
     7
370
    15
100
AcDbPolyline
 90
        9
 70
   128
 43
0.0
 10
306.057629823
 20
448.3680841691
 10
306.0435929292
 20
448.1339720256
 10
306.0020186895
 20
447.9088601834
 10
305.9345164292
 20
447.7013913161
 10
305.8436640494
 20
447.5195524461
 10
305.7329633229
 20
447.3703173167
 10
305.6066610807
 20
447.2594228751
 10
305.4696300023
 20
447.1911457545
 10
305.3271152967
 20
447.168078757
  0
LINE
  5
1C1
330
1F
100
AcDbEntity
  8
0
  6
Continuous
 62
     7
370
    15
100
AcDbLine
 10
306.057629823
 20
458.968084789
 30
0.0
 11
306.057629823
 21
448.3680841691
 31
0.0
  0
LINE
  5
1C2
330
1F
100
AcDbEntity
  8
0
  6
Continuous
 62
     7
370
    15
100
AcDbLine
 10
301.0774978393
 20
90.1680854327
 30
0.0
 11
301.6561099284
 21
90.1680854327
 31
0.0
  0
LINE
  5
1C3
330
1F
100
AcDbEntity
  8
0
  6
Continuous
 62
     7
370
    15
100
AcDbLine
 10
301.6561099284
 20
77.1680888898
 30
0.0
 11
301.0774978393
 21
77.1680888898
 31
0.0
  0
LINE
  5
1C4
330
1F
100
AcDbEntity
  8
0
  6
Continuous
 62
     7
370
    15
100
AcDbLine
 10
301.0774978393
 20
460.1680752999
 30
0.0
 11
301.6561099284
 21
460.1680752999
 31
0.0
  0
LINE
  5
1C5
330
1F
100
AcDbEntity
  8
0
  6
Continuous
 62
     7
370
    15
100
AcDbLine
 10
301.6561099284
 20
447.168078757
 30
0.0
 11
301.0774978393
 21
447.168078757
 31
0.0
  0
LINE
  5
1C6
330
1F
100
AcDbEntity
  8
0
  6
Continuous
 62
     7
370
    15
100
AcDbLine
 10
311.1774899953
 20
76.7680821187
 30
0.0
 11
311.9774886363
 21
76.7680821187
 31
0.0
  0
LINE
  5
1C7
330
1F
100
AcDbEntity
  8
0
  6
Continuous
 62
     7
370
    15
100
AcDbLine
 10
311.9774886363
 20
76.7680821187
 30
0.0
 11
311.9774886363
 21
78.2680777079
 31
0.0
  0
LINE
  5
1C8
330
1F
100
AcDbEntity
  8
0
  6
Continuous
 62
     7
370
    15
100
AcDbLine
 10
311.9774886363
 20
78.2680777079
 30
0.0
 11
313.4774991267
 21
78.2680777079
 31
0.0
  0
LINE
  5
1C9
330
1F
100
AcDbEntity
  8
0
  6
Continuous
 62
     7
370
    15
100
AcDbLine
 10
313.4774991267
 20
78.2680777079
 30
0.0
 11
313.4774991267
 21
79.0680763489
 31
0.0
  0
LINE
  5
1CA
330
1F
100
AcDbEntity
  8
0
  6
Continuous
 62
     7
370
    15
100
AcDbLine
 10
313.4774991267
 20
79.0680763489
 30
0.0
 11
311.9774886363
 21
79.0680763489
 31
0.0
  0
LINE
  5
1CB
330
1F
100
AcDbEntity
  8
0
  6
Continuous
 62
     7
370
    15
100
AcDbLine
 10
311.9774886363
 20
79.0680763489
 30
0.0
 11
311.9774886363
 21
80.5680868394
 31
0.0
  0
LINE
  5
1CC
330
1F
100
AcDbEntity
  8
0
  6
Continuous
 62
     7
370
    15
100
AcDbLine
 10
311.9774886363
 20
80.5680868394
 30
0.0
 11
311.1774899953
 21
80.5680868394
 31
0.0
  0
LINE
  5
1CD
330
1F
100
AcDbEntity
  8
0
  6
Continuous
 62
     7
370
    15
100
AcDbLine
 10
311.1774899953
 20
80.5680868394
 30
0.0
 11
311.1774899953
 21
79.0680763489
 31
0.0
  0
LINE
  5
1CE
330
1F
100
AcDbEntity
  8
0
  6
Continuous
 62
     7
370
    15
100
AcDbLine
 10
311.1774899953
 20
79.0680763489
 30
0.0
 11
309.677494406
 21
79.0680763489
 31
0.0
  0
LINE
  5
1CF
330
1F
100
AcDbEntity
  8
0
  6
Continuous
 62
     7
370
    15
100
AcDbLine
 10
309.677494406
 20
79.0680763489
 30
0.0
 11
309.677494406
 21
78.2680777079
 31
0.0
  0
LINE
  5
1D0
330
1F
100
AcDbEntity
  8
0
  6
Continuous
 62
     7
370
    15
100
AcDbLine
 10
309.677494406
 20
78.2680777079
 30
0.0
 11
311.1774899953
 21
78.2680777079
 31
0.0
  0
LINE
  5
1D1
330
1F
100
AcDbEntity
  8
0
  6
Continuous
 62
     7
370
    15
100
AcDbLine
 10
311.1774899953
 20
78.2680777079
 30
0.0
 11
311.1774899953
 21
76.7680821187
 31
0.0
  0
CIRCLE
  5
1D2
330
1F
100
AcDbEntity
  8
0
  6
Continuous
 62
     7
370
    15
100
AcDbCircle
 10
311.5774946921
 20
78.6680820948
 30
0.0
 40
3.0
  0
LINE
  5
1D3
330
1F
100
AcDbEntity
  8
0
  6
Continuous
 62
     7
370
    15
100
AcDbLine
 10
311.1774899953
 20
88.2680830723
 30
0.0
 11
311.1774899953
 21
86.7680874831
 31
0.0
  0
LINE
  5
1D4
330
1F
100
AcDbEntity
  8
0
  6
Continuous
 62
     7
370
    15
100
AcDbLine
 10
311.1774899953
 20
86.7680874831
 30
0.0
 11
311.9774886363
 21
86.7680874831
 31
0.0
  0
LINE
  5
1D5
330
1F
100
AcDbEntity
  8
0
  6
Continuous
 62
     7
370
    15
100
AcDbLine
 10
311.9774886363
 20
86.7680874831
 30
0.0
 11
311.9774886363
 21
88.2680830723
 31
0.0
  0
LINE
  5
1D6
330
1F
100
AcDbEntity
  8
0
  6
Continuous
 62
     7
370
    15
100
AcDbLine
 10
311.9774886363
 20
88.2680830723
 30
0.0
 11
313.4774991267
 21
88.2680830723
 31
0.0
  0
LINE
  5
1D7
330
1F
100
AcDbEntity
  8
0
  6
Continuous
 62
     7
370
    15
100
AcDbLine
 10
313.4774991267
 20
88.2680830723
 30
0.0
 11
313.4774991267
 21
89.0680817134
 31
0.0
  0
LINE
  5
1D8
330
1F
100
AcDbEntity
  8
0
  6
Continuous
 62
     7
370
    15
100
AcDbLine
 10
313.4774991267
 20
89.0680817134
 30
0.0
 11
311.9774886363
 21
89.0680817134
 31
0.0
  0
LINE
  5
1D9
330
1F
100
AcDbEntity
  8
0
  6
Continuous
 62
     7
370
    15
100
AcDbLine
 10
311.9774886363
 20
89.0680817134
 30
0.0
 11
311.9774886363
 21
90.5680773026
 31
0.0
  0
LINE
  5
1DA
330
1F
100
AcDbEntity
  8
0
  6
Continuous
 62
     7
370
    15
100
AcDbLine
 10
311.9774886363
 20
90.5680773026
 30
0.0
 11
311.1774899953
 21
90.5680773026
 31
0.0
  0
LINE
  5
1DB
330
1F
100
AcDbEntity
  8
0
  6
Continuous
 62
     7
370
    15
100
AcDbLine
 10
311.1774899953
 20
90.5680773026
 30
0.0
 11
311.1774899953
 21
89.0680817134
 31
0.0
  0
LINE
  5
1DC
330
1F
100
AcDbEntity
  8
0
  6
Continuous
 62
     7
370
    15
100
AcDbLine
 10
309.677494406
 20
89.0680817134
 30
0.0
 11
309.677494406
 21
88.2680830723
 31
0.0
  0
LINE
  5
1DD
330
1F
100
AcDbEntity
  8
0
  6
Continuous
 62
     7
370
    15
100
AcDbLine
 10
311.1774899953
 20
89.0680817134
 30
0.0
 11
309.677494406
 21
89.0680817134
 31
0.0
  0
CIRCLE
  5
1DE
330
1F
100
AcDbEntity
  8
0
  6
Continuous
 62
     7
370
    15
100
AcDbCircle
 10
311.5774946921
 20
88.6680820948
 30
0.0
 40
3.000000000000057
  0
LINE
  5
1DF
330
1F
100
AcDbEntity
  8
0
  6
Continuous
 62
     7
370
    15
100
AcDbLine
 10
309.677494406
 20
88.2680830723
 30
0.0
 11
311.1774899953
 21
88.2680830723
 31
0.0
  0
CIRCLE
  5
1E0
330
1F
100
AcDbEntity
  8
0
  6
Continuous
 62
     7
370
    15
100
AcDbCircle
 10
311.5774946921
 20
448.6680820948
 30
0.0
 40
3.0
  0
LINE
  5
1E1
330
1F
100
AcDbEntity
  8
0
  6
Continuous
 62
     7
370
    15
100
AcDbLine
 10
311.1774899953
 20
446.768086887
 30
0.0
 11
311.9774886363
 21
446.768086887
 31
0.0
  0
LINE
  5
1E2
330
1F
100
AcDbEntity
  8
0
  6
Continuous
 62
     7
370
    15
100
AcDbLine
 10
311.9774886363
 20
446.768086887
 30
0.0
 11
311.9774886363
 21
448.2680824763
 31
0.0
  0
LINE
  5
1E3
330
1F
100
AcDbEntity
  8
0
  6
Continuous
 62
     7
370
    15
100
AcDbLine
 10
311.9774886363
 20
448.2680824763
 30
0.0
 11
313.4774991267
 21
448.2680824763
 31
0.0
  0
LINE
  5
1E4
330
1F
100
AcDbEntity
  8
0
  6
Continuous
 62
     7
370
    15
100
AcDbLine
 10
313.4774991267
 20
448.2680824763
 30
0.0
 11
313.4774991267
 21
449.0680811173
 31
0.0
  0
LINE
  5
1E5
330
1F
100
AcDbEntity
  8
0
  6
Continuous
 62
     7
370
    15
100
AcDbLine
 10
313.4774991267
 20
449.0680811173
 30
0.0
 11
311.9774886363
 21
449.0680811173
 31
0.0
  0
LINE
  5
1E6
330
1F
100
AcDbEntity
  8
0
  6
Continuous
 62
     7
370
    15
100
AcDbLine
 10
311.9774886363
 20
449.0680811173
 30
0.0
 11
311.9774886363
 21
450.5680767066
 31
0.0
  0
LINE
  5
1E7
330
1F
100
AcDbEntity
  8
0
  6
Continuous
 62
     7
370
    15
100
AcDbLine
 10
311.9774886363
 20
450.5680767066
 30
0.0
 11
311.1774899953
 21
450.5680767066
 31
0.0
  0
LINE
  5
1E8
330
1F
100
AcDbEntity
  8
0
  6
Continuous
 62
     7
370
    15
100
AcDbLine
 10
311.1774899953
 20
450.5680767066
 30
0.0
 11
311.1774899953
 21
449.0680811173
 31
0.0
  0
LINE
  5
1E9
330
1F
100
AcDbEntity
  8
0
  6
Continuous
 62
     7
370
    15
100
AcDbLine
 10
311.1774899953
 20
449.0680811173
 30
0.0
 11
309.677494406
 21
449.0680811173
 31
0.0
  0
LINE
  5
1EA
330
1F
100
AcDbEntity
  8
0
  6
Continuous
 62
     7
370
    15
100
AcDbLine
 10
309.677494406
 20
449.0680811173
 30
0.0
 11
309.677494406
 21
448.2680824763
 31
0.0
  0
LINE
  5
1EB
330
1F
100
AcDbEntity
  8
0
  6
Continuous
 62
     7
370
    15
100
AcDbLine
 10
309.677494406
 20
448.2680824763
 30
0.0
 11
311.1774899953
 21
448.2680824763
 31
0.0
  0
LINE
  5
1EC
330
1F
100
AcDbEntity
  8
0
  6
Continuous
 62
     7
370
    15
100
AcDbLine
 10
311.1774899953
 20
448.2680824763
 30
0.0
 11
311.1774899953
 21
446.768086887
 31
0.0
  0
LINE
  5
1ED
330
1F
100
AcDbEntity
  8
0
  6
Continuous
 62
     7
370
    15
100
AcDbLine
 10
311.1774899953
 20
458.2680878407
 30
0.0
 11
311.1774899953
 21
456.7680773503
 31
0.0
  0
LINE
  5
1EE
330
1F
100
AcDbEntity
  8
0
  6
Continuous
 62
     7
370
    15
100
AcDbLine
 10
311.1774899953
 20
456.7680773503
 30
0.0
 11
311.9774886363
 21
456.7680773503
 31
0.0
  0
LINE
  5
1EF
330
1F
100
AcDbEntity
  8
0
  6
Continuous
 62
     7
370
    15
100
AcDbLine
 10
311.9774886363
 20
456.7680773503
 30
0.0
 11
311.9774886363
 21
458.2680878407
 31
0.0
  0
LINE
  5
1F0
330
1F
100
AcDbEntity
  8
0
  6
Continuous
 62
     7
370
    15
100
AcDbLine
 10
311.9774886363
 20
458.2680878407
 30
0.0
 11
313.4774991267
 21
458.2680878407
 31
0.0
  0
LINE
  5
1F1
330
1F
100
AcDbEntity
  8
0
  6
Continuous
 62
     7
370
    15
100
AcDbLine
 10
313.4774991267
 20
458.2680878407
 30
0.0
 11
313.4774991267
 21
459.0680864817
 31
0.0
  0
LINE
  5
1F2
330
1F
100
AcDbEntity
  8
0
  6
Continuous
 62
     7
370
    15
100
AcDbLine
 10
313.4774991267
 20
459.0680864817
 30
0.0
 11
311.9774886363
 21
459.0680864817
 31
0.0
  0
LINE
  5
1F3
330
1F
100
AcDbEntity
  8
0
  6
Continuous
 62
     7
370
    15
100
AcDbLine
 10
311.9774886363
 20
459.0680864817
 30
0.0
 11
311.9774886363
 21
460.568082071
 31
0.0
  0
LINE
  5
1F4
330
1F
100
AcDbEntity
  8
0
  6
Continuous
 62
     7
370
    15
100
AcDbLine
 10
311.9774886363
 20
460.568082071
 30
0.0
 11
311.1774899953
 21
460.568082071
 31
0.0
  0
LINE
  5
1F5
330
1F
100
AcDbEntity
  8
0
  6
Continuous
 62
     7
370
    15
100
AcDbLine
 10
311.1774899953
 20
460.568082071
 30
0.0
 11
311.1774899953
 21
459.0680864817
 31
0.0
  0
LINE
  5
1F6
330
1F
100
AcDbEntity
  8
0
  6
Continuous
 62
     7
370
    15
100
AcDbLine
 10
309.677494406
 20
459.0680864817
 30
0.0
 11
309.677494406
 21
458.2680878407
 31
0.0
  0
CIRCLE
  5
1F7
330
1F
100
AcDbEntity
  8
0
  6
Continuous
 62
     7
370
    15
100
AcDbCircle
 10
311.5774946921
 20
458.6680820948
 30
0.0
 40
3.0
  0
LINE
  5
1F8
330
1F
100
AcDbEntity
  8
0
  6
Continuous
 62
     7
370
    15
100
AcDbLine
 10
309.677494406
 20
458.2680878407
 30
0.0
 11
311.1774899953
 21
458.2680878407
 31
0.0
  0
LINE
  5
1F9
330
1F
100
AcDbEntity
  8
0
  6
Continuous
 62
     7
370
    15
100
AcDbLine
 10
311.1774899953
 20
459.0680864817
 30
0.0
 11
309.677494406
 21
459.0680864817
 31
0.0
  0
LINE
  5
1FA
330
1F
100
AcDbEntity
  8
0
  6
Continuous
 62
     7
370
    15
100
AcDbLine
 10
310.5597325557
 20
72.5661930806
 30
0.0
 11
305.5774995082
 21
77.1680888898
 31
0.0
  0
LINE
  5
1FB
330
1F
100
AcDbEntity
  8
0
  6
Continuous
 62
     7
370
    15
100
AcDbLine
 10
305.5774995082
 20
90.1680854327
 30
0.0
 11
310.5597325557
 21
94.7699663407
 31
0.0
  0
ARC
  5
1FC
330
1F
100
AcDbEntity
  8
0
  6
Continuous
 62
     7
370
    15
100
AcDbCircle
 10
311.5774946922
 20
93.6680820948
 30
0.0
 40
1.499999999999969
100
AcDbArc
 50
43.6028189726
 51
132.7273953127
  0
ARC
  5
1FD
330
1F
100
AcDbEntity
  8
0
  6
Continuous
 62
     7
370
    15
100
AcDbCircle
 10
301.0774946921
 20
83.6680820948
 30
0.0
 40
16.00000000000014
100
AcDbArc
 50
316.3971810272
 51
43.6028189726
  0
ARC
  5
1FE
330
1F
100
AcDbEntity
  8
0
  6
Continuous
 62
     7
370
    15
100
AcDbCircle
 10
311.5774946921
 20
73.6680820948
 30
0.0
 40
1.500000000000157
100
AcDbArc
 50
227.2726046868
 51
316.3971810272
  0
LINE
  5
1FF
330
1F
100
AcDbEntity
  8
0
  6
Continuous
 62
     7
370
    15
100
AcDbLine
 10
305.3764828437
 20
90.1680854327
 30
0.0
 11
305.5774995082
 21
90.1680854327
 31
0.0
  0
LINE
  5
200
330
1F
100
AcDbEntity
  8
0
  6
Continuous
 62
     7
370
    15
100
AcDbLine
 10
305.5774995082
 20
77.1680888898
 30
0.0
 11
305.3764828437
 21
77.1680888898
 31
0.0
  0
LINE
  5
201
330
1F
100
AcDbEntity
  8
0
  6
Continuous
 62
     7
370
    15
100
AcDbLine
 10
305.5774995082
 20
460.1680752999
 30
0.0
 11
310.5597325557
 21
464.7699711091
 31
0.0
  0
ARC
  5
202
330
1F
100
AcDbEntity
  8
0
  6
Continuous
 62
     7
370
    15
100
AcDbCircle
 10
311.5774946922
 20
463.6680820948
 30
0.0
 40
1.500000000000069
100
AcDbArc
 50
43.6028189726
 51
132.7273953127
  0
ARC
  5
203
330
1F
100
AcDbEntity
  8
0
  6
Continuous
 62
     7
370
    15
100
AcDbCircle
 10
301.0774946921
 20
453.6680820948
 30
0.0
 40
16.0000000000001
100
AcDbArc
 50
316.3971810272
 51
43.6028189726
  0
ARC
  5
204
330
1F
100
AcDbEntity
  8
0
  6
Continuous
 62
     7
370
    15
100
AcDbCircle
 10
311.5774946921
 20
443.6680820948
 30
0.0
 40
1.50000000000022
100
AcDbArc
 50
227.2726046868
 51
316.3971810272
  0
LINE
  5
205
330
1F
100
AcDbEntity
  8
0
  6
Continuous
 62
     7
370
    15
100
AcDbLine
 10
310.5597325557
 20
442.566197849
 30
0.0
 11
305.5774995082
 21
447.168078757
 31
0.0
  0
LINE
  5
206
330
1F
100
AcDbEntity
  8
0
  6
Continuous
 62
     7
370
    15
100
AcDbLine
 10
305.3764828437
 20
460.1680752999
 30
0.0
 11
305.5774995082
 21
460.1680752999
 31
0.0
  0
LINE
  5
207
330
1F
100
AcDbEntity
  8
0
  6
Continuous
 62
     7
370
    15
100
AcDbLine
 10
305.5774995082
 20
447.168078757
 30
0.0
 11
305.3764828437
 21
447.168078757
 31
0.0
  0
LINE
  5
208
330
1F
100
AcDbEntity
  8
0
  6
Continuous
 62
     7
370
    15
100
AcDbLine
 10
308.5774906867
 20
18.6680820948
 30
0.0
 11
313.5775008195
 21
18.6680820948
 31
0.0
  0
LINE
  5
209
330
1F
100
AcDbEntity
  8
0
  6
Continuous
 62
     7
370
    15
100
AcDbLine
 10
308.5774906867
 20
33.6680826909
 30
0.0
 11
313.5775008195
 21
33.6680826909
 31
0.0
  0
LINE
  5
20A
330
1F
100
AcDbEntity
  8
0
  6
Continuous
 62
     7
370
    15
100
AcDbLine
 10
313.5775008195
 20
33.6680826909
 30
0.0
 11
313.5775008195
 21
18.6680820948
 31
0.0
  0
LINE
  5
20B
330
1F
100
AcDbEntity
  8
0
  6
Continuous
 62
     7
370
    15
100
AcDbLine
 10
308.5774906867
 20
33.6680826909
 30
0.0
 11
308.5774906867
 21
18.6680820948
 31
0.0
  0
LINE
  5
20C
330
1F
100
AcDbEntity
  8
0
  6
Continuous
 62
     7
370
    15
100
AcDbLine
 10
313.5775008195
 20
33.6680826909
 30
0.0
 11
313.5775008195
 21
73.6805913216
 31
0.0
  0
LINE
  5
20D
330
1F
100
AcDbEntity
  8
0
  6
Continuous
 62
     7
370
    15
100
AcDbLine
 10
308.5774906867
 20
33.6680826909
 30
0.0
 11
308.5774906867
 21
74.3970987565
 31
0.0
  0
LINE
  5
20E
330
1F
100
AcDbEntity
  8
0
  6
Continuous
 62
     7
370
    15
100
AcDbLine
 10
313.5775008195
 20
33.6680826909
 30
0.0
 11
328.5775014155
 21
33.6680826909
 31
0.0
  0
ARC
  5
20F
330
1F
100
AcDbEntity
  8
0
  6
Continuous
 62
     7
370
    15
100
AcDbCircle
 10
313.5774946921
 20
33.6680820948
 30
0.0
 40
15.00000000000001
100
AcDbArc
 50
270.0
 51
0.0
  0
LINE
  5
210
330
1F
100
AcDbEntity
  8
0
  6
Continuous
 62
     7
370
    15
100
AcDbLine
 10
328.5775014155
 20
33.6680826909
 30
0.0
 11
328.5775014155
 21
503.6680814988
 31
0.0
  0
LINE
  5
211
330
1F
100
AcDbEntity
  8
0
  6
Continuous
 62
     7
370
    15
100
AcDbLine
 10
313.5775008195
 20
93.6555680997
 30
0.0
 11
313.5775008195
 21
443.68059609
 31
0.0
  0
LINE
  5
212
330
1F
100
AcDbEntity
  8
0
  6
Continuous
 62
     7
370
    15
100
AcDbLine
 10
313.5775008195
 20
463.655572868
 30
0.0
 11
313.5775008195
 21
503.6680814988
 31
0.0
  0
LINE
  5
213
330
1F
100
AcDbEntity
  8
0
  6
Continuous
 62
     7
370
    15
100
AcDbLine
 10
313.5775008195
 20
503.6680814988
 30
0.0
 11
328.5775014155
 21
503.6680814988
 31
0.0
  0
LINE
  5
214
330
1F
100
AcDbEntity
  8
0
  6
Continuous
 62
     7
370
    15
100
AcDbLine
 10
308.5774906867
 20
92.9390606648
 30
0.0
 11
308.5774906867
 21
444.3971035248
 31
0.0
  0
LINE
  5
215
330
1F
100
AcDbEntity
  8
0
  6
Continuous
 62
     7
370
    15
100
AcDbLine
 10
308.5774906867
 20
503.6680814988
 30
0.0
 11
313.5775008195
 21
503.6680814988
 31
0.0
  0
LINE
  5
216
330
1F
100
AcDbEntity
  8
0
  6
Continuous
 62
     7
370
    15
100
AcDbLine
 10
308.5774906867
 20
462.9390654332
 30
0.0
 11
308.5774906867
 21
503.6680814988
 31
0.0
  0
LINE
  5
217
330
1F
100
AcDbEntity
  8
0
  6
Continuous
 62
     7
370
    15
100
AcDbLine
 10
308.5774906867
 20
518.6680820948
 30
0.0
 11
313.5775008195
 21
518.6680820948
 31
0.0
  0
LINE
  5
218
330
1F
100
AcDbEntity
  8
0
  6
Continuous
 62
     7
370
    15
100
AcDbLine
 10
313.5775008195
 20
503.6680814988
 30
0.0
 11
313.5775008195
 21
518.6680820948
 31
0.0
  0
LINE
  5
219
330
1F
100
AcDbEntity
  8
0
  6
Continuous
 62
     7
370
    15
100
AcDbLine
 10
308.5774906867
 20
503.6680814988
 30
0.0
 11
308.5774906867
 21
518.6680820948
 31
0.0
  0
ARC
  5
21A
330
1F
100
AcDbEntity
  8
0
  6
Continuous
 62
     7
370
    15
100
AcDbCircle
 10
313.5774946921
 20
503.6680820948
 30
0.0
 40
15.00000000000011
100
AcDbArc
 50
0.0
 51
90.0
  0
LINE
  5
21B
330
1F
100
AcDbEntity
  8
0
  6
Continuous
 62
     7
370
    15
100
AcDbLine
 10
291.7884268754
 20
448.9680794245
 30
0.0
 11
291.7884268754
 21
457.5680759913
 31
0.0
  0
LINE
  5
21C
330
1F
100
AcDbEntity
  8
0
  6
Continuous
 62
     7
370
    15
100
AcDbLine
 10
286.2741329663
 20
448.9680794245
 30
0.0
 11
286.2741329663
 21
457.5680759913
 31
0.0
  0
LINE
  5
21D
330
1F
100
AcDbEntity
  8
0
  6
Continuous
 62
     7
370
    15
100
AcDbLine
 10
291.7884268754
 20
448.9680794245
 30
0.0
 11
286.2741329663
 21
448.9680794245
 31
0.0
  0
LINE
  5
21E
330
1F
100
AcDbEntity
  8
0
  6
Continuous
 62
     7
370
    15
100
AcDbLine
 10
291.7884268754
 20
457.5680759913
 30
0.0
 11
286.2741329663
 21
457.5680759913
 31
0.0
  0
LINE
  5
21F
330
1F
100
AcDbEntity
  8
0
  6
Continuous
 62
     7
370
    15
100
AcDbLine
 10
285.1598688357
 20
460.8680871493
 30
0.0
 11
260.3477665179
 21
460.8680871493
 31
0.0
  0
LINE
  5
220
330
1F
100
AcDbEntity
  8
0
  6
Continuous
 62
     7
370
    15
100
AcDbLine
 10
285.1598688357
 20
457.5680759913
 30
0.0
 11
285.1598688357
 21
460.8680871493
 31
0.0
  0
LINE
  5
221
330
1F
100
AcDbEntity
  8
0
  6
Continuous
 62
     7
370
    15
100
AcDbLine
 10
285.1598688357
 20
446.4680818087
 30
0.0
 11
285.1598688357
 21
448.9680794245
 31
0.0
  0
LINE
  5
222
330
1F
100
AcDbEntity
  8
0
  6
Continuous
 62
     7
370
    15
100
AcDbLine
 10
260.3477665179
 20
446.4680818087
 30
0.0
 11
285.1598688357
 21
446.4680818087
 31
0.0
  0
LINE
  5
223
330
1F
100
AcDbEntity
  8
0
  6
Continuous
 62
     7
370
    15
100
AcDbLine
 10
260.3477665179
 20
446.4680818087
 30
0.0
 11
260.3477665179
 21
460.8680871493
 31
0.0
  0
LINE
  5
224
330
1F
100
AcDbEntity
  8
0
  6
Continuous
 62
     7
370
    15
100
AcDbLine
 10
285.1598688357
 20
448.9680794245
 30
0.0
 11
286.2741329663
 21
448.9680794245
 31
0.0
  0
LINE
  5
225
330
1F
100
AcDbEntity
  8
0
  6
Continuous
 62
     7
370
    15
100
AcDbLine
 10
285.1598688357
 20
457.5680759913
 30
0.0
 11
286.2741329663
 21
457.5680759913
 31
0.0
  0
LINE
  5
226
330
1F
100
AcDbEntity
  8
0
  6
Continuous
 62
     7
370
    15
100
AcDbLine
 10
285.2874972814
 20
445.6707355744
 30
0.0
 11
287.1797212356
 21
445.6707355744
 31
0.0
  0
LINE
  5
227
330
1F
100
AcDbEntity
  8
0
  6
Continuous
 62
     7
370
    15
100
AcDbLine
 10
287.1797212356
 20
445.6707355744
 30
0.0
 11
287.8524788612
 21
445.6680831677
 31
0.0
  0
LINE
  5
228
330
1F
100
AcDbEntity
  8
0
  6
Continuous
 62
     7
370
    15
100
AcDbLine
 10
287.8524788612
 20
445.6680831677
 30
0.0
 11
260.4866751426
 21
445.6680831677
 31
0.0
  0
ARC
  5
229
330
1F
100
AcDbEntity
  8
0
  6
Continuous
 62
     7
370
    15
100
AcDbCircle
 10
261.6036738036
 20
446.2740935266
 30
0.0
 40
1.270800756943052
100
AcDbArc
 50
171.2194457622
 51
208.4813602857
  0
ARC
  5
22A
330
1F
100
AcDbEntity
  8
0
  6
Continuous
 62
     7
370
    15
100
AcDbCircle
 10
286.6340484013
 20
446.2951609792
 30
0.0
 40
1.484286699018991
100
AcDbArc
 50
173.3097941414
 51
204.8781931989
  0
LINE
  5
22B
330
1F
100
AcDbEntity
  8
0
  6
Continuous
 62
     7
370
    15
100
AcDbLine
 10
287.1797212356
 20
461.6654333836
 30
0.0
 11
285.2874972814
 21
461.6654333836
 31
0.0
  0
ARC
  5
22C
330
1F
100
AcDbEntity
  8
0
  6
Continuous
 62
     7
370
    15
100
AcDbCircle
 10
286.6340769438
 20
461.0410034101
 30
0.0
 40
1.484314514888888
100
AcDbArc
 50
155.122110312
 51
186.6899023476
  0
ARC
  5
22D
330
1F
100
AcDbEntity
  8
0
  6
Continuous
 62
     7
370
    15
100
AcDbCircle
 10
261.6036738036
 20
461.0620754314
 30
0.0
 40
1.270800756943052
100
AcDbArc
 50
151.5186397143
 51
188.7805542378
  0
LINE
  5
22E
330
1F
100
AcDbEntity
  8
0
  6
Continuous
 62
     7
370
    15
100
AcDbLine
 10
260.4866751426
 20
461.6680857903
 30
0.0
 11
287.8524788612
 21
461.6680857903
 31
0.0
  0
LINE
  5
22F
330
1F
100
AcDbEntity
  8
0
  6
Continuous
 62
     7
370
    15
100
AcDbLine
 10
287.8524788612
 20
461.6680857903
 30
0.0
 11
287.1797212356
 21
461.6654333836
 31
0.0
  0
LINE
  5
230
330
1F
100
AcDbEntity
  8
0
  6
Continuous
 62
     7
370
    15
100
AcDbLine
 10
285.2874972814
 20
460.8680871493
 30
0.0
 11
285.2874972814
 21
461.6654333836
 31
0.0
  0
LINE
  5
231
330
1F
100
AcDbEntity
  8
0
  6
Continuous
 62
     7
370
    15
100
AcDbLine
 10
285.2987923616
 20
460.8680871493
 30
0.0
 11
285.2987923616
 21
457.5680759913
 31
0.0
  0
LINE
  5
232
330
1F
100
AcDbEntity
  8
0
  6
Continuous
 62
     7
370
    15
100
AcDbLine
 10
285.2874972814
 20
445.6707355744
 30
0.0
 11
285.2874972814
 21
446.4680818087
 31
0.0
  0
LINE
  5
233
330
1F
100
AcDbEntity
  8
0
  6
Continuous
 62
     7
370
    15
100
AcDbLine
 10
285.2987923616
 20
448.9680794245
 30
0.0
 11
285.2987923616
 21
446.4680818087
 31
0.0
  0
LINE
  5
234
330
1F
100
AcDbEntity
  8
0
  6
Continuous
 62
     7
370
    15
100
AcDbLine
 10
291.2874945396
 20
445.6680831677
 30
0.0
 11
287.8524788612
 21
445.6680831677
 31
0.0
  0
LINE
  5
235
330
1F
100
AcDbEntity
  8
0
  6
Continuous
 62
     7
370
    15
100
AcDbLine
 10
287.1797212356
 20
445.6707355744
 30
0.0
 11
287.1797212356
 21
446.4680818087
 31
0.0
  0
LINE
  5
236
330
1F
100
AcDbEntity
  8
0
  6
Continuous
 62
     7
370
    15
100
AcDbLine
 10
291.2874945396
 20
446.4680818087
 30
0.0
 11
287.1797212356
 21
446.4680818087
 31
0.0
  0
LINE
  5
237
330
1F
100
AcDbEntity
  8
0
  6
Continuous
 62
     7
370
    15
100
AcDbLine
 10
287.1797212356
 20
460.8680871493
 30
0.0
 11
287.1797212356
 21
461.6654333836
 31
0.0
  0
LINE
  5
238
330
1F
100
AcDbEntity
  8
0
  6
Continuous
 62
     7
370
    15
100
AcDbLine
 10
291.2874945396
 20
461.6680857903
 30
0.0
 11
287.8524788612
 21
461.6680857903
 31
0.0
  0
LINE
  5
239
330
1F
100
AcDbEntity
  8
0
  6
Continuous
 62
     7
370
    15
100
AcDbLine
 10
291.2874945396
 20
460.8680871493
 30
0.0
 11
287.1797212356
 21
460.8680871493
 31
0.0
  0
LINE
  5
23A
330
1F
100
AcDbEntity
  8
0
  6
Continuous
 62
     7
370
    15
100
AcDbLine
 10
285.2874972814
 20
460.8680871493
 30
0.0
 11
287.1797212356
 21
460.8680871493
 31
0.0
  0
LINE
  5
23B
330
1F
100
AcDbEntity
  8
0
  6
Continuous
 62
     7
370
    15
100
AcDbLine
 10
285.2874972814
 20
446.4680818087
 30
0.0
 11
287.1797212356
 21
446.4680818087
 31
0.0
  0
LINE
  5
23C
330
1F
100
AcDbEntity
  8
0
  6
Continuous
 62
     7
370
    15
100
AcDbLine
 10
286.3574900621
 20
461.9680759675
 30
0.0
 11
290.7574900382
 21
461.9680759675
 31
0.0
  0
LINE
  5
23D
330
1F
100
AcDbEntity
  8
0
  6
Continuous
 62
     7
370
    15
100
AcDbLine
 10
286.4574917548
 20
445.2680763966
 30
0.0
 11
290.6574883454
 21
445.2680763966
 31
0.0
  0
LINE
  5
23E
330
1F
100
AcDbEntity
  8
0
  6
Continuous
 62
     7
370
    15
100
AcDbLine
 10
286.4574917548
 20
444.8680845267
 30
0.0
 11
290.6574883454
 21
444.8680845267
 31
0.0
  0
LINE
  5
23F
330
1F
100
AcDbEntity
  8
0
  6
Continuous
 62
     7
370
    15
100
AcDbLine
 10
255.4489129179
 20
460.8680871493
 30
0.0
 11
253.4594365352
 21
460.8680871493
 31
0.0
  0
LINE
  5
240
330
1F
100
AcDbEntity
  8
0
  6
Continuous
 62
     7
370
    15
100
AcDbLine
 10
255.4489129179
 20
446.4680818087
 30
0.0
 11
255.4489129179
 21
460.8680871493
 31
0.0
  0
LINE
  5
241
330
1F
100
AcDbEntity
  8
0
  6
Continuous
 62
     7
370
    15
100
AcDbLine
 10
253.4594365352
 20
446.4680818087
 30
0.0
 11
255.4489129179
 21
446.4680818087
 31
0.0
  0
ARC
  5
242
330
1F
100
AcDbEntity
  8
0
  6
Continuous
 62
     7
370
    15
100
AcDbCircle
 10
268.7534109579
 20
453.668084479
 30
0.0
 40
16.90401408232914
100
AcDbArc
 50
154.7901718738
 51
205.2098281262
  0
SPLINE
  5
243
330
1F
100
AcDbEntity
  8
0
  6
Continuous
 62
     7
370
    15
100
AcDbSpline
210
0.0
220
0.0
230
1.0
 70
     8
 71
     3
 72
    12
 73
     8
 74
     0
 42
0.00000001
 43
0.00000001
 40
0.0
 40
0.0
 40
0.0
 40
0.0
 40
0.1818728559357568
 40
0.3633448534898268
 40
0.5550759860662463
 40
0.7712681962495348
 40
1.0
 40
1.0
 40
1.0
 40
1.0
 10
253.5918110006425
 20
445.668083167717
 30
0.0
 10
253.6156712493494
 20
445.6754066221723
 30
0.0
 10
253.6633391573834
 20
445.6900373897618
 30
0.0
 10
253.678084961477
 20
445.8020269966336
 30
0.0
 10
253.6508493563545
 20
445.9714108729274
 30
0.0
 10
253.5791782840131
 20
446.1998316016102
 30
0.0
 10
253.5000934188207
 20
446.3770006481139
 30
0.0
 10
253.459436535177
 20
446.4680818087312
 30
0.0
  0
LINE
  5
244
330
1F
100
AcDbEntity
  8
0
  6
Continuous
 62
     7
370
    15
100
AcDbLine
 10
253.2074504488
 20
446.4225885636
 30
0.0
 11
253.5618969195
 21
445.6680831677
 31
0.0
  0
ARC
  5
245
330
1F
100
AcDbEntity
  8
0
  6
Continuous
 62
     7
370
    15
100
AcDbCircle
 10
268.4780791419
 20
453.668084479
 30
0.0
 40
16.90234633834266
100
AcDbArc
 50
154.616938827
 51
205.383061173
  0
LINE
  5
246
330
1F
100
AcDbEntity
  8
0
  6
Continuous
 62
     7
370
    15
100
AcDbLine
 10
253.5618969195
 20
461.6680857903
 30
0.0
 11
253.2074504488
 21
460.9135803944
 31
0.0
  0
SPLINE
  5
247
330
1F
100
AcDbEntity
  8
0
  6
Continuous
 62
     7
370
    15
100
AcDbSpline
210
0.0
220
0.0
230
1.0
 70
     8
 71
     3
 72
    12
 73
     8
 74
     0
 42
0.00000001
 43
0.00000001
 40
0.0
 40
0.0
 40
0.0
 40
0.0
 40
0.2510172357647315
 40
0.5023980923729131
 40
0.7402747485671194
 40
0.9473067201835714
 40
1.0
 40
1.0
 40
1.0
 40
1.0
 10
253.459436535177
 20
460.8680871493073
 30
0.0
 10
253.5037545340208
 20
460.9679654321153
 30
0.0
 10
253.5924547302806
 20
461.1678666803278
 30
0.0
 10
253.6674437893279
 20
461.4266069394459
 30
0.0
 10
253.6789393119713
 20
461.6038305044326
 30
0.0
 10
253.6372930362667
 20
461.6642682445737
 30
0.0
 10
253.5994821129167
 20
461.6674419136426
 30
0.0
 10
253.5918110006425
 20
461.6680857903214
 30
0.0
  0
LINE
  5
248
330
1F
100
AcDbEntity
  8
0
  6
Continuous
 62
     7
370
    15
100
AcDbLine
 10
253.5918110006
 20
461.6680857903
 30
0.0
 11
253.5618969195
 21
461.6680857903
 31
0.0
  0
LINE
  5
249
330
1F
100
AcDbEntity
  8
0
  6
Continuous
 62
     7
370
    15
100
AcDbLine
 10
253.5918110006
 20
445.6680831677
 30
0.0
 11
253.5618969195
 21
445.6680831677
 31
0.0
  0
LWPOLYLINE
  5
24A
330
1F
100
AcDbEntity
  8
0
  6
Continuous
 62
     7
370
    15
100
AcDbPolyline
 90
        9
 70
   128
 43
0.0
 10
255.4489129179
 20
460.8680871493
 10
255.443652808
 20
461.0241470105
 10
255.4280885451
 20
461.174231506
 10
255.4028012746
 20
461.3125440842
 10
255.368774473
 20
461.4337650305
 10
255.327311992
 20
461.5332600838
 10
255.2800082558
 20
461.6071847445
 10
255.2286737555
 20
461.652707792
 10
255.1752977961
 20
461.6680857903
  0
LINE
  5
24B
330
1F
100
AcDbEntity
  8
0
  6
Continuous
 62
     7
370
    15
100
AcDbLine
 10
253.5918110006
 20
461.6680857903
 30
0.0
 11
255.1752977961
 21
461.6680857903
 31
0.0
  0
LWPOLYLINE
  5
24C
330
1F
100
AcDbEntity
  8
0
  6
Continuous
 62
     7
370
    15
100
AcDbPolyline
 90
        9
 70
   128
 43
0.0
 10
255.4489129179
 20
446.4680818087
 10
255.443652808
 20
446.3120070464
 10
255.4280885451
 20
446.161937452
 10
255.4028012746
 20
446.0236248738
 10
255.368774473
 20
445.9024039275
 10
255.327311992
 20
445.8029088742
 10
255.2800082558
 20
445.7289842135
 10
255.2286737555
 20
445.6834611661
 10
255.1752977961
 20
445.6680831677
  0
LINE
  5
24D
330
1F
100
AcDbEntity
  8
0
  6
Continuous
 62
     7
370
    15
100
AcDbLine
 10
255.1752977961
 20
445.6680831677
 30
0.0
 11
253.5918110006
 21
445.6680831677
 31
0.0
  0
LINE
  5
24E
330
1F
100
AcDbEntity
  8
0
  6
Continuous
 62
     7
370
    15
100
AcDbLine
 10
260.3477665179
 20
460.8680871493
 30
0.0
 11
255.4489129179
 21
460.8680871493
 31
0.0
  0
LINE
  5
24F
330
1F
100
AcDbEntity
  8
0
  6
Continuous
 62
     7
370
    15
100
AcDbLine
 10
255.1752977961
 20
461.6680857903
 30
0.0
 11
260.4866751426
 21
461.6680857903
 31
0.0
  0
LINE
  5
250
330
1F
100
AcDbEntity
  8
0
  6
Continuous
 62
     7
370
    15
100
AcDbLine
 10
255.4489129179
 20
446.4680818087
 30
0.0
 11
260.3477665179
 21
446.4680818087
 31
0.0
  0
LINE
  5
251
330
1F
100
AcDbEntity
  8
0
  6
Continuous
 62
     7
370
    15
100
AcDbLine
 10
260.4866751426
 20
445.6680831677
 30
0.0
 11
255.1752977961
 21
445.6680831677
 31
0.0
  0
SPLINE
  5
252
330
1F
100
AcDbEntity
  8
0
  6
Continuous
 62
     7
370
    15
100
AcDbSpline
210
0.0
220
0.0
230
1.0
 70
     8
 71
     3
 72
    16
 73
    12
 74
     0
 42
0.00000001
 43
0.00000001
 40
0.0
 40
0.0
 40
0.0
 40
0.0
 40
0.1207042841326677
 40
0.2414114693671807
 40
0.362118466854151
 40
0.4828256876898528
 40
0.603532216686943
 40
0.7242358845895902
 40
0.8449443106953923
 40
0.9656514133820531
 40
1.0
 40
1.0
 40
1.0
 40
1.0
 10
286.7297955744837
 20
440.7157120472642
 30
0.0
 10
286.7491966611687
 20
440.7183816058652
 30
0.0
 10
286.7879993008399
 20
440.7237207872295
 30
0.0
 10
286.7929194978415
 20
441.0146699117768
 30
0.0
 10
286.7557134611218
 20
441.468008143739
 30
0.0
 10
286.6787820469265
 20
442.0355435225752
 30
0.0
 10
286.5749822335555
 20
442.6238637411507
 30
0.0
 10
286.4588800762297
 20
443.1505671316577
 30
0.0
 10
286.3518733967853
 20
443.5138379548188
 30
0.0
 10
286.2793007014067
 20
443.6843258819547
 30
0.0
 10
286.2597484128445
 20
443.6511657874008
 30
0.0
 10
286.2554171078775
 20
443.6438200241776
 30
0.0
  0
SPLINE
  5
253
330
1F
100
AcDbEntity
  8
0
  6
Continuous
 62
     7
370
    15
100
AcDbSpline
210
0.0
220
0.0
230
1.0
 70
     8
 71
     3
 72
    16
 73
    12
 74
     0
 42
0.00000001
 43
0.00000001
 40
0.0
 40
0.0
 40
0.0
 40
0.0
 40
0.1205800310013593
 40
0.2411629601181662
 40
0.361745701680698
 40
0.4823257710223353
 40
0.602908044577251
 40
0.723490724155747
 40
0.8440743338822523
 40
0.9646533885898586
 40
1.0
 40
1.0
 40
1.0
 40
1.0
 10
286.9003840678308
 20
466.5917274719926
 30
0.0
 10
286.9197851778155
 20
466.5890578873539
 30
0.0
 10
286.9585878640864
 20
466.5837186539138
 30
0.0
 10
286.9635077115836
 20
466.2927699199423
 30
0.0
 10
286.9263033007626
 20
465.8394338321962
 30
0.0
 10
286.8493680163671
 20
465.271909912842
 30
0.0
 10
286.7455740925481
 20
464.6835739179909
 30
0.0
 10
286.6294510821526
 20
464.1569209622232
 30
0.0
 10
286.5224472285357
 20
463.7934405416607
 30
0.0
 10
286.4496769051651
 20
463.6229071594147
 30
0.0
 10
286.4300398665889
 20
463.6564846819508
 30
0.0
 10
286.4255883687113
 20
463.6640963322373
 30
0.0
  0
SPLINE
  5
254
330
1F
100
AcDbEntity
  8
0
  6
Continuous
 62
     7
370
    15
100
AcDbSpline
210
0.0
220
0.0
230
1.0
 70
     8
 71
     3
 72
    16
 73
    12
 74
     0
 42
0.00000001
 43
0.00000001
 40
0.0
 40
0.0
 40
0.0
 40
0.0
 40
0.1205146127847613
 40
0.2410321221126572
 40
0.3615494439880318
 40
0.4820669888611739
 40
0.6025838429828403
 40
0.7230978405059076
 40
0.8436165887552223
 40
0.9641311113465891
 40
1.0
 40
1.0
 40
1.0
 40
1.0
 10
302.2707679265116
 20
443.3321324354859
 30
0.0
 10
302.2901690090115
 20
443.3348020211228
 30
0.0
 10
302.3289716403125
 20
443.3401412565594
 30
0.0
 10
302.3338919000922
 20
443.6310899755567
 30
0.0
 10
302.2966856248142
 20
444.0844297486154
 30
0.0
 10
302.2197551020733
 20
444.6519593686213
 30
0.0
 10
302.1159519614867
 20
445.2403010811419
 30
0.0
 10
301.9998622214439
 20
445.7669242555065
 30
0.0
 10
301.8928100586284
 20
446.1304915378363
 30
0.0
 10
301.8199555259976
 20
446.3010980735563
 30
0.0
 10
301.800265023116
 20
446.2672814973033
 30
0.0
 10
301.7957487099741
 20
446.2595251566621
 30
0.0
  0
SPLINE
  5
255
330
1F
100
AcDbEntity
  8
0
  6
Continuous
 62
     7
370
    15
100
AcDbSpline
210
0.0
220
0.0
230
1.0
 70
     8
 71
     3
 72
    16
 73
    12
 74
     0
 42
0.00000001
 43
0.00000001
 40
0.0
 40
0.0
 40
0.0
 40
0.0
 40
0.1205180162860302
 40
0.2410326177046793
 40
0.3615497514561308
 40
0.4820651564850901
 40
0.6025820636060562
 40
0.7230991354071967
 40
0.8436148140991446
 40
0.9641311673368481
 40
1.0
 40
1.0
 40
1.0
 40
1.0
 10
302.4413415186975
 20
463.975321984932
 30
0.0
 10
302.4607489378158
 20
463.9726477728544
 30
0.0
 10
302.4995632261451
 20
463.9672994244729
 30
0.0
 10
302.5044791044414
 20
463.6763460730347
 30
0.0
 10
302.4672754465504
 20
463.223010421297
 30
0.0
 10
302.3903409808804
 20
462.655493454121
 30
0.0
 10
302.2865452959322
 20
462.0671475909493
 30
0.0
 10
302.1704288768202
 20
461.5405275262856
 30
0.0
 10
302.0634025063812
 20
461.1769333953192
 30
0.0
 10
301.9905440639498
 20
461.0063578309174
 30
0.0
 10
301.9708534773615
 20
461.0401732814404
 30
0.0
 10
301.9663372033212
 20
461.0479292637559
 30
0.0
  0
SPLINE
  5
256
330
1F
100
AcDbEntity
  8
0
  6
Continuous
 62
     7
370
    15
100
AcDbSpline
210
0.0
220
0.0
230
1.0
 70
    24
 71
     3
 72
    16
 73
    12
 74
     0
 42
0.00000001
 43
0.00000001
 40
0.0
 40
0.0
 40
0.0
 40
0.0
 40
0.0611070903526417
 40
0.1864721510444355
 40
0.3118319714710453
 40
0.4371971593372122
 40
0.5625584614195136
 40
0.6879205673632984
 40
0.8132849015740912
 40
0.9386471466409737
 40
0.9999999999999999
 40
0.9999999999999999
 40
0.9999999999999999
 40
0.9999999999999999
 10
305.3476788991068
 20
446.8018529183122
 30
0.0
 10
305.353451928458
 20
446.8018529183121
 30
0.0
 10
305.3710686926493
 20
446.8018529183121
 30
0.0
 10
305.15264369586
 20
446.8018529183122
 30
0.0
 10
304.7398896078295
 20
446.8018529183122
 30
0.0
 10
304.1834259816675
 20
446.8018529183121
 30
0.0
 10
303.5843201443474
 20
446.8018529183121
 30
0.0
 10
303.0256207298268
 20
446.8018529183121
 30
0.0
 10
302.6086735708636
 20
446.8018529183121
 30
0.0
 10
302.3856716063399
 20
446.8018529183121
 30
0.0
 10
302.4004870099121
 20
446.8018529183122
 30
0.0
 10
302.4053552144144
 20
446.8018529183122
 30
0.0
  0
SPLINE
  5
257
330
1F
100
AcDbEntity
  8
0
  6
Continuous
 62
     7
370
    15
100
AcDbSpline
210
0.0
220
0.0
230
1.0
 70
    24
 71
     3
 72
    16
 73
    12
 74
     0
 42
0.00000001
 43
0.00000001
 40
0.0
 40
0.0
 40
0.0
 40
0.0
 40
0.0610095308224137
 40
0.186174441967608
 40
0.3113341212138785
 40
0.4364991593304078
 40
0.5616603178668566
 40
0.6868222789813968
 40
0.8119864648054415
 40
0.9371485648209648
 40
1.0
 40
1.0
 40
1.0
 40
1.0
 10
305.3476788991068
 20
460.360479093239
 30
0.0
 10
305.3534519222453
 20
460.360479093239
 30
0.0
 10
305.3710686674782
 20
460.360479093239
 30
0.0
 10
305.1526439292222
 20
460.3604790932388
 30
0.0
 10
304.7398887528492
 20
460.3604790932388
 30
0.0
 10
304.1834291683472
 20
460.360479093239
 30
0.0
 10
303.584308253034
 20
460.360479093239
 30
0.0
 10
303.0256651091986
 20
460.3604790932388
 30
0.0
 10
302.6085079427885
 20
460.360479093239
 30
0.0
 10
302.3850170110599
 20
460.3604790932388
 30
0.0
 10
302.400237367519
 20
460.360479093239
 30
0.0
 10
302.405325412092
 20
460.3604790932389
 30
0.0
  0
SPLINE
  5
258
330
1F
100
AcDbEntity
  8
0
  6
Continuous
 62
     7
370
    15
100
AcDbSpline
210
0.0
220
0.0
230
1.0
 70
     8
 71
     3
 72
    19
 73
    15
 74
     0
 42
0.00000001
 43
0.00000001
 40
0.0
 40
0.0
 40
0.0
 40
0.0
 40
0.0039536265253916
 40
0.1157666902650994
 40
0.2280462038299728
 40
0.3355217786070849
 40
0.4377109292565653
 40
0.534887923498138
 40
0.6283021191888023
 40
0.7302955051147538
 40
0.841332847610013
 40
0.9641269820168189
 40
0.9937687422188515
 40
1.0
 40
1.0
 40
1.0
 40
1.0
 10
291.6757740967844
 20
459.2680749661179
 30
0.0
 10
291.6761663562804
 20
459.2680729911402
 30
0.0
 10
291.6876521613478
 20
459.2680151615415
 30
0.0
 10
291.7109757404576
 20
459.2527409002815
 30
0.0
 10
291.7544390573173
 20
459.1858948847529
 30
0.0
 10
291.7924281199001
 20
459.0811839510673
 30
0.0
 10
291.8159055892517
 20
458.9561079115444
 30
0.0
 10
291.8272458768061
 20
458.8276733834803
 30
0.0
 10
291.8278540246986
 20
458.7065068943236
 30
0.0
 10
291.8120569824201
 20
458.5972669659542
 30
0.0
 10
291.7716800062918
 20
458.5078676419629
 30
0.0
 10
291.7198235845963
 20
458.4727708304758
 30
0.0
 10
291.685111681282
 20
458.4682157855489
 30
0.0
 10
291.6771560204726
 20
458.4680969646699
 30
0.0
 10
291.6757740967844
 20
458.4680763251039
 30
0.0
  0
SPLINE
  5
259
330
1F
100
AcDbEntity
  8
0
  6
Continuous
 62
     7
370
    15
100
AcDbSpline
210
0.0
220
0.0
230
1.0
 70
     8
 71
     3
 72
    30
 73
    26
 74
     0
 42
0.00000001
 43
0.00000001
 40
0.0
 40
0.0
 40
0.0
 40
0.0
 40
0.1247110291474251
 40
0.2494220798899728
 40
0.3741185996794427
 40
0.4367834238213764
 40
0.4681521141105316
 40
0.4838393114059731
 40
0.4916908664665389
 40
0.4956100716876726
 40
0.4975707861090831
 40
0.4985498049969256
 40
0.4990379370698185
 40
0.4992833785449147
 40
0.4994076772877886
 40
0.4994683844820542
 40
0.4995041014629976
 40
0.4995209386092833
 40
0.4995328442695977
 40
0.5609194298326556
 40
0.6646154156246699
 40
0.7325836593867454
 40
0.8111463162042166
 40
0.9002993070745071
 40
1.0
 40
1.0
 40
1.0
 40
1.0
 10
291.747463583288
 20
459.3279776341172
 30
0.0
 10
291.7532346535294
 20
459.3261864471786
 30
0.0
 10
291.7647767950118
 20
459.3226040729912
 30
0.0
 10
291.8546072151928
 20
459.3007459249972
 30
0.0
 10
291.9620886147817
 20
459.2750963999814
 30
0.0
 10
292.0476334872757
 20
459.254642588464
 30
0.0
 10
292.0917405527168
 20
459.2441408319001
 30
0.0
 10
292.1139663282627
 20
459.2388039982334
 30
0.0
 10
292.125103000901
 20
459.2361528408034
 30
0.0
 10
292.1306729081336
 20
459.2348167678907
 30
0.0
 10
292.1334529383045
 20
459.2341379782295
 30
0.0
 10
292.1348419334223
 20
459.2337984498007
 30
0.0
 10
292.1355409781186
 20
459.2336491720192
 30
0.0
 10
292.1358879559372
 20
459.2335624142045
 30
0.0
 10
292.1360617969007
 20
459.2335157458583
 30
0.0
 10
292.1361466782102
 20
459.233479712505
 30
0.0
 10
292.1362023381705
 20
459.2335019338366
 30
0.0
 10
292.1362166492696
 20
459.233471383575
 30
0.0
 10
292.1637597434833
 20
459.2381353492138
 30
0.0
 10
292.2264095305753
 20
459.2041615127008
 30
0.0
 10
292.3198597982463
 20
459.195129561737
 30
0.0
 10
292.4028582977604
 20
459.1756222712941
 30
0.0
 10
292.4665551531965
 20
459.1633719691088
 30
0.0
 10
292.5170269571491
 20
459.1535391184996
 30
0.0
 10
292.5242582362727
 20
459.1531038685276
 30
0.0
 10
292.5280758135889
 20
459.1528740889283
 30
0.0
  0
ELLIPSE
  5
25A
330
1F
100
AcDbEntity
  8
0
  6
Continuous
 62
     7
370
    15
100
AcDbEllipse
 10
292.4046030859
 20
460.4500572736
 30
0.0
 11
0.3906095144045594
 21
-0.0861638396116291
 31
0.0
210
0.0
220
0.0
230
1.0
 40
0.0142285888
 41
0.0
 42
6.283185307179586
  0
LINE
  5
25B
330
1F
100
AcDbEntity
  8
0
  6
Continuous
 62
     7
370
    15
100
AcDbLine
 10
291.7884268754
 20
78.9680746562
 30
0.0
 11
291.7884268754
 21
87.5680861241
 31
0.0
  0
LINE
  5
25C
330
1F
100
AcDbEntity
  8
0
  6
Continuous
 62
     7
370
    15
100
AcDbLine
 10
291.7884268754
 20
78.9680746562
 30
0.0
 11
286.2741329663
 21
78.9680746562
 31
0.0
  0
LINE
  5
25D
330
1F
100
AcDbEntity
  8
0
  6
Continuous
 62
     7
370
    15
100
AcDbLine
 10
286.2741329663
 20
78.9680746562
 30
0.0
 11
286.2741329663
 21
87.5680861241
 31
0.0
  0
LINE
  5
25E
330
1F
100
AcDbEntity
  8
0
  6
Continuous
 62
     7
370
    15
100
AcDbLine
 10
291.7884268754
 20
87.5680861241
 30
0.0
 11
286.2741329663
 21
87.5680861241
 31
0.0
  0
LINE
  5
25F
330
1F
100
AcDbEntity
  8
0
  6
Continuous
 62
     7
370
    15
100
AcDbLine
 10
285.1598688357
 20
90.8680823809
 30
0.0
 11
260.3477665179
 21
90.8680823809
 31
0.0
  0
LINE
  5
260
330
1F
100
AcDbEntity
  8
0
  6
Continuous
 62
     7
370
    15
100
AcDbLine
 10
285.1598688357
 20
87.5680861241
 30
0.0
 11
285.1598688357
 21
90.8680823809
 31
0.0
  0
LINE
  5
261
330
1F
100
AcDbEntity
  8
0
  6
Continuous
 62
     7
370
    15
100
AcDbLine
 10
285.1598688357
 20
76.4680770404
 30
0.0
 11
285.1598688357
 21
78.9680746562
 31
0.0
  0
LINE
  5
262
330
1F
100
AcDbEntity
  8
0
  6
Continuous
 62
     7
370
    15
100
AcDbLine
 10
260.3477665179
 20
76.4680770404
 30
0.0
 11
285.1598688357
 21
76.4680770404
 31
0.0
  0
LINE
  5
263
330
1F
100
AcDbEntity
  8
0
  6
Continuous
 62
     7
370
    15
100
AcDbLine
 10
260.3477665179
 20
76.4680770404
 30
0.0
 11
260.3477665179
 21
90.8680823809
 31
0.0
  0
LINE
  5
264
330
1F
100
AcDbEntity
  8
0
  6
Continuous
 62
     7
370
    15
100
AcDbLine
 10
285.1598688357
 20
87.5680861241
 30
0.0
 11
286.2741329663
 21
87.5680861241
 31
0.0
  0
LINE
  5
265
330
1F
100
AcDbEntity
  8
0
  6
Continuous
 62
     7
370
    15
100
AcDbLine
 10
285.1598688357
 20
78.9680746562
 30
0.0
 11
286.2741329663
 21
78.9680746562
 31
0.0
  0
LINE
  5
266
330
1F
100
AcDbEntity
  8
0
  6
Continuous
 62
     7
370
    15
100
AcDbLine
 10
287.1797212356
 20
91.6654286153
 30
0.0
 11
285.2874972814
 21
91.6654286153
 31
0.0
  0
ARC
  5
267
330
1F
100
AcDbEntity
  8
0
  6
Continuous
 62
     7
370
    15
100
AcDbCircle
 10
286.6340484013
 20
91.0410032104
 30
0.0
 40
1.484286699018973
100
AcDbArc
 50
155.1218068011
 51
186.6902058586
  0
ARC
  5
268
330
1F
100
AcDbEntity
  8
0
  6
Continuous
 62
     7
370
    15
100
AcDbCircle
 10
261.6036738036
 20
91.0620706631
 30
0.0
 40
1.270800756943052
100
AcDbArc
 50
151.5186397143
 51
188.7805542378
  0
LINE
  5
269
330
1F
100
AcDbEntity
  8
0
  6
Continuous
 62
     7
370
    15
100
AcDbLine
 10
260.4866751426
 20
91.6680810219
 30
0.0
 11
287.8524788612
 21
91.6680810219
 31
0.0
  0
LINE
  5
26A
330
1F
100
AcDbEntity
  8
0
  6
Continuous
 62
     7
370
    15
100
AcDbLine
 10
287.8524788612
 20
91.6680810219
 30
0.0
 11
287.1797212356
 21
91.6654286153
 31
0.0
  0
LINE
  5
26B
330
1F
100
AcDbEntity
  8
0
  6
Continuous
 62
     7
370
    15
100
AcDbLine
 10
285.2874972814
 20
75.670730806
 30
0.0
 11
287.1797212356
 21
75.670730806
 31
0.0
  0
LINE
  5
26C
330
1F
100
AcDbEntity
  8
0
  6
Continuous
 62
     7
370
    15
100
AcDbLine
 10
287.1797212356
 20
75.670730806
 30
0.0
 11
287.8524788612
 21
75.6680783993
 31
0.0
  0
LINE
  5
26D
330
1F
100
AcDbEntity
  8
0
  6
Continuous
 62
     7
370
    15
100
AcDbLine
 10
287.8524788612
 20
75.6680783993
 30
0.0
 11
260.4866751426
 21
75.6680783993
 31
0.0
  0
ARC
  5
26E
330
1F
100
AcDbEntity
  8
0
  6
Continuous
 62
     7
370
    15
100
AcDbCircle
 10
261.6036738036
 20
76.2740887582
 30
0.0
 40
1.270800756943052
100
AcDbArc
 50
171.2194457622
 51
208.4813602857
  0
ARC
  5
26F
330
1F
100
AcDbEntity
  8
0
  6
Continuous
 62
     7
370
    15
100
AcDbCircle
 10
286.6340769438
 20
76.2951607796
 30
0.0
 40
1.484314514888882
100
AcDbArc
 50
173.3100976524
 51
204.877889688
  0
LINE
  5
270
330
1F
100
AcDbEntity
  8
0
  6
Continuous
 62
     7
370
    15
100
AcDbLine
 10
285.2874972814
 20
75.670730806
 30
0.0
 11
285.2874972814
 21
76.4680770404
 31
0.0
  0
LINE
  5
271
330
1F
100
AcDbEntity
  8
0
  6
Continuous
 62
     7
370
    15
100
AcDbLine
 10
285.2987923616
 20
78.9680746562
 30
0.0
 11
285.2987923616
 21
76.4680770404
 31
0.0
  0
LINE
  5
272
330
1F
100
AcDbEntity
  8
0
  6
Continuous
 62
     7
370
    15
100
AcDbLine
 10
285.2874972814
 20
90.8680823809
 30
0.0
 11
285.2874972814
 21
91.6654286153
 31
0.0
  0
LINE
  5
273
330
1F
100
AcDbEntity
  8
0
  6
Continuous
 62
     7
370
    15
100
AcDbLine
 10
285.2987923616
 20
90.8680823809
 30
0.0
 11
285.2987923616
 21
87.5680861241
 31
0.0
  0
LINE
  5
274
330
1F
100
AcDbEntity
  8
0
  6
Continuous
 62
     7
370
    15
100
AcDbLine
 10
287.1797212356
 20
90.8680823809
 30
0.0
 11
287.1797212356
 21
91.6654286153
 31
0.0
  0
LINE
  5
275
330
1F
100
AcDbEntity
  8
0
  6
Continuous
 62
     7
370
    15
100
AcDbLine
 10
291.2874945396
 20
91.6680810219
 30
0.0
 11
287.8524788612
 21
91.6680810219
 31
0.0
  0
LINE
  5
276
330
1F
100
AcDbEntity
  8
0
  6
Continuous
 62
     7
370
    15
100
AcDbLine
 10
291.2874945396
 20
90.8680823809
 30
0.0
 11
287.1797212356
 21
90.8680823809
 31
0.0
  0
LINE
  5
277
330
1F
100
AcDbEntity
  8
0
  6
Continuous
 62
     7
370
    15
100
AcDbLine
 10
291.2874945396
 20
75.6680783993
 30
0.0
 11
287.8524788612
 21
75.6680783993
 31
0.0
  0
LINE
  5
278
330
1F
100
AcDbEntity
  8
0
  6
Continuous
 62
     7
370
    15
100
AcDbLine
 10
287.1797212356
 20
75.670730806
 30
0.0
 11
287.1797212356
 21
76.4680770404
 31
0.0
  0
LINE
  5
279
330
1F
100
AcDbEntity
  8
0
  6
Continuous
 62
     7
370
    15
100
AcDbLine
 10
291.2874945396
 20
76.4680770404
 30
0.0
 11
287.1797212356
 21
76.4680770404
 31
0.0
  0
LINE
  5
27A
330
1F
100
AcDbEntity
  8
0
  6
Continuous
 62
     7
370
    15
100
AcDbLine
 10
285.2874972814
 20
76.4680770404
 30
0.0
 11
287.1797212356
 21
76.4680770404
 31
0.0
  0
LINE
  5
27B
330
1F
100
AcDbEntity
  8
0
  6
Continuous
 62
     7
370
    15
100
AcDbLine
 10
285.2874972814
 20
90.8680823809
 30
0.0
 11
287.1797212356
 21
90.8680823809
 31
0.0
  0
LINE
  5
27C
330
1F
100
AcDbEntity
  8
0
  6
Continuous
 62
     7
370
    15
100
AcDbLine
 10
286.3574900621
 20
91.9680861003
 30
0.0
 11
290.7574900382
 21
91.9680861003
 31
0.0
  0
LINE
  5
27D
330
1F
100
AcDbEntity
  8
0
  6
Continuous
 62
     7
370
    15
100
AcDbLine
 10
286.4574917548
 20
75.2680865294
 30
0.0
 11
290.6574883454
 21
75.2680865294
 31
0.0
  0
LINE
  5
27E
330
1F
100
AcDbEntity
  8
0
  6
Continuous
 62
     7
370
    15
100
AcDbLine
 10
286.4574917548
 20
74.8680797583
 30
0.0
 11
290.6574883454
 21
74.8680797583
 31
0.0
  0
LINE
  5
27F
330
1F
100
AcDbEntity
  8
0
  6
Continuous
 62
     7
370
    15
100
AcDbLine
 10
255.4489129179
 20
90.8680823809
 30
0.0
 11
253.4594365352
 21
90.8680823809
 31
0.0
  0
LINE
  5
280
330
1F
100
AcDbEntity
  8
0
  6
Continuous
 62
     7
370
    15
100
AcDbLine
 10
255.4489129179
 20
76.4680770404
 30
0.0
 11
255.4489129179
 21
90.8680823809
 31
0.0
  0
LINE
  5
281
330
1F
100
AcDbEntity
  8
0
  6
Continuous
 62
     7
370
    15
100
AcDbLine
 10
253.4594365352
 20
76.4680770404
 30
0.0
 11
255.4489129179
 21
76.4680770404
 31
0.0
  0
ARC
  5
282
330
1F
100
AcDbEntity
  8
0
  6
Continuous
 62
     7
370
    15
100
AcDbCircle
 10
268.7534109579
 20
83.6680797106
 30
0.0
 40
16.90401408232914
100
AcDbArc
 50
154.7901718738
 51
205.2098281262
  0
SPLINE
  5
283
330
1F
100
AcDbEntity
  8
0
  6
Continuous
 62
     7
370
    15
100
AcDbSpline
210
0.0
220
0.0
230
1.0
 70
     8
 71
     3
 72
    12
 73
     8
 74
     0
 42
0.00000001
 43
0.00000001
 40
0.0
 40
0.0
 40
0.0
 40
0.0
 40
0.1818731681775988
 40
0.3633454772853114
 40
0.5550840408613205
 40
0.7712678035596012
 40
1.0
 40
1.0
 40
1.0
 40
1.0
 10
253.5918110006425
 20
75.66807839934548
 30
0.0
 10
253.6156713091918
 20
75.67540211342354
 30
0.0
 10
253.6633393367788
 20
75.69003339968668
 30
0.0
 10
253.6780844175355
 20
75.80202048273243
 30
0.0
 10
253.6508518878641
 20
75.97142136569218
 30
0.0
 10
253.5791757445277
 20
76.19982708673004
 30
0.0
 10
253.5000930887918
 20
76.376994773481
 30
0.0
 10
253.459436535177
 20
76.46807704035957
 30
0.0
  0
LINE
  5
284
330
1F
100
AcDbEntity
  8
0
  6
Continuous
 62
     7
370
    15
100
AcDbLine
 10
253.2074504488
 20
76.4225837952
 30
0.0
 11
253.5618969195
 21
75.6680783993
 31
0.0
  0
ARC
  5
285
330
1F
100
AcDbEntity
  8
0
  6
Continuous
 62
     7
370
    15
100
AcDbCircle
 10
268.4780791419
 20
83.6680797106
 30
0.0
 40
16.90234633834261
100
AcDbArc
 50
154.616938827
 51
205.383061173
  0
LINE
  5
286
330
1F
100
AcDbEntity
  8
0
  6
Continuous
 62
     7
370
    15
100
AcDbLine
 10
253.5618969195
 20
91.6680810219
 30
0.0
 11
253.2074504488
 21
90.9135756261
 31
0.0
  0
SPLINE
  5
287
330
1F
100
AcDbEntity
  8
0
  6
Continuous
 62
     7
370
    15
100
AcDbSpline
210
0.0
220
0.0
230
1.0
 70
     8
 71
     3
 72
    12
 73
     8
 74
     0
 42
0.00000001
 43
0.00000001
 40
0.0
 40
0.0
 40
0.0
 40
0.0
 40
0.2510252792808068
 40
0.502395842462116
 40
0.7402770312516813
 40
0.9473075742685327
 40
1.0
 40
1.0
 40
1.0
 40
1.0
 10
253.459436535177
 20
90.86808238093575
 30
0.0
 10
253.5037540605659
 20
90.96796696587874
 30
0.0
 10
253.592450069858
 20
91.16787352646577
 30
0.0
 10
253.6674459786549
 20
91.42660254627363
 30
0.0
 10
253.6789391113226
 20
91.60383541843167
 30
0.0
 10
253.6372933700671
 20
91.66429600343598
 30
0.0
 10
253.5994821218975
 20
91.66744263533239
 30
0.0
 10
253.5918110006425
 20
91.66808102194985
 30
0.0
  0
LINE
  5
288
330
1F
100
AcDbEntity
  8
0
  6
Continuous
 62
     7
370
    15
100
AcDbLine
 10
253.5918110006
 20
75.6680783993
 30
0.0
 11
253.5618969195
 21
75.6680783993
 31
0.0
  0
LINE
  5
289
330
1F
100
AcDbEntity
  8
0
  6
Continuous
 62
     7
370
    15
100
AcDbLine
 10
253.5918110006
 20
91.6680810219
 30
0.0
 11
253.5618969195
 21
91.6680810219
 31
0.0
  0
LWPOLYLINE
  5
28A
330
1F
100
AcDbEntity
  8
0
  6
Continuous
 62
     7
370
    15
100
AcDbPolyline
 90
        9
 70
   128
 43
0.0
 10
255.4489129179
 20
90.8680823809
 10
255.443652808
 20
91.0241571433
 10
255.4280885451
 20
91.1742267377
 10
255.4028012746
 20
91.3125393159
 10
255.368774473
 20
91.4337602622
 10
255.327311992
 20
91.5332553155
 10
255.2800082558
 20
91.6071799762
 10
255.2286737555
 20
91.6527030236
 10
255.1752977961
 20
91.6680810219
  0
LINE
  5
28B
330
1F
100
AcDbEntity
  8
0
  6
Continuous
 62
     7
370
    15
100
AcDbLine
 10
253.5918110006
 20
91.6680810219
 30
0.0
 11
255.1752977961
 21
91.6680810219
 31
0.0
  0
LWPOLYLINE
  5
28C
330
1F
100
AcDbEntity
  8
0
  6
Continuous
 62
     7
370
    15
100
AcDbPolyline
 90
        9
 70
   128
 43
0.0
 10
255.4489129179
 20
76.4680770404
 10
255.443652808
 20
76.3120171792
 10
255.4280885451
 20
76.1619326836
 10
255.4028012746
 20
76.0236201054
 10
255.368774473
 20
75.9023991591
 10
255.327311992
 20
75.8029041058
 10
255.2800082558
 20
75.7289794451
 10
255.2286737555
 20
75.6834563977
 10
255.1752977961
 20
75.6680783993
  0
LINE
  5
28D
330
1F
100
AcDbEntity
  8
0
  6
Continuous
 62
     7
370
    15
100
AcDbLine
 10
255.1752977961
 20
75.6680783993
 30
0.0
 11
253.5918110006
 21
75.6680783993
 31
0.0
  0
LINE
  5
28E
330
1F
100
AcDbEntity
  8
0
  6
Continuous
 62
     7
370
    15
100
AcDbLine
 10
260.3477665179
 20
90.8680823809
 30
0.0
 11
255.4489129179
 21
90.8680823809
 31
0.0
  0
LINE
  5
28F
330
1F
100
AcDbEntity
  8
0
  6
Continuous
 62
     7
370
    15
100
AcDbLine
 10
255.1752977961
 20
91.6680810219
 30
0.0
 11
260.4866751426
 21
91.6680810219
 31
0.0
  0
LINE
  5
290
330
1F
100
AcDbEntity
  8
0
  6
Continuous
 62
     7
370
    15
100
AcDbLine
 10
255.4489129179
 20
76.4680770404
 30
0.0
 11
260.3477665179
 21
76.4680770404
 31
0.0
  0
LINE
  5
291
330
1F
100
AcDbEntity
  8
0
  6
Continuous
 62
     7
370
    15
100
AcDbLine
 10
260.4866751426
 20
75.6680783993
 30
0.0
 11
255.1752977961
 21
75.6680783993
 31
0.0
  0
SPLINE
  5
292
330
1F
100
AcDbEntity
  8
0
  6
Continuous
 62
     7
370
    15
100
AcDbSpline
210
0.0
220
0.0
230
1.0
 70
     8
 71
     3
 72
    16
 73
    12
 74
     0
 42
0.00000001
 43
0.00000001
 40
0.0
 40
0.0
 40
0.0
 40
0.0
 40
0.1207046726922333
 40
0.2414119567820077
 40
0.3621190531240857
 40
0.4828234744894566
 40
0.6035301023412709
 40
0.7242365456915353
 40
0.8449450706536153
 40
0.9656513852516769
 40
1.0
 40
1.0
 40
1.0
 40
1.0
 10
286.7297955744837
 20
70.7157072788926
 30
0.0
 10
286.7491966762257
 20
70.7183830747169
 30
0.0
 10
286.7879992994449
 20
70.72373472425525
 30
0.0
 10
286.7929193266579
 20
71.01467889201827
 30
0.0
 10
286.7557144410931
 20
71.4680152212741
 30
0.0
 10
286.6787808798665
 20
72.03554297351211
 30
0.0
 10
286.5749807074098
 20
72.62386243501915
 30
0.0
 10
286.458881686343
 20
73.15057395663327
 30
0.0
 10
286.3518736583355
 20
73.51385273747572
 30
0.0
 10
286.279300541884
 20
73.68431988806923
 30
0.0
 10
286.2597484041975
 20
73.65116083117942
 30
0.0
 10
286.2554171078775
 20
73.64381525580605
 30
0.0
  0
SPLINE
  5
293
330
1F
100
AcDbEntity
  8
0
  6
Continuous
 62
     7
370
    15
100
AcDbSpline
210
0.0
220
0.0
230
1.0
 70
     8
 71
     3
 72
    16
 73
    12
 74
     0
 42
0.00000001
 43
0.00000001
 40
0.0
 40
0.0
 40
0.0
 40
0.0
 40
0.1205802855126522
 40
0.2411631797317785
 40
0.361745886396684
 40
0.4823259208414682
 40
0.6029081594988932
 40
0.7234908041797807
 40
0.8440743790084085
 40
0.9646533988194554
 40
1.0
 40
1.0
 40
1.0
 40
1.0
 10
286.9003840678308
 20
96.59173760478218
 30
0.0
 10
286.9197851776444
 20
96.58906178924597
 30
0.0
 10
286.9585878170068
 20
96.58371010028341
 30
0.0
 10
286.963507723144
 20
96.29276622820676
 30
0.0
 10
286.926303297665
 20
95.8394287753481
 30
0.0
 10
286.8493680171972
 20
95.2719052217692
 30
0.0
 10
286.7455740923257
 20
94.68356912890339
 30
0.0
 10
286.6294510822124
 20
94.15691619941558
 30
0.0
 10
286.5224472285191
 20
93.79343577174929
 30
0.0
 10
286.4496769051661
 20
93.62290239113533
 30
0.0
 10
286.4300398665891
 20
93.65647991359616
 30
0.0
 10
286.4255883687113
 20
93.66409156386574
 30
0.0
  0
SPLINE
  5
294
330
1F
100
AcDbEntity
  8
0
  6
Continuous
 62
     7
370
    15
100
AcDbSpline
210
0.0
220
0.0
230
1.0
 70
     8
 71
     3
 72
    16
 73
    12
 74
     0
 42
0.00000001
 43
0.00000001
 40
0.0
 40
0.0
 40
0.0
 40
0.0
 40
0.1205151259077762
 40
0.2410328591123244
 40
0.361550404864003
 40
0.4820652798395842
 40
0.6025823578366858
 40
0.7230992516219666
 40
0.8436162982530805
 40
0.9641310447155514
 40
1.0
 40
1.0
 40
1.0
 40
1.0
 10
302.2707679265116
 20
73.33212766711434
 30
0.0
 10
302.2901690237786
 20
73.3348034877713
 30
0.0
 10
302.3289716380477
 20
73.3401551869756
 30
0.0
 10
302.3338917323877
 20
73.63109898223827
 30
0.0
 10
302.296686591741
 20
74.08443672698908
 30
0.0
 10
302.2197539836999
 20
74.65195918983008
 30
0.0
 10
302.1159502535349
 20
75.24029839369992
 30
0.0
 10
301.9998651284439
 20
75.76693343003737
 30
0.0
 10
301.892808642488
 20
76.13048453019344
 30
0.0
 10
301.819955581463
 20
76.30109351408699
 30
0.0
 10
301.8002650334643
 20
76.26727676790706
 30
0.0
 10
301.7957487099741
 20
76.25952038829048
 30
0.0
  0
SPLINE
  5
295
330
1F
100
AcDbEntity
  8
0
  6
Continuous
 62
     7
370
    15
100
AcDbSpline
210
0.0
220
0.0
230
1.0
 70
     8
 71
     3
 72
    16
 73
    12
 74
     0
 42
0.00000001
 43
0.00000001
 40
0.0
 40
0.0
 40
0.0
 40
0.0
 40
0.1205179640124812
 40
0.2410310931472781
 40
0.3615481746255634
 40
0.4820664211226183
 40
0.6025832759705165
 40
0.7231002954985177
 40
0.8436139963821563
 40
0.9641311828946146
 40
1.0
 40
1.0
 40
1.0
 40
1.0
 10
302.4413415186975
 20
93.97531721656044
 30
0.0
 10
302.4607489314147
 20
93.97264178776096
 30
0.0
 10
302.4995629782725
 20
93.96729103749357
 30
0.0
 10
302.5044792473173
 20
93.6763587457394
 30
0.0
 10
302.4672743619671
 20
93.22301619743725
 30
0.0
 10
302.3903424486158
 20
92.65549263793235
 30
0.0
 10
302.2865449565915
 20
92.06714430630211
 30
0.0
 10
302.1704302156053
 20
91.54052038450405
 30
0.0
 10
302.0634008179213
 20
91.17695040337512
 30
0.0
 10
301.9905442816474
 20
91.00635157192397
 30
0.0
 10
301.9708534971747
 20
91.04016827068978
 30
0.0
 10
301.9663372033212
 20
91.0479244953843
 30
0.0
  0
SPLINE
  5
296
330
1F
100
AcDbEntity
  8
0
  6
Continuous
 62
     7
370
    15
100
AcDbSpline
210
0.0
220
0.0
230
1.0
 70
    24
 71
     3
 72
    16
 73
    12
 74
     0
 42
0.00000001
 43
0.00000001
 40
0.0
 40
0.0
 40
0.0
 40
0.0
 40
0.0611070903526417
 40
0.1864721510444355
 40
0.3118319714710453
 40
0.4371971593372122
 40
0.5625584614195136
 40
0.6879205673632984
 40
0.8132849015740912
 40
0.9386471466409737
 40
0.9999999999999999
 40
0.9999999999999999
 40
0.9999999999999999
 40
0.9999999999999999
 10
305.3476788991068
 20
76.80184814994054
 30
0.0
 10
305.353451928458
 20
76.80184814994054
 30
0.0
 10
305.3710686926493
 20
76.80184814994062
 30
0.0
 10
305.15264369586
 20
76.80184814994051
 30
0.0
 10
304.7398896078295
 20
76.80184814994054
 30
0.0
 10
304.1834259816675
 20
76.80184814994057
 30
0.0
 10
303.5843201443474
 20
76.8018481499406
 30
0.0
 10
303.0256207298268
 20
76.8018481499406
 30
0.0
 10
302.6086735708636
 20
76.8018481499406
 30
0.0
 10
302.3856716063399
 20
76.80184814994057
 30
0.0
 10
302.4004870099121
 20
76.80184814994051
 30
0.0
 10
302.4053552144144
 20
76.80184814994054
 30
0.0
  0
SPLINE
  5
297
330
1F
100
AcDbEntity
  8
0
  6
Continuous
 62
     7
370
    15
100
AcDbSpline
210
0.0
220
0.0
230
1.0
 70
    24
 71
     3
 72
    16
 73
    12
 74
     0
 42
0.00000001
 43
0.00000001
 40
0.0
 40
0.0
 40
0.0
 40
0.0
 40
0.0610095308224137
 40
0.186174441967608
 40
0.3113341212138785
 40
0.4364991593304078
 40
0.5616603178668566
 40
0.6868222789813968
 40
0.8119864648054415
 40
0.9371485648209648
 40
1.0
 40
1.0
 40
1.0
 40
1.0
 10
305.3476788991068
 20
90.3604743248673
 30
0.0
 10
305.3534519222453
 20
90.36047432486733
 30
0.0
 10
305.3710686674782
 20
90.36047432486733
 30
0.0
 10
305.1526439292222
 20
90.36047432486735
 30
0.0
 10
304.7398887528492
 20
90.36047432486738
 30
0.0
 10
304.1834291683472
 20
90.36047432486733
 30
0.0
 10
303.584308253034
 20
90.36047432486733
 30
0.0
 10
303.0256651091986
 20
90.36047432486735
 30
0.0
 10
302.6085079427885
 20
90.3604743248673
 30
0.0
 10
302.3850170110599
 20
90.36047432486735
 30
0.0
 10
302.400237367519
 20
90.36047432486733
 30
0.0
 10
302.405325412092
 20
90.36047432486733
 30
0.0
  0
SPLINE
  5
298
330
1F
100
AcDbEntity
  8
0
  6
Continuous
 62
     7
370
    15
100
AcDbSpline
210
0.0
220
0.0
230
1.0
 70
     8
 71
     3
 72
    19
 73
    15
 74
     0
 42
0.00000001
 43
0.00000001
 40
0.0
 40
0.0
 40
0.0
 40
0.0
 40
0.0039536857761478
 40
0.1157670014107801
 40
0.2280467679214062
 40
0.3355225848218525
 40
0.4377012919202888
 40
0.5348785050843273
 40
0.6283038363631652
 40
0.7302880459396967
 40
0.8413326072850351
 40
0.9641270183251623
 40
0.9937688453048029
 40
0.9999999999999999
 40
0.9999999999999999
 40
0.9999999999999999
 40
0.9999999999999999
 10
291.6757740967844
 20
89.26808509890755
 30
0.0
 10
291.6761663561931
 20
89.2680780595401
 30
0.0
 10
291.6876520174459
 20
89.26787194137431
 30
0.0
 10
291.7109757334044
 20
89.25279911874773
 30
0.0
 10
291.7544392852678
 20
89.18587409992787
 30
0.0
 10
291.7924260182099
 20
89.08118623526131
 30
0.0
 10
291.8159070872893
 20
88.95611277294977
 30
0.0
 10
291.8272456684157
 20
88.8276803374461
 30
0.0
 10
291.8278553491779
 20
88.70650613582343
 30
0.0
 10
291.8120541172502
 20
88.59728060181857
 30
0.0
 10
291.77168247006
 20
88.50784555823229
 30
0.0
 10
291.7198233156087
 20
88.47280535902996
 30
0.0
 10
291.6851118216231
 20
88.46818930225109
 30
0.0
 10
291.6771560229557
 20
88.46810167822942
 30
0.0
 10
291.6757740967844
 20
88.46808645789345
 30
0.0
  0
SPLINE
  5
299
330
1F
100
AcDbEntity
  8
0
  6
Continuous
 62
     7
370
    15
100
AcDbSpline
210
0.0
220
0.0
230
1.0
 70
     8
 71
     3
 72
    30
 73
    26
 74
     0
 42
0.00000001
 43
0.00000001
 40
0.0
 40
0.0
 40
0.0
 40
0.0
 40
0.124711292145107
 40
0.2494226058853823
 40
0.3741193886419359
 40
0.4367816995221521
 40
0.4681531919042845
 40
0.4838404222817763
 40
0.491691993900146
 40
0.4956112073863218
 40
0.4975691407011547
 40
0.4985481616536077
 40
0.4990390456390019
 40
0.499284487631699
 40
0.4994059022762757
 40
0.4994666095985641
 40
0.4995042586816024
 40
0.4995161643670242
 40
0.499533001548817
 40
0.5609171153610046
 40
0.6646133198329871
 40
0.732583670362476
 40
0.8111449457154783
 40
0.9002990968200388
 40
1.0
 40
1.0
 40
1.0
 40
1.0
 10
291.747463583288
 20
89.32797286574562
 30
0.0
 10
291.7532345329734
 20
89.3261811465484
 30
0.0
 10
291.7647764333436
 20
89.32259770784381
 30
0.0
 10
291.8546086617959
 20
89.30074754341982
 30
0.0
 10
291.9620834189166
 20
89.2750729317181
 30
0.0
 10
292.0476384609703
 20
89.25466452584796
 30
0.0
 10
292.0917394002824
 20
89.2441361097469
 30
0.0
 10
292.1139656324262
 20
89.2387962508123
 30
0.0
 10
292.1251040510773
 20
89.23615257190527
 30
0.0
 10
292.1306702931879
 20
89.2348059070451
 30
0.0
 10
292.1334527755499
 20
89.2341427378884
 30
0.0
 10
292.1348455957868
 20
89.23381851733761
 30
0.0
 10
292.1355395538825
 20
89.23364411214901
 30
0.0
 10
292.1358865152095
 20
89.23355573858996
 30
0.0
 10
292.1360599115973
 20
89.23351493403001
 30
0.0
 10
292.136152666261
 20
89.23350825401411
 30
0.0
 10
292.1361932435689
 20
89.23348121562641
 30
0.0
 10
292.1362231521784
 20
89.23348744907597
 30
0.0
 10
292.1520216516254
 20
89.20957187600295
 30
0.0
 10
292.2359068923748
 20
89.22728637811106
 30
0.0
 10
292.317937241351
 20
89.19046530289407
 30
0.0
 10
292.4033509919158
 20
89.17681126658425
 30
0.0
 10
292.4663961793631
 20
89.16300396785712
 30
0.0
 10
292.5170744819466
 20
89.15364312639524
 30
0.0
 10
292.5242746697464
 20
89.15313668339914
 30
0.0
 10
292.5280758135889
 20
89.15286932055672
 30
0.0
  0
ELLIPSE
  5
29A
330
1F
100
AcDbEntity
  8
0
  6
Continuous
 62
     7
370
    15
100
AcDbEllipse
 10
292.4046030859
 20
90.4500572736
 30
0.0
 11
0.3906095144045594
 21
-0.08616383961160068
 31
0.0
210
0.0
220
0.0
230
1.0
 40
0.0142285888
 41
0.0
 42
6.283185307179586
  0
LINE
  5
29B
330
1F
100
AcDbEntity
  8
0
  6
Continuous
 62
     7
370
    15
100
AcDbLine
 10
291.5775009387
 20
77.9180792338
 30
0.0
 11
291.5775009387
 21
76.9180772073
 31
0.0
  0
LINE
  5
29C
330
1F
100
AcDbEntity
  8
0
  6
Continuous
 62
     7
370
    15
100
AcDbLine
 10
291.5775009387
 20
76.9180772073
 30
0.0
 11
285.377500295
 21
76.9180772073
 31
0.0
  0
LINE
  5
29D
330
1F
100
AcDbEntity
  8
0
  6
Continuous
 62
     7
370
    15
100
AcDbLine
 10
285.377500295
 20
77.9180792338
 30
0.0
 11
285.377500295
 21
76.9180772073
 31
0.0
  0
LINE
  5
29E
330
1F
100
AcDbEntity
  8
0
  6
Continuous
 62
     7
370
    15
100
AcDbLine
 10
291.5775009387
 20
77.9180792338
 30
0.0
 11
285.377500295
 21
77.9180792338
 31
0.0
  0
LINE
  5
29F
330
1F
100
AcDbEntity
  8
0
  6
Continuous
 62
     7
370
    15
100
AcDbLine
 10
291.5775009387
 20
460.4180869824
 30
0.0
 11
285.377500295
 21
460.4180869824
 31
0.0
  0
LINE
  5
2A0
330
1F
100
AcDbEntity
  8
0
  6
Continuous
 62
     7
370
    15
100
AcDbLine
 10
291.5775009387
 20
460.4180869824
 30
0.0
 11
291.5775009387
 21
459.4180849559
 31
0.0
  0
LINE
  5
2A1
330
1F
100
AcDbEntity
  8
0
  6
Continuous
 62
     7
370
    15
100
AcDbLine
 10
291.5775009387
 20
459.4180849559
 30
0.0
 11
285.377500295
 21
459.4180849559
 31
0.0
  0
LINE
  5
2A2
330
1F
100
AcDbEntity
  8
0
  6
Continuous
 62
     7
370
    15
100
AcDbLine
 10
285.377500295
 20
460.4180869824
 30
0.0
 11
285.377500295
 21
459.4180849559
 31
0.0
  0
LINE
  5
2A3
330
1F
100
AcDbEntity
  8
0
  6
Continuous
 62
     7
370
    15
100
AcDbLine
 10
291.5775009387
 20
90.418082214
 30
0.0
 11
285.377500295
 21
90.418082214
 31
0.0
  0
LINE
  5
2A4
330
1F
100
AcDbEntity
  8
0
  6
Continuous
 62
     7
370
    15
100
AcDbLine
 10
291.5775009387
 20
90.418082214
 30
0.0
 11
291.5775009387
 21
89.4180801875
 31
0.0
  0
LINE
  5
2A5
330
1F
100
AcDbEntity
  8
0
  6
Continuous
 62
     7
370
    15
100
AcDbLine
 10
291.5775009387
 20
89.4180801875
 30
0.0
 11
285.377500295
 21
89.4180801875
 31
0.0
  0
LINE
  5
2A6
330
1F
100
AcDbEntity
  8
0
  6
Continuous
 62
     7
370
    15
100
AcDbLine
 10
285.377500295
 20
90.418082214
 30
0.0
 11
285.377500295
 21
89.4180801875
 31
0.0
  0
LINE
  5
2A7
330
1F
100
AcDbEntity
  8
0
  6
Continuous
 62
     7
370
    15
100
AcDbLine
 10
291.5775009387
 20
447.9180840022
 30
0.0
 11
291.5775009387
 21
446.9180819756
 31
0.0
  0
LINE
  5
2A8
330
1F
100
AcDbEntity
  8
0
  6
Continuous
 62
     7
370
    15
100
AcDbLine
 10
291.5775009387
 20
446.9180819756
 30
0.0
 11
285.377500295
 21
446.9180819756
 31
0.0
  0
LINE
  5
2A9
330
1F
100
AcDbEntity
  8
0
  6
Continuous
 62
     7
370
    15
100
AcDbLine
 10
285.377500295
 20
447.9180840022
 30
0.0
 11
285.377500295
 21
446.9180819756
 31
0.0
  0
LINE
  5
2AA
330
1F
100
AcDbEntity
  8
0
  6
Continuous
 62
     7
370
    15
100
AcDbLine
 10
291.5775009387
 20
447.9180840022
 30
0.0
 11
285.377500295
 21
447.9180840022
 31
0.0
  0
LWPOLYLINE
  5
2AB
330
1F
100
AcDbEntity
  8
0
  6
Continuous
 62
     7
370
    15
100
AcDbPolyline
 90
        3
 70
   128
 43
0.0
 10
285.2987923616
 20
447.3069426781
 10
285.3013702624
 20
447.3007586962
 10
285.377500295
 20
446.9180819756
  0
LWPOLYLINE
  5
2AC
330
1F
100
AcDbEntity
  8
0
  6
Continuous
 62
     7
370
    15
100
AcDbPolyline
 90
        3
 70
   128
 43
0.0
 10
285.377500295
 20
460.4180869824
 10
285.3013702624
 20
460.0353953606
 10
285.2987923616
 20
460.0292262799
  0
LINE
  5
2AD
330
1F
100
AcDbEntity
  8
0
  6
Continuous
 62
     7
370
    15
100
AcDbLine
 10
291.5775009387
 20
459.4180849559
 30
0.0
 11
291.5775009387
 21
459.2680749661
 31
0.0
  0
LINE
  5
2AE
330
1F
100
AcDbEntity
  8
0
  6
Continuous
 62
     7
370
    15
100
AcDbLine
 10
291.5775009387
 20
458.4680763251
 30
0.0
 11
291.5775009387
 21
457.5680759913
 31
0.0
  0
LINE
  5
2AF
330
1F
100
AcDbEntity
  8
0
  6
Continuous
 62
     7
370
    15
100
AcDbLine
 10
291.5775009387
 20
448.9680794245
 30
0.0
 11
291.5775009387
 21
447.9180840022
 31
0.0
  0
LWPOLYLINE
  5
2B0
330
1F
100
AcDbEntity
  8
0
  6
Continuous
 62
     7
370
    15
100
AcDbPolyline
 90
        3
 70
   128
 43
0.0
 10
285.2987923616
 20
77.3069379098
 10
285.3013702624
 20
77.300768829
 10
285.377500295
 20
76.9180772073
  0
LWPOLYLINE
  5
2B1
330
1F
100
AcDbEntity
  8
0
  6
Continuous
 62
     7
370
    15
100
AcDbPolyline
 90
        3
 70
   128
 43
0.0
 10
285.377500295
 20
90.418082214
 10
285.3013702624
 20
90.0354054934
 10
285.2987923616
 20
90.0292215115
  0
LINE
  5
2B2
330
1F
100
AcDbEntity
  8
0
  6
Continuous
 62
     7
370
    15
100
AcDbLine
 10
291.5775009387
 20
89.4180801875
 30
0.0
 11
291.5775009387
 21
89.2680850989
 31
0.0
  0
LINE
  5
2B3
330
1F
100
AcDbEntity
  8
0
  6
Continuous
 62
     7
370
    15
100
AcDbLine
 10
291.5775009387
 20
88.4680864579
 30
0.0
 11
291.5775009387
 21
87.5680861241
 31
0.0
  0
LINE
  5
2B4
330
1F
100
AcDbEntity
  8
0
  6
Continuous
 62
     7
370
    15
100
AcDbLine
 10
291.5775009387
 20
78.9680746562
 30
0.0
 11
291.5775009387
 21
77.9180792338
 31
0.0
  0
LINE
  5
2B5
330
1F
100
AcDbEntity
  8
0
  6
Continuous
 62
     7
370
    15
100
AcDbLine
 10
143.5774943747
 20
503.6680814988
 30
0.0
 11
143.5774943747
 21
33.6680826909
 31
0.0
  0
LINE
  5
2B6
330
1F
100
AcDbEntity
  8
0
  6
Continuous
 62
     7
370
    15
100
AcDbLine
 10
143.5774943747
 20
33.6680826909
 30
0.0
 11
128.57749471
 21
33.6680826909
 31
0.0
  0
LINE
  5
2B7
330
1F
100
AcDbEntity
  8
0
  6
Continuous
 62
     7
370
    15
100
AcDbLine
 10
128.57749471
 20
503.6680814988
 30
0.0
 11
128.57749471
 21
33.6680826909
 31
0.0
  0
LINE
  5
2B8
330
1F
100
AcDbEntity
  8
0
  6
Continuous
 62
     7
370
    15
100
AcDbLine
 10
128.57749471
 20
503.6680814988
 30
0.0
 11
143.5774943747
 21
503.6680814988
 31
0.0
  0
LINE
  5
2B9
330
1F
100
AcDbEntity
  8
0
  6
Continuous
 62
     7
370
    15
100
AcDbLine
 10
143.5774943747
 20
33.6680826909
 30
0.0
 11
143.5774943747
 21
18.6680820948
 31
0.0
  0
ARC
  5
2BA
330
1F
100
AcDbEntity
  8
0
  6
Continuous
 62
     7
370
    15
100
AcDbCircle
 10
143.5774946921
 20
33.6680820948
 30
0.0
 40
15.00000000000002
100
AcDbArc
 50
180.0
 51
270.0
  0
ARC
  5
2BB
330
1F
100
AcDbEntity
  8
0
  6
Continuous
 62
     7
370
    15
100
AcDbCircle
 10
143.5774946921
 20
503.6680820948
 30
0.0
 40
15.00000000000011
100
AcDbArc
 50
90.0
 51
180.0
  0
LINE
  5
2BC
330
1F
100
AcDbEntity
  8
0
  6
Continuous
 62
     7
370
    15
100
AcDbLine
 10
143.5774943747
 20
518.6680820948
 30
0.0
 11
143.5774943747
 21
503.6680814988
 31
0.0
  0
LINE
  5
2BD
330
1F
100
AcDbEntity
  8
0
  6
Continuous
 62
     7
370
    15
100
AcDbLine
 10
304.5774974816
 20
18.6680820948
 30
0.0
 11
143.5774943747
 21
18.6680820948
 31
0.0
  0
LINE
  5
2BE
330
1F
100
AcDbEntity
  8
0
  6
Continuous
 62
     7
370
    15
100
AcDbLine
 10
304.5774974816
 20
33.6680826909
 30
0.0
 11
143.5774943747
 21
33.6680826909
 31
0.0
  0
LINE
  5
2BF
330
1F
100
AcDbEntity
  8
0
  6
Continuous
 62
     7
370
    15
100
AcDbLine
 10
304.5774974816
 20
33.6680826909
 30
0.0
 11
304.5774974816
 21
18.6680820948
 31
0.0
  0
LINE
  5
2C0
330
1F
100
AcDbEntity
  8
0
  6
Continuous
 62
     7
370
    15
100
AcDbLine
 10
304.5774974816
 20
33.6680826909
 30
0.0
 11
304.5774974816
 21
74.6601787574
 31
0.0
  0
LINE
  5
2C1
330
1F
100
AcDbEntity
  8
0
  6
Continuous
 62
     7
370
    15
100
AcDbLine
 10
304.5774974816
 20
92.6440176732
 30
0.0
 11
304.5774974816
 21
444.6601686246
 31
0.0
  0
LINE
  5
2C2
330
1F
100
AcDbEntity
  8
0
  6
Continuous
 62
     7
370
    15
100
AcDbLine
 10
304.5774974816
 20
462.6440075404
 30
0.0
 11
304.5774974816
 21
503.6680814988
 31
0.0
  0
LINE
  5
2C3
330
1F
100
AcDbEntity
  8
0
  6
Continuous
 62
     7
370
    15
100
AcDbLine
 10
304.5774974816
 20
503.6680814988
 30
0.0
 11
143.5774943747
 21
503.6680814988
 31
0.0
  0
LINE
  5
2C4
330
1F
100
AcDbEntity
  8
0
  6
Continuous
 62
     7
370
    15
100
AcDbLine
 10
284.577501654
 20
38.6680779225
 30
0.0
 11
148.577494263
 21
38.6680779225
 31
0.0
  0
LINE
  5
2C5
330
1F
100
AcDbEntity
  8
0
  6
Continuous
 62
     7
370
    15
100
AcDbLine
 10
284.577501654
 20
38.6680779225
 30
0.0
 11
284.577501654
 21
70.8555397755
 31
0.0
  0
LINE
  5
2C6
330
1F
100
AcDbEntity
  8
0
  6
Continuous
 62
     7
370
    15
100
AcDbLine
 10
284.577501654
 20
74.1953221328
 30
0.0
 11
284.577501654
 21
75.6680783993
 31
0.0
  0
LINE
  5
2C7
330
1F
100
AcDbEntity
  8
0
  6
Continuous
 62
     7
370
    15
100
AcDbLine
 10
284.577501654
 20
91.6680810219
 30
0.0
 11
284.577501654
 21
93.1274858481
 31
0.0
  0
LINE
  5
2C8
330
1F
100
AcDbEntity
  8
0
  6
Continuous
 62
     7
370
    15
100
AcDbLine
 10
284.577501654
 20
96.4702037341
 30
0.0
 11
284.577501654
 21
440.8555296427
 31
0.0
  0
LINE
  5
2C9
330
1F
100
AcDbEntity
  8
0
  6
Continuous
 62
     7
370
    15
100
AcDbLine
 10
284.577501654
 20
444.1953269011
 30
0.0
 11
284.577501654
 21
445.6680831677
 31
0.0
  0
LINE
  5
2CA
330
1F
100
AcDbEntity
  8
0
  6
Continuous
 62
     7
370
    15
100
AcDbLine
 10
284.577501654
 20
461.6680857903
 30
0.0
 11
284.577501654
 21
463.1274906165
 31
0.0
  0
LINE
  5
2CB
330
1F
100
AcDbEntity
  8
0
  6
Continuous
 62
     7
370
    15
100
AcDbLine
 10
284.577501654
 20
466.4701936013
 30
0.0
 11
284.577501654
 21
498.6680862672
 31
0.0
  0
LINE
  5
2CC
330
1F
100
AcDbEntity
  8
0
  6
Continuous
 62
     7
370
    15
100
AcDbLine
 10
284.577501654
 20
498.6680862672
 30
0.0
 11
148.577494263
 21
498.6680862672
 31
0.0
  0
LINE
  5
2CD
330
1F
100
AcDbEntity
  8
0
  6
Continuous
 62
     7
370
    15
100
AcDbLine
 10
148.577494263
 20
498.6680862672
 30
0.0
 11
148.577494263
 21
38.6680779225
 31
0.0
  0
LINE
  5
2CE
330
1F
100
AcDbEntity
  8
0
  6
Continuous
 62
     7
370
    15
100
AcDbLine
 10
304.5774974816
 20
518.6680820948
 30
0.0
 11
143.5774943747
 21
518.6680820948
 31
0.0
  0
LINE
  5
2CF
330
1F
100
AcDbEntity
  8
0
  6
Continuous
 62
     7
370
    15
100
AcDbLine
 10
304.5774974816
 20
518.6680820948
 30
0.0
 11
304.5774974816
 21
503.6680814988
 31
0.0
  0
LINE
  5
2D0
330
1F
100
AcDbEntity
  8
0
  6
Continuous
 62
     7
370
    15
100
AcDbLine
 10
308.5774906867
 20
38.6680779225
 30
0.0
 11
304.5774974816
 21
38.6680779225
 31
0.0
  0
LINE
  5
2D1
330
1F
100
AcDbEntity
  8
0
  6
Continuous
 62
     7
370
    15
100
AcDbLine
 10
308.5774906867
 20
23.6680773265
 30
0.0
 11
304.5774974816
 21
23.6680773265
 31
0.0
  0
LINE
  5
2D2
330
1F
100
AcDbEntity
  8
0
  6
Continuous
 62
     7
370
    15
100
AcDbLine
 10
308.5774906867
 20
498.6680862672
 30
0.0
 11
304.5774974816
 21
498.6680862672
 31
0.0
  0
LINE
  5
2D3
330
1F
100
AcDbEntity
  8
0
  6
Continuous
 62
     7
370
    15
100
AcDbLine
 10
308.5774906867
 20
513.6680868632
 30
0.0
 11
304.5774974816
 21
513.6680868632
 31
0.0
  0
LINE
  5
2D4
330
1F
100
AcDbEntity
  8
0
  6
Continuous
 62
     7
370
    15
100
AcDbLine
 10
383.1620720607
 20
555.2632417887
 30
0.0
 11
384.3620625717
 21
555.2632417887
 31
0.0
  0
LINE
  5
2D5
330
1F
100
AcDbEntity
  8
0
  6
Continuous
 62
     7
370
    15
100
AcDbLine
 10
383.062070368
 20
557.7632543056
 30
0.0
 11
383.1620720607
 21
557.7632543056
 31
0.0
  0
LINE
  5
2D6
330
1F
100
AcDbEntity
  8
0
  6
Continuous
 62
     7
370
    15
100
AcDbLine
 10
383.1620720607
 20
563.7632515638
 30
0.0
 11
383.062070368
 21
563.7632515638
 31
0.0
  0
LINE
  5
2D7
330
1F
100
AcDbEntity
  8
0
  6
Continuous
 62
     7
370
    15
100
AcDbLine
 10
378.9138255102
 20
620.7632478683
 30
0.0
 11
378.1620619279
 21
620.4896327465
 31
0.0
  0
SPLINE
  5
2D8
330
1F
100
AcDbEntity
  8
0
  6
Continuous
 62
     7
370
    15
100
AcDbSpline
210
0.0
220
0.0
230
1.0
 70
     8
 71
     3
 72
    15
 73
    11
 74
     0
 42
0.00000001
 43
0.00000001
 40
0.0
 40
0.0
 40
0.0
 40
0.0
 40
0.1250746233969379
 40
0.2501518927358305
 40
0.3752910406730606
 40
0.5003051235315468
 40
0.6252883574130363
 40
0.7502628503292366
 40
0.8750788495600447
 40
0.9999999999999999
 40
0.9999999999999999
 40
0.9999999999999999
 40
0.9999999999999999
 10
381.9765058738199
 20
585.8210828512034
 30
0.0
 10
381.9503808772972
 20
586.0798443095764
 30
0.0
 10
381.89813033158
 20
586.5973727003968
 30
0.0
 10
381.8192634764761
 20
587.3784852033843
 30
0.0
 10
381.7448348156187
 20
588.1156641562097
 30
0.0
 10
381.677822603199
 20
588.779236682489
 30
0.0
 10
381.6217140999758
 20
589.3349943788849
 30
0.0
 10
381.5791968560231
 20
589.7561046680395
 30
0.0
 10
381.5503641245023
 20
590.0416956929254
 30
0.0
 10
381.546022423226
 20
590.0847387768224
 30
0.0
 10
381.5438506585566
 20
590.106269380363
 30
0.0
  0
SPLINE
  5
2D9
330
1F
100
AcDbEntity
  8
0
  6
Continuous
 62
     7
370
    15
100
AcDbSpline
210
0.0
220
0.0
230
1.0
 70
     8
 71
     3
 72
    15
 73
    11
 74
     0
 42
0.00000001
 43
0.00000001
 40
0.0
 40
0.0
 40
0.0
 40
0.0
 40
0.1249401884440822
 40
0.2497679801185012
 40
0.3747498318965526
 40
0.4997360360050155
 40
0.6247477749159165
 40
0.7498804928923557
 40
0.8749434058586835
 40
1.0
 40
1.0
 40
1.0
 40
1.0
 10
378.5595951062647
 20
589.8048933952174
 30
0.0
 10
378.5617774999018
 20
589.7833125190531
 30
0.0
 10
378.5661403238846
 20
589.7401701809804
 30
0.0
 10
378.5949903354797
 20
589.454460009372
 30
0.0
 10
378.6374948746514
 20
589.033272824686
 30
0.0
 10
378.6936355895487
 20
588.4775081470011
 30
0.0
 10
378.7606189095969
 20
587.8139723896625
 30
0.0
 10
378.8350410734732
 20
587.0769258255086
 30
0.0
 10
378.9138684560671
 20
586.2960115872858
 30
0.0
 10
378.9661135388934
 20
585.7786594978485
 30
0.0
 10
378.9922354203669
 20
585.5199899881205
 30
0.0
  0
LINE
  5
2DA
330
1F
100
AcDbEntity
  8
0
  6
Continuous
 62
     7
370
    15
100
AcDbLine
 10
378.9919522983
 20
585.5198558777
 30
0.0
 11
380.5610296709
 21
569.9788835256
 31
0.0
  0
LINE
  5
2DB
330
1F
100
AcDbEntity
  8
0
  6
Continuous
 62
     7
370
    15
100
AcDbLine
 10
383.5458514673
 20
570.2802446096
 30
0.0
 11
381.9767740947
 21
585.8212169617
 31
0.0
  0
SPLINE
  5
2DC
330
1F
100
AcDbEntity
  8
0
  6
Continuous
 62
     7
370
    15
100
AcDbSpline
210
0.0
220
0.0
230
1.0
 70
     8
 71
     3
 72
     9
 73
     5
 74
     0
 42
0.00000001
 43
0.00000001
 40
0.0
 40
0.0
 40
0.0
 40
0.0
 40
0.4837463529603662
 40
1.0
 40
1.0
 40
1.0
 40
1.0
 10
380.7311115247217
 20
568.2975110023341
 30
0.0
 10
380.7405719668839
 20
568.2332790320745
 30
0.0
 10
380.7601285839092
 20
568.1004987643446
 30
0.0
 10
380.7939719325526
 20
568.0643554151548
 30
0.0
 10
380.8114436847177
 20
568.0456962793193
 30
0.0
  0
SPLINE
  5
2DD
330
1F
100
AcDbEntity
  8
0
  6
Continuous
 62
     7
370
    15
100
AcDbSpline
210
0.0
220
0.0
230
1.0
 70
     8
 71
     3
 72
    11
 73
     7
 74
     0
 42
0.00000001
 43
0.00000001
 40
0.0
 40
0.0
 40
0.0
 40
0.0
 40
0.2484445011412592
 40
0.4978879558437819
 40
0.748387508441137
 40
0.9999999999999999
 40
0.9999999999999999
 40
0.9999999999999999
 40
0.9999999999999999
 10
380.5612978917566
 20
569.979047438415
 30
0.0
 10
380.5793103910349
 20
569.8005698073781
 30
0.0
 10
380.6154078148222
 20
569.4428969167625
 30
0.0
 10
380.6624348877306
 20
568.9780690809216
 30
0.0
 10
380.7012264996399
 20
568.5951821954843
 30
0.0
 10
380.7162710215675
 20
568.4478949331179
 30
0.0
 10
380.7238099557367
 20
568.3740880697093
 30
0.0
  0
SPLINE
  5
2DE
330
1F
100
AcDbEntity
  8
0
  6
Continuous
 62
     7
370
    15
100
AcDbSpline
210
0.0
220
0.0
230
1.0
 70
     8
 71
     3
 72
    19
 73
    15
 74
     0
 42
0.00000001
 43
0.00000001
 40
0.0
 40
0.0
 40
0.0
 40
0.0
 40
0.0802801907277056
 40
0.1534413644684406
 40
0.2193421706414576
 40
0.2779477476206599
 40
0.3728451425950048
 40
0.4421542992520472
 40
0.5315379721726201
 40
0.6554818151353391
 40
0.7303548223906573
 40
0.8130802744411477
 40
0.9031426883518893
 40
1.0
 40
1.0
 40
1.0
 40
1.0
 10
380.7467577439753
 20
568.214869162353
 30
0.0
 10
380.7821181366003
 20
568.0919951059607
 30
0.0
 10
380.8497032636828
 20
567.8571431119668
 30
0.0
 10
381.0469320507354
 20
567.5627314525166
 30
0.0
 10
381.2717747222399
 20
567.3385990526305
 30
0.0
 10
381.5674403157262
 20
567.1455528109793
 30
0.0
 10
381.9093922884223
 20
567.0276613965693
 30
0.0
 10
382.3191482106731
 20
566.9978547192488
 30
0.0
 10
382.7582319761819
 20
567.1001632626396
 30
0.0
 10
383.1447646307653
 20
567.3513974696682
 30
0.0
 10
383.4376013142774
 20
567.6921117597253
 30
0.0
 10
383.6183880388651
 20
568.0475754733001
 30
0.0
 10
383.7242814518225
 20
568.474521981487
 30
0.0
 10
383.6920264979837
 20
568.7695856821989
 30
0.0
 10
383.6753127557245
 20
568.9224806039653
 30
0.0
  0
SPLINE
  5
2DF
330
1F
100
AcDbEntity
  8
0
  6
Continuous
 62
     7
370
    15
100
AcDbSpline
210
0.0
220
0.0
230
1.0
 70
     8
 71
     3
 72
    11
 73
     7
 74
     0
 42
0.00000001
 43
0.00000001
 40
0.0
 40
0.0
 40
0.0
 40
0.0
 40
0.2477426625315676
 40
0.4969466688513492
 40
0.7476780258035077
 40
1.0
 40
1.0
 40
1.0
 40
1.0
 10
383.6990801078287
 20
568.7547978370509
 30
0.0
 10
383.6926464114356
 20
568.8194233940444
 30
0.0
 10
383.6797410686162
 20
568.9490557106686
 30
0.0
 10
383.6437509571547
 20
569.3069319942603
 30
0.0
 10
383.5988001789559
 20
569.7532647150094
 30
0.0
 10
383.5633595774153
 20
570.1041254392759
 30
0.0
 10
383.5455832463709
 20
570.2801104991755
 30
0.0
  0
LINE
  5
2E0
330
1F
100
AcDbEntity
  8
0
  6
Continuous
 62
     7
370
    15
100
AcDbLine
 10
383.8293758613
 20
579.9349155634
 30
0.0
 11
383.8293609601
 21
580.2347418278
 31
0.0
  0
LINE
  5
2E1
330
1F
100
AcDbEntity
  8
0
  6
Continuous
 62
     7
370
    15
100
AcDbLine
 10
383.0293623191
 20
580.2347418278
 30
0.0
 11
383.0293623191
 21
579.9373593538
 31
0.0
  0
SPLINE
  5
2E2
330
1F
100
AcDbEntity
  8
0
  6
Continuous
 62
     7
370
    15
100
AcDbSpline
210
0.0
220
0.0
230
1.0
 70
    24
 71
     3
 72
    11
 73
     7
 74
     0
 42
0.00000001
 43
0.00000001
 40
0.0
 40
0.0
 40
0.0
 40
0.0
 40
0.0207852832108836
 40
0.34656035810907
 40
0.6711462475793438
 40
1.0
 40
1.0
 40
1.0
 40
1.0
 10
383.0293623191324
 20
580.5210527389369
 30
0.0
 10
383.0293623191324
 20
580.5177310342556
 30
0.0
 10
383.0293623191321
 20
580.4623470805117
 30
0.0
 10
383.0293623191325
 20
580.3691099291993
 30
0.0
 10
383.0293623191324
 20
580.256394632751
 30
0.0
 10
383.0293623191324
 20
580.2218782718768
 30
0.0
 10
383.0293623191324
 20
580.204507371696
 30
0.0
  0
SPLINE
  5
2E3
330
1F
100
AcDbEntity
  8
0
  6
Continuous
 62
     7
370
    15
100
AcDbSpline
210
0.0
220
0.0
230
1.0
 70
    24
 71
     3
 72
    11
 73
     7
 74
     0
 42
0.00000001
 43
0.00000001
 40
0.0
 40
0.0
 40
0.0
 40
0.0
 40
0.2504884286733861
 40
0.497727503351466
 40
0.7458863506510961
 40
1.0
 40
1.0
 40
1.0
 40
1.0
 10
383.8293758613077
 20
580.202048680099
 30
0.0
 10
383.8293758613077
 20
580.2182659043633
 30
0.0
 10
383.8293758613077
 20
580.2504899818872
 30
0.0
 10
383.8293758613077
 20
580.3592671019907
 30
0.0
 10
383.8293758613078
 20
580.498103466263
 30
0.0
 10
383.8293758613077
 20
580.6051288080425
 30
0.0
 10
383.8293758613077
 20
580.659275910171
 30
0.0
  0
LINE
  5
2E4
330
1F
100
AcDbEntity
  8
0
  6
Continuous
 62
     7
370
    15
100
AcDbLine
 10
383.8293758613
 20
580.6592759102
 30
0.0
 11
383.8293758613
 21
580.7632413118
 31
0.0
  0
LINE
  5
2E5
330
1F
100
AcDbEntity
  8
0
  6
Continuous
 62
     7
370
    15
100
AcDbLine
 10
382.8226236087
 20
580.7632413118
 30
0.0
 11
383.0315378887
 21
580.5160161465
 31
0.0
  0
LINE
  5
2E6
330
1F
100
AcDbEntity
  8
0
  6
Continuous
 62
     7
370
    15
100
AcDbLine
 10
378.5529789907
 20
589.9012741058
 30
0.0
 11
378.5373625738
 21
590.3604980915
 31
0.0
  0
SPLINE
  5
2E7
330
1F
100
AcDbEntity
  8
0
  6
Continuous
 62
     7
370
    15
100
AcDbSpline
210
0.0
220
0.0
230
1.0
 70
     8
 71
     3
 72
    11
 73
     7
 74
     0
 42
0.00000001
 43
0.00000001
 40
0.0
 40
0.0
 40
0.0
 40
0.0
 40
0.1207538077136109
 40
0.413392871813957
 40
0.7063564432590831
 40
1.0
 40
1.0
 40
1.0
 40
1.0
 10
380.5856463891474
 20
569.737827441009
 30
0.0
 10
380.5955697212891
 20
569.6395321907623
 30
0.0
 10
380.6295416087989
 20
569.3030247418088
 30
0.0
 10
380.6768966951973
 20
568.8341081393854
 30
0.0
 10
380.7197836862475
 20
568.4093649942157
 30
0.0
 10
380.7273326616811
 20
568.3348244683435
 30
0.0
 10
380.7311115247217
 20
568.2975110023341
 30
0.0
  0
LINE
  5
2E8
330
1F
100
AcDbEntity
  8
0
  6
Continuous
 62
     7
370
    15
100
AcDbLine
 10
384.3620625717
 20
619.7632458418
 30
0.0
 11
384.0620723945
 21
619.7632458418
 31
0.0
  0
LINE
  5
2E9
330
1F
100
AcDbEntity
  8
0
  6
Continuous
 62
     7
370
    15
100
AcDbLine
 10
384.0620723945
 20
618.7632512658
 30
0.0
 11
383.9620707017
 21
618.7632512658
 31
0.0
  0
LINE
  5
2EA
330
1F
100
AcDbEntity
  8
0
  6
Continuous
 62
     7
370
    15
100
AcDbLine
 10
383.9620707017
 20
612.763246557
 30
0.0
 11
384.0620723945
 21
612.763246557
 31
0.0
  0
LINE
  5
2EB
330
1F
100
AcDbEntity
  8
0
  6
Continuous
 62
     7
370
    15
100
AcDbLine
 10
384.0620723945
 20
595.7632419079
 30
0.0
 11
383.9620707017
 21
595.7632419079
 31
0.0
  0
LINE
  5
2EC
330
1F
100
AcDbEntity
  8
0
  6
Continuous
 62
     7
370
    15
100
AcDbLine
 10
383.9620707017
 20
589.7632446497
 30
0.0
 11
384.0620723945
 21
589.7632446497
 31
0.0
  0
LINE
  5
2ED
330
1F
100
AcDbEntity
  8
0
  6
Continuous
 62
     7
370
    15
100
AcDbLine
 10
399.3620631677
 20
563.7632515638
 30
0.0
 11
399.3620631677
 21
558.763241431
 31
0.0
  0
LINE
  5
2EE
330
1F
100
AcDbEntity
  8
0
  6
Continuous
 62
     7
370
    15
100
AcDbLine
 10
399.3620631677
 20
563.7632515638
 30
0.0
 11
769.3620679361
 21
563.7632515638
 31
0.0
  0
LINE
  5
2EF
330
1F
100
AcDbEntity
  8
0
  6
Continuous
 62
     7
370
    15
100
AcDbLine
 10
769.3620679361
 20
563.7632515638
 30
0.0
 11
769.3620679361
 21
558.763241431
 31
0.0
  0
LINE
  5
2F0
330
1F
100
AcDbEntity
  8
0
  6
Continuous
 62
     7
370
    15
100
AcDbLine
 10
399.3620631677
 20
558.763241431
 30
0.0
 11
769.3620679361
 21
558.763241431
 31
0.0
  0
ARC
  5
2F1
330
1F
100
AcDbEntity
  8
0
  6
Continuous
 62
     7
370
    15
100
AcDbCircle
 10
399.3620655519
 20
558.7632475584
 30
0.0
 40
15.00000000000006
100
AcDbArc
 50
180.0
 51
270.0
  0
LINE
  5
2F2
330
1F
100
AcDbEntity
  8
0
  6
Continuous
 62
     7
370
    15
100
AcDbLine
 10
384.3620625717
 20
558.763241431
 30
0.0
 11
399.3620631677
 21
558.763241431
 31
0.0
  0
LINE
  5
2F3
330
1F
100
AcDbEntity
  8
0
  6
Continuous
 62
     7
370
    15
100
AcDbLine
 10
399.3620631677
 20
543.763240835
 30
0.0
 11
399.3620631677
 21
558.763241431
 31
0.0
  0
LINE
  5
2F4
330
1F
100
AcDbEntity
  8
0
  6
Continuous
 62
     7
370
    15
100
AcDbLine
 10
769.3620679361
 20
558.763241431
 30
0.0
 11
769.3620679361
 21
543.763240835
 31
0.0
  0
LINE
  5
2F5
330
1F
100
AcDbEntity
  8
0
  6
Continuous
 62
     7
370
    15
100
AcDbLine
 10
399.3620631677
 20
543.763240835
 30
0.0
 11
769.3620679361
 21
543.763240835
 31
0.0
  0
LINE
  5
2F6
330
1F
100
AcDbEntity
  8
0
  6
Continuous
 62
     7
370
    15
100
AcDbLine
 10
384.3620625717
 20
563.7632515638
 30
0.0
 11
384.3620625717
 21
558.763241431
 31
0.0
  0
LINE
  5
2F7
330
1F
100
AcDbEntity
  8
0
  6
Continuous
 62
     7
370
    15
100
AcDbLine
 10
384.3620625717
 20
563.7632515638
 30
0.0
 11
399.3620631677
 21
563.7632515638
 31
0.0
  0
LINE
  5
2F8
330
1F
100
AcDbEntity
  8
0
  6
Continuous
 62
     7
370
    15
100
AcDbLine
 10
784.3620685321
 20
558.763241431
 30
0.0
 11
769.3620679361
 21
558.763241431
 31
0.0
  0
ARC
  5
2F9
330
1F
100
AcDbEntity
  8
0
  6
Continuous
 62
     7
370
    15
100
AcDbCircle
 10
769.3620655519
 20
558.7632475584
 30
0.0
 40
15.0
100
AcDbArc
 50
270.0
 51
0.0
  0
LINE
  5
2FA
330
1F
100
AcDbEntity
  8
0
  6
Continuous
 62
     7
370
    15
100
AcDbLine
 10
784.3620685321
 20
563.7632515638
 30
0.0
 11
784.3620685321
 21
558.763241431
 31
0.0
  0
LINE
  5
2FB
330
1F
100
AcDbEntity
  8
0
  6
Continuous
 62
     7
370
    15
100
AcDbLine
 10
784.3620685321
 20
563.7632515638
 30
0.0
 11
769.3620679361
 21
563.7632515638
 31
0.0
  0
LINE
  5
2FC
330
1F
100
AcDbEntity
  8
0
  6
Continuous
 62
     7
370
    15
100
AcDbLine
 10
383.1620720607
 20
559.6770402401
 30
0.0
 11
383.1620720607
 21
561.7810096948
 31
0.0
  0
LINE
  5
2FD
330
1F
100
AcDbEntity
  8
0
  6
Continuous
 62
     7
370
    15
100
AcDbLine
 10
383.1620720607
 20
561.7810096948
 30
0.0
 11
384.3620625717
 21
561.7810096948
 31
0.0
  0
LINE
  5
2FE
330
1F
100
AcDbEntity
  8
0
  6
Continuous
 62
     7
370
    15
100
AcDbLine
 10
383.1620720607
 20
559.6770402401
 30
0.0
 11
384.3620625717
 21
559.6770402401
 31
0.0
  0
LINE
  5
2FF
330
1F
100
AcDbEntity
  8
0
  6
Continuous
 62
     7
370
    15
100
AcDbLine
 10
383.1620720607
 20
566.7632427423
 30
0.0
 11
384.3620625717
 21
566.7632427423
 31
0.0
  0
LINE
  5
300
330
1F
100
AcDbEntity
  8
0
  6
Continuous
 62
     7
370
    15
100
AcDbLine
 10
384.3620625717
 20
563.7632515638
 30
0.0
 11
384.3620625717
 21
566.7632427423
 31
0.0
  0
LINE
  5
301
330
1F
100
AcDbEntity
  8
0
  6
Continuous
 62
     7
370
    15
100
AcDbLine
 10
383.1620720607
 20
566.7632427423
 30
0.0
 11
383.1620720607
 21
561.7810096948
 31
0.0
  0
LINE
  5
302
330
1F
100
AcDbEntity
  8
0
  6
Continuous
 62
     7
370
    15
100
AcDbLine
 10
384.3620625717
 20
558.763241431
 30
0.0
 11
384.3620625717
 21
555.2632417887
 31
0.0
  0
LINE
  5
303
330
1F
100
AcDbEntity
  8
0
  6
Continuous
 62
     7
370
    15
100
AcDbLine
 10
383.1620720607
 20
555.2632417887
 30
0.0
 11
383.1620720607
 21
559.6770402401
 31
0.0
  0
LINE
  5
304
330
1F
100
AcDbEntity
  8
0
  6
Continuous
 62
     7
370
    15
100
AcDbLine
 10
383.062070368
 20
557.7632543056
 30
0.0
 11
383.062070368
 21
563.7632515638
 31
0.0
  0
ARC
  5
305
330
1F
100
AcDbEntity
  8
0
  6
Continuous
 62
     7
370
    15
100
AcDbCircle
 10
381.5620655519
 20
568.4632475584
 30
0.0
 40
2.800000000000011
100
AcDbArc
 50
0.0
 51
45.7322600129
  0
LINE
  5
306
330
1F
100
AcDbEntity
  8
0
  6
Continuous
 62
     7
370
    15
100
AcDbLine
 10
380.4544118625
 20
571.0348394125
 30
0.0
 11
379.8575309497
 21
570.6846323221
 31
0.0
  0
LINE
  5
307
330
1F
100
AcDbEntity
  8
0
  6
Continuous
 62
     7
370
    15
100
AcDbLine
 10
377.0446089488
 20
567.0136269539
 30
0.0
 11
380.5880454761
 21
569.7326120346
 31
0.0
  0
LINE
  5
308
330
1F
100
AcDbEntity
  8
0
  6
Continuous
 62
     7
370
    15
100
AcDbLine
 10
376.3140944225
 20
567.9656621425
 30
0.0
 11
377.0446089488
 21
567.0136269539
 31
0.0
  0
LINE
  5
309
330
1F
100
AcDbEntity
  8
0
  6
Continuous
 62
     7
370
    15
100
AcDbLine
 10
379.8575309497
 20
570.6846323221
 30
0.0
 11
376.3140944225
 21
567.9656621425
 31
0.0
  0
LINE
  5
30A
330
1F
100
AcDbEntity
  8
0
  6
Continuous
 62
     7
370
    15
100
AcDbLine
 10
384.3620625717
 20
566.7632427423
 30
0.0
 11
384.3620625717
 21
567.7632447689
 31
0.0
  0
LINE
  5
30B
330
1F
100
AcDbEntity
  8
0
  6
Continuous
 62
     7
370
    15
100
AcDbLine
 10
383.1620720607
 20
567.4041863888
 30
0.0
 11
383.1620720607
 21
566.7632427423
 31
0.0
  0
LINE
  5
30C
330
1F
100
AcDbEntity
  8
0
  6
Continuous
 62
     7
370
    15
100
AcDbLine
 10
376.0925737602
 20
566.2831124275
 30
0.0
 11
375.3620592338
 21
567.2351476162
 31
0.0
  0
LWPOLYLINE
  5
30D
330
1F
100
AcDbEntity
  8
0
  6
Continuous
 62
     7
370
    15
100
AcDbPolyline
 90
        9
 70
   128
 43
0.0
 10
377.0446089488
 20
567.0136269539
 10
376.8588659746
 20
566.8711122482
 10
376.6802755577
 20
566.7340811699
 10
376.5156922323
 20
566.6077789276
 10
376.3714191896
 20
566.4970782011
 10
376.2530294639
 20
566.4062258213
 10
376.1650530082
 20
566.3387235611
 10
376.1108723861
 20
566.2971493213
 10
376.0925737602
 20
566.2831124275
  0
LWPOLYLINE
  5
30E
330
1F
100
AcDbEntity
  8
0
  6
Continuous
 62
     7
370
    15
100
AcDbPolyline
 90
        9
 70
   128
 43
0.0
 10
375.3620592338
 20
567.2351476162
 10
375.3803578598
 20
567.24918451
 10
375.4345384819
 20
567.2907438486
 10
375.5225149375
 20
567.35826101
 10
375.6409046632
 20
567.4490984886
 10
375.7851777059
 20
567.5597992151
 10
375.9497610313
 20
567.6861014574
 10
376.1283514482
 20
567.8231474369
 10
376.3140944225
 20
567.9656621425
  0
ARC
  5
30F
330
1F
100
AcDbEntity
  8
0
  6
Continuous
 62
     7
370
    15
100
AcDbCircle
 10
379.4620655519
 20
583.7832475584
 30
0.0
 40
2.200000000000062
100
AcDbArc
 50
103.5934783353
 51
268.1042765976
  0
LINE
  5
310
330
1F
100
AcDbEntity
  8
0
  6
Continuous
 62
     7
370
    15
100
AcDbLine
 10
375.9152350408
 20
585.161021015
 30
0.0
 11
376.2488869411
 21
587.0532449692
 31
0.0
  0
LWPOLYLINE
  5
311
330
1F
100
AcDbEntity
  8
0
  6
Continuous
 62
     7
370
    15
100
AcDbPolyline
 90
        9
 70
   128
 43
0.0
 10
376.2488869411
 20
587.0532449692
 10
376.1046437007
 20
587.0786812513
 10
375.9676126224
 20
587.1028509348
 10
375.842502473
 20
587.1249046533
 10
375.7336494905
 20
587.144097349
 10
375.6448236686
 20
587.1597584694
 10
375.5790946466
 20
587.1713515728
 10
375.5387274009
 20
587.1784743278
 10
375.5251077396
 20
587.1808734148
  0
LINE
  5
312
330
1F
100
AcDbEntity
  8
0
  6
Continuous
 62
     7
370
    15
100
AcDbLine
 10
375.5251077396
 20
587.1808734148
 30
0.0
 11
379.9001482707
 21
611.9929757326
 31
0.0
  0
LWPOLYLINE
  5
313
330
1F
100
AcDbEntity
  8
0
  6
Continuous
 62
     7
370
    15
100
AcDbPolyline
 90
        9
 70
   128
 43
0.0
 10
379.9001482707
 20
611.9929757326
 10
379.9152878505
 20
611.9903084247
 10
379.9601254446
 20
611.9824108093
 10
380.0329325181
 20
611.9695660084
 10
380.130907653
 20
611.9522955625
 10
380.2502957565
 20
611.9312402218
 10
380.386507271
 20
611.9072195499
 10
380.5342969877
 20
611.881157419
 10
380.6880024654
 20
611.8540671079
  0
LINE
  5
314
330
1F
100
AcDbEntity
  8
0
  6
Continuous
 62
     7
370
    15
100
AcDbLine
 10
380.6880024654
 20
611.8540671079
 30
0.0
 11
375.8626637441
 21
584.4882633894
 31
0.0
  0
LINE
  5
315
330
1F
100
AcDbEntity
  8
0
  6
Continuous
 62
     7
370
    15
100
AcDbLine
 10
375.8626637441
 20
584.4882633894
 30
0.0
 11
375.9152350408
 21
585.161021015
 31
0.0
  0
LWPOLYLINE
  5
316
330
1F
100
AcDbEntity
  8
0
  6
Continuous
 62
     7
370
    15
100
AcDbPolyline
 90
        5
 70
   128
 43
0.0
 10
378.7474540454
 20
618.8813057154
 10
378.4939703924
 20
619.5777114837
 10
378.3104178888
 20
620.0820263832
 10
378.1992850286
 20
620.3873809784
 10
378.1620619279
 20
620.4896327465
  0
LWPOLYLINE
  5
317
330
1F
100
AcDbEntity
  8
0
  6
Continuous
 62
     7
370
    15
100
AcDbPolyline
 90
        5
 70
   128
 43
0.0
 10
379.5070705396
 20
619.1332918017
 10
379.2502341253
 20
619.8389660924
 10
379.0641931278
 20
620.3500833719
 10
378.9515403491
 20
620.6595953911
 10
378.9138255102
 20
620.7632478683
  0
LINE
  5
318
330
1F
100
AcDbEntity
  8
0
  6
Continuous
 62
     7
370
    15
100
AcDbLine
 10
379.7291723472
 20
618.778845331
 30
0.0
 11
379.5070705396
 21
619.1332918017
 31
0.0
  0
LINE
  5
319
330
1F
100
AcDbEntity
  8
0
  6
Continuous
 62
     7
370
    15
100
AcDbLine
 10
379.6469775421
 20
618.7489312499
 30
0.0
 11
379.7291723472
 21
618.778845331
 31
0.0
  0
SPLINE
  5
31A
330
1F
100
AcDbEntity
  8
0
  6
Continuous
 62
     7
370
    15
100
AcDbSpline
210
0.0
220
0.0
230
1.0
 70
     8
 71
     3
 72
    12
 73
     8
 74
     0
 42
0.00000001
 43
0.00000001
 40
0.0
 40
0.0
 40
0.0
 40
0.0
 40
0.2510172357647315
 40
0.5023980923729131
 40
0.7402747485671194
 40
0.9473067201835714
 40
1.0
 40
1.0
 40
1.0
 40
1.0
 10
378.7474540454355
 20
618.8813057153544
 30
0.0
 10
378.775163894993
 20
618.8369877165106
 30
0.0
 10
378.8306237342953
 20
618.7482875202508
 30
0.0
 10
379.0376126362709
 20
618.6732984612036
 30
0.0
 10
379.2990087186372
 20
618.6618029385601
 30
0.0
 10
379.5155891135111
 20
618.7034492142647
 30
0.0
 10
379.6248172457369
 20
618.7412601376146
 30
0.0
 10
379.6469775420633
 20
618.7489312498889
 30
0.0
  0
LINE
  5
31B
330
1F
100
AcDbEntity
  8
0
  6
Continuous
 62
     7
370
    15
100
AcDbLine
 10
379.6469775421
 20
618.7489312499
 30
0.0
 11
380.2233097536
 21
617.1654444545
 31
0.0
  0
LWPOLYLINE
  5
31C
330
1F
100
AcDbEntity
  8
0
  6
Continuous
 62
     7
370
    15
100
AcDbPolyline
 90
        9
 70
   128
 43
0.0
 10
379.4715610725
 20
616.8918293326
 10
379.4860002977
 20
616.8970894425
 10
379.5287815315
 20
616.9126537054
 10
379.598250745
 20
616.9379409759
 10
379.6917406303
 20
616.9719677775
 10
379.8056600076
 20
617.0134302585
 10
379.9356279355
 20
617.0607339948
 10
380.0766525251
 20
617.1120684951
 10
380.2233097536
 20
617.1654444545
  0
LINE
  5
31D
330
1F
100
AcDbEntity
  8
0
  6
Continuous
 62
     7
370
    15
100
AcDbLine
 10
379.4715610725
 20
616.8918293326
 30
0.0
 11
378.7474540454
 21
618.8813057154
 31
0.0
  0
ARC
  5
31E
330
1F
100
AcDbEntity
  8
0
  6
Continuous
 62
     7
370
    15
100
AcDbCircle
 10
380.0520710581
 20
589.9522384769
 30
0.0
 40
1.600000000000023
100
AcDbArc
 50
347.034367059
 51
204.5705045339
  0
ARC
  5
31F
330
1F
100
AcDbEntity
  8
0
  6
Continuous
 62
     7
370
    15
100
AcDbCircle
 10
373.3620655519
 20
612.5789336043
 30
0.0
 40
9.499999999999943
100
AcDbArc
 50
0.0
 51
36.8410865502
  0
LINE
  5
320
330
1F
100
AcDbEntity
  8
0
  6
Continuous
 62
     7
370
    15
100
AcDbLine
 10
382.8620669824
 20
612.5789340942
 30
0.0
 11
382.8620669824
 21
584.5532473533
 31
0.0
  0
ARC
  5
321
330
1F
100
AcDbEntity
  8
0
  6
Continuous
 62
     7
370
    15
100
AcDbCircle
 10
370.5444785114
 20
613.6426380267
 30
0.0
 40
10.30000000000016
100
AcDbArc
 50
350.0
 51
20.0
  0
LINE
  5
322
330
1F
100
AcDbEntity
  8
0
  6
Continuous
 62
     7
370
    15
100
AcDbLine
 10
380.4467675668
 20
618.475316128
 30
0.0
 11
380.5647847635
 21
618.475316128
 31
0.0
  0
ARC
  5
323
330
1F
100
AcDbEntity
  8
0
  6
Continuous
 62
     7
370
    15
100
AcDbCircle
 10
380.4467674777
 20
619.4753124127
 30
0.0
 40
1.000000000000028
100
AcDbArc
 50
224.1440002858
 51
270.0
  0
ARC
  5
324
330
1F
100
AcDbEntity
  8
0
  6
Continuous
 62
     7
370
    15
100
AcDbCircle
 10
380.5647800233
 20
617.9753124127
 30
0.0
 40
0.5
100
AcDbArc
 50
36.8410865503
 51
90.0
  0
LWPOLYLINE
  5
325
330
1F
100
AcDbEntity
  8
0
  6
Continuous
 62
     7
370
    15
100
AcDbPolyline
 90
        3
 70
   128
 43
0.0
 10
382.8620669824
 20
584.5532473533
 10
382.6534507257
 20
583.3629723995
 10
382.2972831708
 20
582.6468076914
  0
ARC
  5
326
330
1F
100
AcDbEntity
  8
0
  6
Continuous
 62
     7
370
    15
100
AcDbCircle
 10
379.3620655519
 20
584.5532475584
 30
0.0
 40
3.500000000000067
100
AcDbArc
 50
181.0639402281
 51
271.3221928089
  0
ARC
  5
327
330
1F
100
AcDbEntity
  8
0
  6
Continuous
 62
     7
370
    15
100
AcDbCircle
 10
370.5444785114
 20
613.6426380267
 30
0.0
 40
9.500000000000039
100
AcDbArc
 50
350.0
 51
20.0
  0
ARC
  5
328
330
1F
100
AcDbEntity
  8
0
  6
Continuous
 62
     7
370
    15
100
AcDbCircle
 10
379.9556833453
 20
585.2507430852
 30
0.0
 40
4.698428302688391
100
AcDbArc
 50
170.0
 51
264.3261771657
  0
LINE
  5
329
330
1F
100
AcDbEntity
  8
0
  6
Continuous
 62
     7
370
    15
100
AcDbLine
 10
375.5251077396
 20
587.1808734148
 30
0.0
 11
375.3286359292
 21
586.0666092842
 31
0.0
  0
SPLINE
  5
32A
330
1F
100
AcDbEntity
  8
0
  6
Continuous
 62
     7
370
    15
100
AcDbSpline
210
0.0
220
0.0
230
1.0
 70
     8
 71
     3
 72
    12
 73
     8
 74
     0
 42
0.00000001
 43
0.00000001
 40
0.0
 40
0.0
 40
0.0
 40
0.0
 40
0.2340515608573606
 40
0.4681087470943003
 40
0.702165569279494
 40
0.9362172045571531
 40
1.0
 40
1.0
 40
1.0
 40
1.0
 10
380.6590495091883
 20
585.4403581827006
 30
0.0
 10
380.4626564523078
 20
585.420979483626
 30
0.0
 10
380.0698656182816
 20
585.3822216197137
 30
0.0
 10
379.5323689114247
 20
585.376965598506
 30
0.0
 10
379.1588674877839
 20
585.4154474644297
 30
0.0
 10
378.9796733656589
 20
585.4701101403984
 30
0.0
 10
379.0083921758165
 20
585.5140639273153
 30
0.0
 10
379.014542458674
 20
585.5234768598399
 30
0.0
  0
SPLINE
  5
32B
330
1F
100
AcDbEntity
  8
0
  6
Continuous
 62
     7
370
    15
100
AcDbSpline
210
0.0
220
0.0
230
1.0
 70
     8
 71
     3
 72
    11
 73
     7
 74
     0
 42
0.00000001
 43
0.00000001
 40
0.0
 40
0.0
 40
0.0
 40
0.0
 40
0.19868717225048
 40
0.4657937738740854
 40
0.7328967585510789
 40
1.0
 40
1.0
 40
1.0
 40
1.0
 10
381.9549587947336
 20
585.8192500083766
 30
0.0
 10
381.9537759601512
 20
585.7947563874216
 30
0.0
 10
381.9510029729585
 20
585.737334582021
 30
0.0
 10
381.6814642345665
 20
585.6302612765592
 30
0.0
 10
381.2344167501976
 20
585.5194380430671
 30
0.0
 10
380.8508386509817
 20
585.466718144603
 30
0.0
 10
380.6590495091883
 20
585.4403581827006
 30
0.0
  0
SPLINE
  5
32C
330
1F
100
AcDbEntity
  8
0
  6
Continuous
 62
     7
370
    15
100
AcDbSpline
210
0.0
220
0.0
230
1.0
 70
     8
 71
     3
 72
    12
 73
     8
 74
     0
 42
0.00000001
 43
0.00000001
 40
0.0
 40
0.0
 40
0.0
 40
0.0
 40
0.2339647271648549
 40
0.4679283139645976
 40
0.7018968537062504
 40
0.9358627429943501
 40
1.0
 40
1.0
 40
1.0
 40
1.0
 10
380.0520656091181
 20
591.4522316663584
 30
0.0
 10
379.8559854053908
 20
591.4297286543757
 30
0.0
 10
379.4638259536487
 20
591.3847227400917
 30
0.0
 10
378.9608916978655
 20
591.0372310968135
 30
0.0
 10
378.6410840987343
 20
590.5437389155896
 30
0.0
 10
378.5131547761687
 20
590.0901530688908
 30
0.0
 10
378.5709439483599
 20
589.8471600586391
 30
0.0
 10
378.5833773595301
 20
589.7948798148951
 30
0.0
  0
SPLINE
  5
32D
330
1F
100
AcDbEntity
  8
0
  6
Continuous
 62
     7
370
    15
100
AcDbSpline
210
0.0
220
0.0
230
1.0
 70
     8
 71
     3
 72
    11
 73
     7
 74
     0
 42
0.00000001
 43
0.00000001
 40
0.0
 40
0.0
 40
0.0
 40
0.0
 40
0.1976852097385363
 40
0.4651245869200603
 40
0.7325583026066619
 40
1.0
 40
1.0
 40
1.0
 40
1.0
 10
381.5222886783091
 20
590.1019480436167
 30
0.0
 10
381.5040078136431
 20
590.2466962790058
 30
0.0
 10
381.460995594178
 20
590.587267853793
 30
0.0
 10
381.1355420785297
 20
591.0370435518885
 30
0.0
 10
380.6422440795737
 20
591.3847726500869
 30
0.0
 10
380.2487937230312
 20
591.4297451039
 30
0.0
 10
380.0520656091181
 20
591.4522316663584
 30
0.0
  0
SPLINE
  5
32E
330
1F
100
AcDbEntity
  8
0
  6
Continuous
 62
     7
370
    15
100
AcDbSpline
210
0.0
220
0.0
230
1.0
 70
     8
 71
     3
 72
    12
 73
     8
 74
     0
 42
0.00000001
 43
0.00000001
 40
0.0
 40
0.0
 40
0.0
 40
0.0
 40
0.2350191181569456
 40
0.4700315770678694
 40
0.7050489742165806
 40
0.9400630002275301
 40
0.9999999999999999
 40
0.9999999999999999
 40
0.9999999999999999
 40
0.9999999999999999
 10
382.2281268817392
 20
569.8994007318339
 30
0.0
 10
382.0317361999084
 20
569.8800164740022
 30
0.0
 10
381.6389604009595
 20
569.8412485075901
 30
0.0
 10
381.1013520334125
 20
569.8359852200294
 30
0.0
 10
380.7282888833197
 20
569.8745090458348
 30
0.0
 10
380.5492448466453
 20
569.9286306924796
 30
0.0
 10
380.5771454805354
 20
569.9719320088606
 30
0.0
 10
380.5828151685205
 20
569.9807312696299
 30
0.0
  0
SPLINE
  5
32F
330
1F
100
AcDbEntity
  8
0
  6
Continuous
 62
     7
370
    15
100
AcDbSpline
210
0.0
220
0.0
230
1.0
 70
     8
 71
     3
 72
    11
 73
     7
 74
     0
 42
0.00000001
 43
0.00000001
 40
0.0
 40
0.0
 40
0.0
 40
0.0
 40
0.1989204392996813
 40
0.4659489571846094
 40
0.732973859180274
 40
1.0
 40
1.0
 40
1.0
 40
1.0
 10
383.5240808707682
 20
570.2783968656382
 30
0.0
 10
383.5229066162893
 20
570.2538642431709
 30
0.0
 10
383.5201560560564
 20
570.1963993094721
 30
0.0
 10
383.2505511621246
 20
570.0892916047953
 30
0.0
 10
382.8034906371973
 20
569.978461091988
 30
0.0
 10
382.4199150968153
 20
569.9257542259728
 30
0.0
 10
382.2281268817392
 20
569.8994007318339
 30
0.0
  0
LINE
  5
330
330
1F
100
AcDbEntity
  8
0
  6
Continuous
 62
     7
370
    15
100
AcDbLine
 10
380.75119829
 20
568.2969745605
 30
0.0
 11
380.7501999122
 21
568.5004946201
 31
0.0
  0
ELLIPSE
  5
331
330
1F
100
AcDbEntity
  8
0
  6
Continuous
 62
     7
370
    15
100
AcDbEllipse
 10
383.4293649522
 20
579.9361391646
 30
0.0
 11
0.3991830274373455
 21
-0.02624604221136906
 31
0.0
210
0.0
220
0.0
230
0.9999999999999999
 40
0.9763157485
 41
0.0
 42
6.283185307179586
  0
ARC
  5
332
330
1F
100
AcDbEntity
  8
0
  6
Continuous
 62
     7
370
    15
100
AcDbCircle
 10
383.4293547003
 20
580.2010201375
 30
0.0
 40
0.4000075821847004
100
AcDbArc
 50
0.1473252397
 51
179.5004936418
  0
SPLINE
  5
333
330
1F
100
AcDbEntity
  8
0
  6
Continuous
 62
     7
370
    15
100
AcDbSpline
210
0.0
220
0.0
230
1.0
 70
     8
 71
     3
 72
    13
 73
     9
 74
     0
 42
0.00000001
 43
0.00000001
 40
0.0
 40
0.0
 40
0.0
 40
0.0
 40
0.0081675096491551
 40
0.2391539903221627
 40
0.4711040757826782
 40
0.6931300533005237
 40
0.9042351914839856
 40
1.0
 40
1.0
 40
1.0
 40
1.0
 10
383.4293690902201
 20
580.664968153747
 30
0.0
 10
383.427710178132
 20
580.6645758873385
 30
0.0
 10
383.3791353416764
 20
580.6530898798632
 30
0.0
 10
383.2830239667188
 20
580.6298009267996
 30
0.0
 10
383.1601853416955
 20
580.5861838324029
 30
0.0
 10
383.0745340187545
 20
580.548727813621
 30
0.0
 10
383.0305164610375
 20
580.5275995709387
 30
0.0
 10
383.0337480564976
 20
580.5226098725547
 30
0.0
 10
383.0347565394846
 20
580.5210527389369
 30
0.0
  0
SPLINE
  5
334
330
1F
100
AcDbEntity
  8
0
  6
Continuous
 62
     7
370
    15
100
AcDbSpline
210
0.0
220
0.0
230
1.0
 70
     8
 71
     3
 72
    13
 73
     9
 74
     0
 42
0.00000001
 43
0.00000001
 40
0.0
 40
0.0
 40
0.0
 40
0.0
 40
0.1252342312151606
 40
0.2499826029374545
 40
0.4999855906772176
 40
0.7499975859999892
 40
0.8747563623506611
 40
1.0
 40
1.0
 40
1.0
 40
1.0
 10
383.8293758613077
 20
580.659275910171
 30
0.0
 10
383.8276614899899
 20
580.659305755683
 30
0.0
 10
383.8242393984398
 20
580.6593653309181
 30
0.0
 10
383.7898620891525
 20
580.6598397099558
 30
0.0
 10
383.7145727406753
 20
580.6609120641548
 30
0.0
 10
383.605932857806
 20
580.66244625266
 30
0.0
 10
383.5072213538048
 20
580.6638796335398
 30
0.0
 10
383.4553533761245
 20
580.6646048448466
 30
0.0
 10
383.4293690902201
 20
580.664968153747
 30
0.0
  0
SPLINE
  5
335
330
1F
100
AcDbEntity
  8
0
  6
Continuous
 62
     7
370
    15
100
AcDbSpline
210
0.0
220
0.0
230
1.0
 70
     8
 71
     3
 72
    10
 73
     6
 74
     0
 42
0.00000001
 43
0.00000001
 40
0.0
 40
0.0
 40
0.0
 40
0.0
 40
0.0190227725338933
 40
0.5253139011644135
 40
1.0
 40
1.0
 40
1.0
 40
1.0
 10
383.4293690902201
 20
580.664968153747
 30
0.0
 10
383.4308934180157
 20
580.6657083776267
 30
0.0
 10
383.472987733107
 20
580.6861496615306
 30
0.0
 10
383.5555482770864
 20
580.7244835032163
 30
0.0
 10
383.6256938967329
 20
580.7506025425164
 30
0.0
 10
383.6596367341486
 20
580.7632413118205
 30
0.0
  0
LINE
  5
336
330
1F
100
AcDbEntity
  8
0
  6
Continuous
 62
     7
370
    15
100
AcDbLine
 10
378.5528746826
 20
589.9031069486
 30
0.0
 11
378.565302251
 21
589.7534396856
 31
0.0
  0
LINE
  5
337
330
1F
100
AcDbEntity
  8
0
  6
Continuous
 62
     7
370
    15
100
AcDbLine
 10
381.5450725538
 20
590.0969412535
 30
0.0
 11
381.5094885808
 21
590.3071072309
 31
0.0
  0
LINE
  5
338
330
1F
100
AcDbEntity
  8
0
  6
Continuous
 62
     7
370
    15
100
AcDbLine
 10
399.3620631677
 20
567.7632447689
 30
0.0
 11
769.3620679361
 21
567.7632447689
 31
0.0
  0
LINE
  5
339
330
1F
100
AcDbEntity
  8
0
  6
Continuous
 62
     7
370
    15
100
AcDbLine
 10
399.3620631677
 20
567.7632447689
 30
0.0
 11
399.3620631677
 21
728.7632478758
 31
0.0
  0
LINE
  5
33A
330
1F
100
AcDbEntity
  8
0
  6
Continuous
 62
     7
370
    15
100
AcDbLine
 10
769.3620679361
 20
728.7632478758
 30
0.0
 11
399.3620631677
 21
728.7632478758
 31
0.0
  0
LINE
  5
33B
330
1F
100
AcDbEntity
  8
0
  6
Continuous
 62
     7
370
    15
100
AcDbLine
 10
769.3620679361
 20
567.7632447689
 30
0.0
 11
769.3620679361
 21
728.7632478758
 31
0.0
  0
LINE
  5
33C
330
1F
100
AcDbEntity
  8
0
  6
Continuous
 62
     7
370
    15
100
AcDbLine
 10
404.3620583993
 20
587.7632405966
 30
0.0
 11
404.3620583993
 21
723.7632479875
 31
0.0
  0
LINE
  5
33D
330
1F
100
AcDbEntity
  8
0
  6
Continuous
 62
     7
370
    15
100
AcDbLine
 10
404.3620583993
 20
587.7632405966
 30
0.0
 11
764.3620727045
 21
587.7632405966
 31
0.0
  0
LINE
  5
33E
330
1F
100
AcDbEntity
  8
0
  6
Continuous
 62
     7
370
    15
100
AcDbLine
 10
764.3620727045
 20
723.7632479875
 30
0.0
 11
764.3620727045
 21
587.7632405966
 31
0.0
  0
LINE
  5
33F
330
1F
100
AcDbEntity
  8
0
  6
Continuous
 62
     7
370
    15
100
AcDbLine
 10
764.3620727045
 20
723.7632479875
 30
0.0
 11
404.3620583993
 21
723.7632479875
 31
0.0
  0
LINE
  5
340
330
1F
100
AcDbEntity
  8
0
  6
Continuous
 62
     7
370
    15
100
AcDbLine
 10
769.3620679361
 20
728.7632478758
 30
0.0
 11
784.3620685321
 21
728.7632478758
 31
0.0
  0
LINE
  5
341
330
1F
100
AcDbEntity
  8
0
  6
Continuous
 62
     7
370
    15
100
AcDbLine
 10
769.3620679361
 20
728.7632478758
 30
0.0
 11
769.3620679361
 21
743.7632475405
 31
0.0
  0
ARC
  5
342
330
1F
100
AcDbEntity
  8
0
  6
Continuous
 62
     7
370
    15
100
AcDbCircle
 10
769.3620655519
 20
728.7632475584
 30
0.0
 40
15.00000000000011
100
AcDbArc
 50
0.0
 51
90.0
  0
LINE
  5
343
330
1F
100
AcDbEntity
  8
0
  6
Continuous
 62
     7
370
    15
100
AcDbLine
 10
784.3620685321
 20
567.7632447689
 30
0.0
 11
784.3620685321
 21
728.7632478758
 31
0.0
  0
LINE
  5
344
330
1F
100
AcDbEntity
  8
0
  6
Continuous
 62
     7
370
    15
100
AcDbLine
 10
784.3620685321
 20
567.7632447689
 30
0.0
 11
769.3620679361
 21
567.7632447689
 31
0.0
  0
LINE
  5
345
330
1F
100
AcDbEntity
  8
0
  6
Continuous
 62
     7
370
    15
100
AcDbLine
 10
399.3620631677
 20
728.7632478758
 30
0.0
 11
399.3620631677
 21
743.7632475405
 31
0.0
  0
LINE
  5
346
330
1F
100
AcDbEntity
  8
0
  6
Continuous
 62
     7
370
    15
100
AcDbLine
 10
399.3620631677
 20
728.7632478758
 30
0.0
 11
384.3620625717
 21
728.7632478758
 31
0.0
  0
ARC
  5
347
330
1F
100
AcDbEntity
  8
0
  6
Continuous
 62
     7
370
    15
100
AcDbCircle
 10
399.3620655519
 20
728.7632475584
 30
0.0
 40
15.0
100
AcDbArc
 50
90.0
 51
180.0
  0
LINE
  5
348
330
1F
100
AcDbEntity
  8
0
  6
Continuous
 62
     7
370
    15
100
AcDbLine
 10
769.3620679361
 20
743.7632475405
 30
0.0
 11
399.3620631677
 21
743.7632475405
 31
0.0
  0
LINE
  5
349
330
1F
100
AcDbEntity
  8
0
  6
Continuous
 62
     7
370
    15
100
AcDbLine
 10
384.3620625717
 20
567.7632447689
 30
0.0
 11
384.3620625717
 21
728.7632478758
 31
0.0
  0
LINE
  5
34A
330
1F
100
AcDbEntity
  8
0
  6
Continuous
 62
     7
370
    15
100
AcDbLine
 10
399.3620631677
 20
567.7632447689
 30
0.0
 11
384.3620625717
 21
567.7632447689
 31
0.0
  0
LINE
  5
34B
330
1F
100
AcDbEntity
  8
0
  6
Continuous
 62
     7
370
    15
100
AcDbLine
 10
764.3620727045
 20
563.7632515638
 30
0.0
 11
764.3620727045
 21
567.7632447689
 31
0.0
  0
LINE
  5
34C
330
1F
100
AcDbEntity
  8
0
  6
Continuous
 62
     7
370
    15
100
AcDbLine
 10
404.3620583993
 20
563.7632515638
 30
0.0
 11
404.3620583993
 21
567.7632447689
 31
0.0
  0
LINE
  5
34D
330
1F
100
AcDbEntity
  8
0
  6
Continuous
 62
     7
370
    15
100
AcDbLine
 10
779.3620583993
 20
567.7632447689
 30
0.0
 11
779.3620583993
 21
563.7632515638
 31
0.0
  0
LINE
  5
34E
330
1F
100
AcDbEntity
  8
0
  6
Continuous
 62
     7
370
    15
100
AcDbLine
 10
389.3620727045
 20
563.7632515638
 30
0.0
 11
389.3620727045
 21
567.7632447689
 31
0.0
  0
LINE
  5
34F
330
1F
100
AcDbEntity
  8
0
  6
Continuous
 62
     7
370
    15
100
AcDbLine
 10
784.3620685321
 20
567.7632447689
 30
0.0
 11
785.0293872339
 21
567.7632447689
 31
0.0
  0
ARC
  5
350
330
1F
100
AcDbEntity
  8
0
  6
Continuous
 62
     7
370
    15
100
AcDbCircle
 10
785.0293833
 20
568.2632475584
 30
0.0
 40
0.5
100
AcDbArc
 50
270.0
 51
332.720387264
  0
ARC
  5
351
330
1F
100
AcDbEntity
  8
0
  6
Continuous
 62
     7
370
    15
100
AcDbCircle
 10
790.3620655519
 20
565.5132475584
 30
0.0
 40
5.500000000000115
100
AcDbArc
 50
202.024312837
 51
152.720387264
  0
ARC
  5
352
330
1F
100
AcDbEntity
  8
0
  6
Continuous
 62
     7
370
    15
100
AcDbCircle
 10
784.7999166866
 20
563.2632475584
 30
0.0
 40
0.5
100
AcDbArc
 50
22.024312837
 51
90.0
  0
LINE
  5
353
330
1F
100
AcDbEntity
  8
0
  6
Continuous
 62
     7
370
    15
100
AcDbLine
 10
784.7999093515
 20
563.7632515638
 30
0.0
 11
784.3620685321
 21
563.7632515638
 31
0.0
  0
ARC
  5
354
330
1F
100
AcDbEntity
  8
0
  6
Continuous
 62
     7
370
    15
100
AcDbCircle
 10
379.1620655519
 20
583.8632475584
 30
0.0
 40
3.100000000000048
100
AcDbArc
 50
192.3149276259
 51
270.0
  0
LINE
  5
355
330
1F
100
AcDbEntity
  8
0
  6
Continuous
 62
     7
370
    15
100
AcDbLine
 10
384.0620723945
 20
586.9632419556
 30
0.0
 11
382.8620669824
 21
586.9632419556
 31
0.0
  0
LINE
  5
356
330
1F
100
AcDbEntity
  8
0
  6
Continuous
 62
     7
370
    15
100
AcDbLine
 10
384.0620723945
 20
580.7632413118
 30
0.0
 11
384.0620723945
 21
586.9632419556
 31
0.0
  0
LINE
  5
357
330
1F
100
AcDbEntity
  8
0
  6
Continuous
 62
     7
370
    15
100
AcDbLine
 10
379.1620639545
 20
580.7632413118
 30
0.0
 11
379.4722018224
 21
580.7632413118
 31
0.0
  0
LINE
  5
358
330
1F
100
AcDbEntity
  8
0
  6
Continuous
 62
     7
370
    15
100
AcDbLine
 10
382.48745179
 20
580.7632413118
 30
0.0
 11
384.0620723945
 21
580.7632413118
 31
0.0
  0
LINE
  5
359
330
1F
100
AcDbEntity
  8
0
  6
Continuous
 62
     7
370
    15
100
AcDbLine
 10
384.3620625717
 20
580.7632413118
 30
0.0
 11
384.0620723945
 21
580.7632413118
 31
0.0
  0
LINE
  5
35A
330
1F
100
AcDbEntity
  8
0
  6
Continuous
 62
     7
370
    15
100
AcDbLine
 10
384.0620723945
 20
586.9632419556
 30
0.0
 11
384.3620625717
 21
586.9643148392
 31
0.0
  0
LINE
  5
35B
330
1F
100
AcDbEntity
  8
0
  6
Continuous
 62
     7
370
    15
100
AcDbLine
 10
384.3620625717
 20
588.9632460087
 30
0.0
 11
384.0620723945
 21
588.9632460087
 31
0.0
  0
LINE
  5
35C
330
1F
100
AcDbEntity
  8
0
  6
Continuous
 62
     7
370
    15
100
AcDbLine
 10
384.0620723945
 20
586.9632419556
 30
0.0
 11
384.0620723945
 21
588.9632460087
 31
0.0
  0
LINE
  5
35D
330
1F
100
AcDbEntity
  8
0
  6
Continuous
 62
     7
370
    15
100
AcDbLine
 10
384.0620723945
 20
619.7632458418
 30
0.0
 11
384.0620723945
 21
613.0132433384
 31
0.0
  0
LINE
  5
35E
330
1F
100
AcDbEntity
  8
0
  6
Continuous
 62
     7
370
    15
100
AcDbLine
 10
384.0620723945
 20
588.9632460087
 30
0.0
 11
384.0620723945
 21
613.0132433384
 31
0.0
  0
LINE
  5
35F
330
1F
100
AcDbEntity
  8
0
  6
Continuous
 62
     7
370
    15
100
AcDbLine
 10
383.9620707017
 20
612.763246557
 30
0.0
 11
383.9620707017
 21
618.7632512658
 31
0.0
  0
LINE
  5
360
330
1F
100
AcDbEntity
  8
0
  6
Continuous
 62
     7
370
    15
100
AcDbLine
 10
383.9620707017
 20
589.7632446497
 30
0.0
 11
383.9620707017
 21
595.7632419079
 31
0.0
  0
LINE
  5
361
330
1F
100
AcDbEntity
  8
0
  6
Continuous
 62
     7
370
    15
100
AcDbLine
 10
382.8620669824
 20
605.1200684517
 30
0.0
 11
384.0620723945
 21
604.7985162943
 31
0.0
  0
LINE
  5
362
330
1F
100
AcDbEntity
  8
0
  6
Continuous
 62
     7
370
    15
100
AcDbLine
 10
384.0620723945
 20
603.7632432192
 30
0.0
 11
382.8620669824
 21
604.0847804754
 31
0.0
  0
LINE
  5
363
330
1F
100
AcDbEntity
  8
0
  6
Continuous
 62
     8
370
    15
100
AcDbLine
 10
384.3620625717
 20
613.0132433384
 30
0.0
 11
384.0620723945
 21
613.0132433384
 31
0.0
  0
ENDSEC
  0
SECTION
  2
OBJECTS
  0
DICTIONARY
  5
C
330
0
100
AcDbDictionary
281
     1
  3
ACAD_GROUP
350
D
  3
ACAD_LAYOUT
350
1A
  3
ACAD_MLINESTYLE
350
17
  3
ACAD_PLOTSETTINGS
350
19
  3
ACAD_PLOTSTYLENAME
350
E
  0
DICTIONARY
  5
D
102
{ACAD_REACTORS
330
C
102
}
330
C
100
AcDbDictionary
281
     1
  0
DICTIONARY
  5
1A
102
{ACAD_REACTORS
330
C
102
}
330
C
100
AcDbDictionary
281
     1
  3
Layout1
350
1E
  3
Layout2
350
26
  3
Model
350
22
  0
DICTIONARY
  5
17
102
{ACAD_REACTORS
330
C
102
}
330
C
100
AcDbDictionary
281
     1
  3
Standard
350
18
  0
DICTIONARY
  5
19
102
{ACAD_REACTORS
330
C
102
}
330
C
100
AcDbDictionary
281
     1
  0
ACDBDICTIONARYWDFLT
  5
E
102
{ACAD_REACTORS
330
C
102
}
330
C
100
AcDbDictionary
281
     1
  3
Normal
350
F
100
AcDbDictionaryWithDefault
340
F
  0
LAYOUT
  5
1E
102
{ACAD_REACTORS
330
1A
102
}
330
1A
100
AcDbPlotSettings
  1

  2
none_device
  4

  6

 40
0.0
 41
0.0
 42
0.0
 43
0.0
 44
0.0
 45
0.0
 46
0.0
 47
0.0
 48
0.0
 49
0.0
140
0.0
141
0.0
142
1.0
143
1.0
 70
   688
 72
     0
 73
     0
 74
     5
  7

 75
    16
147
1.0
148
0.0
149
0.0
100
AcDbLayout
  1
Layout1
 70
     1
 71
     1
 10
0.0
 20
0.0
 11
420.0
 21
297.0
 12
0.0
 22
0.0
 32
0.0
 14
1.0000000000E+20
 24
1.0000000000E+20
 34
1.0000000000E+20
 15
-1.0000000000E+20
 25
-1.0000000000E+20
 35
-1.0000000000E+20
146
0.0
 13
0.0
 23
0.0
 33
0.0
 16
1.0
 26
0.0
 36
0.0
 17
0.0
 27
1.0
 37
0.0
 76
     0
330
1B
  0
LAYOUT
  5
26
102
{ACAD_REACTORS
330
1A
102
}
330
1A
100
AcDbPlotSettings
  1

  2
none_device
  4

  6

 40
0.0
 41
0.0
 42
0.0
 43
0.0
 44
0.0
 45
0.0
 46
0.0
 47
0.0
 48
0.0
 49
0.0
140
0.0
141
0.0
142
1.0
143
1.0
 70
   688
 72
     0
 73
     0
 74
     5
  7

 75
    16
147
1.0
148
0.0
149
0.0
100
AcDbLayout
  1
Layout2
 70
     1
 71
     2
 10
0.0
 20
0.0
 11
0.0
 21
0.0
 12
0.0
 22
0.0
 32
0.0
 14
0.0
 24
0.0
 34
0.0
 15
0.0
 25
0.0
 35
0.0
146
0.0
 13
0.0
 23
0.0
 33
0.0
 16
1.0
 26
0.0
 36
0.0
 17
0.0
 27
1.0
 37
0.0
 76
     0
330
23
  0
LAYOUT
  5
22
102
{ACAD_REACTORS
330
1A
102
}
330
1A
100
AcDbPlotSettings
  1

  2
none_device
  4

  6

 40
0.0
 41
0.0
 42
0.0
 43
0.0
 44
0.0
 45
0.0
 46
0.0
 47
0.0
 48
0.0
 49
0.0
140
0.0
141
0.0
142
1.0
143
1.0
 70
  1712
 72
     0
 73
     0
 74
     0
  7

 75
     0
147
1.0
148
0.0
149
0.0
100
AcDbLayout
  1
Model
 70
     1
 71
     0
 10
0.0
 20
0.0
 11
840.0
 21
594.0
 12
0.0
 22
0.0
 32
0.0
 14
0.0
 24
0.0
 34
0.0
 15
840.0
 25
594.0
 35
0.0
146
0.0
 13
0.0
 23
0.0
 33
0.0
 16
1.0
 26
0.0
 36
0.0
 17
0.0
 27
1.0
 37
0.0
 76
     0
330
1F
331
29
  0
MLINESTYLE
  5
18
102
{ACAD_REACTORS
330
17
102
}
330
17
100
AcDbMlineStyle
  2
Standard
 70
     0
  3

 62
   256
 51
90.0
 52
90.0
 71
     2
 49
0.5
 62
   256
  6
BYLAYER
 49
-0.5
 62
   256
  6
BYLAYER
  0
ACDBPLACEHOLDER
  5
F
102
{ACAD_REACTORS
330
E
102
}
330
E
  0
ENDSEC
  0
EOF
