  0
SECTION
  2
HEADER
  9
$ACADVER
  1
AC1015
  9
$ACADMAINTVER
 70
     6
  9
$DWGCODEPAGE
  3
DOS932
  9
$INSBASE
 10
0.0
 20
0.0
 30
0.0
  9
$EXTMIN
 10
0.0
 20
0.0
 30
0.0
  9
$EXTMAX
 10
840.0
 20
594.0
 30
0.0
  9
$LIMMIN
 10
0.0
 20
0.0
  9
$LIMMAX
 10
840.0
 20
594.0
  9
$ORTHOMODE
 70
     0
  9
$REGENMODE
 70
     1
  9
$FILLMODE
 70
     1
  9
$QTEXTMODE
 70
     0
  9
$MIRRTEXT
 70
     1
  9
$LTSCALE
 40
2.0
  9
$ATTMODE
 70
     1
  9
$TEXTSIZE
 40
7.0
  9
$TRACEWID
 40
1.0
  9
$TEXTSTYLE
  7
Standard
  9
$CLAYER
  8
0
  9
$CELTYPE
  6
ByLayer
  9
$CECOLOR
 62
   256
  9
$CELTSCALE
 40
1.0
  9
$DISPSILH
 70
     0
  9
$DIMSCALE
 40
1.0
  9
$DIMASZ
 40
6.0
  9
$DIMEXO
 40
2.0
  9
$DIMDLI
 40
3.75
  9
$DIMRND
 40
0.0
  9
$DIMDLE
 40
0.0
  9
$DIMEXE
 40
2.0
  9
$DIMTP
 40
0.0
  9
$DIMTM
 40
0.0
  9
$DIMTXT
 40
7.0
  9
$DIMCEN
 40
2.5
  9
$DIMTSZ
 40
0.0
  9
$DIMTOL
 70
     0
  9
$DIMLIM
 70
     0
  9
$DIMTIH
 70
     1
  9
$DIMTOH
 70
     1
  9
$DIMSE1
 70
     0
  9
$DIMSE2
 70
     0
  9
$DIMTAD
 70
     1
  9
$DIMZIN
 70
     0
  9
$DIMBLK
  1

  9
$DIMASO
 70
     1
  9
$DIMSHO
 70
     1
  9
$DIMPOST
  1

  9
$DIMAPOST
  1

  9
$DIMALT
 70
     0
  9
$DIMALTD
 70
     3
  9
$DIMALTF
 40
0.0393700787
  9
$DIMLFAC
 40
1.0
  9
$DIMTOFL
 70
     1
  9
$DIMTVP
 40
0.0
  9
$DIMTIX
 70
     0
  9
$DIMSOXD
 70
     0
  9
$DIMSAH
 70
     0
  9
$DIMBLK1
  1

  9
$DIMBLK2
  1

  9
$DIMSTYLE
  2
ISO-25
  9
$DIMCLRD
 70
     0
  9
$DIMCLRE
 70
     0
  9
$DIMCLRT
 70
     0
  9
$DIMTFAC
 40
1.0
  9
$DIMGAP
 40
3.048
  9
$DIMJUST
 70
     0
  9
$DIMSD1
 70
     0
  9
$DIMSD2
 70
     0
  9
$DIMTOLJ
 70
     0
  9
$DIMTZIN
 70
     0
  9
$DIMALTZ
 70
     0
  9
$DIMALTTZ
 70
     0
  9
$DIMUPT
 70
     0
  9
$DIMDEC
 70
     1
  9
$DIMTDEC
 70
     1
  9
$DIMALTU
 70
     2
  9
$DIMALTTD
 70
     3
  9
$DIMTXSTY
  7
Standard
  9
$DIMAUNIT
 70
     0
  9
$DIMADEC
 70
     2
  9
$DIMALTRND
 40
0.0
  9
$DIMAZIN
 70
     0
  9
$DIMDSEP
 70
    44
  9
$DIMATFIT
 70
     3
  9
$DIMFRAC
 70
     0
  9
$DIMLDRBLK
  1

  9
$DIMLUNIT
 70
     2
  9
$DIMLWD
 70
    -2
  9
$DIMLWE
 70
    -2
  9
$DIMTMOVE
 70
     0
  9
$LUNITS
 70
     2
  9
$LUPREC
 70
     1
  9
$SKETCHINC
 40
1.0
  9
$FILLETRAD
 40
10.0
  9
$AUNITS
 70
     0
  9
$AUPREC
 70
     2
  9
$MENU
  1
.
  9
$ELEVATION
 40
0.0
  9
$PELEVATION
 40
0.0
  9
$THICKNESS
 40
0.0
  9
$LIMCHECK
 70
     0
  9
$CHAMFERA
 40
10.0
  9
$CHAMFERB
 40
10.0
  9
$CHAMFERC
 40
20.0
  9
$CHAMFERD
 40
0.0
  9
$SKPOLY
 70
     0
  9
$TDCREATE
 40
2460445.701080856
  9
$TDUCREATE
 40
2460445.326080856
  9
$TDUPDATE
 40
2460445.701080868
  9
$TDUUPDATE
 40
2460445.326080868
  9
$TDINDWG
 40
0.0000000116
  9
$TDUSRTIMER
 40
0.0000000116
  9
$USRTIMER
 70
     1
  9
$ANGBASE
 50
0.0
  9
$ANGDIR
 70
     0
  9
$PDMODE
 70
     0
  9
$PDSIZE
 40
-1.0
  9
$PLINEWID
 40
0.0
  9
$SPLFRAME
 70
     0
  9
$SPLINETYPE
 70
     6
  9
$SPLINESEGS
 70
     8
  9
$HANDSEED
  5
252
  9
$SURFTAB1
 70
     6
  9
$SURFTAB2
 70
     6
  9
$SURFTYPE
 70
     6
  9
$SURFU
 70
     6
  9
$SURFV
 70
     6
  9
$UCSBASE
  2

  9
$UCSNAME
  2

  9
$UCSORG
 10
0.0
 20
0.0
 30
0.0
  9
$UCSXDIR
 10
1.0
 20
0.0
 30
0.0
  9
$UCSYDIR
 10
0.0
 20
1.0
 30
0.0
  9
$UCSORTHOREF
  2

  9
$UCSORTHOVIEW
 70
     0
  9
$UCSORGTOP
 10
0.0
 20
0.0
 30
0.0
  9
$UCSORGBOTTOM
 10
0.0
 20
0.0
 30
0.0
  9
$UCSORGLEFT
 10
0.0
 20
0.0
 30
0.0
  9
$UCSORGRIGHT
 10
0.0
 20
0.0
 30
0.0
  9
$UCSORGFRONT
 10
0.0
 20
0.0
 30
0.0
  9
$UCSORGBACK
 10
0.0
 20
0.0
 30
0.0
  9
$PUCSBASE
  2

  9
$PUCSNAME
  2

  9
$PUCSORG
 10
0.0
 20
0.0
 30
0.0
  9
$PUCSXDIR
 10
1.0
 20
0.0
 30
0.0
  9
$PUCSYDIR
 10
0.0
 20
1.0
 30
0.0
  9
$PUCSORTHOREF
  2

  9
$PUCSORTHOVIEW
 70
     0
  9
$PUCSORGTOP
 10
0.0
 20
0.0
 30
0.0
  9
$PUCSORGBOTTOM
 10
0.0
 20
0.0
 30
0.0
  9
$PUCSORGLEFT
 10
0.0
 20
0.0
 30
0.0
  9
$PUCSORGRIGHT
 10
0.0
 20
0.0
 30
0.0
  9
$PUCSORGFRONT
 10
0.0
 20
0.0
 30
0.0
  9
$PUCSORGBACK
 10
0.0
 20
0.0
 30
0.0
  9
$USERI1
 70
     0
  9
$USERI2
 70
     0
  9
$USERI3
 70
     0
  9
$USERI4
 70
     0
  9
$USERI5
 70
     0
  9
$USERR1
 40
0.0
  9
$USERR2
 40
0.0
  9
$USERR3
 40
0.0
  9
$USERR4
 40
0.0
  9
$USERR5
 40
0.0
  9
$WORLDVIEW
 70
     1
  9
$SHADEDGE
 70
     3
  9
$SHADEDIF
 70
    70
  9
$TILEMODE
 70
     1
  9
$MAXACTVP
 70
    64
  9
$PINSBASE
 10
0.0
 20
0.0
 30
0.0
  9
$PLIMCHECK
 70
     0
  9
$PEXTMIN
 10
1.0000000000E+20
 20
1.0000000000E+20
 30
1.0000000000E+20
  9
$PEXTMAX
 10
-1.0000000000E+20
 20
-1.0000000000E+20
 30
-1.0000000000E+20
  9
$PLIMMIN
 10
0.0
 20
0.0
  9
$PLIMMAX
 10
420.0
 20
297.0
  9
$UNITMODE
 70
     0
  9
$VISRETAIN
 70
     1
  9
$PLINEGEN
 70
     0
  9
$PSLTSCALE
 70
     1
  9
$TREEDEPTH
 70
  3020
  9
$CMLSTYLE
  2
Standard
  9
$CMLJUST
 70
     0
  9
$CMLSCALE
 40
20.0
  9
$PROXYGRAPHICS
 70
     1
  9
$MEASUREMENT
 70
     1
  9
$CELWEIGHT
370
    -1
  9
$ENDCAPS
280
     0
  9
$JOINSTYLE
280
     0
  9
$LWDISPLAY
290
     1
  9
$INSUNITS
 70
     4
  9
$HYPERLINKBASE
  1

  9
$STYLESHEET
  1

  9
$XEDIT
290
     1
  9
$CEPSNTYPE
380
     0
  9
$PSTYLEMODE
290
     1
  9
$FINGERPRINTGUID
  2
{61EB33A5-AA6A-4720-86F0-8F10AB63B5C5}
  9
$VERSIONGUID
  2
{FAEB1C32-E019-11D5-929B-00C0DF256EC4}
  9
$EXTNAMES
290
     1
  9
$PSVPSCALE
 40
0.0
  9
$OLESTARTUP
290
     0
  0
ENDSEC
  0
SECTION
  2
CLASSES
  0
CLASS
  1
ACDBDICTIONARYWDFLT
  2
AcDbDictionaryWithDefault
  3
ObjectDBX Classes
 90
        0
280
     0
281
     0
  0
CLASS
  1
VISUALSTYLE
  2
AcDbVisualStyle
  3
ObjectDBX Classes
 90
     4095
280
     0
281
     0
  0
CLASS
  1
MATERIAL
  2
AcDbMaterial
  3
ObjectDBX Classes
 90
     1153
280
     0
281
     0
  0
CLASS
  1
ACDBPLACEHOLDER
  2
AcDbPlaceHolder
  3
ObjectDBX Classes
 90
        0
280
     0
281
     0
  0
CLASS
  1
LAYOUT
  2
AcDbLayout
  3
ObjectDBX Classes
 90
        0
280
     0
281
     0
  0
ENDSEC
  0
SECTION
  2
TABLES
  0
TABLE
  2
VPORT
  5
8
330
0
100
AcDbSymbolTable
 70
     1
  0
VPORT
  5
29
330
8
100
AcDbSymbolTableRecord
100
AcDbViewportTableRecord
  2
*Active
 70
     0
 10
0.0
 20
0.0
 11
1.0
 21
1.0
 12
420.0
 22
297.0
 13
0.0
 23
0.0
 14
10.0
 24
10.0
 15
10.0
 25
10.0
 16
0.0
 26
0.0
 36
1.0
 17
0.0
 27
0.0
 37
0.0
 40
594.0
 41
1.4141414141
 42
50.0
 43
0.0
 44
0.0
 50
0.0
 51
0.0
 71
     0
 72
  2000
 73
     1
 74
     3
 75
     0
 76
     0
 77
     0
 78
     0
281
     0
 65
     1
110
0.0
120
0.0
130
0.0
111
1.0
121
0.0
131
0.0
112
0.0
122
1.0
132
0.0
 79
     0
146
0.0
  0
ENDTAB
  0
TABLE
  2
LTYPE
  5
5
330
0
100
AcDbSymbolTable
 70
     6
  0
LTYPE
  5
14
330
5
100
AcDbSymbolTableRecord
100
AcDbLinetypeTableRecord
  2
ByBlock
 70
     0
  3

 72
    65
 73
     0
 40
0.0
  0
LTYPE
  5
15
330
5
100
AcDbSymbolTableRecord
100
AcDbLinetypeTableRecord
  2
ByLayer
 70
     0
  3

 72
    65
 73
     0
 40
0.0
  0
LTYPE
  5
16
330
5
100
AcDbSymbolTableRecord
100
AcDbLinetypeTableRecord
  2
Continuous
 70
     0
  3
Solid line
 72
    65
 73
     0
 40
0.0
  0
LTYPE
  5
3F
330
5
100
AcDbSymbolTableRecord
100
AcDbLinetypeTableRecord
  2
HIDDEN
 70
     0
  3
Hidden __ __ __ __ __ __ __ __ __ __ __ __ __ __
 72
    65
 73
     2
 40
1.905
 49
1.27
 74
     0
 49
-0.635
 74
     0
  0
LTYPE
  5
40
330
5
100
AcDbSymbolTableRecord
100
AcDbLinetypeTableRecord
  2
PHANTOM
 70
     0
  3
Phantom ______  __  __  ______  __  __  ______
 72
    65
 73
     6
 40
12.7
 49
6.35
 74
     0
 49
-1.27
 74
     0
 49
1.27
 74
     0
 49
-1.27
 74
     0
 49
1.27
 74
     0
 49
-1.27
 74
     0
  0
LTYPE
  5
41
330
5
100
AcDbSymbolTableRecord
100
AcDbLinetypeTableRecord
  2
CENTER
 70
     0
  3
Center ____ _ ____ _ ____ _ ____ _ ____ _ ____
 72
    65
 73
     4
 40
10.16
 49
6.35
 74
     0
 49
-1.27
 74
     0
 49
1.27
 74
     0
 49
-1.27
 74
     0
  0
LTYPE
  5
42
330
5
100
AcDbSymbolTableRecord
100
AcDbLinetypeTableRecord
  2
CENTERX2
 70
     0
  3
Center (2x) ________  __  ________  __  _____
 72
    65
 73
     4
 40
20.32
 49
12.7
 74
     0
 49
-2.54
 74
     0
 49
2.54
 74
     0
 49
-2.54
 74
     0
  0
LTYPE
  5
43
330
5
100
AcDbSymbolTableRecord
100
AcDbLinetypeTableRecord
  2
DOT2
 70
     0
  3
Dot (.5x) ........................................
 72
    65
 73
     2
 40
0.635
 49
0.0
 74
     0
 49
-0.635
 74
     0
  0
ENDTAB
  0
TABLE
  2
LAYER
  5
2
330
0
100
AcDbSymbolTable
 70
     1
  0
LAYER
  5
10
330
2
100
AcDbSymbolTableRecord
100
AcDbLayerTableRecord
  2
0
 70
     0
 62
     7
  6
Continuous
370
    -3
390
F
  0
ENDTAB
  0
TABLE
  2
STYLE
  5
3
330
0
100
AcDbSymbolTable
 70
     2
  0
STYLE
  5
11
330
3
100
AcDbSymbolTableRecord
100
AcDbTextStyleTableRecord
  2
Standard
 70
     0
 40
0.0
 41
1.0
 50
0.0
 71
     0
 42
2.5
  3
txt
  4
bigfont
  0
STYLE
  5
44
330
3
100
AcDbSymbolTableRecord
100
AcDbTextStyleTableRecord
  2
SLDTEXTSTYLE0
 70
     0
 40
0.0
 41
0.7
 50
0.0
 71
     0
 42
0.2
  3
TXT
  4
bigfont
  0
ENDTAB
  0
TABLE
  2
VIEW
  5
6
330
0
100
AcDbSymbolTable
 70
     0
  0
ENDTAB
  0
TABLE
  2
UCS
  5
7
330
0
100
AcDbSymbolTable
 70
     0
  0
ENDTAB
  0
TABLE
  2
APPID
  5
9
330
0
100
AcDbSymbolTable
 70
     1
  0
APPID
  5
12
330
9
100
AcDbSymbolTableRecord
100
AcDbRegAppTableRecord
  2
ACAD
 70
     0
  0
ENDTAB
  0
TABLE
  2
DIMSTYLE
  5
A
330
0
100
AcDbSymbolTable
 70
     1
100
AcDbDimStyleTable
  0
DIMSTYLE
105
27
330
A
100
AcDbSymbolTableRecord
100
AcDbDimStyleTableRecord
  2
ISO-25
 70
     0
 41
2.5
 42
0.625
 43
3.75
 44
1.25
 73
     0
 74
     0
 77
     1
 78
     8
140
2.5
141
2.5
143
0.0393700787
147
0.625
171
     3
172
     1
178
     0
271
     2
272
     2
274
     3
278
    44
283
     0
284
     8
340
11
  0
ENDTAB
  0
TABLE
  2
BLOCK_RECORD
  5
1
330
0
100
AcDbSymbolTable
 70
     1
  0
BLOCK_RECORD
  5
1F
330
1
100
AcDbSymbolTableRecord
100
AcDbBlockTableRecord
  2
*Model_Space
340
22
  0
BLOCK_RECORD
  5
1B
330
1
100
AcDbSymbolTableRecord
100
AcDbBlockTableRecord
  2
*Paper_Space
340
1E
  0
BLOCK_RECORD
  5
23
330
1
100
AcDbSymbolTableRecord
100
AcDbBlockTableRecord
  2
*Paper_Space0
340
26
  0
ENDTAB
  0
ENDSEC
  0
SECTION
  2
BLOCKS
  0
BLOCK
  5
20
330
1F
100
AcDbEntity
  8
0
100
AcDbBlockBegin
  2
*Model_Space
 70
     0
 10
0.0
 20
0.0
 30
0.0
  3
*Model_Space
  1

  0
ENDBLK
  5
21
330
1F
100
AcDbEntity
  8
0
100
AcDbBlockEnd
  0
BLOCK
  5
1C
330
1B
100
AcDbEntity
 67
     1
  8
0
100
AcDbBlockBegin
  2
*Paper_Space
 70
     0
 10
0.0
 20
0.0
 30
0.0
  3
*Paper_Space
  1

  0
ENDBLK
  5
1D
330
1B
100
AcDbEntity
 67
     1
  8
0
100
AcDbBlockEnd
  0
BLOCK
  5
24
330
23
100
AcDbEntity
  8
0
100
AcDbBlockBegin
  2
*Paper_Space0
 70
     0
 10
0.0
 20
0.0
 30
0.0
  3
*Paper_Space0
  1

  0
ENDBLK
  5
25
330
23
100
AcDbEntity
  8
0
100
AcDbBlockEnd
  0
ENDSEC
  0
SECTION
  2
ENTITIES
  0
MTEXT
  5
45
330
1F
100
AcDbEntity
  8
0
  6
Continuous
 62
     7
370
     0
100
AcDbMText
 10
163.0093418259
 20
464.586531425
 30
0.0
 40
7.0
 41
0.0
 71
     1
 72
     1
  1
CHB-510P
  7
SLDTEXTSTYLE0
 73
     1
 44
1.0
  0
LINE
  5
46
330
1F
100
AcDbEntity
  8
0
  6
Continuous
 62
     7
370
    15
100
AcDbLine
 10
404.9181213234
 20
202.3852791671
 30
0.0
 11
405.0181230161
 21
202.3852791671
 31
0.0
  0
LINE
  5
47
330
1F
100
AcDbEntity
  8
0
  6
Continuous
 62
     7
370
    15
100
AcDbLine
 10
405.0181230161
 20
208.3852794521
 30
0.0
 11
404.9181213234
 21
208.3852794521
 31
0.0
  0
LINE
  5
48
330
1F
100
AcDbEntity
  8
0
  6
Continuous
 62
     7
370
    15
100
AcDbLine
 10
404.9181213234
 20
212.3852796421
 30
0.0
 11
405.0181230161
 21
212.3852796421
 31
0.0
  0
LINE
  5
49
330
1F
100
AcDbEntity
  8
0
  6
Continuous
 62
     7
370
    15
100
AcDbLine
 10
405.0181230161
 20
218.385279927
 30
0.0
 11
404.9181213234
 21
218.385279927
 31
0.0
  0
LINE
  5
4A
330
1F
100
AcDbEntity
  8
0
  6
Continuous
 62
     7
370
    15
100
AcDbLine
 10
406.2181135271
 20
221.8852795694
 30
0.0
 11
405.0181230161
 21
221.8852795694
 31
0.0
  0
LINE
  5
4B
330
1F
100
AcDbEntity
  8
0
  6
Continuous
 62
     7
370
    15
100
AcDbLine
 10
405.0181230161
 20
198.8852795247
 30
0.0
 11
406.2181135271
 21
198.8852795247
 31
0.0
  0
LINE
  5
4C
330
1F
100
AcDbEntity
  8
0
  6
Continuous
 62
     7
370
    15
100
AcDbLine
 10
817.7181204412
 20
319.3852769245
 30
0.0
 11
817.7181204412
 21
354.3852733482
 31
0.0
  0
LINE
  5
4D
330
1F
100
AcDbEntity
  8
0
  6
Continuous
 62
     7
370
    15
100
AcDbLine
 10
817.7181204412
 20
66.3852857459
 30
0.0
 11
817.7181204412
 21
101.3852821697
 31
0.0
  0
LINE
  5
4E
330
1F
100
AcDbEntity
  8
0
  6
Continuous
 62
     7
370
    15
100
AcDbLine
 10
397.1133103225
 20
214.2852794413
 30
0.0
 11
397.1133103225
 21
205.6852796149
 31
0.0
  0
LINE
  5
4F
330
1F
100
AcDbEntity
  8
0
  6
Continuous
 62
     7
370
    15
100
AcDbLine
 10
397.7181186531
 20
203.1852796707
 30
0.0
 11
397.7181186531
 21
202.3855334181
 31
0.0
  0
LINE
  5
50
330
1F
100
AcDbEntity
  8
0
  6
Continuous
 62
     7
370
    15
100
AcDbLine
 10
397.7181186531
 20
218.385025676
 30
0.0
 11
397.7181186531
 21
217.5852794234
 31
0.0
  0
ARC
  5
51
330
1F
100
AcDbEntity
  8
0
  6
Continuous
 62
     7
370
    15
100
AcDbCircle
 10
401.3181165073
 20
215.57813669
 30
0.0
 40
3.807142857143162
100
AcDbArc
 50
77.9663271603
 51
90.0
  0
ARC
  5
52
330
1F
100
AcDbEntity
  8
0
  6
Continuous
 62
     7
370
    15
100
AcDbCircle
 10
401.3181165073
 20
215.57813669
 30
0.0
 40
3.807142857143162
100
AcDbArc
 50
90.0
 51
125.3002484399
  0
LINE
  5
53
330
1F
100
AcDbEntity
  8
0
  6
Continuous
 62
     7
370
    15
100
AcDbLine
 10
399.1181125496
 20
218.6852794174
 30
0.0
 11
399.1181125496
 21
218.385279927
 31
0.0
  0
LINE
  5
54
330
1F
100
AcDbEntity
  8
0
  6
Continuous
 62
     7
370
    15
100
AcDbLine
 10
399.2181142423
 20
201.9852798466
 30
0.0
 11
399.2181142423
 21
201.5852795947
 31
0.0
  0
ARC
  5
55
330
1F
100
AcDbEntity
  8
0
  6
Continuous
 62
     7
370
    15
100
AcDbCircle
 10
399.4181165073
 20
202.3852795471
 30
0.0
 40
0.4000000000007731
100
AcDbArc
 50
270.0
 51
0.0
  0
LINE
  5
56
330
1F
100
AcDbEntity
  8
0
  6
Continuous
 62
     7
370
    15
100
AcDbLine
 10
399.8181094978
 20
217.5852794234
 30
0.0
 11
399.8181094978
 21
217.1352797222
 31
0.0
  0
LINE
  5
57
330
1F
100
AcDbEntity
  8
0
  6
Continuous
 62
     7
370
    15
100
AcDbLine
 10
399.8181094978
 20
203.635279372
 30
0.0
 11
399.8181094978
 21
203.1852796707
 31
0.0
  0
SPLINE
  5
58
330
1F
100
AcDbEntity
  8
0
  6
Continuous
 62
     7
370
    15
100
AcDbSpline
210
0.0
220
0.0
230
1.0
 70
     8
 71
     3
 72
    11
 73
     7
 74
     0
 42
0.00000001
 43
0.00000001
 40
0.0
 40
0.0
 40
0.0
 40
0.0
 40
0.2262262248283689
 40
0.4679483157142963
 40
0.7254883120858379
 40
1.0
 40
1.0
 40
1.0
 40
1.0
 10
402.5386293981283
 20
218.6157142777114
 30
0.0
 10
402.5414486973285
 20
218.5928158286007
 30
0.0
 10
402.5472804098684
 20
218.545450450418
 30
0.0
 10
402.5640712606694
 20
218.2206624791083
 30
0.0
 10
402.577663776094
 20
217.7201648854296
 30
0.0
 10
402.5781989701621
 20
217.2963444691461
 30
0.0
 10
402.5784751031607
 20
217.0776746269433
 30
0.0
  0
SPLINE
  5
59
330
1F
100
AcDbEntity
  8
0
  6
Continuous
 62
     7
370
    15
100
AcDbSpline
210
0.0
220
0.0
230
1.0
 70
     8
 71
     3
 72
    12
 73
     8
 74
     0
 42
0.00000001
 43
0.00000001
 40
0.0
 40
0.0
 40
0.0
 40
0.0
 40
0.2489450918608725
 40
0.4822920041796321
 40
0.6998108393712417
 40
0.9035366771083447
 40
1.0
 40
1.0
 40
1.0
 40
1.0
 10
402.5784751031606
 20
203.5190437954037
 30
0.0
 10
402.5770492323048
 20
203.3817092205905
 30
0.0
 10
402.5742868315374
 20
203.1156450582696
 30
0.0
 10
402.5633859008584
 20
202.7798452867027
 30
0.0
 10
402.560875547203
 20
202.546664220971
 30
0.0
 10
402.5656647015014
 20
202.4265604315398
 30
0.0
 10
402.5920952019788
 20
202.425213908282
 30
0.0
 10
402.6005884263723
 20
202.4247812140851
 30
0.0
  0
LINE
  5
5A
330
1F
100
AcDbEntity
  8
0
  6
Continuous
 62
     7
370
    15
100
AcDbLine
 10
402.577625737
 20
217.127674542
 30
0.0
 11
402.577625737
 21
203.4690438803
 31
0.0
  0
LINE
  5
5B
330
1F
100
AcDbEntity
  8
0
  6
Continuous
 62
     7
370
    15
100
AcDbLine
 10
401.0540118072
 20
221.0655629669
 30
0.0
 11
402.5413712118
 21
218.5854155604
 31
0.0
  0
LINE
  5
5C
330
1F
100
AcDbEntity
  8
0
  6
Continuous
 62
     7
370
    15
100
AcDbLine
 10
405.0181230161
 20
220.2885251526
 30
0.0
 11
403.6268313978
 21
222.6084888015
 31
0.0
  0
LINE
  5
5D
330
1F
100
AcDbEntity
  8
0
  6
Continuous
 62
     7
370
    15
100
AcDbLine
 10
402.6058634374
 20
202.2926954586
 30
0.0
 11
401.0367860649
 21
199.676276933
 31
0.0
  0
LINE
  5
5E
330
1F
100
AcDbEntity
  8
0
  6
Continuous
 62
     7
370
    15
100
AcDbLine
 10
403.6096056555
 20
198.1333510984
 30
0.0
 11
405.0181230161
 21
200.4820339415
 31
0.0
  0
LINE
  5
5F
330
1F
100
AcDbEntity
  8
0
  6
Continuous
 62
     7
370
    15
100
AcDbLine
 10
403.646724448
 20
222.5729802657
 30
0.0
 11
403.5567661379
 21
222.6867673952
 31
0.0
  0
SPLINE
  5
60
330
1F
100
AcDbEntity
  8
0
  6
Continuous
 62
     7
370
    15
100
AcDbSpline
210
0.0
220
0.0
230
1.0
 70
     8
 71
     3
 72
    20
 73
    16
 74
     0
 42
0.00000001
 43
0.00000001
 40
0.0
 40
0.0
 40
0.0
 40
0.0
 40
0.033780477519239
 40
0.1101062175248973
 40
0.1739280389562914
 40
0.2252737062134244
 40
0.2665363190196115
 40
0.3037742350063283
 40
0.3388585119186859
 40
0.372640248618339
 40
0.4139180543699228
 40
0.6259819399311124
 40
0.839027146412441
 40
0.9659462154808571
 40
1.0
 40
1.0
 40
1.0
 40
1.0
 10
403.4444560859411
 20
222.8288369286923
 30
0.0
 10
403.4037954379643
 20
222.8850222994202
 30
0.0
 10
403.2712635592104
 20
223.0681564379933
 30
0.0
 10
402.9613984222871
 20
223.2453344803083
 30
0.0
 10
402.5741374664001
 20
223.368294309393
 30
0.0
 10
402.2042889576616
 20
223.3830820824342
 30
0.0
 10
401.869973546044
 20
223.3324896758071
 30
0.0
 10
401.5954860518225
 20
223.2314457452639
 30
0.0
 10
401.3679831729462
 20
223.0967237178433
 30
0.0
 10
401.161951657571
 20
222.920552967244
 30
0.0
 10
400.817428455182
 20
222.4780510120904
 30
0.0
 10
400.636337566443
 20
221.7913808077877
 30
0.0
 10
400.4865387990168
 20
220.6105523716194
 30
0.0
 10
400.4314187484997
 20
219.7059074568594
 30
0.0
 10
400.4248572544492
 20
219.2913195326045
 30
0.0
 10
400.4234691713064
 20
219.2036135155826
 30
0.0
  0
SPLINE
  5
61
330
1F
100
AcDbEntity
  8
0
  6
Continuous
 62
     7
370
    15
100
AcDbSpline
210
0.0
220
0.0
230
1.0
 70
     8
 71
     3
 72
    19
 73
    15
 74
     0
 42
0.00000001
 43
0.00000001
 40
0.0
 40
0.0
 40
0.0
 40
0.0
 40
0.0102736580858595
 40
0.1295975636571891
 40
0.3268133197889034
 40
0.5525089251900037
 40
0.5858547677167557
 40
0.618602349096509
 40
0.6529067906266129
 40
0.6960078850458572
 40
0.7523138275779295
 40
0.8223157439651771
 40
0.9054616433593872
 40
1.0
 40
1.0
 40
1.0
 40
1.0
 10
400.4206230495184
 20
201.5852795947461
 30
0.0
 10
400.4209462540052
 20
201.5580806130379
 30
0.0
 10
400.4250233328506
 20
201.2149777246724
 30
0.0
 10
400.4647858177028
 20
200.3949960872634
 30
0.0
 10
400.5997848838666
 20
199.1725661388672
 30
0.0
 10
400.6902018936494
 20
198.5291853053973
 30
0.0
 10
401.0410834161715
 20
197.9891027153855
 30
0.0
 10
401.21030663774
 20
197.8012582061646
 30
0.0
 10
401.4470134837222
 20
197.6247722693354
 30
0.0
 10
401.7606431818969
 20
197.4713040553529
 30
0.0
 10
402.1641267397438
 20
197.3695132876889
 30
0.0
 10
402.6499953227017
 20
197.3926770972227
 30
0.0
 10
403.1797395287159
 20
197.603001059933
 30
0.0
 10
403.4449626164142
 20
197.924820380278
 30
0.0
 10
403.5860767219274
 20
198.0960469726591
 30
0.0
  0
LINE
  5
62
330
1F
100
AcDbEntity
  8
0
  6
Continuous
 62
     7
370
    15
100
AcDbLine
 10
817.7181204412
 20
30.3852723945
 30
0.0
 11
817.7181204412
 21
65.3852837194
 31
0.0
  0
LINE
  5
63
330
1F
100
AcDbEntity
  8
0
  6
Continuous
 62
     7
370
    15
100
AcDbLine
 10
817.7181204412
 20
355.3852753747
 30
0.0
 11
817.7181204412
 21
390.3852866996
 31
0.0
  0
LINE
  5
64
330
1F
100
AcDbEntity
  8
0
  6
Continuous
 62
     7
370
    15
100
AcDbLine
 10
814.7181143615
 20
65.3852837194
 30
0.0
 11
814.7181143615
 21
66.3852857459
 31
0.0
  0
LINE
  5
65
330
1F
100
AcDbEntity
  8
0
  6
Continuous
 62
     7
370
    15
100
AcDbLine
 10
814.7181143615
 20
101.3852821697
 30
0.0
 11
814.7181143615
 21
102.3852767456
 31
0.0
  0
LINE
  5
66
330
1F
100
AcDbEntity
  8
0
  6
Continuous
 62
     7
370
    15
100
AcDbLine
 10
809.7181191299
 20
102.3852767456
 30
0.0
 11
809.7181191299
 21
101.3852821697
 31
0.0
  0
LINE
  5
67
330
1F
100
AcDbEntity
  8
0
  6
Continuous
 62
     7
370
    15
100
AcDbLine
 10
809.7181191299
 20
66.3852857459
 30
0.0
 11
809.7181191299
 21
65.3852837194
 31
0.0
  0
LINE
  5
68
330
1F
100
AcDbEntity
  8
0
  6
Continuous
 62
     7
370
    15
100
AcDbLine
 10
809.7181191299
 20
355.3852753747
 30
0.0
 11
809.7181191299
 21
354.3852733482
 31
0.0
  0
LINE
  5
69
330
1F
100
AcDbEntity
  8
0
  6
Continuous
 62
     7
370
    15
100
AcDbLine
 10
809.7181191299
 20
319.3852769245
 30
0.0
 11
809.7181191299
 21
318.3852823485
 31
0.0
  0
LINE
  5
6A
330
1F
100
AcDbEntity
  8
0
  6
Continuous
 62
     7
370
    15
100
AcDbLine
 10
814.7181143615
 20
318.3852823485
 30
0.0
 11
814.7181143615
 21
319.3852769245
 31
0.0
  0
LINE
  5
6B
330
1F
100
AcDbEntity
  8
0
  6
Continuous
 62
     7
370
    15
100
AcDbLine
 10
814.7181143615
 20
354.3852733482
 30
0.0
 11
814.7181143615
 21
355.3852753747
 31
0.0
  0
LINE
  5
6C
330
1F
100
AcDbEntity
  8
0
  6
Continuous
 62
     7
370
    15
100
AcDbLine
 10
397.9181220386
 20
217.1352797222
 30
0.0
 11
397.9181220386
 21
216.8424686451
 31
0.0
  0
LINE
  5
6D
330
1F
100
AcDbEntity
  8
0
  6
Continuous
 62
     7
370
    15
100
AcDbLine
 10
397.9181220386
 20
203.9280904491
 30
0.0
 11
397.9181220386
 21
203.635279372
 31
0.0
  0
LINE
  5
6E
330
1F
100
AcDbEntity
  8
0
  6
Continuous
 62
     7
370
    15
100
AcDbLine
 10
406.2181135271
 20
200.3977874328
 30
0.0
 11
406.2181135271
 21
25.3852771629
 31
0.0
  0
LINE
  5
6F
330
1F
100
AcDbEntity
  8
0
  6
Continuous
 62
     7
370
    15
100
AcDbLine
 10
406.2181135271
 20
220.3727716614
 30
0.0
 11
406.2181135271
 21
395.3852819312
 31
0.0
  0
LINE
  5
70
330
1F
100
AcDbEntity
  8
0
  6
Continuous
 62
     7
370
    15
100
AcDbLine
 10
406.2181135271
 20
395.3852819312
 30
0.0
 11
421.2181141231
 21
395.3852819312
 31
0.0
  0
LINE
  5
71
330
1F
100
AcDbEntity
  8
0
  6
Continuous
 62
     7
370
    15
100
AcDbLine
 10
421.2181141231
 20
395.3852819312
 30
0.0
 11
421.2181141231
 21
25.3852771629
 31
0.0
  0
LINE
  5
72
330
1F
100
AcDbEntity
  8
0
  6
Continuous
 62
     7
370
    15
100
AcDbLine
 10
406.2181135271
 20
25.3852771629
 30
0.0
 11
421.2181141231
 21
25.3852771629
 31
0.0
  0
LINE
  5
73
330
1F
100
AcDbEntity
  8
0
  6
Continuous
 62
     7
370
    15
100
AcDbLine
 10
421.2181141231
 20
10.3852765668
 30
0.0
 11
421.2181141231
 21
25.3852771629
 31
0.0
  0
LINE
  5
74
330
1F
100
AcDbEntity
  8
0
  6
Continuous
 62
     7
370
    15
100
AcDbLine
 10
421.2181141231
 20
25.3852771629
 30
0.0
 11
791.2181188915
 21
25.3852771629
 31
0.0
  0
LINE
  5
75
330
1F
100
AcDbEntity
  8
0
  6
Continuous
 62
     7
370
    15
100
AcDbLine
 10
791.2181188915
 20
25.3852771629
 30
0.0
 11
791.2181188915
 21
10.3852765668
 31
0.0
  0
LINE
  5
76
330
1F
100
AcDbEntity
  8
0
  6
Continuous
 62
     7
370
    15
100
AcDbLine
 10
421.2181141231
 20
10.3852765668
 30
0.0
 11
791.2181188915
 21
10.3852765668
 31
0.0
  0
ARC
  5
77
330
1F
100
AcDbEntity
  8
0
  6
Continuous
 62
     7
370
    15
100
AcDbCircle
 10
791.2181165073
 20
395.3852795471
 30
0.0
 40
15.0
100
AcDbArc
 50
0.0
 51
90.0
  0
LINE
  5
78
330
1F
100
AcDbEntity
  8
0
  6
Continuous
 62
     7
370
    15
100
AcDbLine
 10
806.2181194875
 20
395.3852819312
 30
0.0
 11
791.2181188915
 21
395.3852819312
 31
0.0
  0
LINE
  5
79
330
1F
100
AcDbEntity
  8
0
  6
Continuous
 62
     7
370
    15
100
AcDbLine
 10
791.2181188915
 20
410.3852825273
 30
0.0
 11
791.2181188915
 21
395.3852819312
 31
0.0
  0
LINE
  5
7A
330
1F
100
AcDbEntity
  8
0
  6
Continuous
 62
     7
370
    15
100
AcDbLine
 10
426.2181093548
 20
30.3852723945
 30
0.0
 11
426.2181093548
 21
390.3852866996
 31
0.0
  0
LINE
  5
7B
330
1F
100
AcDbEntity
  8
0
  6
Continuous
 62
     7
370
    15
100
AcDbLine
 10
786.2181236599
 20
30.3852723945
 30
0.0
 11
426.2181093548
 21
30.3852723945
 31
0.0
  0
LINE
  5
7C
330
1F
100
AcDbEntity
  8
0
  6
Continuous
 62
     7
370
    15
100
AcDbLine
 10
786.2181236599
 20
30.3852723945
 30
0.0
 11
786.2181236599
 21
390.3852866996
 31
0.0
  0
LINE
  5
7D
330
1F
100
AcDbEntity
  8
0
  6
Continuous
 62
     7
370
    15
100
AcDbLine
 10
426.2181093548
 20
390.3852866996
 30
0.0
 11
786.2181236599
 21
390.3852866996
 31
0.0
  0
LINE
  5
7E
330
1F
100
AcDbEntity
  8
0
  6
Continuous
 62
     7
370
    15
100
AcDbLine
 10
421.2181141231
 20
395.3852819312
 30
0.0
 11
791.2181188915
 21
395.3852819312
 31
0.0
  0
LINE
  5
7F
330
1F
100
AcDbEntity
  8
0
  6
Continuous
 62
     7
370
    15
100
AcDbLine
 10
791.2181188915
 20
25.3852771629
 30
0.0
 11
791.2181188915
 21
395.3852819312
 31
0.0
  0
LINE
  5
80
330
1F
100
AcDbEntity
  8
0
  6
Continuous
 62
     7
370
    15
100
AcDbLine
 10
806.2181194875
 20
25.3852771629
 30
0.0
 11
806.2181194875
 21
395.3852819312
 31
0.0
  0
LINE
  5
81
330
1F
100
AcDbEntity
  8
0
  6
Continuous
 62
     7
370
    15
100
AcDbLine
 10
791.2181188915
 20
25.3852771629
 30
0.0
 11
806.2181194875
 21
25.3852771629
 31
0.0
  0
ARC
  5
82
330
1F
100
AcDbEntity
  8
0
  6
Continuous
 62
     7
370
    15
100
AcDbCircle
 10
791.2181165073
 20
25.3852795471
 30
0.0
 40
15.00000000000011
100
AcDbArc
 50
270.0
 51
0.0
  0
LINE
  5
83
330
1F
100
AcDbEntity
  8
0
  6
Continuous
 62
     7
370
    15
100
AcDbLine
 10
421.2181141231
 20
395.3852819312
 30
0.0
 11
421.2181141231
 21
410.3852825273
 31
0.0
  0
LINE
  5
84
330
1F
100
AcDbEntity
  8
0
  6
Continuous
 62
     7
370
    15
100
AcDbLine
 10
421.2181141231
 20
410.3852825273
 30
0.0
 11
791.2181188915
 21
410.3852825273
 31
0.0
  0
ARC
  5
85
330
1F
100
AcDbEntity
  8
0
  6
Continuous
 62
     7
370
    15
100
AcDbCircle
 10
421.2181165073
 20
395.3852795471
 30
0.0
 40
15.00000000000006
100
AcDbArc
 50
90.0
 51
180.0
  0
ARC
  5
86
330
1F
100
AcDbEntity
  8
0
  6
Continuous
 62
     7
370
    15
100
AcDbCircle
 10
421.2181165073
 20
25.3852795471
 30
0.0
 40
15.00000000000001
100
AcDbArc
 50
180.0
 51
270.0
  0
LINE
  5
87
330
1F
100
AcDbEntity
  8
0
  6
Continuous
 62
     7
370
    15
100
AcDbLine
 10
405.0181230161
 20
221.4197626371
 30
0.0
 11
406.2181135271
 21
221.4197626371
 31
0.0
  0
LINE
  5
88
330
1F
100
AcDbEntity
  8
0
  6
Continuous
 62
     7
370
    15
100
AcDbLine
 10
405.0181230161
 20
199.350796457
 30
0.0
 11
406.2181135271
 21
199.350796457
 31
0.0
  0
LINE
  5
89
330
1F
100
AcDbEntity
  8
0
  6
Continuous
 62
     7
370
    15
100
AcDbLine
 10
405.0181230161
 20
199.350796457
 30
0.0
 11
405.0181230161
 21
221.4197626371
 31
0.0
  0
LINE
  5
8A
330
1F
100
AcDbEntity
  8
0
  6
Continuous
 62
     7
370
    15
100
AcDbLine
 10
406.2181135271
 20
220.3727716614
 30
0.0
 11
406.2181135271
 21
200.3977874328
 31
0.0
  0
LINE
  5
8B
330
1F
100
AcDbEntity
  8
0
  6
Continuous
 62
     7
370
    15
100
AcDbLine
 10
404.9181213234
 20
202.3852791671
 30
0.0
 11
404.9181213234
 21
208.3852794521
 31
0.0
  0
LINE
  5
8C
330
1F
100
AcDbEntity
  8
0
  6
Continuous
 62
     7
370
    15
100
AcDbLine
 10
404.9181213234
 20
215.3852794353
 30
0.0
 11
404.9181213234
 21
218.385279927
 31
0.0
  0
LINE
  5
8D
330
1F
100
AcDbEntity
  8
0
  6
Continuous
 62
     7
370
    15
100
AcDbLine
 10
404.9181213234
 20
212.3852796421
 30
0.0
 11
404.9181213234
 21
215.3852794353
 31
0.0
  0
LINE
  5
8E
330
1F
100
AcDbEntity
  8
0
  6
Continuous
 62
     7
370
    15
100
AcDbLine
 10
405.0181230161
 20
221.4197626371
 30
0.0
 11
405.0181230161
 21
221.8852795694
 31
0.0
  0
LINE
  5
8F
330
1F
100
AcDbEntity
  8
0
  6
Continuous
 62
     7
370
    15
100
AcDbLine
 10
405.0181230161
 20
198.8852795247
 30
0.0
 11
405.0181230161
 21
199.350796457
 31
0.0
  0
LINE
  5
90
330
1F
100
AcDbEntity
  8
0
  6
Continuous
 62
     7
370
    15
100
AcDbLine
 10
807.119475827
 20
354.3852733482
 30
0.0
 11
807.119475827
 21
319.3852769245
 31
0.0
  0
LINE
  5
91
330
1F
100
AcDbEntity
  8
0
  6
Continuous
 62
     7
370
    15
100
AcDbLine
 10
807.119475827
 20
354.3852733482
 30
0.0
 11
817.7181204412
 21
354.3852733482
 31
0.0
  0
LINE
  5
92
330
1F
100
AcDbEntity
  8
0
  6
Continuous
 62
     7
370
    15
100
AcDbLine
 10
807.119475827
 20
319.3852769245
 30
0.0
 11
817.7181204412
 21
319.3852769245
 31
0.0
  0
LINE
  5
93
330
1F
100
AcDbEntity
  8
0
  6
Continuous
 62
     7
370
    15
100
AcDbLine
 10
807.119475827
 20
101.3852821697
 30
0.0
 11
807.119475827
 21
66.3852857459
 31
0.0
  0
LINE
  5
94
330
1F
100
AcDbEntity
  8
0
  6
Continuous
 62
     7
370
    15
100
AcDbLine
 10
807.119475827
 20
101.3852821697
 30
0.0
 11
817.7181204412
 21
101.3852821697
 31
0.0
  0
LINE
  5
95
330
1F
100
AcDbEntity
  8
0
  6
Continuous
 62
     7
370
    15
100
AcDbLine
 10
807.119475827
 20
66.3852857459
 30
0.0
 11
817.7181204412
 21
66.3852857459
 31
0.0
  0
LINE
  5
96
330
1F
100
AcDbEntity
  8
0
  6
Continuous
 62
     7
370
    15
100
AcDbLine
 10
806.6559603069
 20
101.3852821697
 30
0.0
 11
806.6559603069
 21
66.3852857459
 31
0.0
  0
LINE
  5
97
330
1F
100
AcDbEntity
  8
0
  6
Continuous
 62
     7
370
    15
100
AcDbLine
 10
806.6559603069
 20
101.3852821697
 30
0.0
 11
807.119475827
 21
101.3852821697
 31
0.0
  0
LINE
  5
98
330
1F
100
AcDbEntity
  8
0
  6
Continuous
 62
     7
370
    15
100
AcDbLine
 10
806.6559603069
 20
66.3852857459
 30
0.0
 11
807.119475827
 21
66.3852857459
 31
0.0
  0
LINE
  5
99
330
1F
100
AcDbEntity
  8
0
  6
Continuous
 62
     7
370
    15
100
AcDbLine
 10
806.6559603069
 20
354.3852733482
 30
0.0
 11
806.6559603069
 21
319.3852769245
 31
0.0
  0
LINE
  5
9A
330
1F
100
AcDbEntity
  8
0
  6
Continuous
 62
     7
370
    15
100
AcDbLine
 10
806.6559603069
 20
354.3852733482
 30
0.0
 11
807.119475827
 21
354.3852733482
 31
0.0
  0
LINE
  5
9B
330
1F
100
AcDbEntity
  8
0
  6
Continuous
 62
     7
370
    15
100
AcDbLine
 10
806.6559603069
 20
319.3852769245
 30
0.0
 11
807.119475827
 21
319.3852769245
 31
0.0
  0
LINE
  5
9C
330
1F
100
AcDbEntity
  8
0
  6
Continuous
 62
     7
370
    15
100
AcDbLine
 10
806.2181194875
 20
354.3852733482
 30
0.0
 11
806.6559603069
 21
354.3852733482
 31
0.0
  0
LINE
  5
9D
330
1F
100
AcDbEntity
  8
0
  6
Continuous
 62
     7
370
    15
100
AcDbLine
 10
806.2181194875
 20
319.3852769245
 30
0.0
 11
806.6559603069
 21
319.3852769245
 31
0.0
  0
LINE
  5
9E
330
1F
100
AcDbEntity
  8
0
  6
Continuous
 62
     7
370
    15
100
AcDbLine
 10
806.2181194875
 20
101.3852821697
 30
0.0
 11
806.6559603069
 21
101.3852821697
 31
0.0
  0
LINE
  5
9F
330
1F
100
AcDbEntity
  8
0
  6
Continuous
 62
     7
370
    15
100
AcDbLine
 10
806.2181194875
 20
66.3852857459
 30
0.0
 11
806.6559603069
 21
66.3852857459
 31
0.0
  0
LINE
  5
A0
330
1F
100
AcDbEntity
  8
0
  6
Continuous
 62
     7
370
    15
100
AcDbLine
 10
398.9006599043
 20
203.885279413
 30
0.0
 11
398.1701453779
 21
203.885279413
 31
0.0
  0
ARC
  5
A1
330
1F
100
AcDbEntity
  8
0
  6
Continuous
 62
     7
370
    15
100
AcDbCircle
 10
398.3102842678
 20
204.9741149854
 30
0.0
 40
1.097816839157908
100
AcDbArc
 50
174.1882798295
 51
262.6660489201
  0
LINE
  5
A2
330
1F
100
AcDbEntity
  8
0
  6
Continuous
 62
     7
370
    15
100
AcDbLine
 10
397.2181101892
 20
205.0852797028
 30
0.0
 11
397.9486247156
 21
205.0852797028
 31
0.0
  0
ARC
  5
A3
330
1F
100
AcDbEntity
  8
0
  6
Continuous
 62
     7
370
    15
100
AcDbCircle
 10
399.0407987942
 20
204.9741149854
 30
0.0
 40
1.097816839157908
100
AcDbArc
 50
174.1882798295
 51
262.6660489201
  0
LINE
  5
A4
330
1F
100
AcDbEntity
  8
0
  6
Continuous
 62
     7
370
    15
100
AcDbLine
 10
398.1701453779
 20
216.8852796812
 30
0.0
 11
398.9006599043
 21
216.8852796812
 31
0.0
  0
ARC
  5
A5
330
1F
100
AcDbEntity
  8
0
  6
Continuous
 62
     7
370
    15
100
AcDbCircle
 10
399.0407987942
 20
215.7964441087
 30
0.0
 40
1.097816839157908
100
AcDbArc
 50
97.3339510799
 51
185.8117201705
  0
LINE
  5
A6
330
1F
100
AcDbEntity
  8
0
  6
Continuous
 62
     7
370
    15
100
AcDbLine
 10
397.9486247156
 20
215.6852793913
 30
0.0
 11
397.2181101892
 21
215.6852793913
 31
0.0
  0
ARC
  5
A7
330
1F
100
AcDbEntity
  8
0
  6
Continuous
 62
     7
370
    15
100
AcDbCircle
 10
398.3102842678
 20
215.7964441087
 30
0.0
 40
1.097816839157908
100
AcDbArc
 50
97.3339510799
 51
185.8117201705
  0
LINE
  5
A8
330
1F
100
AcDbEntity
  8
0
  6
Continuous
 62
     7
370
    15
100
AcDbLine
 10
398.9006599043
 20
216.8852796812
 30
0.0
 11
402.4440964315
 21
216.8852796812
 31
0.0
  0
LINE
  5
A9
330
1F
100
AcDbEntity
  8
0
  6
Continuous
 62
     7
370
    15
100
AcDbLine
 10
402.4440964315
 20
216.8852796812
 30
0.0
 11
402.4440964315
 21
203.885279413
 31
0.0
  0
LINE
  5
AA
330
1F
100
AcDbEntity
  8
0
  6
Continuous
 62
     7
370
    15
100
AcDbLine
 10
402.4440964315
 20
203.885279413
 30
0.0
 11
398.9006599043
 21
203.885279413
 31
0.0
  0
LINE
  5
AB
330
1F
100
AcDbEntity
  8
0
  6
Continuous
 62
     7
370
    15
100
AcDbLine
 10
397.9486247156
 20
215.6852793913
 30
0.0
 11
397.9486247156
 21
205.0852797028
 31
0.0
  0
LINE
  5
AC
330
1F
100
AcDbEntity
  8
0
  6
Continuous
 62
     7
370
    15
100
AcDbLine
 10
397.2181101892
 20
215.6852793913
 30
0.0
 11
397.2181101892
 21
205.0852797028
 31
0.0
  0
LINE
  5
AD
330
1F
100
AcDbEntity
  8
0
  6
Continuous
 62
     7
370
    15
100
AcDbLine
 10
402.5440534208
 20
216.8852796812
 30
0.0
 11
402.4440964315
 21
216.8852796812
 31
0.0
  0
LINE
  5
AE
330
1F
100
AcDbEntity
  8
0
  6
Continuous
 62
     7
370
    15
100
AcDbLine
 10
402.4440964315
 20
203.885279413
 30
0.0
 11
402.577625737
 21
203.885279413
 31
0.0
  0
LINE
  5
AF
330
1F
100
AcDbEntity
  8
0
  6
Continuous
 62
     7
370
    15
100
AcDbLine
 10
397.2181101892
 20
214.2852794413
 30
0.0
 11
397.1133103225
 21
214.2852794413
 31
0.0
  0
LINE
  5
B0
330
1F
100
AcDbEntity
  8
0
  6
Continuous
 62
     7
370
    15
100
AcDbLine
 10
397.2181101892
 20
205.6852796149
 30
0.0
 11
397.1133103225
 21
205.6852796149
 31
0.0
  0
LINE
  5
B1
330
1F
100
AcDbEntity
  8
0
  6
Continuous
 62
     7
370
    15
100
AcDbLine
 10
402.5922735784
 20
202.3852791671
 30
0.0
 11
397.7187146995
 21
202.3852791671
 31
0.0
  0
LINE
  5
B2
330
1F
100
AcDbEntity
  8
0
  6
Continuous
 62
     7
370
    15
100
AcDbLine
 10
402.584003434
 20
203.1852796707
 30
0.0
 11
397.7181186531
 21
203.1852796707
 31
0.0
  0
LINE
  5
B3
330
1F
100
AcDbEntity
  8
0
  6
Continuous
 62
     7
370
    15
100
AcDbLine
 10
402.5440534208
 20
217.5852794234
 30
0.0
 11
397.7181186531
 21
217.5852794234
 31
0.0
  0
LINE
  5
B4
330
1F
100
AcDbEntity
  8
0
  6
Continuous
 62
     7
370
    15
100
AcDbLine
 10
402.5465866182
 20
218.385279927
 30
0.0
 11
397.7187146995
 21
218.385279927
 31
0.0
  0
LINE
  5
B5
330
1F
100
AcDbEntity
  8
0
  6
Continuous
 62
     7
370
    15
100
AcDbLine
 10
401.3181199882
 20
218.6852794174
 30
0.0
 11
402.4814685438
 21
218.6852794174
 31
0.0
  0
LINE
  5
B6
330
1F
100
AcDbEntity
  8
0
  6
Continuous
 62
     7
370
    15
100
AcDbLine
 10
402.6446213577
 20
218.6852794174
 30
0.0
 11
402.7069678161
 21
218.6852794174
 31
0.0
  0
LINE
  5
B7
330
1F
100
AcDbEntity
  8
0
  6
Continuous
 62
     7
370
    15
100
AcDbLine
 10
399.1181125496
 20
218.6852794174
 30
0.0
 11
401.3181199882
 21
218.6852794174
 31
0.0
  0
LINE
  5
B8
330
1F
100
AcDbEntity
  8
0
  6
Continuous
 62
     7
370
    15
100
AcDbLine
 10
401.3181199882
 20
201.9852798466
 30
0.0
 11
402.4215062711
 21
201.9852798466
 31
0.0
  0
LINE
  5
B9
330
1F
100
AcDbEntity
  8
0
  6
Continuous
 62
     7
370
    15
100
AcDbLine
 10
399.2181142423
 20
201.9852798466
 30
0.0
 11
401.3181199882
 21
201.9852798466
 31
0.0
  0
LINE
  5
BA
330
1F
100
AcDbEntity
  8
0
  6
Continuous
 62
     7
370
    15
100
AcDbLine
 10
401.3181199882
 20
201.5852795947
 30
0.0
 11
402.1816273782
 21
201.5852795947
 31
0.0
  0
LINE
  5
BB
330
1F
100
AcDbEntity
  8
0
  6
Continuous
 62
     7
370
    15
100
AcDbLine
 10
399.2181142423
 20
201.5852795947
 30
0.0
 11
401.3181199882
 21
201.5852795947
 31
0.0
  0
ARC
  5
BC
330
1F
100
AcDbEntity
  8
0
  6
Continuous
 62
     7
370
    15
100
AcDbCircle
 10
398.1838705049
 20
217.5875336922
 30
0.0
 40
0.8027149752665015
100
AcDbArc
 50
125.4660676113
 51
180.1609042628
  0
ARC
  5
BD
330
1F
100
AcDbEntity
  8
0
  6
Continuous
 62
     7
370
    15
100
AcDbCircle
 10
398.1838705049
 20
203.1830254019
 30
0.0
 40
0.80271497526651
100
AcDbArc
 50
179.8390957372
 51
234.5339323888
  0
LINE
  5
BE
330
1F
100
AcDbEntity
  8
0
  6
Continuous
 62
     7
370
    15
100
AcDbLine
 10
398.1689979885
 20
203.635279372
 30
0.0
 11
398.1689979885
 21
203.1852796707
 31
0.0
  0
LINE
  5
BF
330
1F
100
AcDbEntity
  8
0
  6
Continuous
 62
     7
370
    15
100
AcDbLine
 10
398.1689979885
 20
217.5852794234
 30
0.0
 11
398.1689979885
 21
217.1352797222
 31
0.0
  0
LINE
  5
C0
330
1F
100
AcDbEntity
  8
0
  6
Continuous
 62
     7
370
    15
100
AcDbLine
 10
397.381158695
 20
216.3568374734
 30
0.0
 11
397.381158695
 21
217.5852794234
 31
0.0
  0
LINE
  5
C1
330
1F
100
AcDbEntity
  8
0
  6
Continuous
 62
     7
370
    15
100
AcDbLine
 10
397.381158695
 20
203.1852796707
 30
0.0
 11
397.381158695
 21
204.4137216207
 31
0.0
  0
SPLINE
  5
C2
330
1F
100
AcDbEntity
  8
0
  6
Continuous
 62
     7
370
    15
100
AcDbSpline
210
0.0
220
0.0
230
1.0
 70
    24
 71
     3
 72
    12
 73
     8
 74
     0
 42
0.00000001
 43
0.00000001
 40
0.0
 40
0.0
 40
0.0
 40
0.0
 40
0.21850475705506
 40
0.4370160926338405
 40
0.655518294428951
 40
0.8740298516726993
 40
1.0
 40
1.0
 40
1.0
 40
1.0
 10
404.3774624917715
 20
217.0776746269433
 30
0.0
 10
404.180742796003
 20
217.0776746269433
 30
0.0
 10
403.7872974818254
 20
217.0776746269433
 30
0.0
 10
403.2265418770702
 20
217.0776746269433
 30
0.0
 10
402.8088713123268
 20
217.0776746269433
 30
0.0
 10
402.5823156499453
 20
217.0776746269433
 30
0.0
 10
402.5998418740243
 20
217.0776746269433
 30
0.0
 10
402.606250867626
 20
217.0776746269433
 30
0.0
  0
SPLINE
  5
C3
330
1F
100
AcDbEntity
  8
0
  6
Continuous
 62
     7
370
    15
100
AcDbSpline
210
0.0
220
0.0
230
1.0
 70
    24
 71
     3
 72
     9
 73
     5
 74
     0
 42
0.00000001
 43
0.00000001
 40
0.0
 40
0.0
 40
0.0
 40
0.0
 40
0.1970246968420801
 40
1.0
 40
1.0
 40
1.0
 40
1.0
 10
405.0181230161398
 20
217.0776746269433
 30
0.0
 10
404.9854712017248
 20
217.0776746269433
 30
0.0
 10
404.8197467268829
 20
217.0776746269433
 30
0.0
 10
404.5744387438302
 20
217.0776746269433
 30
0.0
 10
404.3774624917715
 20
217.0776746269433
 30
0.0
  0
SPLINE
  5
C4
330
1F
100
AcDbEntity
  8
0
  6
Continuous
 62
     7
370
    15
100
AcDbSpline
210
0.0
220
0.0
230
1.0
 70
     8
 71
     3
 72
    13
 73
     9
 74
     0
 42
0.00000001
 43
0.00000001
 40
0.0
 40
0.0
 40
0.0
 40
0.0
 40
0.1877389811444425
 40
0.3754725915051958
 40
0.5632104231666053
 40
0.7509480975030056
 40
0.9386849895549241
 40
1.0
 40
1.0
 40
1.0
 40
1.0
 10
404.0841778371542
 20
220.6925133276849
 30
0.0
 10
403.887480979068
 20
220.6898146441553
 30
0.0
 10
403.4940928899435
 20
220.6844173542994
 30
0.0
 10
402.9610768610268
 20
220.393875715079
 30
0.0
 10
402.5705592445267
 20
219.9389745319861
 30
0.0
 10
402.3975866955761
 20
219.377298118721
 30
0.0
 10
402.4008844205101
 20
218.9040987932961
 30
0.0
 10
402.5282170402663
 20
218.6826671638128
 30
0.0
 10
402.5595655296056
 20
218.6281520906954
 30
0.0
  0
SPLINE
  5
C5
330
1F
100
AcDbEntity
  8
0
  6
Continuous
 62
     7
370
    15
100
AcDbSpline
210
0.0
220
0.0
230
1.0
 70
     8
 71
     3
 72
    10
 73
     6
 74
     0
 42
0.00000001
 43
0.00000001
 40
0.0
 40
0.0
 40
0.0
 40
0.0
 40
0.209339577391036
 40
0.6046690057291061
 40
0.9999999999999999
 40
0.9999999999999999
 40
0.9999999999999999
 40
0.9999999999999999
 10
405.2213450525015
 20
219.8863986913233
 30
0.0
 10
405.1796425362083
 20
219.9794624094488
 30
0.0
 10
405.0591864840005
 20
220.2482732411592
 30
0.0
 10
404.6524845585428
 20
220.56492947286
 30
0.0
 10
404.2736136610731
 20
220.6499853199245
 30
0.0
 10
404.0841778371542
 20
220.6925133276849
 30
0.0
  0
SPLINE
  5
C6
330
1F
100
AcDbEntity
  8
0
  6
Continuous
 62
     7
370
    15
100
AcDbSpline
210
0.0
220
0.0
230
1.0
 70
     8
 71
     3
 72
    13
 73
     9
 74
     0
 42
0.00000001
 43
0.00000001
 40
0.0
 40
0.0
 40
0.0
 40
0.0
 40
0.1768612988651324
 40
0.3537265060719917
 40
0.5305915684291158
 40
0.7074548346711061
 40
0.8843186579751815
 40
1.0
 40
1.0
 40
1.0
 40
1.0
 10
404.0669520948141
 20
200.0493265722065
 30
0.0
 10
403.8702849674908
 20
200.0520173428739
 30
0.0
 10
403.4769463668264
 20
200.0573989436704
 30
0.0
 10
402.9435613424528
 20
200.3480740049018
 30
0.0
 10
402.5544306926047
 20
200.8024385112387
 30
0.0
 10
402.3762707439641
 20
201.3661317461329
 30
0.0
 10
402.3972331437951
 20
201.8992854367931
 30
0.0
 10
402.563326519514
 20
202.172553783541
 30
0.0
 10
402.629004940769
 20
202.2806124795346
 30
0.0
  0
SPLINE
  5
C7
330
1F
100
AcDbEntity
  8
0
  6
Continuous
 62
     7
370
    15
100
AcDbSpline
210
0.0
220
0.0
230
1.0
 70
     8
 71
     3
 72
    10
 73
     6
 74
     0
 42
0.00000001
 43
0.00000001
 40
0.0
 40
0.0
 40
0.0
 40
0.0
 40
0.0588268036387996
 40
0.5294118412591011
 40
1.0
 40
1.0
 40
1.0
 40
1.0
 10
405.0970693681448
 20
200.6492361459999
 30
0.0
 10
405.0864296715523
 20
200.6277559042859
 30
0.0
 10
404.9906777181048
 20
200.4344444609793
 30
0.0
 10
404.6298453996834
 20
200.1802473870544
 30
0.0
 10
404.2545836112519
 20
200.0929669403023
 30
0.0
 10
404.0669520948141
 20
200.0493265722065
 30
0.0
  0
SPLINE
  5
C8
330
1F
100
AcDbEntity
  8
0
  6
Continuous
 62
     7
370
    15
100
AcDbSpline
210
0.0
220
0.0
230
1.0
 70
    24
 71
     3
 72
    12
 73
     8
 74
     0
 42
0.00000001
 43
0.00000001
 40
0.0
 40
0.0
 40
0.0
 40
0.0
 40
0.2193528834461185
 40
0.4387123709505026
 40
0.6580626892184281
 40
0.8774223992481727
 40
1.0
 40
1.0
 40
1.0
 40
1.0
 10
404.3774624917714
 20
203.5190437954037
 30
0.0
 10
404.1807474174605
 20
203.5190437954037
 30
0.0
 10
403.7873113463367
 20
203.5190437954037
 30
0.0
 10
403.2264864180424
 20
203.5190437954037
 30
0.0
 10
402.8090792775242
 20
203.5190437954037
 30
0.0
 10
402.5832399367841
 20
203.5190437954037
 30
0.0
 10
402.6002115805437
 20
203.5190437954037
 30
0.0
 10
402.6062955711095
 20
203.5190437954037
 30
0.0
  0
SPLINE
  5
C9
330
1F
100
AcDbEntity
  8
0
  6
Continuous
 62
     7
370
    15
100
AcDbSpline
210
0.0
220
0.0
230
1.0
 70
    24
 71
     3
 72
     9
 73
     5
 74
     0
 42
0.00000001
 43
0.00000001
 40
0.0
 40
0.0
 40
0.0
 40
0.0
 40
0.1970246968420801
 40
1.0
 40
1.0
 40
1.0
 40
1.0
 10
405.0181230161398
 20
203.5190437954037
 30
0.0
 10
404.9854712017248
 20
203.5190437954037
 30
0.0
 10
404.8197467268829
 20
203.5190437954037
 30
0.0
 10
404.5744387438302
 20
203.5190437954037
 30
0.0
 10
404.3774624917715
 20
203.5190437954037
 30
0.0
  0
SPLINE
  5
CA
330
1F
100
AcDbEntity
  8
0
  6
Continuous
 62
     7
370
    15
100
AcDbSpline
210
0.0
220
0.0
230
1.0
 70
     8
 71
     3
 72
    13
 73
     9
 74
     0
 42
0.00000001
 43
0.00000001
 40
0.0
 40
0.0
 40
0.0
 40
0.0
 40
0.1768612840288145
 40
0.3537263461533859
 40
0.5305916078062589
 40
0.7074548592117663
 40
0.8843186676793121
 40
0.9999999999999999
 40
0.9999999999999999
 40
0.9999999999999999
 40
0.9999999999999999
 10
402.5151004646032
 20
223.3089318532615
 30
0.0
 10
402.3184333909466
 20
223.306240995623
 30
0.0
 10
401.9250950424478
 20
223.3008592228641
 30
0.0
 10
401.3917091078747
 20
223.0101855243358
 30
0.0
 10
401.0025793663567
 20
222.5558199082837
 30
0.0
 10
400.8244190509949
 20
221.992126742465
 30
0.0
 10
400.8453815231309
 20
221.4589729790717
 30
0.0
 10
401.0114748920084
 20
221.1857046392057
 30
0.0
 10
401.0771533105581
 20
221.0776459459333
 30
0.0
  0
SPLINE
  5
CB
330
1F
100
AcDbEntity
  8
0
  6
Continuous
 62
     7
370
    15
100
AcDbSpline
210
0.0
220
0.0
230
1.0
 70
     8
 71
     3
 72
    10
 73
     6
 74
     0
 42
0.00000001
 43
0.00000001
 40
0.0
 40
0.0
 40
0.0
 40
0.0
 40
0.1474617340987049
 40
0.5737294534547281
 40
1.0
 40
1.0
 40
1.0
 40
1.0
 10
403.6036898944586
 20
222.596405822423
 30
0.0
 10
403.5756277816309
 20
222.6566999251584
 30
0.0
 10
403.4664465031535
 20
222.8912862252612
 30
0.0
 10
403.0813938665875
 20
223.1801073171523
 30
0.0
 10
402.7038653492516
 20
223.26599024629
 30
0.0
 10
402.5151004646032
 20
223.3089318532615
 30
0.0
  0
SPLINE
  5
CC
330
1F
100
AcDbEntity
  8
0
  6
Continuous
 62
     7
370
    15
100
AcDbSpline
210
0.0
220
0.0
230
1.0
 70
     8
 71
     3
 72
    13
 73
     9
 74
     0
 42
0.00000001
 43
0.00000001
 40
0.0
 40
0.0
 40
0.0
 40
0.0
 40
0.1768612988651324
 40
0.3537265060719917
 40
0.5305915684291158
 40
0.7074548346711061
 40
0.8843186579751815
 40
1.0
 40
1.0
 40
1.0
 40
1.0
 10
402.4978747222631
 20
197.4329080466299
 30
0.0
 10
402.3012075949398
 20
197.4355988172973
 30
0.0
 10
401.9078689942755
 20
197.4409804180938
 30
0.0
 10
401.3744839699018
 20
197.7316554793252
 30
0.0
 10
400.9853533200537
 20
198.1860199856621
 30
0.0
 10
400.8071933714132
 20
198.7497132205563
 30
0.0
 10
400.8281557712441
 20
199.2828669112165
 30
0.0
 10
400.9942491469629
 20
199.5561352579644
 30
0.0
 10
401.059927568218
 20
199.664193953958
 30
0.0
  0
SPLINE
  5
CD
330
1F
100
AcDbEntity
  8
0
  6
Continuous
 62
     7
370
    15
100
AcDbSpline
210
0.0
220
0.0
230
1.0
 70
     8
 71
     3
 72
    10
 73
     6
 74
     0
 42
0.00000001
 43
0.00000001
 40
0.0
 40
0.0
 40
0.0
 40
0.0
 40
0.1474563383300455
 40
0.5737308633614325
 40
1.0
 40
1.0
 40
1.0
 40
1.0
 10
403.5864641521185
 20
198.1454340774684
 30
0.0
 10
403.5584075194855
 20
198.0851396669804
 30
0.0
 10
403.4492433001253
 20
197.8505430088989
 30
0.0
 10
403.0641655132168
 20
197.5617383112548
 30
0.0
 10
402.6866375238752
 20
197.4758512872256
 30
0.0
 10
402.4978747222631
 20
197.4329080466299
 30
0.0
  0
LINE
  5
CE
330
1F
100
AcDbEntity
  8
0
  6
Continuous
 62
     7
370
    15
100
AcDbLine
 10
807.119475827
 20
65.3852837194
 30
0.0
 11
807.119475827
 21
30.3852723945
 31
0.0
  0
LINE
  5
CF
330
1F
100
AcDbEntity
  8
0
  6
Continuous
 62
     7
370
    15
100
AcDbLine
 10
817.7181204412
 20
65.3852837194
 30
0.0
 11
807.119475827
 21
65.3852837194
 31
0.0
  0
LINE
  5
D0
330
1F
100
AcDbEntity
  8
0
  6
Continuous
 62
     7
370
    15
100
AcDbLine
 10
817.7181204412
 20
30.3852723945
 30
0.0
 11
807.119475827
 21
30.3852723945
 31
0.0
  0
LINE
  5
D1
330
1F
100
AcDbEntity
  8
0
  6
Continuous
 62
     7
370
    15
100
AcDbLine
 10
807.119475827
 20
390.3852866996
 30
0.0
 11
807.119475827
 21
355.3852753747
 31
0.0
  0
LINE
  5
D2
330
1F
100
AcDbEntity
  8
0
  6
Continuous
 62
     7
370
    15
100
AcDbLine
 10
817.7181204412
 20
390.3852866996
 30
0.0
 11
807.119475827
 21
390.3852866996
 31
0.0
  0
LINE
  5
D3
330
1F
100
AcDbEntity
  8
0
  6
Continuous
 62
     7
370
    15
100
AcDbLine
 10
817.7181204412
 20
355.3852753747
 30
0.0
 11
807.119475827
 21
355.3852753747
 31
0.0
  0
LINE
  5
D4
330
1F
100
AcDbEntity
  8
0
  6
Continuous
 62
     7
370
    15
100
AcDbLine
 10
814.7181143615
 20
102.3852767456
 30
0.0
 11
809.7181191299
 21
102.3852767456
 31
0.0
  0
LINE
  5
D5
330
1F
100
AcDbEntity
  8
0
  6
Continuous
 62
     7
370
    15
100
AcDbLine
 10
809.7181191299
 20
318.3852823485
 30
0.0
 11
814.7181143615
 21
318.3852823485
 31
0.0
  0
LINE
  5
D6
330
1F
100
AcDbEntity
  8
0
  6
Continuous
 62
     7
370
    15
100
AcDbLine
 10
806.6559603069
 20
30.3852723945
 30
0.0
 11
806.6559603069
 21
65.3852837194
 31
0.0
  0
LINE
  5
D7
330
1F
100
AcDbEntity
  8
0
  6
Continuous
 62
     7
370
    15
100
AcDbLine
 10
806.6559603069
 20
65.3852837194
 30
0.0
 11
807.119475827
 21
65.3852837194
 31
0.0
  0
LINE
  5
D8
330
1F
100
AcDbEntity
  8
0
  6
Continuous
 62
     7
370
    15
100
AcDbLine
 10
807.119475827
 20
30.3852723945
 30
0.0
 11
806.6559603069
 21
30.3852723945
 31
0.0
  0
LINE
  5
D9
330
1F
100
AcDbEntity
  8
0
  6
Continuous
 62
     7
370
    15
100
AcDbLine
 10
806.6559603069
 20
355.3852753747
 30
0.0
 11
806.6559603069
 21
390.3852866996
 31
0.0
  0
LINE
  5
DA
330
1F
100
AcDbEntity
  8
0
  6
Continuous
 62
     7
370
    15
100
AcDbLine
 10
806.6559603069
 20
390.3852866996
 30
0.0
 11
807.119475827
 21
390.3852866996
 31
0.0
  0
LINE
  5
DB
330
1F
100
AcDbEntity
  8
0
  6
Continuous
 62
     7
370
    15
100
AcDbLine
 10
807.119475827
 20
355.3852753747
 30
0.0
 11
806.6559603069
 21
355.3852753747
 31
0.0
  0
LINE
  5
DC
330
1F
100
AcDbEntity
  8
0
  6
Continuous
 62
     7
370
    15
100
AcDbLine
 10
806.6559603069
 20
390.3852866996
 30
0.0
 11
806.2181194875
 21
390.3852866996
 31
0.0
  0
LINE
  5
DD
330
1F
100
AcDbEntity
  8
0
  6
Continuous
 62
     7
370
    15
100
AcDbLine
 10
806.6559603069
 20
355.3852753747
 30
0.0
 11
806.2181194875
 21
355.3852753747
 31
0.0
  0
LINE
  5
DE
330
1F
100
AcDbEntity
  8
0
  6
Continuous
 62
     7
370
    15
100
AcDbLine
 10
806.6559603069
 20
65.3852837194
 30
0.0
 11
806.2181194875
 21
65.3852837194
 31
0.0
  0
LINE
  5
DF
330
1F
100
AcDbEntity
  8
0
  6
Continuous
 62
     7
370
    15
100
AcDbLine
 10
806.6559603069
 20
30.3852723945
 30
0.0
 11
806.2181194875
 21
30.3852723945
 31
0.0
  0
LINE
  5
E0
330
1F
100
AcDbEntity
  8
0
  6
Continuous
 62
     7
370
    15
100
AcDbLine
 10
401.0181149099
 20
217.1352797222
 30
0.0
 11
397.9181220386
 21
217.1352797222
 31
0.0
  0
LINE
  5
E1
330
1F
100
AcDbEntity
  8
0
  6
Continuous
 62
     7
370
    15
100
AcDbLine
 10
401.0181149099
 20
203.635279372
 30
0.0
 11
402.577625737
 21
203.635279372
 31
0.0
  0
LINE
  5
E2
330
1F
100
AcDbEntity
  8
0
  6
Continuous
 62
     7
370
    15
100
AcDbLine
 10
401.0181149099
 20
217.1352797222
 30
0.0
 11
402.5781919811
 21
217.1352797222
 31
0.0
  0
LINE
  5
E3
330
1F
100
AcDbEntity
  8
0
  6
Continuous
 62
     7
370
    15
100
AcDbLine
 10
401.0181149099
 20
203.635279372
 30
0.0
 11
397.9181220386
 21
203.635279372
 31
0.0
  0
LINE
  5
E4
330
1F
100
AcDbEntity
  8
0
  6
Continuous
 62
     8
370
    15
100
AcDbLine
 10
401.0181149099
 20
217.1352797222
 30
0.0
 11
401.0181149099
 21
216.8852796812
 31
0.0
  0
LINE
  5
E5
330
1F
100
AcDbEntity
  8
0
  6
Continuous
 62
     8
370
    15
100
AcDbLine
 10
401.0181149099
 20
203.885279413
 30
0.0
 11
401.0181149099
 21
203.635279372
 31
0.0
  0
LINE
  5
E6
330
1F
100
AcDbEntity
  8
0
  6
Continuous
 62
     7
370
    15
100
AcDbLine
 10
281.64989699
 20
216.8852796812
 30
0.0
 11
281.64989699
 21
203.885279413
 31
0.0
  0
LINE
  5
E7
330
1F
100
AcDbEntity
  8
0
  6
Continuous
 62
     7
370
    15
100
AcDbLine
 10
271.8598936903
 20
202.3852791671
 30
0.0
 11
271.8598936903
 21
203.1852796707
 31
0.0
  0
LINE
  5
E8
330
1F
100
AcDbEntity
  8
0
  6
Continuous
 62
     7
370
    15
100
AcDbLine
 10
271.8598936903
 20
217.5852794234
 30
0.0
 11
271.8598936903
 21
218.385279927
 31
0.0
  0
LINE
  5
E9
330
1F
100
AcDbEntity
  8
0
  6
Continuous
 62
     7
370
    15
100
AcDbLine
 10
266.9298892128
 20
218.6852794174
 30
0.0
 11
266.9298892128
 21
218.385279927
 31
0.0
  0
LINE
  5
EA
330
1F
100
AcDbEntity
  8
0
  6
Continuous
 62
     7
370
    15
100
AcDbLine
 10
271.329889189
 20
218.385279927
 30
0.0
 11
271.329889189
 21
218.6852794174
 31
0.0
  0
ARC
  5
EB
330
1F
100
AcDbEntity
  8
0
  6
Continuous
 62
     7
370
    15
100
AcDbCircle
 10
269.1298938429
 20
215.57813669
 30
0.0
 40
3.807142857143189
100
AcDbArc
 50
54.6997515601
 51
125.3002484399
  0
LINE
  5
EC
330
1F
100
AcDbEntity
  8
0
  6
Continuous
 62
     7
370
    15
100
AcDbLine
 10
267.0298909056
 20
201.9852798466
 30
0.0
 11
267.0298909056
 21
201.5852795947
 31
0.0
  0
LINE
  5
ED
330
1F
100
AcDbEntity
  8
0
  6
Continuous
 62
     7
370
    15
100
AcDbLine
 10
271.2298874962
 20
201.5852795947
 30
0.0
 11
271.2298874962
 21
201.9852798466
 31
0.0
  0
ARC
  5
EE
330
1F
100
AcDbEntity
  8
0
  6
Continuous
 62
     7
370
    15
100
AcDbCircle
 10
267.2298938429
 20
202.3852795471
 30
0.0
 40
0.4000000000008299
100
AcDbArc
 50
270.0
 51
0.0
  0
ARC
  5
EF
330
1F
100
AcDbEntity
  8
0
  6
Continuous
 62
     7
370
    15
100
AcDbCircle
 10
271.0298938429
 20
202.3852795471
 30
0.0
 40
0.4000000000008299
100
AcDbArc
 50
180.0
 51
270.0
  0
LINE
  5
F0
330
1F
100
AcDbEntity
  8
0
  6
Continuous
 62
     7
370
    15
100
AcDbLine
 10
267.6299010622
 20
217.5852794234
 30
0.0
 11
267.6299010622
 21
217.1352797222
 31
0.0
  0
LINE
  5
F1
330
1F
100
AcDbEntity
  8
0
  6
Continuous
 62
     7
370
    15
100
AcDbLine
 10
267.6299010622
 20
216.1352795582
 30
0.0
 11
267.6299010622
 21
215.6465750221
 31
0.0
  0
LINE
  5
F2
330
1F
100
AcDbEntity
  8
0
  6
Continuous
 62
     7
370
    15
100
AcDbLine
 10
267.6299010622
 20
214.8504604619
 30
0.0
 11
267.6299010622
 21
214.6947633509
 31
0.0
  0
LINE
  5
F3
330
1F
100
AcDbEntity
  8
0
  6
Continuous
 62
     7
370
    15
100
AcDbLine
 10
267.6299010622
 20
205.3956527297
 30
0.0
 11
267.6299010622
 21
204.6352795359
 31
0.0
  0
LINE
  5
F4
330
1F
100
AcDbEntity
  8
0
  6
Continuous
 62
     7
370
    15
100
AcDbLine
 10
267.6299010622
 20
203.635279372
 30
0.0
 11
267.6299010622
 21
203.1852796707
 31
0.0
  0
LINE
  5
F5
330
1F
100
AcDbEntity
  8
0
  6
Continuous
 62
     7
370
    15
100
AcDbLine
 10
270.6298922407
 20
203.1852796707
 30
0.0
 11
270.6298922407
 21
203.635279372
 31
0.0
  0
LINE
  5
F6
330
1F
100
AcDbEntity
  8
0
  6
Continuous
 62
     7
370
    15
100
AcDbLine
 10
270.6298922407
 20
204.6352795359
 30
0.0
 11
270.6298922407
 21
205.1224217784
 31
0.0
  0
LINE
  5
F7
330
1F
100
AcDbEntity
  8
0
  6
Continuous
 62
     7
370
    15
100
AcDbLine
 10
270.6298922407
 20
214.4303389859
 30
0.0
 11
270.6298922407
 21
214.6182775531
 31
0.0
  0
LINE
  5
F8
330
1F
100
AcDbEntity
  8
0
  6
Continuous
 62
     7
370
    15
100
AcDbLine
 10
270.6298922407
 20
215.3733566437
 30
0.0
 11
270.6298922407
 21
216.1352795582
 31
0.0
  0
LINE
  5
F9
330
1F
100
AcDbEntity
  8
0
  6
Continuous
 62
     7
370
    15
100
AcDbLine
 10
270.6298922407
 20
217.1352797222
 30
0.0
 11
270.6298922407
 21
217.5852794234
 31
0.0
  0
SPLINE
  5
FA
330
1F
100
AcDbEntity
  8
0
  6
Continuous
 62
     7
370
    15
100
AcDbSpline
210
0.0
220
0.0
230
1.0
 70
     8
 71
     3
 72
    15
 73
    11
 74
     0
 42
0.00000001
 43
0.00000001
 40
0.0
 40
0.0
 40
0.0
 40
0.0
 40
0.135602058861544
 40
0.2953298300878975
 40
0.4038099788193052
 40
0.5319609770010262
 40
0.6738423089739348
 40
0.8261094297264101
 40
0.9126121841778267
 40
1.0
 40
1.0
 40
1.0
 40
1.0
 10
270.6298922407145
 20
204.9513247829049
 30
0.0
 10
270.6742739019828
 20
204.9440015703805
 30
0.0
 10
270.7709334113692
 20
204.9280522320839
 30
0.0
 10
270.9777828964795
 20
204.9757202032175
 30
0.0
 10
271.1710524556588
 20
205.0634468948033
 30
0.0
 10
271.3176307647057
 20
205.1831098568838
 30
0.0
 10
271.4163387486853
 20
205.3340048018595
 30
0.0
 10
271.445999413633
 20
205.455840720144
 30
0.0
 10
271.4248202325157
 20
205.5851041961693
 30
0.0
 10
271.3785688610508
 20
205.6517746963369
 30
0.0
 10
271.3553254711146
 20
205.6852796148627
 30
0.0
  0
SPLINE
  5
FB
330
1F
100
AcDbEntity
  8
0
  6
Continuous
 62
     7
370
    15
100
AcDbSpline
210
0.0
220
0.0
230
1.0
 70
     8
 71
     3
 72
    20
 73
    16
 74
     0
 42
0.00000001
 43
0.00000001
 40
0.0
 40
0.0
 40
0.0
 40
0.0
 40
0.0607085741192338
 40
0.226534012799414
 40
0.3908032763104429
 40
0.4705946569944333
 40
0.5476201957417955
 40
0.6228571249950487
 40
0.700336993143606
 40
0.7786470821529379
 40
0.856657488249033
 40
0.9330983925584173
 40
0.9703706611610308
 40
0.9892322599426742
 40
1.0
 40
1.0
 40
1.0
 40
1.0
 10
266.8936942922587
 20
205.6852796148627
 30
0.0
 10
266.9399688531186
 20
205.6319462171247
 30
0.0
 10
267.1126423529364
 20
205.432932671162
 30
0.0
 10
267.5296157717497
 20
205.4150059343163
 30
0.0
 10
268.0945702056341
 20
205.3399829143442
 30
0.0
 10
268.6141829609336
 20
205.2970408434928
 30
0.0
 10
269.0080763769421
 20
205.2664897681537
 30
0.0
 10
269.4009873343037
 20
205.2388074892645
 30
0.0
 10
269.7821485054791
 20
205.2074997837933
 30
0.0
 10
270.1378723804209
 20
205.1750272871577
 30
0.0
 10
270.4404973064971
 20
205.1442018613671
 30
0.0
 10
270.6330035577752
 20
205.1212991135026
 30
0.0
 10
270.7211353932074
 20
205.1132711638998
 30
0.0
 10
270.7665537812429
 20
205.1054774290747
 30
0.0
 10
270.7660051226229
 20
205.1094357847607
 30
0.0
 10
270.7658057319636
 20
205.1108743097751
 30
0.0
  0
SPLINE
  5
FC
330
1F
100
AcDbEntity
  8
0
  6
Continuous
 62
     7
370
    15
100
AcDbSpline
210
0.0
220
0.0
230
1.0
 70
     8
 71
     3
 72
    18
 73
    14
 74
     0
 42
0.00000001
 43
0.00000001
 40
0.0
 40
0.0
 40
0.0
 40
0.0
 40
0.005753592828009
 40
0.1156384986734778
 40
0.2383928036610989
 40
0.3593080206049892
 40
0.4757055377922348
 40
0.5872123505759798
 40
0.7047320665086108
 40
0.8265004517958526
 40
0.8891456094615627
 40
0.9517929066229371
 40
1.0
 40
1.0
 40
1.0
 40
1.0
 10
271.1365168201442
 20
214.3321035463481
 30
0.0
 10
271.1318696606159
 20
214.3350570232537
 30
0.0
 10
271.0384687949301
 20
214.3944174342936
 30
0.0
 10
270.8160981734339
 20
214.4005998904619
 30
0.0
 10
270.4247259846101
 20
214.4597975765947
 30
0.0
 10
269.9128411956851
 20
214.5053439327528
 30
0.0
 10
269.3618106256707
 20
214.5514947549957
 30
0.0
 10
268.7996920723156
 20
214.5903924474508
 30
0.0
 10
268.2654210633857
 20
214.635121023046
 30
0.0
 10
267.8677524215149
 20
214.6761925583501
 30
0.0
 10
267.6530606658544
 20
214.6973133952169
 30
0.0
 10
267.5569889401901
 20
214.6996025339669
 30
0.0
 10
267.5415469084679
 20
214.6835274511494
 30
0.0
 10
267.5348316537852
 20
214.6765369024246
 30
0.0
  0
SPLINE
  5
FD
330
1F
100
AcDbEntity
  8
0
  6
Continuous
 62
     7
370
    15
100
AcDbSpline
210
0.0
220
0.0
230
1.0
 70
     8
 71
     3
 72
    12
 73
     8
 74
     0
 42
0.00000001
 43
0.00000001
 40
0.0
 40
0.0
 40
0.0
 40
0.0
 40
0.2236724731164027
 40
0.452310651944408
 40
0.6822375069813867
 40
0.910224143092987
 40
1.0
 40
1.0
 40
1.0
 40
1.0
 10
266.8355946647639
 20
215.4871302690475
 30
0.0
 10
266.822854652288
 20
215.4445822611861
 30
0.0
 10
266.7970917889884
 20
215.3585416460555
 30
0.0
 10
266.9182408179457
 20
215.2669277541015
 30
0.0
 10
267.1499167317359
 20
215.1706223240403
 30
0.0
 10
267.3947683792318
 20
215.1081305285403
 30
0.0
 10
267.5781041255349
 20
215.1133508238646
 30
0.0
 10
267.629901062202
 20
215.1148256879418
 30
0.0
  0
SPLINE
  5
FE
330
1F
100
AcDbEntity
  8
0
  6
Continuous
 62
     7
370
    15
100
AcDbSpline
210
0.0
220
0.0
230
1.0
 70
     8
 71
     3
 72
    19
 73
    15
 74
     0
 42
0.00000001
 43
0.00000001
 40
0.0
 40
0.0
 40
0.0
 40
0.0
 40
0.0979036063076392
 40
0.175375720652715
 40
0.2884818917858051
 40
0.3734521804554377
 40
0.4570007129271338
 40
0.6168870882614548
 40
0.6796662293265747
 40
0.7634257846369192
 40
0.8137534381323679
 40
0.8702969388080299
 40
0.9323986627747224
 40
0.9999999999999999
 40
0.9999999999999999
 40
0.9999999999999999
 40
0.9999999999999999
 10
267.0118306982035
 20
214.9919996071725
 30
0.0
 10
267.0623424101004
 20
214.9656227549301
 30
0.0
 10
267.1528245507427
 20
214.9183736326045
 30
0.0
 10
267.5274447240285
 20
214.8577232334509
 30
0.0
 10
268.01396881111
 20
214.8038377499754
 30
0.0
 10
268.6052934171226
 20
214.7506042885174
 30
0.0
 10
269.3593982694046
 20
214.6990531091544
 30
0.0
 10
270.000492400671
 20
214.6321103618479
 30
0.0
 10
270.649773237027
 20
214.5965911709706
 30
0.0
 10
271.0280974912085
 20
214.6747741499767
 30
0.0
 10
271.2799565736339
 20
214.7829796313081
 30
0.0
 10
271.413540010799
 20
214.8713148724739
 30
0.0
 10
271.4753157830128
 20
214.9451584577598
 30
0.0
 10
271.4038720053928
 20
215.0256734330958
 30
0.0
 10
271.3666354524607
 20
215.0676379013925
 30
0.0
  0
SPLINE
  5
FF
330
1F
100
AcDbEntity
  8
0
  6
Continuous
 62
     7
370
    15
100
AcDbSpline
210
0.0
220
0.0
230
1.0
 70
     8
 71
     3
 72
    25
 73
    21
 74
     0
 42
0.00000001
 43
0.00000001
 40
0.0
 40
0.0
 40
0.0
 40
0.0
 40
0.0176248640981029
 40
0.0344969634321853
 40
0.0503140527909679
 40
0.0649727710396592
 40
0.0909448377071336
 40
0.1134383528971311
 40
0.1538392881012292
 40
0.1912335660588605
 40
0.2995701840257113
 40
0.3999629713602792
 40
0.501295211962578
 40
0.5949056972282278
 40
0.6784889652501322
 40
0.7336301083461947
 40
0.8075200858082465
 40
0.8952851166523289
 40
0.9453085143285094
 40
1.0
 40
1.0
 40
1.0
 40
1.0
 10
271.0093205081935
 20
214.4420559551685
 30
0.0
 10
271.0490257167485
 20
214.4464512921214
 30
0.0
 10
271.1267403090409
 20
214.4550542394856
 30
0.0
 10
271.2286214078673
 20
214.5010522492677
 30
0.0
 10
271.3096375900275
 20
214.560013591122
 30
0.0
 10
271.385839162229
 20
214.6435893272954
 30
0.0
 10
271.4388918520771
 20
214.7472352141142
 30
0.0
 10
271.4630355115901
 20
214.8795695719523
 30
0.0
 10
271.4401618594912
 20
215.0114378125251
 30
0.0
 10
271.2689190853687
 20
215.2566462796765
 30
0.0
 10
270.926137172913
 20
215.3437299387857
 30
0.0
 10
270.4310219726584
 20
215.4022840693185
 30
0.0
 10
269.8178099977254
 20
215.4606413912639
 30
0.0
 10
269.1683375762915
 20
215.5102645355053
 30
0.0
 10
268.6286319453641
 20
215.5497441077646
 30
0.0
 10
268.1826236150029
 20
215.5889217681423
 30
0.0
 10
267.7939247797652
 20
215.6271498958577
 30
0.0
 10
267.5337668096823
 20
215.6549909850631
 30
0.0
 10
267.4033238197473
 20
215.6774863643604
 30
0.0
 10
267.3946544160743
 20
215.6899489686528
 30
0.0
 10
267.3901264774317
 20
215.6964580562084
 30
0.0
  0
SPLINE
  5
100
330
1F
100
AcDbEntity
  8
0
  6
Continuous
 62
     7
370
    15
100
AcDbSpline
210
0.0
220
0.0
230
1.0
 70
     8
 71
     3
 72
    12
 73
     8
 74
     0
 42
0.00000001
 43
0.00000001
 40
0.0
 40
0.0
 40
0.0
 40
0.0
 40
0.1756473778273734
 40
0.5723149030774375
 40
0.758617259732854
 40
0.9207515311626716
 40
1.0
 40
1.0
 40
1.0
 40
1.0
 10
267.4784605609889
 20
214.8779703337817
 30
0.0
 10
267.4128963853982
 20
214.8687990615938
 30
0.0
 10
267.1992674928827
 20
214.8389161460717
 30
0.0
 10
266.9833709046123
 20
214.7649837439473
 30
0.0
 10
266.822189645982
 20
214.5500512434786
 30
0.0
 10
266.7909920516855
 20
214.38983216442
 30
0.0
 10
266.8219679012023
 20
214.311169130549
 30
0.0
 10
266.8321375953669
 20
214.2853432368605
 30
0.0
  0
LINE
  5
101
330
1F
100
AcDbEntity
  8
0
  6
Continuous
 62
     7
370
    15
100
AcDbLine
 10
266.9896577703
 20
205.5875391733
 30
0.0
 11
265.8711915123
 21
205.5875391733
 31
0.0
  0
LINE
  5
102
330
1F
100
AcDbEntity
  8
0
  6
Continuous
 62
     7
370
    15
100
AcDbLine
 10
265.8711915123
 20
204.787539601
 30
0.0
 11
267.6299010622
 21
204.787539601
 31
0.0
  0
LINE
  5
103
330
1F
100
AcDbEntity
  8
0
  6
Continuous
 62
     7
370
    15
100
AcDbLine
 10
264.4609009134
 20
218.385279927
 30
0.0
 11
264.4609009134
 21
218.43874995
 31
0.0
  0
LINE
  5
104
330
1F
100
AcDbEntity
  8
0
  6
Continuous
 62
     7
370
    15
100
AcDbLine
 10
261.4609097349
 20
218.43874995
 30
0.0
 11
261.4609097349
 21
218.385279927
 31
0.0
  0
SPLINE
  5
105
330
1F
100
AcDbEntity
  8
0
  6
Continuous
 62
     7
370
    15
100
AcDbSpline
210
0.0
220
0.0
230
1.0
 70
     8
 71
     3
 72
    15
 73
    11
 74
     0
 42
0.00000001
 43
0.00000001
 40
0.0
 40
0.0
 40
0.0
 40
0.0
 40
0.1077551316558015
 40
0.2352510952770178
 40
0.362790812364346
 40
0.4902565964082815
 40
0.6176631519439536
 40
0.7450970655907955
 40
0.8724965291587299
 40
1.0
 40
1.0
 40
1.0
 40
1.0
 10
261.476958285522
 20
202.3852791670828
 30
0.0
 10
261.4934975140223
 20
202.0727581499611
 30
0.0
 10
261.5296059717816
 20
201.3904619990007
 30
0.0
 10
261.8658194652053
 20
200.3813135350905
 30
0.0
 10
262.4238936699413
 20
199.4178294679815
 30
0.0
 10
263.1787269195047
 20
198.5969100332564
 30
0.0
 10
264.0938859432883
 20
197.9616381918679
 30
0.0
 10
265.1211414843879
 20
197.5414762085185
 30
0.0
 10
266.2171216678612
 20
197.3276700766029
 30
0.0
 10
266.95288087521
 20
197.3932004505974
 30
0.0
 10
267.3209105836863
 20
197.4259790066748
 30
0.0
  0
SPLINE
  5
106
330
1F
100
AcDbEntity
  8
0
  6
Continuous
 62
     7
370
    15
100
AcDbSpline
210
0.0
220
0.0
230
1.0
 70
     8
 71
     3
 72
    15
 73
    11
 74
     0
 42
0.00000001
 43
0.00000001
 40
0.0
 40
0.0
 40
0.0
 40
0.0
 40
0.1316475892510966
 40
0.2633131088155895
 40
0.395188255007796
 40
0.5266680844568709
 40
0.6575472834997057
 40
0.7882125165615514
 40
0.9184590236342791
 40
0.9999999999999999
 40
0.9999999999999999
 40
0.9999999999999999
 40
0.9999999999999999
 10
266.8232117998118
 20
200.3836639259129
 30
0.0
 10
266.6710329830917
 20
200.3718504551099
 30
0.0
 10
266.3666546229987
 20
200.3482219045172
 30
0.0
 10
265.9157968177567
 20
200.4496959758625
 30
0.0
 10
265.4967663432477
 20
200.6365525779489
 30
0.0
 10
265.1263756273122
 20
200.9091500678774
 30
0.0
 10
264.8241052247636
 20
201.2550536358601
 30
0.0
 10
264.6049550639719
 20
201.656767397899
 30
0.0
 10
264.4875951250565
 20
202.0430806055317
 30
0.0
 10
264.4774127452525
 20
202.2901530247424
 30
0.0
 10
264.4734923946376
 20
202.3852791670828
 30
0.0
  0
SPLINE
  5
107
330
1F
100
AcDbEntity
  8
0
  6
Continuous
 62
     7
370
    15
100
AcDbSpline
210
0.0
220
0.0
230
1.0
 70
     8
 71
     3
 72
    15
 73
    11
 74
     0
 42
0.00000001
 43
0.00000001
 40
0.0
 40
0.0
 40
0.0
 40
0.0
 40
0.1249271552659727
 40
0.2499157189118373
 40
0.3749662937033535
 40
0.4999570592118868
 40
0.6249211444807522
 40
0.7499169145564165
 40
0.8748739054386943
 40
1.0
 40
1.0
 40
1.0
 40
1.0
 10
267.4917821990962
 20
223.3158003572493
 30
0.0
 10
267.1254055246999
 20
223.3591323698496
 30
0.0
 10
266.3924720821722
 20
223.4458176950527
 30
0.0
 10
265.2884486893483
 20
223.280626958122
 30
0.0
 10
264.2476501981882
 20
222.8916953936005
 30
0.0
 10
263.3124564610509
 20
222.2866824016185
 30
0.0
 10
262.5318037543159
 20
221.4904930901735
 30
0.0
 10
261.9438492353915
 20
220.5461242666908
 30
0.0
 10
261.5480222124551
 20
219.4976816042688
 30
0.0
 10
261.4899603143872
 20
218.7585604868266
 30
0.0
 10
261.4609097349162
 20
218.388750034955
 30
0.0
  0
SPLINE
  5
108
330
1F
100
AcDbEntity
  8
0
  6
Continuous
 62
     7
370
    15
100
AcDbSpline
210
0.0
220
0.0
230
1.0
 70
     8
 71
     3
 72
    15
 73
    11
 74
     0
 42
0.00000001
 43
0.00000001
 40
0.0
 40
0.0
 40
0.0
 40
0.0
 40
0.1242532963911512
 40
0.248634885951055
 40
0.3735434839900159
 40
0.498584258737882
 40
0.6236667515179836
 40
0.7490731788797137
 40
0.8744400372051625
 40
1.0
 40
1.0
 40
1.0
 40
1.0
 10
264.4609009134288
 20
218.388750034955
 30
0.0
 10
264.4744569144594
 20
218.5407065356946
 30
0.0
 10
264.5015829132705
 20
218.8447764342667
 30
0.0
 10
264.676064579989
 20
219.272089040302
 30
0.0
 10
264.9293921006386
 20
219.6537287918515
 30
0.0
 10
265.2592108599083
 20
219.9736663339963
 30
0.0
 10
265.6501423739817
 20
220.2142352370469
 30
0.0
 10
266.0828387343864
 20
220.365860810214
 30
0.0
 10
266.5403657152324
 20
220.4193189108311
 30
0.0
 10
266.8422799630921
 20
220.3786288580978
 30
0.0
 10
266.9933532583232
 20
220.3582681749134
 30
0.0
  0
LINE
  5
109
330
1F
100
AcDbEntity
  8
0
  6
Continuous
 62
     7
370
    15
100
AcDbLine
 10
282.3639606344
 20
203.0004163306
 30
0.0
 11
266.8229882824
 21
200.3839982707
 31
0.0
  0
LINE
  5
10A
330
1F
100
AcDbEntity
  8
0
  6
Continuous
 62
     7
370
    15
100
AcDbLine
 10
267.3210595953
 20
197.425630692
 30
0.0
 11
282.8620170462
 21
200.0420492176
 31
0.0
  0
LINE
  5
10B
330
1F
100
AcDbEntity
  8
0
  6
Continuous
 62
     7
370
    15
100
AcDbLine
 10
266.9935767757
 20
220.3578425605
 30
0.0
 11
282.5345491278
 21
217.7414235693
 31
0.0
  0
LINE
  5
10C
330
1F
100
AcDbEntity
  8
0
  6
Continuous
 62
     7
370
    15
100
AcDbLine
 10
283.0326055395
 20
220.6997906823
 30
0.0
 11
267.4916331875
 21
223.3162092079
 31
0.0
  0
SPLINE
  5
10D
330
1F
100
AcDbEntity
  8
0
  6
Continuous
 62
     7
370
    15
100
AcDbSpline
210
0.0
220
0.0
230
1.0
 70
     8
 71
     3
 72
    12
 73
     8
 74
     0
 42
0.00000001
 43
0.00000001
 40
0.0
 40
0.0
 40
0.0
 40
0.0
 40
0.1526137250823502
 40
0.2973904385919474
 40
0.5623704151018883
 40
0.7966025483336754
 40
1.0
 40
1.0
 40
1.0
 40
1.0
 10
282.8616743194575
 20
200.0423584167032
 30
0.0
 10
283.1128938901238
 20
200.0950965180772
 30
0.0
 10
283.6024324179531
 20
200.197864516759
 30
0.0
 10
284.4519551444357
 20
200.6271095171974
 30
0.0
 10
285.2639460081121
 20
201.3715042250579
 30
0.0
 10
285.8283921887154
 20
202.4425436926578
 30
0.0
 10
285.9100809695194
 20
203.1774710299389
 30
0.0
 10
285.9480475294108
 20
203.5190437954037
 30
0.0
  0
SPLINE
  5
10E
330
1F
100
AcDbEntity
  8
0
  6
Continuous
 62
     7
370
    15
100
AcDbSpline
210
0.0
220
0.0
230
1.0
 70
     8
 71
     3
 72
    11
 73
     7
 74
     0
 42
0.00000001
 43
0.00000001
 40
0.0
 40
0.0
 40
0.0
 40
0.0
 40
0.2003563298768963
 40
0.4328062455845991
 40
0.6990171522960194
 40
0.9999999999999999
 40
0.9999999999999999
 40
0.9999999999999999
 40
0.9999999999999999
 10
282.949725280952
 20
203.5190437954037
 30
0.0
 10
282.9364977653378
 20
203.4626170652682
 30
0.0
 10
282.9079239170603
 20
203.3407250280383
 30
0.0
 10
282.79203972335
 20
203.1750289363494
 30
0.0
 10
282.6072933699895
 20
203.0361148954107
 30
0.0
 10
282.4496733638853
 20
203.0127282569193
 30
0.0
 10
282.3660318958277
 20
203.0003180761008
 30
0.0
  0
SPLINE
  5
10F
330
1F
100
AcDbEntity
  8
0
  6
Continuous
 62
     7
370
    15
100
AcDbSpline
210
0.0
220
0.0
230
1.0
 70
     8
 71
     3
 72
    12
 73
     8
 74
     0
 42
0.00000001
 43
0.00000001
 40
0.0
 40
0.0
 40
0.0
 40
0.0
 40
0.203406964129683
 40
0.4376406924816505
 40
0.7026183194413301
 40
0.8473898487799414
 40
1.0
 40
1.0
 40
1.0
 40
1.0
 10
285.9480475294108
 20
217.0776746269433
 30
0.0
 10
285.9266060103037
 20
217.4206829647395
 30
0.0
 10
285.8804734636133
 20
218.1586832938942
 30
0.0
 10
285.3683832018263
 20
219.2558043752064
 30
0.0
 10
284.5931611790459
 20
220.0385408592559
 30
0.0
 10
283.7653199106281
 20
220.5082841120303
 30
0.0
 10
283.2813345053498
 20
220.6345422107161
 30
0.0
 10
283.0329631673808
 20
220.6993352655439
 30
0.0
  0
SPLINE
  5
110
330
1F
100
AcDbEntity
  8
0
  6
Continuous
 62
     7
370
    15
100
AcDbSpline
210
0.0
220
0.0
230
1.0
 70
     8
 71
     3
 72
    12
 73
     8
 74
     0
 42
0.00000001
 43
0.00000001
 40
0.0
 40
0.0
 40
0.0
 40
0.0
 40
0.1555606195731052
 40
0.3022089924266109
 40
0.5679713858311382
 40
0.7999469279268913
 40
1.0
 40
1.0
 40
1.0
 40
1.0
 10
282.532626877975
 20
217.7423418533175
 30
0.0
 10
282.5731739333738
 20
217.7265927102542
 30
0.0
 10
282.6519450567569
 20
217.6959967106381
 30
0.0
 10
282.7815753280345
 20
217.600950016747
 30
0.0
 10
282.8960102220582
 20
217.4547794210054
 30
0.0
 10
282.9601432475619
 20
217.2605236045159
 30
0.0
 10
282.9530225545013
 20
217.1355461022368
 30
0.0
 10
282.949725280952
 20
217.0776746269433
 30
0.0
  0
LINE
  5
111
330
1F
100
AcDbEntity
  8
0
  6
Continuous
 62
     7
370
    15
100
AcDbLine
 10
282.9488908159
 20
217.127674542
 30
0.0
 11
282.9488908159
 21
216.8852796812
 31
0.0
  0
LINE
  5
112
330
1F
100
AcDbEntity
  8
0
  6
Continuous
 62
     7
370
    15
100
AcDbLine
 10
282.9488908159
 20
203.885279413
 30
0.0
 11
282.9488908159
 21
203.4690438803
 31
0.0
  0
LINE
  5
113
330
1F
100
AcDbEntity
  8
0
  6
Continuous
 62
     7
370
    15
100
AcDbLine
 10
285.9488819944
 20
203.4690438803
 30
0.0
 11
285.9488819944
 21
203.8880240206
 31
0.0
  0
LINE
  5
114
330
1F
100
AcDbEntity
  8
0
  6
Continuous
 62
     7
370
    15
100
AcDbLine
 10
285.9488819944
 20
216.8825350735
 30
0.0
 11
285.9488819944
 21
217.127674542
 31
0.0
  0
LINE
  5
115
330
1F
100
AcDbEntity
  8
0
  6
Continuous
 62
     7
370
    15
100
AcDbLine
 10
272.2481732475
 20
215.9852793474
 30
0.0
 11
270.6298922407
 21
215.9852793474
 31
0.0
  0
LINE
  5
116
330
1F
100
AcDbEntity
  8
0
  6
Continuous
 62
     7
370
    15
100
AcDbLine
 10
271.2568138945
 20
215.1852797751
 30
0.0
 11
272.2481732475
 21
215.1852797751
 31
0.0
  0
LINE
  5
117
330
1F
100
AcDbEntity
  8
0
  6
Continuous
 62
     7
370
    15
100
AcDbLine
 10
272.5863998043
 20
217.2534184564
 30
0.0
 11
272.319862734
 21
216.0451713052
 31
0.0
  0
LINE
  5
118
330
1F
100
AcDbEntity
  8
0
  6
Continuous
 62
     7
370
    15
100
AcDbLine
 10
273.0880175936
 20
215.8136212301
 30
0.0
 11
273.3676080811
 21
217.0810907181
 31
0.0
  0
SPLINE
  5
119
330
1F
100
AcDbEntity
  8
0
  6
Continuous
 62
     7
370
    15
100
AcDbSpline
210
0.0
220
0.0
230
1.0
 70
     8
 71
     3
 72
    11
 73
     7
 74
     0
 42
0.00000001
 43
0.00000001
 40
0.0
 40
0.0
 40
0.0
 40
0.0
 40
0.2541315534387046
 40
0.5022702145093869
 40
0.7495144296499624
 40
1.0
 40
1.0
 40
1.0
 40
1.0
 10
272.2481732475276
 20
215.1852797750502
 30
0.0
 10
272.34826203286
 20
215.1955258693901
 30
0.0
 10
272.5460793247257
 20
215.2157764362022
 30
0.0
 10
272.804224056361
 20
215.3698091731277
 30
0.0
 10
273.007674633706
 20
215.588881653867
 30
0.0
 10
273.0694075135452
 20
215.7759327046325
 30
0.0
 10
273.1004749643321
 20
215.8700672943263
 30
0.0
  0
LINE
  5
11A
330
1F
100
AcDbEntity
  8
0
  6
Continuous
 62
     7
370
    15
100
AcDbLine
 10
282.2285090792
 20
216.8852796812
 30
0.0
 11
282.2285090792
 21
203.885279413
 31
0.0
  0
LINE
  5
11B
330
1F
100
AcDbEntity
  8
0
  6
Continuous
 62
     7
370
    15
100
AcDbLine
 10
282.2285090792
 20
216.8852796812
 30
0.0
 11
284.9474792587
 21
216.8852796812
 31
0.0
  0
LWPOLYLINE
  5
11C
330
1F
100
AcDbEntity
  8
0
  6
Continuous
 62
     7
370
    15
100
AcDbPolyline
 90
        9
 70
   128
 43
0.0
 10
285.6779937851
 20
215.6852793913
 10
285.6639568913
 20
215.9193878096
 10
285.6223975527
 20
216.1444996517
 10
285.5548803913
 20
216.3519638624
 10
285.4640429127
 20
216.5338078547
 10
285.3533421862
 20
216.6830429841
 10
285.2270399439
 20
216.7939350974
 10
285.0899939644
 20
216.8622219969
 10
284.9474792587
 20
216.8852796812
  0
LINE
  5
11D
330
1F
100
AcDbEntity
  8
0
  6
Continuous
 62
     7
370
    15
100
AcDbLine
 10
285.6779937851
 20
215.6852793913
 30
0.0
 11
285.6779937851
 21
205.0852797028
 31
0.0
  0
LWPOLYLINE
  5
11E
330
1F
100
AcDbEntity
  8
0
  6
Continuous
 62
     7
370
    15
100
AcDbPolyline
 90
        9
 70
   128
 43
0.0
 10
284.9474792587
 20
203.885279413
 10
285.0899939644
 20
203.9083370973
 10
285.2270399439
 20
203.9766239967
 10
285.3533421862
 20
204.08751611
 10
285.4640429127
 20
204.2367512394
 10
285.5548803913
 20
204.4185952317
 10
285.6223975527
 20
204.6260594424
 10
285.6639568913
 20
204.8511712846
 10
285.6779937851
 20
205.0852797028
  0
LINE
  5
11F
330
1F
100
AcDbEntity
  8
0
  6
Continuous
 62
     7
370
    15
100
AcDbLine
 10
284.9474792587
 20
203.885279413
 30
0.0
 11
282.2285090792
 21
203.885279413
 31
0.0
  0
LINE
  5
120
330
1F
100
AcDbEntity
  8
0
  6
Continuous
 62
     7
370
    15
100
AcDbLine
 10
285.8995144474
 20
203.885279413
 30
0.0
 11
284.9474792587
 21
203.885279413
 31
0.0
  0
LINE
  5
121
330
1F
100
AcDbEntity
  8
0
  6
Continuous
 62
     7
370
    15
100
AcDbLine
 10
285.6779937851
 20
205.0852797028
 30
0.0
 11
286.6300289738
 21
205.0852797028
 31
0.0
  0
LWPOLYLINE
  5
122
330
1F
100
AcDbEntity
  8
0
  6
Continuous
 62
     7
370
    15
100
AcDbPolyline
 90
        9
 70
   128
 43
0.0
 10
286.6300289738
 20
205.0852797028
 10
286.6159920799
 20
204.8511712846
 10
286.5744178402
 20
204.6260594424
 10
286.50691558
 20
204.4185952317
 10
286.4160632002
 20
204.2367512394
 10
286.3053624737
 20
204.08751611
 10
286.1790602314
 20
203.9766239967
 10
286.0420291531
 20
203.9083370973
 10
285.8995144474
 20
203.885279413
  0
LINE
  5
123
330
1F
100
AcDbEntity
  8
0
  6
Continuous
 62
     7
370
    15
100
AcDbLine
 10
286.6300289738
 20
215.6852793913
 30
0.0
 11
285.6779937851
 21
215.6852793913
 31
0.0
  0
LINE
  5
124
330
1F
100
AcDbEntity
  8
0
  6
Continuous
 62
     7
370
    15
100
AcDbLine
 10
286.6300289738
 20
215.6852793913
 30
0.0
 11
286.6300289738
 21
205.0852797028
 31
0.0
  0
LINE
  5
125
330
1F
100
AcDbEntity
  8
0
  6
Continuous
 62
     7
370
    15
100
AcDbLine
 10
284.9474792587
 20
216.8852796812
 30
0.0
 11
285.8995144474
 21
216.8852796812
 31
0.0
  0
LWPOLYLINE
  5
126
330
1F
100
AcDbEntity
  8
0
  6
Continuous
 62
     7
370
    15
100
AcDbPolyline
 90
        9
 70
   128
 43
0.0
 10
285.8995144474
 20
216.8852796812
 10
286.0420291531
 20
216.8622219969
 10
286.1790602314
 20
216.7939350974
 10
286.3053624737
 20
216.6830429841
 10
286.4160632002
 20
216.5338078547
 10
286.50691558
 20
216.3519638624
 10
286.5744178402
 20
216.1444996517
 10
286.6159920799
 20
215.9193878096
 10
286.6300289738
 20
215.6852793913
  0
LINE
  5
127
330
1F
100
AcDbEntity
  8
0
  6
Continuous
 62
     7
370
    15
100
AcDbLine
 10
281.64989699
 20
216.8852796812
 30
0.0
 11
282.2285090792
 21
216.8852796812
 31
0.0
  0
LINE
  5
128
330
1F
100
AcDbEntity
  8
0
  6
Continuous
 62
     7
370
    15
100
AcDbLine
 10
282.2285090792
 20
203.885279413
 30
0.0
 11
281.64989699
 21
203.885279413
 31
0.0
  0
CIRCLE
  5
129
330
1F
100
AcDbEntity
  8
0
  6
Continuous
 62
     7
370
    15
100
AcDbCircle
 10
292.1498938429
 20
205.3852795471
 30
0.0
 40
3.0
  0
LINE
  5
12A
330
1F
100
AcDbEntity
  8
0
  6
Continuous
 62
     7
370
    15
100
AcDbLine
 10
291.749889146
 20
203.4852796268
 30
0.0
 11
292.5498877871
 21
203.4852796268
 31
0.0
  0
LINE
  5
12B
330
1F
100
AcDbEntity
  8
0
  6
Continuous
 62
     7
370
    15
100
AcDbLine
 10
292.5498877871
 20
203.4852796268
 30
0.0
 11
292.5498877871
 21
204.985279407
 31
0.0
  0
LINE
  5
12C
330
1F
100
AcDbEntity
  8
0
  6
Continuous
 62
     7
370
    15
100
AcDbLine
 10
292.5498877871
 20
204.985279407
 30
0.0
 11
294.0498982775
 21
204.985279407
 31
0.0
  0
LINE
  5
12D
330
1F
100
AcDbEntity
  8
0
  6
Continuous
 62
     7
370
    15
100
AcDbLine
 10
294.0498982775
 20
204.985279407
 30
0.0
 11
294.0498982775
 21
205.785279445
 31
0.0
  0
LINE
  5
12E
330
1F
100
AcDbEntity
  8
0
  6
Continuous
 62
     7
370
    15
100
AcDbLine
 10
294.0498982775
 20
205.785279445
 30
0.0
 11
292.5498877871
 21
205.785279445
 31
0.0
  0
LINE
  5
12F
330
1F
100
AcDbEntity
  8
0
  6
Continuous
 62
     7
370
    15
100
AcDbLine
 10
292.5498877871
 20
205.785279445
 30
0.0
 11
292.5498877871
 21
207.285279458
 31
0.0
  0
LINE
  5
130
330
1F
100
AcDbEntity
  8
0
  6
Continuous
 62
     7
370
    15
100
AcDbLine
 10
292.5498877871
 20
207.285279458
 30
0.0
 11
291.749889146
 21
207.285279458
 31
0.0
  0
LINE
  5
131
330
1F
100
AcDbEntity
  8
0
  6
Continuous
 62
     7
370
    15
100
AcDbLine
 10
291.749889146
 20
207.285279458
 30
0.0
 11
291.749889146
 21
205.785279445
 31
0.0
  0
LINE
  5
132
330
1F
100
AcDbEntity
  8
0
  6
Continuous
 62
     7
370
    15
100
AcDbLine
 10
291.749889146
 20
205.785279445
 30
0.0
 11
290.2498935568
 21
205.785279445
 31
0.0
  0
LINE
  5
133
330
1F
100
AcDbEntity
  8
0
  6
Continuous
 62
     7
370
    15
100
AcDbLine
 10
290.2498935568
 20
205.785279445
 30
0.0
 11
290.2498935568
 21
204.985279407
 31
0.0
  0
LINE
  5
134
330
1F
100
AcDbEntity
  8
0
  6
Continuous
 62
     7
370
    15
100
AcDbLine
 10
290.2498935568
 20
204.985279407
 30
0.0
 11
291.749889146
 21
204.985279407
 31
0.0
  0
LINE
  5
135
330
1F
100
AcDbEntity
  8
0
  6
Continuous
 62
     7
370
    15
100
AcDbLine
 10
291.749889146
 20
204.985279407
 30
0.0
 11
291.749889146
 21
203.4852796268
 31
0.0
  0
CIRCLE
  5
136
330
1F
100
AcDbEntity
  8
0
  6
Continuous
 62
     7
370
    15
100
AcDbCircle
 10
292.1498938429
 20
215.3852795471
 30
0.0
 40
2.999999999999943
  0
LINE
  5
137
330
1F
100
AcDbEntity
  8
0
  6
Continuous
 62
     7
370
    15
100
AcDbLine
 10
290.2498935568
 20
214.9852796491
 30
0.0
 11
291.749889146
 21
214.9852796491
 31
0.0
  0
LINE
  5
138
330
1F
100
AcDbEntity
  8
0
  6
Continuous
 62
     7
370
    15
100
AcDbLine
 10
291.749889146
 20
214.9852796491
 30
0.0
 11
291.749889146
 21
213.4852796361
 31
0.0
  0
LINE
  5
139
330
1F
100
AcDbEntity
  8
0
  6
Continuous
 62
     7
370
    15
100
AcDbLine
 10
291.749889146
 20
213.4852796361
 30
0.0
 11
292.5498877871
 21
213.4852796361
 31
0.0
  0
LINE
  5
13A
330
1F
100
AcDbEntity
  8
0
  6
Continuous
 62
     7
370
    15
100
AcDbLine
 10
292.5498877871
 20
213.4852796361
 30
0.0
 11
292.5498877871
 21
214.9852796491
 31
0.0
  0
LINE
  5
13B
330
1F
100
AcDbEntity
  8
0
  6
Continuous
 62
     7
370
    15
100
AcDbLine
 10
292.5498877871
 20
214.9852796491
 30
0.0
 11
294.0498982775
 21
214.9852796491
 31
0.0
  0
LINE
  5
13C
330
1F
100
AcDbEntity
  8
0
  6
Continuous
 62
     7
370
    15
100
AcDbLine
 10
294.0498982775
 20
214.9852796491
 30
0.0
 11
294.0498982775
 21
215.7852796871
 31
0.0
  0
LINE
  5
13D
330
1F
100
AcDbEntity
  8
0
  6
Continuous
 62
     7
370
    15
100
AcDbLine
 10
294.0498982775
 20
215.7852796871
 30
0.0
 11
292.5498877871
 21
215.7852796871
 31
0.0
  0
LINE
  5
13E
330
1F
100
AcDbEntity
  8
0
  6
Continuous
 62
     7
370
    15
100
AcDbLine
 10
292.5498877871
 20
215.7852796871
 30
0.0
 11
292.5498877871
 21
217.2852794673
 31
0.0
  0
LINE
  5
13F
330
1F
100
AcDbEntity
  8
0
  6
Continuous
 62
     7
370
    15
100
AcDbLine
 10
292.5498877871
 20
217.2852794673
 30
0.0
 11
291.749889146
 21
217.2852794673
 31
0.0
  0
LINE
  5
140
330
1F
100
AcDbEntity
  8
0
  6
Continuous
 62
     7
370
    15
100
AcDbLine
 10
291.749889146
 20
217.2852794673
 30
0.0
 11
291.749889146
 21
215.7852796871
 31
0.0
  0
LINE
  5
141
330
1F
100
AcDbEntity
  8
0
  6
Continuous
 62
     7
370
    15
100
AcDbLine
 10
291.749889146
 20
215.7852796871
 30
0.0
 11
290.2498935568
 21
215.7852796871
 31
0.0
  0
LINE
  5
142
330
1F
100
AcDbEntity
  8
0
  6
Continuous
 62
     7
370
    15
100
AcDbLine
 10
290.2498935568
 20
215.7852796871
 30
0.0
 11
290.2498935568
 21
214.9852796491
 31
0.0
  0
LINE
  5
143
330
1F
100
AcDbEntity
  8
0
  6
Continuous
 62
     7
370
    15
100
AcDbLine
 10
286.1498986589
 20
216.8852796812
 30
0.0
 11
291.1321317064
 21
221.4871652458
 31
0.0
  0
ARC
  5
144
330
1F
100
AcDbEntity
  8
0
  6
Continuous
 62
     7
370
    15
100
AcDbCircle
 10
292.1498938429
 20
220.385279547
 30
0.0
 40
1.499999999999994
100
AcDbArc
 50
43.6028189726
 51
132.7273953127
  0
ARC
  5
145
330
1F
100
AcDbEntity
  8
0
  6
Continuous
 62
     7
370
    15
100
AcDbCircle
 10
281.6498938429
 20
210.3852795471
 30
0.0
 40
15.99999999999998
100
AcDbArc
 50
316.3971810272
 51
43.6028189726
  0
ARC
  5
146
330
1F
100
AcDbEntity
  8
0
  6
Continuous
 62
     7
370
    15
100
AcDbCircle
 10
292.1498938429
 20
200.385279547
 30
0.0
 40
1.500000000000011
100
AcDbArc
 50
227.2726046868
 51
316.3971810272
  0
LINE
  5
147
330
1F
100
AcDbEntity
  8
0
  6
Continuous
 62
     7
370
    15
100
AcDbLine
 10
291.1321317064
 20
199.2833938483
 30
0.0
 11
286.1498986589
 21
203.885279413
 31
0.0
  0
LINE
  5
148
330
1F
100
AcDbEntity
  8
0
  6
Continuous
 62
     7
370
    15
100
AcDbLine
 10
285.9488819944
 20
216.8852796812
 30
0.0
 11
286.1498986589
 21
216.8852796812
 31
0.0
  0
LINE
  5
149
330
1F
100
AcDbEntity
  8
0
  6
Continuous
 62
     7
370
    15
100
AcDbLine
 10
286.1498986589
 20
203.885279413
 30
0.0
 11
285.9488819944
 21
203.885279413
 31
0.0
  0
LINE
  5
14A
330
1F
100
AcDbEntity
  8
0
  6
Continuous
 62
     7
370
    15
100
AcDbLine
 10
289.1498898375
 20
10.3852765668
 30
0.0
 11
294.1498999702
 21
10.3852765668
 31
0.0
  0
LINE
  5
14B
330
1F
100
AcDbEntity
  8
0
  6
Continuous
 62
     7
370
    15
100
AcDbLine
 10
289.1498898375
 20
25.3852771629
 30
0.0
 11
289.1498898375
 21
10.3852765668
 31
0.0
  0
LINE
  5
14C
330
1F
100
AcDbEntity
  8
0
  6
Continuous
 62
     7
370
    15
100
AcDbLine
 10
289.1498898375
 20
25.3852771629
 30
0.0
 11
294.1498999702
 21
25.3852771629
 31
0.0
  0
LINE
  5
14D
330
1F
100
AcDbEntity
  8
0
  6
Continuous
 62
     7
370
    15
100
AcDbLine
 10
294.1498999702
 20
25.3852771629
 30
0.0
 11
294.1498999702
 21
10.3852765668
 31
0.0
  0
LINE
  5
14E
330
1F
100
AcDbEntity
  8
0
  6
Continuous
 62
     7
370
    15
100
AcDbLine
 10
294.1498999702
 20
25.3852771629
 30
0.0
 11
309.1499005663
 21
25.3852771629
 31
0.0
  0
ARC
  5
14F
330
1F
100
AcDbEntity
  8
0
  6
Continuous
 62
     7
370
    15
100
AcDbCircle
 10
294.1498938429
 20
25.3852795471
 30
0.0
 40
15.00000000000001
100
AcDbArc
 50
270.0
 51
0.0
  0
LINE
  5
150
330
1F
100
AcDbEntity
  8
0
  6
Continuous
 62
     7
370
    15
100
AcDbLine
 10
294.1498999702
 20
200.3977874328
 30
0.0
 11
294.1498999702
 21
25.3852771629
 31
0.0
  0
LINE
  5
151
330
1F
100
AcDbEntity
  8
0
  6
Continuous
 62
     7
370
    15
100
AcDbLine
 10
289.1498898375
 20
201.1143023182
 30
0.0
 11
289.1498898375
 21
25.3852771629
 31
0.0
  0
LINE
  5
152
330
1F
100
AcDbEntity
  8
0
  6
Continuous
 62
     7
370
    15
100
AcDbLine
 10
294.1498999702
 20
220.3727716614
 30
0.0
 11
294.1498999702
 21
395.3852819312
 31
0.0
  0
LINE
  5
153
330
1F
100
AcDbEntity
  8
0
  6
Continuous
 62
     7
370
    15
100
AcDbLine
 10
294.1498999702
 20
395.3852819312
 30
0.0
 11
309.1499005663
 21
395.3852819312
 31
0.0
  0
LINE
  5
154
330
1F
100
AcDbEntity
  8
0
  6
Continuous
 62
     7
370
    15
100
AcDbLine
 10
309.1499005663
 20
395.3852819312
 30
0.0
 11
309.1499005663
 21
25.3852771629
 31
0.0
  0
LINE
  5
155
330
1F
100
AcDbEntity
  8
0
  6
Continuous
 62
     7
370
    15
100
AcDbLine
 10
289.1498898375
 20
395.3852819312
 30
0.0
 11
294.1498999702
 21
395.3852819312
 31
0.0
  0
LINE
  5
156
330
1F
100
AcDbEntity
  8
0
  6
Continuous
 62
     7
370
    15
100
AcDbLine
 10
289.1498898375
 20
219.6562567759
 30
0.0
 11
289.1498898375
 21
395.3852819312
 31
0.0
  0
LINE
  5
157
330
1F
100
AcDbEntity
  8
0
  6
Continuous
 62
     7
370
    15
100
AcDbLine
 10
289.1498898375
 20
410.3852825273
 30
0.0
 11
294.1498999702
 21
410.3852825273
 31
0.0
  0
LINE
  5
158
330
1F
100
AcDbEntity
  8
0
  6
Continuous
 62
     7
370
    15
100
AcDbLine
 10
294.1498999702
 20
395.3852819312
 30
0.0
 11
294.1498999702
 21
410.3852825273
 31
0.0
  0
LINE
  5
159
330
1F
100
AcDbEntity
  8
0
  6
Continuous
 62
     7
370
    15
100
AcDbLine
 10
289.1498898375
 20
395.3852819312
 30
0.0
 11
289.1498898375
 21
410.3852825273
 31
0.0
  0
ARC
  5
15A
330
1F
100
AcDbEntity
  8
0
  6
Continuous
 62
     7
370
    15
100
AcDbCircle
 10
294.1498938429
 20
395.3852795471
 30
0.0
 40
15.0
100
AcDbArc
 50
0.0
 51
90.0
  0
LINE
  5
15B
330
1F
100
AcDbEntity
  8
0
  6
Continuous
 62
     7
370
    15
100
AcDbLine
 10
272.3608260262
 20
205.6852796149
 30
0.0
 11
272.3608260262
 21
214.2852794413
 31
0.0
  0
LINE
  5
15C
330
1F
100
AcDbEntity
  8
0
  6
Continuous
 62
     7
370
    15
100
AcDbLine
 10
272.3608260262
 20
205.6852796149
 30
0.0
 11
266.8465321171
 21
205.6852796149
 31
0.0
  0
LINE
  5
15D
330
1F
100
AcDbEntity
  8
0
  6
Continuous
 62
     7
370
    15
100
AcDbLine
 10
266.8465321171
 20
205.6852796149
 30
0.0
 11
266.8465321171
 21
214.2852794413
 31
0.0
  0
LINE
  5
15E
330
1F
100
AcDbEntity
  8
0
  6
Continuous
 62
     7
370
    15
100
AcDbLine
 10
272.3608260262
 20
214.2852794413
 30
0.0
 11
266.8465321171
 21
214.2852794413
 31
0.0
  0
LINE
  5
15F
330
1F
100
AcDbEntity
  8
0
  6
Continuous
 62
     7
370
    15
100
AcDbLine
 10
265.7322679865
 20
217.5852794234
 30
0.0
 11
240.9201656687
 21
217.5852794234
 31
0.0
  0
LINE
  5
160
330
1F
100
AcDbEntity
  8
0
  6
Continuous
 62
     7
370
    15
100
AcDbLine
 10
265.7322679865
 20
214.2852794413
 30
0.0
 11
265.7322679865
 21
217.5852794234
 31
0.0
  0
LINE
  5
161
330
1F
100
AcDbEntity
  8
0
  6
Continuous
 62
     7
370
    15
100
AcDbLine
 10
265.7322679865
 20
203.1852796707
 30
0.0
 11
265.7322679865
 21
205.6852796149
 31
0.0
  0
LINE
  5
162
330
1F
100
AcDbEntity
  8
0
  6
Continuous
 62
     7
370
    15
100
AcDbLine
 10
240.9201656687
 20
203.1852796707
 30
0.0
 11
265.7322679865
 21
203.1852796707
 31
0.0
  0
LINE
  5
163
330
1F
100
AcDbEntity
  8
0
  6
Continuous
 62
     7
370
    15
100
AcDbLine
 10
240.9201656687
 20
203.1852796707
 30
0.0
 11
240.9201656687
 21
217.5852794234
 31
0.0
  0
LINE
  5
164
330
1F
100
AcDbEntity
  8
0
  6
Continuous
 62
     7
370
    15
100
AcDbLine
 10
265.7322679865
 20
205.6852796149
 30
0.0
 11
266.8465321171
 21
205.6852796149
 31
0.0
  0
LINE
  5
165
330
1F
100
AcDbEntity
  8
0
  6
Continuous
 62
     7
370
    15
100
AcDbLine
 10
265.7322679865
 20
214.2852794413
 30
0.0
 11
266.8465321171
 21
214.2852794413
 31
0.0
  0
LINE
  5
166
330
1F
100
AcDbEntity
  8
0
  6
Continuous
 62
     7
370
    15
100
AcDbLine
 10
265.8598964321
 20
202.3879287798
 30
0.0
 11
267.7521203863
 21
202.3879287798
 31
0.0
  0
LINE
  5
167
330
1F
100
AcDbEntity
  8
0
  6
Continuous
 62
     7
370
    15
100
AcDbLine
 10
267.7521203863
 20
202.3879287798
 30
0.0
 11
268.4248780119
 21
202.3852791671
 31
0.0
  0
LINE
  5
168
330
1F
100
AcDbEntity
  8
0
  6
Continuous
 62
     7
370
    15
100
AcDbLine
 10
268.4248780119
 20
202.3852791671
 30
0.0
 11
241.0590742933
 21
202.3852791671
 31
0.0
  0
ARC
  5
169
330
1F
100
AcDbEntity
  8
0
  6
Continuous
 62
     7
370
    15
100
AcDbCircle
 10
242.1760458311
 20
202.9912852681
 30
0.0
 40
1.27077488594381
100
AcDbArc
 50
171.2189863599
 51
208.481774717
  0
ARC
  5
16A
330
1F
100
AcDbEntity
  8
0
  6
Continuous
 62
     7
370
    15
100
AcDbCircle
 10
267.206466306
 20
203.0123581964
 30
0.0
 40
1.484305400411396
100
AcDbArc
 50
173.3098537565
 51
204.8780291391
  0
LINE
  5
16B
330
1F
100
AcDbEntity
  8
0
  6
Continuous
 62
     7
370
    15
100
AcDbLine
 10
267.7521203863
 20
218.3826303143
 30
0.0
 11
265.8598964321
 21
218.3826303143
 31
0.0
  0
ARC
  5
16C
330
1F
100
AcDbEntity
  8
0
  6
Continuous
 62
     7
370
    15
100
AcDbCircle
 10
267.206466306
 20
217.7582008977
 30
0.0
 40
1.484305400411396
100
AcDbArc
 50
155.1219708609
 51
186.6901462435
  0
ARC
  5
16D
330
1F
100
AcDbEntity
  8
0
  6
Continuous
 62
     7
370
    15
100
AcDbCircle
 10
242.1760458311
 20
217.779273826
 30
0.0
 40
1.27077488594381
100
AcDbArc
 50
151.518225283
 51
188.7810136401
  0
LINE
  5
16E
330
1F
100
AcDbEntity
  8
0
  6
Continuous
 62
     7
370
    15
100
AcDbLine
 10
241.0590742933
 20
218.385279927
 30
0.0
 11
268.4248780119
 21
218.385279927
 31
0.0
  0
LINE
  5
16F
330
1F
100
AcDbEntity
  8
0
  6
Continuous
 62
     7
370
    15
100
AcDbLine
 10
268.4248780119
 20
218.385279927
 30
0.0
 11
267.7521203863
 21
218.3826303143
 31
0.0
  0
LINE
  5
170
330
1F
100
AcDbEntity
  8
0
  6
Continuous
 62
     7
370
    15
100
AcDbLine
 10
265.8598964321
 20
202.3879287798
 30
0.0
 11
265.8598964321
 21
203.1852796707
 31
0.0
  0
LINE
  5
171
330
1F
100
AcDbEntity
  8
0
  6
Continuous
 62
     7
370
    15
100
AcDbLine
 10
265.8711915123
 20
205.6852796149
 30
0.0
 11
265.8711915123
 21
203.1852796707
 31
0.0
  0
LINE
  5
172
330
1F
100
AcDbEntity
  8
0
  6
Continuous
 62
     7
370
    15
100
AcDbLine
 10
265.8598964321
 20
217.5852794234
 30
0.0
 11
265.8598964321
 21
218.3826303143
 31
0.0
  0
LINE
  5
173
330
1F
100
AcDbEntity
  8
0
  6
Continuous
 62
     7
370
    15
100
AcDbLine
 10
265.8711915123
 20
217.5852794234
 30
0.0
 11
265.8711915123
 21
214.2852794413
 31
0.0
  0
LINE
  5
174
330
1F
100
AcDbEntity
  8
0
  6
Continuous
 62
     7
370
    15
100
AcDbLine
 10
271.8598936903
 20
202.3852791671
 30
0.0
 11
268.4248780119
 21
202.3852791671
 31
0.0
  0
LINE
  5
175
330
1F
100
AcDbEntity
  8
0
  6
Continuous
 62
     7
370
    15
100
AcDbLine
 10
267.7521203863
 20
202.3879287798
 30
0.0
 11
267.7521203863
 21
203.1852796707
 31
0.0
  0
LINE
  5
176
330
1F
100
AcDbEntity
  8
0
  6
Continuous
 62
     7
370
    15
100
AcDbLine
 10
271.8598936903
 20
203.1852796707
 30
0.0
 11
267.7521203863
 21
203.1852796707
 31
0.0
  0
LINE
  5
177
330
1F
100
AcDbEntity
  8
0
  6
Continuous
 62
     7
370
    15
100
AcDbLine
 10
267.7521203863
 20
217.5852794234
 30
0.0
 11
267.7521203863
 21
218.3826303143
 31
0.0
  0
LINE
  5
178
330
1F
100
AcDbEntity
  8
0
  6
Continuous
 62
     7
370
    15
100
AcDbLine
 10
271.8598936903
 20
218.385279927
 30
0.0
 11
268.4248780119
 21
218.385279927
 31
0.0
  0
LINE
  5
179
330
1F
100
AcDbEntity
  8
0
  6
Continuous
 62
     7
370
    15
100
AcDbLine
 10
271.8598936903
 20
217.5852794234
 30
0.0
 11
267.7521203863
 21
217.5852794234
 31
0.0
  0
LINE
  5
17A
330
1F
100
AcDbEntity
  8
0
  6
Continuous
 62
     7
370
    15
100
AcDbLine
 10
265.8598964321
 20
217.5852794234
 30
0.0
 11
267.7521203863
 21
217.5852794234
 31
0.0
  0
LINE
  5
17B
330
1F
100
AcDbEntity
  8
0
  6
Continuous
 62
     7
370
    15
100
AcDbLine
 10
265.8598964321
 20
203.1852796707
 30
0.0
 11
267.7521203863
 21
203.1852796707
 31
0.0
  0
LINE
  5
17C
330
1F
100
AcDbEntity
  8
0
  6
Continuous
 62
     7
370
    15
100
AcDbLine
 10
266.9298892128
 20
218.6852794174
 30
0.0
 11
271.329889189
 21
218.6852794174
 31
0.0
  0
LINE
  5
17D
330
1F
100
AcDbEntity
  8
0
  6
Continuous
 62
     7
370
    15
100
AcDbLine
 10
267.0298909056
 20
201.5852795947
 30
0.0
 11
271.2298874962
 21
201.5852795947
 31
0.0
  0
LINE
  5
17E
330
1F
100
AcDbEntity
  8
0
  6
Continuous
 62
     7
370
    15
100
AcDbLine
 10
267.0298909056
 20
201.9852798466
 30
0.0
 11
271.2298874962
 21
201.9852798466
 31
0.0
  0
ARC
  5
17F
330
1F
100
AcDbEntity
  8
0
  6
Continuous
 62
     7
370
    15
100
AcDbCircle
 10
249.3257928568
 20
210.3852795471
 30
0.0
 40
16.90399728363023
100
AcDbArc
 50
154.7901555355
 51
205.2098444645
  0
SPLINE
  5
180
330
1F
100
AcDbEntity
  8
0
  6
Continuous
 62
     7
370
    15
100
AcDbSpline
210
0.0
220
0.0
230
1.0
 70
     8
 71
     3
 72
    12
 73
     8
 74
     0
 42
0.00000001
 43
0.00000001
 40
0.0
 40
0.0
 40
0.0
 40
0.0
 40
0.1818719143978313
 40
0.3633434966773147
 40
0.5550795168197474
 40
0.7712662717804433
 40
1.0
 40
1.0
 40
1.0
 40
1.0
 10
234.1642101513858
 20
202.3852791670828
 30
0.0
 10
234.1880704450959
 20
202.3926008738929
 30
0.0
 10
234.2357385118071
 20
202.4072281711468
 30
0.0
 10
234.2504837163979
 20
202.5192174405935
 30
0.0
 10
234.2232502093925
 20
202.6886137754621
 30
0.0
 10
234.1515753666467
 20
202.9170263968449
 30
0.0
 10
234.0724923063716
 20
203.0941964853225
 30
0.0
 10
234.0318356859202
 20
203.185279670742
 30
0.0
  0
LINE
  5
181
330
1F
100
AcDbEntity
  8
0
  6
Continuous
 62
     7
370
    15
100
AcDbLine
 10
233.7798495996
 20
203.1397785094
 30
0.0
 11
234.1342960703
 21
202.3852791671
 31
0.0
  0
ARC
  5
182
330
1F
100
AcDbEntity
  8
0
  6
Continuous
 62
     7
370
    15
100
AcDbCircle
 10
249.0505100181
 20
210.3852795471
 30
0.0
 40
16.90237719687147
100
AcDbArc
 50
154.6169692401
 51
205.3830307599
  0
LINE
  5
183
330
1F
100
AcDbEntity
  8
0
  6
Continuous
 62
     7
370
    15
100
AcDbLine
 10
234.1342960703
 20
218.385279927
 30
0.0
 11
233.7798495996
 21
217.6307805847
 31
0.0
  0
SPLINE
  5
184
330
1F
100
AcDbEntity
  8
0
  6
Continuous
 62
     7
370
    15
100
AcDbSpline
210
0.0
220
0.0
230
1.0
 70
     8
 71
     3
 72
    12
 73
     8
 74
     0
 42
0.00000001
 43
0.00000001
 40
0.0
 40
0.0
 40
0.0
 40
0.0
 40
0.2510219938737357
 40
0.5023977523608443
 40
0.7402766005126201
 40
0.9473072801081994
 40
1.0
 40
1.0
 40
1.0
 40
1.0
 10
234.0318356859202
 20
217.5852794233828
 30
0.0
 10
234.0761534317519
 20
217.6851615055432
 30
0.0
 10
234.1648513802939
 20
217.8850664334107
 30
0.0
 10
234.2398440330549
 20
218.1438020376838
 30
0.0
 10
234.2513384001331
 20
218.3210313520363
 30
0.0
 10
234.2096923458152
 20
218.3814806225062
 30
0.0
 10
234.1718812681511
 20
218.3846391288332
 30
0.0
 10
234.1642101513858
 20
218.385279927042
 30
0.0
  0
LINE
  5
185
330
1F
100
AcDbEntity
  8
0
  6
Continuous
 62
     7
370
    15
100
AcDbLine
 10
234.1642101514
 20
202.3852791671
 30
0.0
 11
234.1342960703
 21
202.3852791671
 31
0.0
  0
LINE
  5
186
330
1F
100
AcDbEntity
  8
0
  6
Continuous
 62
     7
370
    15
100
AcDbLine
 10
234.1642101514
 20
218.385279927
 30
0.0
 11
234.1342960703
 21
218.385279927
 31
0.0
  0
LINE
  5
187
330
1F
100
AcDbEntity
  8
0
  6
Continuous
 62
     7
370
    15
100
AcDbLine
 10
236.0213120687
 20
217.5852794234
 30
0.0
 11
234.0318356859
 21
217.5852794234
 31
0.0
  0
LINE
  5
188
330
1F
100
AcDbEntity
  8
0
  6
Continuous
 62
     7
370
    15
100
AcDbLine
 10
236.0213120687
 20
203.1852796707
 30
0.0
 11
236.0213120687
 21
217.5852794234
 31
0.0
  0
LINE
  5
189
330
1F
100
AcDbEntity
  8
0
  6
Continuous
 62
     7
370
    15
100
AcDbLine
 10
234.0318356859
 20
203.1852796707
 30
0.0
 11
236.0213120687
 21
203.1852796707
 31
0.0
  0
LWPOLYLINE
  5
18A
330
1F
100
AcDbEntity
  8
0
  6
Continuous
 62
     7
370
    15
100
AcDbPolyline
 90
        9
 70
   128
 43
0.0
 10
236.0213120687
 20
217.5852794234
 10
236.0160519588
 20
217.7413518574
 10
236.0004876959
 20
217.8914261084
 10
235.9752004253
 20
218.0297358927
 10
235.9411736238
 20
218.1509647552
 10
235.8997111427
 20
218.2504551519
 10
235.8524074065
 20
218.3243835379
 10
235.8010729062
 20
218.3699075166
 10
235.7476969468
 20
218.385279927
  0
LINE
  5
18B
330
1F
100
AcDbEntity
  8
0
  6
Continuous
 62
     7
370
    15
100
AcDbLine
 10
234.1642101514
 20
218.385279927
 30
0.0
 11
235.7476969468
 21
218.385279927
 31
0.0
  0
LWPOLYLINE
  5
18C
330
1F
100
AcDbEntity
  8
0
  6
Continuous
 62
     7
370
    15
100
AcDbPolyline
 90
        9
 70
   128
 43
0.0
 10
236.0213120687
 20
203.1852796707
 10
236.0160519588
 20
203.0292072367
 10
236.0004876959
 20
202.8791329857
 10
235.9752004253
 20
202.7408232015
 10
235.9411736238
 20
202.6195943389
 10
235.8997111427
 20
202.5201039422
 10
235.8524074065
 20
202.4461755563
 10
235.8010729062
 20
202.4006515775
 10
235.7476969468
 20
202.3852791671
  0
LINE
  5
18D
330
1F
100
AcDbEntity
  8
0
  6
Continuous
 62
     7
370
    15
100
AcDbLine
 10
235.7476969468
 20
202.3852791671
 30
0.0
 11
234.1642101514
 21
202.3852791671
 31
0.0
  0
LINE
  5
18E
330
1F
100
AcDbEntity
  8
0
  6
Continuous
 62
     7
370
    15
100
AcDbLine
 10
240.9201656687
 20
217.5852794234
 30
0.0
 11
236.0213120687
 21
217.5852794234
 31
0.0
  0
LINE
  5
18F
330
1F
100
AcDbEntity
  8
0
  6
Continuous
 62
     7
370
    15
100
AcDbLine
 10
236.0213120687
 20
203.1852796707
 30
0.0
 11
240.9201656687
 21
203.1852796707
 31
0.0
  0
LINE
  5
190
330
1F
100
AcDbEntity
  8
0
  6
Continuous
 62
     7
370
    15
100
AcDbLine
 10
235.7476969468
 20
218.385279927
 30
0.0
 11
241.0590742933
 21
218.385279927
 31
0.0
  0
LINE
  5
191
330
1F
100
AcDbEntity
  8
0
  6
Continuous
 62
     7
370
    15
100
AcDbLine
 10
241.0590742933
 20
202.3852791671
 30
0.0
 11
235.7476969468
 21
202.3852791671
 31
0.0
  0
SPLINE
  5
192
330
1F
100
AcDbEntity
  8
0
  6
Continuous
 62
     7
370
    15
100
AcDbSpline
210
0.0
220
0.0
230
1.0
 70
     8
 71
     3
 72
    16
 73
    12
 74
     0
 42
0.00000001
 43
0.00000001
 40
0.0
 40
0.0
 40
0.0
 40
0.0
 40
0.1207045017740557
 40
0.2414116709176487
 40
0.3621187412040286
 40
0.4828245856756951
 40
0.6035308103317315
 40
0.7242365584760028
 40
0.8449446957799939
 40
0.965651483219476
 40
1.0
 40
1.0
 40
1.0
 40
1.0
 10
267.3021947252269
 20
197.4329080466299
 30
0.0
 10
267.32159581894
 20
197.4355807996668
 30
0.0
 10
267.3603984350984
 20
197.4409263648039
 30
0.0
 10
267.3653185731222
 20
197.7318716979852
 30
0.0
 10
267.3281130481776
 20
198.1852091705026
 30
0.0
 10
267.2511808896834
 20
198.7527402335418
 30
0.0
 10
267.1473799316265
 20
199.3410598580674
 30
0.0
 10
267.0312807296603
 20
199.8677691802021
 30
0.0
 10
266.9242723414316
 20
200.2310429949879
 30
0.0
 10
266.8516998520627
 20
200.4015155159835
 30
0.0
 10
266.8321475651687
 20
200.3683636848226
 30
0.0
 10
266.8278162586207
 20
200.3610197488337
 30
0.0
  0
SPLINE
  5
193
330
1F
100
AcDbEntity
  8
0
  6
Continuous
 62
     7
370
    15
100
AcDbSpline
210
0.0
220
0.0
230
1.0
 70
     8
 71
     3
 72
    16
 73
    12
 74
     0
 42
0.00000001
 43
0.00000001
 40
0.0
 40
0.0
 40
0.0
 40
0.0
 40
0.120580094946948
 40
0.2411627657156628
 40
0.3617455725183416
 40
0.4823270087790189
 40
0.6029088248322202
 40
0.7234907552027146
 40
0.84407392294702
 40
0.9646533399229864
 40
0.9999999999999999
 40
0.9999999999999999
 40
0.9999999999999999
 40
0.9999999999999999
 10
267.472783218574
 20
223.3089318532615
 30
0.0
 10
267.4921843228173
 20
223.3062589938828
 30
0.0
 10
267.5309869457486
 20
223.3009132180282
 30
0.0
 10
267.535906946214
 20
223.0099695381952
 30
0.0
 10
267.4987019457068
 20
222.5566298528675
 30
0.0
 10
267.4217680236439
 20
221.9891029838636
 30
0.0
 10
267.3179733200167
 20
221.4007669171771
 30
0.0
 10
267.201850114988
 20
220.8741152057135
 30
0.0
 10
267.0948459666747
 20
220.5106435353645
 30
0.0
 10
267.0220761032006
 20
220.3400940053181
 30
0.0
 10
267.0024390215044
 20
220.3736782383754
 30
0.0
 10
266.9979875194545
 20
220.3812914002805
 30
0.0
  0
SPLINE
  5
194
330
1F
100
AcDbEntity
  8
0
  6
Continuous
 62
     7
370
    15
100
AcDbSpline
210
0.0
220
0.0
230
1.0
 70
     8
 71
     3
 72
    16
 73
    12
 74
     0
 42
0.00000001
 43
0.00000001
 40
0.0
 40
0.0
 40
0.0
 40
0.0
 40
0.1205148256783134
 40
0.2410323145346365
 40
0.3615497046890916
 40
0.4820658709550892
 40
0.6025824168080316
 40
0.7230984868980037
 40
0.8436169423933493
 40
0.9641311181417973
 40
1.0
 40
1.0
 40
1.0
 40
1.0
 10
282.8431670772547
 20
200.0493265722065
 30
0.0
 10
282.8625681667848
 20
200.0519993521452
 30
0.0
 10
282.9013707745767
 20
200.0573449710866
 30
0.0
 10
282.90629097535
 20
200.3482899007291
 30
0.0
 10
282.8690852119568
 20
200.8016289066945
 30
0.0
 10
282.7921539444992
 20
201.369154239533
 30
0.0
 10
282.6883496607438
 20
201.9574952514188
 30
0.0
 10
282.5722628705795
 20
202.48412475403
 30
0.0
 10
282.4652090283382
 20
202.8476935154296
 30
0.0
 10
282.3923546301664
 20
203.0182888419238
 30
0.0
 10
282.3726641727813
 20
202.9844750186548
 30
0.0
 10
282.3681478607173
 20
202.9767192933826
 30
0.0
  0
SPLINE
  5
195
330
1F
100
AcDbEntity
  8
0
  6
Continuous
 62
     7
370
    15
100
AcDbSpline
210
0.0
220
0.0
230
1.0
 70
     8
 71
     3
 72
    16
 73
    12
 74
     0
 42
0.00000001
 43
0.00000001
 40
0.0
 40
0.0
 40
0.0
 40
0.0
 40
0.1205178291999835
 40
0.2410322106599858
 40
0.3615493019567432
 40
0.4820662922597249
 40
0.6025827803802242
 40
0.723099141632693
 40
0.843614416828865
 40
0.964131198050424
 40
1.0
 40
1.0
 40
1.0
 40
1.0
 10
283.0137406694407
 20
220.6925133276849
 30
0.0
 10
283.0331480801501
 20
220.689842082377
 30
0.0
 10
283.0719623463672
 20
220.6844996681794
 30
0.0
 10
283.0768783595851
 20
220.3935464674636
 30
0.0
 10
283.0396739867775
 20
219.9402092422861
 30
0.0
 10
282.9627410789891
 20
219.3726885491609
 30
0.0
 10
282.858944511672
 20
218.7843423803034
 30
0.0
 10
282.7428279176701
 20
218.2577240552714
 30
0.0
 10
282.6358012159308
 20
217.8941366044218
 30
0.0
 10
282.5629433241317
 20
217.7235507901999
 30
0.0
 10
282.5432526360447
 20
217.7573653260005
 30
0.0
 10
282.5387363540644
 20
217.76512107217
 30
0.0
  0
SPLINE
  5
196
330
1F
100
AcDbEntity
  8
0
  6
Continuous
 62
     7
370
    15
100
AcDbSpline
210
0.0
220
0.0
230
1.0
 70
    24
 71
     3
 72
    16
 73
    12
 74
     0
 42
0.00000001
 43
0.00000001
 40
0.0
 40
0.0
 40
0.0
 40
0.0
 40
0.0611070903526417
 40
0.1864721510444355
 40
0.3118319714710453
 40
0.4371971593372122
 40
0.5625584614195136
 40
0.6879205673632984
 40
0.8132849015740912
 40
0.9386471466409737
 40
0.9999999999999999
 40
0.9999999999999999
 40
0.9999999999999999
 40
0.9999999999999999
 10
285.92007804985
 20
203.5190437954037
 30
0.0
 10
285.9258510792012
 20
203.5190437954037
 30
0.0
 10
285.9434678433925
 20
203.5190437954037
 30
0.0
 10
285.7250428466033
 20
203.5190437954037
 30
0.0
 10
285.3122887585727
 20
203.5190437954037
 30
0.0
 10
284.7558251324107
 20
203.5190437954037
 30
0.0
 10
284.1567192950907
 20
203.5190437954037
 30
0.0
 10
283.59801988057
 20
203.5190437954037
 30
0.0
 10
283.1810727216069
 20
203.5190437954037
 30
0.0
 10
282.9580707570832
 20
203.5190437954037
 30
0.0
 10
282.9728861606553
 20
203.5190437954037
 30
0.0
 10
282.9777543651576
 20
203.5190437954037
 30
0.0
  0
SPLINE
  5
197
330
1F
100
AcDbEntity
  8
0
  6
Continuous
 62
     7
370
    15
100
AcDbSpline
210
0.0
220
0.0
230
1.0
 70
    24
 71
     3
 72
    16
 73
    12
 74
     0
 42
0.00000001
 43
0.00000001
 40
0.0
 40
0.0
 40
0.0
 40
0.0
 40
0.0610095308224137
 40
0.186174441967608
 40
0.3113341212138785
 40
0.4364991593304078
 40
0.5616603178668566
 40
0.6868222789813968
 40
0.8119864648054415
 40
0.9371485648209648
 40
1.0
 40
1.0
 40
1.0
 40
1.0
 10
285.92007804985
 20
217.0776746269433
 30
0.0
 10
285.9258510729885
 20
217.0776746269433
 30
0.0
 10
285.9434678182214
 20
217.0776746269433
 30
0.0
 10
285.7250430799654
 20
217.0776746269433
 30
0.0
 10
285.3122879035924
 20
217.0776746269433
 30
0.0
 10
284.7558283190904
 20
217.0776746269433
 30
0.0
 10
284.1567074037772
 20
217.0776746269433
 30
0.0
 10
283.5980642599419
 20
217.0776746269433
 30
0.0
 10
283.1809070935317
 20
217.0776746269433
 30
0.0
 10
282.9574161618032
 20
217.0776746269433
 30
0.0
 10
282.9726365182622
 20
217.0776746269433
 30
0.0
 10
282.9777245628352
 20
217.0776746269433
 30
0.0
  0
SPLINE
  5
198
330
1F
100
AcDbEntity
  8
0
  6
Continuous
 62
     7
370
    15
100
AcDbSpline
210
0.0
220
0.0
230
1.0
 70
     8
 71
     3
 72
    19
 73
    15
 74
     0
 42
0.00000001
 43
0.00000001
 40
0.0
 40
0.0
 40
0.0
 40
0.0
 40
0.0039536627326063
 40
0.1157668230466676
 40
0.22804442824445
 40
0.3355200958495717
 40
0.4377080005322952
 40
0.5348832860674092
 40
0.6283050734508772
 40
0.7302938443609591
 40
0.8413321538057652
 40
0.9641268231532493
 40
0.9937688231716815
 40
1.0
 40
1.0
 40
1.0
 40
1.0
 10
272.2481732475276
 20
215.9852793473868
 30
0.0
 10
272.2485655070205
 20
215.9852737326952
 30
0.0
 10
272.2600512199865
 20
215.9851093294424
 30
0.0
 10
272.2833744136063
 20
215.9699783781709
 30
0.0
 10
272.3268387321966
 20
215.9030835261114
 30
0.0
 10
272.3648269475183
 20
215.7983861291281
 30
0.0
 10
272.3883047909395
 20
215.673308411838
 30
0.0
 10
272.3996451813371
 20
215.5448738359329
 30
0.0
 10
272.4002537719238
 20
215.423702738799
 30
0.0
 10
272.384455229471
 20
215.3144702831227
 30
0.0
 10
272.3440794868633
 20
215.2250535568676
 30
0.0
 10
272.2922223800558
 20
215.1900035622344
 30
0.0
 10
272.2575109886575
 20
215.1853927243875
 30
0.0
 10
272.2495551738863
 20
215.1852964908344
 30
0.0
 10
272.2481732475276
 20
215.1852797750502
 30
0.0
  0
SPLINE
  5
199
330
1F
100
AcDbEntity
  8
0
  6
Continuous
 62
     7
370
    15
100
AcDbSpline
210
0.0
220
0.0
230
1.0
 70
     8
 71
     3
 72
    30
 73
    26
 74
     0
 42
0.00000001
 43
0.00000001
 40
0.0
 40
0.0
 40
0.0
 40
0.0
 40
0.1247116298693979
 40
0.2494226536572214
 40
0.3741206715319979
 40
0.4367836285032525
 40
0.468154426183663
 40
0.4838411758976229
 40
0.4916936303415844
 40
0.4956121580807566
 40
0.4975711325426792
 40
0.4985506740400825
 40
0.4990404955182221
 40
0.4992853194835297
 40
0.4994077748530646
 40
0.4994689592846597
 40
0.4995053692453342
 40
0.4995178427536746
 40
0.4995303162620149
 40
0.5609166905661019
 40
0.6646132164491936
 40
0.7325819504931229
 40
0.8111448646011084
 40
0.9002988950803381
 40
1.0
 40
1.0
 40
1.0
 40
1.0
 10
272.3198627340312
 20
216.0451713051765
 30
0.0
 10
272.3256335985441
 20
216.0433784084428
 30
0.0
 10
272.3371752995246
 20
216.0397926236886
 30
0.0
 10
272.4270086877864
 20
216.0179545595856
 30
0.0
 10
272.5344824303814
 20
215.992269844098
 30
0.0
 10
272.620037392506
 20
215.9718600564715
 30
0.0
 10
272.664137223638
 20
215.9613284973319
 30
0.0
 10
272.6863669394043
 20
215.9560041016577
 30
0.0
 10
272.6975014823513
 20
215.953344656627
 30
0.0
 10
272.7030705978327
 20
215.9520080785251
 30
0.0
 10
272.7058525418288
 20
215.9513407513788
 30
0.0
 10
272.7072432817539
 20
215.9510074414284
 30
0.0
 10
272.7079386460519
 20
215.9508402990444
 30
0.0
 10
272.708286208393
 20
215.9507562303234
 30
0.0
 10
272.7084604174522
 20
215.9507161661823
 30
0.0
 10
272.7085490476741
 20
215.9506920386509
 30
0.0
 10
272.7085948079591
 20
215.9506860010047
 30
0.0
 10
272.7086191128116
 20
215.9506778578471
 30
0.0
 10
272.7330991576907
 20
215.9431372437192
 30
0.0
 10
272.8012844809609
 20
215.9312329393061
 30
0.0
 10
272.8917574155593
 20
215.9103315755107
 30
0.0
 10
272.9753862770271
 20
215.8933349566135
 30
0.0
 10
273.0389128028103
 20
215.8804094692537
 30
0.0
 10
273.0894384244841
 20
215.8707754239913
 30
0.0
 10
273.0966616514884
 20
215.870311965209
 30
0.0
 10
273.1004749643321
 20
215.8700672943263
 30
0.0
  0
ELLIPSE
  5
19A
330
1F
100
AcDbEntity
  8
0
  6
Continuous
 62
     7
370
    15
100
AcDbEllipse
 10
272.9770022366
 20
217.1672547258
 30
0.0
 11
0.3906095144045594
 21
-0.08616383961160068
 31
0.0
210
0.0
220
0.0
230
1.0
 40
0.0142285888
 41
0.0
 42
6.283185307179586
  0
LINE
  5
19B
330
1F
100
AcDbEntity
  8
0
  6
Continuous
 62
     7
370
    15
100
AcDbLine
 10
272.1499000895
 20
217.1352797222
 30
0.0
 11
265.9498994457
 21
217.1352797222
 31
0.0
  0
LINE
  5
19C
330
1F
100
AcDbEntity
  8
0
  6
Continuous
 62
     7
370
    15
100
AcDbLine
 10
272.1499000895
 20
217.1352797222
 30
0.0
 11
272.1499000895
 21
216.1352795582
 31
0.0
  0
LINE
  5
19D
330
1F
100
AcDbEntity
  8
0
  6
Continuous
 62
     7
370
    15
100
AcDbLine
 10
272.1499000895
 20
216.1352795582
 30
0.0
 11
265.9498994457
 21
216.1352795582
 31
0.0
  0
LINE
  5
19E
330
1F
100
AcDbEntity
  8
0
  6
Continuous
 62
     7
370
    15
100
AcDbLine
 10
265.9498994457
 20
217.1352797222
 30
0.0
 11
265.9498994457
 21
216.1352795582
 31
0.0
  0
LINE
  5
19F
330
1F
100
AcDbEntity
  8
0
  6
Continuous
 62
     7
370
    15
100
AcDbLine
 10
272.1499000895
 20
204.6352795359
 30
0.0
 11
272.1499000895
 21
203.635279372
 31
0.0
  0
LINE
  5
1A0
330
1F
100
AcDbEntity
  8
0
  6
Continuous
 62
     7
370
    15
100
AcDbLine
 10
272.1499000895
 20
203.635279372
 30
0.0
 11
265.9498994457
 21
203.635279372
 31
0.0
  0
LINE
  5
1A1
330
1F
100
AcDbEntity
  8
0
  6
Continuous
 62
     7
370
    15
100
AcDbLine
 10
265.9498994457
 20
204.6352795359
 30
0.0
 11
265.9498994457
 21
203.635279372
 31
0.0
  0
LINE
  5
1A2
330
1F
100
AcDbEntity
  8
0
  6
Continuous
 62
     7
370
    15
100
AcDbLine
 10
272.1499000895
 20
204.6352795359
 30
0.0
 11
265.9498994457
 21
204.6352795359
 31
0.0
  0
LWPOLYLINE
  5
1A3
330
1F
100
AcDbEntity
  8
0
  6
Continuous
 62
     7
370
    15
100
AcDbPolyline
 90
        3
 70
   128
 43
0.0
 10
265.8711915123
 20
204.0241410058
 10
265.8737694132
 20
204.0179630775
 10
265.9498994457
 20
203.635279372
  0
LWPOLYLINE
  5
1A4
330
1F
100
AcDbEntity
  8
0
  6
Continuous
 62
     7
370
    15
100
AcDbPolyline
 90
        3
 70
   128
 43
0.0
 10
265.9498994457
 20
217.1352797222
 10
265.8737694132
 20
216.7525960166
 10
265.8711915123
 20
216.7464180883
  0
LINE
  5
1A5
330
1F
100
AcDbEntity
  8
0
  6
Continuous
 62
     7
370
    15
100
AcDbLine
 10
272.1499000895
 20
216.1352795582
 30
0.0
 11
272.1499000895
 21
215.9852793474
 31
0.0
  0
LINE
  5
1A6
330
1F
100
AcDbEntity
  8
0
  6
Continuous
 62
     7
370
    15
100
AcDbLine
 10
272.1499000895
 20
215.1852797751
 30
0.0
 11
272.1499000895
 21
214.2852794413
 31
0.0
  0
LINE
  5
1A7
330
1F
100
AcDbEntity
  8
0
  6
Continuous
 62
     7
370
    15
100
AcDbLine
 10
272.1499000895
 20
205.6852796149
 30
0.0
 11
272.1499000895
 21
204.6352795359
 31
0.0
  0
LINE
  5
1A8
330
1F
100
AcDbEntity
  8
0
  6
Continuous
 62
     7
370
    15
100
AcDbLine
 10
109.1498938608
 20
395.3852819312
 30
0.0
 11
109.1498938608
 21
25.3852771629
 31
0.0
  0
LINE
  5
1A9
330
1F
100
AcDbEntity
  8
0
  6
Continuous
 62
     7
370
    15
100
AcDbLine
 10
109.1498938608
 20
395.3852819312
 30
0.0
 11
124.1498935255
 21
395.3852819312
 31
0.0
  0
LINE
  5
1AA
330
1F
100
AcDbEntity
  8
0
  6
Continuous
 62
     7
370
    15
100
AcDbLine
 10
124.1498935255
 20
395.3852819312
 30
0.0
 11
124.1498935255
 21
25.3852771629
 31
0.0
  0
LINE
  5
1AB
330
1F
100
AcDbEntity
  8
0
  6
Continuous
 62
     7
370
    15
100
AcDbLine
 10
124.1498935255
 20
25.3852771629
 30
0.0
 11
109.1498938608
 21
25.3852771629
 31
0.0
  0
ARC
  5
1AC
330
1F
100
AcDbEntity
  8
0
  6
Continuous
 62
     7
370
    15
100
AcDbCircle
 10
124.1498938429
 20
395.3852795471
 30
0.0
 40
15.0
100
AcDbArc
 50
90.0
 51
180.0
  0
LINE
  5
1AD
330
1F
100
AcDbEntity
  8
0
  6
Continuous
 62
     7
370
    15
100
AcDbLine
 10
124.1498935255
 20
410.3852825273
 30
0.0
 11
124.1498935255
 21
395.3852819312
 31
0.0
  0
LINE
  5
1AE
330
1F
100
AcDbEntity
  8
0
  6
Continuous
 62
     7
370
    15
100
AcDbLine
 10
124.1498935255
 20
25.3852771629
 30
0.0
 11
124.1498935255
 21
10.3852765668
 31
0.0
  0
ARC
  5
1AF
330
1F
100
AcDbEntity
  8
0
  6
Continuous
 62
     7
370
    15
100
AcDbCircle
 10
124.1498938429
 20
25.3852795471
 30
0.0
 40
15.00000000000001
100
AcDbArc
 50
180.0
 51
270.0
  0
LINE
  5
1B0
330
1F
100
AcDbEntity
  8
0
  6
Continuous
 62
     7
370
    15
100
AcDbLine
 10
265.1499008047
 20
30.3852723945
 30
0.0
 11
265.1499008047
 21
197.5727330927
 31
0.0
  0
LINE
  5
1B1
330
1F
100
AcDbEntity
  8
0
  6
Continuous
 62
     7
370
    15
100
AcDbLine
 10
265.1499008047
 20
200.9125191752
 30
0.0
 11
265.1499008047
 21
202.3852791671
 31
0.0
  0
LINE
  5
1B2
330
1F
100
AcDbEntity
  8
0
  6
Continuous
 62
     7
370
    15
100
AcDbLine
 10
265.1499008047
 20
218.385279927
 30
0.0
 11
265.1499008047
 21
219.8446819592
 31
0.0
  0
LINE
  5
1B3
330
1F
100
AcDbEntity
  8
0
  6
Continuous
 62
     7
370
    15
100
AcDbLine
 10
265.1499008047
 20
223.1873979826
 30
0.0
 11
265.1499008047
 21
390.3852866996
 31
0.0
  0
LINE
  5
1B4
330
1F
100
AcDbEntity
  8
0
  6
Continuous
 62
     7
370
    15
100
AcDbLine
 10
265.1499008047
 20
390.3852866996
 30
0.0
 11
129.1498934137
 21
390.3852866996
 31
0.0
  0
LINE
  5
1B5
330
1F
100
AcDbEntity
  8
0
  6
Continuous
 62
     7
370
    15
100
AcDbLine
 10
129.1498934137
 20
390.3852866996
 30
0.0
 11
129.1498934137
 21
30.3852723945
 31
0.0
  0
LINE
  5
1B6
330
1F
100
AcDbEntity
  8
0
  6
Continuous
 62
     7
370
    15
100
AcDbLine
 10
265.1499008047
 20
30.3852723945
 30
0.0
 11
129.1498934137
 21
30.3852723945
 31
0.0
  0
LINE
  5
1B7
330
1F
100
AcDbEntity
  8
0
  6
Continuous
 62
     7
370
    15
100
AcDbLine
 10
285.1498966324
 20
395.3852819312
 30
0.0
 11
124.1498935255
 21
395.3852819312
 31
0.0
  0
LINE
  5
1B8
330
1F
100
AcDbEntity
  8
0
  6
Continuous
 62
     7
370
    15
100
AcDbLine
 10
285.1498966324
 20
25.3852771629
 30
0.0
 11
285.1498966324
 21
201.3773720745
 31
0.0
  0
LINE
  5
1B9
330
1F
100
AcDbEntity
  8
0
  6
Continuous
 62
     7
370
    15
100
AcDbLine
 10
285.1498966324
 20
219.3612091277
 30
0.0
 11
285.1498966324
 21
395.3852819312
 31
0.0
  0
LINE
  5
1BA
330
1F
100
AcDbEntity
  8
0
  6
Continuous
 62
     7
370
    15
100
AcDbLine
 10
285.1498966324
 20
25.3852771629
 30
0.0
 11
124.1498935255
 21
25.3852771629
 31
0.0
  0
LINE
  5
1BB
330
1F
100
AcDbEntity
  8
0
  6
Continuous
 62
     7
370
    15
100
AcDbLine
 10
285.1498966324
 20
410.3852825273
 30
0.0
 11
285.1498966324
 21
395.3852819312
 31
0.0
  0
LINE
  5
1BC
330
1F
100
AcDbEntity
  8
0
  6
Continuous
 62
     7
370
    15
100
AcDbLine
 10
285.1498966324
 20
410.3852825273
 30
0.0
 11
124.1498935255
 21
410.3852825273
 31
0.0
  0
LINE
  5
1BD
330
1F
100
AcDbEntity
  8
0
  6
Continuous
 62
     7
370
    15
100
AcDbLine
 10
285.1498966324
 20
25.3852771629
 30
0.0
 11
285.1498966324
 21
10.3852765668
 31
0.0
  0
LINE
  5
1BE
330
1F
100
AcDbEntity
  8
0
  6
Continuous
 62
     7
370
    15
100
AcDbLine
 10
285.1498966324
 20
10.3852765668
 30
0.0
 11
124.1498935255
 21
10.3852765668
 31
0.0
  0
LINE
  5
1BF
330
1F
100
AcDbEntity
  8
0
  6
Continuous
 62
     7
370
    15
100
AcDbLine
 10
289.1498898375
 20
30.3852723945
 30
0.0
 11
285.1498966324
 21
30.3852723945
 31
0.0
  0
LINE
  5
1C0
330
1F
100
AcDbEntity
  8
0
  6
Continuous
 62
     7
370
    15
100
AcDbLine
 10
289.1498898375
 20
15.3852866996
 30
0.0
 11
285.1498966324
 21
15.3852866996
 31
0.0
  0
LINE
  5
1C1
330
1F
100
AcDbEntity
  8
0
  6
Continuous
 62
     7
370
    15
100
AcDbLine
 10
289.1498898375
 20
405.3852723945
 30
0.0
 11
285.1498966324
 21
405.3852723945
 31
0.0
  0
LINE
  5
1C2
330
1F
100
AcDbEntity
  8
0
  6
Continuous
 62
     7
370
    15
100
AcDbLine
 10
289.1498898375
 20
390.3852866996
 30
0.0
 11
285.1498966324
 21
390.3852866996
 31
0.0
  0
LINE
  5
1C3
330
1F
100
AcDbEntity
  8
0
  6
Continuous
 62
     7
370
    15
100
AcDbLine
 10
405.0181230161
 20
452.9639715834
 30
0.0
 11
406.2181135271
 21
452.9639715834
 31
0.0
  0
LINE
  5
1C4
330
1F
100
AcDbEntity
  8
0
  6
Continuous
 62
     7
370
    15
100
AcDbLine
 10
404.9181213234
 20
455.4639841004
 30
0.0
 11
405.0181230161
 21
455.4639841004
 31
0.0
  0
LINE
  5
1C5
330
1F
100
AcDbEntity
  8
0
  6
Continuous
 62
     7
370
    15
100
AcDbLine
 10
405.0181230161
 20
461.4639813586
 30
0.0
 11
404.9181213234
 21
461.4639813586
 31
0.0
  0
LINE
  5
1C6
330
1F
100
AcDbEntity
  8
0
  6
Continuous
 62
     7
370
    15
100
AcDbLine
 10
400.7698764656
 20
518.4639776631
 30
0.0
 11
400.0181128834
 21
518.1903625413
 31
0.0
  0
SPLINE
  5
1C7
330
1F
100
AcDbEntity
  8
0
  6
Continuous
 62
     7
370
    15
100
AcDbSpline
210
0.0
220
0.0
230
1.0
 70
     8
 71
     3
 72
    15
 73
    11
 74
     0
 42
0.00000001
 43
0.00000001
 40
0.0
 40
0.0
 40
0.0
 40
0.0
 40
0.1250744908534439
 40
0.2501516511228378
 40
0.3752905369655246
 40
0.5003037137735354
 40
0.6252871538054625
 40
0.7502619129788922
 40
0.8750782214338244
 40
1.0
 40
1.0
 40
1.0
 40
1.0
 10
403.8325568292349
 20
483.521812645965
 30
0.0
 10
403.806431832257
 20
483.7805741088515
 30
0.0
 10
403.7541812807255
 20
484.2981025572688
 30
0.0
 10
403.6753144546838
 20
485.0792147723474
 30
0.0
 10
403.6008860276715
 20
485.8163914093086
 30
0.0
 10
403.533873191617
 20
486.4799701118474
 30
0.0
 10
403.4777650953246
 20
487.035723778239
 30
0.0
 10
403.4352477919869
 20
487.4568346554149
 30
0.0
 10
403.4064150576501
 20
487.7424257083009
 30
0.0
 10
403.402073373062
 20
487.7854686268467
 30
0.0
 10
403.3999016139715
 20
487.8069991751246
 30
0.0
  0
SPLINE
  5
1C8
330
1F
100
AcDbEntity
  8
0
  6
Continuous
 62
     7
370
    15
100
AcDbSpline
210
0.0
220
0.0
230
1.0
 70
     8
 71
     3
 72
    15
 73
    11
 74
     0
 42
0.00000001
 43
0.00000001
 40
0.0
 40
0.0
 40
0.0
 40
0.0
 40
0.1249397767167318
 40
0.2497689847173243
 40
0.3747512199454847
 40
0.4997368869738697
 40
0.6247482698835928
 40
0.7498805649914205
 40
0.8749435345943479
 40
1.0
 40
1.0
 40
1.0
 40
1.0
 10
400.4156460616796
 20
487.505623189979
 30
0.0
 10
400.4178285010252
 20
487.484041861076
 30
0.0
 10
400.4221914483097
 20
487.44089830223
 30
0.0
 10
400.4510411399103
 20
487.1551913000371
 30
0.0
 10
400.4935456123351
 20
486.7340047758684
 30
0.0
 10
400.5496866290482
 20
486.1782371088653
 30
0.0
 10
400.6166698048439
 20
485.514702780419
 30
0.0
 10
400.6910922251956
 20
484.7776536758389
 30
0.0
 10
400.769919319643
 20
483.9967422916412
 30
0.0
 10
400.8221644766029
 20
483.4793894679912
 30
0.0
 10
400.8482863757818
 20
483.2207197828822
 30
0.0
  0
LINE
  5
1C9
330
1F
100
AcDbEntity
  8
0
  6
Continuous
 62
     7
370
    15
100
AcDbLine
 10
400.8480032537
 20
483.2205856724
 30
0.0
 11
402.4170806263
 21
467.6796133204
 31
0.0
  0
LINE
  5
1CA
330
1F
100
AcDbEntity
  8
0
  6
Continuous
 62
     7
370
    15
100
AcDbLine
 10
405.4019024227
 20
467.9809744044
 30
0.0
 11
403.8328250501
 21
483.5219467564
 31
0.0
  0
SPLINE
  5
1CB
330
1F
100
AcDbEntity
  8
0
  6
Continuous
 62
     7
370
    15
100
AcDbSpline
210
0.0
220
0.0
230
1.0
 70
     8
 71
     3
 72
     9
 73
     5
 74
     0
 42
0.00000001
 43
0.00000001
 40
0.0
 40
0.0
 40
0.0
 40
0.0
 40
0.4837390865861517
 40
1.0
 40
1.0
 40
1.0
 40
1.0
 10
402.5871624801366
 20
465.9982407970957
 30
0.0
 10
402.5966230458823
 20
465.9340087604089
 30
0.0
 10
402.6161802121482
 20
465.8012263608306
 30
0.0
 10
402.6500229548652
 20
465.7650846346508
 30
0.0
 10
402.6674946401327
 20
465.7464260740809
 30
0.0
  0
SPLINE
  5
1CC
330
1F
100
AcDbEntity
  8
0
  6
Continuous
 62
     7
370
    15
100
AcDbSpline
210
0.0
220
0.0
230
1.0
 70
     8
 71
     3
 72
    11
 73
     7
 74
     0
 42
0.00000001
 43
0.00000001
 40
0.0
 40
0.0
 40
0.0
 40
0.0
 40
0.2484457258028027
 40
0.4978886666714897
 40
0.7483890161532283
 40
1.0
 40
1.0
 40
1.0
 40
1.0
 10
402.4173488471716
 20
467.6797772331767
 30
0.0
 10
402.4353613118727
 20
467.5012999436448
 30
0.0
 10
402.4714585399677
 20
467.1436289898418
 30
0.0
 10
402.5184860231645
 20
466.6787970979794
 30
0.0
 10
402.5572772622018
 20
466.295913889153
 30
0.0
 10
402.5723219355878
 20
466.148625136761
 30
0.0
 10
402.5798609111517
 20
466.0748178644709
 30
0.0
  0
SPLINE
  5
1CD
330
1F
100
AcDbEntity
  8
0
  6
Continuous
 62
     7
370
    15
100
AcDbSpline
210
0.0
220
0.0
230
1.0
 70
     8
 71
     3
 72
    19
 73
    15
 74
     0
 42
0.00000001
 43
0.00000001
 40
0.0
 40
0.0
 40
0.0
 40
0.0
 40
0.0802803483764814
 40
0.1534415264773808
 40
0.2193422569831035
 40
0.2779478374550048
 40
0.3728452344858422
 40
0.4421543900382097
 40
0.5315382076406585
 40
0.6554823531518086
 40
0.7303549786638354
 40
0.8130804653018102
 40
0.9031428726135949
 40
0.9999999999999999
 40
0.9999999999999999
 40
0.9999999999999999
 40
0.9999999999999999
 10
402.6028086993902
 20
465.9155989571146
 30
0.0
 10
402.6381690638297
 20
465.7927249473049
 30
0.0
 10
402.7057540756803
 20
465.557873255566
 30
0.0
 10
402.9029828262732
 20
465.2634614183607
 30
0.0
 10
403.1278258616569
 20
465.0393286971505
 30
0.0
 10
403.4234912359152
 20
464.8462826437499
 30
0.0
 10
403.76544321134
 20
464.728391191567
 30
0.0
 10
404.1751994934853
 20
464.6985844783484
 30
0.0
 10
404.6142833090597
 20
464.8008934483357
 30
0.0
 10
405.00081384317
 20
465.0521254960178
 30
0.0
 10
405.2936531475983
 20
465.3928427088721
 30
0.0
 10
405.4744387668133
 20
465.7483050275929
 30
0.0
 10
405.5803324304483
 20
466.1752513513186
 30
0.0
 10
405.5480774516184
 20
466.4703154206833
 30
0.0
 10
405.5313637111395
 20
466.6232103987269
 30
0.0
  0
SPLINE
  5
1CE
330
1F
100
AcDbEntity
  8
0
  6
Continuous
 62
     7
370
    15
100
AcDbSpline
210
0.0
220
0.0
230
1.0
 70
     8
 71
     3
 72
    11
 73
     7
 74
     0
 42
0.00000001
 43
0.00000001
 40
0.0
 40
0.0
 40
0.0
 40
0.0
 40
0.2477430327809253
 40
0.4969487968449449
 40
0.7476801864263466
 40
0.9999999999999999
 40
0.9999999999999999
 40
0.9999999999999999
 40
0.9999999999999999
 10
405.5551310632436
 20
466.4555276318125
 30
0.0
 10
405.5486973438655
 20
466.5201534173063
 30
0.0
 10
405.5357919189648
 20
466.6497865536487
 30
0.0
 10
405.4998020591556
 20
467.0076603302697
 30
0.0
 10
405.4548513724874
 20
467.4539921501944
 30
0.0
 10
405.4194105610754
 20
467.8048549536649
 30
0.0
 10
405.4016342017858
 20
467.9808402939371
 30
0.0
  0
LINE
  5
1CF
330
1F
100
AcDbEntity
  8
0
  6
Continuous
 62
     7
370
    15
100
AcDbLine
 10
405.6854268167
 20
477.6356453581
 30
0.0
 11
405.6854119156
 21
477.9354716225
 31
0.0
  0
LINE
  5
1D0
330
1F
100
AcDbEntity
  8
0
  6
Continuous
 62
     7
370
    15
100
AcDbLine
 10
404.8854132745
 20
477.9354716225
 30
0.0
 11
404.8854132745
 21
477.6380891486
 31
0.0
  0
SPLINE
  5
1D1
330
1F
100
AcDbEntity
  8
0
  6
Continuous
 62
     7
370
    15
100
AcDbSpline
210
0.0
220
0.0
230
1.0
 70
    24
 71
     3
 72
    11
 73
     7
 74
     0
 42
0.00000001
 43
0.00000001
 40
0.0
 40
0.0
 40
0.0
 40
0.0
 40
0.0207833414794417
 40
0.3465559490330116
 40
0.6711464500042603
 40
0.9999999999999999
 40
0.9999999999999999
 40
0.9999999999999999
 40
0.9999999999999999
 10
404.8854132745474
 20
478.2217825336985
 30
0.0
 10
404.8854132745474
 20
478.2184608212028
 30
0.0
 10
404.8854132745477
 20
478.1630722674655
 30
0.0
 10
404.8854132745473
 20
478.0698398796899
 30
0.0
 10
404.8854132745474
 20
477.9571248946535
 30
0.0
 10
404.8854132745474
 20
477.922608137945
 30
0.0
 10
404.8854132745474
 20
477.9052371664576
 30
0.0
  0
SPLINE
  5
1D2
330
1F
100
AcDbEntity
  8
0
  6
Continuous
 62
     7
370
    15
100
AcDbSpline
210
0.0
220
0.0
230
1.0
 70
    24
 71
     3
 72
    11
 73
     7
 74
     0
 42
0.00000001
 43
0.00000001
 40
0.0
 40
0.0
 40
0.0
 40
0.0
 40
0.2504889765616955
 40
0.4977290265096876
 40
0.745885531908482
 40
1.0
 40
1.0
 40
1.0
 40
1.0
 10
405.6854268167227
 20
477.9027784748606
 30
0.0
 10
405.6854268167227
 20
477.9189957746918
 30
0.0
 10
405.6854268167227
 20
477.9512200304988
 30
0.0
 10
405.6854268167227
 20
478.0599957297492
 30
0.0
 10
405.6854268167227
 20
478.1988345107832
 30
0.0
 10
405.6854268167227
 20
478.3058587977853
 30
0.0
 10
405.6854268167227
 20
478.3600057049326
 30
0.0
  0
LINE
  5
1D3
330
1F
100
AcDbEntity
  8
0
  6
Continuous
 62
     7
370
    15
100
AcDbLine
 10
404.6786745641
 20
478.4639711066
 30
0.0
 11
404.8875888441
 21
478.2167459412
 31
0.0
  0
LINE
  5
1D4
330
1F
100
AcDbEntity
  8
0
  6
Continuous
 62
     7
370
    15
100
AcDbLine
 10
405.6854268167
 20
478.3600057049
 30
0.0
 11
405.6854268167
 21
478.4639711066
 31
0.0
  0
LINE
  5
1D5
330
1F
100
AcDbEntity
  8
0
  6
Continuous
 62
     7
370
    15
100
AcDbLine
 10
400.4090299461
 20
487.6020039006
 30
0.0
 11
400.3934135292
 21
488.0612278863
 31
0.0
  0
SPLINE
  5
1D6
330
1F
100
AcDbEntity
  8
0
  6
Continuous
 62
     7
370
    15
100
AcDbSpline
210
0.0
220
0.0
230
1.0
 70
     8
 71
     3
 72
    11
 73
     7
 74
     0
 42
0.00000001
 43
0.00000001
 40
0.0
 40
0.0
 40
0.0
 40
0.0
 40
0.120753840681348
 40
0.4133922179192047
 40
0.7063577392752752
 40
1.0
 40
1.0
 40
1.0
 40
1.0
 10
402.4416973445623
 20
467.4385572357706
 30
0.0
 10
402.4516206710621
 20
467.340262041388
 30
0.0
 10
402.4855924762463
 20
467.0037554078318
 30
0.0
 10
402.5329479623825
 20
466.5348348469898
 30
0.0
 10
402.5758344204332
 20
466.1100969787665
 30
0.0
 10
402.5833835572179
 20
466.0355548561296
 30
0.0
 10
402.5871624801367
 20
465.9982407970957
 30
0.0
  0
LINE
  5
1D7
330
1F
100
AcDbEntity
  8
0
  6
Continuous
 62
     7
370
    15
100
AcDbLine
 10
406.2181135271
 20
517.4639756365
 30
0.0
 11
405.9181233499
 21
517.4639756365
 31
0.0
  0
LINE
  5
1D8
330
1F
100
AcDbEntity
  8
0
  6
Continuous
 62
     7
370
    15
100
AcDbLine
 10
405.9181233499
 20
516.4639810606
 30
0.0
 11
405.8181216572
 21
516.4639810606
 31
0.0
  0
LINE
  5
1D9
330
1F
100
AcDbEntity
  8
0
  6
Continuous
 62
     7
370
    15
100
AcDbLine
 10
405.8181216572
 20
510.4639763518
 30
0.0
 11
405.9181233499
 21
510.4639763518
 31
0.0
  0
LINE
  5
1DA
330
1F
100
AcDbEntity
  8
0
  6
Continuous
 62
     7
370
    15
100
AcDbLine
 10
405.9181233499
 20
493.4639717026
 30
0.0
 11
405.8181216572
 21
493.4639717026
 31
0.0
  0
LINE
  5
1DB
330
1F
100
AcDbEntity
  8
0
  6
Continuous
 62
     7
370
    15
100
AcDbLine
 10
405.8181216572
 20
487.4639744444
 30
0.0
 11
405.9181233499
 21
487.4639744444
 31
0.0
  0
LINE
  5
1DC
330
1F
100
AcDbEntity
  8
0
  6
Continuous
 62
     7
370
    15
100
AcDbLine
 10
406.2181135271
 20
461.4639813586
 30
0.0
 11
406.2181135271
 21
456.4639712258
 31
0.0
  0
LINE
  5
1DD
330
1F
100
AcDbEntity
  8
0
  6
Continuous
 62
     7
370
    15
100
AcDbLine
 10
421.2181141231
 20
461.4639813586
 30
0.0
 11
421.2181141231
 21
456.4639712258
 31
0.0
  0
LINE
  5
1DE
330
1F
100
AcDbEntity
  8
0
  6
Continuous
 62
     7
370
    15
100
AcDbLine
 10
406.2181135271
 20
456.4639712258
 30
0.0
 11
421.2181141231
 21
456.4639712258
 31
0.0
  0
LINE
  5
1DF
330
1F
100
AcDbEntity
  8
0
  6
Continuous
 62
     7
370
    15
100
AcDbLine
 10
406.2181135271
 20
461.4639813586
 30
0.0
 11
421.2181141231
 21
461.4639813586
 31
0.0
  0
ARC
  5
1E0
330
1F
100
AcDbEntity
  8
0
  6
Continuous
 62
     7
370
    15
100
AcDbCircle
 10
421.2181165073
 20
456.4639773531
 30
0.0
 40
15.00000000000006
100
AcDbArc
 50
180.0
 51
270.0
  0
LINE
  5
1E1
330
1F
100
AcDbEntity
  8
0
  6
Continuous
 62
     7
370
    15
100
AcDbLine
 10
421.2181141231
 20
441.4639706297
 30
0.0
 11
421.2181141231
 21
456.4639712258
 31
0.0
  0
LINE
  5
1E2
330
1F
100
AcDbEntity
  8
0
  6
Continuous
 62
     7
370
    15
100
AcDbLine
 10
791.2181188915
 20
461.4639813586
 30
0.0
 11
791.2181188915
 21
456.4639712258
 31
0.0
  0
LINE
  5
1E3
330
1F
100
AcDbEntity
  8
0
  6
Continuous
 62
     7
370
    15
100
AcDbLine
 10
421.2181141231
 20
456.4639712258
 30
0.0
 11
791.2181188915
 21
456.4639712258
 31
0.0
  0
LINE
  5
1E4
330
1F
100
AcDbEntity
  8
0
  6
Continuous
 62
     7
370
    15
100
AcDbLine
 10
421.2181141231
 20
461.4639813586
 30
0.0
 11
791.2181188915
 21
461.4639813586
 31
0.0
  0
LINE
  5
1E5
330
1F
100
AcDbEntity
  8
0
  6
Continuous
 62
     7
370
    15
100
AcDbLine
 10
791.2181188915
 20
456.4639712258
 30
0.0
 11
791.2181188915
 21
441.4639706297
 31
0.0
  0
LINE
  5
1E6
330
1F
100
AcDbEntity
  8
0
  6
Continuous
 62
     7
370
    15
100
AcDbLine
 10
421.2181141231
 20
441.4639706297
 30
0.0
 11
791.2181188915
 21
441.4639706297
 31
0.0
  0
LINE
  5
1E7
330
1F
100
AcDbEntity
  8
0
  6
Continuous
 62
     7
370
    15
100
AcDbLine
 10
806.2181194875
 20
461.4639813586
 30
0.0
 11
806.2181194875
 21
456.4639712258
 31
0.0
  0
LINE
  5
1E8
330
1F
100
AcDbEntity
  8
0
  6
Continuous
 62
     7
370
    15
100
AcDbLine
 10
806.2181194875
 20
456.4639712258
 30
0.0
 11
791.2181188915
 21
456.4639712258
 31
0.0
  0
LINE
  5
1E9
330
1F
100
AcDbEntity
  8
0
  6
Continuous
 62
     7
370
    15
100
AcDbLine
 10
806.2181194875
 20
461.4639813586
 30
0.0
 11
791.2181188915
 21
461.4639813586
 31
0.0
  0
ARC
  5
1EA
330
1F
100
AcDbEntity
  8
0
  6
Continuous
 62
     7
370
    15
100
AcDbCircle
 10
791.2181165073
 20
456.4639773531
 30
0.0
 40
15.00000000000006
100
AcDbArc
 50
270.0
 51
0.0
  0
LINE
  5
1EB
330
1F
100
AcDbEntity
  8
0
  6
Continuous
 62
     7
370
    15
100
AcDbLine
 10
405.0181230161
 20
459.4817394896
 30
0.0
 11
406.2181135271
 21
459.4817394896
 31
0.0
  0
LINE
  5
1EC
330
1F
100
AcDbEntity
  8
0
  6
Continuous
 62
     7
370
    15
100
AcDbLine
 10
405.0181230161
 20
457.3777700348
 30
0.0
 11
406.2181135271
 21
457.3777700348
 31
0.0
  0
LINE
  5
1ED
330
1F
100
AcDbEntity
  8
0
  6
Continuous
 62
     7
370
    15
100
AcDbLine
 10
405.0181230161
 20
457.3777700348
 30
0.0
 11
405.0181230161
 21
459.4817394896
 31
0.0
  0
LINE
  5
1EE
330
1F
100
AcDbEntity
  8
0
  6
Continuous
 62
     7
370
    15
100
AcDbLine
 10
405.0181230161
 20
464.4639725371
 30
0.0
 11
406.2181135271
 21
464.4639725371
 31
0.0
  0
LINE
  5
1EF
330
1F
100
AcDbEntity
  8
0
  6
Continuous
 62
     7
370
    15
100
AcDbLine
 10
406.2181135271
 20
461.4639813586
 30
0.0
 11
406.2181135271
 21
464.4639725371
 31
0.0
  0
LINE
  5
1F0
330
1F
100
AcDbEntity
  8
0
  6
Continuous
 62
     7
370
    15
100
AcDbLine
 10
405.0181230161
 20
464.4639725371
 30
0.0
 11
405.0181230161
 21
459.4817394896
 31
0.0
  0
LINE
  5
1F1
330
1F
100
AcDbEntity
  8
0
  6
Continuous
 62
     7
370
    15
100
AcDbLine
 10
406.2181135271
 20
456.4639712258
 30
0.0
 11
406.2181135271
 21
452.9639715834
 31
0.0
  0
LINE
  5
1F2
330
1F
100
AcDbEntity
  8
0
  6
Continuous
 62
     7
370
    15
100
AcDbLine
 10
405.0181230161
 20
452.9639715834
 30
0.0
 11
405.0181230161
 21
457.3777700348
 31
0.0
  0
LINE
  5
1F3
330
1F
100
AcDbEntity
  8
0
  6
Continuous
 62
     7
370
    15
100
AcDbLine
 10
404.9181213234
 20
455.4639841004
 30
0.0
 11
404.9181213234
 21
461.4639813586
 31
0.0
  0
ARC
  5
1F4
330
1F
100
AcDbEntity
  8
0
  6
Continuous
 62
     7
370
    15
100
AcDbCircle
 10
403.4181165073
 20
466.1639773531
 30
0.0
 40
2.800000000000068
100
AcDbArc
 50
0.0
 51
45.4024529621
  0
LINE
  5
1F5
330
1F
100
AcDbEntity
  8
0
  6
Continuous
 62
     7
370
    15
100
AcDbLine
 10
402.3104628179
 20
468.7355692072
 30
0.0
 11
401.7135819051
 21
468.3853621169
 31
0.0
  0
LINE
  5
1F6
330
1F
100
AcDbEntity
  8
0
  6
Continuous
 62
     7
370
    15
100
AcDbLine
 10
398.9006599043
 20
464.7143567486
 30
0.0
 11
402.4440964315
 21
467.4333418294
 31
0.0
  0
LINE
  5
1F7
330
1F
100
AcDbEntity
  8
0
  6
Continuous
 62
     7
370
    15
100
AcDbLine
 10
398.1701453779
 20
465.6663919373
 30
0.0
 11
398.9006599043
 21
464.7143567486
 31
0.0
  0
LINE
  5
1F8
330
1F
100
AcDbEntity
  8
0
  6
Continuous
 62
     7
370
    15
100
AcDbLine
 10
401.7135819051
 20
468.3853621169
 30
0.0
 11
398.1701453779
 21
465.6663919373
 31
0.0
  0
LINE
  5
1F9
330
1F
100
AcDbEntity
  8
0
  6
Continuous
 62
     7
370
    15
100
AcDbLine
 10
406.2181135271
 20
464.4639725371
 30
0.0
 11
406.2181135271
 21
465.4639745637
 31
0.0
  0
LINE
  5
1FA
330
1F
100
AcDbEntity
  8
0
  6
Continuous
 62
     7
370
    15
100
AcDbLine
 10
405.0181230161
 20
465.1049161835
 30
0.0
 11
405.0181230161
 21
464.4639725371
 31
0.0
  0
LINE
  5
1FB
330
1F
100
AcDbEntity
  8
0
  6
Continuous
 62
     7
370
    15
100
AcDbLine
 10
397.9486247156
 20
463.9838422223
 30
0.0
 11
397.2181101892
 21
464.9358774109
 31
0.0
  0
LWPOLYLINE
  5
1FC
330
1F
100
AcDbEntity
  8
0
  6
Continuous
 62
     7
370
    15
100
AcDbPolyline
 90
        9
 70
   128
 43
0.0
 10
397.2181101892
 20
464.9358774109
 10
397.2364088152
 20
464.9499143048
 10
397.2905894373
 20
464.9914736434
 10
397.378565893
 20
465.0589908047
 10
397.4969556186
 20
465.1498282834
 10
397.6412286613
 20
465.2605290099
 10
397.8058119867
 20
465.3868312522
 10
397.9844024036
 20
465.5238772317
 10
398.1701453779
 20
465.6663919373
  0
LWPOLYLINE
  5
1FD
330
1F
100
AcDbEntity
  8
0
  6
Continuous
 62
     7
370
    15
100
AcDbPolyline
 90
        9
 70
   128
 43
0.0
 10
398.9006599043
 20
464.7143567486
 10
398.71491693
 20
464.571842043
 10
398.5363265131
 20
464.4348109646
 10
398.3717431877
 20
464.3085087224
 10
398.227470145
 20
464.1978079958
 10
398.1090804193
 20
464.1069556161
 10
398.0211039636
 20
464.0394533558
 10
397.9669233415
 20
463.9978791161
 10
397.9486247156
 20
463.9838422223
  0
ARC
  5
1FE
330
1F
100
AcDbEntity
  8
0
  6
Continuous
 62
     7
370
    15
100
AcDbCircle
 10
401.3181165073
 20
481.4839773531
 30
0.0
 40
2.200000000000032
100
AcDbArc
 50
103.5934783353
 51
268.1042765976
  0
LINE
  5
1FF
330
1F
100
AcDbEntity
  8
0
  6
Continuous
 62
     7
370
    15
100
AcDbLine
 10
397.7712859962
 20
482.8617508097
 30
0.0
 11
398.1049378965
 21
484.7539747639
 31
0.0
  0
LWPOLYLINE
  5
200
330
1F
100
AcDbEntity
  8
0
  6
Continuous
 62
     7
370
    15
100
AcDbPolyline
 90
        9
 70
   128
 43
0.0
 10
398.1049378965
 20
484.7539747639
 10
397.9606946562
 20
484.7794110461
 10
397.8236635778
 20
484.8035807295
 10
397.6985534284
 20
484.8256344481
 10
397.5897004459
 20
484.8448271437
 10
397.500874624
 20
484.8604882641
 10
397.435145602
 20
484.8720813675
 10
397.3947783563
 20
484.8792041226
 10
397.381158695
 20
484.8816032095
  0
LINE
  5
201
330
1F
100
AcDbEntity
  8
0
  6
Continuous
 62
     7
370
    15
100
AcDbLine
 10
397.381158695
 20
484.8816032095
 30
0.0
 11
401.7561992262
 21
509.6937055274
 31
0.0
  0
LWPOLYLINE
  5
202
330
1F
100
AcDbEntity
  8
0
  6
Continuous
 62
     7
370
    15
100
AcDbPolyline
 90
        9
 70
   128
 43
0.0
 10
401.7561992262
 20
509.6937055274
 10
401.7713388059
 20
509.6910382195
 10
401.8161764
 20
509.6831406041
 10
401.8889834736
 20
509.6702958031
 10
401.9869586084
 20
509.6530253573
 10
402.1063467119
 20
509.6319700165
 10
402.2425582264
 20
509.6079493447
 10
402.3903479431
 20
509.5818872138
 10
402.5440534208
 20
509.5547969027
  0
LINE
  5
203
330
1F
100
AcDbEntity
  8
0
  6
Continuous
 62
     7
370
    15
100
AcDbLine
 10
402.5440534208
 20
509.5547969027
 30
0.0
 11
397.7187146995
 21
482.1889931841
 31
0.0
  0
LINE
  5
204
330
1F
100
AcDbEntity
  8
0
  6
Continuous
 62
     7
370
    15
100
AcDbLine
 10
397.7187146995
 20
482.1889931841
 30
0.0
 11
397.7712859962
 21
482.8617508097
 31
0.0
  0
LWPOLYLINE
  5
205
330
1F
100
AcDbEntity
  8
0
  6
Continuous
 62
     7
370
    15
100
AcDbPolyline
 90
        5
 70
   128
 43
0.0
 10
400.6035050009
 20
516.5820355101
 10
400.3500213478
 20
517.2784412785
 10
400.1664688442
 20
517.782756178
 10
400.055335984
 20
518.0881107731
 10
400.0181128834
 20
518.1903625413
  0
LWPOLYLINE
  5
206
330
1F
100
AcDbEntity
  8
0
  6
Continuous
 62
     7
370
    15
100
AcDbPolyline
 90
        5
 70
   128
 43
0.0
 10
401.363121495
 20
516.8340215965
 10
401.1062850807
 20
517.5396958871
 10
400.9202440832
 20
518.0508131667
 10
400.8075913046
 20
518.3603251858
 10
400.7698764656
 20
518.4639776631
  0
LINE
  5
207
330
1F
100
AcDbEntity
  8
0
  6
Continuous
 62
     7
370
    15
100
AcDbLine
 10
401.5852233026
 20
516.4795751257
 30
0.0
 11
401.363121495
 21
516.8340215965
 31
0.0
  0
LINE
  5
208
330
1F
100
AcDbEntity
  8
0
  6
Continuous
 62
     7
370
    15
100
AcDbLine
 10
401.5030284975
 20
516.4496610447
 30
0.0
 11
401.5852233026
 21
516.4795751257
 31
0.0
  0
SPLINE
  5
209
330
1F
100
AcDbEntity
  8
0
  6
Continuous
 62
     7
370
    15
100
AcDbSpline
210
0.0
220
0.0
230
1.0
 70
     8
 71
     3
 72
    12
 73
     8
 74
     0
 42
0.00000001
 43
0.00000001
 40
0.0
 40
0.0
 40
0.0
 40
0.0
 40
0.2510219938737357
 40
0.5023977523608443
 40
0.7402766005126201
 40
0.9473072801081994
 40
1.0
 40
1.0
 40
1.0
 40
1.0
 10
400.6035050008505
 20
516.582035510116
 30
0.0
 10
400.6312138348936
 20
516.5377177642844
 30
0.0
 10
400.6866705529645
 20
516.4490198157424
 30
0.0
 10
400.8936685767477
 20
516.3740271629814
 30
0.0
 10
401.1550567537765
 20
516.3625327959031
 30
0.0
 10
401.3716396901198
 20
516.404178850221
 30
0.0
 10
401.4808682016625
 20
516.4419899278852
 30
0.0
 10
401.5030284974783
 20
516.4496610446505
 30
0.0
  0
LINE
  5
20A
330
1F
100
AcDbEntity
  8
0
  6
Continuous
 62
     7
370
    15
100
AcDbLine
 10
401.5030284975
 20
516.4496610447
 30
0.0
 11
402.079360709
 21
514.8661742492
 31
0.0
  0
LWPOLYLINE
  5
20B
330
1F
100
AcDbEntity
  8
0
  6
Continuous
 62
     7
370
    15
100
AcDbPolyline
 90
        9
 70
   128
 43
0.0
 10
401.3276120279
 20
514.5925591274
 10
401.3420512531
 20
514.5978192373
 10
401.3848324869
 20
514.6133835002
 10
401.4543017004
 20
514.6386707707
 10
401.5477915857
 20
514.6726975723
 10
401.661710963
 20
514.7141600533
 10
401.791678891
 20
514.7614637895
 10
401.9327034805
 20
514.8127982898
 10
402.079360709
 20
514.8661742492
  0
LINE
  5
20C
330
1F
100
AcDbEntity
  8
0
  6
Continuous
 62
     7
370
    15
100
AcDbLine
 10
401.3276120279
 20
514.5925591274
 30
0.0
 11
400.6035050009
 21
516.5820355101
 31
0.0
  0
ARC
  5
20D
330
1F
100
AcDbEntity
  8
0
  6
Continuous
 62
     7
370
    15
100
AcDbCircle
 10
402.4208309787
 20
515.6760422075
 30
0.0
 40
0.5
100
AcDbArc
 50
36.8410865502
 51
90.0
  0
ARC
  5
20E
330
1F
100
AcDbEntity
  8
0
  6
Continuous
 62
     7
370
    15
100
AcDbCircle
 10
395.2181165073
 20
510.2796633991
 30
0.0
 40
9.5
100
AcDbArc
 50
0.0
 51
36.8410865502
  0
LINE
  5
20F
330
1F
100
AcDbEntity
  8
0
  6
Continuous
 62
     7
370
    15
100
AcDbLine
 10
404.7181179378
 20
510.279663889
 30
0.0
 11
404.7181179378
 21
482.2539771481
 31
0.0
  0
ARC
  5
210
330
1F
100
AcDbEntity
  8
0
  6
Continuous
 62
     7
370
    15
100
AcDbCircle
 10
392.4005294668
 20
511.3433678214
 30
0.0
 40
10.30000000000009
100
AcDbArc
 50
350.0
 51
20.0
  0
ARC
  5
211
330
1F
100
AcDbEntity
  8
0
  6
Continuous
 62
     7
370
    15
100
AcDbCircle
 10
402.3028184331
 20
517.1760422075
 30
0.0
 40
1.000000000000066
100
AcDbArc
 50
224.1440002858
 51
270.0
  0
LINE
  5
212
330
1F
100
AcDbEntity
  8
0
  6
Continuous
 62
     7
370
    15
100
AcDbLine
 10
402.3028185222
 20
516.1760459228
 30
0.0
 11
402.4208357189
 21
516.1760459228
 31
0.0
  0
ARC
  5
213
330
1F
100
AcDbEntity
  8
0
  6
Continuous
 62
     7
370
    15
100
AcDbCircle
 10
401.9081220135
 20
487.6529682716
 30
0.0
 40
1.60000000000005
100
AcDbArc
 50
347.034367059
 51
204.5705045339
  0
LWPOLYLINE
  5
214
330
1F
100
AcDbEntity
  8
0
  6
Continuous
 62
     7
370
    15
100
AcDbPolyline
 90
        3
 70
   128
 43
0.0
 10
404.7181179378
 20
482.2539771481
 10
404.5095016811
 20
481.0637021943
 10
404.1533341263
 20
480.3475374861
  0
ARC
  5
215
330
1F
100
AcDbEntity
  8
0
  6
Continuous
 62
     7
370
    15
100
AcDbCircle
 10
401.2181165073
 20
482.2539773531
 30
0.0
 40
3.499999999999999
100
AcDbArc
 50
181.0639402281
 51
271.3221928089
  0
ARC
  5
216
330
1F
100
AcDbEntity
  8
0
  6
Continuous
 62
     7
370
    15
100
AcDbCircle
 10
392.4005294668
 20
511.3433678214
 30
0.0
 40
9.500000000000009
100
AcDbArc
 50
350.0
 51
20.0
  0
ARC
  5
217
330
1F
100
AcDbEntity
  8
0
  6
Continuous
 62
     7
370
    15
100
AcDbCircle
 10
401.8117343007
 20
482.9514728799
 30
0.0
 40
4.698428302688381
100
AcDbArc
 50
170.0
 51
264.3261771657
  0
LINE
  5
218
330
1F
100
AcDbEntity
  8
0
  6
Continuous
 62
     7
370
    15
100
AcDbLine
 10
397.381158695
 20
484.8816032095
 30
0.0
 11
397.1846868847
 21
483.767339079
 31
0.0
  0
SPLINE
  5
219
330
1F
100
AcDbEntity
  8
0
  6
Continuous
 62
     7
370
    15
100
AcDbSpline
210
0.0
220
0.0
230
1.0
 70
     8
 71
     3
 72
    12
 73
     8
 74
     0
 42
0.00000001
 43
0.00000001
 40
0.0
 40
0.0
 40
0.0
 40
0.0
 40
0.2340515605559213
 40
0.4681081209014387
 40
0.7021649452951938
 40
0.9362191094033155
 40
1.0
 40
1.0
 40
1.0
 40
1.0
 10
402.5151004646032
 20
483.1410879774622
 30
0.0
 10
402.3187075512414
 20
483.1217092925049
 30
0.0
 10
401.9259175291892
 20
483.0829515086243
 30
0.0
 10
401.3884190773697
 20
483.0776952096447
 30
0.0
 10
401.0149169282998
 20
483.1161781467063
 30
0.0
 10
400.8357241490867
 20
483.1708383523981
 30
0.0
 10
400.8644432627885
 20
483.2147936906866
 30
0.0
 10
400.870593414089
 20
483.2242066546015
 30
0.0
  0
SPLINE
  5
21A
330
1F
100
AcDbEntity
  8
0
  6
Continuous
 62
     7
370
    15
100
AcDbSpline
210
0.0
220
0.0
230
1.0
 70
     8
 71
     3
 72
    11
 73
     7
 74
     0
 42
0.00000001
 43
0.00000001
 40
0.0
 40
0.0
 40
0.0
 40
0.0
 40
0.1986873774642295
 40
0.4657927742637199
 40
0.732895501362279
 40
1.0
 40
1.0
 40
1.0
 40
1.0
 10
403.8110097501486
 20
483.5199798031382
 30
0.0
 10
403.809827029298
 20
483.4954862242372
 30
0.0
 10
403.8070543175478
 20
483.4380646999636
 30
0.0
 10
403.5375146318716
 20
483.3309908060503
 30
0.0
 10
403.0904660218882
 20
483.2201675572837
 30
0.0
 10
402.7068894077041
 20
483.1674478956791
 30
0.0
 10
402.5151004646032
 20
483.1410879774622
 30
0.0
  0
SPLINE
  5
21B
330
1F
100
AcDbEntity
  8
0
  6
Continuous
 62
     7
370
    15
100
AcDbSpline
210
0.0
220
0.0
230
1.0
 70
     8
 71
     3
 72
    12
 73
     8
 74
     0
 42
0.00000001
 43
0.00000001
 40
0.0
 40
0.0
 40
0.0
 40
0.0
 40
0.2339647271648549
 40
0.4679283139645976
 40
0.7018968537062504
 40
0.9358627429943501
 40
1.0
 40
1.0
 40
1.0
 40
1.0
 10
401.908116564533
 20
489.1529614611201
 30
0.0
 10
401.7120363608057
 20
489.1304584491373
 30
0.0
 10
401.3198769090637
 20
489.0854525348533
 30
0.0
 10
400.8169426532805
 20
488.7379608915751
 30
0.0
 10
400.4971350541492
 20
488.2444687103513
 30
0.0
 10
400.3692057315837
 20
487.7908828636525
 30
0.0
 10
400.4269949037749
 20
487.5478898534008
 30
0.0
 10
400.439428314945
 20
487.4956096096568
 30
0.0
  0
SPLINE
  5
21C
330
1F
100
AcDbEntity
  8
0
  6
Continuous
 62
     7
370
    15
100
AcDbSpline
210
0.0
220
0.0
230
1.0
 70
     8
 71
     3
 72
    11
 73
     7
 74
     0
 42
0.00000001
 43
0.00000001
 40
0.0
 40
0.0
 40
0.0
 40
0.0
 40
0.1976852097385363
 40
0.4651245869200603
 40
0.7325583026066619
 40
1.0
 40
1.0
 40
1.0
 40
1.0
 10
403.378339633724
 20
487.8026778383784
 30
0.0
 10
403.360058769058
 20
487.9474260737675
 30
0.0
 10
403.3170465495929
 20
488.2879976485547
 30
0.0
 10
402.9915930339446
 20
488.7377733466502
 30
0.0
 10
402.4982950349886
 20
489.0855024448485
 30
0.0
 10
402.1048446784461
 20
489.1304748986616
 30
0.0
 10
401.908116564533
 20
489.1529614611201
 30
0.0
  0
SPLINE
  5
21D
330
1F
100
AcDbEntity
  8
0
  6
Continuous
 62
     7
370
    15
100
AcDbSpline
210
0.0
220
0.0
230
1.0
 70
     8
 71
     3
 72
    12
 73
     8
 74
     0
 42
0.00000001
 43
0.00000001
 40
0.0
 40
0.0
 40
0.0
 40
0.0
 40
0.2350180651877457
 40
0.4700294070451341
 40
0.7050460332707806
 40
0.9400624625516104
 40
1.0
 40
1.0
 40
1.0
 40
1.0
 10
404.0841778371541
 20
467.6001305265955
 30
0.0
 10
403.8877871603503
 20
467.5807462742504
 30
0.0
 10
403.4950114250315
 20
467.5419783240993
 30
0.0
 10
402.9574028088796
 20
467.5367149454017
 30
0.0
 10
402.5843372942858
 20
467.5752393274858
 30
0.0
 10
402.4052958699315
 20
467.6293604315199
 30
0.0
 10
402.4331964521264
 20
467.6726618015265
 30
0.0
 10
402.4388661239355
 20
467.6814610643916
 30
0.0
  0
SPLINE
  5
21E
330
1F
100
AcDbEntity
  8
0
  6
Continuous
 62
     7
370
    15
100
AcDbSpline
210
0.0
220
0.0
230
1.0
 70
     8
 71
     3
 72
    11
 73
     7
 74
     0
 42
0.00000001
 43
0.00000001
 40
0.0
 40
0.0
 40
0.0
 40
0.0
 40
0.1989250980717726
 40
0.4659516698545062
 40
0.7329753060758109
 40
1.0
 40
1.0
 40
1.0
 40
1.0
 10
405.3801318261831
 20
467.9791266603999
 30
0.0
 10
405.378958156024
 20
467.9545942515995
 30
0.0
 10
405.3762090128749
 20
467.8971308296536
 30
0.0
 10
405.1066015926958
 20
467.7900209710011
 30
0.0
 10
404.6595418311719
 20
467.679191007924
 30
0.0
 10
404.2759660883889
 20
467.6264840551677
 30
0.0
 10
404.0841778371542
 20
467.6001305265955
 30
0.0
  0
ARC
  5
21F
330
1F
100
AcDbEntity
  8
0
  6
Continuous
 62
     7
370
    15
100
AcDbCircle
 10
405.2854056557
 20
477.9017499323
 30
0.0
 40
0.4000075821846528
100
AcDbArc
 50
0.1473252397
 51
179.5004936418
  0
ELLIPSE
  5
220
330
1F
100
AcDbEntity
  8
0
  6
Continuous
 62
     7
370
    15
100
AcDbEllipse
 10
405.2854159076
 20
477.6368689594
 30
0.0
 11
0.3991830274372887
 21
-0.02624604221148274
 31
0.0
210
0.0
220
0.0
230
0.9999999999999998
 40
0.9763157485
 41
0.0
 42
6.283185307179586
  0
SPLINE
  5
221
330
1F
100
AcDbEntity
  8
0
  6
Continuous
 62
     7
370
    15
100
AcDbSpline
210
0.0
220
0.0
230
1.0
 70
     8
 71
     3
 72
    13
 73
     9
 74
     0
 42
0.00000001
 43
0.00000001
 40
0.0
 40
0.0
 40
0.0
 40
0.0
 40
0.0081675122012609
 40
0.2391521492050921
 40
0.4710962406467845
 40
0.6931204460156718
 40
0.9042211429553025
 40
1.0
 40
1.0
 40
1.0
 40
1.0
 10
405.285420045635
 20
478.3656979485087
 30
0.0
 10
405.2837611336562
 20
478.3653056821004
 30
0.0
 10
405.2351866895304
 20
478.3538197666477
 30
0.0
 10
405.1390763990503
 20
478.3305312119705
 30
0.0
 10
405.01623498228
 20
478.2869130599776
 30
0.0
 10
404.9305855067599
 20
478.2494580869304
 30
0.0
 10
404.8865666562343
 20
478.2283282774692
 30
0.0
 10
404.8897987423958
 20
478.2233395453979
 30
0.0
 10
404.8908074948995
 20
478.2217825336985
 30
0.0
  0
SPLINE
  5
222
330
1F
100
AcDbEntity
  8
0
  6
Continuous
 62
     7
370
    15
100
AcDbSpline
210
0.0
220
0.0
230
1.0
 70
     8
 71
     3
 72
    13
 73
     9
 74
     0
 42
0.00000001
 43
0.00000001
 40
0.0
 40
0.0
 40
0.0
 40
0.0
 40
0.1252297192566914
 40
0.2499794716954448
 40
0.4999946997916861
 40
0.7499963695940145
 40
0.8747539216498604
 40
0.9999999999999999
 40
0.9999999999999999
 40
0.9999999999999999
 40
0.9999999999999999
 10
405.6854268167227
 20
478.3600057049326
 30
0.0
 10
405.6837123876468
 20
478.3600355512092
 30
0.0
 10
405.6802901003721
 20
478.3600951293707
 30
0.0
 10
405.6459114293878
 20
478.3605695272641
 30
0.0
 10
405.5706306003544
 20
478.3616417609918
 30
0.0
 10
405.461981735801
 20
478.3631760774549
 30
0.0
 10
405.3632711383013
 20
478.3646094449913
 30
0.0
 10
405.3114041938547
 20
478.3653346416395
 30
0.0
 10
405.285420045635
 20
478.3656979485087
 30
0.0
  0
SPLINE
  5
223
330
1F
100
AcDbEntity
  8
0
  6
Continuous
 62
     7
370
    15
100
AcDbSpline
210
0.0
220
0.0
230
1.0
 70
     8
 71
     3
 72
    10
 73
     6
 74
     0
 42
0.00000001
 43
0.00000001
 40
0.0
 40
0.0
 40
0.0
 40
0.0
 40
0.0190228700517773
 40
0.5253207342098283
 40
1.0
 40
1.0
 40
1.0
 40
1.0
 10
405.285420045635
 20
478.3656979485087
 30
0.0
 10
405.2869443738933
 20
478.366438172581
 30
0.0
 10
405.3290390335161
 20
478.3868796229031
 30
0.0
 10
405.4115971822456
 20
478.4252124350389
 30
0.0
 10
405.4817445105729
 20
478.4513321776391
 30
0.0
 10
405.5156876895635
 20
478.4639711065821
 30
0.0
  0
LINE
  5
224
330
1F
100
AcDbEntity
  8
0
  6
Continuous
 62
     7
370
    15
100
AcDbLine
 10
400.4088958357
 20
487.6049394293
 30
0.0
 11
400.4213532064
 21
487.4541694804
 31
0.0
  0
LINE
  5
225
330
1F
100
AcDbEntity
  8
0
  6
Continuous
 62
     7
370
    15
100
AcDbLine
 10
403.4011235092
 20
487.7976710482
 30
0.0
 11
403.3655395363
 21
488.0078370257
 31
0.0
  0
LINE
  5
226
330
1F
100
AcDbEntity
  8
0
  6
Continuous
 62
     7
370
    15
100
AcDbLine
 10
421.2181141231
 20
626.4639776705
 30
0.0
 11
421.2181141231
 21
641.4639773353
 31
0.0
  0
LINE
  5
227
330
1F
100
AcDbEntity
  8
0
  6
Continuous
 62
     7
370
    15
100
AcDbLine
 10
421.2181141231
 20
626.4639776705
 30
0.0
 11
406.2181135271
 21
626.4639776705
 31
0.0
  0
ARC
  5
228
330
1F
100
AcDbEntity
  8
0
  6
Continuous
 62
     7
370
    15
100
AcDbCircle
 10
421.2181165073
 20
626.4639773531
 30
0.0
 40
15.00000000000006
100
AcDbArc
 50
90.0
 51
180.0
  0
LINE
  5
229
330
1F
100
AcDbEntity
  8
0
  6
Continuous
 62
     7
370
    15
100
AcDbLine
 10
791.2181188915
 20
626.4639776705
 30
0.0
 11
806.2181194875
 21
626.4639776705
 31
0.0
  0
LINE
  5
22A
330
1F
100
AcDbEntity
  8
0
  6
Continuous
 62
     7
370
    15
100
AcDbLine
 10
791.2181188915
 20
626.4639776705
 30
0.0
 11
791.2181188915
 21
641.4639773353
 31
0.0
  0
ARC
  5
22B
330
1F
100
AcDbEntity
  8
0
  6
Continuous
 62
     7
370
    15
100
AcDbCircle
 10
791.2181165073
 20
626.4639773531
 30
0.0
 40
15.0
100
AcDbArc
 50
0.0
 51
90.0
  0
LINE
  5
22C
330
1F
100
AcDbEntity
  8
0
  6
Continuous
 62
     7
370
    15
100
AcDbLine
 10
421.2181141231
 20
626.4639776705
 30
0.0
 11
791.2181188915
 21
626.4639776705
 31
0.0
  0
LINE
  5
22D
330
1F
100
AcDbEntity
  8
0
  6
Continuous
 62
     7
370
    15
100
AcDbLine
 10
421.2181141231
 20
641.4639773353
 30
0.0
 11
791.2181188915
 21
641.4639773353
 31
0.0
  0
LINE
  5
22E
330
1F
100
AcDbEntity
  8
0
  6
Continuous
 62
     7
370
    15
100
AcDbLine
 10
791.2181188915
 20
465.4639745637
 30
0.0
 11
791.2181188915
 21
626.4639776705
 31
0.0
  0
LINE
  5
22F
330
1F
100
AcDbEntity
  8
0
  6
Continuous
 62
     7
370
    15
100
AcDbLine
 10
791.2181188915
 20
465.4639745637
 30
0.0
 11
421.2181141231
 21
465.4639745637
 31
0.0
  0
LINE
  5
230
330
1F
100
AcDbEntity
  8
0
  6
Continuous
 62
     7
370
    15
100
AcDbLine
 10
421.2181141231
 20
465.4639745637
 30
0.0
 11
421.2181141231
 21
626.4639776705
 31
0.0
  0
LINE
  5
231
330
1F
100
AcDbEntity
  8
0
  6
Continuous
 62
     7
370
    15
100
AcDbLine
 10
786.2181236599
 20
621.4639777823
 30
0.0
 11
786.2181236599
 21
485.4639703913
 31
0.0
  0
LINE
  5
232
330
1F
100
AcDbEntity
  8
0
  6
Continuous
 62
     7
370
    15
100
AcDbLine
 10
786.2181236599
 20
621.4639777823
 30
0.0
 11
426.2181093548
 21
621.4639777823
 31
0.0
  0
LINE
  5
233
330
1F
100
AcDbEntity
  8
0
  6
Continuous
 62
     7
370
    15
100
AcDbLine
 10
426.2181093548
 20
485.4639703913
 30
0.0
 11
426.2181093548
 21
621.4639777823
 31
0.0
  0
LINE
  5
234
330
1F
100
AcDbEntity
  8
0
  6
Continuous
 62
     7
370
    15
100
AcDbLine
 10
426.2181093548
 20
485.4639703913
 30
0.0
 11
786.2181236599
 21
485.4639703913
 31
0.0
  0
LINE
  5
235
330
1F
100
AcDbEntity
  8
0
  6
Continuous
 62
     7
370
    15
100
AcDbLine
 10
806.2181194875
 20
465.4639745637
 30
0.0
 11
806.2181194875
 21
626.4639776705
 31
0.0
  0
LINE
  5
236
330
1F
100
AcDbEntity
  8
0
  6
Continuous
 62
     7
370
    15
100
AcDbLine
 10
806.2181194875
 20
465.4639745637
 30
0.0
 11
791.2181188915
 21
465.4639745637
 31
0.0
  0
LINE
  5
237
330
1F
100
AcDbEntity
  8
0
  6
Continuous
 62
     7
370
    15
100
AcDbLine
 10
421.2181141231
 20
465.4639745637
 30
0.0
 11
406.2181135271
 21
465.4639745637
 31
0.0
  0
LINE
  5
238
330
1F
100
AcDbEntity
  8
0
  6
Continuous
 62
     7
370
    15
100
AcDbLine
 10
406.2181135271
 20
465.4639745637
 30
0.0
 11
406.2181135271
 21
626.4639776705
 31
0.0
  0
LINE
  5
239
330
1F
100
AcDbEntity
  8
0
  6
Continuous
 62
     7
370
    15
100
AcDbLine
 10
426.2181093548
 20
461.4639813586
 30
0.0
 11
426.2181093548
 21
465.4639745637
 31
0.0
  0
LINE
  5
23A
330
1F
100
AcDbEntity
  8
0
  6
Continuous
 62
     7
370
    15
100
AcDbLine
 10
411.2181236599
 20
461.4639813586
 30
0.0
 11
411.2181236599
 21
465.4639745637
 31
0.0
  0
LINE
  5
23B
330
1F
100
AcDbEntity
  8
0
  6
Continuous
 62
     7
370
    15
100
AcDbLine
 10
786.2181236599
 20
461.4639813586
 30
0.0
 11
786.2181236599
 21
465.4639745637
 31
0.0
  0
LINE
  5
23C
330
1F
100
AcDbEntity
  8
0
  6
Continuous
 62
     7
370
    15
100
AcDbLine
 10
801.2181093548
 20
461.4639813586
 30
0.0
 11
801.2181093548
 21
465.4639745637
 31
0.0
  0
LINE
  5
23D
330
1F
100
AcDbEntity
  8
0
  6
Continuous
 62
     7
370
    15
100
AcDbLine
 10
806.2181194875
 20
465.4639745637
 30
0.0
 11
806.8854381893
 21
465.4639745637
 31
0.0
  0
ARC
  5
23E
330
1F
100
AcDbEntity
  8
0
  6
Continuous
 62
     7
370
    15
100
AcDbCircle
 10
806.8854342554
 20
465.9639773531
 30
0.0
 40
0.5
100
AcDbArc
 50
270.0
 51
332.720387264
  0
ARC
  5
23F
330
1F
100
AcDbEntity
  8
0
  6
Continuous
 62
     7
370
    15
100
AcDbCircle
 10
812.2181165073
 20
463.2139773531
 30
0.0
 40
5.500000000000115
100
AcDbArc
 50
202.024312837
 51
152.720387264
  0
ARC
  5
240
330
1F
100
AcDbEntity
  8
0
  6
Continuous
 62
     7
370
    15
100
AcDbCircle
 10
806.655967642
 20
460.9639773531
 30
0.0
 40
0.500000000000081
100
AcDbArc
 50
22.024312837
 51
90.0
  0
LINE
  5
241
330
1F
100
AcDbEntity
  8
0
  6
Continuous
 62
     7
370
    15
100
AcDbLine
 10
806.6559603069
 20
461.4639813586
 30
0.0
 11
806.2181194875
 21
461.4639813586
 31
0.0
  0
LINE
  5
242
330
1F
100
AcDbEntity
  8
0
  6
Continuous
 62
     7
370
    15
100
AcDbLine
 10
406.2181135271
 20
486.6639758034
 30
0.0
 11
405.9181233499
 21
486.6639758034
 31
0.0
  0
LINE
  5
243
330
1F
100
AcDbEntity
  8
0
  6
Continuous
 62
     7
370
    15
100
AcDbLine
 10
405.9181233499
 20
484.6639717503
 30
0.0
 11
406.2181135271
 21
484.6650446339
 31
0.0
  0
LINE
  5
244
330
1F
100
AcDbEntity
  8
0
  6
Continuous
 62
     7
370
    15
100
AcDbLine
 10
405.9181233499
 20
484.6639717503
 30
0.0
 11
405.9181233499
 21
486.6639758034
 31
0.0
  0
LINE
  5
245
330
1F
100
AcDbEntity
  8
0
  6
Continuous
 62
     7
370
    15
100
AcDbLine
 10
405.9181233499
 20
478.4639711066
 30
0.0
 11
405.9181233499
 21
484.6639717503
 31
0.0
  0
LINE
  5
246
330
1F
100
AcDbEntity
  8
0
  6
Continuous
 62
     7
370
    15
100
AcDbLine
 10
406.2181135271
 20
478.4639711066
 30
0.0
 11
405.9181233499
 21
478.4639711066
 31
0.0
  0
ARC
  5
247
330
1F
100
AcDbEntity
  8
0
  6
Continuous
 62
     7
370
    15
100
AcDbCircle
 10
401.0181165073
 20
481.5639773531
 30
0.0
 40
3.100000000000023
100
AcDbArc
 50
192.3149134588
 51
270.0
  0
LINE
  5
248
330
1F
100
AcDbEntity
  8
0
  6
Continuous
 62
     7
370
    15
100
AcDbLine
 10
401.0181149099
 20
478.4639711066
 30
0.0
 11
401.3282527778
 21
478.4639711066
 31
0.0
  0
LINE
  5
249
330
1F
100
AcDbEntity
  8
0
  6
Continuous
 62
     7
370
    15
100
AcDbLine
 10
404.3435027454
 20
478.4639711066
 30
0.0
 11
405.9181233499
 21
478.4639711066
 31
0.0
  0
LINE
  5
24A
330
1F
100
AcDbEntity
  8
0
  6
Continuous
 62
     7
370
    15
100
AcDbLine
 10
405.9181233499
 20
484.6639717503
 30
0.0
 11
404.7181179378
 21
484.6639717503
 31
0.0
  0
LINE
  5
24B
330
1F
100
AcDbEntity
  8
0
  6
Continuous
 62
     7
370
    15
100
AcDbLine
 10
405.9181233499
 20
486.6639758034
 30
0.0
 11
405.9181233499
 21
510.7139731331
 31
0.0
  0
LINE
  5
24C
330
1F
100
AcDbEntity
  8
0
  6
Continuous
 62
     7
370
    15
100
AcDbLine
 10
405.9181233499
 20
517.4639756365
 30
0.0
 11
405.9181233499
 21
510.7139731331
 31
0.0
  0
LINE
  5
24D
330
1F
100
AcDbEntity
  8
0
  6
Continuous
 62
     7
370
    15
100
AcDbLine
 10
405.8181216572
 20
510.4639763518
 30
0.0
 11
405.8181216572
 21
516.4639810606
 31
0.0
  0
LINE
  5
24E
330
1F
100
AcDbEntity
  8
0
  6
Continuous
 62
     7
370
    15
100
AcDbLine
 10
405.8181216572
 20
487.4639744444
 30
0.0
 11
405.8181216572
 21
493.4639717026
 31
0.0
  0
LINE
  5
24F
330
1F
100
AcDbEntity
  8
0
  6
Continuous
 62
     7
370
    15
100
AcDbLine
 10
405.9181233499
 20
501.4639730139
 30
0.0
 11
404.7181179378
 21
501.7855102702
 31
0.0
  0
LINE
  5
250
330
1F
100
AcDbEntity
  8
0
  6
Continuous
 62
     7
370
    15
100
AcDbLine
 10
404.7181179378
 20
502.8207982464
 30
0.0
 11
405.9181233499
 21
502.499246089
 31
0.0
  0
LINE
  5
251
330
1F
100
AcDbEntity
  8
0
  6
Continuous
 62
     8
370
    15
100
AcDbLine
 10
406.2181135271
 20
510.7139731331
 30
0.0
 11
405.9181233499
 21
510.7139731331
 31
0.0
  0
ENDSEC
  0
SECTION
  2
OBJECTS
  0
DICTIONARY
  5
C
330
0
100
AcDbDictionary
281
     1
  3
ACAD_GROUP
350
D
  3
ACAD_LAYOUT
350
1A
  3
ACAD_MLINESTYLE
350
17
  3
ACAD_PLOTSETTINGS
350
19
  3
ACAD_PLOTSTYLENAME
350
E
  0
DICTIONARY
  5
D
102
{ACAD_REACTORS
330
C
102
}
330
C
100
AcDbDictionary
281
     1
  0
DICTIONARY
  5
1A
102
{ACAD_REACTORS
330
C
102
}
330
C
100
AcDbDictionary
281
     1
  3
Layout1
350
1E
  3
Layout2
350
26
  3
Model
350
22
  0
DICTIONARY
  5
17
102
{ACAD_REACTORS
330
C
102
}
330
C
100
AcDbDictionary
281
     1
  3
Standard
350
18
  0
DICTIONARY
  5
19
102
{ACAD_REACTORS
330
C
102
}
330
C
100
AcDbDictionary
281
     1
  0
ACDBDICTIONARYWDFLT
  5
E
102
{ACAD_REACTORS
330
C
102
}
330
C
100
AcDbDictionary
281
     1
  3
Normal
350
F
100
AcDbDictionaryWithDefault
340
F
  0
LAYOUT
  5
1E
102
{ACAD_REACTORS
330
1A
102
}
330
1A
100
AcDbPlotSettings
  1

  2
none_device
  4

  6

 40
0.0
 41
0.0
 42
0.0
 43
0.0
 44
0.0
 45
0.0
 46
0.0
 47
0.0
 48
0.0
 49
0.0
140
0.0
141
0.0
142
1.0
143
1.0
 70
   688
 72
     0
 73
     0
 74
     5
  7

 75
    16
147
1.0
148
0.0
149
0.0
100
AcDbLayout
  1
Layout1
 70
     1
 71
     1
 10
0.0
 20
0.0
 11
420.0
 21
297.0
 12
0.0
 22
0.0
 32
0.0
 14
1.0000000000E+20
 24
1.0000000000E+20
 34
1.0000000000E+20
 15
-1.0000000000E+20
 25
-1.0000000000E+20
 35
-1.0000000000E+20
146
0.0
 13
0.0
 23
0.0
 33
0.0
 16
1.0
 26
0.0
 36
0.0
 17
0.0
 27
1.0
 37
0.0
 76
     0
330
1B
  0
LAYOUT
  5
26
102
{ACAD_REACTORS
330
1A
102
}
330
1A
100
AcDbPlotSettings
  1

  2
none_device
  4

  6

 40
0.0
 41
0.0
 42
0.0
 43
0.0
 44
0.0
 45
0.0
 46
0.0
 47
0.0
 48
0.0
 49
0.0
140
0.0
141
0.0
142
1.0
143
1.0
 70
   688
 72
     0
 73
     0
 74
     5
  7

 75
    16
147
1.0
148
0.0
149
0.0
100
AcDbLayout
  1
Layout2
 70
     1
 71
     2
 10
0.0
 20
0.0
 11
0.0
 21
0.0
 12
0.0
 22
0.0
 32
0.0
 14
0.0
 24
0.0
 34
0.0
 15
0.0
 25
0.0
 35
0.0
146
0.0
 13
0.0
 23
0.0
 33
0.0
 16
1.0
 26
0.0
 36
0.0
 17
0.0
 27
1.0
 37
0.0
 76
     0
330
23
  0
LAYOUT
  5
22
102
{ACAD_REACTORS
330
1A
102
}
330
1A
100
AcDbPlotSettings
  1

  2
none_device
  4

  6

 40
0.0
 41
0.0
 42
0.0
 43
0.0
 44
0.0
 45
0.0
 46
0.0
 47
0.0
 48
0.0
 49
0.0
140
0.0
141
0.0
142
1.0
143
1.0
 70
  1712
 72
     0
 73
     0
 74
     0
  7

 75
     0
147
1.0
148
0.0
149
0.0
100
AcDbLayout
  1
Model
 70
     1
 71
     0
 10
0.0
 20
0.0
 11
840.0
 21
594.0
 12
0.0
 22
0.0
 32
0.0
 14
0.0
 24
0.0
 34
0.0
 15
840.0
 25
594.0
 35
0.0
146
0.0
 13
0.0
 23
0.0
 33
0.0
 16
1.0
 26
0.0
 36
0.0
 17
0.0
 27
1.0
 37
0.0
 76
     0
330
1F
331
29
  0
MLINESTYLE
  5
18
102
{ACAD_REACTORS
330
17
102
}
330
17
100
AcDbMlineStyle
  2
Standard
 70
     0
  3

 62
   256
 51
90.0
 52
90.0
 71
     2
 49
0.5
 62
   256
  6
BYLAYER
 49
-0.5
 62
   256
  6
BYLAYER
  0
ACDBPLACEHOLDER
  5
F
102
{ACAD_REACTORS
330
E
102
}
330
E
  0
ENDSEC
  0
EOF
