  0
SECTION
  2
HEADER
  9
$ACADVER
  1
AC1015
  9
$ACADMAINTVER
 70
     6
  9
$DWGCODEPAGE
  3
DOS932
  9
$INSBASE
 10
0.0
 20
0.0
 30
0.0
  9
$EXTMIN
 10
0.0
 20
0.0
 30
0.0
  9
$EXTMAX
 10
840.0
 20
594.0
 30
0.0
  9
$LIMMIN
 10
0.0
 20
0.0
  9
$LIMMAX
 10
840.0
 20
594.0
  9
$ORTHOMODE
 70
     0
  9
$REGENMODE
 70
     1
  9
$FILLMODE
 70
     1
  9
$QTEXTMODE
 70
     0
  9
$MIRRTEXT
 70
     1
  9
$LTSCALE
 40
2.0
  9
$ATTMODE
 70
     1
  9
$TEXTSIZE
 40
7.0
  9
$TRACEWID
 40
1.0
  9
$TEXTSTYLE
  7
Standard
  9
$CLAYER
  8
0
  9
$CELTYPE
  6
ByLayer
  9
$CECOLOR
 62
   256
  9
$CELTSCALE
 40
1.0
  9
$DISPSILH
 70
     0
  9
$DIMSCALE
 40
1.0
  9
$DIMASZ
 40
6.0
  9
$DIMEXO
 40
2.0
  9
$DIMDLI
 40
3.75
  9
$DIMRND
 40
0.0
  9
$DIMDLE
 40
0.0
  9
$DIMEXE
 40
2.0
  9
$DIMTP
 40
0.0
  9
$DIMTM
 40
0.0
  9
$DIMTXT
 40
7.0
  9
$DIMCEN
 40
2.5
  9
$DIMTSZ
 40
0.0
  9
$DIMTOL
 70
     0
  9
$DIMLIM
 70
     0
  9
$DIMTIH
 70
     1
  9
$DIMTOH
 70
     1
  9
$DIMSE1
 70
     0
  9
$DIMSE2
 70
     0
  9
$DIMTAD
 70
     1
  9
$DIMZIN
 70
     0
  9
$DIMBLK
  1

  9
$DIMASO
 70
     1
  9
$DIMSHO
 70
     1
  9
$DIMPOST
  1

  9
$DIMAPOST
  1

  9
$DIMALT
 70
     0
  9
$DIMALTD
 70
     3
  9
$DIMALTF
 40
0.0393700787
  9
$DIMLFAC
 40
1.0
  9
$DIMTOFL
 70
     1
  9
$DIMTVP
 40
0.0
  9
$DIMTIX
 70
     0
  9
$DIMSOXD
 70
     0
  9
$DIMSAH
 70
     0
  9
$DIMBLK1
  1

  9
$DIMBLK2
  1

  9
$DIMSTYLE
  2
ISO-25
  9
$DIMCLRD
 70
     0
  9
$DIMCLRE
 70
     0
  9
$DIMCLRT
 70
     0
  9
$DIMTFAC
 40
1.0
  9
$DIMGAP
 40
3.048
  9
$DIMJUST
 70
     0
  9
$DIMSD1
 70
     0
  9
$DIMSD2
 70
     0
  9
$DIMTOLJ
 70
     0
  9
$DIMTZIN
 70
     0
  9
$DIMALTZ
 70
     0
  9
$DIMALTTZ
 70
     0
  9
$DIMUPT
 70
     0
  9
$DIMDEC
 70
     1
  9
$DIMTDEC
 70
     1
  9
$DIMALTU
 70
     2
  9
$DIMALTTD
 70
     3
  9
$DIMTXSTY
  7
Standard
  9
$DIMAUNIT
 70
     0
  9
$DIMADEC
 70
     2
  9
$DIMALTRND
 40
0.0
  9
$DIMAZIN
 70
     0
  9
$DIMDSEP
 70
    44
  9
$DIMATFIT
 70
     3
  9
$DIMFRAC
 70
     0
  9
$DIMLDRBLK
  1

  9
$DIMLUNIT
 70
     2
  9
$DIMLWD
 70
    -2
  9
$DIMLWE
 70
    -2
  9
$DIMTMOVE
 70
     0
  9
$LUNITS
 70
     2
  9
$LUPREC
 70
     1
  9
$SKETCHINC
 40
1.0
  9
$FILLETRAD
 40
10.0
  9
$AUNITS
 70
     0
  9
$AUPREC
 70
     2
  9
$MENU
  1
.
  9
$ELEVATION
 40
0.0
  9
$PELEVATION
 40
0.0
  9
$THICKNESS
 40
0.0
  9
$LIMCHECK
 70
     0
  9
$CHAMFERA
 40
10.0
  9
$CHAMFERB
 40
10.0
  9
$CHAMFERC
 40
20.0
  9
$CHAMFERD
 40
0.0
  9
$SKPOLY
 70
     0
  9
$TDCREATE
 40
2460445.698143206
  9
$TDUCREATE
 40
2460445.323143206
  9
$TDUPDATE
 40
2460445.698143218
  9
$TDUUPDATE
 40
2460445.323143218
  9
$TDINDWG
 40
0.0000000116
  9
$TDUSRTIMER
 40
0.0000000116
  9
$USRTIMER
 70
     1
  9
$ANGBASE
 50
0.0
  9
$ANGDIR
 70
     0
  9
$PDMODE
 70
     0
  9
$PDSIZE
 40
-1.0
  9
$PLINEWID
 40
0.0
  9
$SPLFRAME
 70
     0
  9
$SPLINETYPE
 70
     6
  9
$SPLINESEGS
 70
     8
  9
$HANDSEED
  5
253
  9
$SURFTAB1
 70
     6
  9
$SURFTAB2
 70
     6
  9
$SURFTYPE
 70
     6
  9
$SURFU
 70
     6
  9
$SURFV
 70
     6
  9
$UCSBASE
  2

  9
$UCSNAME
  2

  9
$UCSORG
 10
0.0
 20
0.0
 30
0.0
  9
$UCSXDIR
 10
1.0
 20
0.0
 30
0.0
  9
$UCSYDIR
 10
0.0
 20
1.0
 30
0.0
  9
$UCSORTHOREF
  2

  9
$UCSORTHOVIEW
 70
     0
  9
$UCSORGTOP
 10
0.0
 20
0.0
 30
0.0
  9
$UCSORGBOTTOM
 10
0.0
 20
0.0
 30
0.0
  9
$UCSORGLEFT
 10
0.0
 20
0.0
 30
0.0
  9
$UCSORGRIGHT
 10
0.0
 20
0.0
 30
0.0
  9
$UCSORGFRONT
 10
0.0
 20
0.0
 30
0.0
  9
$UCSORGBACK
 10
0.0
 20
0.0
 30
0.0
  9
$PUCSBASE
  2

  9
$PUCSNAME
  2

  9
$PUCSORG
 10
0.0
 20
0.0
 30
0.0
  9
$PUCSXDIR
 10
1.0
 20
0.0
 30
0.0
  9
$PUCSYDIR
 10
0.0
 20
1.0
 30
0.0
  9
$PUCSORTHOREF
  2

  9
$PUCSORTHOVIEW
 70
     0
  9
$PUCSORGTOP
 10
0.0
 20
0.0
 30
0.0
  9
$PUCSORGBOTTOM
 10
0.0
 20
0.0
 30
0.0
  9
$PUCSORGLEFT
 10
0.0
 20
0.0
 30
0.0
  9
$PUCSORGRIGHT
 10
0.0
 20
0.0
 30
0.0
  9
$PUCSORGFRONT
 10
0.0
 20
0.0
 30
0.0
  9
$PUCSORGBACK
 10
0.0
 20
0.0
 30
0.0
  9
$USERI1
 70
     0
  9
$USERI2
 70
     0
  9
$USERI3
 70
     0
  9
$USERI4
 70
     0
  9
$USERI5
 70
     0
  9
$USERR1
 40
0.0
  9
$USERR2
 40
0.0
  9
$USERR3
 40
0.0
  9
$USERR4
 40
0.0
  9
$USERR5
 40
0.0
  9
$WORLDVIEW
 70
     1
  9
$SHADEDGE
 70
     3
  9
$SHADEDIF
 70
    70
  9
$TILEMODE
 70
     1
  9
$MAXACTVP
 70
    64
  9
$PINSBASE
 10
0.0
 20
0.0
 30
0.0
  9
$PLIMCHECK
 70
     0
  9
$PEXTMIN
 10
1.0000000000E+20
 20
1.0000000000E+20
 30
1.0000000000E+20
  9
$PEXTMAX
 10
-1.0000000000E+20
 20
-1.0000000000E+20
 30
-1.0000000000E+20
  9
$PLIMMIN
 10
0.0
 20
0.0
  9
$PLIMMAX
 10
420.0
 20
297.0
  9
$UNITMODE
 70
     0
  9
$VISRETAIN
 70
     1
  9
$PLINEGEN
 70
     0
  9
$PSLTSCALE
 70
     1
  9
$TREEDEPTH
 70
  3020
  9
$CMLSTYLE
  2
Standard
  9
$CMLJUST
 70
     0
  9
$CMLSCALE
 40
20.0
  9
$PROXYGRAPHICS
 70
     1
  9
$MEASUREMENT
 70
     1
  9
$CELWEIGHT
370
    -1
  9
$ENDCAPS
280
     0
  9
$JOINSTYLE
280
     0
  9
$LWDISPLAY
290
     1
  9
$INSUNITS
 70
     4
  9
$HYPERLINKBASE
  1

  9
$STYLESHEET
  1

  9
$XEDIT
290
     1
  9
$CEPSNTYPE
380
     0
  9
$PSTYLEMODE
290
     1
  9
$FINGERPRINTGUID
  2
{E8B81854-DE25-4A81-AA73-5FA45AEF46D0}
  9
$VERSIONGUID
  2
{FAEB1C32-E019-11D5-929B-00C0DF256EC4}
  9
$EXTNAMES
290
     1
  9
$PSVPSCALE
 40
0.0
  9
$OLESTARTUP
290
     0
  0
ENDSEC
  0
SECTION
  2
CLASSES
  0
CLASS
  1
ACDBDICTIONARYWDFLT
  2
AcDbDictionaryWithDefault
  3
ObjectDBX Classes
 90
        0
280
     0
281
     0
  0
CLASS
  1
VISUALSTYLE
  2
AcDbVisualStyle
  3
ObjectDBX Classes
 90
     4095
280
     0
281
     0
  0
CLASS
  1
MATERIAL
  2
AcDbMaterial
  3
ObjectDBX Classes
 90
     1153
280
     0
281
     0
  0
CLASS
  1
ACDBPLACEHOLDER
  2
AcDbPlaceHolder
  3
ObjectDBX Classes
 90
        0
280
     0
281
     0
  0
CLASS
  1
LAYOUT
  2
AcDbLayout
  3
ObjectDBX Classes
 90
        0
280
     0
281
     0
  0
ENDSEC
  0
SECTION
  2
TABLES
  0
TABLE
  2
VPORT
  5
8
330
0
100
AcDbSymbolTable
 70
     1
  0
VPORT
  5
29
330
8
100
AcDbSymbolTableRecord
100
AcDbViewportTableRecord
  2
*Active
 70
     0
 10
0.0
 20
0.0
 11
1.0
 21
1.0
 12
420.0
 22
297.0
 13
0.0
 23
0.0
 14
10.0
 24
10.0
 15
10.0
 25
10.0
 16
0.0
 26
0.0
 36
1.0
 17
0.0
 27
0.0
 37
0.0
 40
594.0
 41
1.4141414141
 42
50.0
 43
0.0
 44
0.0
 50
0.0
 51
0.0
 71
     0
 72
  2000
 73
     1
 74
     3
 75
     0
 76
     0
 77
     0
 78
     0
281
     0
 65
     1
110
0.0
120
0.0
130
0.0
111
1.0
121
0.0
131
0.0
112
0.0
122
1.0
132
0.0
 79
     0
146
0.0
  0
ENDTAB
  0
TABLE
  2
LTYPE
  5
5
330
0
100
AcDbSymbolTable
 70
     6
  0
LTYPE
  5
14
330
5
100
AcDbSymbolTableRecord
100
AcDbLinetypeTableRecord
  2
ByBlock
 70
     0
  3

 72
    65
 73
     0
 40
0.0
  0
LTYPE
  5
15
330
5
100
AcDbSymbolTableRecord
100
AcDbLinetypeTableRecord
  2
ByLayer
 70
     0
  3

 72
    65
 73
     0
 40
0.0
  0
LTYPE
  5
16
330
5
100
AcDbSymbolTableRecord
100
AcDbLinetypeTableRecord
  2
Continuous
 70
     0
  3
Solid line
 72
    65
 73
     0
 40
0.0
  0
LTYPE
  5
3F
330
5
100
AcDbSymbolTableRecord
100
AcDbLinetypeTableRecord
  2
HIDDEN
 70
     0
  3
Hidden __ __ __ __ __ __ __ __ __ __ __ __ __ __
 72
    65
 73
     2
 40
1.905
 49
1.27
 74
     0
 49
-0.635
 74
     0
  0
LTYPE
  5
40
330
5
100
AcDbSymbolTableRecord
100
AcDbLinetypeTableRecord
  2
PHANTOM
 70
     0
  3
Phantom ______  __  __  ______  __  __  ______
 72
    65
 73
     6
 40
12.7
 49
6.35
 74
     0
 49
-1.27
 74
     0
 49
1.27
 74
     0
 49
-1.27
 74
     0
 49
1.27
 74
     0
 49
-1.27
 74
     0
  0
LTYPE
  5
41
330
5
100
AcDbSymbolTableRecord
100
AcDbLinetypeTableRecord
  2
CENTER
 70
     0
  3
Center ____ _ ____ _ ____ _ ____ _ ____ _ ____
 72
    65
 73
     4
 40
10.16
 49
6.35
 74
     0
 49
-1.27
 74
     0
 49
1.27
 74
     0
 49
-1.27
 74
     0
  0
LTYPE
  5
42
330
5
100
AcDbSymbolTableRecord
100
AcDbLinetypeTableRecord
  2
CENTERX2
 70
     0
  3
Center (2x) ________  __  ________  __  _____
 72
    65
 73
     4
 40
20.32
 49
12.7
 74
     0
 49
-2.54
 74
     0
 49
2.54
 74
     0
 49
-2.54
 74
     0
  0
LTYPE
  5
43
330
5
100
AcDbSymbolTableRecord
100
AcDbLinetypeTableRecord
  2
DOT2
 70
     0
  3
Dot (.5x) ........................................
 72
    65
 73
     2
 40
0.635
 49
0.0
 74
     0
 49
-0.635
 74
     0
  0
ENDTAB
  0
TABLE
  2
LAYER
  5
2
330
0
100
AcDbSymbolTable
 70
     1
  0
LAYER
  5
10
330
2
100
AcDbSymbolTableRecord
100
AcDbLayerTableRecord
  2
0
 70
     0
 62
     7
  6
Continuous
370
    -3
390
F
  0
ENDTAB
  0
TABLE
  2
STYLE
  5
3
330
0
100
AcDbSymbolTable
 70
     2
  0
STYLE
  5
11
330
3
100
AcDbSymbolTableRecord
100
AcDbTextStyleTableRecord
  2
Standard
 70
     0
 40
0.0
 41
1.0
 50
0.0
 71
     0
 42
2.5
  3
txt
  4
bigfont
  0
STYLE
  5
44
330
3
100
AcDbSymbolTableRecord
100
AcDbTextStyleTableRecord
  2
SLDTEXTSTYLE0
 70
     0
 40
0.0
 41
0.7
 50
0.0
 71
     0
 42
0.2
  3
TXT
  4
bigfont
  0
ENDTAB
  0
TABLE
  2
VIEW
  5
6
330
0
100
AcDbSymbolTable
 70
     0
  0
ENDTAB
  0
TABLE
  2
UCS
  5
7
330
0
100
AcDbSymbolTable
 70
     0
  0
ENDTAB
  0
TABLE
  2
APPID
  5
9
330
0
100
AcDbSymbolTable
 70
     1
  0
APPID
  5
12
330
9
100
AcDbSymbolTableRecord
100
AcDbRegAppTableRecord
  2
ACAD
 70
     0
  0
ENDTAB
  0
TABLE
  2
DIMSTYLE
  5
A
330
0
100
AcDbSymbolTable
 70
     1
100
AcDbDimStyleTable
  0
DIMSTYLE
105
27
330
A
100
AcDbSymbolTableRecord
100
AcDbDimStyleTableRecord
  2
ISO-25
 70
     0
 41
2.5
 42
0.625
 43
3.75
 44
1.25
 73
     0
 74
     0
 77
     1
 78
     8
140
2.5
141
2.5
143
0.0393700787
147
0.625
171
     3
172
     1
178
     0
271
     2
272
     2
274
     3
278
    44
283
     0
284
     8
340
11
  0
ENDTAB
  0
TABLE
  2
BLOCK_RECORD
  5
1
330
0
100
AcDbSymbolTable
 70
     1
  0
BLOCK_RECORD
  5
1F
330
1
100
AcDbSymbolTableRecord
100
AcDbBlockTableRecord
  2
*Model_Space
340
22
  0
BLOCK_RECORD
  5
1B
330
1
100
AcDbSymbolTableRecord
100
AcDbBlockTableRecord
  2
*Paper_Space
340
1E
  0
BLOCK_RECORD
  5
23
330
1
100
AcDbSymbolTableRecord
100
AcDbBlockTableRecord
  2
*Paper_Space0
340
26
  0
ENDTAB
  0
ENDSEC
  0
SECTION
  2
BLOCKS
  0
BLOCK
  5
20
330
1F
100
AcDbEntity
  8
0
100
AcDbBlockBegin
  2
*Model_Space
 70
     0
 10
0.0
 20
0.0
 30
0.0
  3
*Model_Space
  1

  0
ENDBLK
  5
21
330
1F
100
AcDbEntity
  8
0
100
AcDbBlockEnd
  0
BLOCK
  5
1C
330
1B
100
AcDbEntity
 67
     1
  8
0
100
AcDbBlockBegin
  2
*Paper_Space
 70
     0
 10
0.0
 20
0.0
 30
0.0
  3
*Paper_Space
  1

  0
ENDBLK
  5
1D
330
1B
100
AcDbEntity
 67
     1
  8
0
100
AcDbBlockEnd
  0
BLOCK
  5
24
330
23
100
AcDbEntity
  8
0
100
AcDbBlockBegin
  2
*Paper_Space0
 70
     0
 10
0.0
 20
0.0
 30
0.0
  3
*Paper_Space0
  1

  0
ENDBLK
  5
25
330
23
100
AcDbEntity
  8
0
100
AcDbBlockEnd
  0
ENDSEC
  0
SECTION
  2
ENTITIES
  0
MTEXT
  5
45
330
1F
100
AcDbEntity
  8
0
  6
Continuous
 62
     7
370
     0
100
AcDbMText
 10
169.4852087757
 20
480.7761987994
 30
0.0
 40
7.0
 41
0.0
 71
     1
 72
     1
  1
CHB-510N
  7
SLDTEXTSTYLE0
 73
     1
 44
1.0
  0
LINE
  5
46
330
1F
100
AcDbEntity
  8
0
  6
Continuous
 62
     7
370
    15
100
AcDbLine
 10
373.3482699433
 20
213.7180463291
 30
0.0
 11
373.4482716361
 21
213.7180463291
 31
0.0
  0
LINE
  5
47
330
1F
100
AcDbEntity
  8
0
  6
Continuous
 62
     7
370
    15
100
AcDbLine
 10
373.4482716361
 20
219.7180466141
 30
0.0
 11
373.3482699433
 21
219.7180466141
 31
0.0
  0
LINE
  5
48
330
1F
100
AcDbEntity
  8
0
  6
Continuous
 62
     7
370
    15
100
AcDbLine
 10
373.3482699433
 20
223.7180468041
 30
0.0
 11
373.4482716361
 21
223.7180468041
 31
0.0
  0
LINE
  5
49
330
1F
100
AcDbEntity
  8
0
  6
Continuous
 62
     7
370
    15
100
AcDbLine
 10
373.4482716361
 20
229.7180470891
 30
0.0
 11
373.3482699433
 21
229.7180470891
 31
0.0
  0
LINE
  5
4A
330
1F
100
AcDbEntity
  8
0
  6
Continuous
 62
     7
370
    15
100
AcDbLine
 10
374.648262147
 20
233.2180467315
 30
0.0
 11
373.4482716361
 21
233.2180467315
 31
0.0
  0
LINE
  5
4B
330
1F
100
AcDbEntity
  8
0
  6
Continuous
 62
     7
370
    15
100
AcDbLine
 10
373.4482716361
 20
210.2180466868
 30
0.0
 11
374.648262147
 21
210.2180466868
 31
0.0
  0
LINE
  5
4C
330
1F
100
AcDbEntity
  8
0
  6
Continuous
 62
     7
370
    15
100
AcDbLine
 10
786.1482690612
 20
77.718052908
 30
0.0
 11
786.1482690612
 21
112.7180493317
 31
0.0
  0
LINE
  5
4D
330
1F
100
AcDbEntity
  8
0
  6
Continuous
 62
     7
370
    15
100
AcDbLine
 10
786.1482690612
 20
330.7180440865
 30
0.0
 11
786.1482690612
 21
365.7180405102
 31
0.0
  0
LINE
  5
4E
330
1F
100
AcDbEntity
  8
0
  6
Continuous
 62
     7
370
    15
100
AcDbLine
 10
365.5434589425
 20
225.6180466033
 30
0.0
 11
365.5434589425
 21
217.0180467769
 31
0.0
  0
LINE
  5
4F
330
1F
100
AcDbEntity
  8
0
  6
Continuous
 62
     7
370
    15
100
AcDbLine
 10
366.148267273
 20
214.5180468328
 30
0.0
 11
366.148267273
 21
213.7183005802
 31
0.0
  0
LINE
  5
50
330
1F
100
AcDbEntity
  8
0
  6
Continuous
 62
     7
370
    15
100
AcDbLine
 10
366.148267273
 20
229.717792838
 30
0.0
 11
366.148267273
 21
228.9180465854
 31
0.0
  0
LINE
  5
51
330
1F
100
AcDbEntity
  8
0
  6
Continuous
 62
     7
370
    15
100
AcDbLine
 10
367.5482611695
 20
230.0180465795
 30
0.0
 11
367.5482611695
 21
229.7180470891
 31
0.0
  0
ARC
  5
52
330
1F
100
AcDbEntity
  8
0
  6
Continuous
 62
     7
370
    15
100
AcDbCircle
 10
369.7482651273
 20
226.910903852
 30
0.0
 40
3.807142857143162
100
AcDbArc
 50
77.9663271603
 51
90.0
  0
ARC
  5
53
330
1F
100
AcDbEntity
  8
0
  6
Continuous
 62
     7
370
    15
100
AcDbCircle
 10
369.7482651273
 20
226.910903852
 30
0.0
 40
3.807142857143189
100
AcDbArc
 50
90.0
 51
125.3002484399
  0
LINE
  5
54
330
1F
100
AcDbEntity
  8
0
  6
Continuous
 62
     7
370
    15
100
AcDbLine
 10
367.6482628623
 20
213.3180470086
 30
0.0
 11
367.6482628623
 21
212.9180467568
 31
0.0
  0
ARC
  5
55
330
1F
100
AcDbEntity
  8
0
  6
Continuous
 62
     7
370
    15
100
AcDbCircle
 10
367.8482651273
 20
213.7180467092
 30
0.0
 40
0.4000000000007731
100
AcDbArc
 50
270.0
 51
0.0
  0
LINE
  5
56
330
1F
100
AcDbEntity
  8
0
  6
Continuous
 62
     7
370
    15
100
AcDbLine
 10
368.2482581178
 20
228.9180465854
 30
0.0
 11
368.2482581178
 21
228.4680468842
 31
0.0
  0
LINE
  5
57
330
1F
100
AcDbEntity
  8
0
  6
Continuous
 62
     7
370
    15
100
AcDbLine
 10
368.2482581178
 20
214.968046534
 30
0.0
 11
368.2482581178
 21
214.5180468328
 31
0.0
  0
SPLINE
  5
58
330
1F
100
AcDbEntity
  8
0
  6
Continuous
 62
     7
370
    15
100
AcDbSpline
210
0.0
220
0.0
230
1.0
 70
     8
 71
     3
 72
    11
 73
     7
 74
     0
 42
0.00000001
 43
0.00000001
 40
0.0
 40
0.0
 40
0.0
 40
0.0
 40
0.2262262248283689
 40
0.4679483157142963
 40
0.7254883120858379
 40
1.0
 40
1.0
 40
1.0
 40
1.0
 10
370.9687780180853
 20
229.9484814397779
 30
0.0
 10
370.9715973172855
 20
229.9255829906672
 30
0.0
 10
370.9774290298254
 20
229.8782176124845
 30
0.0
 10
370.9942198806264
 20
229.5534296411747
 30
0.0
 10
371.0078123960511
 20
229.052932047496
 30
0.0
 10
371.0083475901191
 20
228.6291116312125
 30
0.0
 10
371.0086237231177
 20
228.4104417890098
 30
0.0
  0
SPLINE
  5
59
330
1F
100
AcDbEntity
  8
0
  6
Continuous
 62
     7
370
    15
100
AcDbSpline
210
0.0
220
0.0
230
1.0
 70
     8
 71
     3
 72
    12
 73
     8
 74
     0
 42
0.00000001
 43
0.00000001
 40
0.0
 40
0.0
 40
0.0
 40
0.0
 40
0.2489450918608725
 40
0.4822920041796321
 40
0.6998108393712417
 40
0.9035366771083447
 40
1.0
 40
1.0
 40
1.0
 40
1.0
 10
371.0086237231177
 20
214.8518109574702
 30
0.0
 10
371.0071978522618
 20
214.7144763826569
 30
0.0
 10
371.0044354514944
 20
214.4484122203361
 30
0.0
 10
370.9935345208155
 20
214.1126124487692
 30
0.0
 10
370.99102416716
 20
213.8794313830375
 30
0.0
 10
370.9958133214583
 20
213.7593275936063
 30
0.0
 10
371.0222438219358
 20
213.7579810703485
 30
0.0
 10
371.0307370463294
 20
213.7575483761516
 30
0.0
  0
LINE
  5
5A
330
1F
100
AcDbEntity
  8
0
  6
Continuous
 62
     7
370
    15
100
AcDbLine
 10
371.0077743569
 20
228.4604417041
 30
0.0
 11
371.0077743569
 21
214.8018110424
 31
0.0
  0
LINE
  5
5B
330
1F
100
AcDbEntity
  8
0
  6
Continuous
 62
     7
370
    15
100
AcDbLine
 10
369.4841604272
 20
232.3983301289
 30
0.0
 11
370.9715198317
 21
229.9181827225
 31
0.0
  0
LINE
  5
5C
330
1F
100
AcDbEntity
  8
0
  6
Continuous
 62
     7
370
    15
100
AcDbLine
 10
373.4482716361
 20
231.6212923147
 30
0.0
 11
372.0569800177
 21
233.9412559636
 31
0.0
  0
LINE
  5
5D
330
1F
100
AcDbEntity
  8
0
  6
Continuous
 62
     7
370
    15
100
AcDbLine
 10
371.0360120574
 20
213.6254626207
 30
0.0
 11
369.4669346848
 21
211.0090440951
 31
0.0
  0
LINE
  5
5E
330
1F
100
AcDbEntity
  8
0
  6
Continuous
 62
     7
370
    15
100
AcDbLine
 10
372.0397542754
 20
209.4661182605
 30
0.0
 11
373.4482716361
 21
211.8148011036
 31
0.0
  0
LINE
  5
5F
330
1F
100
AcDbEntity
  8
0
  6
Continuous
 62
     7
370
    15
100
AcDbLine
 10
372.0768730679
 20
233.9057474278
 30
0.0
 11
371.9869147578
 21
234.0195345573
 31
0.0
  0
SPLINE
  5
60
330
1F
100
AcDbEntity
  8
0
  6
Continuous
 62
     7
370
    15
100
AcDbSpline
210
0.0
220
0.0
230
1.0
 70
     8
 71
     3
 72
    20
 73
    16
 74
     0
 42
0.00000001
 43
0.00000001
 40
0.0
 40
0.0
 40
0.0
 40
0.0
 40
0.033780477519239
 40
0.1101062175248973
 40
0.1739280389562914
 40
0.2252737062134244
 40
0.2665363190196115
 40
0.3037742350063283
 40
0.3388585119186859
 40
0.372640248618339
 40
0.4139180543699228
 40
0.6259819399311124
 40
0.839027146412441
 40
0.9659462154808571
 40
1.0
 40
1.0
 40
1.0
 40
1.0
 10
371.8746047058982
 20
234.1616040907588
 30
0.0
 10
371.8339440579214
 20
234.2177894614866
 30
0.0
 10
371.7014121791674
 20
234.4009236000598
 30
0.0
 10
371.3915470422441
 20
234.5781016423748
 30
0.0
 10
371.0042860863573
 20
234.7010614714595
 30
0.0
 10
370.6344375776186
 20
234.7158492445006
 30
0.0
 10
370.3001221660011
 20
234.6652568378735
 30
0.0
 10
370.0256346717796
 20
234.5642129073304
 30
0.0
 10
369.7981317929033
 20
234.4294908799097
 30
0.0
 10
369.592100277528
 20
234.2533201293105
 30
0.0
 10
369.2475770751391
 20
233.8108181741569
 30
0.0
 10
369.0664861864001
 20
233.1241479698542
 30
0.0
 10
368.9166874189739
 20
231.9433195336859
 30
0.0
 10
368.8615673684567
 20
231.0386746189259
 30
0.0
 10
368.8550058744062
 20
230.624086694671
 30
0.0
 10
368.8536177912634
 20
230.536380677649
 30
0.0
  0
SPLINE
  5
61
330
1F
100
AcDbEntity
  8
0
  6
Continuous
 62
     7
370
    15
100
AcDbSpline
210
0.0
220
0.0
230
1.0
 70
     8
 71
     3
 72
    19
 73
    15
 74
     0
 42
0.00000001
 43
0.00000001
 40
0.0
 40
0.0
 40
0.0
 40
0.0
 40
0.0102736580858595
 40
0.1295975636571891
 40
0.3268133197889034
 40
0.5525089251900037
 40
0.5858547677167557
 40
0.618602349096509
 40
0.6529067906266129
 40
0.6960078850458572
 40
0.7523138275779295
 40
0.8223157439651771
 40
0.9054616433593872
 40
1.0
 40
1.0
 40
1.0
 40
1.0
 10
368.8507716694754
 20
212.9180467568126
 30
0.0
 10
368.8510948739622
 20
212.8908477751044
 30
0.0
 10
368.8551719528076
 20
212.5477448867388
 30
0.0
 10
368.8949344376599
 20
211.7277632493298
 30
0.0
 10
369.0299335038237
 20
210.5053333009336
 30
0.0
 10
369.1203505136064
 20
209.8619524674638
 30
0.0
 10
369.4712320361286
 20
209.321869877452
 30
0.0
 10
369.6404552576971
 20
209.1340253682311
 30
0.0
 10
369.8771621036793
 20
208.9575394314018
 30
0.0
 10
370.190791801854
 20
208.8040712174194
 30
0.0
 10
370.5942753597008
 20
208.7022804497554
 30
0.0
 10
371.0801439426588
 20
208.7254442592892
 30
0.0
 10
371.609888148673
 20
208.9357682219994
 30
0.0
 10
371.8751112363713
 20
209.2575875423445
 30
0.0
 10
372.0162253418845
 20
209.4288141347256
 30
0.0
  0
LINE
  5
62
330
1F
100
AcDbEntity
  8
0
  6
Continuous
 62
     7
370
    15
100
AcDbLine
 10
786.1482690612
 20
41.7180395566
 30
0.0
 11
786.1482690612
 21
76.7180508815
 31
0.0
  0
LINE
  5
63
330
1F
100
AcDbEntity
  8
0
  6
Continuous
 62
     7
370
    15
100
AcDbLine
 10
786.1482690612
 20
366.7180425368
 30
0.0
 11
786.1482690612
 21
401.7180538617
 31
0.0
  0
LINE
  5
64
330
1F
100
AcDbEntity
  8
0
  6
Continuous
 62
     7
370
    15
100
AcDbLine
 10
783.1482629815
 20
76.7180508815
 30
0.0
 11
783.1482629815
 21
77.718052908
 31
0.0
  0
LINE
  5
65
330
1F
100
AcDbEntity
  8
0
  6
Continuous
 62
     7
370
    15
100
AcDbLine
 10
783.1482629815
 20
112.7180493317
 30
0.0
 11
783.1482629815
 21
113.7180439077
 31
0.0
  0
LINE
  5
66
330
1F
100
AcDbEntity
  8
0
  6
Continuous
 62
     7
370
    15
100
AcDbLine
 10
778.1482677499
 20
113.7180439077
 30
0.0
 11
778.1482677499
 21
112.7180493317
 31
0.0
  0
LINE
  5
67
330
1F
100
AcDbEntity
  8
0
  6
Continuous
 62
     7
370
    15
100
AcDbLine
 10
778.1482677499
 20
77.718052908
 30
0.0
 11
778.1482677499
 21
76.7180508815
 31
0.0
  0
LINE
  5
68
330
1F
100
AcDbEntity
  8
0
  6
Continuous
 62
     7
370
    15
100
AcDbLine
 10
778.1482677499
 20
366.7180425368
 30
0.0
 11
778.1482677499
 21
365.7180405102
 31
0.0
  0
LINE
  5
69
330
1F
100
AcDbEntity
  8
0
  6
Continuous
 62
     7
370
    15
100
AcDbLine
 10
778.1482677499
 20
330.7180440865
 30
0.0
 11
778.1482677499
 21
329.7180495105
 31
0.0
  0
LINE
  5
6A
330
1F
100
AcDbEntity
  8
0
  6
Continuous
 62
     7
370
    15
100
AcDbLine
 10
783.1482629815
 20
329.7180495105
 30
0.0
 11
783.1482629815
 21
330.7180440865
 31
0.0
  0
LINE
  5
6B
330
1F
100
AcDbEntity
  8
0
  6
Continuous
 62
     7
370
    15
100
AcDbLine
 10
783.1482629815
 20
365.7180405102
 30
0.0
 11
783.1482629815
 21
366.7180425368
 31
0.0
  0
LINE
  5
6C
330
1F
100
AcDbEntity
  8
0
  6
Continuous
 62
     7
370
    15
100
AcDbLine
 10
366.3482706586
 20
215.2608576111
 30
0.0
 11
366.3482706586
 21
214.968046534
 31
0.0
  0
LINE
  5
6D
330
1F
100
AcDbEntity
  8
0
  6
Continuous
 62
     7
370
    15
100
AcDbLine
 10
366.3482706586
 20
228.4680468842
 30
0.0
 11
366.3482706586
 21
228.1752358071
 31
0.0
  0
LINE
  5
6E
330
1F
100
AcDbEntity
  8
0
  6
Continuous
 62
     7
370
    15
100
AcDbLine
 10
759.6482675115
 20
36.7180443249
 30
0.0
 11
759.6482675115
 21
21.7180437289
 31
0.0
  0
LINE
  5
6F
330
1F
100
AcDbEntity
  8
0
  6
Continuous
 62
     7
370
    15
100
AcDbLine
 10
759.6482675115
 20
36.7180443249
 30
0.0
 11
774.6482681075
 21
36.7180443249
 31
0.0
  0
ARC
  5
70
330
1F
100
AcDbEntity
  8
0
  6
Continuous
 62
     7
370
    15
100
AcDbCircle
 10
759.6482651273
 20
36.7180467091
 30
0.0
 40
15.00000000000001
100
AcDbArc
 50
270.0
 51
0.0
  0
LINE
  5
71
330
1F
100
AcDbEntity
  8
0
  6
Continuous
 62
     7
370
    15
100
AcDbLine
 10
389.6482627431
 20
21.7180437289
 30
0.0
 11
389.6482627431
 21
36.7180443249
 31
0.0
  0
LINE
  5
72
330
1F
100
AcDbEntity
  8
0
  6
Continuous
 62
     7
370
    15
100
AcDbLine
 10
389.6482627431
 20
36.7180443249
 30
0.0
 11
759.6482675115
 21
36.7180443249
 31
0.0
  0
LINE
  5
73
330
1F
100
AcDbEntity
  8
0
  6
Continuous
 62
     7
370
    15
100
AcDbLine
 10
389.6482627431
 20
21.7180437289
 30
0.0
 11
759.6482675115
 21
21.7180437289
 31
0.0
  0
ARC
  5
74
330
1F
100
AcDbEntity
  8
0
  6
Continuous
 62
     7
370
    15
100
AcDbCircle
 10
389.6482651273
 20
36.7180467091
 30
0.0
 40
15.00000000000006
100
AcDbArc
 50
180.0
 51
270.0
  0
LINE
  5
75
330
1F
100
AcDbEntity
  8
0
  6
Continuous
 62
     7
370
    15
100
AcDbLine
 10
374.648262147
 20
36.7180443249
 30
0.0
 11
389.6482627431
 21
36.7180443249
 31
0.0
  0
LINE
  5
76
330
1F
100
AcDbEntity
  8
0
  6
Continuous
 62
     7
370
    15
100
AcDbLine
 10
374.648262147
 20
211.7305545948
 30
0.0
 11
374.648262147
 21
36.7180443249
 31
0.0
  0
LINE
  5
77
330
1F
100
AcDbEntity
  8
0
  6
Continuous
 62
     7
370
    15
100
AcDbLine
 10
374.648262147
 20
231.7055388234
 30
0.0
 11
374.648262147
 21
406.7180490933
 31
0.0
  0
LINE
  5
78
330
1F
100
AcDbEntity
  8
0
  6
Continuous
 62
     7
370
    15
100
AcDbLine
 10
374.648262147
 20
406.7180490933
 30
0.0
 11
389.6482627431
 21
406.7180490933
 31
0.0
  0
LINE
  5
79
330
1F
100
AcDbEntity
  8
0
  6
Continuous
 62
     7
370
    15
100
AcDbLine
 10
389.6482627431
 20
406.7180490933
 30
0.0
 11
389.6482627431
 21
36.7180443249
 31
0.0
  0
LINE
  5
7A
330
1F
100
AcDbEntity
  8
0
  6
Continuous
 62
     7
370
    15
100
AcDbLine
 10
394.6482579747
 20
41.7180395566
 30
0.0
 11
394.6482579747
 21
401.7180538617
 31
0.0
  0
LINE
  5
7B
330
1F
100
AcDbEntity
  8
0
  6
Continuous
 62
     7
370
    15
100
AcDbLine
 10
394.6482579747
 20
401.7180538617
 30
0.0
 11
754.6482722798
 21
401.7180538617
 31
0.0
  0
LINE
  5
7C
330
1F
100
AcDbEntity
  8
0
  6
Continuous
 62
     7
370
    15
100
AcDbLine
 10
389.6482627431
 20
406.7180490933
 30
0.0
 11
759.6482675115
 21
406.7180490933
 31
0.0
  0
LINE
  5
7D
330
1F
100
AcDbEntity
  8
0
  6
Continuous
 62
     7
370
    15
100
AcDbLine
 10
759.6482675115
 20
36.7180443249
 30
0.0
 11
759.6482675115
 21
406.7180490933
 31
0.0
  0
LINE
  5
7E
330
1F
100
AcDbEntity
  8
0
  6
Continuous
 62
     7
370
    15
100
AcDbLine
 10
754.6482722798
 20
41.7180395566
 30
0.0
 11
754.6482722798
 21
401.7180538617
 31
0.0
  0
LINE
  5
7F
330
1F
100
AcDbEntity
  8
0
  6
Continuous
 62
     7
370
    15
100
AcDbLine
 10
754.6482722798
 20
41.7180395566
 30
0.0
 11
394.6482579747
 21
41.7180395566
 31
0.0
  0
LINE
  5
80
330
1F
100
AcDbEntity
  8
0
  6
Continuous
 62
     7
370
    15
100
AcDbLine
 10
774.6482681075
 20
36.7180443249
 30
0.0
 11
774.6482681075
 21
406.7180490933
 31
0.0
  0
LINE
  5
81
330
1F
100
AcDbEntity
  8
0
  6
Continuous
 62
     7
370
    15
100
AcDbLine
 10
774.6482681075
 20
406.7180490933
 30
0.0
 11
759.6482675115
 21
406.7180490933
 31
0.0
  0
LINE
  5
82
330
1F
100
AcDbEntity
  8
0
  6
Continuous
 62
     7
370
    15
100
AcDbLine
 10
389.6482627431
 20
406.7180490933
 30
0.0
 11
389.6482627431
 21
421.7180496894
 31
0.0
  0
LINE
  5
83
330
1F
100
AcDbEntity
  8
0
  6
Continuous
 62
     7
370
    15
100
AcDbLine
 10
389.6482627431
 20
421.7180496894
 30
0.0
 11
759.6482675115
 21
421.7180496894
 31
0.0
  0
LINE
  5
84
330
1F
100
AcDbEntity
  8
0
  6
Continuous
 62
     7
370
    15
100
AcDbLine
 10
759.6482675115
 20
421.7180496894
 30
0.0
 11
759.6482675115
 21
406.7180490933
 31
0.0
  0
ARC
  5
85
330
1F
100
AcDbEntity
  8
0
  6
Continuous
 62
     7
370
    15
100
AcDbCircle
 10
759.6482651273
 20
406.7180467091
 30
0.0
 40
15.0
100
AcDbArc
 50
0.0
 51
90.0
  0
ARC
  5
86
330
1F
100
AcDbEntity
  8
0
  6
Continuous
 62
     7
370
    15
100
AcDbCircle
 10
389.6482651273
 20
406.7180467091
 30
0.0
 40
15.00000000000006
100
AcDbArc
 50
90.0
 51
180.0
  0
LINE
  5
87
330
1F
100
AcDbEntity
  8
0
  6
Continuous
 62
     7
370
    15
100
AcDbLine
 10
373.4482716361
 20
232.7525297992
 30
0.0
 11
374.648262147
 21
232.7525297992
 31
0.0
  0
LINE
  5
88
330
1F
100
AcDbEntity
  8
0
  6
Continuous
 62
     7
370
    15
100
AcDbLine
 10
373.4482716361
 20
210.6835636191
 30
0.0
 11
374.648262147
 21
210.6835636191
 31
0.0
  0
LINE
  5
89
330
1F
100
AcDbEntity
  8
0
  6
Continuous
 62
     7
370
    15
100
AcDbLine
 10
373.4482716361
 20
210.6835636191
 30
0.0
 11
373.4482716361
 21
232.7525297992
 31
0.0
  0
LINE
  5
8A
330
1F
100
AcDbEntity
  8
0
  6
Continuous
 62
     7
370
    15
100
AcDbLine
 10
374.648262147
 20
231.7055388234
 30
0.0
 11
374.648262147
 21
211.7305545948
 31
0.0
  0
LINE
  5
8B
330
1F
100
AcDbEntity
  8
0
  6
Continuous
 62
     7
370
    15
100
AcDbLine
 10
373.3482699433
 20
213.7180463291
 30
0.0
 11
373.3482699433
 21
219.7180466141
 31
0.0
  0
LINE
  5
8C
330
1F
100
AcDbEntity
  8
0
  6
Continuous
 62
     7
370
    15
100
AcDbLine
 10
373.3482699433
 20
226.7180465974
 30
0.0
 11
373.3482699433
 21
229.7180470891
 31
0.0
  0
LINE
  5
8D
330
1F
100
AcDbEntity
  8
0
  6
Continuous
 62
     7
370
    15
100
AcDbLine
 10
373.3482699433
 20
223.7180468041
 30
0.0
 11
373.3482699433
 21
226.7180465974
 31
0.0
  0
LINE
  5
8E
330
1F
100
AcDbEntity
  8
0
  6
Continuous
 62
     7
370
    15
100
AcDbLine
 10
373.4482716361
 20
232.7525297992
 30
0.0
 11
373.4482716361
 21
233.2180467315
 31
0.0
  0
LINE
  5
8F
330
1F
100
AcDbEntity
  8
0
  6
Continuous
 62
     7
370
    15
100
AcDbLine
 10
373.4482716361
 20
210.2180466868
 30
0.0
 11
373.4482716361
 21
210.6835636191
 31
0.0
  0
LINE
  5
90
330
1F
100
AcDbEntity
  8
0
  6
Continuous
 62
     7
370
    15
100
AcDbLine
 10
775.549624447
 20
112.7180493317
 30
0.0
 11
775.549624447
 21
77.718052908
 31
0.0
  0
LINE
  5
91
330
1F
100
AcDbEntity
  8
0
  6
Continuous
 62
     7
370
    15
100
AcDbLine
 10
775.549624447
 20
112.7180493317
 30
0.0
 11
786.1482690612
 21
112.7180493317
 31
0.0
  0
LINE
  5
92
330
1F
100
AcDbEntity
  8
0
  6
Continuous
 62
     7
370
    15
100
AcDbLine
 10
775.549624447
 20
77.718052908
 30
0.0
 11
786.1482690612
 21
77.718052908
 31
0.0
  0
LINE
  5
93
330
1F
100
AcDbEntity
  8
0
  6
Continuous
 62
     7
370
    15
100
AcDbLine
 10
775.549624447
 20
365.7180405102
 30
0.0
 11
775.549624447
 21
330.7180440865
 31
0.0
  0
LINE
  5
94
330
1F
100
AcDbEntity
  8
0
  6
Continuous
 62
     7
370
    15
100
AcDbLine
 10
775.549624447
 20
365.7180405102
 30
0.0
 11
786.1482690612
 21
365.7180405102
 31
0.0
  0
LINE
  5
95
330
1F
100
AcDbEntity
  8
0
  6
Continuous
 62
     7
370
    15
100
AcDbLine
 10
775.549624447
 20
330.7180440865
 30
0.0
 11
786.1482690612
 21
330.7180440865
 31
0.0
  0
LINE
  5
96
330
1F
100
AcDbEntity
  8
0
  6
Continuous
 62
     7
370
    15
100
AcDbLine
 10
775.0861089269
 20
112.7180493317
 30
0.0
 11
775.0861089269
 21
77.718052908
 31
0.0
  0
LINE
  5
97
330
1F
100
AcDbEntity
  8
0
  6
Continuous
 62
     7
370
    15
100
AcDbLine
 10
775.0861089269
 20
112.7180493317
 30
0.0
 11
775.549624447
 21
112.7180493317
 31
0.0
  0
LINE
  5
98
330
1F
100
AcDbEntity
  8
0
  6
Continuous
 62
     7
370
    15
100
AcDbLine
 10
775.0861089269
 20
77.718052908
 30
0.0
 11
775.549624447
 21
77.718052908
 31
0.0
  0
LINE
  5
99
330
1F
100
AcDbEntity
  8
0
  6
Continuous
 62
     7
370
    15
100
AcDbLine
 10
775.0861089269
 20
365.7180405102
 30
0.0
 11
775.0861089269
 21
330.7180440865
 31
0.0
  0
LINE
  5
9A
330
1F
100
AcDbEntity
  8
0
  6
Continuous
 62
     7
370
    15
100
AcDbLine
 10
775.0861089269
 20
365.7180405102
 30
0.0
 11
775.549624447
 21
365.7180405102
 31
0.0
  0
LINE
  5
9B
330
1F
100
AcDbEntity
  8
0
  6
Continuous
 62
     7
370
    15
100
AcDbLine
 10
775.0861089269
 20
330.7180440865
 30
0.0
 11
775.549624447
 21
330.7180440865
 31
0.0
  0
LINE
  5
9C
330
1F
100
AcDbEntity
  8
0
  6
Continuous
 62
     7
370
    15
100
AcDbLine
 10
774.6482681075
 20
112.7180493317
 30
0.0
 11
775.0861089269
 21
112.7180493317
 31
0.0
  0
LINE
  5
9D
330
1F
100
AcDbEntity
  8
0
  6
Continuous
 62
     7
370
    15
100
AcDbLine
 10
774.6482681075
 20
77.718052908
 30
0.0
 11
775.0861089269
 21
77.718052908
 31
0.0
  0
LINE
  5
9E
330
1F
100
AcDbEntity
  8
0
  6
Continuous
 62
     7
370
    15
100
AcDbLine
 10
774.6482681075
 20
365.7180405102
 30
0.0
 11
775.0861089269
 21
365.7180405102
 31
0.0
  0
LINE
  5
9F
330
1F
100
AcDbEntity
  8
0
  6
Continuous
 62
     7
370
    15
100
AcDbLine
 10
774.6482681075
 20
330.7180440865
 30
0.0
 11
775.0861089269
 21
330.7180440865
 31
0.0
  0
LINE
  5
A0
330
1F
100
AcDbEntity
  8
0
  6
Continuous
 62
     7
370
    15
100
AcDbLine
 10
366.3787733355
 20
227.0180465534
 30
0.0
 11
365.6482588092
 21
227.0180465534
 31
0.0
  0
LINE
  5
A1
330
1F
100
AcDbEntity
  8
0
  6
Continuous
 62
     7
370
    15
100
AcDbLine
 10
366.3787733355
 20
227.0180465534
 30
0.0
 11
366.3787733355
 21
216.4180468648
 31
0.0
  0
LINE
  5
A2
330
1F
100
AcDbEntity
  8
0
  6
Continuous
 62
     7
370
    15
100
AcDbLine
 10
365.6482588092
 20
216.4180468648
 30
0.0
 11
366.3787733355
 21
216.4180468648
 31
0.0
  0
LINE
  5
A3
330
1F
100
AcDbEntity
  8
0
  6
Continuous
 62
     7
370
    15
100
AcDbLine
 10
365.6482588092
 20
227.0180465534
 30
0.0
 11
365.6482588092
 21
216.4180468648
 31
0.0
  0
LINE
  5
A4
330
1F
100
AcDbEntity
  8
0
  6
Continuous
 62
     7
370
    15
100
AcDbLine
 10
367.3308085242
 20
215.218046575
 30
0.0
 11
366.6002939979
 21
215.218046575
 31
0.0
  0
ARC
  5
A5
330
1F
100
AcDbEntity
  8
0
  6
Continuous
 62
     7
370
    15
100
AcDbCircle
 10
366.7404328878
 20
216.3068821475
 30
0.0
 40
1.097816839157933
100
AcDbArc
 50
174.1882798295
 51
262.6660489201
  0
ARC
  5
A6
330
1F
100
AcDbEntity
  8
0
  6
Continuous
 62
     7
370
    15
100
AcDbCircle
 10
367.4709474141
 20
216.3068821475
 30
0.0
 40
1.097816839157933
100
AcDbArc
 50
174.1882798295
 51
262.6660489201
  0
ARC
  5
A7
330
1F
100
AcDbEntity
  8
0
  6
Continuous
 62
     7
370
    15
100
AcDbCircle
 10
367.4709474141
 20
227.1292112708
 30
0.0
 40
1.097816839157938
100
AcDbArc
 50
97.3339510799
 51
185.8117201705
  0
LINE
  5
A8
330
1F
100
AcDbEntity
  8
0
  6
Continuous
 62
     7
370
    15
100
AcDbLine
 10
367.3308085242
 20
228.2180468432
 30
0.0
 11
370.8742450515
 21
228.2180468432
 31
0.0
  0
LINE
  5
A9
330
1F
100
AcDbEntity
  8
0
  6
Continuous
 62
     7
370
    15
100
AcDbLine
 10
370.8742450515
 20
228.2180468432
 30
0.0
 11
370.8742450515
 21
215.218046575
 31
0.0
  0
LINE
  5
AA
330
1F
100
AcDbEntity
  8
0
  6
Continuous
 62
     7
370
    15
100
AcDbLine
 10
370.8742450515
 20
215.218046575
 30
0.0
 11
367.3308085242
 21
215.218046575
 31
0.0
  0
LINE
  5
AB
330
1F
100
AcDbEntity
  8
0
  6
Continuous
 62
     7
370
    15
100
AcDbLine
 10
366.6002939979
 20
228.2180468432
 30
0.0
 11
367.3308085242
 21
228.2180468432
 31
0.0
  0
ARC
  5
AC
330
1F
100
AcDbEntity
  8
0
  6
Continuous
 62
     7
370
    15
100
AcDbCircle
 10
366.7404328878
 20
227.1292112708
 30
0.0
 40
1.097816839157938
100
AcDbArc
 50
97.3339510799
 51
185.8117201705
  0
LINE
  5
AD
330
1F
100
AcDbEntity
  8
0
  6
Continuous
 62
     7
370
    15
100
AcDbLine
 10
370.9557842055
 20
228.2180468432
 30
0.0
 11
370.8742450515
 21
228.2180468432
 31
0.0
  0
LINE
  5
AE
330
1F
100
AcDbEntity
  8
0
  6
Continuous
 62
     7
370
    15
100
AcDbLine
 10
370.8742450515
 20
215.218046575
 30
0.0
 11
371.0077743569
 21
215.218046575
 31
0.0
  0
LINE
  5
AF
330
1F
100
AcDbEntity
  8
0
  6
Continuous
 62
     7
370
    15
100
AcDbLine
 10
365.6482588092
 20
217.0180467769
 30
0.0
 11
365.5434589425
 21
217.0180467769
 31
0.0
  0
LINE
  5
B0
330
1F
100
AcDbEntity
  8
0
  6
Continuous
 62
     7
370
    15
100
AcDbLine
 10
365.6482588092
 20
225.6180466033
 30
0.0
 11
365.5434589425
 21
225.6180466033
 31
0.0
  0
LINE
  5
B1
330
1F
100
AcDbEntity
  8
0
  6
Continuous
 62
     7
370
    15
100
AcDbLine
 10
371.0141520539
 20
214.5180468328
 30
0.0
 11
366.148267273
 21
214.5180468328
 31
0.0
  0
LINE
  5
B2
330
1F
100
AcDbEntity
  8
0
  6
Continuous
 62
     7
370
    15
100
AcDbLine
 10
371.0224221984
 20
213.7180463291
 30
0.0
 11
366.1488633195
 21
213.7180463291
 31
0.0
  0
LINE
  5
B3
330
1F
100
AcDbEntity
  8
0
  6
Continuous
 62
     7
370
    15
100
AcDbLine
 10
371.0164170304
 20
228.9180465854
 30
0.0
 11
366.148267273
 21
228.9180465854
 31
0.0
  0
LINE
  5
B4
330
1F
100
AcDbEntity
  8
0
  6
Continuous
 62
     7
370
    15
100
AcDbLine
 10
370.9925453702
 20
229.7180470891
 30
0.0
 11
366.1488633195
 21
229.7180470891
 31
0.0
  0
LINE
  5
B5
330
1F
100
AcDbEntity
  8
0
  6
Continuous
 62
     7
370
    15
100
AcDbLine
 10
369.7482686082
 20
230.0180465795
 30
0.0
 11
370.9116171637
 21
230.0180465795
 31
0.0
  0
LINE
  5
B6
330
1F
100
AcDbEntity
  8
0
  6
Continuous
 62
     7
370
    15
100
AcDbLine
 10
371.0747699777
 20
230.0180465795
 30
0.0
 11
371.1371164361
 21
230.0180465795
 31
0.0
  0
LINE
  5
B7
330
1F
100
AcDbEntity
  8
0
  6
Continuous
 62
     7
370
    15
100
AcDbLine
 10
367.5482611695
 20
230.0180465795
 30
0.0
 11
369.7482686082
 21
230.0180465795
 31
0.0
  0
LINE
  5
B8
330
1F
100
AcDbEntity
  8
0
  6
Continuous
 62
     7
370
    15
100
AcDbLine
 10
369.7482686082
 20
213.3180470086
 30
0.0
 11
370.8516548911
 21
213.3180470086
 31
0.0
  0
LINE
  5
B9
330
1F
100
AcDbEntity
  8
0
  6
Continuous
 62
     7
370
    15
100
AcDbLine
 10
367.6482628623
 20
213.3180470086
 30
0.0
 11
369.7482686082
 21
213.3180470086
 31
0.0
  0
LINE
  5
BA
330
1F
100
AcDbEntity
  8
0
  6
Continuous
 62
     7
370
    15
100
AcDbLine
 10
369.7482686082
 20
212.9180467568
 30
0.0
 11
370.6117759982
 21
212.9180467568
 31
0.0
  0
LINE
  5
BB
330
1F
100
AcDbEntity
  8
0
  6
Continuous
 62
     7
370
    15
100
AcDbLine
 10
367.6482628623
 20
212.9180467568
 30
0.0
 11
369.7482686082
 21
212.9180467568
 31
0.0
  0
ARC
  5
BC
330
1F
100
AcDbEntity
  8
0
  6
Continuous
 62
     7
370
    15
100
AcDbCircle
 10
366.6140191249
 20
228.9203008543
 30
0.0
 40
0.80271497526651
100
AcDbArc
 50
125.4660676112
 51
180.1609042628
  0
ARC
  5
BD
330
1F
100
AcDbEntity
  8
0
  6
Continuous
 62
     7
370
    15
100
AcDbCircle
 10
366.6140191249
 20
214.5157925639
 30
0.0
 40
0.8027149752665015
100
AcDbArc
 50
179.8390957372
 51
234.5339323887
  0
LINE
  5
BE
330
1F
100
AcDbEntity
  8
0
  6
Continuous
 62
     7
370
    15
100
AcDbLine
 10
366.5991466084
 20
214.968046534
 30
0.0
 11
366.5991466084
 21
214.5180468328
 31
0.0
  0
LINE
  5
BF
330
1F
100
AcDbEntity
  8
0
  6
Continuous
 62
     7
370
    15
100
AcDbLine
 10
366.5991466084
 20
228.9180465854
 30
0.0
 11
366.5991466084
 21
228.4680468842
 31
0.0
  0
LINE
  5
C0
330
1F
100
AcDbEntity
  8
0
  6
Continuous
 62
     7
370
    15
100
AcDbLine
 10
365.811307315
 20
227.6896046355
 30
0.0
 11
365.811307315
 21
228.9180465854
 31
0.0
  0
LINE
  5
C1
330
1F
100
AcDbEntity
  8
0
  6
Continuous
 62
     7
370
    15
100
AcDbLine
 10
365.811307315
 20
214.5180468328
 30
0.0
 11
365.811307315
 21
215.7464887827
 31
0.0
  0
SPLINE
  5
C2
330
1F
100
AcDbEntity
  8
0
  6
Continuous
 62
     7
370
    15
100
AcDbSpline
210
0.0
220
0.0
230
1.0
 70
    24
 71
     3
 72
    12
 73
     8
 74
     0
 42
0.00000001
 43
0.00000001
 40
0.0
 40
0.0
 40
0.0
 40
0.0
 40
0.21850475705506
 40
0.4370160926338405
 40
0.655518294428951
 40
0.8740298516726993
 40
1.0
 40
1.0
 40
1.0
 40
1.0
 10
372.8076111117285
 20
228.4104417890098
 30
0.0
 10
372.6108914159601
 20
228.4104417890098
 30
0.0
 10
372.2174461017825
 20
228.4104417890098
 30
0.0
 10
371.6566904970273
 20
228.4104417890098
 30
0.0
 10
371.2390199322838
 20
228.4104417890098
 30
0.0
 10
371.0124642699024
 20
228.4104417890098
 30
0.0
 10
371.0299904939814
 20
228.4104417890098
 30
0.0
 10
371.036399487583
 20
228.4104417890098
 30
0.0
  0
SPLINE
  5
C3
330
1F
100
AcDbEntity
  8
0
  6
Continuous
 62
     7
370
    15
100
AcDbSpline
210
0.0
220
0.0
230
1.0
 70
    24
 71
     3
 72
     9
 73
     5
 74
     0
 42
0.00000001
 43
0.00000001
 40
0.0
 40
0.0
 40
0.0
 40
0.0
 40
0.1970246968420801
 40
1.0
 40
1.0
 40
1.0
 40
1.0
 10
373.4482716360968
 20
228.4104417890098
 30
0.0
 10
373.4156198216818
 20
228.4104417890098
 30
0.0
 10
373.24989534684
 20
228.4104417890098
 30
0.0
 10
373.0045873637873
 20
228.4104417890098
 30
0.0
 10
372.8076111117285
 20
228.4104417890098
 30
0.0
  0
SPLINE
  5
C4
330
1F
100
AcDbEntity
  8
0
  6
Continuous
 62
     7
370
    15
100
AcDbSpline
210
0.0
220
0.0
230
1.0
 70
     8
 71
     3
 72
    13
 73
     9
 74
     0
 42
0.00000001
 43
0.00000001
 40
0.0
 40
0.0
 40
0.0
 40
0.0
 40
0.1877389811444425
 40
0.3754725915051958
 40
0.5632104231666053
 40
0.7509480975030056
 40
0.9386849895549241
 40
1.0
 40
1.0
 40
1.0
 40
1.0
 10
372.5143264571112
 20
232.0252804897513
 30
0.0
 10
372.3176295990251
 20
232.0225818062218
 30
0.0
 10
371.9242415099006
 20
232.0171845163659
 30
0.0
 10
371.3912254809838
 20
231.7266428771455
 30
0.0
 10
371.0007078644837
 20
231.2717416940526
 30
0.0
 10
370.8277353155331
 20
230.7100652807874
 30
0.0
 10
370.8310330404672
 20
230.2368659553626
 30
0.0
 10
370.9583656602234
 20
230.0154343258792
 30
0.0
 10
370.9897141495627
 20
229.9609192527618
 30
0.0
  0
SPLINE
  5
C5
330
1F
100
AcDbEntity
  8
0
  6
Continuous
 62
     7
370
    15
100
AcDbSpline
210
0.0
220
0.0
230
1.0
 70
     8
 71
     3
 72
    10
 73
     6
 74
     0
 42
0.00000001
 43
0.00000001
 40
0.0
 40
0.0
 40
0.0
 40
0.0
 40
0.209339577391036
 40
0.6046690057291061
 40
0.9999999999999999
 40
0.9999999999999999
 40
0.9999999999999999
 40
0.9999999999999999
 10
373.6514936724585
 20
231.2191658533897
 30
0.0
 10
373.6097911561654
 20
231.3122295715152
 30
0.0
 10
373.4893351039576
 20
231.5810404032256
 30
0.0
 10
373.0826331784999
 20
231.8976966349265
 30
0.0
 10
372.7037622810302
 20
231.982752481991
 30
0.0
 10
372.5143264571112
 20
232.0252804897513
 30
0.0
  0
SPLINE
  5
C6
330
1F
100
AcDbEntity
  8
0
  6
Continuous
 62
     7
370
    15
100
AcDbSpline
210
0.0
220
0.0
230
1.0
 70
     8
 71
     3
 72
    13
 73
     9
 74
     0
 42
0.00000001
 43
0.00000001
 40
0.0
 40
0.0
 40
0.0
 40
0.0
 40
0.1768612988651324
 40
0.3537265060719917
 40
0.5305915684291158
 40
0.7074548346711061
 40
0.8843186579751815
 40
1.0
 40
1.0
 40
1.0
 40
1.0
 10
372.4971007147711
 20
211.382093734273
 30
0.0
 10
372.3004335874479
 20
211.3847845049404
 30
0.0
 10
371.9070949867835
 20
211.3901661057369
 30
0.0
 10
371.3737099624098
 20
211.6808411669683
 30
0.0
 10
370.9845793125618
 20
212.1352056733052
 30
0.0
 10
370.8064193639212
 20
212.6988989081994
 30
0.0
 10
370.8273817637521
 20
213.2320525988596
 30
0.0
 10
370.993475139471
 20
213.5053209456074
 30
0.0
 10
371.059153560726
 20
213.6133796416011
 30
0.0
  0
SPLINE
  5
C7
330
1F
100
AcDbEntity
  8
0
  6
Continuous
 62
     7
370
    15
100
AcDbSpline
210
0.0
220
0.0
230
1.0
 70
     8
 71
     3
 72
    10
 73
     6
 74
     0
 42
0.00000001
 43
0.00000001
 40
0.0
 40
0.0
 40
0.0
 40
0.0
 40
0.0588268036387996
 40
0.5294118412591011
 40
1.0
 40
1.0
 40
1.0
 40
1.0
 10
373.5272179881018
 20
211.9820033080664
 30
0.0
 10
373.5165782915093
 20
211.9605230663523
 30
0.0
 10
373.4208263380618
 20
211.7672116230457
 30
0.0
 10
373.0599940196404
 20
211.5130145491209
 30
0.0
 10
372.6847322312089
 20
211.4257341023688
 30
0.0
 10
372.4971007147711
 20
211.382093734273
 30
0.0
  0
SPLINE
  5
C8
330
1F
100
AcDbEntity
  8
0
  6
Continuous
 62
     7
370
    15
100
AcDbSpline
210
0.0
220
0.0
230
1.0
 70
    24
 71
     3
 72
    12
 73
     8
 74
     0
 42
0.00000001
 43
0.00000001
 40
0.0
 40
0.0
 40
0.0
 40
0.0
 40
0.2193528834461185
 40
0.4387123709505026
 40
0.6580626892184281
 40
0.8774223992481727
 40
1.0
 40
1.0
 40
1.0
 40
1.0
 10
372.8076111117285
 20
214.8518109574702
 30
0.0
 10
372.6108960374175
 20
214.8518109574702
 30
0.0
 10
372.2174599662939
 20
214.8518109574702
 30
0.0
 10
371.6566350379995
 20
214.8518109574702
 30
0.0
 10
371.2392278974813
 20
214.8518109574702
 30
0.0
 10
371.0133885567412
 20
214.8518109574702
 30
0.0
 10
371.0303602005008
 20
214.8518109574702
 30
0.0
 10
371.0364441910666
 20
214.8518109574702
 30
0.0
  0
SPLINE
  5
C9
330
1F
100
AcDbEntity
  8
0
  6
Continuous
 62
     7
370
    15
100
AcDbSpline
210
0.0
220
0.0
230
1.0
 70
    24
 71
     3
 72
     9
 73
     5
 74
     0
 42
0.00000001
 43
0.00000001
 40
0.0
 40
0.0
 40
0.0
 40
0.0
 40
0.1970246968420801
 40
1.0
 40
1.0
 40
1.0
 40
1.0
 10
373.4482716360968
 20
214.8518109574702
 30
0.0
 10
373.4156198216818
 20
214.8518109574702
 30
0.0
 10
373.24989534684
 20
214.8518109574702
 30
0.0
 10
373.0045873637873
 20
214.8518109574702
 30
0.0
 10
372.8076111117285
 20
214.8518109574702
 30
0.0
  0
SPLINE
  5
CA
330
1F
100
AcDbEntity
  8
0
  6
Continuous
 62
     7
370
    15
100
AcDbSpline
210
0.0
220
0.0
230
1.0
 70
     8
 71
     3
 72
    13
 73
     9
 74
     0
 42
0.00000001
 43
0.00000001
 40
0.0
 40
0.0
 40
0.0
 40
0.0
 40
0.1768612840288145
 40
0.3537263461533859
 40
0.5305916078062589
 40
0.7074548592117663
 40
0.8843186676793121
 40
0.9999999999999999
 40
0.9999999999999999
 40
0.9999999999999999
 40
0.9999999999999999
 10
370.9452490845603
 20
234.6416990153279
 30
0.0
 10
370.7485820109036
 20
234.6390081576894
 30
0.0
 10
370.3552436624049
 20
234.6336263849306
 30
0.0
 10
369.8218577278318
 20
234.3429526864022
 30
0.0
 10
369.4327279863138
 20
233.8885870703502
 30
0.0
 10
369.2545676709521
 20
233.3248939045314
 30
0.0
 10
369.2755301430879
 20
232.7917401411381
 30
0.0
 10
369.4416235119655
 20
232.5184718012722
 30
0.0
 10
369.5073019305152
 20
232.4104131079998
 30
0.0
  0
SPLINE
  5
CB
330
1F
100
AcDbEntity
  8
0
  6
Continuous
 62
     7
370
    15
100
AcDbSpline
210
0.0
220
0.0
230
1.0
 70
     8
 71
     3
 72
    10
 73
     6
 74
     0
 42
0.00000001
 43
0.00000001
 40
0.0
 40
0.0
 40
0.0
 40
0.0
 40
0.1474617340987049
 40
0.5737294534547281
 40
1.0
 40
1.0
 40
1.0
 40
1.0
 10
372.0338385144156
 20
233.9291729844894
 30
0.0
 10
372.005776401588
 20
233.9894670872249
 30
0.0
 10
371.8965951231104
 20
234.2240533873276
 30
0.0
 10
371.5115424865446
 20
234.5128744792188
 30
0.0
 10
371.1340139692086
 20
234.5987574083565
 30
0.0
 10
370.9452490845603
 20
234.6416990153279
 30
0.0
  0
SPLINE
  5
CC
330
1F
100
AcDbEntity
  8
0
  6
Continuous
 62
     7
370
    15
100
AcDbSpline
210
0.0
220
0.0
230
1.0
 70
     8
 71
     3
 72
    13
 73
     9
 74
     0
 42
0.00000001
 43
0.00000001
 40
0.0
 40
0.0
 40
0.0
 40
0.0
 40
0.1768612988651324
 40
0.3537265060719917
 40
0.5305915684291158
 40
0.7074548346711061
 40
0.8843186579751815
 40
1.0
 40
1.0
 40
1.0
 40
1.0
 10
370.9280233422202
 20
208.7656752086964
 30
0.0
 10
370.7313562148969
 20
208.7683659793638
 30
0.0
 10
370.3380176142326
 20
208.7737475801603
 30
0.0
 10
369.8046325898588
 20
209.0644226413917
 30
0.0
 10
369.4155019400108
 20
209.5187871477286
 30
0.0
 10
369.2373419913703
 20
210.0824803826228
 30
0.0
 10
369.2583043912011
 20
210.615634073283
 30
0.0
 10
369.42439776692
 20
210.8889024200308
 30
0.0
 10
369.4900761881751
 20
210.9969611160245
 30
0.0
  0
SPLINE
  5
CD
330
1F
100
AcDbEntity
  8
0
  6
Continuous
 62
     7
370
    15
100
AcDbSpline
210
0.0
220
0.0
230
1.0
 70
     8
 71
     3
 72
    10
 73
     6
 74
     0
 42
0.00000001
 43
0.00000001
 40
0.0
 40
0.0
 40
0.0
 40
0.0
 40
0.1474563383300455
 40
0.5737308633614325
 40
1.0
 40
1.0
 40
1.0
 40
1.0
 10
372.0166127720755
 20
209.4782012395349
 30
0.0
 10
371.9885561394426
 20
209.4179068290468
 30
0.0
 10
371.8793919200824
 20
209.1833101709653
 30
0.0
 10
371.4943141331738
 20
208.8945054733213
 30
0.0
 10
371.1167861438324
 20
208.808618449292
 30
0.0
 10
370.9280233422202
 20
208.7656752086964
 30
0.0
  0
LINE
  5
CE
330
1F
100
AcDbEntity
  8
0
  6
Continuous
 62
     7
370
    15
100
AcDbLine
 10
775.549624447
 20
76.7180508815
 30
0.0
 11
775.549624447
 21
41.7180395566
 31
0.0
  0
LINE
  5
CF
330
1F
100
AcDbEntity
  8
0
  6
Continuous
 62
     7
370
    15
100
AcDbLine
 10
786.1482690612
 20
41.7180395566
 30
0.0
 11
775.549624447
 21
41.7180395566
 31
0.0
  0
LINE
  5
D0
330
1F
100
AcDbEntity
  8
0
  6
Continuous
 62
     7
370
    15
100
AcDbLine
 10
786.1482690612
 20
76.7180508815
 30
0.0
 11
775.549624447
 21
76.7180508815
 31
0.0
  0
LINE
  5
D1
330
1F
100
AcDbEntity
  8
0
  6
Continuous
 62
     7
370
    15
100
AcDbLine
 10
775.549624447
 20
401.7180538617
 30
0.0
 11
775.549624447
 21
366.7180425368
 31
0.0
  0
LINE
  5
D2
330
1F
100
AcDbEntity
  8
0
  6
Continuous
 62
     7
370
    15
100
AcDbLine
 10
786.1482690612
 20
366.7180425368
 30
0.0
 11
775.549624447
 21
366.7180425368
 31
0.0
  0
LINE
  5
D3
330
1F
100
AcDbEntity
  8
0
  6
Continuous
 62
     7
370
    15
100
AcDbLine
 10
786.1482690612
 20
401.7180538617
 30
0.0
 11
775.549624447
 21
401.7180538617
 31
0.0
  0
LINE
  5
D4
330
1F
100
AcDbEntity
  8
0
  6
Continuous
 62
     7
370
    15
100
AcDbLine
 10
783.1482629815
 20
113.7180439077
 30
0.0
 11
778.1482677499
 21
113.7180439077
 31
0.0
  0
LINE
  5
D5
330
1F
100
AcDbEntity
  8
0
  6
Continuous
 62
     7
370
    15
100
AcDbLine
 10
778.1482677499
 20
329.7180495105
 30
0.0
 11
783.1482629815
 21
329.7180495105
 31
0.0
  0
LINE
  5
D6
330
1F
100
AcDbEntity
  8
0
  6
Continuous
 62
     7
370
    15
100
AcDbLine
 10
775.0861089269
 20
41.7180395566
 30
0.0
 11
775.0861089269
 21
76.7180508815
 31
0.0
  0
LINE
  5
D7
330
1F
100
AcDbEntity
  8
0
  6
Continuous
 62
     7
370
    15
100
AcDbLine
 10
775.549624447
 20
41.7180395566
 30
0.0
 11
775.0861089269
 21
41.7180395566
 31
0.0
  0
LINE
  5
D8
330
1F
100
AcDbEntity
  8
0
  6
Continuous
 62
     7
370
    15
100
AcDbLine
 10
775.0861089269
 20
76.7180508815
 30
0.0
 11
775.549624447
 21
76.7180508815
 31
0.0
  0
LINE
  5
D9
330
1F
100
AcDbEntity
  8
0
  6
Continuous
 62
     7
370
    15
100
AcDbLine
 10
775.0861089269
 20
366.7180425368
 30
0.0
 11
775.0861089269
 21
401.7180538617
 31
0.0
  0
LINE
  5
DA
330
1F
100
AcDbEntity
  8
0
  6
Continuous
 62
     7
370
    15
100
AcDbLine
 10
775.549624447
 20
366.7180425368
 30
0.0
 11
775.0861089269
 21
366.7180425368
 31
0.0
  0
LINE
  5
DB
330
1F
100
AcDbEntity
  8
0
  6
Continuous
 62
     7
370
    15
100
AcDbLine
 10
775.0861089269
 20
401.7180538617
 30
0.0
 11
775.549624447
 21
401.7180538617
 31
0.0
  0
LINE
  5
DC
330
1F
100
AcDbEntity
  8
0
  6
Continuous
 62
     7
370
    15
100
AcDbLine
 10
775.0861089269
 20
366.7180425368
 30
0.0
 11
774.6482681075
 21
366.7180425368
 31
0.0
  0
LINE
  5
DD
330
1F
100
AcDbEntity
  8
0
  6
Continuous
 62
     7
370
    15
100
AcDbLine
 10
775.0861089269
 20
401.7180538617
 30
0.0
 11
774.6482681075
 21
401.7180538617
 31
0.0
  0
LINE
  5
DE
330
1F
100
AcDbEntity
  8
0
  6
Continuous
 62
     7
370
    15
100
AcDbLine
 10
775.0861089269
 20
41.7180395566
 30
0.0
 11
774.6482681075
 21
41.7180395566
 31
0.0
  0
LINE
  5
DF
330
1F
100
AcDbEntity
  8
0
  6
Continuous
 62
     7
370
    15
100
AcDbLine
 10
775.0861089269
 20
76.7180508815
 30
0.0
 11
774.6482681075
 21
76.7180508815
 31
0.0
  0
LINE
  5
E0
330
1F
100
AcDbEntity
  8
0
  6
Continuous
 62
     7
370
    15
100
AcDbLine
 10
369.4482635299
 20
214.968046534
 30
0.0
 11
371.0077743569
 21
214.968046534
 31
0.0
  0
LINE
  5
E1
330
1F
100
AcDbEntity
  8
0
  6
Continuous
 62
     7
370
    15
100
AcDbLine
 10
369.4482635299
 20
228.4680468842
 30
0.0
 11
371.0083406011
 21
228.4680468842
 31
0.0
  0
LINE
  5
E2
330
1F
100
AcDbEntity
  8
0
  6
Continuous
 62
     7
370
    15
100
AcDbLine
 10
369.4482635299
 20
214.968046534
 30
0.0
 11
366.3482706586
 21
214.968046534
 31
0.0
  0
LINE
  5
E3
330
1F
100
AcDbEntity
  8
0
  6
Continuous
 62
     7
370
    15
100
AcDbLine
 10
369.4482635299
 20
228.4680468842
 30
0.0
 11
366.3482706586
 21
228.4680468842
 31
0.0
  0
LINE
  5
E4
330
1F
100
AcDbEntity
  8
0
  6
Continuous
 62
     8
370
    15
100
AcDbLine
 10
369.4482635299
 20
215.218046575
 30
0.0
 11
369.4482635299
 21
214.968046534
 31
0.0
  0
LINE
  5
E5
330
1F
100
AcDbEntity
  8
0
  6
Continuous
 62
     8
370
    15
100
AcDbLine
 10
369.4482635299
 20
228.4680468842
 30
0.0
 11
369.4482635299
 21
228.2180468432
 31
0.0
  0
LINE
  5
E6
330
1F
100
AcDbEntity
  8
0
  6
Continuous
 62
     7
370
    15
100
AcDbLine
 10
275.1740300403
 20
228.2180468432
 30
0.0
 11
275.1740300403
 21
215.218046575
 31
0.0
  0
LINE
  5
E7
330
1F
100
AcDbEntity
  8
0
  6
Continuous
 62
     7
370
    15
100
AcDbLine
 10
265.3840267405
 20
213.7180463291
 30
0.0
 11
265.3840267405
 21
214.5180468328
 31
0.0
  0
LINE
  5
E8
330
1F
100
AcDbEntity
  8
0
  6
Continuous
 62
     7
370
    15
100
AcDbLine
 10
265.3840267405
 20
228.9180465854
 30
0.0
 11
265.3840267405
 21
229.7180470891
 31
0.0
  0
ARC
  5
E9
330
1F
100
AcDbEntity
  8
0
  6
Continuous
 62
     7
370
    15
100
AcDbCircle
 10
262.6540268931
 20
226.910903852
 30
0.0
 40
3.807142857143189
100
AcDbArc
 50
54.6997515601
 51
125.3002484399
  0
LINE
  5
EA
330
1F
100
AcDbEntity
  8
0
  6
Continuous
 62
     7
370
    15
100
AcDbLine
 10
260.454022263
 20
230.0180465795
 30
0.0
 11
260.454022263
 21
229.7180470891
 31
0.0
  0
LINE
  5
EB
330
1F
100
AcDbEntity
  8
0
  6
Continuous
 62
     7
370
    15
100
AcDbLine
 10
264.8540222392
 20
229.7180470891
 30
0.0
 11
264.8540222392
 21
230.0180465795
 31
0.0
  0
LINE
  5
EC
330
1F
100
AcDbEntity
  8
0
  6
Continuous
 62
     7
370
    15
100
AcDbLine
 10
260.5540239558
 20
213.3180470086
 30
0.0
 11
260.5540239558
 21
212.9180467568
 31
0.0
  0
LINE
  5
ED
330
1F
100
AcDbEntity
  8
0
  6
Continuous
 62
     7
370
    15
100
AcDbLine
 10
264.7540205464
 20
212.9180467568
 30
0.0
 11
264.7540205464
 21
213.3180470086
 31
0.0
  0
ARC
  5
EE
330
1F
100
AcDbEntity
  8
0
  6
Continuous
 62
     7
370
    15
100
AcDbCircle
 10
260.7540268931
 20
213.7180467092
 30
0.0
 40
0.4000000000007731
100
AcDbArc
 50
270.0
 51
0.0
  0
ARC
  5
EF
330
1F
100
AcDbEntity
  8
0
  6
Continuous
 62
     7
370
    15
100
AcDbCircle
 10
264.5540268931
 20
213.7180467092
 30
0.0
 40
0.4000000000007162
100
AcDbArc
 50
180.0
 51
270.0
  0
LINE
  5
F0
330
1F
100
AcDbEntity
  8
0
  6
Continuous
 62
     7
370
    15
100
AcDbLine
 10
261.1540341124
 20
228.9180465854
 30
0.0
 11
261.1540341124
 21
228.4680468842
 31
0.0
  0
LINE
  5
F1
330
1F
100
AcDbEntity
  8
0
  6
Continuous
 62
     7
370
    15
100
AcDbLine
 10
261.1540341124
 20
227.4680467203
 30
0.0
 11
261.1540341124
 21
226.9793421842
 31
0.0
  0
LINE
  5
F2
330
1F
100
AcDbEntity
  8
0
  6
Continuous
 62
     7
370
    15
100
AcDbLine
 10
261.1540341124
 20
226.183227624
 30
0.0
 11
261.1540341124
 21
226.0275305129
 31
0.0
  0
LINE
  5
F3
330
1F
100
AcDbEntity
  8
0
  6
Continuous
 62
     7
370
    15
100
AcDbLine
 10
261.1540341124
 20
216.7284198917
 30
0.0
 11
261.1540341124
 21
215.968046698
 31
0.0
  0
LINE
  5
F4
330
1F
100
AcDbEntity
  8
0
  6
Continuous
 62
     7
370
    15
100
AcDbLine
 10
261.1540341124
 20
214.968046534
 30
0.0
 11
261.1540341124
 21
214.5180468328
 31
0.0
  0
LINE
  5
F5
330
1F
100
AcDbEntity
  8
0
  6
Continuous
 62
     7
370
    15
100
AcDbLine
 10
264.154025291
 20
214.5180468328
 30
0.0
 11
264.154025291
 21
214.968046534
 31
0.0
  0
LINE
  5
F6
330
1F
100
AcDbEntity
  8
0
  6
Continuous
 62
     7
370
    15
100
AcDbLine
 10
264.154025291
 20
215.968046698
 30
0.0
 11
264.154025291
 21
216.4551889404
 31
0.0
  0
LINE
  5
F7
330
1F
100
AcDbEntity
  8
0
  6
Continuous
 62
     7
370
    15
100
AcDbLine
 10
264.154025291
 20
225.7631061479
 30
0.0
 11
264.154025291
 21
225.9510447152
 31
0.0
  0
LINE
  5
F8
330
1F
100
AcDbEntity
  8
0
  6
Continuous
 62
     7
370
    15
100
AcDbLine
 10
264.154025291
 20
226.7061238058
 30
0.0
 11
264.154025291
 21
227.4680467203
 31
0.0
  0
LINE
  5
F9
330
1F
100
AcDbEntity
  8
0
  6
Continuous
 62
     7
370
    15
100
AcDbLine
 10
264.154025291
 20
228.4680468842
 30
0.0
 11
264.154025291
 21
228.9180465854
 31
0.0
  0
SPLINE
  5
FA
330
1F
100
AcDbEntity
  8
0
  6
Continuous
 62
     7
370
    15
100
AcDbSpline
210
0.0
220
0.0
230
1.0
 70
     8
 71
     3
 72
    15
 73
    11
 74
     0
 42
0.00000001
 43
0.00000001
 40
0.0
 40
0.0
 40
0.0
 40
0.0
 40
0.135602058861544
 40
0.2953298300878975
 40
0.4038099788193052
 40
0.5319609770010262
 40
0.6738423089739348
 40
0.8261094297264101
 40
0.9126121841778267
 40
1.0
 40
1.0
 40
1.0
 40
1.0
 10
264.1540252909621
 20
216.2840919449713
 30
0.0
 10
264.1984069522304
 20
216.276768732447
 30
0.0
 10
264.2950664616169
 20
216.2608193941503
 30
0.0
 10
264.5019159467271
 20
216.308487365284
 30
0.0
 10
264.6951855059064
 20
216.3962140568698
 30
0.0
 10
264.8417638149533
 20
216.5158770189502
 30
0.0
 10
264.9404717989329
 20
216.666771963926
 30
0.0
 10
264.9701324638807
 20
216.7886078822104
 30
0.0
 10
264.9489532827633
 20
216.9178713582358
 30
0.0
 10
264.9027019112984
 20
216.9845418584034
 30
0.0
 10
264.8794585213622
 20
217.0180467769291
 30
0.0
  0
SPLINE
  5
FB
330
1F
100
AcDbEntity
  8
0
  6
Continuous
 62
     7
370
    15
100
AcDbSpline
210
0.0
220
0.0
230
1.0
 70
     8
 71
     3
 72
    20
 73
    16
 74
     0
 42
0.00000001
 43
0.00000001
 40
0.0
 40
0.0
 40
0.0
 40
0.0
 40
0.0607085741192338
 40
0.226534012799414
 40
0.3908032763104429
 40
0.4705946569944333
 40
0.5476201957417955
 40
0.6228571249950487
 40
0.700336993143606
 40
0.7786470821529379
 40
0.856657488249033
 40
0.9330983925584173
 40
0.9703706611610308
 40
0.9892322599426742
 40
1.0
 40
1.0
 40
1.0
 40
1.0
 10
260.4178273425064
 20
217.0180467769291
 30
0.0
 10
260.4641019033662
 20
216.9647133791912
 30
0.0
 10
260.636775403184
 20
216.7656998332285
 30
0.0
 10
261.0537488219973
 20
216.7477730963827
 30
0.0
 10
261.6187032558817
 20
216.6727500764107
 30
0.0
 10
262.1383160111812
 20
216.6298080055593
 30
0.0
 10
262.5322094271898
 20
216.5992569302202
 30
0.0
 10
262.9251203845514
 20
216.571574651331
 30
0.0
 10
263.3062815557268
 20
216.5402669458598
 30
0.0
 10
263.6620054306686
 20
216.5077944492242
 30
0.0
 10
263.9646303567447
 20
216.4769690234336
 30
0.0
 10
264.1571366080228
 20
216.4540662755691
 30
0.0
 10
264.245268443455
 20
216.4460383259663
 30
0.0
 10
264.2906868314906
 20
216.4382445911412
 30
0.0
 10
264.2901381728704
 20
216.4422029468271
 30
0.0
 10
264.2899387822113
 20
216.4436414718416
 30
0.0
  0
SPLINE
  5
FC
330
1F
100
AcDbEntity
  8
0
  6
Continuous
 62
     7
370
    15
100
AcDbSpline
210
0.0
220
0.0
230
1.0
 70
     8
 71
     3
 72
    18
 73
    14
 74
     0
 42
0.00000001
 43
0.00000001
 40
0.0
 40
0.0
 40
0.0
 40
0.0
 40
0.005753592828009
 40
0.1156384986734778
 40
0.2383928036610989
 40
0.3593080206049892
 40
0.4757055377922348
 40
0.5872123505759798
 40
0.7047320665086108
 40
0.8265004517958526
 40
0.8891456094615627
 40
0.9517929066229371
 40
1.0
 40
1.0
 40
1.0
 40
1.0
 10
264.6606498703918
 20
225.6648707084146
 30
0.0
 10
264.6560027108636
 20
225.6678241853201
 30
0.0
 10
264.5626018451777
 20
225.7271845963601
 30
0.0
 10
264.3402312236815
 20
225.7333670525283
 30
0.0
 10
263.9488590348577
 20
225.7925647386612
 30
0.0
 10
263.4369742459328
 20
225.8381110948193
 30
0.0
 10
262.8859436759183
 20
225.8842619170622
 30
0.0
 10
262.3238251225632
 20
225.9231596095173
 30
0.0
 10
261.7895541136334
 20
225.9678881851124
 30
0.0
 10
261.3918854717625
 20
226.0089597204165
 30
0.0
 10
261.177193716102
 20
226.0300805572833
 30
0.0
 10
261.0811219904376
 20
226.0323696960333
 30
0.0
 10
261.0656799587155
 20
226.0162946132159
 30
0.0
 10
261.0589647040328
 20
226.009304064491
 30
0.0
  0
SPLINE
  5
FD
330
1F
100
AcDbEntity
  8
0
  6
Continuous
 62
     7
370
    15
100
AcDbSpline
210
0.0
220
0.0
230
1.0
 70
     8
 71
     3
 72
    12
 73
     8
 74
     0
 42
0.00000001
 43
0.00000001
 40
0.0
 40
0.0
 40
0.0
 40
0.0
 40
0.2236724731164027
 40
0.452310651944408
 40
0.6822375069813867
 40
0.910224143092987
 40
1.0
 40
1.0
 40
1.0
 40
1.0
 10
260.3597277150115
 20
226.819897431114
 30
0.0
 10
260.3469877025356
 20
226.7773494232526
 30
0.0
 10
260.321224839236
 20
226.691308808122
 30
0.0
 10
260.4423738681933
 20
226.599694916168
 30
0.0
 10
260.6740497819836
 20
226.5033894861067
 30
0.0
 10
260.9189014294794
 20
226.4408976906068
 30
0.0
 10
261.1022371757825
 20
226.446117985931
 30
0.0
 10
261.1540341124496
 20
226.4475928500082
 30
0.0
  0
SPLINE
  5
FE
330
1F
100
AcDbEntity
  8
0
  6
Continuous
 62
     7
370
    15
100
AcDbSpline
210
0.0
220
0.0
230
1.0
 70
     8
 71
     3
 72
    19
 73
    15
 74
     0
 42
0.00000001
 43
0.00000001
 40
0.0
 40
0.0
 40
0.0
 40
0.0
 40
0.0979036063076392
 40
0.175375720652715
 40
0.2884818917858051
 40
0.3734521804554377
 40
0.4570007129271338
 40
0.6168870882614548
 40
0.6796662293265747
 40
0.7634257846369192
 40
0.8137534381323679
 40
0.8702969388080299
 40
0.9323986627747224
 40
0.9999999999999999
 40
0.9999999999999999
 40
0.9999999999999999
 40
0.9999999999999999
 10
260.5359637484511
 20
226.3247667692389
 30
0.0
 10
260.586475460348
 20
226.2983899169966
 30
0.0
 10
260.6769576009903
 20
226.251140794671
 30
0.0
 10
261.0515777742761
 20
226.1904903955174
 30
0.0
 10
261.5381018613576
 20
226.1366049120419
 30
0.0
 10
262.1294264673701
 20
226.0833714505838
 30
0.0
 10
262.8835313196521
 20
226.0318202712208
 30
0.0
 10
263.5246254509186
 20
225.9648775239144
 30
0.0
 10
264.1739062872747
 20
225.9293583330371
 30
0.0
 10
264.5522305414561
 20
226.0075413120432
 30
0.0
 10
264.8040896238816
 20
226.1157467933745
 30
0.0
 10
264.9376730610466
 20
226.2040820345404
 30
0.0
 10
264.9994488332604
 20
226.2779256198262
 30
0.0
 10
264.9280050556405
 20
226.3584405951623
 30
0.0
 10
264.8907685027083
 20
226.4004050634589
 30
0.0
  0
SPLINE
  5
FF
330
1F
100
AcDbEntity
  8
0
  6
Continuous
 62
     7
370
    15
100
AcDbSpline
210
0.0
220
0.0
230
1.0
 70
     8
 71
     3
 72
    25
 73
    21
 74
     0
 42
0.00000001
 43
0.00000001
 40
0.0
 40
0.0
 40
0.0
 40
0.0
 40
0.0176248640981029
 40
0.0344969634321853
 40
0.0503140527909679
 40
0.0649727710396592
 40
0.0909448377071336
 40
0.1134383528971311
 40
0.1538392881012292
 40
0.1912335660588605
 40
0.2995701840257113
 40
0.3999629713602792
 40
0.501295211962578
 40
0.5949056972282278
 40
0.6784889652501322
 40
0.7336301083461947
 40
0.8075200858082465
 40
0.8952851166523289
 40
0.9453085143285094
 40
1.0
 40
1.0
 40
1.0
 40
1.0
 10
264.5334535584411
 20
225.7748231172349
 30
0.0
 10
264.5731587669962
 20
225.7792184541879
 30
0.0
 10
264.6508733592886
 20
225.7878214015521
 30
0.0
 10
264.7527544581149
 20
225.8338194113342
 30
0.0
 10
264.8337706402751
 20
225.8927807531884
 30
0.0
 10
264.9099722124766
 20
225.9763564893618
 30
0.0
 10
264.9630249023247
 20
226.0800023761806
 30
0.0
 10
264.9871685618377
 20
226.2123367340187
 30
0.0
 10
264.9642949097388
 20
226.3442049745915
 30
0.0
 10
264.7930521356163
 20
226.589413441743
 30
0.0
 10
264.4502702231607
 20
226.6764971008522
 30
0.0
 10
263.955155022906
 20
226.735051231385
 30
0.0
 10
263.341943047973
 20
226.7934085533304
 30
0.0
 10
262.6924706265392
 20
226.8430316975717
 30
0.0
 10
262.1527649956117
 20
226.8825112698311
 30
0.0
 10
261.7067566652506
 20
226.9216889302088
 30
0.0
 10
261.3180578300128
 20
226.9599170579241
 30
0.0
 10
261.0578998599299
 20
226.9877581471296
 30
0.0
 10
260.9274568699948
 20
227.0102535264268
 30
0.0
 10
260.9187874663219
 20
227.0227161307192
 30
0.0
 10
260.9142595276794
 20
227.0292252182748
 30
0.0
  0
SPLINE
  5
100
330
1F
100
AcDbEntity
  8
0
  6
Continuous
 62
     7
370
    15
100
AcDbSpline
210
0.0
220
0.0
230
1.0
 70
     8
 71
     3
 72
    12
 73
     8
 74
     0
 42
0.00000001
 43
0.00000001
 40
0.0
 40
0.0
 40
0.0
 40
0.0
 40
0.1756473778273734
 40
0.5723149030774375
 40
0.758617259732854
 40
0.9207515311626716
 40
1.0
 40
1.0
 40
1.0
 40
1.0
 10
261.0025936112365
 20
226.2107374958482
 30
0.0
 10
260.9370294356458
 20
226.2015662236603
 30
0.0
 10
260.7234005431304
 20
226.1716833081382
 30
0.0
 10
260.5075039548599
 20
226.0977509060138
 30
0.0
 10
260.3463226962296
 20
225.8828184055451
 30
0.0
 10
260.3151251019332
 20
225.7225993264865
 30
0.0
 10
260.3461009514499
 20
225.6439362926155
 30
0.0
 10
260.3562706456145
 20
225.618110398927
 30
0.0
  0
LINE
  5
101
330
1F
100
AcDbEntity
  8
0
  6
Continuous
 62
     7
370
    15
100
AcDbLine
 10
260.5137908206
 20
216.9203063354
 30
0.0
 11
259.3953245625
 21
216.9203063354
 31
0.0
  0
LINE
  5
102
330
1F
100
AcDbEntity
  8
0
  6
Continuous
 62
     7
370
    15
100
AcDbLine
 10
259.3953245625
 20
216.120306763
 30
0.0
 11
261.1540341124
 21
216.120306763
 31
0.0
  0
LINE
  5
103
330
1F
100
AcDbEntity
  8
0
  6
Continuous
 62
     7
370
    15
100
AcDbLine
 10
257.9850339637
 20
229.7180470891
 30
0.0
 11
257.9850339637
 21
229.7715171121
 31
0.0
  0
LINE
  5
104
330
1F
100
AcDbEntity
  8
0
  6
Continuous
 62
     7
370
    15
100
AcDbLine
 10
254.9850427852
 20
229.7715171121
 30
0.0
 11
254.9850427852
 21
229.7180470891
 31
0.0
  0
SPLINE
  5
105
330
1F
100
AcDbEntity
  8
0
  6
Continuous
 62
     7
370
    15
100
AcDbSpline
210
0.0
220
0.0
230
1.0
 70
     8
 71
     3
 72
    15
 73
    11
 74
     0
 42
0.00000001
 43
0.00000001
 40
0.0
 40
0.0
 40
0.0
 40
0.0
 40
0.1077551316558015
 40
0.2352510952770178
 40
0.362790812364346
 40
0.4902565964082815
 40
0.6176631519439536
 40
0.7450970655907955
 40
0.8724965291587299
 40
1.0
 40
1.0
 40
1.0
 40
1.0
 10
255.0010913357696
 20
213.7180463291492
 30
0.0
 10
255.01763056427
 20
213.4055253120275
 30
0.0
 10
255.0537390220292
 20
212.7232291610672
 30
0.0
 10
255.3899525154529
 20
211.7140806971569
 30
0.0
 10
255.9480267201889
 20
210.7505966300479
 30
0.0
 10
256.7028599697524
 20
209.9296771953229
 30
0.0
 10
257.6180189935359
 20
209.2944053539344
 30
0.0
 10
258.6452745346355
 20
208.874243370585
 30
0.0
 10
259.7412547181088
 20
208.6604372386693
 30
0.0
 10
260.4770139254576
 20
208.7259676126639
 30
0.0
 10
260.8450436339339
 20
208.7587461687412
 30
0.0
  0
SPLINE
  5
106
330
1F
100
AcDbEntity
  8
0
  6
Continuous
 62
     7
370
    15
100
AcDbSpline
210
0.0
220
0.0
230
1.0
 70
     8
 71
     3
 72
    15
 73
    11
 74
     0
 42
0.00000001
 43
0.00000001
 40
0.0
 40
0.0
 40
0.0
 40
0.0
 40
0.1316475892510966
 40
0.2633131088155895
 40
0.395188255007796
 40
0.5266680844568709
 40
0.6575472834997057
 40
0.7882125165615514
 40
0.9184590236342791
 40
0.9999999999999999
 40
0.9999999999999999
 40
0.9999999999999999
 40
0.9999999999999999
 10
260.3473448500594
 20
211.7164310879793
 30
0.0
 10
260.1951660333394
 20
211.7046176171764
 30
0.0
 10
259.8907876732463
 20
211.6809890665837
 30
0.0
 10
259.4399298680042
 20
211.7824631379289
 30
0.0
 10
259.0208993934953
 20
211.9693197400153
 30
0.0
 10
258.6505086775598
 20
212.2419172299439
 30
0.0
 10
258.3482382750112
 20
212.5878207979266
 30
0.0
 10
258.1290881142194
 20
212.9895345599654
 30
0.0
 10
258.0117281753041
 20
213.3758477675981
 30
0.0
 10
258.0015457955002
 20
213.6229201868088
 30
0.0
 10
257.9976254448852
 20
213.7180463291492
 30
0.0
  0
SPLINE
  5
107
330
1F
100
AcDbEntity
  8
0
  6
Continuous
 62
     7
370
    15
100
AcDbSpline
210
0.0
220
0.0
230
1.0
 70
     8
 71
     3
 72
    15
 73
    11
 74
     0
 42
0.00000001
 43
0.00000001
 40
0.0
 40
0.0
 40
0.0
 40
0.0
 40
0.1249271552659727
 40
0.2499157189118373
 40
0.3749662937033535
 40
0.4999570592118868
 40
0.6249211444807522
 40
0.7499169145564165
 40
0.8748739054386943
 40
1.0
 40
1.0
 40
1.0
 40
1.0
 10
261.0159152493438
 20
234.6485675193157
 30
0.0
 10
260.6495385749474
 20
234.6918995319161
 30
0.0
 10
259.9166051324198
 20
234.7785848571191
 30
0.0
 10
258.8125817395959
 20
234.6133941201884
 30
0.0
 10
257.7717832484358
 20
234.224462555667
 30
0.0
 10
256.8365895112986
 20
233.619449563685
 30
0.0
 10
256.0559368045635
 20
232.8232602522399
 30
0.0
 10
255.467982285639
 20
231.8788914287573
 30
0.0
 10
255.0721552627027
 20
230.8304487663353
 30
0.0
 10
255.0140933646349
 20
230.0913276488931
 30
0.0
 10
254.9850427851638
 20
229.7215171970215
 30
0.0
  0
SPLINE
  5
108
330
1F
100
AcDbEntity
  8
0
  6
Continuous
 62
     7
370
    15
100
AcDbSpline
210
0.0
220
0.0
230
1.0
 70
     8
 71
     3
 72
    15
 73
    11
 74
     0
 42
0.00000001
 43
0.00000001
 40
0.0
 40
0.0
 40
0.0
 40
0.0
 40
0.1242532963911512
 40
0.248634885951055
 40
0.3735434839900159
 40
0.498584258737882
 40
0.6236667515179836
 40
0.7490731788797137
 40
0.8744400372051625
 40
1.0
 40
1.0
 40
1.0
 40
1.0
 10
257.9850339636764
 20
229.7215171970215
 30
0.0
 10
257.9985899647069
 20
229.8734736977611
 30
0.0
 10
258.0257159635181
 20
230.1775435963332
 30
0.0
 10
258.2001976302367
 20
230.6048562023684
 30
0.0
 10
258.4535251508862
 20
230.986495953918
 30
0.0
 10
258.7833439101558
 20
231.3064334960628
 30
0.0
 10
259.1742754242293
 20
231.5470023991133
 30
0.0
 10
259.6069717846341
 20
231.6986279722805
 30
0.0
 10
260.0644987654801
 20
231.7520860728975
 30
0.0
 10
260.3664130133398
 20
231.7113960201643
 30
0.0
 10
260.5174863085708
 20
231.6910353369799
 30
0.0
  0
LINE
  5
109
330
1F
100
AcDbEntity
  8
0
  6
Continuous
 62
     7
370
    15
100
AcDbLine
 10
275.8880936847
 20
214.3331834927
 30
0.0
 11
260.3471213326
 21
211.7167654328
 31
0.0
  0
LINE
  5
10A
330
1F
100
AcDbEntity
  8
0
  6
Continuous
 62
     7
370
    15
100
AcDbLine
 10
260.8451926455
 20
208.7583978541
 30
0.0
 11
276.3861500964
 21
211.3748163797
 31
0.0
  0
LINE
  5
10B
330
1F
100
AcDbEntity
  8
0
  6
Continuous
 62
     7
370
    15
100
AcDbLine
 10
260.517709826
 20
231.6906097226
 30
0.0
 11
276.058682178
 21
229.0741907313
 31
0.0
  0
LINE
  5
10C
330
1F
100
AcDbEntity
  8
0
  6
Continuous
 62
     7
370
    15
100
AcDbLine
 10
276.5567385898
 20
232.0325578443
 30
0.0
 11
261.0157662377
 21
234.6489763699
 31
0.0
  0
SPLINE
  5
10D
330
1F
100
AcDbEntity
  8
0
  6
Continuous
 62
     7
370
    15
100
AcDbSpline
210
0.0
220
0.0
230
1.0
 70
     8
 71
     3
 72
    12
 73
     8
 74
     0
 42
0.00000001
 43
0.00000001
 40
0.0
 40
0.0
 40
0.0
 40
0.0
 40
0.1526137250823502
 40
0.2973904385919474
 40
0.5623704151018883
 40
0.7966025483336754
 40
1.0
 40
1.0
 40
1.0
 40
1.0
 10
276.3858073697051
 20
211.3751255787697
 30
0.0
 10
276.6370269403715
 20
211.4278636801436
 30
0.0
 10
277.1265654682007
 20
211.5306316788255
 30
0.0
 10
277.9760881946833
 20
211.9598766792639
 30
0.0
 10
278.7880790583597
 20
212.7042713871244
 30
0.0
 10
279.352525238963
 20
213.7753108547242
 30
0.0
 10
279.4342140197671
 20
214.5102381920053
 30
0.0
 10
279.4721805796584
 20
214.8518109574702
 30
0.0
  0
SPLINE
  5
10E
330
1F
100
AcDbEntity
  8
0
  6
Continuous
 62
     7
370
    15
100
AcDbSpline
210
0.0
220
0.0
230
1.0
 70
     8
 71
     3
 72
    11
 73
     7
 74
     0
 42
0.00000001
 43
0.00000001
 40
0.0
 40
0.0
 40
0.0
 40
0.0
 40
0.2003563298768963
 40
0.4328062455845991
 40
0.6990171522960194
 40
0.9999999999999999
 40
0.9999999999999999
 40
0.9999999999999999
 40
0.9999999999999999
 10
276.4738583311996
 20
214.8518109574702
 30
0.0
 10
276.4606308155855
 20
214.7953842273346
 30
0.0
 10
276.4320569673079
 20
214.6734921901048
 30
0.0
 10
276.3161727735977
 20
214.5077960984159
 30
0.0
 10
276.1314264202371
 20
214.3688820574772
 30
0.0
 10
275.9738064141329
 20
214.3454954189857
 30
0.0
 10
275.8901649460754
 20
214.3330852381673
 30
0.0
  0
SPLINE
  5
10F
330
1F
100
AcDbEntity
  8
0
  6
Continuous
 62
     7
370
    15
100
AcDbSpline
210
0.0
220
0.0
230
1.0
 70
     8
 71
     3
 72
    12
 73
     8
 74
     0
 42
0.00000001
 43
0.00000001
 40
0.0
 40
0.0
 40
0.0
 40
0.0
 40
0.203406964129683
 40
0.4376406924816505
 40
0.7026183194413301
 40
0.8473898487799414
 40
1.0
 40
1.0
 40
1.0
 40
1.0
 10
279.4721805796584
 20
228.4104417890098
 30
0.0
 10
279.4507390605513
 20
228.7534501268059
 30
0.0
 10
279.4046065138609
 20
229.4914504559606
 30
0.0
 10
278.8925162520739
 20
230.5885715372729
 30
0.0
 10
278.1172942292934
 20
231.3713080213224
 30
0.0
 10
277.2894529608758
 20
231.8410512740967
 30
0.0
 10
276.8054675555974
 20
231.9673093727826
 30
0.0
 10
276.5570962176284
 20
232.0321024276104
 30
0.0
  0
SPLINE
  5
110
330
1F
100
AcDbEntity
  8
0
  6
Continuous
 62
     7
370
    15
100
AcDbSpline
210
0.0
220
0.0
230
1.0
 70
     8
 71
     3
 72
    12
 73
     8
 74
     0
 42
0.00000001
 43
0.00000001
 40
0.0
 40
0.0
 40
0.0
 40
0.0
 40
0.1555606195731052
 40
0.3022089924266109
 40
0.5679713858311382
 40
0.7999469279268913
 40
1.0
 40
1.0
 40
1.0
 40
1.0
 10
276.0567599282226
 20
229.075109015384
 30
0.0
 10
276.0973069836214
 20
229.0593598723207
 30
0.0
 10
276.1760781070045
 20
229.0287638727046
 30
0.0
 10
276.3057083782822
 20
228.9337171788136
 30
0.0
 10
276.4201432723058
 20
228.7875465830719
 30
0.0
 10
276.4842762978095
 20
228.5932907665824
 30
0.0
 10
276.4771556047489
 20
228.4683132643033
 30
0.0
 10
276.4738583311996
 20
228.4104417890098
 30
0.0
  0
LINE
  5
111
330
1F
100
AcDbEntity
  8
0
  6
Continuous
 62
     7
370
    15
100
AcDbLine
 10
276.4730238662
 20
228.4604417041
 30
0.0
 11
276.4730238662
 21
228.2180468432
 31
0.0
  0
LINE
  5
112
330
1F
100
AcDbEntity
  8
0
  6
Continuous
 62
     7
370
    15
100
AcDbLine
 10
276.4730238662
 20
215.218046575
 30
0.0
 11
276.4730238662
 21
214.8018110424
 31
0.0
  0
LINE
  5
113
330
1F
100
AcDbEntity
  8
0
  6
Continuous
 62
     7
370
    15
100
AcDbLine
 10
279.4730150447
 20
214.8018110424
 30
0.0
 11
279.4730150447
 21
215.2207911826
 31
0.0
  0
LINE
  5
114
330
1F
100
AcDbEntity
  8
0
  6
Continuous
 62
     7
370
    15
100
AcDbLine
 10
279.4730150447
 20
228.2153022356
 30
0.0
 11
279.4730150447
 21
228.4604417041
 31
0.0
  0
LINE
  5
115
330
1F
100
AcDbEntity
  8
0
  6
Continuous
 62
     7
370
    15
100
AcDbLine
 10
265.7723062978
 20
227.3180465095
 30
0.0
 11
264.154025291
 21
227.3180465095
 31
0.0
  0
LINE
  5
116
330
1F
100
AcDbEntity
  8
0
  6
Continuous
 62
     7
370
    15
100
AcDbLine
 10
264.7809469447
 20
226.5180469371
 30
0.0
 11
265.7723062978
 21
226.5180469371
 31
0.0
  0
LINE
  5
117
330
1F
100
AcDbEntity
  8
0
  6
Continuous
 62
     7
370
    15
100
AcDbLine
 10
266.1105328546
 20
228.5861856185
 30
0.0
 11
265.8439957843
 21
227.3779384672
 31
0.0
  0
LINE
  5
118
330
1F
100
AcDbEntity
  8
0
  6
Continuous
 62
     7
370
    15
100
AcDbLine
 10
266.6121506438
 20
227.1463883921
 30
0.0
 11
266.8917411313
 21
228.4138578802
 31
0.0
  0
SPLINE
  5
119
330
1F
100
AcDbEntity
  8
0
  6
Continuous
 62
     7
370
    15
100
AcDbSpline
210
0.0
220
0.0
230
1.0
 70
     8
 71
     3
 72
    11
 73
     7
 74
     0
 42
0.00000001
 43
0.00000001
 40
0.0
 40
0.0
 40
0.0
 40
0.0
 40
0.2541315534387046
 40
0.5022702145093869
 40
0.7495144296499624
 40
1.0
 40
1.0
 40
1.0
 40
1.0
 10
265.7723062977752
 20
226.5180469371166
 30
0.0
 10
265.8723950831076
 20
226.5282930314565
 30
0.0
 10
266.0702123749734
 20
226.5485435982687
 30
0.0
 10
266.3283571066086
 20
226.7025763351942
 30
0.0
 10
266.5318076839537
 20
226.9216488159334
 30
0.0
 10
266.5935405637929
 20
227.1086998666989
 30
0.0
 10
266.6246080145797
 20
227.2028344563928
 30
0.0
  0
LINE
  5
11A
330
1F
100
AcDbEntity
  8
0
  6
Continuous
 62
     7
370
    15
100
AcDbLine
 10
275.7526421294
 20
228.2180468432
 30
0.0
 11
275.7526421294
 21
215.218046575
 31
0.0
  0
LINE
  5
11B
330
1F
100
AcDbEntity
  8
0
  6
Continuous
 62
     7
370
    15
100
AcDbLine
 10
275.7526421294
 20
228.2180468432
 30
0.0
 11
278.471612309
 21
228.2180468432
 31
0.0
  0
LWPOLYLINE
  5
11C
330
1F
100
AcDbEntity
  8
0
  6
Continuous
 62
     7
370
    15
100
AcDbPolyline
 90
        9
 70
   128
 43
0.0
 10
279.2021268353
 20
227.0180465534
 10
279.1880899415
 20
227.2521549716
 10
279.1465306029
 20
227.4772668138
 10
279.0790134416
 20
227.6847310245
 10
278.9881759629
 20
227.8665750168
 10
278.8774752364
 20
228.0158101462
 10
278.7511729941
 20
228.1267022595
 10
278.6141270146
 20
228.1949891589
 10
278.471612309
 20
228.2180468432
  0
LINE
  5
11D
330
1F
100
AcDbEntity
  8
0
  6
Continuous
 62
     7
370
    15
100
AcDbLine
 10
279.2021268353
 20
227.0180465534
 30
0.0
 11
279.2021268353
 21
216.4180468648
 31
0.0
  0
LWPOLYLINE
  5
11E
330
1F
100
AcDbEntity
  8
0
  6
Continuous
 62
     7
370
    15
100
AcDbPolyline
 90
        9
 70
   128
 43
0.0
 10
278.471612309
 20
215.218046575
 10
278.6141270146
 20
215.2411042593
 10
278.7511729941
 20
215.3093911588
 10
278.8774752364
 20
215.4202832721
 10
278.9881759629
 20
215.5695184015
 10
279.0790134416
 20
215.7513623938
 10
279.1465306029
 20
215.9588266045
 10
279.1880899415
 20
216.1839384466
 10
279.2021268353
 20
216.4180468648
  0
LINE
  5
11F
330
1F
100
AcDbEntity
  8
0
  6
Continuous
 62
     7
370
    15
100
AcDbLine
 10
278.471612309
 20
215.218046575
 30
0.0
 11
275.7526421294
 21
215.218046575
 31
0.0
  0
LINE
  5
120
330
1F
100
AcDbEntity
  8
0
  6
Continuous
 62
     7
370
    15
100
AcDbLine
 10
278.471612309
 20
228.2180468432
 30
0.0
 11
279.4236474977
 21
228.2180468432
 31
0.0
  0
LWPOLYLINE
  5
121
330
1F
100
AcDbEntity
  8
0
  6
Continuous
 62
     7
370
    15
100
AcDbPolyline
 90
        9
 70
   128
 43
0.0
 10
279.4236474977
 20
228.2180468432
 10
279.5661622033
 20
228.1949891589
 10
279.7031932816
 20
228.1267022595
 10
279.8294955239
 20
228.0158101462
 10
279.9401962504
 20
227.8665750168
 10
280.0310486302
 20
227.6847310245
 10
280.0985508904
 20
227.4772668138
 10
280.1401251302
 20
227.2521549716
 10
280.154162024
 20
227.0180465534
  0
LINE
  5
122
330
1F
100
AcDbEntity
  8
0
  6
Continuous
 62
     7
370
    15
100
AcDbLine
 10
280.154162024
 20
227.0180465534
 30
0.0
 11
279.2021268353
 21
227.0180465534
 31
0.0
  0
LINE
  5
123
330
1F
100
AcDbEntity
  8
0
  6
Continuous
 62
     7
370
    15
100
AcDbLine
 10
280.154162024
 20
227.0180465534
 30
0.0
 11
280.154162024
 21
216.4180468648
 31
0.0
  0
LINE
  5
124
330
1F
100
AcDbEntity
  8
0
  6
Continuous
 62
     7
370
    15
100
AcDbLine
 10
279.2021268353
 20
216.4180468648
 30
0.0
 11
280.154162024
 21
216.4180468648
 31
0.0
  0
LINE
  5
125
330
1F
100
AcDbEntity
  8
0
  6
Continuous
 62
     7
370
    15
100
AcDbLine
 10
279.4236474977
 20
215.218046575
 30
0.0
 11
278.471612309
 21
215.218046575
 31
0.0
  0
LWPOLYLINE
  5
126
330
1F
100
AcDbEntity
  8
0
  6
Continuous
 62
     7
370
    15
100
AcDbPolyline
 90
        9
 70
   128
 43
0.0
 10
280.154162024
 20
216.4180468648
 10
280.1401251302
 20
216.1839384466
 10
280.0985508904
 20
215.9588266045
 10
280.0310486302
 20
215.7513623938
 10
279.9401962504
 20
215.5695184015
 10
279.8294955239
 20
215.4202832721
 10
279.7031932816
 20
215.3093911588
 10
279.5661622033
 20
215.2411042593
 10
279.4236474977
 20
215.218046575
  0
LINE
  5
127
330
1F
100
AcDbEntity
  8
0
  6
Continuous
 62
     7
370
    15
100
AcDbLine
 10
275.1740300403
 20
228.2180468432
 30
0.0
 11
275.7526421294
 21
228.2180468432
 31
0.0
  0
LINE
  5
128
330
1F
100
AcDbEntity
  8
0
  6
Continuous
 62
     7
370
    15
100
AcDbLine
 10
275.7526421294
 20
215.218046575
 30
0.0
 11
275.1740300403
 21
215.218046575
 31
0.0
  0
CIRCLE
  5
129
330
1F
100
AcDbEntity
  8
0
  6
Continuous
 62
     7
370
    15
100
AcDbCircle
 10
285.6740268931
 20
216.7180467091
 30
0.0
 40
3.0
  0
LINE
  5
12A
330
1F
100
AcDbEntity
  8
0
  6
Continuous
 62
     7
370
    15
100
AcDbLine
 10
285.2740221963
 20
214.8180467889
 30
0.0
 11
286.0740208373
 21
214.8180467889
 31
0.0
  0
LINE
  5
12B
330
1F
100
AcDbEntity
  8
0
  6
Continuous
 62
     7
370
    15
100
AcDbLine
 10
286.0740208373
 20
214.8180467889
 30
0.0
 11
286.0740208373
 21
216.3180465691
 31
0.0
  0
LINE
  5
12C
330
1F
100
AcDbEntity
  8
0
  6
Continuous
 62
     7
370
    15
100
AcDbLine
 10
286.0740208373
 20
216.3180465691
 30
0.0
 11
287.5740313277
 21
216.3180465691
 31
0.0
  0
LINE
  5
12D
330
1F
100
AcDbEntity
  8
0
  6
Continuous
 62
     7
370
    15
100
AcDbLine
 10
287.5740313277
 20
216.3180465691
 30
0.0
 11
287.5740313277
 21
217.1180466071
 31
0.0
  0
LINE
  5
12E
330
1F
100
AcDbEntity
  8
0
  6
Continuous
 62
     7
370
    15
100
AcDbLine
 10
287.5740313277
 20
217.1180466071
 30
0.0
 11
286.0740208373
 21
217.1180466071
 31
0.0
  0
LINE
  5
12F
330
1F
100
AcDbEntity
  8
0
  6
Continuous
 62
     7
370
    15
100
AcDbLine
 10
286.0740208373
 20
217.1180466071
 30
0.0
 11
286.0740208373
 21
218.6180466201
 31
0.0
  0
LINE
  5
130
330
1F
100
AcDbEntity
  8
0
  6
Continuous
 62
     7
370
    15
100
AcDbLine
 10
286.0740208373
 20
218.6180466201
 30
0.0
 11
285.2740221963
 21
218.6180466201
 31
0.0
  0
LINE
  5
131
330
1F
100
AcDbEntity
  8
0
  6
Continuous
 62
     7
370
    15
100
AcDbLine
 10
285.2740221963
 20
218.6180466201
 30
0.0
 11
285.2740221963
 21
217.1180466071
 31
0.0
  0
LINE
  5
132
330
1F
100
AcDbEntity
  8
0
  6
Continuous
 62
     7
370
    15
100
AcDbLine
 10
283.774026607
 20
216.3180465691
 30
0.0
 11
285.2740221963
 21
216.3180465691
 31
0.0
  0
LINE
  5
133
330
1F
100
AcDbEntity
  8
0
  6
Continuous
 62
     7
370
    15
100
AcDbLine
 10
285.2740221963
 20
216.3180465691
 30
0.0
 11
285.2740221963
 21
214.8180467889
 31
0.0
  0
LINE
  5
134
330
1F
100
AcDbEntity
  8
0
  6
Continuous
 62
     7
370
    15
100
AcDbLine
 10
285.2740221963
 20
217.1180466071
 30
0.0
 11
283.774026607
 21
217.1180466071
 31
0.0
  0
LINE
  5
135
330
1F
100
AcDbEntity
  8
0
  6
Continuous
 62
     7
370
    15
100
AcDbLine
 10
283.774026607
 20
217.1180466071
 30
0.0
 11
283.774026607
 21
216.3180465691
 31
0.0
  0
LINE
  5
136
330
1F
100
AcDbEntity
  8
0
  6
Continuous
 62
     7
370
    15
100
AcDbLine
 10
285.2740221963
 20
226.3180468112
 30
0.0
 11
285.2740221963
 21
224.8180467982
 31
0.0
  0
LINE
  5
137
330
1F
100
AcDbEntity
  8
0
  6
Continuous
 62
     7
370
    15
100
AcDbLine
 10
285.2740221963
 20
224.8180467982
 30
0.0
 11
286.0740208373
 21
224.8180467982
 31
0.0
  0
LINE
  5
138
330
1F
100
AcDbEntity
  8
0
  6
Continuous
 62
     7
370
    15
100
AcDbLine
 10
286.0740208373
 20
224.8180467982
 30
0.0
 11
286.0740208373
 21
226.3180468112
 31
0.0
  0
LINE
  5
139
330
1F
100
AcDbEntity
  8
0
  6
Continuous
 62
     7
370
    15
100
AcDbLine
 10
286.0740208373
 20
226.3180468112
 30
0.0
 11
287.5740313277
 21
226.3180468112
 31
0.0
  0
LINE
  5
13A
330
1F
100
AcDbEntity
  8
0
  6
Continuous
 62
     7
370
    15
100
AcDbLine
 10
287.5740313277
 20
226.3180468112
 30
0.0
 11
287.5740313277
 21
227.1180468492
 31
0.0
  0
LINE
  5
13B
330
1F
100
AcDbEntity
  8
0
  6
Continuous
 62
     7
370
    15
100
AcDbLine
 10
287.5740313277
 20
227.1180468492
 30
0.0
 11
286.0740208373
 21
227.1180468492
 31
0.0
  0
LINE
  5
13C
330
1F
100
AcDbEntity
  8
0
  6
Continuous
 62
     7
370
    15
100
AcDbLine
 10
286.0740208373
 20
227.1180468492
 30
0.0
 11
286.0740208373
 21
228.6180466294
 31
0.0
  0
LINE
  5
13D
330
1F
100
AcDbEntity
  8
0
  6
Continuous
 62
     7
370
    15
100
AcDbLine
 10
286.0740208373
 20
228.6180466294
 30
0.0
 11
285.2740221963
 21
228.6180466294
 31
0.0
  0
LINE
  5
13E
330
1F
100
AcDbEntity
  8
0
  6
Continuous
 62
     7
370
    15
100
AcDbLine
 10
285.2740221963
 20
228.6180466294
 30
0.0
 11
285.2740221963
 21
227.1180468492
 31
0.0
  0
LINE
  5
13F
330
1F
100
AcDbEntity
  8
0
  6
Continuous
 62
     7
370
    15
100
AcDbLine
 10
285.2740221963
 20
227.1180468492
 30
0.0
 11
283.774026607
 21
227.1180468492
 31
0.0
  0
CIRCLE
  5
140
330
1F
100
AcDbEntity
  8
0
  6
Continuous
 62
     7
370
    15
100
AcDbCircle
 10
285.6740268931
 20
226.7180467091
 30
0.0
 40
3.0
  0
LINE
  5
141
330
1F
100
AcDbEntity
  8
0
  6
Continuous
 62
     7
370
    15
100
AcDbLine
 10
283.774026607
 20
226.3180468112
 30
0.0
 11
285.2740221963
 21
226.3180468112
 31
0.0
  0
LINE
  5
142
330
1F
100
AcDbEntity
  8
0
  6
Continuous
 62
     7
370
    15
100
AcDbLine
 10
283.774026607
 20
227.1180468492
 30
0.0
 11
283.774026607
 21
226.3180468112
 31
0.0
  0
LINE
  5
143
330
1F
100
AcDbEntity
  8
0
  6
Continuous
 62
     7
370
    15
100
AcDbLine
 10
284.6562647567
 20
210.6161610104
 30
0.0
 11
279.6740317092
 21
215.218046575
 31
0.0
  0
LINE
  5
144
330
1F
100
AcDbEntity
  8
0
  6
Continuous
 62
     7
370
    15
100
AcDbLine
 10
279.6740317092
 20
228.2180468432
 30
0.0
 11
284.6562647567
 21
232.8199324079
 31
0.0
  0
ARC
  5
145
330
1F
100
AcDbEntity
  8
0
  6
Continuous
 62
     7
370
    15
100
AcDbCircle
 10
285.6740268932
 20
231.7180467091
 30
0.0
 40
1.499999999999994
100
AcDbArc
 50
43.6028189726
 51
132.7273953127
  0
ARC
  5
146
330
1F
100
AcDbEntity
  8
0
  6
Continuous
 62
     7
370
    15
100
AcDbCircle
 10
275.1740268931
 20
221.7180467091
 30
0.0
 40
15.99999999999998
100
AcDbArc
 50
316.3971810272
 51
43.6028189726
  0
ARC
  5
147
330
1F
100
AcDbEntity
  8
0
  6
Continuous
 62
     7
370
    15
100
AcDbCircle
 10
285.6740268931
 20
211.7180467091
 30
0.0
 40
1.50000000000001
100
AcDbArc
 50
227.2726046868
 51
316.3971810272
  0
LINE
  5
148
330
1F
100
AcDbEntity
  8
0
  6
Continuous
 62
     7
370
    15
100
AcDbLine
 10
279.4730150447
 20
228.2180468432
 30
0.0
 11
279.6740317092
 21
228.2180468432
 31
0.0
  0
LINE
  5
149
330
1F
100
AcDbEntity
  8
0
  6
Continuous
 62
     7
370
    15
100
AcDbLine
 10
279.6740317092
 20
215.218046575
 30
0.0
 11
279.4730150447
 21
215.218046575
 31
0.0
  0
LINE
  5
14A
330
1F
100
AcDbEntity
  8
0
  6
Continuous
 62
     7
370
    15
100
AcDbLine
 10
282.6740228877
 20
21.7180437289
 30
0.0
 11
287.6740330205
 21
21.7180437289
 31
0.0
  0
LINE
  5
14B
330
1F
100
AcDbEntity
  8
0
  6
Continuous
 62
     7
370
    15
100
AcDbLine
 10
282.6740228877
 20
36.7180443249
 30
0.0
 11
282.6740228877
 21
21.7180437289
 31
0.0
  0
LINE
  5
14C
330
1F
100
AcDbEntity
  8
0
  6
Continuous
 62
     7
370
    15
100
AcDbLine
 10
282.6740228877
 20
36.7180443249
 30
0.0
 11
287.6740330205
 21
36.7180443249
 31
0.0
  0
LINE
  5
14D
330
1F
100
AcDbEntity
  8
0
  6
Continuous
 62
     7
370
    15
100
AcDbLine
 10
287.6740330205
 20
36.7180443249
 30
0.0
 11
287.6740330205
 21
21.7180437289
 31
0.0
  0
LINE
  5
14E
330
1F
100
AcDbEntity
  8
0
  6
Continuous
 62
     7
370
    15
100
AcDbLine
 10
287.6740330205
 20
211.7305545948
 30
0.0
 11
287.6740330205
 21
36.7180443249
 31
0.0
  0
LINE
  5
14F
330
1F
100
AcDbEntity
  8
0
  6
Continuous
 62
     7
370
    15
100
AcDbLine
 10
282.6740228877
 20
212.4470694802
 30
0.0
 11
282.6740228877
 21
36.7180443249
 31
0.0
  0
LINE
  5
150
330
1F
100
AcDbEntity
  8
0
  6
Continuous
 62
     7
370
    15
100
AcDbLine
 10
287.6740330205
 20
36.7180443249
 30
0.0
 11
302.6740336165
 21
36.7180443249
 31
0.0
  0
ARC
  5
151
330
1F
100
AcDbEntity
  8
0
  6
Continuous
 62
     7
370
    15
100
AcDbCircle
 10
287.6740268931
 20
36.7180467091
 30
0.0
 40
15.00000000000001
100
AcDbArc
 50
270.0
 51
0.0
  0
LINE
  5
152
330
1F
100
AcDbEntity
  8
0
  6
Continuous
 62
     7
370
    15
100
AcDbLine
 10
287.6740330205
 20
231.7055388234
 30
0.0
 11
287.6740330205
 21
406.7180490933
 31
0.0
  0
LINE
  5
153
330
1F
100
AcDbEntity
  8
0
  6
Continuous
 62
     7
370
    15
100
AcDbLine
 10
287.6740330205
 20
406.7180490933
 30
0.0
 11
302.6740336165
 21
406.7180490933
 31
0.0
  0
LINE
  5
154
330
1F
100
AcDbEntity
  8
0
  6
Continuous
 62
     7
370
    15
100
AcDbLine
 10
302.6740336165
 20
406.7180490933
 30
0.0
 11
302.6740336165
 21
36.7180443249
 31
0.0
  0
LINE
  5
155
330
1F
100
AcDbEntity
  8
0
  6
Continuous
 62
     7
370
    15
100
AcDbLine
 10
282.6740228877
 20
406.7180490933
 30
0.0
 11
287.6740330205
 21
406.7180490933
 31
0.0
  0
LINE
  5
156
330
1F
100
AcDbEntity
  8
0
  6
Continuous
 62
     7
370
    15
100
AcDbLine
 10
282.6740228877
 20
230.989023938
 30
0.0
 11
282.6740228877
 21
406.7180490933
 31
0.0
  0
LINE
  5
157
330
1F
100
AcDbEntity
  8
0
  6
Continuous
 62
     7
370
    15
100
AcDbLine
 10
282.6740228877
 20
421.7180496894
 30
0.0
 11
287.6740330205
 21
421.7180496894
 31
0.0
  0
LINE
  5
158
330
1F
100
AcDbEntity
  8
0
  6
Continuous
 62
     7
370
    15
100
AcDbLine
 10
287.6740330205
 20
406.7180490933
 30
0.0
 11
287.6740330205
 21
421.7180496894
 31
0.0
  0
LINE
  5
159
330
1F
100
AcDbEntity
  8
0
  6
Continuous
 62
     7
370
    15
100
AcDbLine
 10
282.6740228877
 20
406.7180490933
 30
0.0
 11
282.6740228877
 21
421.7180496894
 31
0.0
  0
ARC
  5
15A
330
1F
100
AcDbEntity
  8
0
  6
Continuous
 62
     7
370
    15
100
AcDbCircle
 10
287.6740268931
 20
406.7180467091
 30
0.0
 40
15.00000000000006
100
AcDbArc
 50
0.0
 51
90.0
  0
LINE
  5
15B
330
1F
100
AcDbEntity
  8
0
  6
Continuous
 62
     7
370
    15
100
AcDbLine
 10
265.8849590764
 20
217.0180467769
 30
0.0
 11
265.8849590764
 21
225.6180466033
 31
0.0
  0
LINE
  5
15C
330
1F
100
AcDbEntity
  8
0
  6
Continuous
 62
     7
370
    15
100
AcDbLine
 10
265.8849590764
 20
217.0180467769
 30
0.0
 11
260.3706651673
 21
217.0180467769
 31
0.0
  0
LINE
  5
15D
330
1F
100
AcDbEntity
  8
0
  6
Continuous
 62
     7
370
    15
100
AcDbLine
 10
260.3706651673
 20
217.0180467769
 30
0.0
 11
260.3706651673
 21
225.6180466033
 31
0.0
  0
LINE
  5
15E
330
1F
100
AcDbEntity
  8
0
  6
Continuous
 62
     7
370
    15
100
AcDbLine
 10
265.8849590764
 20
225.6180466033
 30
0.0
 11
260.3706651673
 21
225.6180466033
 31
0.0
  0
LINE
  5
15F
330
1F
100
AcDbEntity
  8
0
  6
Continuous
 62
     7
370
    15
100
AcDbLine
 10
259.2564010367
 20
228.9180465854
 30
0.0
 11
234.4442987189
 21
228.9180465854
 31
0.0
  0
LINE
  5
160
330
1F
100
AcDbEntity
  8
0
  6
Continuous
 62
     7
370
    15
100
AcDbLine
 10
259.2564010367
 20
225.6180466033
 30
0.0
 11
259.2564010367
 21
228.9180465854
 31
0.0
  0
LINE
  5
161
330
1F
100
AcDbEntity
  8
0
  6
Continuous
 62
     7
370
    15
100
AcDbLine
 10
259.2564010367
 20
214.5180468328
 30
0.0
 11
259.2564010367
 21
217.0180467769
 31
0.0
  0
LINE
  5
162
330
1F
100
AcDbEntity
  8
0
  6
Continuous
 62
     7
370
    15
100
AcDbLine
 10
234.4442987189
 20
214.5180468328
 30
0.0
 11
259.2564010367
 21
214.5180468328
 31
0.0
  0
LINE
  5
163
330
1F
100
AcDbEntity
  8
0
  6
Continuous
 62
     7
370
    15
100
AcDbLine
 10
234.4442987189
 20
214.5180468328
 30
0.0
 11
234.4442987189
 21
228.9180465854
 31
0.0
  0
LINE
  5
164
330
1F
100
AcDbEntity
  8
0
  6
Continuous
 62
     7
370
    15
100
AcDbLine
 10
259.2564010367
 20
225.6180466033
 30
0.0
 11
260.3706651673
 21
225.6180466033
 31
0.0
  0
LINE
  5
165
330
1F
100
AcDbEntity
  8
0
  6
Continuous
 62
     7
370
    15
100
AcDbLine
 10
259.2564010367
 20
217.0180467769
 30
0.0
 11
260.3706651673
 21
217.0180467769
 31
0.0
  0
LINE
  5
166
330
1F
100
AcDbEntity
  8
0
  6
Continuous
 62
     7
370
    15
100
AcDbLine
 10
261.2762534366
 20
229.7153974764
 30
0.0
 11
259.3840294824
 21
229.7153974764
 31
0.0
  0
ARC
  5
167
330
1F
100
AcDbEntity
  8
0
  6
Continuous
 62
     7
370
    15
100
AcDbCircle
 10
260.7305993563
 20
229.0909680598
 30
0.0
 40
1.48430540041134
100
AcDbArc
 50
155.1219708609
 51
186.6901462435
  0
ARC
  5
168
330
1F
100
AcDbEntity
  8
0
  6
Continuous
 62
     7
370
    15
100
AcDbCircle
 10
235.7001788814
 20
229.1120409881
 30
0.0
 40
1.270774885943811
100
AcDbArc
 50
151.518225283
 51
188.7810136401
  0
LINE
  5
169
330
1F
100
AcDbEntity
  8
0
  6
Continuous
 62
     7
370
    15
100
AcDbLine
 10
234.5832073436
 20
229.7180470891
 30
0.0
 11
261.9490110621
 21
229.7180470891
 31
0.0
  0
LINE
  5
16A
330
1F
100
AcDbEntity
  8
0
  6
Continuous
 62
     7
370
    15
100
AcDbLine
 10
261.9490110621
 20
229.7180470891
 30
0.0
 11
261.2762534366
 21
229.7153974764
 31
0.0
  0
LINE
  5
16B
330
1F
100
AcDbEntity
  8
0
  6
Continuous
 62
     7
370
    15
100
AcDbLine
 10
259.3840294824
 20
213.7206959419
 30
0.0
 11
261.2762534366
 21
213.7206959419
 31
0.0
  0
LINE
  5
16C
330
1F
100
AcDbEntity
  8
0
  6
Continuous
 62
     7
370
    15
100
AcDbLine
 10
261.2762534366
 20
213.7206959419
 30
0.0
 11
261.9490110621
 21
213.7180463291
 31
0.0
  0
LINE
  5
16D
330
1F
100
AcDbEntity
  8
0
  6
Continuous
 62
     7
370
    15
100
AcDbLine
 10
261.9490110621
 20
213.7180463291
 30
0.0
 11
234.5832073436
 21
213.7180463291
 31
0.0
  0
ARC
  5
16E
330
1F
100
AcDbEntity
  8
0
  6
Continuous
 62
     7
370
    15
100
AcDbCircle
 10
235.7001788814
 20
214.3240524301
 30
0.0
 40
1.270774885943823
100
AcDbArc
 50
171.2189863599
 51
208.481774717
  0
ARC
  5
16F
330
1F
100
AcDbEntity
  8
0
  6
Continuous
 62
     7
370
    15
100
AcDbCircle
 10
260.7305993563
 20
214.3451253585
 30
0.0
 40
1.484305400411344
100
AcDbArc
 50
173.3098537565
 51
204.8780291391
  0
LINE
  5
170
330
1F
100
AcDbEntity
  8
0
  6
Continuous
 62
     7
370
    15
100
AcDbLine
 10
259.3840294824
 20
228.9180465854
 30
0.0
 11
259.3840294824
 21
229.7153974764
 31
0.0
  0
LINE
  5
171
330
1F
100
AcDbEntity
  8
0
  6
Continuous
 62
     7
370
    15
100
AcDbLine
 10
259.3953245625
 20
228.9180465854
 30
0.0
 11
259.3953245625
 21
225.6180466033
 31
0.0
  0
LINE
  5
172
330
1F
100
AcDbEntity
  8
0
  6
Continuous
 62
     7
370
    15
100
AcDbLine
 10
259.3840294824
 20
213.7206959419
 30
0.0
 11
259.3840294824
 21
214.5180468328
 31
0.0
  0
LINE
  5
173
330
1F
100
AcDbEntity
  8
0
  6
Continuous
 62
     7
370
    15
100
AcDbLine
 10
259.3953245625
 20
217.0180467769
 30
0.0
 11
259.3953245625
 21
214.5180468328
 31
0.0
  0
LINE
  5
174
330
1F
100
AcDbEntity
  8
0
  6
Continuous
 62
     7
370
    15
100
AcDbLine
 10
265.3840267405
 20
213.7180463291
 30
0.0
 11
261.9490110621
 21
213.7180463291
 31
0.0
  0
LINE
  5
175
330
1F
100
AcDbEntity
  8
0
  6
Continuous
 62
     7
370
    15
100
AcDbLine
 10
261.2762534366
 20
213.7206959419
 30
0.0
 11
261.2762534366
 21
214.5180468328
 31
0.0
  0
LINE
  5
176
330
1F
100
AcDbEntity
  8
0
  6
Continuous
 62
     7
370
    15
100
AcDbLine
 10
265.3840267405
 20
214.5180468328
 30
0.0
 11
261.2762534366
 21
214.5180468328
 31
0.0
  0
LINE
  5
177
330
1F
100
AcDbEntity
  8
0
  6
Continuous
 62
     7
370
    15
100
AcDbLine
 10
261.2762534366
 20
228.9180465854
 30
0.0
 11
261.2762534366
 21
229.7153974764
 31
0.0
  0
LINE
  5
178
330
1F
100
AcDbEntity
  8
0
  6
Continuous
 62
     7
370
    15
100
AcDbLine
 10
265.3840267405
 20
229.7180470891
 30
0.0
 11
261.9490110621
 21
229.7180470891
 31
0.0
  0
LINE
  5
179
330
1F
100
AcDbEntity
  8
0
  6
Continuous
 62
     7
370
    15
100
AcDbLine
 10
265.3840267405
 20
228.9180465854
 30
0.0
 11
261.2762534366
 21
228.9180465854
 31
0.0
  0
LINE
  5
17A
330
1F
100
AcDbEntity
  8
0
  6
Continuous
 62
     7
370
    15
100
AcDbLine
 10
259.3840294824
 20
228.9180465854
 30
0.0
 11
261.2762534366
 21
228.9180465854
 31
0.0
  0
LINE
  5
17B
330
1F
100
AcDbEntity
  8
0
  6
Continuous
 62
     7
370
    15
100
AcDbLine
 10
259.3840294824
 20
214.5180468328
 30
0.0
 11
261.2762534366
 21
214.5180468328
 31
0.0
  0
LINE
  5
17C
330
1F
100
AcDbEntity
  8
0
  6
Continuous
 62
     7
370
    15
100
AcDbLine
 10
260.454022263
 20
230.0180465795
 30
0.0
 11
264.8540222392
 21
230.0180465795
 31
0.0
  0
LINE
  5
17D
330
1F
100
AcDbEntity
  8
0
  6
Continuous
 62
     7
370
    15
100
AcDbLine
 10
260.5540239558
 20
212.9180467568
 30
0.0
 11
264.7540205464
 21
212.9180467568
 31
0.0
  0
LINE
  5
17E
330
1F
100
AcDbEntity
  8
0
  6
Continuous
 62
     7
370
    15
100
AcDbLine
 10
260.5540239558
 20
213.3180470086
 30
0.0
 11
264.7540205464
 21
213.3180470086
 31
0.0
  0
LINE
  5
17F
330
1F
100
AcDbEntity
  8
0
  6
Continuous
 62
     7
370
    15
100
AcDbLine
 10
229.5454451189
 20
228.9180465854
 30
0.0
 11
227.5559687362
 21
228.9180465854
 31
0.0
  0
LINE
  5
180
330
1F
100
AcDbEntity
  8
0
  6
Continuous
 62
     7
370
    15
100
AcDbLine
 10
229.5454451189
 20
214.5180468328
 30
0.0
 11
229.5454451189
 21
228.9180465854
 31
0.0
  0
LINE
  5
181
330
1F
100
AcDbEntity
  8
0
  6
Continuous
 62
     7
370
    15
100
AcDbLine
 10
227.5559687362
 20
214.5180468328
 30
0.0
 11
229.5454451189
 21
214.5180468328
 31
0.0
  0
ARC
  5
182
330
1F
100
AcDbEntity
  8
0
  6
Continuous
 62
     7
370
    15
100
AcDbCircle
 10
242.8499259071
 20
221.7180467091
 30
0.0
 40
16.90399728363029
100
AcDbArc
 50
154.7901555355
 51
205.2098444645
  0
SPLINE
  5
183
330
1F
100
AcDbEntity
  8
0
  6
Continuous
 62
     7
370
    15
100
AcDbSpline
210
0.0
220
0.0
230
1.0
 70
     8
 71
     3
 72
    12
 73
     8
 74
     0
 42
0.00000001
 43
0.00000001
 40
0.0
 40
0.0
 40
0.0
 40
0.0
 40
0.1818719143978313
 40
0.3633434966773147
 40
0.5550795168197474
 40
0.7712662717804433
 40
1.0
 40
1.0
 40
1.0
 40
1.0
 10
227.6883432016334
 20
213.7180463291492
 30
0.0
 10
227.7122034953436
 20
213.7253680359594
 30
0.0
 10
227.7598715620547
 20
213.7399953332133
 30
0.0
 10
227.7746167666455
 20
213.85198460266
 30
0.0
 10
227.7473832596402
 20
214.0213809375286
 30
0.0
 10
227.6757084168943
 20
214.2497935589114
 30
0.0
 10
227.5966253566192
 20
214.426963647389
 30
0.0
 10
227.5559687361678
 20
214.5180468328085
 30
0.0
  0
LINE
  5
184
330
1F
100
AcDbEntity
  8
0
  6
Continuous
 62
     7
370
    15
100
AcDbLine
 10
227.3039826498
 20
214.4725456714
 30
0.0
 11
227.6584291205
 21
213.7180463291
 31
0.0
  0
ARC
  5
185
330
1F
100
AcDbEntity
  8
0
  6
Continuous
 62
     7
370
    15
100
AcDbCircle
 10
242.5746430683
 20
221.7180467091
 30
0.0
 40
16.90237719687147
100
AcDbArc
 50
154.6169692401
 51
205.3830307599
  0
LINE
  5
186
330
1F
100
AcDbEntity
  8
0
  6
Continuous
 62
     7
370
    15
100
AcDbLine
 10
227.6584291205
 20
229.7180470891
 30
0.0
 11
227.3039826498
 21
228.9635477468
 31
0.0
  0
SPLINE
  5
187
330
1F
100
AcDbEntity
  8
0
  6
Continuous
 62
     7
370
    15
100
AcDbSpline
210
0.0
220
0.0
230
1.0
 70
     8
 71
     3
 72
    12
 73
     8
 74
     0
 42
0.00000001
 43
0.00000001
 40
0.0
 40
0.0
 40
0.0
 40
0.0
 40
0.2510219938737357
 40
0.5023977523608443
 40
0.7402766005126201
 40
0.9473072801081994
 40
1.0
 40
1.0
 40
1.0
 40
1.0
 10
227.5559687361678
 20
228.9180465854492
 30
0.0
 10
227.6002864819995
 20
229.0179286676096
 30
0.0
 10
227.6889844305415
 20
229.2178335954772
 30
0.0
 10
227.7639770833024
 20
229.4765691997503
 30
0.0
 10
227.7754714503807
 20
229.6537985141028
 30
0.0
 10
227.7338253960629
 20
229.7142477845727
 30
0.0
 10
227.6960143183987
 20
229.7174062908997
 30
0.0
 10
227.6883432016334
 20
229.7180470891085
 30
0.0
  0
LINE
  5
188
330
1F
100
AcDbEntity
  8
0
  6
Continuous
 62
     7
370
    15
100
AcDbLine
 10
227.6883432016
 20
229.7180470891
 30
0.0
 11
227.6584291205
 21
229.7180470891
 31
0.0
  0
LINE
  5
189
330
1F
100
AcDbEntity
  8
0
  6
Continuous
 62
     7
370
    15
100
AcDbLine
 10
227.6883432016
 20
213.7180463291
 30
0.0
 11
227.6584291205
 21
213.7180463291
 31
0.0
  0
LWPOLYLINE
  5
18A
330
1F
100
AcDbEntity
  8
0
  6
Continuous
 62
     7
370
    15
100
AcDbPolyline
 90
        9
 70
   128
 43
0.0
 10
229.5454451189
 20
228.9180465854
 10
229.540185009
 20
229.0741190195
 10
229.5246207461
 20
229.2241932705
 10
229.4993334756
 20
229.3625030547
 10
229.465306674
 20
229.4837319173
 10
229.423844193
 20
229.5832223139
 10
229.3765404568
 20
229.6571506999
 10
229.3252059565
 20
229.7026746787
 10
229.2718299971
 20
229.7180470891
  0
LINE
  5
18B
330
1F
100
AcDbEntity
  8
0
  6
Continuous
 62
     7
370
    15
100
AcDbLine
 10
227.6883432016
 20
229.7180470891
 30
0.0
 11
229.2718299971
 21
229.7180470891
 31
0.0
  0
LWPOLYLINE
  5
18C
330
1F
100
AcDbEntity
  8
0
  6
Continuous
 62
     7
370
    15
100
AcDbPolyline
 90
        9
 70
   128
 43
0.0
 10
229.5454451189
 20
214.5180468328
 10
229.540185009
 20
214.3619743988
 10
229.5246207461
 20
214.2119001478
 10
229.4993334756
 20
214.0735903635
 10
229.465306674
 20
213.952361501
 10
229.423844193
 20
213.8528711043
 10
229.3765404568
 20
213.7789427183
 10
229.3252059565
 20
213.7334187396
 10
229.2718299971
 20
213.7180463291
  0
LINE
  5
18D
330
1F
100
AcDbEntity
  8
0
  6
Continuous
 62
     7
370
    15
100
AcDbLine
 10
229.2718299971
 20
213.7180463291
 30
0.0
 11
227.6883432016
 21
213.7180463291
 31
0.0
  0
LINE
  5
18E
330
1F
100
AcDbEntity
  8
0
  6
Continuous
 62
     7
370
    15
100
AcDbLine
 10
234.4442987189
 20
228.9180465854
 30
0.0
 11
229.5454451189
 21
228.9180465854
 31
0.0
  0
LINE
  5
18F
330
1F
100
AcDbEntity
  8
0
  6
Continuous
 62
     7
370
    15
100
AcDbLine
 10
229.2718299971
 20
229.7180470891
 30
0.0
 11
234.5832073436
 21
229.7180470891
 31
0.0
  0
LINE
  5
190
330
1F
100
AcDbEntity
  8
0
  6
Continuous
 62
     7
370
    15
100
AcDbLine
 10
229.5454451189
 20
214.5180468328
 30
0.0
 11
234.4442987189
 21
214.5180468328
 31
0.0
  0
LINE
  5
191
330
1F
100
AcDbEntity
  8
0
  6
Continuous
 62
     7
370
    15
100
AcDbLine
 10
234.5832073436
 20
213.7180463291
 30
0.0
 11
229.2718299971
 21
213.7180463291
 31
0.0
  0
LINE
  5
192
330
1F
100
AcDbEntity
  8
0
  6
Continuous
 62
     7
370
    15
100
AcDbLine
 10
254.9850427852
 20
229.721517197
 30
0.0
 11
257.9850339637
 21
229.721517197
 31
0.0
  0
SPLINE
  5
193
330
1F
100
AcDbEntity
  8
0
  6
Continuous
 62
     7
370
    15
100
AcDbSpline
210
0.0
220
0.0
230
1.0
 70
     8
 71
     3
 72
    16
 73
    12
 74
     0
 42
0.00000001
 43
0.00000001
 40
0.0
 40
0.0
 40
0.0
 40
0.0
 40
0.1207045017740557
 40
0.2414116709176487
 40
0.3621187412040286
 40
0.4828245856756951
 40
0.6035308103317315
 40
0.7242365584760028
 40
0.8449446957799939
 40
0.965651483219476
 40
1.0
 40
1.0
 40
1.0
 40
1.0
 10
260.8263277754745
 20
208.7656752086964
 30
0.0
 10
260.8457288691877
 20
208.7683479617332
 30
0.0
 10
260.884531485346
 20
208.7736935268704
 30
0.0
 10
260.8894516233697
 20
209.0646388600516
 30
0.0
 10
260.8522460984252
 20
209.5179763325691
 30
0.0
 10
260.775313939931
 20
210.0855073956082
 30
0.0
 10
260.6715129818742
 20
210.6738270201339
 30
0.0
 10
260.555413779908
 20
211.2005363422686
 30
0.0
 10
260.4484053916791
 20
211.5638101570543
 30
0.0
 10
260.3758329023103
 20
211.73428267805
 30
0.0
 10
260.3562806154163
 20
211.7011308468891
 30
0.0
 10
260.3519493088683
 20
211.6937869109001
 30
0.0
  0
SPLINE
  5
194
330
1F
100
AcDbEntity
  8
0
  6
Continuous
 62
     7
370
    15
100
AcDbSpline
210
0.0
220
0.0
230
1.0
 70
     8
 71
     3
 72
    16
 73
    12
 74
     0
 42
0.00000001
 43
0.00000001
 40
0.0
 40
0.0
 40
0.0
 40
0.0
 40
0.120580094946948
 40
0.2411627657156628
 40
0.3617455725183416
 40
0.4823270087790189
 40
0.6029088248322202
 40
0.7234907552027146
 40
0.84407392294702
 40
0.9646533399229864
 40
0.9999999999999999
 40
0.9999999999999999
 40
0.9999999999999999
 40
0.9999999999999999
 10
260.9969162688216
 20
234.6416990153279
 30
0.0
 10
261.0163173730649
 20
234.6390261559493
 30
0.0
 10
261.0551199959962
 20
234.6336803800946
 30
0.0
 10
261.0600399964617
 20
234.3427367002616
 30
0.0
 10
261.0228349959544
 20
233.8893970149339
 30
0.0
 10
260.9459010738915
 20
233.32187014593
 30
0.0
 10
260.8421063702644
 20
232.7335340792435
 30
0.0
 10
260.7259831652357
 20
232.20688236778
 30
0.0
 10
260.6189790169223
 20
231.843410697431
 30
0.0
 10
260.5462091534482
 20
231.6728611673846
 30
0.0
 10
260.5265720717519
 20
231.7064454004419
 30
0.0
 10
260.5221205697021
 20
231.7140585623469
 30
0.0
  0
SPLINE
  5
195
330
1F
100
AcDbEntity
  8
0
  6
Continuous
 62
     7
370
    15
100
AcDbSpline
210
0.0
220
0.0
230
1.0
 70
     8
 71
     3
 72
    16
 73
    12
 74
     0
 42
0.00000001
 43
0.00000001
 40
0.0
 40
0.0
 40
0.0
 40
0.0
 40
0.1205148256783134
 40
0.2410323145346365
 40
0.3615497046890916
 40
0.4820658709550892
 40
0.6025824168080316
 40
0.7230984868980037
 40
0.8436169423933493
 40
0.9641311181417973
 40
1.0
 40
1.0
 40
1.0
 40
1.0
 10
276.3673001275024
 20
211.382093734273
 30
0.0
 10
276.3867012170323
 20
211.3847665142117
 30
0.0
 10
276.4255038248243
 20
211.3901121331531
 30
0.0
 10
276.4304240255976
 20
211.6810570627956
 30
0.0
 10
276.3932182622044
 20
212.134396068761
 30
0.0
 10
276.3162869947467
 20
212.7019214015995
 30
0.0
 10
276.2124827109914
 20
213.2902624134853
 30
0.0
 10
276.0963959208271
 20
213.8168919160964
 30
0.0
 10
275.9893420785858
 20
214.1804606774961
 30
0.0
 10
275.916487680414
 20
214.3510560039903
 30
0.0
 10
275.8967972230289
 20
214.3172421807212
 30
0.0
 10
275.8922809109649
 20
214.3094864554491
 30
0.0
  0
SPLINE
  5
196
330
1F
100
AcDbEntity
  8
0
  6
Continuous
 62
     7
370
    15
100
AcDbSpline
210
0.0
220
0.0
230
1.0
 70
     8
 71
     3
 72
    16
 73
    12
 74
     0
 42
0.00000001
 43
0.00000001
 40
0.0
 40
0.0
 40
0.0
 40
0.0
 40
0.1205178291999835
 40
0.2410322106599858
 40
0.3615493019567432
 40
0.4820662922597249
 40
0.6025827803802242
 40
0.723099141632693
 40
0.843614416828865
 40
0.964131198050424
 40
1.0
 40
1.0
 40
1.0
 40
1.0
 10
276.5378737196883
 20
232.0252804897513
 30
0.0
 10
276.5572811303977
 20
232.0226092444434
 30
0.0
 10
276.5960953966149
 20
232.0172668302458
 30
0.0
 10
276.6010114098327
 20
231.72631362953
 30
0.0
 10
276.5638070370251
 20
231.2729764043525
 30
0.0
 10
276.4868741292368
 20
230.7054557112274
 30
0.0
 10
276.3830775619195
 20
230.1171095423698
 30
0.0
 10
276.2669609679177
 20
229.5904912173378
 30
0.0
 10
276.1599342661785
 20
229.2269037664882
 30
0.0
 10
276.0870763743793
 20
229.0563179522664
 30
0.0
 10
276.0673856862923
 20
229.090132488067
 30
0.0
 10
276.062869404312
 20
229.0978882342365
 30
0.0
  0
SPLINE
  5
197
330
1F
100
AcDbEntity
  8
0
  6
Continuous
 62
     7
370
    15
100
AcDbSpline
210
0.0
220
0.0
230
1.0
 70
    24
 71
     3
 72
    16
 73
    12
 74
     0
 42
0.00000001
 43
0.00000001
 40
0.0
 40
0.0
 40
0.0
 40
0.0
 40
0.0611070903526417
 40
0.1864721510444355
 40
0.3118319714710453
 40
0.4371971593372122
 40
0.5625584614195136
 40
0.6879205673632984
 40
0.8132849015740912
 40
0.9386471466409737
 40
0.9999999999999999
 40
0.9999999999999999
 40
0.9999999999999999
 40
0.9999999999999999
 10
279.4442111000976
 20
214.8518109574702
 30
0.0
 10
279.4499841294488
 20
214.8518109574702
 30
0.0
 10
279.4676008936402
 20
214.8518109574702
 30
0.0
 10
279.2491758968508
 20
214.8518109574702
 30
0.0
 10
278.8364218088203
 20
214.8518109574702
 30
0.0
 10
278.2799581826584
 20
214.8518109574702
 30
0.0
 10
277.6808523453383
 20
214.8518109574702
 30
0.0
 10
277.1221529308176
 20
214.8518109574702
 30
0.0
 10
276.7052057718545
 20
214.8518109574702
 30
0.0
 10
276.4822038073308
 20
214.8518109574702
 30
0.0
 10
276.4970192109029
 20
214.8518109574702
 30
0.0
 10
276.5018874154052
 20
214.8518109574702
 30
0.0
  0
SPLINE
  5
198
330
1F
100
AcDbEntity
  8
0
  6
Continuous
 62
     7
370
    15
100
AcDbSpline
210
0.0
220
0.0
230
1.0
 70
    24
 71
     3
 72
    16
 73
    12
 74
     0
 42
0.00000001
 43
0.00000001
 40
0.0
 40
0.0
 40
0.0
 40
0.0
 40
0.0610095308224137
 40
0.186174441967608
 40
0.3113341212138785
 40
0.4364991593304078
 40
0.5616603178668566
 40
0.6868222789813968
 40
0.8119864648054415
 40
0.9371485648209648
 40
1.0
 40
1.0
 40
1.0
 40
1.0
 10
279.4442111000976
 20
228.4104417890098
 30
0.0
 10
279.449984123236
 20
228.4104417890098
 30
0.0
 10
279.467600868469
 20
228.4104417890098
 30
0.0
 10
279.2491761302131
 20
228.4104417890098
 30
0.0
 10
278.8364209538401
 20
228.4104417890098
 30
0.0
 10
278.279961369338
 20
228.4104417890098
 30
0.0
 10
277.6808404540248
 20
228.4104417890098
 30
0.0
 10
277.1221973101894
 20
228.4104417890098
 30
0.0
 10
276.7050401437793
 20
228.4104417890098
 30
0.0
 10
276.4815492120507
 20
228.4104417890098
 30
0.0
 10
276.4967695685099
 20
228.4104417890098
 30
0.0
 10
276.5018576130828
 20
228.4104417890098
 30
0.0
  0
SPLINE
  5
199
330
1F
100
AcDbEntity
  8
0
  6
Continuous
 62
     7
370
    15
100
AcDbSpline
210
0.0
220
0.0
230
1.0
 70
     8
 71
     3
 72
    19
 73
    15
 74
     0
 42
0.00000001
 43
0.00000001
 40
0.0
 40
0.0
 40
0.0
 40
0.0
 40
0.0039536627326063
 40
0.1157668230466676
 40
0.22804442824445
 40
0.3355200958495717
 40
0.4377080005322952
 40
0.5348832860674092
 40
0.6283050734508772
 40
0.7302938443609591
 40
0.8413321538057652
 40
0.9641268231532493
 40
0.9937688231716815
 40
1.0
 40
1.0
 40
1.0
 40
1.0
 10
265.7723062977752
 20
227.3180465094533
 30
0.0
 10
265.7726985572681
 20
227.3180408947617
 30
0.0
 10
265.7841842702342
 20
227.3178764915088
 30
0.0
 10
265.8075074638539
 20
227.3027455402374
 30
0.0
 10
265.8509717824442
 20
227.2358506881779
 30
0.0
 10
265.8889599977659
 20
227.1311532911945
 30
0.0
 10
265.9124378411871
 20
227.0060755739044
 30
0.0
 10
265.9237782315847
 20
226.8776409979994
 30
0.0
 10
265.9243868221714
 20
226.7564699008655
 30
0.0
 10
265.9085882797185
 20
226.6472374451892
 30
0.0
 10
265.8682125371109
 20
226.557820718934
 30
0.0
 10
265.8163554303034
 20
226.5227707243008
 30
0.0
 10
265.7816440389051
 20
226.5181598864539
 30
0.0
 10
265.7736882241338
 20
226.5180636529009
 30
0.0
 10
265.7723062977752
 20
226.5180469371166
 30
0.0
  0
SPLINE
  5
19A
330
1F
100
AcDbEntity
  8
0
  6
Continuous
 62
     7
370
    15
100
AcDbSpline
210
0.0
220
0.0
230
1.0
 70
     8
 71
     3
 72
    30
 73
    26
 74
     0
 42
0.00000001
 43
0.00000001
 40
0.0
 40
0.0
 40
0.0
 40
0.0
 40
0.1247116298693979
 40
0.2494226536572214
 40
0.3741206715319979
 40
0.4367836285032525
 40
0.468154426183663
 40
0.4838411758976229
 40
0.4916936303415844
 40
0.4956121580807566
 40
0.4975711325426792
 40
0.4985506740400825
 40
0.4990404955182221
 40
0.4992853194835297
 40
0.4994077748530646
 40
0.4994689592846597
 40
0.4995053692453342
 40
0.4995178427536746
 40
0.4995303162620149
 40
0.5609166905661019
 40
0.6646132164491936
 40
0.7325819504931229
 40
0.8111448646011084
 40
0.9002988950803381
 40
1.0
 40
1.0
 40
1.0
 40
1.0
 10
265.8439957842788
 20
227.377938467243
 30
0.0
 10
265.8497666487918
 20
227.3761455705093
 30
0.0
 10
265.8613083497722
 20
227.3725597857551
 30
0.0
 10
265.951141738034
 20
227.3507217216521
 30
0.0
 10
266.058615480629
 20
227.3250370061645
 30
0.0
 10
266.1441704427536
 20
227.3046272185379
 30
0.0
 10
266.1882702738856
 20
227.2940956593984
 30
0.0
 10
266.2104999896519
 20
227.2887712637242
 30
0.0
 10
266.2216345325989
 20
227.2861118186934
 30
0.0
 10
266.2272036480803
 20
227.2847752405915
 30
0.0
 10
266.2299855920764
 20
227.2841079134452
 30
0.0
 10
266.2313763320015
 20
227.2837746034949
 30
0.0
 10
266.2320716962996
 20
227.2836074611108
 30
0.0
 10
266.2324192586406
 20
227.2835233923899
 30
0.0
 10
266.2325934676999
 20
227.2834833282488
 30
0.0
 10
266.2326820979217
 20
227.2834592007174
 30
0.0
 10
266.2327278582067
 20
227.2834531630711
 30
0.0
 10
266.2327521630593
 20
227.2834450199136
 30
0.0
 10
266.2572322079383
 20
227.2759044057857
 30
0.0
 10
266.3254175312085
 20
227.2640001013726
 30
0.0
 10
266.4158904658069
 20
227.2430987375772
 30
0.0
 10
266.4995193272747
 20
227.22610211868
 30
0.0
 10
266.5630458530579
 20
227.2131766313202
 30
0.0
 10
266.6135714747317
 20
227.2035425860578
 30
0.0
 10
266.6207947017359
 20
227.2030791272755
 30
0.0
 10
266.6246080145797
 20
227.2028344563928
 30
0.0
  0
ELLIPSE
  5
19B
330
1F
100
AcDbEntity
  8
0
  6
Continuous
 62
     7
370
    15
100
AcDbEllipse
 10
266.5011352869
 20
228.5000218879
 30
0.0
 11
0.3906095144045594
 21
-0.08616383961160068
 31
0.0
210
0.0
220
0.0
230
1.0
 40
0.0142285888
 41
0.0
 42
6.283185307179586
  0
LINE
  5
19C
330
1F
100
AcDbEntity
  8
0
  6
Continuous
 62
     7
370
    15
100
AcDbLine
 10
265.6740331397
 20
215.968046698
 30
0.0
 11
265.6740331397
 21
214.968046534
 31
0.0
  0
LINE
  5
19D
330
1F
100
AcDbEntity
  8
0
  6
Continuous
 62
     7
370
    15
100
AcDbLine
 10
259.474032496
 20
215.968046698
 30
0.0
 11
259.474032496
 21
214.968046534
 31
0.0
  0
LINE
  5
19E
330
1F
100
AcDbEntity
  8
0
  6
Continuous
 62
     7
370
    15
100
AcDbLine
 10
265.6740331397
 20
215.968046698
 30
0.0
 11
259.474032496
 21
215.968046698
 31
0.0
  0
LINE
  5
19F
330
1F
100
AcDbEntity
  8
0
  6
Continuous
 62
     7
370
    15
100
AcDbLine
 10
265.6740331397
 20
214.968046534
 30
0.0
 11
259.474032496
 21
214.968046534
 31
0.0
  0
LINE
  5
1A0
330
1F
100
AcDbEntity
  8
0
  6
Continuous
 62
     7
370
    15
100
AcDbLine
 10
265.6740331397
 20
228.4680468842
 30
0.0
 11
265.6740331397
 21
227.4680467203
 31
0.0
  0
LINE
  5
1A1
330
1F
100
AcDbEntity
  8
0
  6
Continuous
 62
     7
370
    15
100
AcDbLine
 10
259.474032496
 20
228.4680468842
 30
0.0
 11
259.474032496
 21
227.4680467203
 31
0.0
  0
LINE
  5
1A2
330
1F
100
AcDbEntity
  8
0
  6
Continuous
 62
     7
370
    15
100
AcDbLine
 10
265.6740331397
 20
228.4680468842
 30
0.0
 11
259.474032496
 21
228.4680468842
 31
0.0
  0
LINE
  5
1A3
330
1F
100
AcDbEntity
  8
0
  6
Continuous
 62
     7
370
    15
100
AcDbLine
 10
265.6740331397
 20
227.4680467203
 30
0.0
 11
259.474032496
 21
227.4680467203
 31
0.0
  0
LWPOLYLINE
  5
1A4
330
1F
100
AcDbEntity
  8
0
  6
Continuous
 62
     7
370
    15
100
AcDbPolyline
 90
        3
 70
   128
 43
0.0
 10
259.3953245625
 20
215.3569081679
 10
259.3979024634
 20
215.3507302396
 10
259.474032496
 20
214.968046534
  0
LWPOLYLINE
  5
1A5
330
1F
100
AcDbEntity
  8
0
  6
Continuous
 62
     7
370
    15
100
AcDbPolyline
 90
        3
 70
   128
 43
0.0
 10
259.474032496
 20
228.4680468842
 10
259.3979024634
 20
228.0853631787
 10
259.3953245625
 20
228.0791852504
  0
LINE
  5
1A6
330
1F
100
AcDbEntity
  8
0
  6
Continuous
 62
     7
370
    15
100
AcDbLine
 10
265.6740331397
 20
227.4680467203
 30
0.0
 11
265.6740331397
 21
227.3180465095
 31
0.0
  0
LINE
  5
1A7
330
1F
100
AcDbEntity
  8
0
  6
Continuous
 62
     7
370
    15
100
AcDbLine
 10
265.6740331397
 20
226.5180469371
 30
0.0
 11
265.6740331397
 21
225.6180466033
 31
0.0
  0
LINE
  5
1A8
330
1F
100
AcDbEntity
  8
0
  6
Continuous
 62
     7
370
    15
100
AcDbLine
 10
265.6740331397
 20
217.0180467769
 30
0.0
 11
265.6740331397
 21
215.968046698
 31
0.0
  0
LINE
  5
1A9
330
1F
100
AcDbEntity
  8
0
  6
Continuous
 62
     7
370
    15
100
AcDbLine
 10
117.6740265757
 20
36.7180443249
 30
0.0
 11
102.674026911
 21
36.7180443249
 31
0.0
  0
LINE
  5
1AA
330
1F
100
AcDbEntity
  8
0
  6
Continuous
 62
     7
370
    15
100
AcDbLine
 10
117.6740265757
 20
36.7180443249
 30
0.0
 11
117.6740265757
 21
21.7180437289
 31
0.0
  0
ARC
  5
1AB
330
1F
100
AcDbEntity
  8
0
  6
Continuous
 62
     7
370
    15
100
AcDbCircle
 10
117.6740268931
 20
36.7180467091
 30
0.0
 40
15.00000000000001
100
AcDbArc
 50
180.0
 51
270.0
  0
LINE
  5
1AC
330
1F
100
AcDbEntity
  8
0
  6
Continuous
 62
     7
370
    15
100
AcDbLine
 10
102.674026911
 20
406.7180490933
 30
0.0
 11
102.674026911
 21
36.7180443249
 31
0.0
  0
LINE
  5
1AD
330
1F
100
AcDbEntity
  8
0
  6
Continuous
 62
     7
370
    15
100
AcDbLine
 10
102.674026911
 20
406.7180490933
 30
0.0
 11
117.6740265757
 21
406.7180490933
 31
0.0
  0
LINE
  5
1AE
330
1F
100
AcDbEntity
  8
0
  6
Continuous
 62
     7
370
    15
100
AcDbLine
 10
117.6740265757
 20
406.7180490933
 30
0.0
 11
117.6740265757
 21
36.7180443249
 31
0.0
  0
ARC
  5
1AF
330
1F
100
AcDbEntity
  8
0
  6
Continuous
 62
     7
370
    15
100
AcDbCircle
 10
117.6740268931
 20
406.7180467091
 30
0.0
 40
15.0
100
AcDbArc
 50
90.0
 51
180.0
  0
LINE
  5
1B0
330
1F
100
AcDbEntity
  8
0
  6
Continuous
 62
     7
370
    15
100
AcDbLine
 10
117.6740265757
 20
421.7180496894
 30
0.0
 11
117.6740265757
 21
406.7180490933
 31
0.0
  0
LINE
  5
1B1
330
1F
100
AcDbEntity
  8
0
  6
Continuous
 62
     7
370
    15
100
AcDbLine
 10
278.6740296826
 20
36.7180443249
 30
0.0
 11
117.6740265757
 21
36.7180443249
 31
0.0
  0
LINE
  5
1B2
330
1F
100
AcDbEntity
  8
0
  6
Continuous
 62
     7
370
    15
100
AcDbLine
 10
278.6740296826
 20
36.7180443249
 30
0.0
 11
278.6740296826
 21
21.7180437289
 31
0.0
  0
LINE
  5
1B3
330
1F
100
AcDbEntity
  8
0
  6
Continuous
 62
     7
370
    15
100
AcDbLine
 10
278.6740296826
 20
21.7180437289
 30
0.0
 11
117.6740265757
 21
21.7180437289
 31
0.0
  0
LINE
  5
1B4
330
1F
100
AcDbEntity
  8
0
  6
Continuous
 62
     7
370
    15
100
AcDbLine
 10
258.674033855
 20
41.7180395566
 30
0.0
 11
258.674033855
 21
208.9055002548
 31
0.0
  0
LINE
  5
1B5
330
1F
100
AcDbEntity
  8
0
  6
Continuous
 62
     7
370
    15
100
AcDbLine
 10
258.674033855
 20
212.2452863373
 30
0.0
 11
258.674033855
 21
213.7180463291
 31
0.0
  0
LINE
  5
1B6
330
1F
100
AcDbEntity
  8
0
  6
Continuous
 62
     7
370
    15
100
AcDbLine
 10
258.674033855
 20
229.7180470891
 30
0.0
 11
258.674033855
 21
231.1774491213
 31
0.0
  0
LINE
  5
1B7
330
1F
100
AcDbEntity
  8
0
  6
Continuous
 62
     7
370
    15
100
AcDbLine
 10
258.674033855
 20
234.5201651446
 30
0.0
 11
258.674033855
 21
401.7180538617
 31
0.0
  0
LINE
  5
1B8
330
1F
100
AcDbEntity
  8
0
  6
Continuous
 62
     7
370
    15
100
AcDbLine
 10
258.674033855
 20
401.7180538617
 30
0.0
 11
122.674026464
 21
401.7180538617
 31
0.0
  0
LINE
  5
1B9
330
1F
100
AcDbEntity
  8
0
  6
Continuous
 62
     7
370
    15
100
AcDbLine
 10
122.674026464
 20
401.7180538617
 30
0.0
 11
122.674026464
 21
41.7180395566
 31
0.0
  0
LINE
  5
1BA
330
1F
100
AcDbEntity
  8
0
  6
Continuous
 62
     7
370
    15
100
AcDbLine
 10
258.674033855
 20
41.7180395566
 30
0.0
 11
122.674026464
 21
41.7180395566
 31
0.0
  0
LINE
  5
1BB
330
1F
100
AcDbEntity
  8
0
  6
Continuous
 62
     7
370
    15
100
AcDbLine
 10
278.6740296826
 20
406.7180490933
 30
0.0
 11
117.6740265757
 21
406.7180490933
 31
0.0
  0
LINE
  5
1BC
330
1F
100
AcDbEntity
  8
0
  6
Continuous
 62
     7
370
    15
100
AcDbLine
 10
278.6740296826
 20
36.7180443249
 30
0.0
 11
278.6740296826
 21
212.7101392366
 31
0.0
  0
LINE
  5
1BD
330
1F
100
AcDbEntity
  8
0
  6
Continuous
 62
     7
370
    15
100
AcDbLine
 10
278.6740296826
 20
230.6939762898
 30
0.0
 11
278.6740296826
 21
406.7180490933
 31
0.0
  0
LINE
  5
1BE
330
1F
100
AcDbEntity
  8
0
  6
Continuous
 62
     7
370
    15
100
AcDbLine
 10
278.6740296826
 20
421.7180496894
 30
0.0
 11
278.6740296826
 21
406.7180490933
 31
0.0
  0
LINE
  5
1BF
330
1F
100
AcDbEntity
  8
0
  6
Continuous
 62
     7
370
    15
100
AcDbLine
 10
278.6740296826
 20
421.7180496894
 30
0.0
 11
117.6740265757
 21
421.7180496894
 31
0.0
  0
LINE
  5
1C0
330
1F
100
AcDbEntity
  8
0
  6
Continuous
 62
     7
370
    15
100
AcDbLine
 10
282.6740228877
 20
41.7180395566
 30
0.0
 11
278.6740296826
 21
41.7180395566
 31
0.0
  0
LINE
  5
1C1
330
1F
100
AcDbEntity
  8
0
  6
Continuous
 62
     7
370
    15
100
AcDbLine
 10
282.6740228877
 20
26.7180538617
 30
0.0
 11
278.6740296826
 21
26.7180538617
 31
0.0
  0
LINE
  5
1C2
330
1F
100
AcDbEntity
  8
0
  6
Continuous
 62
     7
370
    15
100
AcDbLine
 10
282.6740228877
 20
416.7180395566
 30
0.0
 11
278.6740296826
 21
416.7180395566
 31
0.0
  0
LINE
  5
1C3
330
1F
100
AcDbEntity
  8
0
  6
Continuous
 62
     7
370
    15
100
AcDbLine
 10
282.6740228877
 20
401.7180538617
 30
0.0
 11
278.6740296826
 21
401.7180538617
 31
0.0
  0
LINE
  5
1C4
330
1F
100
AcDbEntity
  8
0
  6
Continuous
 62
     7
370
    15
100
AcDbLine
 10
373.4482716361
 20
458.6303551645
 30
0.0
 11
374.648262147
 21
458.6303551645
 31
0.0
  0
LINE
  5
1C5
330
1F
100
AcDbEntity
  8
0
  6
Continuous
 62
     7
370
    15
100
AcDbLine
 10
373.3482699433
 20
461.1303676814
 30
0.0
 11
373.4482716361
 21
461.1303676814
 31
0.0
  0
LINE
  5
1C6
330
1F
100
AcDbEntity
  8
0
  6
Continuous
 62
     7
370
    15
100
AcDbLine
 10
373.4482716361
 20
467.1303649396
 30
0.0
 11
373.3482699433
 21
467.1303649396
 31
0.0
  0
LINE
  5
1C7
330
1F
100
AcDbEntity
  8
0
  6
Continuous
 62
     7
370
    15
100
AcDbLine
 10
369.2000250855
 20
524.1303612441
 30
0.0
 11
368.4482615033
 21
523.8567461223
 31
0.0
  0
SPLINE
  5
1C8
330
1F
100
AcDbEntity
  8
0
  6
Continuous
 62
     7
370
    15
100
AcDbSpline
210
0.0
220
0.0
230
1.0
 70
     8
 71
     3
 72
    15
 73
    11
 74
     0
 42
0.00000001
 43
0.00000001
 40
0.0
 40
0.0
 40
0.0
 40
0.0
 40
0.1250744908534439
 40
0.2501516511228378
 40
0.3752905369655246
 40
0.5003037137735354
 40
0.6252871538054625
 40
0.7502619129788922
 40
0.8750782214338244
 40
1.0
 40
1.0
 40
1.0
 40
1.0
 10
372.2627054491919
 20
489.1881962269976
 30
0.0
 10
372.236580452214
 20
489.446957689884
 30
0.0
 10
372.1843299006825
 20
489.9644861383014
 30
0.0
 10
372.1054630746408
 20
490.7455983533799
 30
0.0
 10
372.0310346476286
 20
491.4827749903411
 30
0.0
 10
371.9640218115741
 20
492.1463536928799
 30
0.0
 10
371.9079137152817
 20
492.7021073592716
 30
0.0
 10
371.8653964119439
 20
493.1232182364474
 30
0.0
 10
371.8365636776072
 20
493.4088092893334
 30
0.0
 10
371.8322219930191
 20
493.4518522078793
 30
0.0
 10
371.8300502339285
 20
493.4733827561571
 30
0.0
  0
SPLINE
  5
1C9
330
1F
100
AcDbEntity
  8
0
  6
Continuous
 62
     7
370
    15
100
AcDbSpline
210
0.0
220
0.0
230
1.0
 70
     8
 71
     3
 72
    15
 73
    11
 74
     0
 42
0.00000001
 43
0.00000001
 40
0.0
 40
0.0
 40
0.0
 40
0.0
 40
0.1249397767167318
 40
0.2497689847173243
 40
0.3747512199454847
 40
0.4997368869738697
 40
0.6247482698835928
 40
0.7498805649914205
 40
0.8749435345943479
 40
1.0
 40
1.0
 40
1.0
 40
1.0
 10
368.8457946816367
 20
493.1720067710115
 30
0.0
 10
368.8479771209823
 20
493.1504254421085
 30
0.0
 10
368.8523400682668
 20
493.1072818832626
 30
0.0
 10
368.8811897598674
 20
492.8215748810696
 30
0.0
 10
368.9236942322921
 20
492.4003883569009
 30
0.0
 10
368.9798352490054
 20
491.8446206898978
 30
0.0
 10
369.0468184248009
 20
491.1810863614515
 30
0.0
 10
369.1212408451526
 20
490.4440372568715
 30
0.0
 10
369.2000679396002
 20
489.6631258726738
 30
0.0
 10
369.25231309656
 20
489.1457730490237
 30
0.0
 10
369.2784349957388
 20
488.8871033639147
 30
0.0
  0
LINE
  5
1CA
330
1F
100
AcDbEntity
  8
0
  6
Continuous
 62
     7
370
    15
100
AcDbLine
 10
369.2781518737
 20
488.8869692535
 30
0.0
 11
370.8472292462
 21
473.3459969014
 31
0.0
  0
LINE
  5
1CB
330
1F
100
AcDbEntity
  8
0
  6
Continuous
 62
     7
370
    15
100
AcDbLine
 10
373.8320510426
 20
473.6473579854
 30
0.0
 11
372.2629736701
 21
489.1883303374
 31
0.0
  0
SPLINE
  5
1CC
330
1F
100
AcDbEntity
  8
0
  6
Continuous
 62
     7
370
    15
100
AcDbSpline
210
0.0
220
0.0
230
1.0
 70
     8
 71
     3
 72
     9
 73
     5
 74
     0
 42
0.00000001
 43
0.00000001
 40
0.0
 40
0.0
 40
0.0
 40
0.0
 40
0.4837390865861517
 40
1.0
 40
1.0
 40
1.0
 40
1.0
 10
371.0173111000937
 20
471.6646243781282
 30
0.0
 10
371.0267716658393
 20
471.6003923414415
 30
0.0
 10
371.0463288321052
 20
471.4676099418631
 30
0.0
 10
371.0801715748223
 20
471.4314682156834
 30
0.0
 10
371.0976432600897
 20
471.4128096551134
 30
0.0
  0
SPLINE
  5
1CD
330
1F
100
AcDbEntity
  8
0
  6
Continuous
 62
     7
370
    15
100
AcDbSpline
210
0.0
220
0.0
230
1.0
 70
     8
 71
     3
 72
    11
 73
     7
 74
     0
 42
0.00000001
 43
0.00000001
 40
0.0
 40
0.0
 40
0.0
 40
0.0
 40
0.2484457258028027
 40
0.4978886666714897
 40
0.7483890161532283
 40
1.0
 40
1.0
 40
1.0
 40
1.0
 10
370.8474974671286
 20
473.3461608142092
 30
0.0
 10
370.8655099318298
 20
473.1676835246773
 30
0.0
 10
370.9016071599248
 20
472.8100125708743
 30
0.0
 10
370.9486346431216
 20
472.345180679012
 30
0.0
 10
370.987425882159
 20
471.9622974701855
 30
0.0
 10
371.0024705555448
 20
471.8150087177935
 30
0.0
 10
371.0100095311087
 20
471.7412014455035
 30
0.0
  0
SPLINE
  5
1CE
330
1F
100
AcDbEntity
  8
0
  6
Continuous
 62
     7
370
    15
100
AcDbSpline
210
0.0
220
0.0
230
1.0
 70
     8
 71
     3
 72
    19
 73
    15
 74
     0
 42
0.00000001
 43
0.00000001
 40
0.0
 40
0.0
 40
0.0
 40
0.0
 40
0.0802803483764814
 40
0.1534415264773808
 40
0.2193422569831035
 40
0.2779478374550048
 40
0.3728452344858422
 40
0.4421543900382097
 40
0.5315382076406585
 40
0.6554823531518086
 40
0.7303549786638354
 40
0.8130804653018102
 40
0.9031428726135949
 40
0.9999999999999999
 40
0.9999999999999999
 40
0.9999999999999999
 40
0.9999999999999999
 10
371.0329573193472
 20
471.5819825381472
 30
0.0
 10
371.0683176837868
 20
471.4591085283374
 30
0.0
 10
371.1359026956374
 20
471.2242568365985
 30
0.0
 10
371.3331314462303
 20
470.9298449993933
 30
0.0
 10
371.557974481614
 20
470.705712278183
 30
0.0
 10
371.8536398558722
 20
470.5126662247824
 30
0.0
 10
372.1955918312971
 20
470.3947747725995
 30
0.0
 10
372.6053481134423
 20
470.3649680593809
 30
0.0
 10
373.0444319290167
 20
470.4672770293682
 30
0.0
 10
373.4309624631271
 20
470.7185090770504
 30
0.0
 10
373.7238017675553
 20
471.0592262899046
 30
0.0
 10
373.9045873867703
 20
471.4146886086255
 30
0.0
 10
374.0104810504054
 20
471.8416349323512
 30
0.0
 10
373.9782260715754
 20
472.1366990017158
 30
0.0
 10
373.9615123310965
 20
472.2895939797594
 30
0.0
  0
SPLINE
  5
1CF
330
1F
100
AcDbEntity
  8
0
  6
Continuous
 62
     7
370
    15
100
AcDbSpline
210
0.0
220
0.0
230
1.0
 70
     8
 71
     3
 72
    11
 73
     7
 74
     0
 42
0.00000001
 43
0.00000001
 40
0.0
 40
0.0
 40
0.0
 40
0.0
 40
0.2477430327809253
 40
0.4969487968449449
 40
0.7476801864263466
 40
0.9999999999999999
 40
0.9999999999999999
 40
0.9999999999999999
 40
0.9999999999999999
 10
373.9852796832007
 20
472.121911212845
 30
0.0
 10
373.9788459638226
 20
472.1865369983389
 30
0.0
 10
373.9659405389219
 20
472.3161701346812
 30
0.0
 10
373.9299506791127
 20
472.6740439113023
 30
0.0
 10
373.8849999924445
 20
473.1203757312269
 30
0.0
 10
373.8495591810325
 20
473.4712385346974
 30
0.0
 10
373.8317828217429
 20
473.6472238749697
 30
0.0
  0
LINE
  5
1D0
330
1F
100
AcDbEntity
  8
0
  6
Continuous
 62
     7
370
    15
100
AcDbLine
 10
374.1155754367
 20
483.3020289392
 30
0.0
 11
374.1155605355
 21
483.6018552036
 31
0.0
  0
LINE
  5
1D1
330
1F
100
AcDbEntity
  8
0
  6
Continuous
 62
     7
370
    15
100
AcDbLine
 10
373.3155618945
 20
483.6018552036
 30
0.0
 11
373.3155618945
 21
483.3044727296
 31
0.0
  0
SPLINE
  5
1D2
330
1F
100
AcDbEntity
  8
0
  6
Continuous
 62
     7
370
    15
100
AcDbSpline
210
0.0
220
0.0
230
1.0
 70
    24
 71
     3
 72
    11
 73
     7
 74
     0
 42
0.00000001
 43
0.00000001
 40
0.0
 40
0.0
 40
0.0
 40
0.0
 40
0.0207833414794417
 40
0.3465559490330116
 40
0.6711464500042603
 40
0.9999999999999999
 40
0.9999999999999999
 40
0.9999999999999999
 40
0.9999999999999999
 10
373.3155618945044
 20
483.8881661147311
 30
0.0
 10
373.3155618945044
 20
483.8848444022353
 30
0.0
 10
373.3155618945047
 20
483.829455848498
 30
0.0
 10
373.3155618945044
 20
483.7362234607224
 30
0.0
 10
373.3155618945044
 20
483.623508475686
 30
0.0
 10
373.3155618945044
 20
483.5889917189775
 30
0.0
 10
373.3155618945044
 20
483.5716207474902
 30
0.0
  0
SPLINE
  5
1D3
330
1F
100
AcDbEntity
  8
0
  6
Continuous
 62
     7
370
    15
100
AcDbSpline
210
0.0
220
0.0
230
1.0
 70
    24
 71
     3
 72
    11
 73
     7
 74
     0
 42
0.00000001
 43
0.00000001
 40
0.0
 40
0.0
 40
0.0
 40
0.0
 40
0.2504889765616955
 40
0.4977290265096876
 40
0.745885531908482
 40
1.0
 40
1.0
 40
1.0
 40
1.0
 10
374.1155754366797
 20
483.5691620558932
 30
0.0
 10
374.1155754366797
 20
483.5853793557243
 30
0.0
 10
374.1155754366797
 20
483.6176036115313
 30
0.0
 10
374.1155754366797
 20
483.7263793107817
 30
0.0
 10
374.1155754366797
 20
483.8652180918157
 30
0.0
 10
374.1155754366797
 20
483.9722423788177
 30
0.0
 10
374.1155754366797
 20
484.0263892859652
 30
0.0
  0
LINE
  5
1D4
330
1F
100
AcDbEntity
  8
0
  6
Continuous
 62
     7
370
    15
100
AcDbLine
 10
373.1088231841
 20
484.1303546876
 30
0.0
 11
373.317737464
 21
483.8831295222
 31
0.0
  0
LINE
  5
1D5
330
1F
100
AcDbEntity
  8
0
  6
Continuous
 62
     7
370
    15
100
AcDbLine
 10
374.1155754367
 20
484.026389286
 30
0.0
 11
374.1155754367
 21
484.1303546876
 31
0.0
  0
LINE
  5
1D6
330
1F
100
AcDbEntity
  8
0
  6
Continuous
 62
     7
370
    15
100
AcDbLine
 10
368.8391785661
 20
493.2683874816
 30
0.0
 11
368.8235621491
 21
493.7276114673
 31
0.0
  0
SPLINE
  5
1D7
330
1F
100
AcDbEntity
  8
0
  6
Continuous
 62
     7
370
    15
100
AcDbSpline
210
0.0
220
0.0
230
1.0
 70
     8
 71
     3
 72
    11
 73
     7
 74
     0
 42
0.00000001
 43
0.00000001
 40
0.0
 40
0.0
 40
0.0
 40
0.0
 40
0.120753840681348
 40
0.4133922179192047
 40
0.7063577392752752
 40
1.0
 40
1.0
 40
1.0
 40
1.0
 10
370.8718459645194
 20
473.1049408168032
 30
0.0
 10
370.8817692910192
 20
473.0066456224205
 30
0.0
 10
370.9157410962034
 20
472.6701389888642
 30
0.0
 10
370.9630965823396
 20
472.2012184280223
 30
0.0
 10
371.0059830403903
 20
471.776480559799
 30
0.0
 10
371.013532177175
 20
471.7019384371621
 30
0.0
 10
371.0173111000937
 20
471.6646243781283
 30
0.0
  0
LINE
  5
1D8
330
1F
100
AcDbEntity
  8
0
  6
Continuous
 62
     7
370
    15
100
AcDbLine
 10
374.648262147
 20
523.1303592176
 30
0.0
 11
374.3482719699
 21
523.1303592176
 31
0.0
  0
LINE
  5
1D9
330
1F
100
AcDbEntity
  8
0
  6
Continuous
 62
     7
370
    15
100
AcDbLine
 10
374.3482719699
 20
522.1303646416
 30
0.0
 11
374.2482702771
 21
522.1303646416
 31
0.0
  0
LINE
  5
1DA
330
1F
100
AcDbEntity
  8
0
  6
Continuous
 62
     7
370
    15
100
AcDbLine
 10
374.2482702771
 20
516.1303599328
 30
0.0
 11
374.3482719699
 21
516.1303599328
 31
0.0
  0
LINE
  5
1DB
330
1F
100
AcDbEntity
  8
0
  6
Continuous
 62
     7
370
    15
100
AcDbLine
 10
374.3482719699
 20
499.1303552837
 30
0.0
 11
374.2482702771
 21
499.1303552837
 31
0.0
  0
LINE
  5
1DC
330
1F
100
AcDbEntity
  8
0
  6
Continuous
 62
     7
370
    15
100
AcDbLine
 10
374.2482702771
 20
493.1303580255
 30
0.0
 11
374.3482719699
 21
493.1303580255
 31
0.0
  0
LINE
  5
1DD
330
1F
100
AcDbEntity
  8
0
  6
Continuous
 62
     7
370
    15
100
AcDbLine
 10
374.648262147
 20
467.1303649396
 30
0.0
 11
374.648262147
 21
462.1303548068
 31
0.0
  0
LINE
  5
1DE
330
1F
100
AcDbEntity
  8
0
  6
Continuous
 62
     7
370
    15
100
AcDbLine
 10
389.6482627431
 20
467.1303649396
 30
0.0
 11
389.6482627431
 21
462.1303548068
 31
0.0
  0
LINE
  5
1DF
330
1F
100
AcDbEntity
  8
0
  6
Continuous
 62
     7
370
    15
100
AcDbLine
 10
374.648262147
 20
462.1303548068
 30
0.0
 11
389.6482627431
 21
462.1303548068
 31
0.0
  0
LINE
  5
1E0
330
1F
100
AcDbEntity
  8
0
  6
Continuous
 62
     7
370
    15
100
AcDbLine
 10
374.648262147
 20
467.1303649396
 30
0.0
 11
389.6482627431
 21
467.1303649396
 31
0.0
  0
ARC
  5
1E1
330
1F
100
AcDbEntity
  8
0
  6
Continuous
 62
     7
370
    15
100
AcDbCircle
 10
389.6482651273
 20
462.1303609342
 30
0.0
 40
15.0
100
AcDbArc
 50
180.0
 51
270.0
  0
LINE
  5
1E2
330
1F
100
AcDbEntity
  8
0
  6
Continuous
 62
     7
370
    15
100
AcDbLine
 10
389.6482627431
 20
447.1303542108
 30
0.0
 11
389.6482627431
 21
462.1303548068
 31
0.0
  0
LINE
  5
1E3
330
1F
100
AcDbEntity
  8
0
  6
Continuous
 62
     7
370
    15
100
AcDbLine
 10
759.6482675115
 20
467.1303649396
 30
0.0
 11
759.6482675115
 21
462.1303548068
 31
0.0
  0
LINE
  5
1E4
330
1F
100
AcDbEntity
  8
0
  6
Continuous
 62
     7
370
    15
100
AcDbLine
 10
389.6482627431
 20
462.1303548068
 30
0.0
 11
759.6482675115
 21
462.1303548068
 31
0.0
  0
LINE
  5
1E5
330
1F
100
AcDbEntity
  8
0
  6
Continuous
 62
     7
370
    15
100
AcDbLine
 10
389.6482627431
 20
467.1303649396
 30
0.0
 11
759.6482675115
 21
467.1303649396
 31
0.0
  0
LINE
  5
1E6
330
1F
100
AcDbEntity
  8
0
  6
Continuous
 62
     7
370
    15
100
AcDbLine
 10
759.6482675115
 20
462.1303548068
 30
0.0
 11
759.6482675115
 21
447.1303542108
 31
0.0
  0
LINE
  5
1E7
330
1F
100
AcDbEntity
  8
0
  6
Continuous
 62
     7
370
    15
100
AcDbLine
 10
389.6482627431
 20
447.1303542108
 30
0.0
 11
759.6482675115
 21
447.1303542108
 31
0.0
  0
LINE
  5
1E8
330
1F
100
AcDbEntity
  8
0
  6
Continuous
 62
     7
370
    15
100
AcDbLine
 10
774.6482681075
 20
467.1303649396
 30
0.0
 11
774.6482681075
 21
462.1303548068
 31
0.0
  0
LINE
  5
1E9
330
1F
100
AcDbEntity
  8
0
  6
Continuous
 62
     7
370
    15
100
AcDbLine
 10
774.6482681075
 20
462.1303548068
 30
0.0
 11
759.6482675115
 21
462.1303548068
 31
0.0
  0
LINE
  5
1EA
330
1F
100
AcDbEntity
  8
0
  6
Continuous
 62
     7
370
    15
100
AcDbLine
 10
774.6482681075
 20
467.1303649396
 30
0.0
 11
759.6482675115
 21
467.1303649396
 31
0.0
  0
ARC
  5
1EB
330
1F
100
AcDbEntity
  8
0
  6
Continuous
 62
     7
370
    15
100
AcDbCircle
 10
759.6482651273
 20
462.1303609342
 30
0.0
 40
15.0
100
AcDbArc
 50
270.0
 51
0.0
  0
LINE
  5
1EC
330
1F
100
AcDbEntity
  8
0
  6
Continuous
 62
     7
370
    15
100
AcDbLine
 10
373.4482716361
 20
465.1481230706
 30
0.0
 11
374.648262147
 21
465.1481230706
 31
0.0
  0
LINE
  5
1ED
330
1F
100
AcDbEntity
  8
0
  6
Continuous
 62
     7
370
    15
100
AcDbLine
 10
373.4482716361
 20
463.0441536159
 30
0.0
 11
374.648262147
 21
463.0441536159
 31
0.0
  0
LINE
  5
1EE
330
1F
100
AcDbEntity
  8
0
  6
Continuous
 62
     7
370
    15
100
AcDbLine
 10
373.4482716361
 20
463.0441536159
 30
0.0
 11
373.4482716361
 21
465.1481230706
 31
0.0
  0
LINE
  5
1EF
330
1F
100
AcDbEntity
  8
0
  6
Continuous
 62
     7
370
    15
100
AcDbLine
 10
373.4482716361
 20
470.1303561181
 30
0.0
 11
374.648262147
 21
470.1303561181
 31
0.0
  0
LINE
  5
1F0
330
1F
100
AcDbEntity
  8
0
  6
Continuous
 62
     7
370
    15
100
AcDbLine
 10
374.648262147
 20
467.1303649396
 30
0.0
 11
374.648262147
 21
470.1303561181
 31
0.0
  0
LINE
  5
1F1
330
1F
100
AcDbEntity
  8
0
  6
Continuous
 62
     7
370
    15
100
AcDbLine
 10
373.4482716361
 20
470.1303561181
 30
0.0
 11
373.4482716361
 21
465.1481230706
 31
0.0
  0
LINE
  5
1F2
330
1F
100
AcDbEntity
  8
0
  6
Continuous
 62
     7
370
    15
100
AcDbLine
 10
374.648262147
 20
462.1303548068
 30
0.0
 11
374.648262147
 21
458.6303551645
 31
0.0
  0
LINE
  5
1F3
330
1F
100
AcDbEntity
  8
0
  6
Continuous
 62
     7
370
    15
100
AcDbLine
 10
373.4482716361
 20
458.6303551645
 30
0.0
 11
373.4482716361
 21
463.0441536159
 31
0.0
  0
LINE
  5
1F4
330
1F
100
AcDbEntity
  8
0
  6
Continuous
 62
     7
370
    15
100
AcDbLine
 10
373.3482699433
 20
461.1303676814
 30
0.0
 11
373.3482699433
 21
467.1303649396
 31
0.0
  0
ARC
  5
1F5
330
1F
100
AcDbEntity
  8
0
  6
Continuous
 62
     7
370
    15
100
AcDbCircle
 10
371.8482651273
 20
471.8303609342
 30
0.0
 40
2.799999999999971
100
AcDbArc
 50
0.0
 51
45.4024529621
  0
LINE
  5
1F6
330
1F
100
AcDbEntity
  8
0
  6
Continuous
 62
     7
370
    15
100
AcDbLine
 10
370.7406114379
 20
474.4019527883
 30
0.0
 11
370.1437305251
 21
474.0517456979
 31
0.0
  0
LINE
  5
1F7
330
1F
100
AcDbEntity
  8
0
  6
Continuous
 62
     7
370
    15
100
AcDbLine
 10
367.3308085242
 20
470.3807403297
 30
0.0
 11
370.8742450515
 21
473.0997254104
 31
0.0
  0
LINE
  5
1F8
330
1F
100
AcDbEntity
  8
0
  6
Continuous
 62
     7
370
    15
100
AcDbLine
 10
366.6002939979
 20
471.3327755183
 30
0.0
 11
367.3308085242
 21
470.3807403297
 31
0.0
  0
LINE
  5
1F9
330
1F
100
AcDbEntity
  8
0
  6
Continuous
 62
     7
370
    15
100
AcDbLine
 10
370.1437305251
 20
474.0517456979
 30
0.0
 11
366.6002939979
 21
471.3327755183
 31
0.0
  0
LINE
  5
1FA
330
1F
100
AcDbEntity
  8
0
  6
Continuous
 62
     7
370
    15
100
AcDbLine
 10
374.648262147
 20
470.1303561181
 30
0.0
 11
374.648262147
 21
471.1303581447
 31
0.0
  0
LINE
  5
1FB
330
1F
100
AcDbEntity
  8
0
  6
Continuous
 62
     7
370
    15
100
AcDbLine
 10
373.4482716361
 20
470.7712997646
 30
0.0
 11
373.4482716361
 21
470.1303561181
 31
0.0
  0
LINE
  5
1FC
330
1F
100
AcDbEntity
  8
0
  6
Continuous
 62
     7
370
    15
100
AcDbLine
 10
366.3787733355
 20
469.6502258033
 30
0.0
 11
365.6482588092
 21
470.602260992
 31
0.0
  0
LWPOLYLINE
  5
1FD
330
1F
100
AcDbEntity
  8
0
  6
Continuous
 62
     7
370
    15
100
AcDbPolyline
 90
        9
 70
   128
 43
0.0
 10
365.6482588092
 20
470.602260992
 10
365.6665574351
 20
470.6162978858
 10
365.7207380572
 20
470.6578572244
 10
365.8087145129
 20
470.7253743858
 10
365.9271042386
 20
470.8162118644
 10
366.0713772813
 20
470.9269125909
 10
366.2359606067
 20
471.0532148332
 10
366.4145510236
 20
471.1902608127
 10
366.6002939979
 20
471.3327755183
  0
LWPOLYLINE
  5
1FE
330
1F
100
AcDbEntity
  8
0
  6
Continuous
 62
     7
370
    15
100
AcDbPolyline
 90
        9
 70
   128
 43
0.0
 10
367.3308085242
 20
470.3807403297
 10
367.1450655499
 20
470.238225624
 10
366.966475133
 20
470.1011945457
 10
366.8018918076
 20
469.9748923034
 10
366.657618765
 20
469.8641915769
 10
366.5392290393
 20
469.7733391971
 10
366.4512525836
 20
469.7058369369
 10
366.3970719615
 20
469.6642626971
 10
366.3787733355
 20
469.6502258033
  0
ARC
  5
1FF
330
1F
100
AcDbEntity
  8
0
  6
Continuous
 62
     7
370
    15
100
AcDbCircle
 10
369.7482651273
 20
487.1503609342
 30
0.0
 40
2.200000000000049
100
AcDbArc
 50
103.5934783353
 51
268.1042765976
  0
LINE
  5
200
330
1F
100
AcDbEntity
  8
0
  6
Continuous
 62
     7
370
    15
100
AcDbLine
 10
366.2014346162
 20
488.5281343908
 30
0.0
 11
366.5350865165
 21
490.420358345
 31
0.0
  0
LWPOLYLINE
  5
201
330
1F
100
AcDbEntity
  8
0
  6
Continuous
 62
     7
370
    15
100
AcDbPolyline
 90
        9
 70
   128
 43
0.0
 10
366.5350865165
 20
490.420358345
 10
366.3908432761
 20
490.4457946271
 10
366.2538121978
 20
490.4699643106
 10
366.1287020484
 20
490.4920180291
 10
366.0198490659
 20
490.5112107248
 10
365.931023244
 20
490.5268718452
 10
365.865294222
 20
490.5384649486
 10
365.8249269763
 20
490.5455877036
 10
365.811307315
 20
490.5479867906
  0
LINE
  5
202
330
1F
100
AcDbEntity
  8
0
  6
Continuous
 62
     7
370
    15
100
AcDbLine
 10
365.811307315
 20
490.5479867906
 30
0.0
 11
370.1863478461
 21
515.3600891084
 31
0.0
  0
LWPOLYLINE
  5
203
330
1F
100
AcDbEntity
  8
0
  6
Continuous
 62
     7
370
    15
100
AcDbPolyline
 90
        9
 70
   128
 43
0.0
 10
370.1863478461
 20
515.3600891084
 10
370.2014874259
 20
515.3574218005
 10
370.2463250199
 20
515.3495241851
 10
370.3191320935
 20
515.3366793842
 10
370.4171072284
 20
515.3194089383
 10
370.5364953319
 20
515.2983535976
 10
370.6727068463
 20
515.2743329257
 10
370.820496563
 20
515.2482707948
 10
370.9742020408
 20
515.2211804837
  0
LINE
  5
204
330
1F
100
AcDbEntity
  8
0
  6
Continuous
 62
     7
370
    15
100
AcDbLine
 10
370.9742020408
 20
515.2211804837
 30
0.0
 11
366.1488633195
 21
487.8553767652
 31
0.0
  0
LINE
  5
205
330
1F
100
AcDbEntity
  8
0
  6
Continuous
 62
     7
370
    15
100
AcDbLine
 10
366.1488633195
 20
487.8553767652
 30
0.0
 11
366.2014346162
 21
488.5281343908
 31
0.0
  0
LWPOLYLINE
  5
206
330
1F
100
AcDbEntity
  8
0
  6
Continuous
 62
     7
370
    15
100
AcDbPolyline
 90
        5
 70
   128
 43
0.0
 10
369.0336536208
 20
522.2484190911
 10
368.7801699677
 20
522.9448248595
 10
368.5966174642
 20
523.449139759
 10
368.485484604
 20
523.7544943542
 10
368.4482615033
 20
523.8567461223
  0
LWPOLYLINE
  5
207
330
1F
100
AcDbEntity
  8
0
  6
Continuous
 62
     7
370
    15
100
AcDbPolyline
 90
        5
 70
   128
 43
0.0
 10
369.793270115
 20
522.5004051775
 10
369.5364337006
 20
523.2060794682
 10
369.3503927031
 20
523.7171967477
 10
369.2377399245
 20
524.0267087669
 10
369.2000250855
 20
524.1303612441
  0
LINE
  5
208
330
1F
100
AcDbEntity
  8
0
  6
Continuous
 62
     7
370
    15
100
AcDbLine
 10
370.0153719226
 20
522.1459587068
 30
0.0
 11
369.793270115
 21
522.5004051775
 31
0.0
  0
LINE
  5
209
330
1F
100
AcDbEntity
  8
0
  6
Continuous
 62
     7
370
    15
100
AcDbLine
 10
369.9331771174
 20
522.1160446257
 30
0.0
 11
370.0153719226
 21
522.1459587068
 31
0.0
  0
SPLINE
  5
20A
330
1F
100
AcDbEntity
  8
0
  6
Continuous
 62
     7
370
    15
100
AcDbSpline
210
0.0
220
0.0
230
1.0
 70
     8
 71
     3
 72
    12
 73
     8
 74
     0
 42
0.00000001
 43
0.00000001
 40
0.0
 40
0.0
 40
0.0
 40
0.0
 40
0.2510219938737357
 40
0.5023977523608443
 40
0.7402766005126201
 40
0.9473072801081994
 40
1.0
 40
1.0
 40
1.0
 40
1.0
 10
369.0336536208075
 20
522.2484190911487
 30
0.0
 10
369.0613624548507
 20
522.2041013453169
 30
0.0
 10
369.1168191729216
 20
522.115403396775
 30
0.0
 10
369.3238171967048
 20
522.040410744014
 30
0.0
 10
369.5852053737335
 20
522.0289163769357
 30
0.0
 10
369.8017883100769
 20
522.0705624312536
 30
0.0
 10
369.9110168216196
 20
522.1083735089177
 30
0.0
 10
369.9331771174353
 20
522.1160446256831
 30
0.0
  0
LINE
  5
20B
330
1F
100
AcDbEntity
  8
0
  6
Continuous
 62
     7
370
    15
100
AcDbLine
 10
369.9331771174
 20
522.1160446257
 30
0.0
 11
370.5095093289
 21
520.5325578303
 31
0.0
  0
LWPOLYLINE
  5
20C
330
1F
100
AcDbEntity
  8
0
  6
Continuous
 62
     7
370
    15
100
AcDbPolyline
 90
        9
 70
   128
 43
0.0
 10
369.7577606479
 20
520.2589427084
 10
369.7721998731
 20
520.2642028183
 10
369.8149811068
 20
520.2797670812
 10
369.8844503203
 20
520.3050543517
 10
369.9779402057
 20
520.3390811533
 10
370.091859583
 20
520.3805436343
 10
370.2218275109
 20
520.4278473705
 10
370.3628521005
 20
520.4791818709
 10
370.5095093289
 20
520.5325578303
  0
LINE
  5
20D
330
1F
100
AcDbEntity
  8
0
  6
Continuous
 62
     7
370
    15
100
AcDbLine
 10
369.7577606479
 20
520.2589427084
 30
0.0
 11
369.0336536208
 21
522.2484190911
 31
0.0
  0
ARC
  5
20E
330
1F
100
AcDbEntity
  8
0
  6
Continuous
 62
     7
370
    15
100
AcDbCircle
 10
370.8509795987
 20
521.3424257885
 30
0.0
 40
0.5
100
AcDbArc
 50
36.8410865503
 51
90.0
  0
ARC
  5
20F
330
1F
100
AcDbEntity
  8
0
  6
Continuous
 62
     7
370
    15
100
AcDbCircle
 10
363.6482651273
 20
515.9460469801
 30
0.0
 40
9.499999999999943
100
AcDbArc
 50
0.0
 51
36.8410865502
  0
LINE
  5
210
330
1F
100
AcDbEntity
  8
0
  6
Continuous
 62
     7
370
    15
100
AcDbLine
 10
373.1482665578
 20
515.94604747
 30
0.0
 11
373.1482665578
 21
487.9203607291
 31
0.0
  0
ARC
  5
211
330
1F
100
AcDbEntity
  8
0
  6
Continuous
 62
     7
370
    15
100
AcDbCircle
 10
360.8306780868
 20
517.0097514025
 30
0.0
 40
10.30000000000016
100
AcDbArc
 50
350.0
 51
20.0
  0
ARC
  5
212
330
1F
100
AcDbEntity
  8
0
  6
Continuous
 62
     7
370
    15
100
AcDbCircle
 10
370.7329670531
 20
522.8424257885
 30
0.0
 40
1.000000000000028
100
AcDbArc
 50
224.1440002858
 51
270.0
  0
LINE
  5
213
330
1F
100
AcDbEntity
  8
0
  6
Continuous
 62
     7
370
    15
100
AcDbLine
 10
370.7329671422
 20
521.8424295038
 30
0.0
 11
370.8509843388
 21
521.8424295038
 31
0.0
  0
ARC
  5
214
330
1F
100
AcDbEntity
  8
0
  6
Continuous
 62
     7
370
    15
100
AcDbCircle
 10
370.3382706334
 20
493.3193518527
 30
0.0
 40
1.6
100
AcDbArc
 50
347.034367059
 51
204.5705045339
  0
LWPOLYLINE
  5
215
330
1F
100
AcDbEntity
  8
0
  6
Continuous
 62
     7
370
    15
100
AcDbPolyline
 90
        3
 70
   128
 43
0.0
 10
373.1482665578
 20
487.9203607291
 10
372.9396503011
 20
486.7300857753
 10
372.5834827462
 20
486.0139210672
  0
ARC
  5
216
330
1F
100
AcDbEntity
  8
0
  6
Continuous
 62
     7
370
    15
100
AcDbCircle
 10
369.6482651273
 20
487.9203609342
 30
0.0
 40
3.500000000000069
100
AcDbArc
 50
181.0639402281
 51
271.3221928089
  0
ARC
  5
217
330
1F
100
AcDbEntity
  8
0
  6
Continuous
 62
     7
370
    15
100
AcDbCircle
 10
360.8306780868
 20
517.0097514025
 30
0.0
 40
9.50000000000002
100
AcDbArc
 50
350.0
 51
20.0
  0
ARC
  5
218
330
1F
100
AcDbEntity
  8
0
  6
Continuous
 62
     7
370
    15
100
AcDbCircle
 10
370.2418829206
 20
488.617856461
 30
0.0
 40
4.698428302688325
100
AcDbArc
 50
170.0
 51
264.3261771657
  0
LINE
  5
219
330
1F
100
AcDbEntity
  8
0
  6
Continuous
 62
     7
370
    15
100
AcDbLine
 10
365.811307315
 20
490.5479867906
 30
0.0
 11
365.6148355046
 21
489.43372266
 31
0.0
  0
SPLINE
  5
21A
330
1F
100
AcDbEntity
  8
0
  6
Continuous
 62
     7
370
    15
100
AcDbSpline
210
0.0
220
0.0
230
1.0
 70
     8
 71
     3
 72
    12
 73
     8
 74
     0
 42
0.00000001
 43
0.00000001
 40
0.0
 40
0.0
 40
0.0
 40
0.0
 40
0.2340515605559213
 40
0.4681081209014387
 40
0.7021649452951938
 40
0.9362191094033155
 40
1.0
 40
1.0
 40
1.0
 40
1.0
 10
370.9452490845603
 20
488.8074715584947
 30
0.0
 10
370.7488561711984
 20
488.7880928735374
 30
0.0
 10
370.3560661491462
 20
488.7493350896567
 30
0.0
 10
369.8185676973267
 20
488.7440787906772
 30
0.0
 10
369.4450655482569
 20
488.7825617277388
 30
0.0
 10
369.2658727690438
 20
488.8372219334306
 30
0.0
 10
369.2945918827455
 20
488.8811772717192
 30
0.0
 10
369.300742034046
 20
488.8905902356341
 30
0.0
  0
SPLINE
  5
21B
330
1F
100
AcDbEntity
  8
0
  6
Continuous
 62
     7
370
    15
100
AcDbSpline
210
0.0
220
0.0
230
1.0
 70
     8
 71
     3
 72
    11
 73
     7
 74
     0
 42
0.00000001
 43
0.00000001
 40
0.0
 40
0.0
 40
0.0
 40
0.0
 40
0.1986873774642295
 40
0.4657927742637199
 40
0.732895501362279
 40
1.0
 40
1.0
 40
1.0
 40
1.0
 10
372.2411583701056
 20
489.1863633841708
 30
0.0
 10
372.2399756492551
 20
489.1618698052698
 30
0.0
 10
372.2372029375049
 20
489.1044482809961
 30
0.0
 10
371.9676632518288
 20
488.9973743870828
 30
0.0
 10
371.5206146418453
 20
488.8865511383162
 30
0.0
 10
371.1370380276611
 20
488.8338314767116
 30
0.0
 10
370.9452490845603
 20
488.8074715584948
 30
0.0
  0
SPLINE
  5
21C
330
1F
100
AcDbEntity
  8
0
  6
Continuous
 62
     7
370
    15
100
AcDbSpline
210
0.0
220
0.0
230
1.0
 70
     8
 71
     3
 72
    12
 73
     8
 74
     0
 42
0.00000001
 43
0.00000001
 40
0.0
 40
0.0
 40
0.0
 40
0.0
 40
0.2339647271648549
 40
0.4679283139645976
 40
0.7018968537062504
 40
0.9358627429943501
 40
1.0
 40
1.0
 40
1.0
 40
1.0
 10
370.3382651844901
 20
494.8193450421526
 30
0.0
 10
370.1421849807628
 20
494.7968420301698
 30
0.0
 10
369.7500255290208
 20
494.7518361158859
 30
0.0
 10
369.2470912732375
 20
494.4043444726076
 30
0.0
 10
368.9272836741063
 20
493.9108522913838
 30
0.0
 10
368.7993543515408
 20
493.4572664446849
 30
0.0
 10
368.857143523732
 20
493.2142734344333
 30
0.0
 10
368.8695769349021
 20
493.1619931906893
 30
0.0
  0
SPLINE
  5
21D
330
1F
100
AcDbEntity
  8
0
  6
Continuous
 62
     7
370
    15
100
AcDbSpline
210
0.0
220
0.0
230
1.0
 70
     8
 71
     3
 72
    11
 73
     7
 74
     0
 42
0.00000001
 43
0.00000001
 40
0.0
 40
0.0
 40
0.0
 40
0.0
 40
0.1976852097385363
 40
0.4651245869200603
 40
0.7325583026066619
 40
1.0
 40
1.0
 40
1.0
 40
1.0
 10
371.808488253681
 20
493.4690614194109
 30
0.0
 10
371.7902073890151
 20
493.6138096548
 30
0.0
 10
371.74719516955
 20
493.9543812295872
 30
0.0
 10
371.4217416539017
 20
494.4041569276827
 30
0.0
 10
370.9284436549457
 20
494.751886025881
 30
0.0
 10
370.5349932984032
 20
494.7968584796942
 30
0.0
 10
370.3382651844901
 20
494.8193450421526
 30
0.0
  0
SPLINE
  5
21E
330
1F
100
AcDbEntity
  8
0
  6
Continuous
 62
     7
370
    15
100
AcDbSpline
210
0.0
220
0.0
230
1.0
 70
     8
 71
     3
 72
    12
 73
     8
 74
     0
 42
0.00000001
 43
0.00000001
 40
0.0
 40
0.0
 40
0.0
 40
0.0
 40
0.2350180651877457
 40
0.4700294070451341
 40
0.7050460332707806
 40
0.9400624625516104
 40
1.0
 40
1.0
 40
1.0
 40
1.0
 10
372.5143264571112
 20
473.266514107628
 30
0.0
 10
372.3179357803074
 20
473.2471298552829
 30
0.0
 10
371.9251600449886
 20
473.2083619051318
 30
0.0
 10
371.3875514288367
 20
473.2030985264342
 30
0.0
 10
371.0144859142429
 20
473.2416229085184
 30
0.0
 10
370.8354444898885
 20
473.2957440125525
 30
0.0
 10
370.8633450720834
 20
473.339045382559
 30
0.0
 10
370.8690147438925
 20
473.3478446454241
 30
0.0
  0
SPLINE
  5
21F
330
1F
100
AcDbEntity
  8
0
  6
Continuous
 62
     7
370
    15
100
AcDbSpline
210
0.0
220
0.0
230
1.0
 70
     8
 71
     3
 72
    11
 73
     7
 74
     0
 42
0.00000001
 43
0.00000001
 40
0.0
 40
0.0
 40
0.0
 40
0.0
 40
0.1989250980717726
 40
0.4659516698545062
 40
0.7329753060758109
 40
1.0
 40
1.0
 40
1.0
 40
1.0
 10
373.8102804461402
 20
473.6455102414324
 30
0.0
 10
373.809106775981
 20
473.620977832632
 30
0.0
 10
373.8063576328321
 20
473.5635144106861
 30
0.0
 10
373.536750212653
 20
473.4564045520336
 30
0.0
 10
373.0896904511291
 20
473.3455745889565
 30
0.0
 10
372.7061147083459
 20
473.2928676362002
 30
0.0
 10
372.5143264571112
 20
473.2665141076281
 30
0.0
  0
ARC
  5
220
330
1F
100
AcDbEntity
  8
0
  6
Continuous
 62
     7
370
    15
100
AcDbCircle
 10
373.7155542757
 20
483.5681335133
 30
0.0
 40
0.4000075821846523
100
AcDbArc
 50
0.1473252397
 51
179.5004936418
  0
ELLIPSE
  5
221
330
1F
100
AcDbEntity
  8
0
  6
Continuous
 62
     7
370
    15
100
AcDbEllipse
 10
373.7155645276
 20
483.3032525404
 30
0.0
 11
0.3991830274374024
 21
-0.02624604221148274
 31
0.0
210
0.0
220
0.0
230
1.0
 40
0.9763157485
 41
0.0
 42
6.283185307179586
  0
SPLINE
  5
222
330
1F
100
AcDbEntity
  8
0
  6
Continuous
 62
     7
370
    15
100
AcDbSpline
210
0.0
220
0.0
230
1.0
 70
     8
 71
     3
 72
    13
 73
     9
 74
     0
 42
0.00000001
 43
0.00000001
 40
0.0
 40
0.0
 40
0.0
 40
0.0
 40
0.0081675122012609
 40
0.2391521492050921
 40
0.4710962406467845
 40
0.6931204460156718
 40
0.9042211429553025
 40
1.0
 40
1.0
 40
1.0
 40
1.0
 10
373.7155686655921
 20
484.0320815295412
 30
0.0
 10
373.7139097536133
 20
484.0316892631329
 30
0.0
 10
373.6653353094875
 20
484.0202033476802
 30
0.0
 10
373.5692250190074
 20
483.996914793003
 30
0.0
 10
373.446383602237
 20
483.9532966410101
 30
0.0
 10
373.360734126717
 20
483.9158416679629
 30
0.0
 10
373.3167152761915
 20
483.8947118585018
 30
0.0
 10
373.3199473623529
 20
483.8897231264305
 30
0.0
 10
373.3209561148566
 20
483.8881661147311
 30
0.0
  0
SPLINE
  5
223
330
1F
100
AcDbEntity
  8
0
  6
Continuous
 62
     7
370
    15
100
AcDbSpline
210
0.0
220
0.0
230
1.0
 70
     8
 71
     3
 72
    13
 73
     9
 74
     0
 42
0.00000001
 43
0.00000001
 40
0.0
 40
0.0
 40
0.0
 40
0.0
 40
0.1252297192566914
 40
0.2499794716954448
 40
0.4999946997916861
 40
0.7499963695940145
 40
0.8747539216498604
 40
0.9999999999999999
 40
0.9999999999999999
 40
0.9999999999999999
 40
0.9999999999999999
 10
374.1155754366797
 20
484.0263892859652
 30
0.0
 10
374.1138610076039
 20
484.0264191322417
 30
0.0
 10
374.1104387203292
 20
484.0264787104033
 30
0.0
 10
374.0760600493448
 20
484.0269531082967
 30
0.0
 10
374.0007792203115
 20
484.0280253420243
 30
0.0
 10
373.8921303557581
 20
484.0295596584874
 30
0.0
 10
373.7934197582583
 20
484.0309930260238
 30
0.0
 10
373.7415528138118
 20
484.0317182226721
 30
0.0
 10
373.7155686655921
 20
484.0320815295412
 30
0.0
  0
SPLINE
  5
224
330
1F
100
AcDbEntity
  8
0
  6
Continuous
 62
     7
370
    15
100
AcDbSpline
210
0.0
220
0.0
230
1.0
 70
     8
 71
     3
 72
    10
 73
     6
 74
     0
 42
0.00000001
 43
0.00000001
 40
0.0
 40
0.0
 40
0.0
 40
0.0
 40
0.0190228700517773
 40
0.5253207342098283
 40
1.0
 40
1.0
 40
1.0
 40
1.0
 10
373.7155686655921
 20
484.0320815295412
 30
0.0
 10
373.7170929938504
 20
484.0328217536135
 30
0.0
 10
373.7591876534731
 20
484.0532632039356
 30
0.0
 10
373.8417458022026
 20
484.0915960160714
 30
0.0
 10
373.91189313053
 20
484.1177157586717
 30
0.0
 10
373.9458363095206
 20
484.1303546876147
 30
0.0
  0
LINE
  5
225
330
1F
100
AcDbEntity
  8
0
  6
Continuous
 62
     7
370
    15
100
AcDbLine
 10
368.8390444556
 20
493.2713230104
 30
0.0
 11
368.8515018264
 21
493.1205530614
 31
0.0
  0
LINE
  5
226
330
1F
100
AcDbEntity
  8
0
  6
Continuous
 62
     7
370
    15
100
AcDbLine
 10
371.8312721291
 20
493.4640546292
 30
0.0
 11
371.7956881562
 21
493.6742206067
 31
0.0
  0
LINE
  5
227
330
1F
100
AcDbEntity
  8
0
  6
Continuous
 62
     7
370
    15
100
AcDbLine
 10
389.6482627431
 20
632.1303612516
 30
0.0
 11
759.6482675115
 21
632.1303612516
 31
0.0
  0
LINE
  5
228
330
1F
100
AcDbEntity
  8
0
  6
Continuous
 62
     7
370
    15
100
AcDbLine
 10
389.6482627431
 20
632.1303612516
 30
0.0
 11
389.6482627431
 21
647.1303609163
 31
0.0
  0
LINE
  5
229
330
1F
100
AcDbEntity
  8
0
  6
Continuous
 62
     7
370
    15
100
AcDbLine
 10
389.6482627431
 20
647.1303609163
 30
0.0
 11
759.6482675115
 21
647.1303609163
 31
0.0
  0
LINE
  5
22A
330
1F
100
AcDbEntity
  8
0
  6
Continuous
 62
     7
370
    15
100
AcDbLine
 10
759.6482675115
 20
632.1303612516
 30
0.0
 11
759.6482675115
 21
647.1303609163
 31
0.0
  0
LINE
  5
22B
330
1F
100
AcDbEntity
  8
0
  6
Continuous
 62
     7
370
    15
100
AcDbLine
 10
389.6482627431
 20
632.1303612516
 30
0.0
 11
374.648262147
 21
632.1303612516
 31
0.0
  0
ARC
  5
22C
330
1F
100
AcDbEntity
  8
0
  6
Continuous
 62
     7
370
    15
100
AcDbCircle
 10
389.6482651273
 20
632.1303609342
 30
0.0
 40
15.0
100
AcDbArc
 50
90.0
 51
180.0
  0
LINE
  5
22D
330
1F
100
AcDbEntity
  8
0
  6
Continuous
 62
     7
370
    15
100
AcDbLine
 10
759.6482675115
 20
632.1303612516
 30
0.0
 11
774.6482681075
 21
632.1303612516
 31
0.0
  0
ARC
  5
22E
330
1F
100
AcDbEntity
  8
0
  6
Continuous
 62
     7
370
    15
100
AcDbCircle
 10
759.6482651273
 20
632.1303609342
 30
0.0
 40
15.00000000000011
100
AcDbArc
 50
360.0
 51
90.0
  0
LINE
  5
22F
330
1F
100
AcDbEntity
  8
0
  6
Continuous
 62
     7
370
    15
100
AcDbLine
 10
389.6482627431
 20
471.1303581447
 30
0.0
 11
374.648262147
 21
471.1303581447
 31
0.0
  0
LINE
  5
230
330
1F
100
AcDbEntity
  8
0
  6
Continuous
 62
     7
370
    15
100
AcDbLine
 10
374.648262147
 20
471.1303581447
 30
0.0
 11
374.648262147
 21
632.1303612516
 31
0.0
  0
LINE
  5
231
330
1F
100
AcDbEntity
  8
0
  6
Continuous
 62
     7
370
    15
100
AcDbLine
 10
389.6482627431
 20
471.1303581447
 30
0.0
 11
389.6482627431
 21
632.1303612516
 31
0.0
  0
LINE
  5
232
330
1F
100
AcDbEntity
  8
0
  6
Continuous
 62
     7
370
    15
100
AcDbLine
 10
759.6482675115
 20
471.1303581447
 30
0.0
 11
759.6482675115
 21
632.1303612516
 31
0.0
  0
LINE
  5
233
330
1F
100
AcDbEntity
  8
0
  6
Continuous
 62
     7
370
    15
100
AcDbLine
 10
759.6482675115
 20
471.1303581447
 30
0.0
 11
389.6482627431
 21
471.1303581447
 31
0.0
  0
LINE
  5
234
330
1F
100
AcDbEntity
  8
0
  6
Continuous
 62
     7
370
    15
100
AcDbLine
 10
754.6482722798
 20
627.1303613633
 30
0.0
 11
754.6482722798
 21
491.1303539724
 31
0.0
  0
LINE
  5
235
330
1F
100
AcDbEntity
  8
0
  6
Continuous
 62
     7
370
    15
100
AcDbLine
 10
754.6482722798
 20
627.1303613633
 30
0.0
 11
394.6482579747
 21
627.1303613633
 31
0.0
  0
LINE
  5
236
330
1F
100
AcDbEntity
  8
0
  6
Continuous
 62
     7
370
    15
100
AcDbLine
 10
394.6482579747
 20
491.1303539724
 30
0.0
 11
394.6482579747
 21
627.1303613633
 31
0.0
  0
LINE
  5
237
330
1F
100
AcDbEntity
  8
0
  6
Continuous
 62
     7
370
    15
100
AcDbLine
 10
394.6482579747
 20
491.1303539724
 30
0.0
 11
754.6482722798
 21
491.1303539724
 31
0.0
  0
LINE
  5
238
330
1F
100
AcDbEntity
  8
0
  6
Continuous
 62
     7
370
    15
100
AcDbLine
 10
774.6482681075
 20
471.1303581447
 30
0.0
 11
774.6482681075
 21
632.1303612516
 31
0.0
  0
LINE
  5
239
330
1F
100
AcDbEntity
  8
0
  6
Continuous
 62
     7
370
    15
100
AcDbLine
 10
774.6482681075
 20
471.1303581447
 30
0.0
 11
759.6482675115
 21
471.1303581447
 31
0.0
  0
LINE
  5
23A
330
1F
100
AcDbEntity
  8
0
  6
Continuous
 62
     7
370
    15
100
AcDbLine
 10
769.6482579747
 20
467.1303649396
 30
0.0
 11
769.6482579747
 21
471.1303581447
 31
0.0
  0
LINE
  5
23B
330
1F
100
AcDbEntity
  8
0
  6
Continuous
 62
     7
370
    15
100
AcDbLine
 10
754.6482722798
 20
467.1303649396
 30
0.0
 11
754.6482722798
 21
471.1303581447
 31
0.0
  0
LINE
  5
23C
330
1F
100
AcDbEntity
  8
0
  6
Continuous
 62
     7
370
    15
100
AcDbLine
 10
394.6482579747
 20
467.1303649396
 30
0.0
 11
394.6482579747
 21
471.1303581447
 31
0.0
  0
LINE
  5
23D
330
1F
100
AcDbEntity
  8
0
  6
Continuous
 62
     7
370
    15
100
AcDbLine
 10
379.6482722798
 20
467.1303649396
 30
0.0
 11
379.6482722798
 21
471.1303581447
 31
0.0
  0
LINE
  5
23E
330
1F
100
AcDbEntity
  8
0
  6
Continuous
 62
     7
370
    15
100
AcDbLine
 10
774.6482681075
 20
471.1303581447
 30
0.0
 11
775.3155868092
 21
471.1303581447
 31
0.0
  0
ARC
  5
23F
330
1F
100
AcDbEntity
  8
0
  6
Continuous
 62
     7
370
    15
100
AcDbCircle
 10
775.3155828753
 20
471.6303609342
 30
0.0
 40
0.5000000000000541
100
AcDbArc
 50
270.0
 51
332.720387264
  0
ARC
  5
240
330
1F
100
AcDbEntity
  8
0
  6
Continuous
 62
     7
370
    15
100
AcDbCircle
 10
775.0861162619
 20
466.6303609342
 30
0.0
 40
0.5000000000000568
100
AcDbArc
 50
22.024312837
 51
90.0
  0
ARC
  5
241
330
1F
100
AcDbEntity
  8
0
  6
Continuous
 62
     7
370
    15
100
AcDbCircle
 10
780.6482651273
 20
468.8803609342
 30
0.0
 40
5.500000000000115
100
AcDbArc
 50
202.024312837
 51
152.720387264
  0
LINE
  5
242
330
1F
100
AcDbEntity
  8
0
  6
Continuous
 62
     7
370
    15
100
AcDbLine
 10
775.0861089269
 20
467.1303649396
 30
0.0
 11
774.6482681075
 21
467.1303649396
 31
0.0
  0
LINE
  5
243
330
1F
100
AcDbEntity
  8
0
  6
Continuous
 62
     7
370
    15
100
AcDbLine
 10
374.648262147
 20
492.3303593845
 30
0.0
 11
374.3482719699
 21
492.3303593845
 31
0.0
  0
LINE
  5
244
330
1F
100
AcDbEntity
  8
0
  6
Continuous
 62
     7
370
    15
100
AcDbLine
 10
374.3482719699
 20
490.3303553313
 30
0.0
 11
374.648262147
 21
490.331428215
 31
0.0
  0
LINE
  5
245
330
1F
100
AcDbEntity
  8
0
  6
Continuous
 62
     7
370
    15
100
AcDbLine
 10
374.3482719699
 20
490.3303553313
 30
0.0
 11
374.3482719699
 21
492.3303593845
 31
0.0
  0
LINE
  5
246
330
1F
100
AcDbEntity
  8
0
  6
Continuous
 62
     7
370
    15
100
AcDbLine
 10
374.3482719699
 20
484.1303546876
 30
0.0
 11
374.3482719699
 21
490.3303553313
 31
0.0
  0
LINE
  5
247
330
1F
100
AcDbEntity
  8
0
  6
Continuous
 62
     7
370
    15
100
AcDbLine
 10
374.648262147
 20
484.1303546876
 30
0.0
 11
374.3482719699
 21
484.1303546876
 31
0.0
  0
ARC
  5
248
330
1F
100
AcDbEntity
  8
0
  6
Continuous
 62
     7
370
    15
100
AcDbCircle
 10
369.4482651273
 20
487.2303609342
 30
0.0
 40
3.100000000000023
100
AcDbArc
 50
192.3149134588
 51
270.0
  0
LINE
  5
249
330
1F
100
AcDbEntity
  8
0
  6
Continuous
 62
     7
370
    15
100
AcDbLine
 10
374.3482719699
 20
490.3303553313
 30
0.0
 11
373.1482665578
 21
490.3303553313
 31
0.0
  0
LINE
  5
24A
330
1F
100
AcDbEntity
  8
0
  6
Continuous
 62
     7
370
    15
100
AcDbLine
 10
369.4482635299
 20
484.1303546876
 30
0.0
 11
369.7584013978
 21
484.1303546876
 31
0.0
  0
LINE
  5
24B
330
1F
100
AcDbEntity
  8
0
  6
Continuous
 62
     7
370
    15
100
AcDbLine
 10
372.7736513654
 20
484.1303546876
 30
0.0
 11
374.3482719699
 21
484.1303546876
 31
0.0
  0
LINE
  5
24C
330
1F
100
AcDbEntity
  8
0
  6
Continuous
 62
     7
370
    15
100
AcDbLine
 10
374.3482719699
 20
492.3303593845
 30
0.0
 11
374.3482719699
 21
516.3803567142
 31
0.0
  0
LINE
  5
24D
330
1F
100
AcDbEntity
  8
0
  6
Continuous
 62
     7
370
    15
100
AcDbLine
 10
374.3482719699
 20
523.1303592176
 30
0.0
 11
374.3482719699
 21
516.3803567142
 31
0.0
  0
LINE
  5
24E
330
1F
100
AcDbEntity
  8
0
  6
Continuous
 62
     7
370
    15
100
AcDbLine
 10
374.2482702771
 20
516.1303599328
 30
0.0
 11
374.2482702771
 21
522.1303646416
 31
0.0
  0
LINE
  5
24F
330
1F
100
AcDbEntity
  8
0
  6
Continuous
 62
     7
370
    15
100
AcDbLine
 10
374.2482702771
 20
493.1303580255
 30
0.0
 11
374.2482702771
 21
499.1303552837
 31
0.0
  0
LINE
  5
250
330
1F
100
AcDbEntity
  8
0
  6
Continuous
 62
     7
370
    15
100
AcDbLine
 10
373.1482665578
 20
508.4871818275
 30
0.0
 11
374.3482719699
 21
508.1656296701
 31
0.0
  0
LINE
  5
251
330
1F
100
AcDbEntity
  8
0
  6
Continuous
 62
     7
370
    15
100
AcDbLine
 10
374.3482719699
 20
507.130356595
 30
0.0
 11
373.1482665578
 21
507.4518938512
 31
0.0
  0
LINE
  5
252
330
1F
100
AcDbEntity
  8
0
  6
Continuous
 62
     8
370
    15
100
AcDbLine
 10
374.648262147
 20
516.3803567142
 30
0.0
 11
374.3482719699
 21
516.3803567142
 31
0.0
  0
ENDSEC
  0
SECTION
  2
OBJECTS
  0
DICTIONARY
  5
C
330
0
100
AcDbDictionary
281
     1
  3
ACAD_GROUP
350
D
  3
ACAD_LAYOUT
350
1A
  3
ACAD_MLINESTYLE
350
17
  3
ACAD_PLOTSETTINGS
350
19
  3
ACAD_PLOTSTYLENAME
350
E
  0
DICTIONARY
  5
D
102
{ACAD_REACTORS
330
C
102
}
330
C
100
AcDbDictionary
281
     1
  0
DICTIONARY
  5
1A
102
{ACAD_REACTORS
330
C
102
}
330
C
100
AcDbDictionary
281
     1
  3
Layout1
350
1E
  3
Layout2
350
26
  3
Model
350
22
  0
DICTIONARY
  5
17
102
{ACAD_REACTORS
330
C
102
}
330
C
100
AcDbDictionary
281
     1
  3
Standard
350
18
  0
DICTIONARY
  5
19
102
{ACAD_REACTORS
330
C
102
}
330
C
100
AcDbDictionary
281
     1
  0
ACDBDICTIONARYWDFLT
  5
E
102
{ACAD_REACTORS
330
C
102
}
330
C
100
AcDbDictionary
281
     1
  3
Normal
350
F
100
AcDbDictionaryWithDefault
340
F
  0
LAYOUT
  5
1E
102
{ACAD_REACTORS
330
1A
102
}
330
1A
100
AcDbPlotSettings
  1

  2
none_device
  4

  6

 40
0.0
 41
0.0
 42
0.0
 43
0.0
 44
0.0
 45
0.0
 46
0.0
 47
0.0
 48
0.0
 49
0.0
140
0.0
141
0.0
142
1.0
143
1.0
 70
   688
 72
     0
 73
     0
 74
     5
  7

 75
    16
147
1.0
148
0.0
149
0.0
100
AcDbLayout
  1
Layout1
 70
     1
 71
     1
 10
0.0
 20
0.0
 11
420.0
 21
297.0
 12
0.0
 22
0.0
 32
0.0
 14
1.0000000000E+20
 24
1.0000000000E+20
 34
1.0000000000E+20
 15
-1.0000000000E+20
 25
-1.0000000000E+20
 35
-1.0000000000E+20
146
0.0
 13
0.0
 23
0.0
 33
0.0
 16
1.0
 26
0.0
 36
0.0
 17
0.0
 27
1.0
 37
0.0
 76
     0
330
1B
  0
LAYOUT
  5
26
102
{ACAD_REACTORS
330
1A
102
}
330
1A
100
AcDbPlotSettings
  1

  2
none_device
  4

  6

 40
0.0
 41
0.0
 42
0.0
 43
0.0
 44
0.0
 45
0.0
 46
0.0
 47
0.0
 48
0.0
 49
0.0
140
0.0
141
0.0
142
1.0
143
1.0
 70
   688
 72
     0
 73
     0
 74
     5
  7

 75
    16
147
1.0
148
0.0
149
0.0
100
AcDbLayout
  1
Layout2
 70
     1
 71
     2
 10
0.0
 20
0.0
 11
0.0
 21
0.0
 12
0.0
 22
0.0
 32
0.0
 14
0.0
 24
0.0
 34
0.0
 15
0.0
 25
0.0
 35
0.0
146
0.0
 13
0.0
 23
0.0
 33
0.0
 16
1.0
 26
0.0
 36
0.0
 17
0.0
 27
1.0
 37
0.0
 76
     0
330
23
  0
LAYOUT
  5
22
102
{ACAD_REACTORS
330
1A
102
}
330
1A
100
AcDbPlotSettings
  1

  2
none_device
  4

  6

 40
0.0
 41
0.0
 42
0.0
 43
0.0
 44
0.0
 45
0.0
 46
0.0
 47
0.0
 48
0.0
 49
0.0
140
0.0
141
0.0
142
1.0
143
1.0
 70
  1712
 72
     0
 73
     0
 74
     0
  7

 75
     0
147
1.0
148
0.0
149
0.0
100
AcDbLayout
  1
Model
 70
     1
 71
     0
 10
0.0
 20
0.0
 11
840.0
 21
594.0
 12
0.0
 22
0.0
 32
0.0
 14
0.0
 24
0.0
 34
0.0
 15
840.0
 25
594.0
 35
0.0
146
0.0
 13
0.0
 23
0.0
 33
0.0
 16
1.0
 26
0.0
 36
0.0
 17
0.0
 27
1.0
 37
0.0
 76
     0
330
1F
331
29
  0
MLINESTYLE
  5
18
102
{ACAD_REACTORS
330
17
102
}
330
17
100
AcDbMlineStyle
  2
Standard
 70
     0
  3

 62
   256
 51
90.0
 52
90.0
 71
     2
 49
0.5
 62
   256
  6
BYLAYER
 49
-0.5
 62
   256
  6
BYLAYER
  0
ACDBPLACEHOLDER
  5
F
102
{ACAD_REACTORS
330
E
102
}
330
E
  0
ENDSEC
  0
EOF
