  0
SECTION
  2
HEADER
  9
$ACADVER
  1
AC1015
  9
$ACADMAINTVER
 70
     6
  9
$DWGCODEPAGE
  3
DOS932
  9
$INSBASE
 10
0.0
 20
0.0
 30
0.0
  9
$EXTMIN
 10
0.0
 20
0.0
 30
0.0
  9
$EXTMAX
 10
840.0
 20
594.0
 30
0.0
  9
$LIMMIN
 10
0.0
 20
0.0
  9
$LIMMAX
 10
840.0
 20
594.0
  9
$ORTHOMODE
 70
     0
  9
$REGENMODE
 70
     1
  9
$FILLMODE
 70
     1
  9
$QTEXTMODE
 70
     0
  9
$MIRRTEXT
 70
     1
  9
$LTSCALE
 40
2.0
  9
$ATTMODE
 70
     1
  9
$TEXTSIZE
 40
7.0
  9
$TRACEWID
 40
1.0
  9
$TEXTSTYLE
  7
Standard
  9
$CLAYER
  8
0
  9
$CELTYPE
  6
ByLayer
  9
$CECOLOR
 62
   256
  9
$CELTSCALE
 40
1.0
  9
$DISPSILH
 70
     0
  9
$DIMSCALE
 40
1.0
  9
$DIMASZ
 40
6.0
  9
$DIMEXO
 40
2.0
  9
$DIMDLI
 40
3.75
  9
$DIMRND
 40
0.0
  9
$DIMDLE
 40
0.0
  9
$DIMEXE
 40
2.0
  9
$DIMTP
 40
0.0
  9
$DIMTM
 40
0.0
  9
$DIMTXT
 40
7.0
  9
$DIMCEN
 40
2.5
  9
$DIMTSZ
 40
0.0
  9
$DIMTOL
 70
     0
  9
$DIMLIM
 70
     0
  9
$DIMTIH
 70
     1
  9
$DIMTOH
 70
     1
  9
$DIMSE1
 70
     0
  9
$DIMSE2
 70
     0
  9
$DIMTAD
 70
     1
  9
$DIMZIN
 70
     0
  9
$DIMBLK
  1

  9
$DIMASO
 70
     1
  9
$DIMSHO
 70
     1
  9
$DIMPOST
  1

  9
$DIMAPOST
  1

  9
$DIMALT
 70
     0
  9
$DIMALTD
 70
     3
  9
$DIMALTF
 40
0.0393700787
  9
$DIMLFAC
 40
1.0
  9
$DIMTOFL
 70
     1
  9
$DIMTVP
 40
0.0
  9
$DIMTIX
 70
     0
  9
$DIMSOXD
 70
     0
  9
$DIMSAH
 70
     0
  9
$DIMBLK1
  1

  9
$DIMBLK2
  1

  9
$DIMSTYLE
  2
ISO-25
  9
$DIMCLRD
 70
     0
  9
$DIMCLRE
 70
     0
  9
$DIMCLRT
 70
     0
  9
$DIMTFAC
 40
1.0
  9
$DIMGAP
 40
3.048
  9
$DIMJUST
 70
     0
  9
$DIMSD1
 70
     0
  9
$DIMSD2
 70
     0
  9
$DIMTOLJ
 70
     0
  9
$DIMTZIN
 70
     0
  9
$DIMALTZ
 70
     0
  9
$DIMALTTZ
 70
     0
  9
$DIMUPT
 70
     0
  9
$DIMDEC
 70
     1
  9
$DIMTDEC
 70
     1
  9
$DIMALTU
 70
     2
  9
$DIMALTTD
 70
     3
  9
$DIMTXSTY
  7
Standard
  9
$DIMAUNIT
 70
     0
  9
$DIMADEC
 70
     2
  9
$DIMALTRND
 40
0.0
  9
$DIMAZIN
 70
     0
  9
$DIMDSEP
 70
    44
  9
$DIMATFIT
 70
     3
  9
$DIMFRAC
 70
     0
  9
$DIMLDRBLK
  1

  9
$DIMLUNIT
 70
     2
  9
$DIMLWD
 70
    -2
  9
$DIMLWE
 70
    -2
  9
$DIMTMOVE
 70
     0
  9
$LUNITS
 70
     2
  9
$LUPREC
 70
     1
  9
$SKETCHINC
 40
1.0
  9
$FILLETRAD
 40
10.0
  9
$AUNITS
 70
     0
  9
$AUPREC
 70
     2
  9
$MENU
  1
.
  9
$ELEVATION
 40
0.0
  9
$PELEVATION
 40
0.0
  9
$THICKNESS
 40
0.0
  9
$LIMCHECK
 70
     0
  9
$CHAMFERA
 40
10.0
  9
$CHAMFERB
 40
10.0
  9
$CHAMFERC
 40
20.0
  9
$CHAMFERD
 40
0.0
  9
$SKPOLY
 70
     0
  9
$TDCREATE
 40
2460445.691771806
  9
$TDUCREATE
 40
2460445.316771806
  9
$TDUPDATE
 40
2460445.691771817
  9
$TDUUPDATE
 40
2460445.316771817
  9
$TDINDWG
 40
0.0000000116
  9
$TDUSRTIMER
 40
0.0000000116
  9
$USRTIMER
 70
     1
  9
$ANGBASE
 50
0.0
  9
$ANGDIR
 70
     0
  9
$PDMODE
 70
     0
  9
$PDSIZE
 40
-1.0
  9
$PLINEWID
 40
0.0
  9
$SPLFRAME
 70
     0
  9
$SPLINETYPE
 70
     6
  9
$SPLINESEGS
 70
     8
  9
$HANDSEED
  5
252
  9
$SURFTAB1
 70
     6
  9
$SURFTAB2
 70
     6
  9
$SURFTYPE
 70
     6
  9
$SURFU
 70
     6
  9
$SURFV
 70
     6
  9
$UCSBASE
  2

  9
$UCSNAME
  2

  9
$UCSORG
 10
0.0
 20
0.0
 30
0.0
  9
$UCSXDIR
 10
1.0
 20
0.0
 30
0.0
  9
$UCSYDIR
 10
0.0
 20
1.0
 30
0.0
  9
$UCSORTHOREF
  2

  9
$UCSORTHOVIEW
 70
     0
  9
$UCSORGTOP
 10
0.0
 20
0.0
 30
0.0
  9
$UCSORGBOTTOM
 10
0.0
 20
0.0
 30
0.0
  9
$UCSORGLEFT
 10
0.0
 20
0.0
 30
0.0
  9
$UCSORGRIGHT
 10
0.0
 20
0.0
 30
0.0
  9
$UCSORGFRONT
 10
0.0
 20
0.0
 30
0.0
  9
$UCSORGBACK
 10
0.0
 20
0.0
 30
0.0
  9
$PUCSBASE
  2

  9
$PUCSNAME
  2

  9
$PUCSORG
 10
0.0
 20
0.0
 30
0.0
  9
$PUCSXDIR
 10
1.0
 20
0.0
 30
0.0
  9
$PUCSYDIR
 10
0.0
 20
1.0
 30
0.0
  9
$PUCSORTHOREF
  2

  9
$PUCSORTHOVIEW
 70
     0
  9
$PUCSORGTOP
 10
0.0
 20
0.0
 30
0.0
  9
$PUCSORGBOTTOM
 10
0.0
 20
0.0
 30
0.0
  9
$PUCSORGLEFT
 10
0.0
 20
0.0
 30
0.0
  9
$PUCSORGRIGHT
 10
0.0
 20
0.0
 30
0.0
  9
$PUCSORGFRONT
 10
0.0
 20
0.0
 30
0.0
  9
$PUCSORGBACK
 10
0.0
 20
0.0
 30
0.0
  9
$USERI1
 70
     0
  9
$USERI2
 70
     0
  9
$USERI3
 70
     0
  9
$USERI4
 70
     0
  9
$USERI5
 70
     0
  9
$USERR1
 40
0.0
  9
$USERR2
 40
0.0
  9
$USERR3
 40
0.0
  9
$USERR4
 40
0.0
  9
$USERR5
 40
0.0
  9
$WORLDVIEW
 70
     1
  9
$SHADEDGE
 70
     3
  9
$SHADEDIF
 70
    70
  9
$TILEMODE
 70
     1
  9
$MAXACTVP
 70
    64
  9
$PINSBASE
 10
0.0
 20
0.0
 30
0.0
  9
$PLIMCHECK
 70
     0
  9
$PEXTMIN
 10
1.0000000000E+20
 20
1.0000000000E+20
 30
1.0000000000E+20
  9
$PEXTMAX
 10
-1.0000000000E+20
 20
-1.0000000000E+20
 30
-1.0000000000E+20
  9
$PLIMMIN
 10
0.0
 20
0.0
  9
$PLIMMAX
 10
420.0
 20
297.0
  9
$UNITMODE
 70
     0
  9
$VISRETAIN
 70
     1
  9
$PLINEGEN
 70
     0
  9
$PSLTSCALE
 70
     1
  9
$TREEDEPTH
 70
  3020
  9
$CMLSTYLE
  2
Standard
  9
$CMLJUST
 70
     0
  9
$CMLSCALE
 40
20.0
  9
$PROXYGRAPHICS
 70
     1
  9
$MEASUREMENT
 70
     1
  9
$CELWEIGHT
370
    -1
  9
$ENDCAPS
280
     0
  9
$JOINSTYLE
280
     0
  9
$LWDISPLAY
290
     1
  9
$INSUNITS
 70
     4
  9
$HYPERLINKBASE
  1

  9
$STYLESHEET
  1

  9
$XEDIT
290
     1
  9
$CEPSNTYPE
380
     0
  9
$PSTYLEMODE
290
     1
  9
$FINGERPRINTGUID
  2
{4BBE5675-78D9-450A-91C1-0A07D221078B}
  9
$VERSIONGUID
  2
{FAEB1C32-E019-11D5-929B-00C0DF256EC4}
  9
$EXTNAMES
290
     1
  9
$PSVPSCALE
 40
0.0
  9
$OLESTARTUP
290
     0
  0
ENDSEC
  0
SECTION
  2
CLASSES
  0
CLASS
  1
ACDBDICTIONARYWDFLT
  2
AcDbDictionaryWithDefault
  3
ObjectDBX Classes
 90
        0
280
     0
281
     0
  0
CLASS
  1
VISUALSTYLE
  2
AcDbVisualStyle
  3
ObjectDBX Classes
 90
     4095
280
     0
281
     0
  0
CLASS
  1
MATERIAL
  2
AcDbMaterial
  3
ObjectDBX Classes
 90
     1153
280
     0
281
     0
  0
CLASS
  1
ACDBPLACEHOLDER
  2
AcDbPlaceHolder
  3
ObjectDBX Classes
 90
        0
280
     0
281
     0
  0
CLASS
  1
LAYOUT
  2
AcDbLayout
  3
ObjectDBX Classes
 90
        0
280
     0
281
     0
  0
ENDSEC
  0
SECTION
  2
TABLES
  0
TABLE
  2
VPORT
  5
8
330
0
100
AcDbSymbolTable
 70
     1
  0
VPORT
  5
29
330
8
100
AcDbSymbolTableRecord
100
AcDbViewportTableRecord
  2
*Active
 70
     0
 10
0.0
 20
0.0
 11
1.0
 21
1.0
 12
420.0
 22
297.0
 13
0.0
 23
0.0
 14
10.0
 24
10.0
 15
10.0
 25
10.0
 16
0.0
 26
0.0
 36
1.0
 17
0.0
 27
0.0
 37
0.0
 40
594.0
 41
1.4141414141
 42
50.0
 43
0.0
 44
0.0
 50
0.0
 51
0.0
 71
     0
 72
  2000
 73
     1
 74
     3
 75
     0
 76
     0
 77
     0
 78
     0
281
     0
 65
     1
110
0.0
120
0.0
130
0.0
111
1.0
121
0.0
131
0.0
112
0.0
122
1.0
132
0.0
 79
     0
146
0.0
  0
ENDTAB
  0
TABLE
  2
LTYPE
  5
5
330
0
100
AcDbSymbolTable
 70
     6
  0
LTYPE
  5
14
330
5
100
AcDbSymbolTableRecord
100
AcDbLinetypeTableRecord
  2
ByBlock
 70
     0
  3

 72
    65
 73
     0
 40
0.0
  0
LTYPE
  5
15
330
5
100
AcDbSymbolTableRecord
100
AcDbLinetypeTableRecord
  2
ByLayer
 70
     0
  3

 72
    65
 73
     0
 40
0.0
  0
LTYPE
  5
16
330
5
100
AcDbSymbolTableRecord
100
AcDbLinetypeTableRecord
  2
Continuous
 70
     0
  3
Solid line
 72
    65
 73
     0
 40
0.0
  0
LTYPE
  5
3F
330
5
100
AcDbSymbolTableRecord
100
AcDbLinetypeTableRecord
  2
HIDDEN
 70
     0
  3
Hidden __ __ __ __ __ __ __ __ __ __ __ __ __ __
 72
    65
 73
     2
 40
1.905
 49
1.27
 74
     0
 49
-0.635
 74
     0
  0
LTYPE
  5
40
330
5
100
AcDbSymbolTableRecord
100
AcDbLinetypeTableRecord
  2
PHANTOM
 70
     0
  3
Phantom ______  __  __  ______  __  __  ______
 72
    65
 73
     6
 40
12.7
 49
6.35
 74
     0
 49
-1.27
 74
     0
 49
1.27
 74
     0
 49
-1.27
 74
     0
 49
1.27
 74
     0
 49
-1.27
 74
     0
  0
LTYPE
  5
41
330
5
100
AcDbSymbolTableRecord
100
AcDbLinetypeTableRecord
  2
CENTER
 70
     0
  3
Center ____ _ ____ _ ____ _ ____ _ ____ _ ____
 72
    65
 73
     4
 40
10.16
 49
6.35
 74
     0
 49
-1.27
 74
     0
 49
1.27
 74
     0
 49
-1.27
 74
     0
  0
LTYPE
  5
42
330
5
100
AcDbSymbolTableRecord
100
AcDbLinetypeTableRecord
  2
CENTERX2
 70
     0
  3
Center (2x) ________  __  ________  __  _____
 72
    65
 73
     4
 40
20.32
 49
12.7
 74
     0
 49
-2.54
 74
     0
 49
2.54
 74
     0
 49
-2.54
 74
     0
  0
LTYPE
  5
43
330
5
100
AcDbSymbolTableRecord
100
AcDbLinetypeTableRecord
  2
DOT2
 70
     0
  3
Dot (.5x) ........................................
 72
    65
 73
     2
 40
0.635
 49
0.0
 74
     0
 49
-0.635
 74
     0
  0
ENDTAB
  0
TABLE
  2
LAYER
  5
2
330
0
100
AcDbSymbolTable
 70
     1
  0
LAYER
  5
10
330
2
100
AcDbSymbolTableRecord
100
AcDbLayerTableRecord
  2
0
 70
     0
 62
     7
  6
Continuous
370
    -3
390
F
  0
ENDTAB
  0
TABLE
  2
STYLE
  5
3
330
0
100
AcDbSymbolTable
 70
     2
  0
STYLE
  5
11
330
3
100
AcDbSymbolTableRecord
100
AcDbTextStyleTableRecord
  2
Standard
 70
     0
 40
0.0
 41
1.0
 50
0.0
 71
     0
 42
2.5
  3
txt
  4
bigfont
  0
STYLE
  5
44
330
3
100
AcDbSymbolTableRecord
100
AcDbTextStyleTableRecord
  2
SLDTEXTSTYLE0
 70
     0
 40
0.0
 41
0.7
 50
0.0
 71
     0
 42
0.2
  3
TXT
  4
bigfont
  0
ENDTAB
  0
TABLE
  2
VIEW
  5
6
330
0
100
AcDbSymbolTable
 70
     0
  0
ENDTAB
  0
TABLE
  2
UCS
  5
7
330
0
100
AcDbSymbolTable
 70
     0
  0
ENDTAB
  0
TABLE
  2
APPID
  5
9
330
0
100
AcDbSymbolTable
 70
     1
  0
APPID
  5
12
330
9
100
AcDbSymbolTableRecord
100
AcDbRegAppTableRecord
  2
ACAD
 70
     0
  0
ENDTAB
  0
TABLE
  2
DIMSTYLE
  5
A
330
0
100
AcDbSymbolTable
 70
     1
100
AcDbDimStyleTable
  0
DIMSTYLE
105
27
330
A
100
AcDbSymbolTableRecord
100
AcDbDimStyleTableRecord
  2
ISO-25
 70
     0
 41
2.5
 42
0.625
 43
3.75
 44
1.25
 73
     0
 74
     0
 77
     1
 78
     8
140
2.5
141
2.5
143
0.0393700787
147
0.625
171
     3
172
     1
178
     0
271
     2
272
     2
274
     3
278
    44
283
     0
284
     8
340
11
  0
ENDTAB
  0
TABLE
  2
BLOCK_RECORD
  5
1
330
0
100
AcDbSymbolTable
 70
     1
  0
BLOCK_RECORD
  5
1F
330
1
100
AcDbSymbolTableRecord
100
AcDbBlockTableRecord
  2
*Model_Space
340
22
  0
BLOCK_RECORD
  5
1B
330
1
100
AcDbSymbolTableRecord
100
AcDbBlockTableRecord
  2
*Paper_Space
340
1E
  0
BLOCK_RECORD
  5
23
330
1
100
AcDbSymbolTableRecord
100
AcDbBlockTableRecord
  2
*Paper_Space0
340
26
  0
ENDTAB
  0
ENDSEC
  0
SECTION
  2
BLOCKS
  0
BLOCK
  5
20
330
1F
100
AcDbEntity
  8
0
100
AcDbBlockBegin
  2
*Model_Space
 70
     0
 10
0.0
 20
0.0
 30
0.0
  3
*Model_Space
  1

  0
ENDBLK
  5
21
330
1F
100
AcDbEntity
  8
0
100
AcDbBlockEnd
  0
BLOCK
  5
1C
330
1B
100
AcDbEntity
 67
     1
  8
0
100
AcDbBlockBegin
  2
*Paper_Space
 70
     0
 10
0.0
 20
0.0
 30
0.0
  3
*Paper_Space
  1

  0
ENDBLK
  5
1D
330
1B
100
AcDbEntity
 67
     1
  8
0
100
AcDbBlockEnd
  0
BLOCK
  5
24
330
23
100
AcDbEntity
  8
0
100
AcDbBlockBegin
  2
*Paper_Space0
 70
     0
 10
0.0
 20
0.0
 30
0.0
  3
*Paper_Space0
  1

  0
ENDBLK
  5
25
330
23
100
AcDbEntity
  8
0
100
AcDbBlockEnd
  0
ENDSEC
  0
SECTION
  2
ENTITIES
  0
MTEXT
  5
45
330
1F
100
AcDbEntity
  8
0
  6
Continuous
 62
     7
370
     0
100
AcDbMText
 10
188.1033262562
 20
490.489999224
 30
0.0
 40
7.0
 41
0.0
 71
     1
 72
     1
  1
CHB-509P
  7
SLDTEXTSTYLE0
 73
     1
 44
1.0
  0
LINE
  5
46
330
1F
100
AcDbEntity
  8
0
  6
Continuous
 62
     7
370
    15
100
AcDbLine
 10
434.6810341252
 20
226.1464969103
 30
0.0
 11
434.7810358179
 21
226.1464969103
 31
0.0
  0
LINE
  5
47
330
1F
100
AcDbEntity
  8
0
  6
Continuous
 62
     7
370
    15
100
AcDbLine
 10
434.7810358179
 20
232.1464971953
 30
0.0
 11
434.6810341252
 21
232.1464971953
 31
0.0
  0
LINE
  5
48
330
1F
100
AcDbEntity
  8
0
  6
Continuous
 62
     7
370
    15
100
AcDbLine
 10
434.6810341252
 20
216.1464964353
 30
0.0
 11
434.7810358179
 21
216.1464964353
 31
0.0
  0
LINE
  5
49
330
1F
100
AcDbEntity
  8
0
  6
Continuous
 62
     7
370
    15
100
AcDbLine
 10
434.7810358179
 20
222.1464967203
 30
0.0
 11
434.6810341252
 21
222.1464967203
 31
0.0
  0
LINE
  5
4A
330
1F
100
AcDbEntity
  8
0
  6
Continuous
 62
     7
370
    15
100
AcDbLine
 10
435.9810263289
 20
235.6464968376
 30
0.0
 11
434.7810358179
 21
235.6464968376
 31
0.0
  0
LINE
  5
4B
330
1F
100
AcDbEntity
  8
0
  6
Continuous
 62
     7
370
    15
100
AcDbLine
 10
434.7810358179
 20
212.6464967929
 30
0.0
 11
435.9810263289
 21
212.6464967929
 31
0.0
  0
LINE
  5
4C
330
1F
100
AcDbEntity
  8
0
  6
Continuous
 62
     7
370
    15
100
AcDbLine
 10
747.4810392035
 20
80.1465030142
 30
0.0
 11
747.4810392035
 21
115.1464994379
 31
0.0
  0
LINE
  5
4D
330
1F
100
AcDbEntity
  8
0
  6
Continuous
 62
     7
370
    15
100
AcDbLine
 10
747.4810392035
 20
333.1464941927
 30
0.0
 11
747.4810392035
 21
368.1464906164
 31
0.0
  0
LINE
  5
4E
330
1F
100
AcDbEntity
  8
0
  6
Continuous
 62
     7
370
    15
100
AcDbLine
 10
426.8762231243
 20
228.0464967095
 30
0.0
 11
426.8762231243
 21
219.4464968831
 31
0.0
  0
LINE
  5
4F
330
1F
100
AcDbEntity
  8
0
  6
Continuous
 62
     7
370
    15
100
AcDbLine
 10
427.4810314549
 20
216.946496939
 30
0.0
 11
427.4810314549
 21
216.1467506864
 31
0.0
  0
LINE
  5
50
330
1F
100
AcDbEntity
  8
0
  6
Continuous
 62
     7
370
    15
100
AcDbLine
 10
427.4810314549
 20
232.1462429442
 30
0.0
 11
427.4810314549
 21
231.3464966916
 31
0.0
  0
ARC
  5
51
330
1F
100
AcDbEntity
  8
0
  6
Continuous
 62
     7
370
    15
100
AcDbCircle
 10
431.0810322893
 20
229.3393539582
 30
0.0
 40
3.807142857143162
100
AcDbArc
 50
77.9663271603
 51
90.0
  0
ARC
  5
52
330
1F
100
AcDbEntity
  8
0
  6
Continuous
 62
     7
370
    15
100
AcDbCircle
 10
431.0810322893
 20
229.3393539582
 30
0.0
 40
3.807142857143162
100
AcDbArc
 50
90.0
 51
125.3002484399
  0
LINE
  5
53
330
1F
100
AcDbEntity
  8
0
  6
Continuous
 62
     7
370
    15
100
AcDbLine
 10
428.8810253514
 20
232.4464966856
 30
0.0
 11
428.8810253514
 21
232.1464971953
 31
0.0
  0
LINE
  5
54
330
1F
100
AcDbEntity
  8
0
  6
Continuous
 62
     7
370
    15
100
AcDbLine
 10
428.9810270441
 20
215.7464971148
 30
0.0
 11
428.9810270441
 21
215.346496863
 31
0.0
  0
ARC
  5
55
330
1F
100
AcDbEntity
  8
0
  6
Continuous
 62
     7
370
    15
100
AcDbCircle
 10
429.1810322893
 20
216.1464968153
 30
0.0
 40
0.4000000000007731
100
AcDbArc
 50
270.0
 51
0.0
  0
LINE
  5
56
330
1F
100
AcDbEntity
  8
0
  6
Continuous
 62
     7
370
    15
100
AcDbLine
 10
429.5810372008
 20
231.3464966916
 30
0.0
 11
429.5810372008
 21
230.8964969904
 31
0.0
  0
LINE
  5
57
330
1F
100
AcDbEntity
  8
0
  6
Continuous
 62
     7
370
    15
100
AcDbLine
 10
429.5810372008
 20
217.3964966402
 30
0.0
 11
429.5810372008
 21
216.946496939
 31
0.0
  0
SPLINE
  5
58
330
1F
100
AcDbEntity
  8
0
  6
Continuous
 62
     7
370
    15
100
AcDbSpline
210
0.0
220
0.0
230
1.0
 70
     8
 71
     3
 72
    11
 73
     7
 74
     0
 42
0.00000001
 43
0.00000001
 40
0.0
 40
0.0
 40
0.0
 40
0.0
 40
0.2262263431086887
 40
0.4679482906992269
 40
0.7254882991793307
 40
1.0
 40
1.0
 40
1.0
 40
1.0
 10
432.3015421999203
 20
232.3769315459353
 30
0.0
 10
432.3043692656943
 20
232.354033134406
 30
0.0
 10
432.3102170400003
 20
232.3066678612568
 30
0.0
 10
432.3269770722424
 20
231.9818795830259
 30
0.0
 10
432.3405785102786
 20
231.481382171413
 30
0.0
 10
432.3411124296387
 20
231.0575617434144
 30
0.0
 10
432.3413879049527
 20
230.8388918951673
 30
0.0
  0
SPLINE
  5
59
330
1F
100
AcDbEntity
  8
0
  6
Continuous
 62
     7
370
    15
100
AcDbSpline
210
0.0
220
0.0
230
1.0
 70
     8
 71
     3
 72
    12
 73
     8
 74
     0
 42
0.00000001
 43
0.00000001
 40
0.0
 40
0.0
 40
0.0
 40
0.0
 40
0.2489450918608725
 40
0.4822920041796321
 40
0.6998108393712417
 40
0.9035366771083447
 40
1.0
 40
1.0
 40
1.0
 40
1.0
 10
432.3413879049527
 20
217.2802610636276
 30
0.0
 10
432.3399620340968
 20
217.1429264888144
 30
0.0
 10
432.3371996333294
 20
216.8768623264936
 30
0.0
 10
432.3262987026505
 20
216.5410625549267
 30
0.0
 10
432.323788348995
 20
216.307881489195
 30
0.0
 10
432.3285775032933
 20
216.1877776997638
 30
0.0
 10
432.3550080037708
 20
216.186431176506
 30
0.0
 10
432.3635012281644
 20
216.185998482309
 30
0.0
  0
LINE
  5
5A
330
1F
100
AcDbEntity
  8
0
  6
Continuous
 62
     7
370
    15
100
AcDbLine
 10
432.3405385388
 20
230.8888918102
 30
0.0
 11
432.3405385388
 21
217.2302611486
 31
0.0
  0
LINE
  5
5B
330
1F
100
AcDbEntity
  8
0
  6
Continuous
 62
     7
370
    15
100
AcDbLine
 10
430.816924609
 20
234.8267802351
 30
0.0
 11
432.3042840136
 21
232.3466328286
 31
0.0
  0
LINE
  5
5C
330
1F
100
AcDbEntity
  8
0
  6
Continuous
 62
     7
370
    15
100
AcDbLine
 10
434.7810358179
 20
234.0497424208
 30
0.0
 11
433.3897441996
 21
236.3697060697
 31
0.0
  0
LINE
  5
5D
330
1F
100
AcDbEntity
  8
0
  6
Continuous
 62
     7
370
    15
100
AcDbLine
 10
432.3687762392
 20
216.0539127268
 30
0.0
 11
430.7996988667
 21
213.4374942013
 31
0.0
  0
LINE
  5
5E
330
1F
100
AcDbEntity
  8
0
  6
Continuous
 62
     7
370
    15
100
AcDbLine
 10
433.3725184572
 20
211.8945683666
 30
0.0
 11
434.7810358179
 21
214.2432512098
 31
0.0
  0
LINE
  5
5F
330
1F
100
AcDbEntity
  8
0
  6
Continuous
 62
     7
370
    15
100
AcDbLine
 10
433.4096372498
 20
236.3341975339
 30
0.0
 11
433.3196789397
 21
236.4479846634
 31
0.0
  0
SPLINE
  5
60
330
1F
100
AcDbEntity
  8
0
  6
Continuous
 62
     7
370
    15
100
AcDbSpline
210
0.0
220
0.0
230
1.0
 70
     8
 71
     3
 72
    20
 73
    16
 74
     0
 42
0.00000001
 43
0.00000001
 40
0.0
 40
0.0
 40
0.0
 40
0.0
 40
0.0337795320769634
 40
0.1101052722337214
 40
0.1739286280335738
 40
0.2252742953923542
 40
0.2665369082802277
 40
0.3037730311234147
 40
0.3388589118383759
 40
0.3726392898115905
 40
0.4139180532096744
 40
0.6259819391906802
 40
0.8390271460937679
 40
0.9659462154134418
 40
0.9999999999999999
 40
0.9999999999999999
 40
0.9999999999999999
 40
0.9999999999999999
 10
433.2073688877331
 20
236.5900541969163
 30
0.0
 10
433.1667136971309
 20
236.6462396999989
 30
0.0
 10
433.0341970353026
 20
236.8293778233572
 30
0.0
 10
432.7243236382254
 20
237.0065532669544
 30
0.0
 10
432.3370523884561
 20
237.1295110343983
 30
0.0
 10
431.9672026549163
 20
237.1442983641524
 30
0.0
 10
431.6328890639647
 20
237.0937108403607
 30
0.0
 10
431.3584095798925
 20
236.9926546108262
 30
0.0
 10
431.1308966663516
 20
236.8579502092141
 30
0.0
 10
430.9248822820649
 20
236.681762142535
 30
0.0
 10
430.580312453178
 20
236.239285019458
 30
0.0
 10
430.3992625314523
 20
235.5525916852735
 30
0.0
 10
430.2494496763701
 20
234.3717706509726
 30
0.0
 10
430.1943316295573
 20
233.4671246834359
 30
0.0
 10
430.1877700700819
 20
233.0525367935563
 30
0.0
 10
430.1863819730984
 20
232.9648307838065
 30
0.0
  0
SPLINE
  5
61
330
1F
100
AcDbEntity
  8
0
  6
Continuous
 62
     7
370
    15
100
AcDbSpline
210
0.0
220
0.0
230
1.0
 70
     8
 71
     3
 72
    19
 73
    15
 74
     0
 42
0.00000001
 43
0.00000001
 40
0.0
 40
0.0
 40
0.0
 40
0.0
 40
0.010273646983009
 40
0.1295975013657651
 40
0.3268130443643361
 40
0.5525080531561936
 40
0.5858538596457425
 40
0.61860140563484
 40
0.6529072939962007
 40
0.6960067057026089
 40
0.7523142598611406
 40
0.8223144720268509
 40
0.9054617455279842
 40
1.0
 40
1.0
 40
1.0
 40
1.0
 10
430.1835358513104
 20
215.34649686297
 30
0.0
 10
430.1838590340869
 20
215.3192978805535
 30
0.0
 10
430.1879358415139
 20
214.9761947773702
 30
0.0
 10
430.2277237984949
 20
214.1562138022361
 30
0.0
 10
430.3627141153527
 20
212.9337851801817
 30
0.0
 10
430.4531134894348
 20
212.2904004496767
 30
0.0
 10
430.8039967527799
 20
211.7503206378993
 30
0.0
 10
430.9732200023273
 20
211.5624701530054
 30
0.0
 10
431.2099380233439
 20
211.3859987918221
 30
0.0
 10
431.5235598545278
 20
211.2325134922883
 30
0.0
 10
431.9270506277816
 20
211.130734145533
 30
0.0
 10
432.4129107383415
 20
211.1538959146398
 30
0.0
 10
432.9426678832485
 20
211.3642150252689
 30
0.0
 10
433.2078913045315
 20
211.6860374222918
 30
0.0
 10
433.3490044248807
 20
211.857264240883
 30
0.0
  0
LINE
  5
62
330
1F
100
AcDbEntity
  8
0
  6
Continuous
 62
     7
370
    15
100
AcDbLine
 10
747.4810392035
 20
44.1464896627
 30
0.0
 11
747.4810392035
 21
79.1465009876
 31
0.0
  0
LINE
  5
63
330
1F
100
AcDbEntity
  8
0
  6
Continuous
 62
     7
370
    15
100
AcDbLine
 10
747.4810392035
 20
369.146492643
 30
0.0
 11
747.4810392035
 21
404.1465039678
 31
0.0
  0
LINE
  5
64
330
1F
100
AcDbEntity
  8
0
  6
Continuous
 62
     7
370
    15
100
AcDbLine
 10
744.4810331238
 20
79.1465009876
 30
0.0
 11
744.4810331238
 21
80.1465030142
 31
0.0
  0
LINE
  5
65
330
1F
100
AcDbEntity
  8
0
  6
Continuous
 62
     7
370
    15
100
AcDbLine
 10
744.4810331238
 20
115.1464994379
 30
0.0
 11
744.4810331238
 21
116.1464940139
 31
0.0
  0
LINE
  5
66
330
1F
100
AcDbEntity
  8
0
  6
Continuous
 62
     7
370
    15
100
AcDbLine
 10
739.4810378922
 20
116.1464940139
 30
0.0
 11
739.4810378922
 21
115.1464994379
 31
0.0
  0
LINE
  5
67
330
1F
100
AcDbEntity
  8
0
  6
Continuous
 62
     7
370
    15
100
AcDbLine
 10
739.4810378922
 20
80.1465030142
 30
0.0
 11
739.4810378922
 21
79.1465009876
 31
0.0
  0
LINE
  5
68
330
1F
100
AcDbEntity
  8
0
  6
Continuous
 62
     7
370
    15
100
AcDbLine
 10
739.4810378922
 20
369.146492643
 30
0.0
 11
739.4810378922
 21
368.1464906164
 31
0.0
  0
LINE
  5
69
330
1F
100
AcDbEntity
  8
0
  6
Continuous
 62
     7
370
    15
100
AcDbLine
 10
739.4810378922
 20
333.1464941927
 30
0.0
 11
739.4810378922
 21
332.1464996167
 31
0.0
  0
LINE
  5
6A
330
1F
100
AcDbEntity
  8
0
  6
Continuous
 62
     7
370
    15
100
AcDbLine
 10
744.4810331238
 20
332.1464996167
 30
0.0
 11
744.4810331238
 21
333.1464941927
 31
0.0
  0
LINE
  5
6B
330
1F
100
AcDbEntity
  8
0
  6
Continuous
 62
     7
370
    15
100
AcDbLine
 10
744.4810331238
 20
368.1464906164
 30
0.0
 11
744.4810331238
 21
369.146492643
 31
0.0
  0
LINE
  5
6C
330
1F
100
AcDbEntity
  8
0
  6
Continuous
 62
     7
370
    15
100
AcDbLine
 10
427.6810348404
 20
217.6893077173
 30
0.0
 11
427.6810348404
 21
217.3964966402
 31
0.0
  0
LINE
  5
6D
330
1F
100
AcDbEntity
  8
0
  6
Continuous
 62
     7
370
    15
100
AcDbLine
 10
427.6810348404
 20
230.8964969904
 30
0.0
 11
427.6810348404
 21
230.6036859133
 31
0.0
  0
LINE
  5
6E
330
1F
100
AcDbEntity
  8
0
  6
Continuous
 62
     7
370
    15
100
AcDbLine
 10
450.9810269249
 20
39.1464944311
 30
0.0
 11
450.9810269249
 21
409.1464991995
 31
0.0
  0
LINE
  5
6F
330
1F
100
AcDbEntity
  8
0
  6
Continuous
 62
     7
370
    15
100
AcDbLine
 10
435.9810263289
 20
39.1464944311
 30
0.0
 11
450.9810269249
 21
39.1464944311
 31
0.0
  0
LINE
  5
70
330
1F
100
AcDbEntity
  8
0
  6
Continuous
 62
     7
370
    15
100
AcDbLine
 10
435.9810263289
 20
39.1464944311
 30
0.0
 11
435.9810263289
 21
214.159004701
 31
0.0
  0
LINE
  5
71
330
1F
100
AcDbEntity
  8
0
  6
Continuous
 62
     7
370
    15
100
AcDbLine
 10
435.9810263289
 20
234.1339889296
 30
0.0
 11
435.9810263289
 21
409.1464991995
 31
0.0
  0
LINE
  5
72
330
1F
100
AcDbEntity
  8
0
  6
Continuous
 62
     7
370
    15
100
AcDbLine
 10
435.9810263289
 20
409.1464991995
 30
0.0
 11
450.9810269249
 21
409.1464991995
 31
0.0
  0
ARC
  5
73
330
1F
100
AcDbEntity
  8
0
  6
Continuous
 62
     7
370
    15
100
AcDbCircle
 10
450.9810322893
 20
39.1464968153
 30
0.0
 40
15.00000000000001
100
AcDbArc
 50
180.0
 51
270.0
  0
LINE
  5
74
330
1F
100
AcDbEntity
  8
0
  6
Continuous
 62
     7
370
    15
100
AcDbLine
 10
450.9810269249
 20
24.1464938351
 30
0.0
 11
450.9810269249
 21
39.1464944311
 31
0.0
  0
LINE
  5
75
330
1F
100
AcDbEntity
  8
0
  6
Continuous
 62
     7
370
    15
100
AcDbLine
 10
720.9810376538
 20
39.1464944311
 30
0.0
 11
720.9810376538
 21
24.1464938351
 31
0.0
  0
LINE
  5
76
330
1F
100
AcDbEntity
  8
0
  6
Continuous
 62
     7
370
    15
100
AcDbLine
 10
720.9810376538
 20
39.1464944311
 30
0.0
 11
735.9810382498
 21
39.1464944311
 31
0.0
  0
ARC
  5
77
330
1F
100
AcDbEntity
  8
0
  6
Continuous
 62
     7
370
    15
100
AcDbCircle
 10
720.9810322893
 20
39.1464968153
 30
0.0
 40
15.00000000000001
100
AcDbArc
 50
270.0
 51
0.0
  0
LINE
  5
78
330
1F
100
AcDbEntity
  8
0
  6
Continuous
 62
     7
370
    15
100
AcDbLine
 10
715.981027521
 20
44.1464896627
 30
0.0
 11
715.981027521
 21
404.1465039678
 31
0.0
  0
LINE
  5
79
330
1F
100
AcDbEntity
  8
0
  6
Continuous
 62
     7
370
    15
100
AcDbLine
 10
455.9810370577
 20
404.1465039678
 30
0.0
 11
715.981027521
 21
404.1465039678
 31
0.0
  0
LINE
  5
7A
330
1F
100
AcDbEntity
  8
0
  6
Continuous
 62
     7
370
    15
100
AcDbLine
 10
720.9810376538
 20
39.1464944311
 30
0.0
 11
720.9810376538
 21
409.1464991995
 31
0.0
  0
LINE
  5
7B
330
1F
100
AcDbEntity
  8
0
  6
Continuous
 62
     7
370
    15
100
AcDbLine
 10
720.9810376538
 20
39.1464944311
 30
0.0
 11
450.9810269249
 21
39.1464944311
 31
0.0
  0
LINE
  5
7C
330
1F
100
AcDbEntity
  8
0
  6
Continuous
 62
     7
370
    15
100
AcDbLine
 10
450.9810269249
 20
409.1464991995
 30
0.0
 11
720.9810376538
 21
409.1464991995
 31
0.0
  0
LINE
  5
7D
330
1F
100
AcDbEntity
  8
0
  6
Continuous
 62
     7
370
    15
100
AcDbLine
 10
715.981027521
 20
44.1464896627
 30
0.0
 11
455.9810370577
 21
44.1464896627
 31
0.0
  0
LINE
  5
7E
330
1F
100
AcDbEntity
  8
0
  6
Continuous
 62
     7
370
    15
100
AcDbLine
 10
455.9810370577
 20
44.1464896627
 30
0.0
 11
455.9810370577
 21
404.1465039678
 31
0.0
  0
LINE
  5
7F
330
1F
100
AcDbEntity
  8
0
  6
Continuous
 62
     7
370
    15
100
AcDbLine
 10
720.9810376538
 20
24.1464938351
 30
0.0
 11
450.9810269249
 21
24.1464938351
 31
0.0
  0
LINE
  5
80
330
1F
100
AcDbEntity
  8
0
  6
Continuous
 62
     7
370
    15
100
AcDbLine
 10
735.9810382498
 20
39.1464944311
 30
0.0
 11
735.9810382498
 21
409.1464991995
 31
0.0
  0
LINE
  5
81
330
1F
100
AcDbEntity
  8
0
  6
Continuous
 62
     7
370
    15
100
AcDbLine
 10
735.9810382498
 20
409.1464991995
 30
0.0
 11
720.9810376538
 21
409.1464991995
 31
0.0
  0
LINE
  5
82
330
1F
100
AcDbEntity
  8
0
  6
Continuous
 62
     7
370
    15
100
AcDbLine
 10
450.9810269249
 20
409.1464991995
 30
0.0
 11
450.9810269249
 21
424.1464997955
 31
0.0
  0
LINE
  5
83
330
1F
100
AcDbEntity
  8
0
  6
Continuous
 62
     7
370
    15
100
AcDbLine
 10
450.9810269249
 20
424.1464997955
 30
0.0
 11
720.9810376538
 21
424.1464997955
 31
0.0
  0
LINE
  5
84
330
1F
100
AcDbEntity
  8
0
  6
Continuous
 62
     7
370
    15
100
AcDbLine
 10
720.9810376538
 20
424.1464997955
 30
0.0
 11
720.9810376538
 21
409.1464991995
 31
0.0
  0
ARC
  5
85
330
1F
100
AcDbEntity
  8
0
  6
Continuous
 62
     7
370
    15
100
AcDbCircle
 10
720.9810322893
 20
409.1464968153
 30
0.0
 40
15.0
100
AcDbArc
 50
0.0
 51
90.0
  0
ARC
  5
86
330
1F
100
AcDbEntity
  8
0
  6
Continuous
 62
     7
370
    15
100
AcDbCircle
 10
450.9810322893
 20
409.1464968153
 30
0.0
 40
15.00000000000006
100
AcDbArc
 50
90.0
 51
180.0
  0
LINE
  5
87
330
1F
100
AcDbEntity
  8
0
  6
Continuous
 62
     7
370
    15
100
AcDbLine
 10
434.7810358179
 20
235.1809799053
 30
0.0
 11
435.9810263289
 21
235.1809799053
 31
0.0
  0
LINE
  5
88
330
1F
100
AcDbEntity
  8
0
  6
Continuous
 62
     7
370
    15
100
AcDbLine
 10
435.9810263289
 20
234.1339889296
 30
0.0
 11
435.9810263289
 21
214.159004701
 31
0.0
  0
LINE
  5
89
330
1F
100
AcDbEntity
  8
0
  6
Continuous
 62
     7
370
    15
100
AcDbLine
 10
434.7810358179
 20
213.1120137252
 30
0.0
 11
435.9810263289
 21
213.1120137252
 31
0.0
  0
LINE
  5
8A
330
1F
100
AcDbEntity
  8
0
  6
Continuous
 62
     7
370
    15
100
AcDbLine
 10
434.7810358179
 20
213.1120137252
 30
0.0
 11
434.7810358179
 21
235.1809799053
 31
0.0
  0
LINE
  5
8B
330
1F
100
AcDbEntity
  8
0
  6
Continuous
 62
     7
370
    15
100
AcDbLine
 10
434.6810341252
 20
229.1464967035
 30
0.0
 11
434.6810341252
 21
232.1464971953
 31
0.0
  0
LINE
  5
8C
330
1F
100
AcDbEntity
  8
0
  6
Continuous
 62
     7
370
    15
100
AcDbLine
 10
434.6810341252
 20
226.1464969103
 30
0.0
 11
434.6810341252
 21
229.1464967035
 31
0.0
  0
LINE
  5
8D
330
1F
100
AcDbEntity
  8
0
  6
Continuous
 62
     7
370
    15
100
AcDbLine
 10
434.6810341252
 20
216.1464964353
 30
0.0
 11
434.6810341252
 21
222.1464967203
 31
0.0
  0
LINE
  5
8E
330
1F
100
AcDbEntity
  8
0
  6
Continuous
 62
     7
370
    15
100
AcDbLine
 10
434.7810358179
 20
235.1809799053
 30
0.0
 11
434.7810358179
 21
235.6464968376
 31
0.0
  0
LINE
  5
8F
330
1F
100
AcDbEntity
  8
0
  6
Continuous
 62
     7
370
    15
100
AcDbLine
 10
434.7810358179
 20
212.6464967929
 30
0.0
 11
434.7810358179
 21
213.1120137252
 31
0.0
  0
LINE
  5
90
330
1F
100
AcDbEntity
  8
0
  6
Continuous
 62
     7
370
    15
100
AcDbLine
 10
736.8823945893
 20
115.1464994379
 30
0.0
 11
736.8823945893
 21
80.1465030142
 31
0.0
  0
LINE
  5
91
330
1F
100
AcDbEntity
  8
0
  6
Continuous
 62
     7
370
    15
100
AcDbLine
 10
736.8823945893
 20
115.1464994379
 30
0.0
 11
747.4810392035
 21
115.1464994379
 31
0.0
  0
LINE
  5
92
330
1F
100
AcDbEntity
  8
0
  6
Continuous
 62
     7
370
    15
100
AcDbLine
 10
736.8823945893
 20
80.1465030142
 30
0.0
 11
747.4810392035
 21
80.1465030142
 31
0.0
  0
LINE
  5
93
330
1F
100
AcDbEntity
  8
0
  6
Continuous
 62
     7
370
    15
100
AcDbLine
 10
736.8823945893
 20
368.1464906164
 30
0.0
 11
736.8823945893
 21
333.1464941927
 31
0.0
  0
LINE
  5
94
330
1F
100
AcDbEntity
  8
0
  6
Continuous
 62
     7
370
    15
100
AcDbLine
 10
736.8823945893
 20
368.1464906164
 30
0.0
 11
747.4810392035
 21
368.1464906164
 31
0.0
  0
LINE
  5
95
330
1F
100
AcDbEntity
  8
0
  6
Continuous
 62
     7
370
    15
100
AcDbLine
 10
736.8823945893
 20
333.1464941927
 30
0.0
 11
747.4810392035
 21
333.1464941927
 31
0.0
  0
LINE
  5
96
330
1F
100
AcDbEntity
  8
0
  6
Continuous
 62
     7
370
    15
100
AcDbLine
 10
736.4188790692
 20
115.1464994379
 30
0.0
 11
736.4188790692
 21
80.1465030142
 31
0.0
  0
LINE
  5
97
330
1F
100
AcDbEntity
  8
0
  6
Continuous
 62
     7
370
    15
100
AcDbLine
 10
736.4188790692
 20
115.1464994379
 30
0.0
 11
736.8823945893
 21
115.1464994379
 31
0.0
  0
LINE
  5
98
330
1F
100
AcDbEntity
  8
0
  6
Continuous
 62
     7
370
    15
100
AcDbLine
 10
736.4188790692
 20
80.1465030142
 30
0.0
 11
736.8823945893
 21
80.1465030142
 31
0.0
  0
LINE
  5
99
330
1F
100
AcDbEntity
  8
0
  6
Continuous
 62
     7
370
    15
100
AcDbLine
 10
736.4188790692
 20
368.1464906164
 30
0.0
 11
736.4188790692
 21
333.1464941927
 31
0.0
  0
LINE
  5
9A
330
1F
100
AcDbEntity
  8
0
  6
Continuous
 62
     7
370
    15
100
AcDbLine
 10
736.4188790692
 20
368.1464906164
 30
0.0
 11
736.8823945893
 21
368.1464906164
 31
0.0
  0
LINE
  5
9B
330
1F
100
AcDbEntity
  8
0
  6
Continuous
 62
     7
370
    15
100
AcDbLine
 10
736.4188790692
 20
333.1464941927
 30
0.0
 11
736.8823945893
 21
333.1464941927
 31
0.0
  0
LINE
  5
9C
330
1F
100
AcDbEntity
  8
0
  6
Continuous
 62
     7
370
    15
100
AcDbLine
 10
735.9810382498
 20
115.1464994379
 30
0.0
 11
736.4188790692
 21
115.1464994379
 31
0.0
  0
LINE
  5
9D
330
1F
100
AcDbEntity
  8
0
  6
Continuous
 62
     7
370
    15
100
AcDbLine
 10
735.9810382498
 20
80.1465030142
 30
0.0
 11
736.4188790692
 21
80.1465030142
 31
0.0
  0
LINE
  5
9E
330
1F
100
AcDbEntity
  8
0
  6
Continuous
 62
     7
370
    15
100
AcDbLine
 10
735.9810382498
 20
368.1464906164
 30
0.0
 11
736.4188790692
 21
368.1464906164
 31
0.0
  0
LINE
  5
9F
330
1F
100
AcDbEntity
  8
0
  6
Continuous
 62
     7
370
    15
100
AcDbLine
 10
735.9810382498
 20
333.1464941927
 30
0.0
 11
736.4188790692
 21
333.1464941927
 31
0.0
  0
LINE
  5
A0
330
1F
100
AcDbEntity
  8
0
  6
Continuous
 62
     7
370
    15
100
AcDbLine
 10
427.9330581797
 20
230.6464969494
 30
0.0
 11
428.6635727061
 21
230.6464969494
 31
0.0
  0
ARC
  5
A1
330
1F
100
AcDbEntity
  8
0
  6
Continuous
 62
     7
370
    15
100
AcDbCircle
 10
428.803693979
 20
229.5576889155
 30
0.0
 40
1.097787277143248
100
AcDbArc
 50
97.3332226099
 51
185.8133219334
  0
LINE
  5
A2
330
1F
100
AcDbEntity
  8
0
  6
Continuous
 62
     7
370
    15
100
AcDbLine
 10
427.7115524185
 20
229.4464966596
 30
0.0
 11
426.9810378922
 21
229.4464966596
 31
0.0
  0
ARC
  5
A3
330
1F
100
AcDbEntity
  8
0
  6
Continuous
 62
     7
370
    15
100
AcDbCircle
 10
428.0731867472
 20
229.5576831284
 30
0.0
 40
1.097793948007137
100
AcDbArc
 50
97.3335616575
 51
185.8129828859
  0
LINE
  5
A4
330
1F
100
AcDbEntity
  8
0
  6
Continuous
 62
     7
370
    15
100
AcDbLine
 10
428.6635727061
 20
230.6464969494
 30
0.0
 11
432.2070092333
 21
230.6464969494
 31
0.0
  0
LINE
  5
A5
330
1F
100
AcDbEntity
  8
0
  6
Continuous
 62
     7
370
    15
100
AcDbLine
 10
432.2070092333
 20
230.6464969494
 30
0.0
 11
432.2070092333
 21
217.6464966812
 31
0.0
  0
LINE
  5
A6
330
1F
100
AcDbEntity
  8
0
  6
Continuous
 62
     7
370
    15
100
AcDbLine
 10
432.2070092333
 20
217.6464966812
 30
0.0
 11
428.6635727061
 21
217.6464966812
 31
0.0
  0
ARC
  5
A7
330
1F
100
AcDbEntity
  8
0
  6
Continuous
 62
     7
370
    15
100
AcDbCircle
 10
428.803693979
 20
218.7353047151
 30
0.0
 40
1.097787277143284
100
AcDbArc
 50
174.1866780666
 51
262.6667773901
  0
LINE
  5
A8
330
1F
100
AcDbEntity
  8
0
  6
Continuous
 62
     7
370
    15
100
AcDbLine
 10
427.7115524185
 20
229.4464966596
 30
0.0
 11
427.7115524185
 21
218.846496971
 31
0.0
  0
LINE
  5
A9
330
1F
100
AcDbEntity
  8
0
  6
Continuous
 62
     7
370
    15
100
AcDbLine
 10
426.9810378922
 20
218.846496971
 30
0.0
 11
427.7115524185
 21
218.846496971
 31
0.0
  0
LINE
  5
AA
330
1F
100
AcDbEntity
  8
0
  6
Continuous
 62
     7
370
    15
100
AcDbLine
 10
426.9810378922
 20
229.4464966596
 30
0.0
 11
426.9810378922
 21
218.846496971
 31
0.0
  0
LINE
  5
AB
330
1F
100
AcDbEntity
  8
0
  6
Continuous
 62
     7
370
    15
100
AcDbLine
 10
428.6635727061
 20
217.6464966812
 30
0.0
 11
427.9330581797
 21
217.6464966812
 31
0.0
  0
ARC
  5
AC
330
1F
100
AcDbEntity
  8
0
  6
Continuous
 62
     7
370
    15
100
AcDbCircle
 10
428.0731867472
 20
218.7353105022
 30
0.0
 40
1.097793948007193
100
AcDbArc
 50
174.1870171141
 51
262.6664383425
  0
LINE
  5
AD
330
1F
100
AcDbEntity
  8
0
  6
Continuous
 62
     7
370
    15
100
AcDbLine
 10
432.3069662226
 20
230.6464969494
 30
0.0
 11
432.2070092333
 21
230.6464969494
 31
0.0
  0
LINE
  5
AE
330
1F
100
AcDbEntity
  8
0
  6
Continuous
 62
     7
370
    15
100
AcDbLine
 10
432.2070092333
 20
217.6464966812
 30
0.0
 11
432.3405385388
 21
217.6464966812
 31
0.0
  0
LINE
  5
AF
330
1F
100
AcDbEntity
  8
0
  6
Continuous
 62
     7
370
    15
100
AcDbLine
 10
426.9810378922
 20
219.4464968831
 30
0.0
 11
426.8762231243
 21
219.4464968831
 31
0.0
  0
LINE
  5
B0
330
1F
100
AcDbEntity
  8
0
  6
Continuous
 62
     7
370
    15
100
AcDbLine
 10
426.9810378922
 20
228.0464967095
 30
0.0
 11
426.8762231243
 21
228.0464967095
 31
0.0
  0
LINE
  5
B1
330
1F
100
AcDbEntity
  8
0
  6
Continuous
 62
     7
370
    15
100
AcDbLine
 10
432.3469162358
 20
216.946496939
 30
0.0
 11
427.4810314549
 21
216.946496939
 31
0.0
  0
LINE
  5
B2
330
1F
100
AcDbEntity
  8
0
  6
Continuous
 62
     7
370
    15
100
AcDbLine
 10
432.3551863802
 20
216.1464964353
 30
0.0
 11
427.4816424025
 21
216.1464964353
 31
0.0
  0
LINE
  5
B3
330
1F
100
AcDbEntity
  8
0
  6
Continuous
 62
     7
370
    15
100
AcDbLine
 10
432.3491812123
 20
231.3464966916
 30
0.0
 11
427.4810314549
 21
231.3464966916
 31
0.0
  0
LINE
  5
B4
330
1F
100
AcDbEntity
  8
0
  6
Continuous
 62
     7
370
    15
100
AcDbLine
 10
432.30949942
 20
232.1464971953
 30
0.0
 11
427.4816424025
 21
232.1464971953
 31
0.0
  0
LINE
  5
B5
330
1F
100
AcDbEntity
  8
0
  6
Continuous
 62
     7
370
    15
100
AcDbLine
 10
431.08103279
 20
232.4464966856
 30
0.0
 11
432.2443962467
 21
232.4464966856
 31
0.0
  0
LINE
  5
B6
330
1F
100
AcDbEntity
  8
0
  6
Continuous
 62
     7
370
    15
100
AcDbLine
 10
432.4075490607
 20
232.4464966856
 30
0.0
 11
432.4698806179
 21
232.4464966856
 31
0.0
  0
LINE
  5
B7
330
1F
100
AcDbEntity
  8
0
  6
Continuous
 62
     7
370
    15
100
AcDbLine
 10
428.8810253514
 20
232.4464966856
 30
0.0
 11
431.08103279
 21
232.4464966856
 31
0.0
  0
LINE
  5
B8
330
1F
100
AcDbEntity
  8
0
  6
Continuous
 62
     7
370
    15
100
AcDbLine
 10
431.08103279
 20
215.7464971148
 30
0.0
 11
432.1844190729
 21
215.7464971148
 31
0.0
  0
LINE
  5
B9
330
1F
100
AcDbEntity
  8
0
  6
Continuous
 62
     7
370
    15
100
AcDbLine
 10
428.9810270441
 20
215.7464971148
 30
0.0
 11
431.08103279
 21
215.7464971148
 31
0.0
  0
LINE
  5
BA
330
1F
100
AcDbEntity
  8
0
  6
Continuous
 62
     7
370
    15
100
AcDbLine
 10
431.08103279
 20
215.346496863
 30
0.0
 11
431.94454018
 21
215.346496863
 31
0.0
  0
LINE
  5
BB
330
1F
100
AcDbEntity
  8
0
  6
Continuous
 62
     7
370
    15
100
AcDbLine
 10
428.9810270441
 20
215.346496863
 30
0.0
 11
431.08103279
 21
215.346496863
 31
0.0
  0
ARC
  5
BC
330
1F
100
AcDbEntity
  8
0
  6
Continuous
 62
     7
370
    15
100
AcDbCircle
 10
427.946817927
 20
231.3487331784
 30
0.0
 40
0.802749545683113
100
AcDbArc
 50
125.4673437335
 51
180.1596281405
  0
ARC
  5
BD
330
1F
100
AcDbEntity
  8
0
  6
Continuous
 62
     7
370
    15
100
AcDbCircle
 10
427.946817927
 20
216.9442604522
 30
0.0
 40
0.8027495456831002
100
AcDbArc
 50
179.8403718595
 51
234.5326562665
  0
LINE
  5
BE
330
1F
100
AcDbEntity
  8
0
  6
Continuous
 62
     7
370
    15
100
AcDbLine
 10
427.9319256914
 20
217.3964966402
 30
0.0
 11
427.9319256914
 21
216.946496939
 31
0.0
  0
LINE
  5
BF
330
1F
100
AcDbEntity
  8
0
  6
Continuous
 62
     7
370
    15
100
AcDbLine
 10
427.9319256914
 20
231.3464966916
 30
0.0
 11
427.9319256914
 21
230.8964969904
 31
0.0
  0
LINE
  5
C0
330
1F
100
AcDbEntity
  8
0
  6
Continuous
 62
     7
370
    15
100
AcDbLine
 10
427.1440714968
 20
216.946496939
 30
0.0
 11
427.1440714968
 21
218.1749388889
 31
0.0
  0
LINE
  5
C1
330
1F
100
AcDbEntity
  8
0
  6
Continuous
 62
     7
370
    15
100
AcDbLine
 10
427.1440714968
 20
230.1180547417
 30
0.0
 11
427.1440714968
 21
231.3464966916
 31
0.0
  0
SPLINE
  5
C2
330
1F
100
AcDbEntity
  8
0
  6
Continuous
 62
     7
370
    15
100
AcDbSpline
210
0.0
220
0.0
230
1.0
 70
    24
 71
     3
 72
    12
 73
     8
 74
     0
 42
0.00000001
 43
0.00000001
 40
0.0
 40
0.0
 40
0.0
 40
0.0
 40
0.2185050186196134
 40
0.4370114656380577
 40
0.6555178820617118
 40
0.8740297008781536
 40
1.0
 40
1.0
 40
1.0
 40
1.0
 10
434.1403752935635
 20
230.8388918951673
 30
0.0
 10
433.9436550675905
 20
230.8388918951673
 30
0.0
 10
433.5502133296558
 20
230.8388918951673
 30
0.0
 10
432.9894663554957
 20
230.8388918951673
 30
0.0
 10
432.5717831370723
 20
230.8388918951673
 30
0.0
 10
432.3452287886854
 20
230.8388918951673
 30
0.0
 10
432.362754766039
 20
230.8388918951673
 30
0.0
 10
432.369163669418
 20
230.8388918951673
 30
0.0
  0
SPLINE
  5
C3
330
1F
100
AcDbEntity
  8
0
  6
Continuous
 62
     7
370
    15
100
AcDbSpline
210
0.0
220
0.0
230
1.0
 70
    24
 71
     3
 72
     9
 73
     5
 74
     0
 42
0.00000001
 43
0.00000001
 40
0.0
 40
0.0
 40
0.0
 40
0.0
 40
0.1970246968420801
 40
1.0
 40
1.0
 40
1.0
 40
1.0
 10
434.7810358179318
 20
230.8388918951673
 30
0.0
 10
434.7483840035168
 20
230.8388918951673
 30
0.0
 10
434.582659528675
 20
230.8388918951673
 30
0.0
 10
434.3373515456224
 20
230.8388918951673
 30
0.0
 10
434.1403752935635
 20
230.8388918951673
 30
0.0
  0
SPLINE
  5
C4
330
1F
100
AcDbEntity
  8
0
  6
Continuous
 62
     7
370
    15
100
AcDbSpline
210
0.0
220
0.0
230
1.0
 70
     8
 71
     3
 72
    13
 73
     9
 74
     0
 42
0.00000001
 43
0.00000001
 40
0.0
 40
0.0
 40
0.0
 40
0.0
 40
0.18773468044012
 40
0.3754729683631524
 40
0.5632112407842811
 40
0.750947888408909
 40
0.9386848456031879
 40
1.0
 40
1.0
 40
1.0
 40
1.0
 10
433.8470906389462
 20
234.4537305959088
 30
0.0
 10
433.650399153077
 20
234.451030359743
 30
0.0
 10
433.2570124017429
 20
234.4456298355239
 30
0.0
 10
432.7239935768694
 20
234.1550976547315
 30
0.0
 10
432.3334665165274
 20
233.7001940820595
 30
0.0
 10
432.1605254433347
 20
233.1385131919125
 30
0.0
 10
432.1637956457633
 20
232.66531570968
 30
0.0
 10
432.2911294926636
 20
232.443884428504
 30
0.0
 10
432.3224783313977
 20
232.3893693589193
 30
0.0
  0
SPLINE
  5
C5
330
1F
100
AcDbEntity
  8
0
  6
Continuous
 62
     7
370
    15
100
AcDbSpline
210
0.0
220
0.0
230
1.0
 70
     8
 71
     3
 72
    10
 73
     6
 74
     0
 42
0.00000001
 43
0.00000001
 40
0.0
 40
0.0
 40
0.0
 40
0.0
 40
0.2093431762315058
 40
0.6046708051529048
 40
0.9999999999999999
 40
0.9999999999999999
 40
0.9999999999999999
 40
0.9999999999999999
 10
434.9842727554547
 20
233.6476159595472
 30
0.0
 10
434.9425647041321
 20
233.7406794179245
 30
0.0
 10
434.8220943767559
 20
234.0094856781539
 30
0.0
 10
434.4153994624661
 20
234.3261477951935
 30
0.0
 10
434.0365271635764
 20
234.4112029395187
 30
0.0
 10
433.8470906389462
 20
234.4537305959088
 30
0.0
  0
SPLINE
  5
C6
330
1F
100
AcDbEntity
  8
0
  6
Continuous
 62
     7
370
    15
100
AcDbSpline
210
0.0
220
0.0
230
1.0
 70
     8
 71
     3
 72
    13
 73
     9
 74
     0
 42
0.00000001
 43
0.00000001
 40
0.0
 40
0.0
 40
0.0
 40
0.0
 40
0.1768612988651324
 40
0.3537265060719917
 40
0.5305915684291158
 40
0.7074548346711061
 40
0.8843186579751815
 40
1.0
 40
1.0
 40
1.0
 40
1.0
 10
433.8298648966061
 20
213.8105438404304
 30
0.0
 10
433.6331977692828
 20
213.8132346110979
 30
0.0
 10
433.2398591686185
 20
213.8186162118944
 30
0.0
 10
432.7064741442449
 20
214.1092912731257
 30
0.0
 10
432.3173434943967
 20
214.5636557794626
 30
0.0
 10
432.1391835457562
 20
215.1273490143568
 30
0.0
 10
432.160145945587
 20
215.6605027050171
 30
0.0
 10
432.326239321306
 20
215.9337710517649
 30
0.0
 10
432.391917742561
 20
216.0418297477586
 30
0.0
  0
SPLINE
  5
C7
330
1F
100
AcDbEntity
  8
0
  6
Continuous
 62
     7
370
    15
100
AcDbSpline
210
0.0
220
0.0
230
1.0
 70
     8
 71
     3
 72
    10
 73
     6
 74
     0
 42
0.00000001
 43
0.00000001
 40
0.0
 40
0.0
 40
0.0
 40
0.0
 40
0.0588211701069046
 40
0.5294135593534659
 40
0.9999999999999999
 40
0.9999999999999999
 40
0.9999999999999999
 40
0.9999999999999999
 10
434.8599821699368
 20
214.4104534142238
 30
0.0
 10
434.8493476334667
 20
214.388973073981
 30
0.0
 10
434.753632641832
 20
214.1956416022772
 30
0.0
 10
434.3927470427874
 20
213.9414747233037
 30
0.0
 10
434.0174914880817
 20
213.8541872841585
 30
0.0
 10
433.8298648966061
 20
213.8105438404304
 30
0.0
  0
SPLINE
  5
C8
330
1F
100
AcDbEntity
  8
0
  6
Continuous
 62
     7
370
    15
100
AcDbSpline
210
0.0
220
0.0
230
1.0
 70
    24
 71
     3
 72
    12
 73
     8
 74
     0
 42
0.00000001
 43
0.00000001
 40
0.0
 40
0.0
 40
0.0
 40
0.0
 40
0.2193531530453107
 40
0.4387077400338293
 40
0.6580622963088032
 40
0.8774222759461303
 40
1.0
 40
1.0
 40
1.0
 40
1.0
 10
434.1403752935635
 20
217.2802610636276
 30
0.0
 10
433.9436597447125
 20
217.2802610636276
 30
0.0
 10
433.5502273610526
 20
217.2802610636276
 30
0.0
 10
432.9894102294841
 20
217.2802610636276
 30
0.0
 10
432.5719936117344
 20
217.2802610636276
 30
0.0
 10
432.3461454579462
 20
217.2802610636276
 30
0.0
 10
432.3631334307406
 20
217.2802610636276
 30
0.0
 10
432.3692232740628
 20
217.2802610636276
 30
0.0
  0
SPLINE
  5
C9
330
1F
100
AcDbEntity
  8
0
  6
Continuous
 62
     7
370
    15
100
AcDbSpline
210
0.0
220
0.0
230
1.0
 70
    24
 71
     3
 72
     9
 73
     5
 74
     0
 42
0.00000001
 43
0.00000001
 40
0.0
 40
0.0
 40
0.0
 40
0.0
 40
0.1970246968420801
 40
1.0
 40
1.0
 40
1.0
 40
1.0
 10
434.7810358179318
 20
217.2802610636276
 30
0.0
 10
434.7483840035168
 20
217.2802610636276
 30
0.0
 10
434.582659528675
 20
217.2802610636276
 30
0.0
 10
434.3373515456224
 20
217.2802610636276
 30
0.0
 10
434.1403752935635
 20
217.2802610636276
 30
0.0
  0
SPLINE
  5
CA
330
1F
100
AcDbEntity
  8
0
  6
Continuous
 62
     7
370
    15
100
AcDbSpline
210
0.0
220
0.0
230
1.0
 70
     8
 71
     3
 72
    13
 73
     9
 74
     0
 42
0.00000001
 43
0.00000001
 40
0.0
 40
0.0
 40
0.0
 40
0.0
 40
0.1768612840288145
 40
0.3537263461533859
 40
0.5305916078062589
 40
0.7074548592117663
 40
0.8843186676793121
 40
0.9999999999999999
 40
0.9999999999999999
 40
0.9999999999999999
 40
0.9999999999999999
 10
432.2780132663952
 20
237.0701491214854
 30
0.0
 10
432.0813461927385
 20
237.0674582638469
 30
0.0
 10
431.6880078442398
 20
237.062076491088
 30
0.0
 10
431.1546219096667
 20
236.7714027925597
 30
0.0
 10
430.7654921681487
 20
236.3170371765076
 30
0.0
 10
430.5873318527871
 20
235.7533440106889
 30
0.0
 10
430.608294324923
 20
235.2201902472956
 30
0.0
 10
430.7743876938004
 20
234.9469219074296
 30
0.0
 10
430.8400661123501
 20
234.8388632141573
 30
0.0
  0
SPLINE
  5
CB
330
1F
100
AcDbEntity
  8
0
  6
Continuous
 62
     7
370
    15
100
AcDbSpline
210
0.0
220
0.0
230
1.0
 70
     8
 71
     3
 72
    10
 73
     6
 74
     0
 42
0.00000001
 43
0.00000001
 40
0.0
 40
0.0
 40
0.0
 40
0.0
 40
0.1474563383300455
 40
0.5737308633614325
 40
1.0
 40
1.0
 40
1.0
 40
1.0
 10
433.3666026962506
 20
236.3576230906469
 30
0.0
 10
433.3385460636177
 20
236.417917501135
 30
0.0
 10
433.2293818442575
 20
236.6525141592165
 30
0.0
 10
432.8443040573488
 20
236.9413188568605
 30
0.0
 10
432.4667760680074
 20
237.0272058808898
 30
0.0
 10
432.2780132663952
 20
237.0701491214854
 30
0.0
  0
SPLINE
  5
CC
330
1F
100
AcDbEntity
  8
0
  6
Continuous
 62
     7
370
    15
100
AcDbSpline
210
0.0
220
0.0
230
1.0
 70
     8
 71
     3
 72
    13
 73
     9
 74
     0
 42
0.00000001
 43
0.00000001
 40
0.0
 40
0.0
 40
0.0
 40
0.0
 40
0.1768652455680534
 40
0.353729932613986
 40
0.5305915664824274
 40
0.7074556950470201
 40
0.8843189981942389
 40
0.9999999999999999
 40
0.9999999999999999
 40
0.9999999999999999
 40
0.9999999999999999
 10
432.2608024252164
 20
211.1941253148538
 30
0.0
 10
432.0641305935114
 20
211.1968156615956
 30
0.0
 10
431.6707875511709
 20
211.2021963465832
 30
0.0
 10
431.1373948749754
 20
211.4928677106109
 30
0.0
 10
430.7482869950023
 20
211.9472456752634
 30
0.0
 10
430.5701005246818
 20
212.5109266960186
 30
0.0
 10
430.5910694228865
 20
213.0440845175287
 30
0.0
 10
430.7571621895817
 20
213.3173526219942
 30
0.0
 10
430.8228403700101
 20
213.425411222182
 30
0.0
  0
SPLINE
  5
CD
330
1F
100
AcDbEntity
  8
0
  6
Continuous
 62
     7
370
    15
100
AcDbSpline
210
0.0
220
0.0
230
1.0
 70
     8
 71
     3
 72
    10
 73
     6
 74
     0
 42
0.00000001
 43
0.00000001
 40
0.0
 40
0.0
 40
0.0
 40
0.0
 40
0.147457853109344
 40
0.5737367571442605
 40
1.0
 40
1.0
 40
1.0
 40
1.0
 10
433.3493769539105
 20
211.9066513456923
 30
0.0
 10
433.3213203251884
 20
211.8463569264698
 30
0.0
 10
433.2121561210448
 20
211.6117602344037
 30
0.0
 10
432.8270820068398
 20
211.3229591357179
 30
0.0
 10
432.4495599740673
 20
211.2370693958777
 30
0.0
 10
432.2608024252164
 20
211.1941253148538
 30
0.0
  0
LINE
  5
CE
330
1F
100
AcDbEntity
  8
0
  6
Continuous
 62
     7
370
    15
100
AcDbLine
 10
736.8823945893
 20
79.1465009876
 30
0.0
 11
736.8823945893
 21
44.1464896627
 31
0.0
  0
LINE
  5
CF
330
1F
100
AcDbEntity
  8
0
  6
Continuous
 62
     7
370
    15
100
AcDbLine
 10
747.4810392035
 20
79.1465009876
 30
0.0
 11
736.8823945893
 21
79.1465009876
 31
0.0
  0
LINE
  5
D0
330
1F
100
AcDbEntity
  8
0
  6
Continuous
 62
     7
370
    15
100
AcDbLine
 10
747.4810392035
 20
44.1464896627
 30
0.0
 11
736.8823945893
 21
44.1464896627
 31
0.0
  0
LINE
  5
D1
330
1F
100
AcDbEntity
  8
0
  6
Continuous
 62
     7
370
    15
100
AcDbLine
 10
736.8823945893
 20
404.1465039678
 30
0.0
 11
736.8823945893
 21
369.146492643
 31
0.0
  0
LINE
  5
D2
330
1F
100
AcDbEntity
  8
0
  6
Continuous
 62
     7
370
    15
100
AcDbLine
 10
747.4810392035
 20
404.1465039678
 30
0.0
 11
736.8823945893
 21
404.1465039678
 31
0.0
  0
LINE
  5
D3
330
1F
100
AcDbEntity
  8
0
  6
Continuous
 62
     7
370
    15
100
AcDbLine
 10
747.4810392035
 20
369.146492643
 30
0.0
 11
736.8823945893
 21
369.146492643
 31
0.0
  0
LINE
  5
D4
330
1F
100
AcDbEntity
  8
0
  6
Continuous
 62
     7
370
    15
100
AcDbLine
 10
744.4810331238
 20
116.1464940139
 30
0.0
 11
739.4810378922
 21
116.1464940139
 31
0.0
  0
LINE
  5
D5
330
1F
100
AcDbEntity
  8
0
  6
Continuous
 62
     7
370
    15
100
AcDbLine
 10
739.4810378922
 20
332.1464996167
 30
0.0
 11
744.4810331238
 21
332.1464996167
 31
0.0
  0
LINE
  5
D6
330
1F
100
AcDbEntity
  8
0
  6
Continuous
 62
     7
370
    15
100
AcDbLine
 10
736.4188790692
 20
44.1464896627
 30
0.0
 11
736.4188790692
 21
79.1465009876
 31
0.0
  0
LINE
  5
D7
330
1F
100
AcDbEntity
  8
0
  6
Continuous
 62
     7
370
    15
100
AcDbLine
 10
736.4188790692
 20
79.1465009876
 30
0.0
 11
736.8823945893
 21
79.1465009876
 31
0.0
  0
LINE
  5
D8
330
1F
100
AcDbEntity
  8
0
  6
Continuous
 62
     7
370
    15
100
AcDbLine
 10
736.8823945893
 20
44.1464896627
 30
0.0
 11
736.4188790692
 21
44.1464896627
 31
0.0
  0
LINE
  5
D9
330
1F
100
AcDbEntity
  8
0
  6
Continuous
 62
     7
370
    15
100
AcDbLine
 10
736.4188790692
 20
369.146492643
 30
0.0
 11
736.4188790692
 21
404.1465039678
 31
0.0
  0
LINE
  5
DA
330
1F
100
AcDbEntity
  8
0
  6
Continuous
 62
     7
370
    15
100
AcDbLine
 10
736.4188790692
 20
404.1465039678
 30
0.0
 11
736.8823945893
 21
404.1465039678
 31
0.0
  0
LINE
  5
DB
330
1F
100
AcDbEntity
  8
0
  6
Continuous
 62
     7
370
    15
100
AcDbLine
 10
736.8823945893
 20
369.146492643
 30
0.0
 11
736.4188790692
 21
369.146492643
 31
0.0
  0
LINE
  5
DC
330
1F
100
AcDbEntity
  8
0
  6
Continuous
 62
     7
370
    15
100
AcDbLine
 10
736.4188790692
 20
404.1465039678
 30
0.0
 11
735.9810382498
 21
404.1465039678
 31
0.0
  0
LINE
  5
DD
330
1F
100
AcDbEntity
  8
0
  6
Continuous
 62
     7
370
    15
100
AcDbLine
 10
736.4188790692
 20
369.146492643
 30
0.0
 11
735.9810382498
 21
369.146492643
 31
0.0
  0
LINE
  5
DE
330
1F
100
AcDbEntity
  8
0
  6
Continuous
 62
     7
370
    15
100
AcDbLine
 10
736.4188790692
 20
79.1465009876
 30
0.0
 11
735.9810382498
 21
79.1465009876
 31
0.0
  0
LINE
  5
DF
330
1F
100
AcDbEntity
  8
0
  6
Continuous
 62
     7
370
    15
100
AcDbLine
 10
736.4188790692
 20
44.1464896627
 30
0.0
 11
735.9810382498
 21
44.1464896627
 31
0.0
  0
LINE
  5
E0
330
1F
100
AcDbEntity
  8
0
  6
Continuous
 62
     7
370
    15
100
AcDbLine
 10
430.7810277117
 20
217.3964966402
 30
0.0
 11
427.6810348404
 21
217.3964966402
 31
0.0
  0
LINE
  5
E1
330
1F
100
AcDbEntity
  8
0
  6
Continuous
 62
     7
370
    15
100
AcDbLine
 10
430.7810277117
 20
230.8964969904
 30
0.0
 11
427.6810348404
 21
230.8964969904
 31
0.0
  0
LINE
  5
E2
330
1F
100
AcDbEntity
  8
0
  6
Continuous
 62
     7
370
    15
100
AcDbLine
 10
430.7810277117
 20
230.8964969904
 30
0.0
 11
432.3411047829
 21
230.8964969904
 31
0.0
  0
LINE
  5
E3
330
1F
100
AcDbEntity
  8
0
  6
Continuous
 62
     7
370
    15
100
AcDbLine
 10
430.7810277117
 20
217.3964966402
 30
0.0
 11
432.3405385388
 21
217.3964966402
 31
0.0
  0
LINE
  5
E4
330
1F
100
AcDbEntity
  8
0
  6
Continuous
 62
     8
370
    15
100
AcDbLine
 10
430.7810277117
 20
217.6464966812
 30
0.0
 11
430.7810277117
 21
217.3964966402
 31
0.0
  0
LINE
  5
E5
330
1F
100
AcDbEntity
  8
0
  6
Continuous
 62
     8
370
    15
100
AcDbLine
 10
430.7810277117
 20
230.8964969904
 30
0.0
 11
430.7810277117
 21
230.6464969494
 31
0.0
  0
LINE
  5
E6
330
1F
100
AcDbEntity
  8
0
  6
Continuous
 62
     7
370
    15
100
AcDbLine
 10
283.2688637275
 20
230.6464969494
 30
0.0
 11
283.2688637275
 21
217.6464966812
 31
0.0
  0
LINE
  5
E7
330
1F
100
AcDbEntity
  8
0
  6
Continuous
 62
     7
370
    15
100
AcDbLine
 10
273.4788604277
 20
231.3464966916
 30
0.0
 11
273.4788604277
 21
232.1464971953
 31
0.0
  0
LINE
  5
E8
330
1F
100
AcDbEntity
  8
0
  6
Continuous
 62
     7
370
    15
100
AcDbLine
 10
273.4788604277
 20
216.1464964353
 30
0.0
 11
273.4788604277
 21
216.946496939
 31
0.0
  0
ARC
  5
E9
330
1F
100
AcDbEntity
  8
0
  6
Continuous
 62
     7
370
    15
100
AcDbCircle
 10
270.7488605803
 20
229.3393539582
 30
0.0
 40
3.807142857143189
100
AcDbArc
 50
54.6997515601
 51
125.3002484399
  0
LINE
  5
EA
330
1F
100
AcDbEntity
  8
0
  6
Continuous
 62
     7
370
    15
100
AcDbLine
 10
268.5488559502
 20
232.4464966856
 30
0.0
 11
268.5488559502
 21
232.1464971953
 31
0.0
  0
LINE
  5
EB
330
1F
100
AcDbEntity
  8
0
  6
Continuous
 62
     7
370
    15
100
AcDbLine
 10
272.9488559264
 20
232.1464971953
 30
0.0
 11
272.9488559264
 21
232.4464966856
 31
0.0
  0
LINE
  5
EC
330
1F
100
AcDbEntity
  8
0
  6
Continuous
 62
     7
370
    15
100
AcDbLine
 10
268.648857643
 20
215.7464971148
 30
0.0
 11
268.648857643
 21
215.346496863
 31
0.0
  0
LINE
  5
ED
330
1F
100
AcDbEntity
  8
0
  6
Continuous
 62
     7
370
    15
100
AcDbLine
 10
272.8488542336
 20
215.346496863
 30
0.0
 11
272.8488542336
 21
215.7464971148
 31
0.0
  0
ARC
  5
EE
330
1F
100
AcDbEntity
  8
0
  6
Continuous
 62
     7
370
    15
100
AcDbCircle
 10
268.8488605803
 20
216.1464968153
 30
0.0
 40
0.4000000000007731
100
AcDbArc
 50
270.0
 51
0.0
  0
ARC
  5
EF
330
1F
100
AcDbEntity
  8
0
  6
Continuous
 62
     7
370
    15
100
AcDbCircle
 10
272.6488605803
 20
216.1464968153
 30
0.0
 40
0.4000000000007162
100
AcDbArc
 50
180.0
 51
270.0
  0
LINE
  5
F0
330
1F
100
AcDbEntity
  8
0
  6
Continuous
 62
     7
370
    15
100
AcDbLine
 10
269.2488677996
 20
231.3464966916
 30
0.0
 11
269.2488677996
 21
230.8964969904
 31
0.0
  0
LINE
  5
F1
330
1F
100
AcDbEntity
  8
0
  6
Continuous
 62
     7
370
    15
100
AcDbLine
 10
269.2488677996
 20
229.8964968265
 30
0.0
 11
269.2488677996
 21
229.4077922904
 31
0.0
  0
LINE
  5
F2
330
1F
100
AcDbEntity
  8
0
  6
Continuous
 62
     7
370
    15
100
AcDbLine
 10
269.2488677996
 20
228.6116777301
 30
0.0
 11
269.2488677996
 21
228.4559806191
 31
0.0
  0
LINE
  5
F3
330
1F
100
AcDbEntity
  8
0
  6
Continuous
 62
     7
370
    15
100
AcDbLine
 10
269.2488677996
 20
219.1568699979
 30
0.0
 11
269.2488677996
 21
218.3964968041
 31
0.0
  0
LINE
  5
F4
330
1F
100
AcDbEntity
  8
0
  6
Continuous
 62
     7
370
    15
100
AcDbLine
 10
269.2488677996
 20
217.3964966402
 30
0.0
 11
269.2488677996
 21
216.946496939
 31
0.0
  0
LINE
  5
F5
330
1F
100
AcDbEntity
  8
0
  6
Continuous
 62
     7
370
    15
100
AcDbLine
 10
272.2488589782
 20
216.946496939
 30
0.0
 11
272.2488589782
 21
217.3964966402
 31
0.0
  0
LINE
  5
F6
330
1F
100
AcDbEntity
  8
0
  6
Continuous
 62
     7
370
    15
100
AcDbLine
 10
272.2488589782
 20
218.3964968041
 30
0.0
 11
272.2488589782
 21
218.8836390466
 31
0.0
  0
LINE
  5
F7
330
1F
100
AcDbEntity
  8
0
  6
Continuous
 62
     7
370
    15
100
AcDbLine
 10
272.2488589782
 20
228.1915562541
 30
0.0
 11
272.2488589782
 21
228.3794948213
 31
0.0
  0
LINE
  5
F8
330
1F
100
AcDbEntity
  8
0
  6
Continuous
 62
     7
370
    15
100
AcDbLine
 10
272.2488589782
 20
229.1345739119
 30
0.0
 11
272.2488589782
 21
229.8964968265
 31
0.0
  0
LINE
  5
F9
330
1F
100
AcDbEntity
  8
0
  6
Continuous
 62
     7
370
    15
100
AcDbLine
 10
272.2488589782
 20
230.8964969904
 30
0.0
 11
272.2488589782
 21
231.3464966916
 31
0.0
  0
SPLINE
  5
FA
330
1F
100
AcDbEntity
  8
0
  6
Continuous
 62
     7
370
    15
100
AcDbSpline
210
0.0
220
0.0
230
1.0
 70
     8
 71
     3
 72
    15
 73
    11
 74
     0
 42
0.00000001
 43
0.00000001
 40
0.0
 40
0.0
 40
0.0
 40
0.0
 40
0.1356028554428815
 40
0.2953315649747645
 40
0.4038123509624403
 40
0.5319641019549548
 40
0.6738462673961908
 40
0.8261078223386852
 40
0.91261718584759
 40
1.0
 40
1.0
 40
1.0
 40
1.0
 10
272.2488589781526
 20
218.7125420511288
 30
0.0
 10
272.2932406399816
 20
218.7052188328029
 30
0.0
 10
272.3899001505895
 20
218.6892694818708
 30
0.0
 10
272.5967496264584
 20
218.7369375486089
 30
0.0
 10
272.7900192125343
 20
218.8246639619401
 30
0.0
 10
272.9365974094847
 20
218.9443280836977
 30
0.0
 10
273.0353043735421
 20
219.095215650139
 30
0.0
 10
273.0649646113662
 20
219.2170693701905
 30
0.0
 10
273.0437902774233
 20
219.3463128190935
 30
0.0
 10
272.9975356762643
 20
219.4129905555802
 30
0.0
 10
272.9742922085526
 20
219.4464968830866
 30
0.0
  0
SPLINE
  5
FB
330
1F
100
AcDbEntity
  8
0
  6
Continuous
 62
     7
370
    15
100
AcDbSpline
210
0.0
220
0.0
230
1.0
 70
     8
 71
     3
 72
    20
 73
    16
 74
     0
 42
0.00000001
 43
0.00000001
 40
0.0
 40
0.0
 40
0.0
 40
0.0
 40
0.0607086059107249
 40
0.2265341314293467
 40
0.3908034809638889
 40
0.4705949034325367
 40
0.5476204825161574
 40
0.622857451169021
 40
0.700337359891757
 40
0.7786474899100327
 40
0.8566579368581354
 40
0.933101260558315
 40
0.9703735486794398
 40
0.9892351573384087
 40
1.0
 40
1.0
 40
1.0
 40
1.0
 10
268.5126610296967
 20
219.4464968830866
 30
0.0
 10
268.5589355905692
 20
219.3931634853478
 30
0.0
 10
268.7316090904339
 20
219.1941499393818
 30
0.0
 10
269.148582508423
 20
219.1762232025938
 30
0.0
 10
269.7135369452219
 20
219.1012001824176
 30
0.0
 10
270.2331496948169
 20
219.0582581119658
 30
0.0
 10
270.6270431273012
 20
219.0277070354723
 30
0.0
 10
271.0199540240419
 20
219.0000247608307
 30
0.0
 10
271.4011154278752
 20
218.9687170390575
 30
0.0
 10
271.7568384211155
 20
218.9362446042016
 30
0.0
 10
272.0594697036145
 20
218.9054186346769
 30
0.0
 10
272.2519675632715
 20
218.8825163350246
 30
0.0
 10
272.3401019518809
 20
218.8744888928021
 30
0.0
 10
272.385518977856
 20
218.8666943350646
 30
0.0
 10
272.3849714243066
 20
218.8706531375514
 30
0.0
 10
272.3847724694016
 20
218.872091577999
 30
0.0
  0
SPLINE
  5
FC
330
1F
100
AcDbEntity
  8
0
  6
Continuous
 62
     7
370
    15
100
AcDbSpline
210
0.0
220
0.0
230
1.0
 70
     8
 71
     3
 72
    18
 73
    14
 74
     0
 42
0.00000001
 43
0.00000001
 40
0.0
 40
0.0
 40
0.0
 40
0.0
 40
0.0057536063763858
 40
0.1156387709753249
 40
0.2383933650208669
 40
0.3593073542079148
 40
0.4757051454843201
 40
0.5872120525988893
 40
0.7047320452631978
 40
0.8265026387471018
 40
0.8891453484251808
 40
0.9517927931064117
 40
1.0
 40
1.0
 40
1.0
 40
1.0
 10
272.7554835575822
 20
228.093320814572
 30
0.0
 10
272.7508363983172
 20
228.0962742914553
 30
0.0
 10
272.6574355379225
 20
228.1556347020471
 30
0.0
 10
272.435064269629
 20
228.1618172129983
 30
0.0
 10
272.0436969259903
 20
228.2210143773143
 30
0.0
 10
271.5318033948
 20
228.2665616158017
 30
0.0
 10
270.9807781946404
 20
228.3127119518609
 30
0.0
 10
270.4186591070576
 20
228.3516096759337
 30
0.0
 10
269.8843809098562
 20
228.3963389232512
 30
0.0
 10
269.4867302197896
 20
228.4374087772423
 30
0.0
 10
269.2720231403709
 20
228.4585309882321
 30
0.0
 10
269.1759561976392
 20
228.4608197487221
 30
0.0
 10
269.1605138035068
 20
228.4447447031685
 30
0.0
 10
269.1537983912232
 20
228.4377541706485
 30
0.0
  0
SPLINE
  5
FD
330
1F
100
AcDbEntity
  8
0
  6
Continuous
 62
     7
370
    15
100
AcDbSpline
210
0.0
220
0.0
230
1.0
 70
     8
 71
     3
 72
    12
 73
     8
 74
     0
 42
0.00000001
 43
0.00000001
 40
0.0
 40
0.0
 40
0.0
 40
0.0
 40
0.2236724731164027
 40
0.452310651944408
 40
0.6822375069813867
 40
0.910224143092987
 40
1.0
 40
1.0
 40
1.0
 40
1.0
 10
268.4545614022019
 20
229.2483475372714
 30
0.0
 10
268.441821389726
 20
229.2057995294101
 30
0.0
 10
268.4160585264265
 20
229.1197589142795
 30
0.0
 10
268.5372075553838
 20
229.0281450223254
 30
0.0
 10
268.7688834691741
 20
228.9318395922642
 30
0.0
 10
269.0137351166698
 20
228.8693477967642
 30
0.0
 10
269.197070862973
 20
228.8745680920885
 30
0.0
 10
269.24886779964
 20
228.8760429561657
 30
0.0
  0
SPLINE
  5
FE
330
1F
100
AcDbEntity
  8
0
  6
Continuous
 62
     7
370
    15
100
AcDbSpline
210
0.0
220
0.0
230
1.0
 70
     8
 71
     3
 72
    19
 73
    15
 74
     0
 42
0.00000001
 43
0.00000001
 40
0.0
 40
0.0
 40
0.0
 40
0.0
 40
0.0979036338672905
 40
0.1753757700205972
 40
0.2884819729928274
 40
0.3734522855814106
 40
0.457000841571836
 40
0.6168872619138224
 40
0.6796664206511335
 40
0.7634259995396097
 40
0.8137553783406133
 40
0.8702969022969015
 40
0.9323986437450937
 40
1.0
 40
1.0
 40
1.0
 40
1.0
 10
268.6307974356416
 20
228.7532168753964
 30
0.0
 10
268.6813091473724
 20
228.7268400230684
 30
0.0
 10
268.7717912877173
 20
228.6795909005892
 30
0.0
 10
269.1464114631427
 20
228.6189405025403
 30
0.0
 10
269.6329355399147
 20
228.5650550137418
 30
0.0
 10
270.2242601776258
 20
228.5118215686505
 30
0.0
 10
270.9783648888454
 20
228.4602703164533
 30
0.0
 10
271.6194597985081
 20
228.3933279710533
 30
0.0
 10
272.2687389923257
 20
228.3578079320901
 30
0.0
 10
272.6470718454083
 20
228.4359943326316
 30
0.0
 10
272.89891518114
 20
228.5441928848299
 30
0.0
 10
273.0325106022919
 20
228.63253457451
 30
0.0
 10
273.094281605345
 20
228.7063752549024
 30
0.0
 10
273.0228384292931
 20
228.7868905399157
 30
0.0
 10
272.9856021898988
 20
228.8288551696164
 30
0.0
  0
SPLINE
  5
FF
330
1F
100
AcDbEntity
  8
0
  6
Continuous
 62
     7
370
    15
100
AcDbSpline
210
0.0
220
0.0
230
1.0
 70
     8
 71
     3
 72
    25
 73
    21
 74
     0
 42
0.00000001
 43
0.00000001
 40
0.0
 40
0.0
 40
0.0
 40
0.0
 40
0.0176248670236112
 40
0.0344969691582522
 40
0.050314061142475
 40
0.0649727818243312
 40
0.0909434939240802
 40
0.1134370128477215
 40
0.1538396794294686
 40
0.1912339635940851
 40
0.2995705995434672
 40
0.3999634035419894
 40
0.5012956609641801
 40
0.5949061617680064
 40
0.6784894436636939
 40
0.7336315235097717
 40
0.8075201325645285
 40
0.8952851779765146
 40
0.9453106351021356
 40
1.0
 40
1.0
 40
1.0
 40
1.0
 10
272.6282872456315
 20
228.2032732233924
 30
0.0
 10
272.6679924574981
 20
228.2076685678724
 30
0.0
 10
272.7457070562721
 20
228.2162715299692
 30
0.0
 10
272.8475881090424
 20
228.2622694350666
 30
0.0
 10
272.9286044502774
 20
228.321231138495
 30
0.0
 10
273.0048035064894
 20
228.4048033135231
 30
0.0
 10
273.0578604065145
 20
228.5084563492412
 30
0.0
 10
273.0820016359409
 20
228.6407896729172
 30
0.0
 10
273.0591304913926
 20
228.7726506560706
 30
0.0
 10
272.8878855666746
 20
229.0178653561661
 30
0.0
 10
272.5451039657846
 20
229.1049465927418
 30
0.0
 10
272.0499887969127
 20
229.16350148975
 30
0.0
 10
271.4367763392521
 20
229.2218586557772
 30
0.0
 10
270.7873056228169
 20
229.2714816941525
 30
0.0
 10
270.2475928208588
 20
229.3109618684244
 30
0.0
 10
269.8015994145168
 20
229.350138229149
 30
0.0
 10
269.4128856970539
 20
229.3883676275126
 30
0.0
 10
269.1527296875825
 20
229.4162090131891
 30
0.0
 10
269.022293762512
 20
229.43870271524
 30
0.0
 10
269.0136221396164
 20
229.4511660854517
 30
0.0
 10
269.0090932148698
 20
229.4576753244323
 30
0.0
  0
SPLINE
  5
100
330
1F
100
AcDbEntity
  8
0
  6
Continuous
 62
     7
370
    15
100
AcDbSpline
210
0.0
220
0.0
230
1.0
 70
     8
 71
     3
 72
    12
 73
     8
 74
     0
 42
0.00000001
 43
0.00000001
 40
0.0
 40
0.0
 40
0.0
 40
0.0
 40
0.175647445545359
 40
0.5723076563006982
 40
0.7586171666716701
 40
0.9207515006097153
 40
1.0
 40
1.0
 40
1.0
 40
1.0
 10
269.0974272984269
 20
228.6391876020056
 30
0.0
 10
269.0318634251547
 20
228.6300166190385
 30
0.0
 10
268.8182383050518
 20
228.6001350357818
 30
0.0
 10
268.6023294913879
 20
228.5261921580901
 30
0.0
 10
268.441158595712
 20
228.3112727557176
 30
0.0
 10
268.4099586170572
 20
228.1510492712015
 30
0.0
 10
268.4409345961117
 20
228.0723863588702
 30
0.0
 10
268.451104332805
 20
228.0465605050844
 30
0.0
  0
LINE
  5
101
330
1F
100
AcDbEntity
  8
0
  6
Continuous
 62
     7
370
    15
100
AcDbLine
 10
268.6086245078
 20
219.3487564415
 30
0.0
 11
267.4901582497
 21
219.3487564415
 31
0.0
  0
LINE
  5
102
330
1F
100
AcDbEntity
  8
0
  6
Continuous
 62
     7
370
    15
100
AcDbLine
 10
267.4901582497
 20
218.5487568692
 30
0.0
 11
269.2488677996
 21
218.5487568692
 31
0.0
  0
LINE
  5
103
330
1F
100
AcDbEntity
  8
0
  6
Continuous
 62
     7
370
    15
100
AcDbLine
 10
266.0798676509
 20
232.1464971953
 30
0.0
 11
266.0798676509
 21
232.1999672182
 31
0.0
  0
LINE
  5
104
330
1F
100
AcDbEntity
  8
0
  6
Continuous
 62
     7
370
    15
100
AcDbLine
 10
263.0798764724
 20
232.1999672182
 30
0.0
 11
263.0798764724
 21
232.1464971953
 31
0.0
  0
SPLINE
  5
105
330
1F
100
AcDbEntity
  8
0
  6
Continuous
 62
     7
370
    15
100
AcDbSpline
210
0.0
220
0.0
230
1.0
 70
     8
 71
     3
 72
    15
 73
    11
 74
     0
 42
0.00000001
 43
0.00000001
 40
0.0
 40
0.0
 40
0.0
 40
0.0
 40
0.1077551316558015
 40
0.2352510952770178
 40
0.362790812364346
 40
0.4902565964082815
 40
0.6176631519439536
 40
0.7450970655907955
 40
0.8724965291587299
 40
1.0
 40
1.0
 40
1.0
 40
1.0
 10
263.09592502296
 20
216.1464964353067
 30
0.0
 10
263.1124642514604
 20
215.833975418185
 30
0.0
 10
263.1485727092196
 20
215.1516792672247
 30
0.0
 10
263.4847862026433
 20
214.1425308033144
 30
0.0
 10
264.0428604073794
 20
213.1790467362054
 30
0.0
 10
264.7976936569428
 20
212.3581273014804
 30
0.0
 10
265.7128526807263
 20
211.7228554600919
 30
0.0
 10
266.740108221826
 20
211.3026934767425
 30
0.0
 10
267.8360884052993
 20
211.0888873448268
 30
0.0
 10
268.5718476126481
 20
211.1544177188213
 30
0.0
 10
268.9398773211244
 20
211.1871962748987
 30
0.0
  0
SPLINE
  5
106
330
1F
100
AcDbEntity
  8
0
  6
Continuous
 62
     7
370
    15
100
AcDbSpline
210
0.0
220
0.0
230
1.0
 70
     8
 71
     3
 72
    15
 73
    11
 74
     0
 42
0.00000001
 43
0.00000001
 40
0.0
 40
0.0
 40
0.0
 40
0.0
 40
0.1316476202011945
 40
0.2633131707200008
 40
0.3951883479158034
 40
0.5266682082755362
 40
0.657547438087822
 40
0.7882127018688155
 40
0.9184592395622494
 40
1.0
 40
1.0
 40
1.0
 40
1.0
 10
268.4421785372498
 20
214.1448811941368
 30
0.0
 10
268.2899997205302
 20
214.1330677232824
 30
0.0
 10
267.9856213604381
 20
214.1094391725867
 30
0.0
 10
267.5347635551893
 20
214.2109132447045
 30
0.0
 10
267.115733080706
 20
214.3977698438537
 30
0.0
 10
266.7453423646747
 20
214.6703673447132
 30
0.0
 10
266.4430719624816
 20
215.0162708721261
 30
0.0
 10
266.2239218003678
 20
215.4179847850325
 30
0.0
 10
266.1065619463267
 20
215.8042972361943
 30
0.0
 10
266.0963795009757
 20
216.0513702375166
 30
0.0
 10
266.0924591320756
 20
216.1464964353067
 30
0.0
  0
SPLINE
  5
107
330
1F
100
AcDbEntity
  8
0
  6
Continuous
 62
     7
370
    15
100
AcDbSpline
210
0.0
220
0.0
230
1.0
 70
     8
 71
     3
 72
    15
 73
    11
 74
     0
 42
0.00000001
 43
0.00000001
 40
0.0
 40
0.0
 40
0.0
 40
0.0
 40
0.1249271536958361
 40
0.2499157157707922
 40
0.3749662889906207
 40
0.4999570529282178
 40
0.6249211366264824
 40
0.7499169051311477
 40
0.874873894442914
 40
1.0
 40
1.0
 40
1.0
 40
1.0
 10
269.1107489365342
 20
237.0770176254732
 30
0.0
 10
268.7443722621378
 20
237.1203496380701
 30
0.0
 10
268.0114388196099
 20
237.2070349632663
 30
0.0
 10
266.9074154267877
 20
237.0418442263872
 30
0.0
 10
265.8666169356213
 20
236.6529126616694
 30
0.0
 10
264.9314231985075
 20
236.047899670421
 30
0.0
 10
264.1507704916853
 20
235.2517103562383
 30
0.0
 10
263.5628159730859
 20
234.307341542974
 30
0.0
 10
263.1669889356722
 20
233.2588988072767
 30
0.0
 10
263.1089270480547
 20
232.5197777456729
 30
0.0
 10
263.0798764723542
 20
232.149967303179
 30
0.0
  0
SPLINE
  5
108
330
1F
100
AcDbEntity
  8
0
  6
Continuous
 62
     7
370
    15
100
AcDbSpline
210
0.0
220
0.0
230
1.0
 70
     8
 71
     3
 72
    15
 73
    11
 74
     0
 42
0.00000001
 43
0.00000001
 40
0.0
 40
0.0
 40
0.0
 40
0.0
 40
0.1242530821660354
 40
0.2486350602761307
 40
0.3735432752958944
 40
0.4985840916991253
 40
0.6236666261484892
 40
0.7490730952873954
 40
0.8744399953768385
 40
1.0
 40
1.0
 40
1.0
 40
1.0
 10
266.0798676508668
 20
232.149967303179
 30
0.0
 10
266.0934237771428
 20
232.3019240498817
 30
0.0
 10
266.1205500923617
 20
232.6059951780756
 30
0.0
 10
266.295030402941
 20
233.0333045110177
 30
0.0
 10
266.548359537087
 20
233.4149470524185
 30
0.0
 10
266.8781775100474
 20
233.7348834332674
 30
0.0
 10
267.2691091348742
 20
233.9754525506632
 30
0.0
 10
267.7018054655657
 20
234.127078066325
 30
0.0
 10
268.1593324542379
 20
234.1805361820882
 30
0.0
 10
268.4612467010529
 20
234.1398461273334
 30
0.0
 10
268.6123199957612
 20
234.1194854431373
 30
0.0
  0
LINE
  5
109
330
1F
100
AcDbEntity
  8
0
  6
Continuous
 62
     7
370
    15
100
AcDbLine
 10
283.9829273719
 20
216.7616335989
 30
0.0
 11
268.4419550198
 21
214.1452155389
 31
0.0
  0
LINE
  5
10A
330
1F
100
AcDbEntity
  8
0
  6
Continuous
 62
     7
370
    15
100
AcDbLine
 10
268.9400263327
 20
211.1868479603
 30
0.0
 11
284.4809837836
 21
213.8032664858
 31
0.0
  0
LINE
  5
10B
330
1F
100
AcDbEntity
  8
0
  6
Continuous
 62
     7
370
    15
100
AcDbLine
 10
268.6125435132
 20
234.1190598287
 30
0.0
 11
284.1535158652
 21
231.5026408375
 31
0.0
  0
LINE
  5
10C
330
1F
100
AcDbEntity
  8
0
  6
Continuous
 62
     7
370
    15
100
AcDbLine
 10
284.651572277
 20
234.4610079505
 30
0.0
 11
269.1105999249
 21
237.0774264761
 31
0.0
  0
SPLINE
  5
10D
330
1F
100
AcDbEntity
  8
0
  6
Continuous
 62
     7
370
    15
100
AcDbSpline
210
0.0
220
0.0
230
1.0
 70
     8
 71
     3
 72
    12
 73
     8
 74
     0
 42
0.00000001
 43
0.00000001
 40
0.0
 40
0.0
 40
0.0
 40
0.0
 40
0.1526137249280727
 40
0.2973904382913148
 40
0.562370414533387
 40
0.7966025475283883
 40
1.0
 40
1.0
 40
1.0
 40
1.0
 10
284.4806410568955
 20
213.8035756849272
 30
0.0
 10
284.7318606275616
 20
213.856313786296
 30
0.0
 10
285.2213991553903
 20
213.9590817849679
 30
0.0
 10
286.070921881878
 20
214.3883267854978
 30
0.0
 10
286.8829127455215
 20
215.1327214927471
 30
0.0
 10
287.447358927052
 20
216.2037609640383
 30
0.0
 10
287.5290477071737
 20
216.938688298544
 30
0.0
 10
287.5670142668489
 20
217.2802610636276
 30
0.0
  0
SPLINE
  5
10E
330
1F
100
AcDbEntity
  8
0
  6
Continuous
 62
     7
370
    15
100
AcDbSpline
210
0.0
220
0.0
230
1.0
 70
     8
 71
     3
 72
    11
 73
     7
 74
     0
 42
0.00000001
 43
0.00000001
 40
0.0
 40
0.0
 40
0.0
 40
0.0
 40
0.2003583941858298
 40
0.4328077098157036
 40
0.6990179292940805
 40
0.9999999999999999
 40
0.9999999999999999
 40
0.9999999999999999
 40
0.9999999999999999
 10
284.56869201839
 20
217.2802610636276
 30
0.0
 10
284.5554646146718
 20
217.2238344826971
 30
0.0
 10
284.5268912058395
 20
217.1019436112688
 30
0.0
 10
284.4110064203298
 20
216.9362459740038
 30
0.0
 10
284.2262601197395
 20
216.7973322338002
 30
0.0
 10
284.0686401055917
 20
216.7739455494685
 30
0.0
 10
283.9849986332658
 20
216.7615353443248
 30
0.0
  0
SPLINE
  5
10F
330
1F
100
AcDbEntity
  8
0
  6
Continuous
 62
     7
370
    15
100
AcDbSpline
210
0.0
220
0.0
230
1.0
 70
     8
 71
     3
 72
    12
 73
     8
 74
     0
 42
0.00000001
 43
0.00000001
 40
0.0
 40
0.0
 40
0.0
 40
0.0
 40
0.2034069490661571
 40
0.4376406693597494
 40
0.7026181564216957
 40
0.8473898540302094
 40
1.0
 40
1.0
 40
1.0
 40
1.0
 10
287.5670142668488
 20
230.8388918951673
 30
0.0
 10
287.5455727249648
 20
231.1819002503328
 30
0.0
 10
287.4994401282893
 20
231.9199006325212
 30
0.0
 10
286.9873503672551
 20
233.0170212114
 30
0.0
 10
286.2121268928409
 20
233.7997588053196
 30
0.0
 10
285.3842871905546
 20
234.2695011244507
 30
0.0
 10
284.9003013311423
 20
234.3957594171328
 30
0.0
 10
284.6519299048189
 20
234.4605525337679
 30
0.0
  0
SPLINE
  5
110
330
1F
100
AcDbEntity
  8
0
  6
Continuous
 62
     7
370
    15
100
AcDbSpline
210
0.0
220
0.0
230
1.0
 70
     8
 71
     3
 72
    12
 73
     8
 74
     0
 42
0.00000001
 43
0.00000001
 40
0.0
 40
0.0
 40
0.0
 40
0.0
 40
0.1555604476034988
 40
0.3022086583397345
 40
0.5679707579484776
 40
0.7999460435992334
 40
1.0
 40
1.0
 40
1.0
 40
1.0
 10
284.151593615413
 20
231.5035591215414
 30
0.0
 10
284.1921406709272
 20
231.4878099794897
 30
0.0
 10
284.2709117945347
 20
231.4572139818387
 30
0.0
 10
284.400542063777
 20
231.3621672701165
 30
0.0
 10
284.5149769711697
 20
231.2159967914953
 30
0.0
 10
284.5791100519037
 20
231.0217402609956
 30
0.0
 10
284.5719893198013
 20
230.8967632942093
 30
0.0
 10
284.56869201839
 20
230.8388918951673
 30
0.0
  0
LINE
  5
111
330
1F
100
AcDbEntity
  8
0
  6
Continuous
 62
     7
370
    15
100
AcDbLine
 10
284.5678575534
 20
230.8888918102
 30
0.0
 11
284.5678575534
 21
230.6464969494
 31
0.0
  0
LINE
  5
112
330
1F
100
AcDbEntity
  8
0
  6
Continuous
 62
     7
370
    15
100
AcDbLine
 10
284.5678575534
 20
217.6464966812
 30
0.0
 11
284.5678575534
 21
217.2302611486
 31
0.0
  0
LINE
  5
113
330
1F
100
AcDbEntity
  8
0
  6
Continuous
 62
     7
370
    15
100
AcDbLine
 10
287.5678487319
 20
217.2302611486
 30
0.0
 11
287.5678487319
 21
217.6492412888
 31
0.0
  0
LINE
  5
114
330
1F
100
AcDbEntity
  8
0
  6
Continuous
 62
     7
370
    15
100
AcDbLine
 10
287.5678487319
 20
230.6437523418
 30
0.0
 11
287.5678487319
 21
230.8888918102
 31
0.0
  0
LINE
  5
115
330
1F
100
AcDbEntity
  8
0
  6
Continuous
 62
     7
370
    15
100
AcDbLine
 10
273.867139985
 20
229.7464966156
 30
0.0
 11
272.2488589782
 21
229.7464966156
 31
0.0
  0
LINE
  5
116
330
1F
100
AcDbEntity
  8
0
  6
Continuous
 62
     7
370
    15
100
AcDbLine
 10
272.8757806319
 20
228.9464970433
 30
0.0
 11
273.867139985
 21
228.9464970433
 31
0.0
  0
LINE
  5
117
330
1F
100
AcDbEntity
  8
0
  6
Continuous
 62
     7
370
    15
100
AcDbLine
 10
274.2053665417
 20
231.0146357246
 30
0.0
 11
273.9388294715
 21
229.8063885734
 31
0.0
  0
LINE
  5
118
330
1F
100
AcDbEntity
  8
0
  6
Continuous
 62
     7
370
    15
100
AcDbLine
 10
274.706984331
 20
229.5748384983
 30
0.0
 11
274.9865748185
 21
230.8423079864
 31
0.0
  0
SPLINE
  5
119
330
1F
100
AcDbEntity
  8
0
  6
Continuous
 62
     7
370
    15
100
AcDbSpline
210
0.0
220
0.0
230
1.0
 70
     8
 71
     3
 72
    11
 73
     7
 74
     0
 42
0.00000001
 43
0.00000001
 40
0.0
 40
0.0
 40
0.0
 40
0.0
 40
0.2541315534387046
 40
0.5022702145093869
 40
0.7495144296499624
 40
1.0
 40
1.0
 40
1.0
 40
1.0
 10
273.8671399849656
 20
228.9464970432741
 30
0.0
 10
273.967228770298
 20
228.956743137614
 30
0.0
 10
274.1650460621638
 20
228.9769937044262
 30
0.0
 10
274.4231907937991
 20
229.1310264413517
 30
0.0
 10
274.6266413711441
 20
229.3500989220909
 30
0.0
 10
274.6883742509833
 20
229.5371499728564
 30
0.0
 10
274.7194417017701
 20
229.6312845625502
 30
0.0
  0
LINE
  5
11A
330
1F
100
AcDbEntity
  8
0
  6
Continuous
 62
     7
370
    15
100
AcDbLine
 10
283.8474758166
 20
230.6464969494
 30
0.0
 11
283.8474758166
 21
217.6464966812
 31
0.0
  0
LINE
  5
11B
330
1F
100
AcDbEntity
  8
0
  6
Continuous
 62
     7
370
    15
100
AcDbLine
 10
283.8474758166
 20
230.6464969494
 30
0.0
 11
286.5664459962
 21
230.6464969494
 31
0.0
  0
LWPOLYLINE
  5
11C
330
1F
100
AcDbEntity
  8
0
  6
Continuous
 62
     7
370
    15
100
AcDbPolyline
 90
        9
 70
   128
 43
0.0
 10
287.2969605225
 20
229.4464966596
 10
287.2829236287
 20
229.6806050778
 10
287.2413642901
 20
229.90571692
 10
287.1738471287
 20
230.1131811306
 10
287.0830096501
 20
230.295025123
 10
286.9723089236
 20
230.4442602523
 10
286.8460066813
 20
230.5551523656
 10
286.7089607018
 20
230.6234392651
 10
286.5664459962
 20
230.6464969494
  0
LINE
  5
11D
330
1F
100
AcDbEntity
  8
0
  6
Continuous
 62
     7
370
    15
100
AcDbLine
 10
287.2969605225
 20
229.4464966596
 30
0.0
 11
287.2969605225
 21
218.846496971
 31
0.0
  0
LWPOLYLINE
  5
11E
330
1F
100
AcDbEntity
  8
0
  6
Continuous
 62
     7
370
    15
100
AcDbPolyline
 90
        9
 70
   128
 43
0.0
 10
286.5664459962
 20
217.6464966812
 10
286.7089607018
 20
217.6695543655
 10
286.8460066813
 20
217.737841265
 10
286.9723089236
 20
217.8487333783
 10
287.0830096501
 20
217.9979685076
 10
287.1738471287
 20
218.1798124999
 10
287.2413642901
 20
218.3872767106
 10
287.2829236287
 20
218.6123885528
 10
287.2969605225
 20
218.846496971
  0
LINE
  5
11F
330
1F
100
AcDbEntity
  8
0
  6
Continuous
 62
     7
370
    15
100
AcDbLine
 10
286.5664459962
 20
217.6464966812
 30
0.0
 11
283.8474758166
 21
217.6464966812
 31
0.0
  0
LINE
  5
120
330
1F
100
AcDbEntity
  8
0
  6
Continuous
 62
     7
370
    15
100
AcDbLine
 10
288.2489957112
 20
229.4464966596
 30
0.0
 11
287.2969605225
 21
229.4464966596
 31
0.0
  0
LINE
  5
121
330
1F
100
AcDbEntity
  8
0
  6
Continuous
 62
     7
370
    15
100
AcDbLine
 10
288.2489957112
 20
229.4464966596
 30
0.0
 11
288.2489957112
 21
218.846496971
 31
0.0
  0
LINE
  5
122
330
1F
100
AcDbEntity
  8
0
  6
Continuous
 62
     7
370
    15
100
AcDbLine
 10
287.2969605225
 20
218.846496971
 30
0.0
 11
288.2489957112
 21
218.846496971
 31
0.0
  0
LINE
  5
123
330
1F
100
AcDbEntity
  8
0
  6
Continuous
 62
     7
370
    15
100
AcDbLine
 10
287.5184811848
 20
217.6464966812
 30
0.0
 11
286.5664459962
 21
217.6464966812
 31
0.0
  0
LWPOLYLINE
  5
124
330
1F
100
AcDbEntity
  8
0
  6
Continuous
 62
     7
370
    15
100
AcDbPolyline
 90
        9
 70
   128
 43
0.0
 10
288.2489957112
 20
218.846496971
 10
288.2349588174
 20
218.6123885528
 10
288.1933845776
 20
218.3872767106
 10
288.1258823174
 20
218.1798124999
 10
288.0350299376
 20
217.9979685076
 10
287.9243292111
 20
217.8487333783
 10
287.7980269688
 20
217.737841265
 10
287.6609958905
 20
217.6695543655
 10
287.5184811848
 20
217.6464966812
  0
LINE
  5
125
330
1F
100
AcDbEntity
  8
0
  6
Continuous
 62
     7
370
    15
100
AcDbLine
 10
286.5664459962
 20
230.6464969494
 30
0.0
 11
287.5184811848
 21
230.6464969494
 31
0.0
  0
LWPOLYLINE
  5
126
330
1F
100
AcDbEntity
  8
0
  6
Continuous
 62
     7
370
    15
100
AcDbPolyline
 90
        9
 70
   128
 43
0.0
 10
287.5184811848
 20
230.6464969494
 10
287.6609958905
 20
230.6234392651
 10
287.7980269688
 20
230.5551523656
 10
287.9243292111
 20
230.4442602523
 10
288.0350299376
 20
230.295025123
 10
288.1258823174
 20
230.1131811306
 10
288.1933845776
 20
229.90571692
 10
288.2349588174
 20
229.6806050778
 10
288.2489957112
 20
229.4464966596
  0
LINE
  5
127
330
1F
100
AcDbEntity
  8
0
  6
Continuous
 62
     7
370
    15
100
AcDbLine
 10
283.2688637275
 20
230.6464969494
 30
0.0
 11
283.8474758166
 21
230.6464969494
 31
0.0
  0
LINE
  5
128
330
1F
100
AcDbEntity
  8
0
  6
Continuous
 62
     7
370
    15
100
AcDbLine
 10
283.8474758166
 20
217.6464966812
 30
0.0
 11
283.2688637275
 21
217.6464966812
 31
0.0
  0
LINE
  5
129
330
1F
100
AcDbEntity
  8
0
  6
Continuous
 62
     7
370
    15
100
AcDbLine
 10
291.8688602942
 20
229.5464969554
 30
0.0
 11
291.8688602942
 21
228.7464969174
 31
0.0
  0
LINE
  5
12A
330
1F
100
AcDbEntity
  8
0
  6
Continuous
 62
     7
370
    15
100
AcDbLine
 10
293.3688558835
 20
228.7464969174
 30
0.0
 11
293.3688558835
 21
227.2464969043
 31
0.0
  0
LINE
  5
12B
330
1F
100
AcDbEntity
  8
0
  6
Continuous
 62
     7
370
    15
100
AcDbLine
 10
293.3688558835
 20
227.2464969043
 30
0.0
 11
294.1688545245
 21
227.2464969043
 31
0.0
  0
LINE
  5
12C
330
1F
100
AcDbEntity
  8
0
  6
Continuous
 62
     7
370
    15
100
AcDbLine
 10
294.1688545245
 20
227.2464969043
 30
0.0
 11
294.1688545245
 21
228.7464969174
 31
0.0
  0
LINE
  5
12D
330
1F
100
AcDbEntity
  8
0
  6
Continuous
 62
     7
370
    15
100
AcDbLine
 10
294.1688545245
 20
228.7464969174
 30
0.0
 11
295.6688650149
 21
228.7464969174
 31
0.0
  0
LINE
  5
12E
330
1F
100
AcDbEntity
  8
0
  6
Continuous
 62
     7
370
    15
100
AcDbLine
 10
295.6688650149
 20
228.7464969174
 30
0.0
 11
295.6688650149
 21
229.5464969554
 31
0.0
  0
LINE
  5
12F
330
1F
100
AcDbEntity
  8
0
  6
Continuous
 62
     7
370
    15
100
AcDbLine
 10
295.6688650149
 20
229.5464969554
 30
0.0
 11
294.1688545245
 21
229.5464969554
 31
0.0
  0
LINE
  5
130
330
1F
100
AcDbEntity
  8
0
  6
Continuous
 62
     7
370
    15
100
AcDbLine
 10
294.1688545245
 20
229.5464969554
 30
0.0
 11
294.1688545245
 21
231.0464967356
 31
0.0
  0
LINE
  5
131
330
1F
100
AcDbEntity
  8
0
  6
Continuous
 62
     7
370
    15
100
AcDbLine
 10
294.1688545245
 20
231.0464967356
 30
0.0
 11
293.3688558835
 21
231.0464967356
 31
0.0
  0
LINE
  5
132
330
1F
100
AcDbEntity
  8
0
  6
Continuous
 62
     7
370
    15
100
AcDbLine
 10
293.3688558835
 20
231.0464967356
 30
0.0
 11
293.3688558835
 21
229.5464969554
 31
0.0
  0
LINE
  5
133
330
1F
100
AcDbEntity
  8
0
  6
Continuous
 62
     7
370
    15
100
AcDbLine
 10
293.3688558835
 20
229.5464969554
 30
0.0
 11
291.8688602942
 21
229.5464969554
 31
0.0
  0
LINE
  5
134
330
1F
100
AcDbEntity
  8
0
  6
Continuous
 62
     7
370
    15
100
AcDbLine
 10
291.8688602942
 20
228.7464969174
 30
0.0
 11
293.3688558835
 21
228.7464969174
 31
0.0
  0
CIRCLE
  5
135
330
1F
100
AcDbEntity
  8
0
  6
Continuous
 62
     7
370
    15
100
AcDbCircle
 10
293.7688605803
 20
229.1464968153
 30
0.0
 40
3.0
  0
LINE
  5
136
330
1F
100
AcDbEntity
  8
0
  6
Continuous
 62
     7
370
    15
100
AcDbLine
 10
293.3688558835
 20
217.246496895
 30
0.0
 11
294.1688545245
 21
217.246496895
 31
0.0
  0
LINE
  5
137
330
1F
100
AcDbEntity
  8
0
  6
Continuous
 62
     7
370
    15
100
AcDbLine
 10
294.1688545245
 20
217.246496895
 30
0.0
 11
294.1688545245
 21
218.7464966752
 31
0.0
  0
LINE
  5
138
330
1F
100
AcDbEntity
  8
0
  6
Continuous
 62
     7
370
    15
100
AcDbLine
 10
294.1688545245
 20
218.7464966752
 30
0.0
 11
295.6688650149
 21
218.7464966752
 31
0.0
  0
LINE
  5
139
330
1F
100
AcDbEntity
  8
0
  6
Continuous
 62
     7
370
    15
100
AcDbLine
 10
295.6688650149
 20
218.7464966752
 30
0.0
 11
295.6688650149
 21
219.5464967132
 31
0.0
  0
LINE
  5
13A
330
1F
100
AcDbEntity
  8
0
  6
Continuous
 62
     7
370
    15
100
AcDbLine
 10
295.6688650149
 20
219.5464967132
 30
0.0
 11
294.1688545245
 21
219.5464967132
 31
0.0
  0
LINE
  5
13B
330
1F
100
AcDbEntity
  8
0
  6
Continuous
 62
     7
370
    15
100
AcDbLine
 10
294.1688545245
 20
219.5464967132
 30
0.0
 11
294.1688545245
 21
221.0464967263
 31
0.0
  0
LINE
  5
13C
330
1F
100
AcDbEntity
  8
0
  6
Continuous
 62
     7
370
    15
100
AcDbLine
 10
294.1688545245
 20
221.0464967263
 30
0.0
 11
293.3688558835
 21
221.0464967263
 31
0.0
  0
LINE
  5
13D
330
1F
100
AcDbEntity
  8
0
  6
Continuous
 62
     7
370
    15
100
AcDbLine
 10
293.3688558835
 20
221.0464967263
 30
0.0
 11
293.3688558835
 21
219.5464967132
 31
0.0
  0
LINE
  5
13E
330
1F
100
AcDbEntity
  8
0
  6
Continuous
 62
     7
370
    15
100
AcDbLine
 10
293.3688558835
 20
219.5464967132
 30
0.0
 11
291.8688602942
 21
219.5464967132
 31
0.0
  0
LINE
  5
13F
330
1F
100
AcDbEntity
  8
0
  6
Continuous
 62
     7
370
    15
100
AcDbLine
 10
293.3688558835
 20
218.7464966752
 30
0.0
 11
293.3688558835
 21
217.246496895
 31
0.0
  0
LINE
  5
140
330
1F
100
AcDbEntity
  8
0
  6
Continuous
 62
     7
370
    15
100
AcDbLine
 10
291.8688602942
 20
219.5464967132
 30
0.0
 11
291.8688602942
 21
218.7464966752
 31
0.0
  0
CIRCLE
  5
141
330
1F
100
AcDbEntity
  8
0
  6
Continuous
 62
     7
370
    15
100
AcDbCircle
 10
293.7688605803
 20
219.1464968153
 30
0.0
 40
3.0
  0
LINE
  5
142
330
1F
100
AcDbEntity
  8
0
  6
Continuous
 62
     7
370
    15
100
AcDbLine
 10
291.8688602942
 20
218.7464966752
 30
0.0
 11
293.3688558835
 21
218.7464966752
 31
0.0
  0
LINE
  5
143
330
1F
100
AcDbEntity
  8
0
  6
Continuous
 62
     7
370
    15
100
AcDbLine
 10
292.7510984439
 20
213.0446111166
 30
0.0
 11
287.7688653964
 21
217.6464966812
 31
0.0
  0
ARC
  5
144
330
1F
100
AcDbEntity
  8
0
  6
Continuous
 62
     7
370
    15
100
AcDbCircle
 10
283.2688605803
 20
224.1464968153
 30
0.0
 40
15.99999999999999
100
AcDbArc
 50
316.3971810272
 51
43.6028189726
  0
ARC
  5
145
330
1F
100
AcDbEntity
  8
0
  6
Continuous
 62
     7
370
    15
100
AcDbCircle
 10
293.7688605803
 20
214.1464968153
 30
0.0
 40
1.500000000000011
100
AcDbArc
 50
227.2726046868
 51
316.3971810272
  0
LINE
  5
146
330
1F
100
AcDbEntity
  8
0
  6
Continuous
 62
     7
370
    15
100
AcDbLine
 10
287.7688653964
 20
230.6464969494
 30
0.0
 11
292.7510984439
 21
235.248382514
 31
0.0
  0
ARC
  5
147
330
1F
100
AcDbEntity
  8
0
  6
Continuous
 62
     7
370
    15
100
AcDbCircle
 10
293.7688605804
 20
234.1464968153
 30
0.0
 40
1.50000000000001
100
AcDbArc
 50
43.6028189726
 51
132.7273953127
  0
LINE
  5
148
330
1F
100
AcDbEntity
  8
0
  6
Continuous
 62
     7
370
    15
100
AcDbLine
 10
287.5678487319
 20
230.6464969494
 30
0.0
 11
287.7688653964
 21
230.6464969494
 31
0.0
  0
LINE
  5
149
330
1F
100
AcDbEntity
  8
0
  6
Continuous
 62
     7
370
    15
100
AcDbLine
 10
287.7688653964
 20
217.6464966812
 30
0.0
 11
287.5678487319
 21
217.6464966812
 31
0.0
  0
LINE
  5
14A
330
1F
100
AcDbEntity
  8
0
  6
Continuous
 62
     7
370
    15
100
AcDbLine
 10
290.7688565749
 20
409.1464991995
 30
0.0
 11
295.7688667077
 21
409.1464991995
 31
0.0
  0
LINE
  5
14B
330
1F
100
AcDbEntity
  8
0
  6
Continuous
 62
     7
370
    15
100
AcDbLine
 10
290.7688565749
 20
409.1464991995
 30
0.0
 11
290.7688565749
 21
424.1464997955
 31
0.0
  0
LINE
  5
14C
330
1F
100
AcDbEntity
  8
0
  6
Continuous
 62
     7
370
    15
100
AcDbLine
 10
290.7688565749
 20
424.1464997955
 30
0.0
 11
295.7688667077
 21
424.1464997955
 31
0.0
  0
LINE
  5
14D
330
1F
100
AcDbEntity
  8
0
  6
Continuous
 62
     7
370
    15
100
AcDbLine
 10
295.7688667077
 20
409.1464991995
 30
0.0
 11
295.7688667077
 21
424.1464997955
 31
0.0
  0
LINE
  5
14E
330
1F
100
AcDbEntity
  8
0
  6
Continuous
 62
     7
370
    15
100
AcDbLine
 10
295.7688667077
 20
409.1464991995
 30
0.0
 11
310.7688673037
 21
409.1464991995
 31
0.0
  0
ARC
  5
14F
330
1F
100
AcDbEntity
  8
0
  6
Continuous
 62
     7
370
    15
100
AcDbCircle
 10
295.7688605803
 20
409.1464968153
 30
0.0
 40
15.00000000000006
100
AcDbArc
 50
0.0
 51
90.0
  0
LINE
  5
150
330
1F
100
AcDbEntity
  8
0
  6
Continuous
 62
     7
370
    15
100
AcDbLine
 10
310.7688673037
 20
39.1464944311
 30
0.0
 11
310.7688673037
 21
409.1464991995
 31
0.0
  0
LINE
  5
151
330
1F
100
AcDbEntity
  8
0
  6
Continuous
 62
     7
370
    15
100
AcDbLine
 10
295.7688667077
 20
39.1464944311
 30
0.0
 11
310.7688673037
 21
39.1464944311
 31
0.0
  0
LINE
  5
152
330
1F
100
AcDbEntity
  8
0
  6
Continuous
 62
     7
370
    15
100
AcDbLine
 10
295.7688667077
 20
39.1464944311
 30
0.0
 11
295.7688667077
 21
214.159004701
 31
0.0
  0
LINE
  5
153
330
1F
100
AcDbEntity
  8
0
  6
Continuous
 62
     7
370
    15
100
AcDbLine
 10
295.7688667077
 20
234.1339889296
 30
0.0
 11
295.7688667077
 21
409.1464991995
 31
0.0
  0
LINE
  5
154
330
1F
100
AcDbEntity
  8
0
  6
Continuous
 62
     7
370
    15
100
AcDbLine
 10
290.7688565749
 20
233.4174740442
 30
0.0
 11
290.7688565749
 21
409.1464991995
 31
0.0
  0
LINE
  5
155
330
1F
100
AcDbEntity
  8
0
  6
Continuous
 62
     7
370
    15
100
AcDbLine
 10
290.7688565749
 20
39.1464944311
 30
0.0
 11
295.7688667077
 21
39.1464944311
 31
0.0
  0
LINE
  5
156
330
1F
100
AcDbEntity
  8
0
  6
Continuous
 62
     7
370
    15
100
AcDbLine
 10
290.7688565749
 20
39.1464944311
 30
0.0
 11
290.7688565749
 21
214.8755195864
 31
0.0
  0
LINE
  5
157
330
1F
100
AcDbEntity
  8
0
  6
Continuous
 62
     7
370
    15
100
AcDbLine
 10
290.7688565749
 20
24.1464938351
 30
0.0
 11
295.7688667077
 21
24.1464938351
 31
0.0
  0
LINE
  5
158
330
1F
100
AcDbEntity
  8
0
  6
Continuous
 62
     7
370
    15
100
AcDbLine
 10
295.7688667077
 20
39.1464944311
 30
0.0
 11
295.7688667077
 21
24.1464938351
 31
0.0
  0
LINE
  5
159
330
1F
100
AcDbEntity
  8
0
  6
Continuous
 62
     7
370
    15
100
AcDbLine
 10
290.7688565749
 20
39.1464944311
 30
0.0
 11
290.7688565749
 21
24.1464938351
 31
0.0
  0
ARC
  5
15A
330
1F
100
AcDbEntity
  8
0
  6
Continuous
 62
     7
370
    15
100
AcDbCircle
 10
295.7688605803
 20
39.1464968153
 30
0.0
 40
15.00000000000006
100
AcDbArc
 50
270.0
 51
0.0
  0
LINE
  5
15B
330
1F
100
AcDbEntity
  8
0
  6
Continuous
 62
     7
370
    15
100
AcDbLine
 10
273.9797927636
 20
219.4464968831
 30
0.0
 11
273.9797927636
 21
228.0464967095
 31
0.0
  0
LINE
  5
15C
330
1F
100
AcDbEntity
  8
0
  6
Continuous
 62
     7
370
    15
100
AcDbLine
 10
268.4654988545
 20
219.4464968831
 30
0.0
 11
268.4654988545
 21
228.0464967095
 31
0.0
  0
LINE
  5
15D
330
1F
100
AcDbEntity
  8
0
  6
Continuous
 62
     7
370
    15
100
AcDbLine
 10
273.9797927636
 20
228.0464967095
 30
0.0
 11
268.4654988545
 21
228.0464967095
 31
0.0
  0
LINE
  5
15E
330
1F
100
AcDbEntity
  8
0
  6
Continuous
 62
     7
370
    15
100
AcDbLine
 10
273.9797927636
 20
219.4464968831
 30
0.0
 11
268.4654988545
 21
219.4464968831
 31
0.0
  0
LINE
  5
15F
330
1F
100
AcDbEntity
  8
0
  6
Continuous
 62
     7
370
    15
100
AcDbLine
 10
267.3512347239
 20
231.3464966916
 30
0.0
 11
242.5391324061
 21
231.3464966916
 31
0.0
  0
LINE
  5
160
330
1F
100
AcDbEntity
  8
0
  6
Continuous
 62
     7
370
    15
100
AcDbLine
 10
267.3512347239
 20
228.0464967095
 30
0.0
 11
267.3512347239
 21
231.3464966916
 31
0.0
  0
LINE
  5
161
330
1F
100
AcDbEntity
  8
0
  6
Continuous
 62
     7
370
    15
100
AcDbLine
 10
267.3512347239
 20
216.946496939
 30
0.0
 11
267.3512347239
 21
219.4464968831
 31
0.0
  0
LINE
  5
162
330
1F
100
AcDbEntity
  8
0
  6
Continuous
 62
     7
370
    15
100
AcDbLine
 10
242.5391324061
 20
216.946496939
 30
0.0
 11
267.3512347239
 21
216.946496939
 31
0.0
  0
LINE
  5
163
330
1F
100
AcDbEntity
  8
0
  6
Continuous
 62
     7
370
    15
100
AcDbLine
 10
242.5391324061
 20
216.946496939
 30
0.0
 11
242.5391324061
 21
231.3464966916
 31
0.0
  0
LINE
  5
164
330
1F
100
AcDbEntity
  8
0
  6
Continuous
 62
     7
370
    15
100
AcDbLine
 10
267.3512347239
 20
228.0464967095
 30
0.0
 11
268.4654988545
 21
228.0464967095
 31
0.0
  0
LINE
  5
165
330
1F
100
AcDbEntity
  8
0
  6
Continuous
 62
     7
370
    15
100
AcDbLine
 10
267.3512347239
 20
219.4464968831
 30
0.0
 11
268.4654988545
 21
219.4464968831
 31
0.0
  0
LINE
  5
166
330
1F
100
AcDbEntity
  8
0
  6
Continuous
 62
     7
370
    15
100
AcDbLine
 10
267.4788631696
 20
216.149146048
 30
0.0
 11
269.3710871238
 21
216.149146048
 31
0.0
  0
LINE
  5
167
330
1F
100
AcDbEntity
  8
0
  6
Continuous
 62
     7
370
    15
100
AcDbLine
 10
269.3710871238
 20
216.149146048
 30
0.0
 11
270.0438447493
 21
216.1464964353
 31
0.0
  0
LINE
  5
168
330
1F
100
AcDbEntity
  8
0
  6
Continuous
 62
     7
370
    15
100
AcDbLine
 10
270.0438447493
 20
216.1464964353
 30
0.0
 11
242.6780410308
 21
216.1464964353
 31
0.0
  0
ARC
  5
169
330
1F
100
AcDbEntity
  8
0
  6
Continuous
 62
     7
370
    15
100
AcDbCircle
 10
243.7950125686
 20
216.7525025363
 30
0.0
 40
1.270774885943848
100
AcDbArc
 50
171.2189863599
 51
208.481774717
  0
ARC
  5
16A
330
1F
100
AcDbEntity
  8
0
  6
Continuous
 62
     7
370
    15
100
AcDbCircle
 10
268.8254330435
 20
216.7735754646
 30
0.0
 40
1.484305400411344
100
AcDbArc
 50
173.3098537565
 51
204.8780291391
  0
LINE
  5
16B
330
1F
100
AcDbEntity
  8
0
  6
Continuous
 62
     7
370
    15
100
AcDbLine
 10
269.3710871238
 20
232.1438475825
 30
0.0
 11
267.4788631696
 21
232.1438475825
 31
0.0
  0
ARC
  5
16C
330
1F
100
AcDbEntity
  8
0
  6
Continuous
 62
     7
370
    15
100
AcDbCircle
 10
268.8254330435
 20
231.519418166
 30
0.0
 40
1.48430540041134
100
AcDbArc
 50
155.1219708609
 51
186.6901462435
  0
ARC
  5
16D
330
1F
100
AcDbEntity
  8
0
  6
Continuous
 62
     7
370
    15
100
AcDbCircle
 10
243.7950125686
 20
231.5404910943
 30
0.0
 40
1.270774885943839
100
AcDbArc
 50
151.518225283
 51
188.7810136401
  0
LINE
  5
16E
330
1F
100
AcDbEntity
  8
0
  6
Continuous
 62
     7
370
    15
100
AcDbLine
 10
242.6780410308
 20
232.1464971953
 30
0.0
 11
270.0438447493
 21
232.1464971953
 31
0.0
  0
LINE
  5
16F
330
1F
100
AcDbEntity
  8
0
  6
Continuous
 62
     7
370
    15
100
AcDbLine
 10
270.0438447493
 20
232.1464971953
 30
0.0
 11
269.3710871238
 21
232.1438475825
 31
0.0
  0
LINE
  5
170
330
1F
100
AcDbEntity
  8
0
  6
Continuous
 62
     7
370
    15
100
AcDbLine
 10
267.4788631696
 20
231.3464966916
 30
0.0
 11
267.4788631696
 21
232.1438475825
 31
0.0
  0
LINE
  5
171
330
1F
100
AcDbEntity
  8
0
  6
Continuous
 62
     7
370
    15
100
AcDbLine
 10
267.4901582497
 20
231.3464966916
 30
0.0
 11
267.4901582497
 21
228.0464967095
 31
0.0
  0
LINE
  5
172
330
1F
100
AcDbEntity
  8
0
  6
Continuous
 62
     7
370
    15
100
AcDbLine
 10
267.4788631696
 20
216.149146048
 30
0.0
 11
267.4788631696
 21
216.946496939
 31
0.0
  0
LINE
  5
173
330
1F
100
AcDbEntity
  8
0
  6
Continuous
 62
     7
370
    15
100
AcDbLine
 10
267.4901582497
 20
219.4464968831
 30
0.0
 11
267.4901582497
 21
216.946496939
 31
0.0
  0
LINE
  5
174
330
1F
100
AcDbEntity
  8
0
  6
Continuous
 62
     7
370
    15
100
AcDbLine
 10
269.3710871238
 20
231.3464966916
 30
0.0
 11
269.3710871238
 21
232.1438475825
 31
0.0
  0
LINE
  5
175
330
1F
100
AcDbEntity
  8
0
  6
Continuous
 62
     7
370
    15
100
AcDbLine
 10
273.4788604277
 20
232.1464971953
 30
0.0
 11
270.0438447493
 21
232.1464971953
 31
0.0
  0
LINE
  5
176
330
1F
100
AcDbEntity
  8
0
  6
Continuous
 62
     7
370
    15
100
AcDbLine
 10
273.4788604277
 20
231.3464966916
 30
0.0
 11
269.3710871238
 21
231.3464966916
 31
0.0
  0
LINE
  5
177
330
1F
100
AcDbEntity
  8
0
  6
Continuous
 62
     7
370
    15
100
AcDbLine
 10
273.4788604277
 20
216.1464964353
 30
0.0
 11
270.0438447493
 21
216.1464964353
 31
0.0
  0
LINE
  5
178
330
1F
100
AcDbEntity
  8
0
  6
Continuous
 62
     7
370
    15
100
AcDbLine
 10
269.3710871238
 20
216.149146048
 30
0.0
 11
269.3710871238
 21
216.946496939
 31
0.0
  0
LINE
  5
179
330
1F
100
AcDbEntity
  8
0
  6
Continuous
 62
     7
370
    15
100
AcDbLine
 10
273.4788604277
 20
216.946496939
 30
0.0
 11
269.3710871238
 21
216.946496939
 31
0.0
  0
LINE
  5
17A
330
1F
100
AcDbEntity
  8
0
  6
Continuous
 62
     7
370
    15
100
AcDbLine
 10
267.4788631696
 20
231.3464966916
 30
0.0
 11
269.3710871238
 21
231.3464966916
 31
0.0
  0
LINE
  5
17B
330
1F
100
AcDbEntity
  8
0
  6
Continuous
 62
     7
370
    15
100
AcDbLine
 10
267.4788631696
 20
216.946496939
 30
0.0
 11
269.3710871238
 21
216.946496939
 31
0.0
  0
LINE
  5
17C
330
1F
100
AcDbEntity
  8
0
  6
Continuous
 62
     7
370
    15
100
AcDbLine
 10
268.5488559502
 20
232.4464966856
 30
0.0
 11
272.9488559264
 21
232.4464966856
 31
0.0
  0
LINE
  5
17D
330
1F
100
AcDbEntity
  8
0
  6
Continuous
 62
     7
370
    15
100
AcDbLine
 10
268.648857643
 20
215.7464971148
 30
0.0
 11
272.8488542336
 21
215.7464971148
 31
0.0
  0
LINE
  5
17E
330
1F
100
AcDbEntity
  8
0
  6
Continuous
 62
     7
370
    15
100
AcDbLine
 10
268.648857643
 20
215.346496863
 30
0.0
 11
272.8488542336
 21
215.346496863
 31
0.0
  0
LINE
  5
17F
330
1F
100
AcDbEntity
  8
0
  6
Continuous
 62
     7
370
    15
100
AcDbLine
 10
237.6402788061
 20
231.3464966916
 30
0.0
 11
235.6508024234
 21
231.3464966916
 31
0.0
  0
LINE
  5
180
330
1F
100
AcDbEntity
  8
0
  6
Continuous
 62
     7
370
    15
100
AcDbLine
 10
237.6402788061
 20
216.946496939
 30
0.0
 11
237.6402788061
 21
231.3464966916
 31
0.0
  0
LINE
  5
181
330
1F
100
AcDbEntity
  8
0
  6
Continuous
 62
     7
370
    15
100
AcDbLine
 10
235.6508024234
 20
216.946496939
 30
0.0
 11
237.6402788061
 21
216.946496939
 31
0.0
  0
ARC
  5
182
330
1F
100
AcDbEntity
  8
0
  6
Continuous
 62
     7
370
    15
100
AcDbCircle
 10
250.9447595943
 20
224.1464968153
 30
0.0
 40
16.90399728363023
100
AcDbArc
 50
154.7901555355
 51
205.2098444645
  0
SPLINE
  5
183
330
1F
100
AcDbEntity
  8
0
  6
Continuous
 62
     7
370
    15
100
AcDbSpline
210
0.0
220
0.0
230
1.0
 70
     8
 71
     3
 72
    12
 73
     8
 74
     0
 42
0.00000001
 43
0.00000001
 40
0.0
 40
0.0
 40
0.0
 40
0.0
 40
0.1818724424810183
 40
0.3633445516812848
 40
0.5550811285483164
 40
0.7712622896006223
 40
1.0
 40
1.0
 40
1.0
 40
1.0
 10
235.7831768888238
 20
216.1464964353067
 30
0.0
 10
235.8070371996943
 20
216.1538180951799
 30
0.0
 10
235.8547053006885
 20
216.1684452986633
 30
0.0
 10
235.869450243755
 20
216.28043528343
 30
0.0
 10
235.8422181174401
 20
216.4498268400044
 30
0.0
 10
235.7705395085721
 20
216.6782506847613
 30
0.0
 10
235.6914587272668
 20
216.8554148718371
 30
0.0
 10
235.6508024233583
 20
216.946496938966
 30
0.0
  0
LINE
  5
184
330
1F
100
AcDbEntity
  8
0
  6
Continuous
 62
     7
370
    15
100
AcDbLine
 10
235.398816337
 20
216.9009957776
 30
0.0
 11
235.7532628077
 21
216.1464964353
 31
0.0
  0
ARC
  5
185
330
1F
100
AcDbEntity
  8
0
  6
Continuous
 62
     7
370
    15
100
AcDbCircle
 10
250.6694767555
 20
224.1464968153
 30
0.0
 40
16.90237719687147
100
AcDbArc
 50
154.6169692401
 51
205.3830307599
  0
LINE
  5
186
330
1F
100
AcDbEntity
  8
0
  6
Continuous
 62
     7
370
    15
100
AcDbLine
 10
235.7532628077
 20
232.1464971953
 30
0.0
 11
235.398816337
 21
231.391997853
 31
0.0
  0
SPLINE
  5
187
330
1F
100
AcDbEntity
  8
0
  6
Continuous
 62
     7
370
    15
100
AcDbSpline
210
0.0
220
0.0
230
1.0
 70
     8
 71
     3
 72
    12
 73
     8
 74
     0
 42
0.00000001
 43
0.00000001
 40
0.0
 40
0.0
 40
0.0
 40
0.0
 40
0.251021990599481
 40
0.5023977458077202
 40
0.7402765908566765
 40
0.9473178514528033
 40
1.0
 40
1.0
 40
1.0
 40
1.0
 10
235.6508024233583
 20
231.3464966916067
 30
0.0
 10
235.6951200622391
 20
231.4463788093363
 30
0.0
 10
235.7838177967289
 20
231.6462838083924
 30
0.0
 10
235.8588120278397
 20
231.9050188877451
 30
0.0
 10
235.8703011205189
 20
232.0822527082674
 30
0.0
 10
235.8286673292772
 20
232.142695932103
 30
0.0
 10
235.7908481164395
 20
232.1458561736654
 30
0.0
 10
235.7831768888238
 20
232.1464971952659
 30
0.0
  0
LINE
  5
188
330
1F
100
AcDbEntity
  8
0
  6
Continuous
 62
     7
370
    15
100
AcDbLine
 10
235.7831768888
 20
232.1464971953
 30
0.0
 11
235.7532628077
 21
232.1464971953
 31
0.0
  0
LINE
  5
189
330
1F
100
AcDbEntity
  8
0
  6
Continuous
 62
     7
370
    15
100
AcDbLine
 10
235.7831768888
 20
216.1464964353
 30
0.0
 11
235.7532628077
 21
216.1464964353
 31
0.0
  0
LWPOLYLINE
  5
18A
330
1F
100
AcDbEntity
  8
0
  6
Continuous
 62
     7
370
    15
100
AcDbPolyline
 90
        9
 70
   128
 43
0.0
 10
237.6402788061
 20
231.3464966916
 10
237.6350186962
 20
231.5025691256
 10
237.6194544333
 20
231.6526433766
 10
237.5941671628
 20
231.7909531609
 10
237.5601403612
 20
231.9121820234
 10
237.5186778802
 20
232.0116724201
 10
237.471374144
 20
232.0856008061
 10
237.4200396436
 20
232.1311247848
 10
237.3666636842
 20
232.1464971953
  0
LINE
  5
18B
330
1F
100
AcDbEntity
  8
0
  6
Continuous
 62
     7
370
    15
100
AcDbLine
 10
235.7831768888
 20
232.1464971953
 30
0.0
 11
237.3666636842
 21
232.1464971953
 31
0.0
  0
LWPOLYLINE
  5
18C
330
1F
100
AcDbEntity
  8
0
  6
Continuous
 62
     7
370
    15
100
AcDbPolyline
 90
        9
 70
   128
 43
0.0
 10
237.6402788061
 20
216.946496939
 10
237.6350186962
 20
216.7904245049
 10
237.6194544333
 20
216.6403502539
 10
237.5941671628
 20
216.5020404697
 10
237.5601403612
 20
216.3808116071
 10
237.5186778802
 20
216.2813212105
 10
237.471374144
 20
216.2073928245
 10
237.4200396436
 20
216.1618688457
 10
237.3666636842
 20
216.1464964353
  0
LINE
  5
18D
330
1F
100
AcDbEntity
  8
0
  6
Continuous
 62
     7
370
    15
100
AcDbLine
 10
237.3666636842
 20
216.1464964353
 30
0.0
 11
235.7831768888
 21
216.1464964353
 31
0.0
  0
LINE
  5
18E
330
1F
100
AcDbEntity
  8
0
  6
Continuous
 62
     7
370
    15
100
AcDbLine
 10
237.6402788061
 20
216.946496939
 30
0.0
 11
242.5391324061
 21
216.946496939
 31
0.0
  0
LINE
  5
18F
330
1F
100
AcDbEntity
  8
0
  6
Continuous
 62
     7
370
    15
100
AcDbLine
 10
242.6780410308
 20
216.1464964353
 30
0.0
 11
237.3666636842
 21
216.1464964353
 31
0.0
  0
LINE
  5
190
330
1F
100
AcDbEntity
  8
0
  6
Continuous
 62
     7
370
    15
100
AcDbLine
 10
242.5391324061
 20
231.3464966916
 30
0.0
 11
237.6402788061
 21
231.3464966916
 31
0.0
  0
LINE
  5
191
330
1F
100
AcDbEntity
  8
0
  6
Continuous
 62
     7
370
    15
100
AcDbLine
 10
237.3666636842
 20
232.1464971953
 30
0.0
 11
242.6780410308
 21
232.1464971953
 31
0.0
  0
SPLINE
  5
192
330
1F
100
AcDbEntity
  8
0
  6
Continuous
 62
     7
370
    15
100
AcDbSpline
210
0.0
220
0.0
230
1.0
 70
     8
 71
     3
 72
    16
 73
    12
 74
     0
 42
0.00000001
 43
0.00000001
 40
0.0
 40
0.0
 40
0.0
 40
0.0
 40
0.1207070531243421
 40
0.2414137250683165
 40
0.3621183132786754
 40
0.4828246040701146
 40
0.6035303315304228
 40
0.7242369722230317
 40
0.844942285925011
 40
0.9656485761664468
 40
1.0
 40
1.0
 40
1.0
 40
1.0
 10
268.9211614626649
 20
211.1941253148538
 30
0.0
 10
268.9405625237437
 20
211.1967976475352
 30
0.0
 10
268.9793645846347
 20
211.2021423044591
 30
0.0
 10
268.9842857752138
 20
211.4930838767562
 30
0.0
 10
268.9470787919917
 20
211.9464350629316
 30
0.0
 10
268.870148310807
 20
212.513953025384
 30
0.0
 10
268.7663455556215
 20
213.1022827143199
 30
0.0
 10
268.6502497453066
 20
213.6289766120507
 30
0.0
 10
268.5432379599744
 20
213.9922664096873
 30
0.0
 10
268.4706647118341
 20
214.162731774025
 30
0.0
 10
268.4511142070527
 20
214.1295811852165
 30
0.0
 10
268.4467829960587
 20
214.1222370170576
 30
0.0
  0
SPLINE
  5
193
330
1F
100
AcDbEntity
  8
0
  6
Continuous
 62
     7
370
    15
100
AcDbSpline
210
0.0
220
0.0
230
1.0
 70
     8
 71
     3
 72
    16
 73
    12
 74
     0
 42
0.00000001
 43
0.00000001
 40
0.0
 40
0.0
 40
0.0
 40
0.0
 40
0.1205801117693137
 40
0.2411627993607534
 40
0.3617456229861761
 40
0.4823270760694062
 40
0.6029089089452132
 40
0.7234908561383292
 40
0.8440740407054289
 40
0.9646563804077264
 40
1.0
 40
1.0
 40
1.0
 40
1.0
 10
269.0917499560121
 20
237.0701491214854
 30
0.0
 10
269.1111510601162
 20
237.067476262074
 30
0.0
 10
269.1499536827692
 20
237.0621304861538
 30
0.0
 10
269.1548736853222
 20
236.7711868068124
 30
0.0
 10
269.1176686768821
 20
236.3178471196164
 30
0.0
 10
269.0407347844629
 20
235.7503202575944
 30
0.0
 10
268.9369399701932
 20
235.1619841648485
 30
0.0
 10
268.8208171780933
 20
234.6353325506408
 30
0.0
 10
268.7138106291288
 20
234.2718575975471
 30
0.0
 10
268.6410453072563
 20
234.101310481645
 30
0.0
 10
268.6214059053177
 20
234.1348958894481
 30
0.0
 10
268.6169542568925
 20
234.1425086685044
 30
0.0
  0
SPLINE
  5
194
330
1F
100
AcDbEntity
  8
0
  6
Continuous
 62
     7
370
    15
100
AcDbSpline
210
0.0
220
0.0
230
1.0
 70
     8
 71
     3
 72
    16
 73
    12
 74
     0
 42
0.00000001
 43
0.00000001
 40
0.0
 40
0.0
 40
0.0
 40
0.0
 40
0.1205148424821132
 40
0.2410323481426077
 40
0.3615497551012202
 40
0.4820659381712046
 40
0.6025825008281868
 40
0.7230985877221322
 40
0.8436170600217838
 40
0.9641341569043859
 40
1.0
 40
1.0
 40
1.0
 40
1.0
 10
284.4621338146928
 20
213.8105438404304
 30
0.0
 10
284.4815349040848
 20
213.813216620403
 30
0.0
 10
284.5203375116006
 20
213.8185622394122
 30
0.0
 10
284.5252577144441
 20
214.1095071685465
 30
0.0
 10
284.4880519431844
 20
214.5628461764428
 30
0.0
 10
284.4111207051228
 20
215.1303715020661
 30
0.0
 10
284.3073163116496
 20
215.7187125408821
 30
0.0
 10
284.1912299309622
 20
216.245341942987
 30
0.0
 10
284.0841737005437
 20
216.6089140000442
 30
0.0
 10
284.0113238171248
 20
216.7795068689288
 30
0.0
 10
283.9916310587287
 20
216.7456918987069
 30
0.0
 10
283.9871145981553
 20
216.7379365616066
 30
0.0
  0
SPLINE
  5
195
330
1F
100
AcDbEntity
  8
0
  6
Continuous
 62
     7
370
    15
100
AcDbSpline
210
0.0
220
0.0
230
1.0
 70
     8
 71
     3
 72
    16
 73
    12
 74
     0
 42
0.00000001
 43
0.00000001
 40
0.0
 40
0.0
 40
0.0
 40
0.0
 40
0.1205150371703303
 40
0.2410323901404705
 40
0.3615497331592661
 40
0.4820660331506881
 40
0.6025825318683011
 40
0.7230991448412833
 40
0.84361699451781
 40
0.9641311231318558
 40
1.0
 40
1.0
 40
1.0
 40
1.0
 10
284.6327074068788
 20
234.4537305959088
 30
0.0
 10
284.6521148044864
 20
234.4510577981481
 30
0.0
 10
284.6909299726314
 20
234.4457121512665
 30
0.0
 10
284.6958450274558
 20
234.154768384391
 30
0.0
 10
284.658641139075
 20
233.7014288404197
 30
0.0
 10
284.5817073981524
 20
233.1339034687769
 30
0.0
 10
284.4779114122986
 20
232.5455599566218
 30
0.0
 10
284.3617929600894
 20
232.0189353133237
 30
0.0
 10
284.2547710226215
 20
231.6553624937045
 30
0.0
 10
284.1819094340531
 20
231.4847679161263
 30
0.0
 10
284.1622193246325
 20
231.5185824505104
 30
0.0
 10
284.1577030915025
 20
231.5263383403939
 30
0.0
  0
SPLINE
  5
196
330
1F
100
AcDbEntity
  8
0
  6
Continuous
 62
     7
370
    15
100
AcDbSpline
210
0.0
220
0.0
230
1.0
 70
    24
 71
     3
 72
    16
 73
    12
 74
     0
 42
0.00000001
 43
0.00000001
 40
0.0
 40
0.0
 40
0.0
 40
0.0
 40
0.0611072070307172
 40
0.1864695523413118
 40
0.3118318800989477
 40
0.437197307337809
 40
0.5625588331420234
 40
0.6879199714778226
 40
0.8132845450596796
 40
0.9386470294936377
 40
1.0
 40
1.0
 40
1.0
 40
1.0
 10
287.539044787288
 20
217.2802610636276
 30
0.0
 10
287.5448181808105
 20
217.2802610636276
 30
0.0
 10
287.5624357771289
 20
217.2802610636276
 30
0.0
 10
287.3440000350467
 20
217.2802610636276
 30
0.0
 10
286.9312618757012
 20
217.2802610636276
 30
0.0
 10
286.3747906484118
 20
217.2802610636276
 30
0.0
 10
285.7756899603121
 20
217.2802610636276
 30
0.0
 10
285.2169831965821
 20
217.2802610636276
 30
0.0
 10
284.800040027589
 20
217.2802610636276
 30
0.0
 10
284.5770374329088
 20
217.2802610636276
 30
0.0
 10
284.5918528828551
 20
217.2802610636276
 30
0.0
 10
284.5967211025956
 20
217.2802610636276
 30
0.0
  0
SPLINE
  5
197
330
1F
100
AcDbEntity
  8
0
  6
Continuous
 62
     7
370
    15
100
AcDbSpline
210
0.0
220
0.0
230
1.0
 70
    24
 71
     3
 72
    16
 73
    12
 74
     0
 42
0.00000001
 43
0.00000001
 40
0.0
 40
0.0
 40
0.0
 40
0.0
 40
0.0610096471282254
 40
0.1861718468458703
 40
0.3113340290385807
 40
0.4364993057640805
 40
0.5616606872837173
 40
0.6868216819535465
 40
0.8119861063849371
 40
0.9371484450038299
 40
1.0
 40
1.0
 40
1.0
 40
1.0
 10
287.539044787288
 20
230.8388918951673
 30
0.0
 10
287.5448181745977
 20
230.8388918951673
 30
0.0
 10
287.5624357519579
 20
230.8388918951673
 30
0.0
 10
287.3440002684053
 20
230.8388918951673
 30
0.0
 10
286.9312610207007
 20
230.8388918951673
 30
0.0
 10
286.3747938350987
 20
230.8388918951673
 30
0.0
 10
285.7756780690147
 20
230.8388918951673
 30
0.0
 10
285.2170275756064
 20
230.8388918951673
 30
0.0
 10
284.7998743989828
 20
230.8388918951673
 30
0.0
 10
284.5763828358109
 20
230.8388918951673
 30
0.0
 10
284.5916032398085
 20
230.8388918951673
 30
0.0
 10
284.5966913002732
 20
230.8388918951673
 30
0.0
  0
SPLINE
  5
198
330
1F
100
AcDbEntity
  8
0
  6
Continuous
 62
     7
370
    15
100
AcDbSpline
210
0.0
220
0.0
230
1.0
 70
     8
 71
     3
 72
    19
 73
    15
 74
     0
 42
0.00000001
 43
0.00000001
 40
0.0
 40
0.0
 40
0.0
 40
0.0
 40
0.0039536756518888
 40
0.1157672013349517
 40
0.2280451734193904
 40
0.3355211922199999
 40
0.4377094308195236
 40
0.5348850338918305
 40
0.6283071265472816
 40
0.7303027274472055
 40
0.841341399729053
 40
0.9641267059313875
 40
0.9937688028102243
 40
0.9999999999999999
 40
0.9999999999999999
 40
0.9999999999999999
 40
0.9999999999999999
 10
273.8671399849656
 20
229.7464966156108
 30
0.0
 10
273.8675322444585
 20
229.7464910009184
 30
0.0
 10
273.8790179574212
 20
229.7463265976429
 30
0.0
 10
273.9023411516463
 20
229.7311956502444
 30
0.0
 10
273.9458054675467
 20
229.6643007809849
 30
0.0
 10
273.9837936921931
 20
229.5596034436228
 30
0.0
 10
274.0072715033437
 20
229.4345255199997
 30
0.0
 10
274.0186120058292
 20
229.3060916607662
 30
0.0
 10
274.0192201993462
 20
229.1849152478988
 30
0.0
 10
274.0034224828946
 20
229.0756919809874
 30
0.0
 10
273.9630496304539
 20
228.9862735944671
 30
0.0
 10
273.9111865306973
 20
228.9512201587444
 30
0.0
 10
273.8764777335677
 20
228.9466099990439
 30
0.0
 10
273.86852191243
 20
228.9465137600104
 30
0.0
 10
273.8671399849656
 20
228.9464970432741
 30
0.0
  0
SPLINE
  5
199
330
1F
100
AcDbEntity
  8
0
  6
Continuous
 62
     7
370
    15
100
AcDbSpline
210
0.0
220
0.0
230
1.0
 70
     8
 71
     3
 72
    30
 73
    26
 74
     0
 42
0.00000001
 43
0.00000001
 40
0.0
 40
0.0
 40
0.0
 40
0.0
 40
0.1247124912642551
 40
0.2494144779370866
 40
0.3741199709553759
 40
0.4367833607455177
 40
0.4681526286820572
 40
0.4838403587050609
 40
0.4916928673866576
 40
0.4956114221914663
 40
0.4975704101842082
 40
0.4985498860909721
 40
0.4990398556235057
 40
0.4992846812798353
 40
0.4994071374951808
 40
0.4994683223493825
 40
0.499504732561544
 40
0.4995172061560401
 40
0.4995296797505361
 40
0.5609164780560348
 40
0.6646178626118237
 40
0.7325801034117178
 40
0.811143560161077
 40
0.900298206435509
 40
1.0
 40
1.0
 40
1.0
 40
1.0
 10
273.9388294714692
 20
229.8063885734004
 30
0.0
 10
273.9445992135032
 20
229.8045959469865
 30
0.0
 10
273.9561382115832
 20
229.8010108451524
 30
0.0
 10
274.0459847686701
 20
229.7791695715766
 30
0.0
 10
274.1534468403153
 20
229.7534876704067
 30
0.0
 10
274.2390012483917
 20
229.7330780129987
 30
0.0
 10
274.2831061734997
 20
229.7225452363736
 30
0.0
 10
274.305333185628
 20
229.7172214872102
 30
0.0
 10
274.3164681494082
 20
229.7145619417892
 30
0.0
 10
274.3220374577331
 20
229.7132253173072
 30
0.0
 10
274.3248190750175
 20
229.7125580686894
 30
0.0
 10
274.3262102662357
 20
229.7122246502615
 30
0.0
 10
274.3269052951624
 20
229.7120575885786
 30
0.0
 10
274.327252948457
 20
229.7119734979171
 30
0.0
 10
274.3274271546594
 20
229.7119334344617
 30
0.0
 10
274.3275157851372
 20
229.7119093068688
 30
0.0
 10
274.3275615453957
 20
229.711903269229
 30
0.0
 10
274.3275858502499
 20
229.711895126071
 30
0.0
 10
274.3520658948355
 20
229.7043545120428
 30
0.0
 10
274.4202547841378
 20
229.6924495051276
 30
0.0
 10
274.5107150140092
 20
229.6715507866011
 30
0.0
 10
274.5943581645391
 20
229.6545511558117
 30
0.0
 10
274.6578784787383
 20
229.6416269603211
 30
0.0
 10
274.7084054797764
 20
229.6319926254879
 30
0.0
 10
274.7156284987505
 20
229.6315292103775
 30
0.0
 10
274.7194417017701
 20
229.6312845625502
 30
0.0
  0
ELLIPSE
  5
19A
330
1F
100
AcDbEntity
  8
0
  6
Continuous
 62
     7
370
    15
100
AcDbEllipse
 10
274.5959689741
 20
230.928471994
 30
0.0
 11
0.3906095144045594
 21
-0.08616383961160068
 31
0.0
210
0.0
220
0.0
230
1.0
 40
0.0142285888
 41
0.0
 42
6.283185307179586
  0
LINE
  5
19B
330
1F
100
AcDbEntity
  8
0
  6
Continuous
 62
     7
370
    15
100
AcDbLine
 10
273.7688668269
 20
218.3964968041
 30
0.0
 11
273.7688668269
 21
217.3964966402
 31
0.0
  0
LINE
  5
19C
330
1F
100
AcDbEntity
  8
0
  6
Continuous
 62
     7
370
    15
100
AcDbLine
 10
267.5688661832
 20
218.3964968041
 30
0.0
 11
267.5688661832
 21
217.3964966402
 31
0.0
  0
LINE
  5
19D
330
1F
100
AcDbEntity
  8
0
  6
Continuous
 62
     7
370
    15
100
AcDbLine
 10
273.7688668269
 20
217.3964966402
 30
0.0
 11
267.5688661832
 21
217.3964966402
 31
0.0
  0
LINE
  5
19E
330
1F
100
AcDbEntity
  8
0
  6
Continuous
 62
     7
370
    15
100
AcDbLine
 10
273.7688668269
 20
218.3964968041
 30
0.0
 11
267.5688661832
 21
218.3964968041
 31
0.0
  0
LINE
  5
19F
330
1F
100
AcDbEntity
  8
0
  6
Continuous
 62
     7
370
    15
100
AcDbLine
 10
273.7688668269
 20
230.8964969904
 30
0.0
 11
273.7688668269
 21
229.8964968265
 31
0.0
  0
LINE
  5
1A0
330
1F
100
AcDbEntity
  8
0
  6
Continuous
 62
     7
370
    15
100
AcDbLine
 10
267.5688661832
 20
230.8964969904
 30
0.0
 11
267.5688661832
 21
229.8964968265
 31
0.0
  0
LINE
  5
1A1
330
1F
100
AcDbEntity
  8
0
  6
Continuous
 62
     7
370
    15
100
AcDbLine
 10
273.7688668269
 20
229.8964968265
 30
0.0
 11
267.5688661832
 21
229.8964968265
 31
0.0
  0
LINE
  5
1A2
330
1F
100
AcDbEntity
  8
0
  6
Continuous
 62
     7
370
    15
100
AcDbLine
 10
273.7688668269
 20
230.8964969904
 30
0.0
 11
267.5688661832
 21
230.8964969904
 31
0.0
  0
LWPOLYLINE
  5
1A3
330
1F
100
AcDbEntity
  8
0
  6
Continuous
 62
     7
370
    15
100
AcDbPolyline
 90
        3
 70
   128
 43
0.0
 10
267.4901582497
 20
217.785358274
 10
267.4927361506
 20
217.7791803457
 10
267.5688661832
 20
217.3964966402
  0
LWPOLYLINE
  5
1A4
330
1F
100
AcDbEntity
  8
0
  6
Continuous
 62
     7
370
    15
100
AcDbPolyline
 90
        3
 70
   128
 43
0.0
 10
267.5688661832
 20
230.8964969904
 10
267.4927361506
 20
230.5138132848
 10
267.4901582497
 20
230.5076353565
  0
LINE
  5
1A5
330
1F
100
AcDbEntity
  8
0
  6
Continuous
 62
     7
370
    15
100
AcDbLine
 10
273.7688668269
 20
229.8964968265
 30
0.0
 11
273.7688668269
 21
229.7464966156
 31
0.0
  0
LINE
  5
1A6
330
1F
100
AcDbEntity
  8
0
  6
Continuous
 62
     7
370
    15
100
AcDbLine
 10
273.7688668269
 20
228.9464970433
 30
0.0
 11
273.7688668269
 21
228.0464967095
 31
0.0
  0
LINE
  5
1A7
330
1F
100
AcDbEntity
  8
0
  6
Continuous
 62
     7
370
    15
100
AcDbLine
 10
273.7688668269
 20
219.4464968831
 30
0.0
 11
273.7688668269
 21
218.3964968041
 31
0.0
  0
LINE
  5
1A8
330
1F
100
AcDbEntity
  8
0
  6
Continuous
 62
     7
370
    15
100
AcDbLine
 10
125.7688602629
 20
39.1464944311
 30
0.0
 11
110.7688605982
 21
39.1464944311
 31
0.0
  0
LINE
  5
1A9
330
1F
100
AcDbEntity
  8
0
  6
Continuous
 62
     7
370
    15
100
AcDbLine
 10
125.7688602629
 20
39.1464944311
 30
0.0
 11
125.7688602629
 21
24.1464938351
 31
0.0
  0
ARC
  5
1AA
330
1F
100
AcDbEntity
  8
0
  6
Continuous
 62
     7
370
    15
100
AcDbCircle
 10
125.7688605803
 20
39.1464968153
 30
0.0
 40
15.00000000000001
100
AcDbArc
 50
180.0
 51
270.0
  0
LINE
  5
1AB
330
1F
100
AcDbEntity
  8
0
  6
Continuous
 62
     7
370
    15
100
AcDbLine
 10
110.7688605982
 20
409.1464991995
 30
0.0
 11
125.7688602629
 21
409.1464991995
 31
0.0
  0
LINE
  5
1AC
330
1F
100
AcDbEntity
  8
0
  6
Continuous
 62
     7
370
    15
100
AcDbLine
 10
125.7688602629
 20
409.1464991995
 30
0.0
 11
125.7688602629
 21
39.1464944311
 31
0.0
  0
LINE
  5
1AD
330
1F
100
AcDbEntity
  8
0
  6
Continuous
 62
     7
370
    15
100
AcDbLine
 10
110.7688605982
 20
409.1464991995
 30
0.0
 11
110.7688605982
 21
39.1464944311
 31
0.0
  0
ARC
  5
1AE
330
1F
100
AcDbEntity
  8
0
  6
Continuous
 62
     7
370
    15
100
AcDbCircle
 10
125.7688605803
 20
409.1464968153
 30
0.0
 40
15.0
100
AcDbArc
 50
90.0
 51
180.0
  0
LINE
  5
1AF
330
1F
100
AcDbEntity
  8
0
  6
Continuous
 62
     7
370
    15
100
AcDbLine
 10
125.7688602629
 20
424.1464997955
 30
0.0
 11
125.7688602629
 21
409.1464991995
 31
0.0
  0
LINE
  5
1B0
330
1F
100
AcDbEntity
  8
0
  6
Continuous
 62
     7
370
    15
100
AcDbLine
 10
286.7688633698
 20
39.1464944311
 30
0.0
 11
286.7688633698
 21
24.1464938351
 31
0.0
  0
LINE
  5
1B1
330
1F
100
AcDbEntity
  8
0
  6
Continuous
 62
     7
370
    15
100
AcDbLine
 10
286.7688633698
 20
24.1464938351
 30
0.0
 11
125.7688602629
 21
24.1464938351
 31
0.0
  0
LINE
  5
1B2
330
1F
100
AcDbEntity
  8
0
  6
Continuous
 62
     7
370
    15
100
AcDbLine
 10
286.7688633698
 20
39.1464944311
 30
0.0
 11
125.7688602629
 21
39.1464944311
 31
0.0
  0
LINE
  5
1B3
330
1F
100
AcDbEntity
  8
0
  6
Continuous
 62
     7
370
    15
100
AcDbLine
 10
286.7688633698
 20
424.1464997955
 30
0.0
 11
286.7688633698
 21
409.1464991995
 31
0.0
  0
LINE
  5
1B4
330
1F
100
AcDbEntity
  8
0
  6
Continuous
 62
     7
370
    15
100
AcDbLine
 10
286.7688633698
 20
409.1464991995
 30
0.0
 11
125.7688602629
 21
409.1464991995
 31
0.0
  0
LINE
  5
1B5
330
1F
100
AcDbEntity
  8
0
  6
Continuous
 62
     7
370
    15
100
AcDbLine
 10
286.7688633698
 20
424.1464997955
 30
0.0
 11
125.7688602629
 21
424.1464997955
 31
0.0
  0
LINE
  5
1B6
330
1F
100
AcDbEntity
  8
0
  6
Continuous
 62
     7
370
    15
100
AcDbLine
 10
286.7688633698
 20
39.1464944311
 30
0.0
 11
286.7688633698
 21
215.1385893427
 31
0.0
  0
LINE
  5
1B7
330
1F
100
AcDbEntity
  8
0
  6
Continuous
 62
     7
370
    15
100
AcDbLine
 10
286.7688633698
 20
233.1224263959
 30
0.0
 11
286.7688633698
 21
409.1464991995
 31
0.0
  0
LINE
  5
1B8
330
1F
100
AcDbEntity
  8
0
  6
Continuous
 62
     7
370
    15
100
AcDbLine
 10
130.7688601512
 20
404.1465039678
 30
0.0
 11
130.7688601512
 21
44.1464896627
 31
0.0
  0
LINE
  5
1B9
330
1F
100
AcDbEntity
  8
0
  6
Continuous
 62
     7
370
    15
100
AcDbLine
 10
266.7688675421
 20
44.1464896627
 30
0.0
 11
130.7688601512
 21
44.1464896627
 31
0.0
  0
LINE
  5
1BA
330
1F
100
AcDbEntity
  8
0
  6
Continuous
 62
     7
370
    15
100
AcDbLine
 10
266.7688675421
 20
44.1464896627
 30
0.0
 11
266.7688675421
 21
211.3339503609
 31
0.0
  0
LINE
  5
1BB
330
1F
100
AcDbEntity
  8
0
  6
Continuous
 62
     7
370
    15
100
AcDbLine
 10
266.7688675421
 20
214.6737364434
 30
0.0
 11
266.7688675421
 21
216.1464964353
 31
0.0
  0
LINE
  5
1BC
330
1F
100
AcDbEntity
  8
0
  6
Continuous
 62
     7
370
    15
100
AcDbLine
 10
266.7688675421
 20
232.1464971953
 30
0.0
 11
266.7688675421
 21
233.6058992275
 31
0.0
  0
LINE
  5
1BD
330
1F
100
AcDbEntity
  8
0
  6
Continuous
 62
     7
370
    15
100
AcDbLine
 10
266.7688675421
 20
236.9486152508
 30
0.0
 11
266.7688675421
 21
404.1465039678
 31
0.0
  0
LINE
  5
1BE
330
1F
100
AcDbEntity
  8
0
  6
Continuous
 62
     7
370
    15
100
AcDbLine
 10
266.7688675421
 20
404.1465039678
 30
0.0
 11
130.7688601512
 21
404.1465039678
 31
0.0
  0
LINE
  5
1BF
330
1F
100
AcDbEntity
  8
0
  6
Continuous
 62
     7
370
    15
100
AcDbLine
 10
290.7688565749
 20
419.1464896627
 30
0.0
 11
286.7688633698
 21
419.1464896627
 31
0.0
  0
LINE
  5
1C0
330
1F
100
AcDbEntity
  8
0
  6
Continuous
 62
     7
370
    15
100
AcDbLine
 10
290.7688565749
 20
404.1465039678
 30
0.0
 11
286.7688633698
 21
404.1465039678
 31
0.0
  0
LINE
  5
1C1
330
1F
100
AcDbEntity
  8
0
  6
Continuous
 62
     7
370
    15
100
AcDbLine
 10
290.7688565749
 20
44.1464896627
 30
0.0
 11
286.7688633698
 21
44.1464896627
 31
0.0
  0
LINE
  5
1C2
330
1F
100
AcDbEntity
  8
0
  6
Continuous
 62
     7
370
    15
100
AcDbLine
 10
290.7688565749
 20
29.1465039678
 30
0.0
 11
286.7688633698
 21
29.1465039678
 31
0.0
  0
LINE
  5
1C3
330
1F
100
AcDbEntity
  8
0
  6
Continuous
 62
     7
370
    15
100
AcDbLine
 10
434.7810358179
 20
465.9157054829
 30
0.0
 11
435.9810263289
 21
465.9157054829
 31
0.0
  0
LINE
  5
1C4
330
1F
100
AcDbEntity
  8
0
  6
Continuous
 62
     7
370
    15
100
AcDbLine
 10
434.6810341252
 20
468.4157179999
 30
0.0
 11
434.7810358179
 21
468.4157179999
 31
0.0
  0
LINE
  5
1C5
330
1F
100
AcDbEntity
  8
0
  6
Continuous
 62
     7
370
    15
100
AcDbLine
 10
434.7810358179
 20
474.4157152581
 30
0.0
 11
434.6810341252
 21
474.4157152581
 31
0.0
  0
LINE
  5
1C6
330
1F
100
AcDbEntity
  8
0
  6
Continuous
 62
     7
370
    15
100
AcDbLine
 10
430.5327892674
 20
531.4157115626
 30
0.0
 11
429.7810256851
 21
531.1420964408
 31
0.0
  0
SPLINE
  5
1C7
330
1F
100
AcDbEntity
  8
0
  6
Continuous
 62
     7
370
    15
100
AcDbSpline
210
0.0
220
0.0
230
1.0
 70
     8
 71
     3
 72
    15
 73
    11
 74
     0
 42
0.00000001
 43
0.00000001
 40
0.0
 40
0.0
 40
0.0
 40
0.0
 40
0.125074499924387
 40
0.2501516692649175
 40
0.3752905641832175
 40
0.5003035483229457
 40
0.6252869974192125
 40
0.750261894866806
 40
0.8750782123739566
 40
1.0
 40
1.0
 40
1.0
 40
1.0
 10
433.5954696310269
 20
496.4735465454698
 30
0.0
 10
433.5693445223132
 20
496.7323080002559
 30
0.0
 10
433.5170937473077
 20
497.2498364324728
 30
0.0
 10
433.4382285976241
 20
498.030948769078
 30
0.0
 10
433.3637938395422
 20
498.7681245478415
 30
0.0
 10
433.2968048187061
 20
499.4317046770286
 30
0.0
 10
433.2406967631985
 20
499.9874579051121
 30
0.0
 10
433.1981555886156
 20
500.4085683123574
 30
0.0
 10
433.1693291137907
 20
500.6941596438428
 30
0.0
 10
433.1649865930879
 20
500.7372025383672
 30
0.0
 10
433.1628144157635
 20
500.7587330746294
 30
0.0
  0
SPLINE
  5
1C8
330
1F
100
AcDbEntity
  8
0
  6
Continuous
 62
     7
370
    15
100
AcDbSpline
210
0.0
220
0.0
230
1.0
 70
     8
 71
     3
 72
    15
 73
    11
 74
     0
 42
0.00000001
 43
0.00000001
 40
0.0
 40
0.0
 40
0.0
 40
0.0
 40
0.1249397545687668
 40
0.2497689716098376
 40
0.3747513451397773
 40
0.4997368520237183
 40
0.6247482439871135
 40
0.7498805481573699
 40
0.8749437638082046
 40
1.0
 40
1.0
 40
1.0
 40
1.0
 10
430.1785737646329
 20
500.4573570894838
 30
0.0
 10
430.1807504798088
 20
500.4357757750031
 30
0.0
 10
430.1851019843627
 20
500.3926322396055
 30
0.0
 10
430.2139481436915
 20
500.1069248475598
 30
0.0
 10
430.2564839676609
 20
499.6857395051409
 30
0.0
 10
430.3125921973321
 20
499.129970367632
 30
0.0
 10
430.3795861347427
 20
498.4664369302444
 30
0.0
 10
430.4539982284215
 20
497.7293864498322
 30
0.0
 10
430.5328560095205
 20
496.9484780746454
 30
0.0
 10
430.5850852740332
 20
496.4311236676338
 30
0.0
 10
430.6111991775738
 20
496.172453682387
 30
0.0
  0
LINE
  5
1C9
330
1F
100
AcDbEntity
  8
0
  6
Continuous
 62
     7
370
    15
100
AcDbLine
 10
430.6109160555
 20
496.1723195719
 30
0.0
 11
432.1799934281
 21
480.6313472199
 31
0.0
  0
LINE
  5
1CA
330
1F
100
AcDbEntity
  8
0
  6
Continuous
 62
     7
370
    15
100
AcDbLine
 10
435.1648152245
 20
480.9327083039
 30
0.0
 11
433.5957527531
 21
496.4736806559
 31
0.0
  0
SPLINE
  5
1CB
330
1F
100
AcDbEntity
  8
0
  6
Continuous
 62
     7
370
    15
100
AcDbSpline
210
0.0
220
0.0
230
1.0
 70
     8
 71
     3
 72
     9
 73
     5
 74
     0
 42
0.00000001
 43
0.00000001
 40
0.0
 40
0.0
 40
0.0
 40
0.0
 40
0.4837390865861517
 40
1.0
 40
1.0
 40
1.0
 40
1.0
 10
432.3500752819287
 20
478.9499746966005
 30
0.0
 10
432.3595358476744
 20
478.8857426599137
 30
0.0
 10
432.3790930139402
 20
478.7529602603353
 30
0.0
 10
432.4129357566573
 20
478.7168185341556
 30
0.0
 10
432.4304074419247
 20
478.6981599735857
 30
0.0
  0
SPLINE
  5
1CC
330
1F
100
AcDbEntity
  8
0
  6
Continuous
 62
     7
370
    15
100
AcDbSpline
210
0.0
220
0.0
230
1.0
 70
     8
 71
     3
 72
    11
 73
     7
 74
     0
 42
0.00000001
 43
0.00000001
 40
0.0
 40
0.0
 40
0.0
 40
0.0
 40
0.248445828994454
 40
0.4978883114675502
 40
0.7483892131419273
 40
1.0
 40
1.0
 40
1.0
 40
1.0
 10
432.1802765501248
 20
480.6315111326815
 30
0.0
 10
432.1982912008278
 20
480.4530339740638
 30
0.0
 10
432.2343927689503
 20
480.0953636863422
 30
0.0
 10
432.281387249625
 20
479.6305298065304
 30
0.0
 10
432.3202152971944
 20
479.2476484863939
 30
0.0
 10
432.3352431683172
 20
479.1003591959096
 30
0.0
 10
432.3427737129437
 20
479.0265517639757
 30
0.0
  0
SPLINE
  5
1CD
330
1F
100
AcDbEntity
  8
0
  6
Continuous
 62
     7
370
    15
100
AcDbSpline
210
0.0
220
0.0
230
1.0
 70
     8
 71
     3
 72
    19
 73
    15
 74
     0
 42
0.00000001
 43
0.00000001
 40
0.0
 40
0.0
 40
0.0
 40
0.0
 40
0.0802802156408008
 40
0.1534412727768693
 40
0.219341894322199
 40
0.27794997672309
 40
0.3728442814835823
 40
0.4421533224400602
 40
0.5315369922551351
 40
0.65548349536925
 40
0.7303559970867356
 40
0.813079928758139
 40
0.9031428872308518
 40
1.0
 40
1.0
 40
1.0
 40
1.0
 10
432.3657215011822
 20
478.8673328566194
 30
0.0
 10
432.4010818150687
 20
478.7444587655559
 30
0.0
 10
432.4686667302959
 20
478.509606918515
 30
0.0
 10
432.6658961347507
 20
478.2151961322579
 30
0.0
 10
432.8907400022488
 20
477.9910570503596
 30
0.0
 10
433.1864141938087
 20
477.7980258107764
 30
0.0
 10
433.5283595342531
 20
477.6801222918349
 30
0.0
 10
433.938112812696
 20
477.6503188426219
 30
0.0
 10
434.3771990022835
 20
477.7526298115832
 30
0.0
 10
434.7637374717698
 20
478.0038561371067
 30
0.0
 10
435.0565843052522
 20
478.3445729199995
 30
0.0
 10
435.2373425751151
 20
478.70004548811
 30
0.0
 10
435.3432704132284
 20
479.1269826954901
 30
0.0
 10
435.3109988147705
 20
479.4220487522976
 30
0.0
 10
435.2942765129315
 20
479.5749442982317
 30
0.0
  0
SPLINE
  5
1CE
330
1F
100
AcDbEntity
  8
0
  6
Continuous
 62
     7
370
    15
100
AcDbSpline
210
0.0
220
0.0
230
1.0
 70
     8
 71
     3
 72
    11
 73
     7
 74
     0
 42
0.00000001
 43
0.00000001
 40
0.0
 40
0.0
 40
0.0
 40
0.0
 40
0.2477432100633458
 40
0.4969484427563743
 40
0.7476802872830232
 40
0.9999999999999999
 40
0.9999999999999999
 40
0.9999999999999999
 40
0.9999999999999999
 10
435.3180587661969
 20
479.4072615313173
 30
0.0
 10
435.3116166629065
 20
479.4718871746141
 30
0.0
 10
435.2986944391353
 20
479.6015198405923
 30
0.0
 10
435.2627413758571
 20
479.9593953301753
 30
0.0
 10
435.2177575281884
 20
480.4057252902254
 30
0.0
 10
435.1823211297821
 20
480.7565887288216
 30
0.0
 10
435.1645470035779
 20
480.932574193442
 30
0.0
  0
LINE
  5
1CF
330
1F
100
AcDbEntity
  8
0
  6
Continuous
 62
     7
370
    15
100
AcDbLine
 10
435.4483396185
 20
490.5873792576
 30
0.0
 11
435.4483247174
 21
490.887205522
 31
0.0
  0
LINE
  5
1D0
330
1F
100
AcDbEntity
  8
0
  6
Continuous
 62
     7
370
    15
100
AcDbLine
 10
434.6483260763
 20
490.887205522
 30
0.0
 11
434.6483260763
 21
490.5898230481
 31
0.0
  0
SPLINE
  5
1D1
330
1F
100
AcDbEntity
  8
0
  6
Continuous
 62
     7
370
    15
100
AcDbSpline
210
0.0
220
0.0
230
1.0
 70
    24
 71
     3
 72
    11
 73
     7
 74
     0
 42
0.00000001
 43
0.00000001
 40
0.0
 40
0.0
 40
0.0
 40
0.0
 40
0.0207833414794417
 40
0.3465559490330116
 40
0.6711464500042603
 40
0.9999999999999999
 40
0.9999999999999999
 40
0.9999999999999999
 40
0.9999999999999999
 10
434.6483260763394
 20
491.1735164332033
 30
0.0
 10
434.6483260763394
 20
491.1701947207075
 30
0.0
 10
434.6483260763395
 20
491.1148061669703
 30
0.0
 10
434.6483260763394
 20
491.0215737791946
 30
0.0
 10
434.6483260763394
 20
490.9088587941582
 30
0.0
 10
434.6483260763394
 20
490.8743420374497
 30
0.0
 10
434.6483260763394
 20
490.8569710659624
 30
0.0
  0
SPLINE
  5
1D2
330
1F
100
AcDbEntity
  8
0
  6
Continuous
 62
     7
370
    15
100
AcDbSpline
210
0.0
220
0.0
230
1.0
 70
    24
 71
     3
 72
    11
 73
     7
 74
     0
 42
0.00000001
 43
0.00000001
 40
0.0
 40
0.0
 40
0.0
 40
0.0
 40
0.2504889765616955
 40
0.4977290265096876
 40
0.745885531908482
 40
1.0
 40
1.0
 40
1.0
 40
1.0
 10
435.4483396185147
 20
490.8545123743654
 30
0.0
 10
435.4483396185147
 20
490.8707296741965
 30
0.0
 10
435.4483396185147
 20
490.9029539300035
 30
0.0
 10
435.4483396185147
 20
491.0117296292539
 30
0.0
 10
435.4483396185147
 20
491.1505684102879
 30
0.0
 10
435.4483396185147
 20
491.25759269729
 30
0.0
 10
435.4483396185147
 20
491.3117396044374
 30
0.0
  0
LINE
  5
1D3
330
1F
100
AcDbEntity
  8
0
  6
Continuous
 62
     7
370
    15
100
AcDbLine
 10
434.4416022671
 20
491.4157050061
 30
0.0
 11
434.650516547
 21
491.1684798407
 31
0.0
  0
LINE
  5
1D4
330
1F
100
AcDbEntity
  8
0
  6
Continuous
 62
     7
370
    15
100
AcDbLine
 10
435.4483396185
 20
491.3117396044
 30
0.0
 11
435.4483396185
 21
491.4157050061
 31
0.0
  0
LINE
  5
1D5
330
1F
100
AcDbEntity
  8
0
  6
Continuous
 62
     7
370
    15
100
AcDbLine
 10
430.1719427479
 20
500.5537378001
 30
0.0
 11
430.1563412321
 21
501.0129617858
 31
0.0
  0
SPLINE
  5
1D6
330
1F
100
AcDbEntity
  8
0
  6
Continuous
 62
     7
370
    15
100
AcDbSpline
210
0.0
220
0.0
230
1.0
 70
     8
 71
     3
 72
    11
 73
     7
 74
     0
 42
0.00000001
 43
0.00000001
 40
0.0
 40
0.0
 40
0.0
 40
0.0
 40
0.120753341164443
 40
0.4133918846558738
 40
0.7063575724513753
 40
1.0
 40
1.0
 40
1.0
 40
1.0
 10
432.2046250475155
 20
480.3902911352754
 30
0.0
 10
432.2145426119446
 20
480.291995881588
 30
0.0
 10
432.2484948041655
 20
479.9554879242699
 30
0.0
 10
432.2958644960216
 20
479.4865691036046
 30
0.0
 10
432.3387462863134
 20
479.0618307887114
 30
0.0
 10
432.3462960467995
 20
478.9872887257581
 30
0.0
 10
432.3500752819287
 20
478.9499746966005
 30
0.0
  0
LINE
  5
1D7
330
1F
100
AcDbEntity
  8
0
  6
Continuous
 62
     7
370
    15
100
AcDbLine
 10
435.9810263289
 20
530.415709536
 30
0.0
 11
435.6810361517
 21
530.415709536
 31
0.0
  0
LINE
  5
1D8
330
1F
100
AcDbEntity
  8
0
  6
Continuous
 62
     7
370
    15
100
AcDbLine
 10
435.6810361517
 20
529.4157149601
 30
0.0
 11
435.5810344589
 21
529.4157149601
 31
0.0
  0
LINE
  5
1D9
330
1F
100
AcDbEntity
  8
0
  6
Continuous
 62
     7
370
    15
100
AcDbLine
 10
435.5810344589
 20
523.4157102513
 30
0.0
 11
435.6810361517
 21
523.4157102513
 31
0.0
  0
LINE
  5
1DA
330
1F
100
AcDbEntity
  8
0
  6
Continuous
 62
     7
370
    15
100
AcDbLine
 10
435.6810361517
 20
506.4157056021
 30
0.0
 11
435.5810344589
 21
506.4157056021
 31
0.0
  0
LINE
  5
1DB
330
1F
100
AcDbEntity
  8
0
  6
Continuous
 62
     7
370
    15
100
AcDbLine
 10
435.5810344589
 20
500.4157083439
 30
0.0
 11
435.6810361517
 21
500.4157083439
 31
0.0
  0
LINE
  5
1DC
330
1F
100
AcDbEntity
  8
0
  6
Continuous
 62
     7
370
    15
100
AcDbLine
 10
720.9810376538
 20
474.4157152581
 30
0.0
 11
720.9810376538
 21
469.4157051253
 31
0.0
  0
LINE
  5
1DD
330
1F
100
AcDbEntity
  8
0
  6
Continuous
 62
     7
370
    15
100
AcDbLine
 10
735.9810382498
 20
474.4157152581
 30
0.0
 11
720.9810376538
 21
474.4157152581
 31
0.0
  0
LINE
  5
1DE
330
1F
100
AcDbEntity
  8
0
  6
Continuous
 62
     7
370
    15
100
AcDbLine
 10
735.9810382498
 20
474.4157152581
 30
0.0
 11
735.9810382498
 21
469.4157051253
 31
0.0
  0
LINE
  5
1DF
330
1F
100
AcDbEntity
  8
0
  6
Continuous
 62
     7
370
    15
100
AcDbLine
 10
735.9810382498
 20
469.4157051253
 30
0.0
 11
720.9810376538
 21
469.4157051253
 31
0.0
  0
LINE
  5
1E0
330
1F
100
AcDbEntity
  8
0
  6
Continuous
 62
     7
370
    15
100
AcDbLine
 10
450.9810269249
 20
474.4157152581
 30
0.0
 11
450.9810269249
 21
469.4157051253
 31
0.0
  0
LINE
  5
1E1
330
1F
100
AcDbEntity
  8
0
  6
Continuous
 62
     7
370
    15
100
AcDbLine
 10
450.9810269249
 20
469.4157051253
 30
0.0
 11
720.9810376538
 21
469.4157051253
 31
0.0
  0
LINE
  5
1E2
330
1F
100
AcDbEntity
  8
0
  6
Continuous
 62
     7
370
    15
100
AcDbLine
 10
450.9810269249
 20
474.4157152581
 30
0.0
 11
720.9810376538
 21
474.4157152581
 31
0.0
  0
ARC
  5
1E3
330
1F
100
AcDbEntity
  8
0
  6
Continuous
 62
     7
370
    15
100
AcDbCircle
 10
720.9810322893
 20
469.4157112527
 30
0.0
 40
15.0
100
AcDbArc
 50
270.0
 51
0.0
  0
LINE
  5
1E4
330
1F
100
AcDbEntity
  8
0
  6
Continuous
 62
     7
370
    15
100
AcDbLine
 10
720.9810376538
 20
469.4157051253
 30
0.0
 11
720.9810376538
 21
454.4157045292
 31
0.0
  0
LINE
  5
1E5
330
1F
100
AcDbEntity
  8
0
  6
Continuous
 62
     7
370
    15
100
AcDbLine
 10
450.9810269249
 20
454.4157045292
 30
0.0
 11
450.9810269249
 21
469.4157051253
 31
0.0
  0
LINE
  5
1E6
330
1F
100
AcDbEntity
  8
0
  6
Continuous
 62
     7
370
    15
100
AcDbLine
 10
450.9810269249
 20
454.4157045292
 30
0.0
 11
720.9810376538
 21
454.4157045292
 31
0.0
  0
LINE
  5
1E7
330
1F
100
AcDbEntity
  8
0
  6
Continuous
 62
     7
370
    15
100
AcDbLine
 10
435.9810263289
 20
474.4157152581
 30
0.0
 11
435.9810263289
 21
469.4157051253
 31
0.0
  0
LINE
  5
1E8
330
1F
100
AcDbEntity
  8
0
  6
Continuous
 62
     7
370
    15
100
AcDbLine
 10
435.9810263289
 20
469.4157051253
 30
0.0
 11
450.9810269249
 21
469.4157051253
 31
0.0
  0
LINE
  5
1E9
330
1F
100
AcDbEntity
  8
0
  6
Continuous
 62
     7
370
    15
100
AcDbLine
 10
435.9810263289
 20
474.4157152581
 30
0.0
 11
450.9810269249
 21
474.4157152581
 31
0.0
  0
ARC
  5
1EA
330
1F
100
AcDbEntity
  8
0
  6
Continuous
 62
     7
370
    15
100
AcDbCircle
 10
450.9810322893
 20
469.4157112527
 30
0.0
 40
15.0
100
AcDbArc
 50
180.0
 51
270.0
  0
LINE
  5
1EB
330
1F
100
AcDbEntity
  8
0
  6
Continuous
 62
     7
370
    15
100
AcDbLine
 10
434.7810358179
 20
472.4334733891
 30
0.0
 11
435.9810263289
 21
472.4334733891
 31
0.0
  0
LINE
  5
1EC
330
1F
100
AcDbEntity
  8
0
  6
Continuous
 62
     7
370
    15
100
AcDbLine
 10
434.7810358179
 20
470.3295039343
 30
0.0
 11
435.9810263289
 21
470.3295039343
 31
0.0
  0
LINE
  5
1ED
330
1F
100
AcDbEntity
  8
0
  6
Continuous
 62
     7
370
    15
100
AcDbLine
 10
434.7810358179
 20
470.3295039343
 30
0.0
 11
434.7810358179
 21
472.4334733891
 31
0.0
  0
LINE
  5
1EE
330
1F
100
AcDbEntity
  8
0
  6
Continuous
 62
     7
370
    15
100
AcDbLine
 10
434.7810358179
 20
477.4157064366
 30
0.0
 11
435.9810263289
 21
477.4157064366
 31
0.0
  0
LINE
  5
1EF
330
1F
100
AcDbEntity
  8
0
  6
Continuous
 62
     7
370
    15
100
AcDbLine
 10
435.9810263289
 20
474.4157152581
 30
0.0
 11
435.9810263289
 21
477.4157064366
 31
0.0
  0
LINE
  5
1F0
330
1F
100
AcDbEntity
  8
0
  6
Continuous
 62
     7
370
    15
100
AcDbLine
 10
434.7810358179
 20
477.4157064366
 30
0.0
 11
434.7810358179
 21
472.4334733891
 31
0.0
  0
LINE
  5
1F1
330
1F
100
AcDbEntity
  8
0
  6
Continuous
 62
     7
370
    15
100
AcDbLine
 10
435.9810263289
 20
469.4157051253
 30
0.0
 11
435.9810263289
 21
465.9157054829
 31
0.0
  0
LINE
  5
1F2
330
1F
100
AcDbEntity
  8
0
  6
Continuous
 62
     7
370
    15
100
AcDbLine
 10
434.7810358179
 20
465.9157054829
 30
0.0
 11
434.7810358179
 21
470.3295039343
 31
0.0
  0
LINE
  5
1F3
330
1F
100
AcDbEntity
  8
0
  6
Continuous
 62
     7
370
    15
100
AcDbLine
 10
434.6810341252
 20
468.4157179999
 30
0.0
 11
434.6810341252
 21
474.4157152581
 31
0.0
  0
ARC
  5
1F4
330
1F
100
AcDbEntity
  8
0
  6
Continuous
 62
     7
370
    15
100
AcDbCircle
 10
433.1810322893
 20
479.1157112527
 30
0.0
 40
2.800000000000051
100
AcDbArc
 50
0.0
 51
45.4024529621
  0
LINE
  5
1F5
330
1F
100
AcDbEntity
  8
0
  6
Continuous
 62
     7
370
    15
100
AcDbLine
 10
432.0733756197
 20
481.6873031067
 30
0.0
 11
431.4764947069
 21
481.3370960164
 31
0.0
  0
LINE
  5
1F6
330
1F
100
AcDbEntity
  8
0
  6
Continuous
 62
     7
370
    15
100
AcDbLine
 10
428.6635727061
 20
477.6660906481
 30
0.0
 11
432.2070092333
 21
480.3850757289
 31
0.0
  0
LINE
  5
1F7
330
1F
100
AcDbEntity
  8
0
  6
Continuous
 62
     7
370
    15
100
AcDbLine
 10
427.9330581797
 20
478.6181258368
 30
0.0
 11
428.6635727061
 21
477.6660906481
 31
0.0
  0
LINE
  5
1F8
330
1F
100
AcDbEntity
  8
0
  6
Continuous
 62
     7
370
    15
100
AcDbLine
 10
431.4764947069
 20
481.3370960164
 30
0.0
 11
427.9330581797
 21
478.6181258368
 31
0.0
  0
LINE
  5
1F9
330
1F
100
AcDbEntity
  8
0
  6
Continuous
 62
     7
370
    15
100
AcDbLine
 10
435.9810263289
 20
477.4157064366
 30
0.0
 11
435.9810263289
 21
478.4157084632
 31
0.0
  0
LINE
  5
1FA
330
1F
100
AcDbEntity
  8
0
  6
Continuous
 62
     7
370
    15
100
AcDbLine
 10
434.7810358179
 20
478.056650083
 30
0.0
 11
434.7810358179
 21
477.4157064366
 31
0.0
  0
LINE
  5
1FB
330
1F
100
AcDbEntity
  8
0
  6
Continuous
 62
     7
370
    15
100
AcDbLine
 10
427.7115524185
 20
476.9355761218
 30
0.0
 11
426.9810378922
 21
477.8876113104
 31
0.0
  0
LWPOLYLINE
  5
1FC
330
1F
100
AcDbEntity
  8
0
  6
Continuous
 62
     7
370
    15
100
AcDbPolyline
 90
        9
 70
   128
 43
0.0
 10
426.9810378922
 20
477.8876113104
 10
426.999321617
 20
477.9016482043
 10
427.0535022391
 20
477.9432075429
 10
427.1414786947
 20
478.0107247042
 10
427.2598684204
 20
478.1015621829
 10
427.4041414631
 20
478.2122629094
 10
427.5687396897
 20
478.3385651517
 10
427.7473301066
 20
478.4756111312
 10
427.9330581797
 20
478.6181258368
  0
LWPOLYLINE
  5
1FD
330
1F
100
AcDbEntity
  8
0
  6
Continuous
 62
     7
370
    15
100
AcDbPolyline
 90
        9
 70
   128
 43
0.0
 10
428.6635727061
 20
477.6660906481
 10
428.4778446329
 20
477.5235759425
 10
428.2992393149
 20
477.3865448641
 10
428.1346559895
 20
477.2602426219
 10
427.9903829468
 20
477.1495418954
 10
427.8719932211
 20
477.0586895156
 10
427.7840167654
 20
476.9911872553
 10
427.7298361433
 20
476.9496130156
 10
427.7115524185
 20
476.9355761218
  0
ARC
  5
1FE
330
1F
100
AcDbEntity
  8
0
  6
Continuous
 62
     7
370
    15
100
AcDbCircle
 10
431.0810322893
 20
494.4357112527
 30
0.0
 40
2.200000000000032
100
AcDbArc
 50
103.5934783352
 51
268.1042765976
  0
LINE
  5
1FF
330
1F
100
AcDbEntity
  8
0
  6
Continuous
 62
     7
370
    15
100
AcDbLine
 10
427.534198798
 20
495.8134847092
 30
0.0
 11
427.8678506983
 21
497.7057086634
 31
0.0
  0
LWPOLYLINE
  5
200
330
1F
100
AcDbEntity
  8
0
  6
Continuous
 62
     7
370
    15
100
AcDbPolyline
 90
        9
 70
   128
 43
0.0
 10
427.8678506983
 20
497.7057086634
 10
427.7236223591
 20
497.7311449456
 10
427.5865763796
 20
497.755314629
 10
427.4614662302
 20
497.7773683476
 10
427.3526281489
 20
497.7965610432
 10
427.263802327
 20
497.8122221636
 10
427.1980584038
 20
497.8238152671
 10
427.1576911581
 20
497.8309380221
 10
427.1440714968
 20
497.8333371091
  0
LINE
  5
201
330
1F
100
AcDbEntity
  8
0
  6
Continuous
 62
     7
370
    15
100
AcDbLine
 10
427.1440714968
 20
497.8333371091
 30
0.0
 11
431.519112028
 21
522.6454394269
 31
0.0
  0
LWPOLYLINE
  5
202
330
1F
100
AcDbEntity
  8
0
  6
Continuous
 62
     7
370
    15
100
AcDbPolyline
 90
        9
 70
   128
 43
0.0
 10
431.519112028
 20
522.6454394269
 10
431.5342516077
 20
522.642772119
 10
431.5790892018
 20
522.6348745036
 10
431.6518962754
 20
522.6220297026
 10
431.7498714102
 20
522.6047592568
 10
431.8692595137
 20
522.583703916
 10
432.0054710282
 20
522.5596832442
 10
432.1532607449
 20
522.5336211133
 10
432.3069662226
 20
522.5065308022
  0
LINE
  5
203
330
1F
100
AcDbEntity
  8
0
  6
Continuous
 62
     7
370
    15
100
AcDbLine
 10
432.3069662226
 20
522.5065308022
 30
0.0
 11
427.4816424025
 21
495.1407270836
 31
0.0
  0
LINE
  5
204
330
1F
100
AcDbEntity
  8
0
  6
Continuous
 62
     7
370
    15
100
AcDbLine
 10
427.4816424025
 20
495.1407270836
 30
0.0
 11
427.534198798
 21
495.8134847092
 31
0.0
  0
LWPOLYLINE
  5
205
330
1F
100
AcDbEntity
  8
0
  6
Continuous
 62
     7
370
    15
100
AcDbPolyline
 90
        5
 70
   128
 43
0.0
 10
430.3664178026
 20
529.5337694096
 10
430.1129490507
 20
530.230175178
 10
429.929381646
 20
530.7344900775
 10
429.8182487858
 20
531.0398446726
 10
429.7810256851
 20
531.1420964408
  0
LWPOLYLINE
  5
206
330
1F
100
AcDbEntity
  8
0
  6
Continuous
 62
     7
370
    15
100
AcDbPolyline
 90
        5
 70
   128
 43
0.0
 10
431.1260342968
 20
529.785755496
 10
430.8691978825
 20
530.4914297866
 10
430.6831717861
 20
531.0025470662
 10
430.5705041064
 20
531.3120590853
 10
430.5327892674
 20
531.4157115626
  0
LINE
  5
207
330
1F
100
AcDbEntity
  8
0
  6
Continuous
 62
     7
370
    15
100
AcDbLine
 10
431.3481361044
 20
529.4313090253
 30
0.0
 11
431.1260342968
 21
529.785755496
 31
0.0
  0
LINE
  5
208
330
1F
100
AcDbEntity
  8
0
  6
Continuous
 62
     7
370
    15
100
AcDbLine
 10
431.2659412993
 20
529.4013949442
 30
0.0
 11
431.3481361044
 21
529.4313090253
 31
0.0
  0
SPLINE
  5
209
330
1F
100
AcDbEntity
  8
0
  6
Continuous
 62
     7
370
    15
100
AcDbSpline
210
0.0
220
0.0
230
1.0
 70
     8
 71
     3
 72
    12
 73
     8
 74
     0
 42
0.00000001
 43
0.00000001
 40
0.0
 40
0.0
 40
0.0
 40
0.0
 40
0.251021990599481
 40
0.5023977458077202
 40
0.7402765908566765
 40
0.9473178514528033
 40
1.0
 40
1.0
 40
1.0
 40
1.0
 10
430.3664178026425
 20
529.5337694096208
 30
0.0
 10
430.3941265999711
 20
529.48945177074
 30
0.0
 10
430.4495832445608
 20
529.4007540362502
 30
0.0
 10
430.6565818101686
 20
529.3257598051395
 30
0.0
 10
430.9179720897574
 20
529.31427071246
 30
0.0
 10
431.134560357507
 20
529.3559045037019
 30
0.0
 10
431.2437860266772
 20
529.3937237165396
 30
0.0
 10
431.2659412992703
 20
529.4013949441553
 30
0.0
  0
LINE
  5
20A
330
1F
100
AcDbEntity
  8
0
  6
Continuous
 62
     7
370
    15
100
AcDbLine
 10
431.2659412993
 20
529.4013949442
 30
0.0
 11
431.8422735108
 21
527.8179081487
 31
0.0
  0
LWPOLYLINE
  5
20B
330
1F
100
AcDbEntity
  8
0
  6
Continuous
 62
     7
370
    15
100
AcDbPolyline
 90
        9
 70
   128
 43
0.0
 10
431.0905248297
 20
527.5442930269
 10
431.1049640549
 20
527.5495531368
 10
431.1477452887
 20
527.5651173997
 10
431.2172145022
 20
527.5904046702
 10
431.3107043875
 20
527.6244314718
 10
431.4246237648
 20
527.6658939528
 10
431.5545916928
 20
527.713197689
 10
431.6956162823
 20
527.7645321893
 10
431.8422735108
 20
527.8179081487
  0
LINE
  5
20C
330
1F
100
AcDbEntity
  8
0
  6
Continuous
 62
     7
370
    15
100
AcDbLine
 10
431.0905248297
 20
527.5442930269
 30
0.0
 11
430.3664178026
 21
529.5337694096
 31
0.0
  0
ARC
  5
20D
330
1F
100
AcDbEntity
  8
0
  6
Continuous
 62
     7
370
    15
100
AcDbCircle
 10
431.6710377955
 20
500.6047021711
 30
0.0
 40
1.600000000000079
100
AcDbArc
 50
347.034367059
 51
204.5705045339
  0
ARC
  5
20E
330
1F
100
AcDbEntity
  8
0
  6
Continuous
 62
     7
370
    15
100
AcDbCircle
 10
432.1837467607
 20
528.627776107
 30
0.0
 40
0.5
100
AcDbArc
 50
36.8410865503
 51
90.0
  0
ARC
  5
20F
330
1F
100
AcDbEntity
  8
0
  6
Continuous
 62
     7
370
    15
100
AcDbCircle
 10
424.9810322893
 20
523.2313972986
 30
0.0
 40
9.500000000000057
100
AcDbArc
 50
0.0
 51
36.8410865502
  0
LINE
  5
210
330
1F
100
AcDbEntity
  8
0
  6
Continuous
 62
     7
370
    15
100
AcDbLine
 10
434.4810307396
 20
523.2313977885
 30
0.0
 11
434.4810307396
 21
495.2057110476
 31
0.0
  0
ARC
  5
211
330
1F
100
AcDbEntity
  8
0
  6
Continuous
 62
     7
370
    15
100
AcDbCircle
 10
422.1634452488
 20
524.295101721
 30
0.0
 40
10.30000000000022
100
AcDbArc
 50
350.0
 51
20.0
  0
ARC
  5
212
330
1F
100
AcDbEntity
  8
0
  6
Continuous
 62
     7
370
    15
100
AcDbCircle
 10
432.0657342151
 20
530.127776107
 30
0.0
 40
1.0
100
AcDbArc
 50
224.1440002858
 51
270.0
  0
LINE
  5
213
330
1F
100
AcDbEntity
  8
0
  6
Continuous
 62
     7
370
    15
100
AcDbLine
 10
432.065731324
 20
529.1277798223
 30
0.0
 11
432.1837485207
 21
529.1277798223
 31
0.0
  0
LWPOLYLINE
  5
214
330
1F
100
AcDbEntity
  8
0
  6
Continuous
 62
     7
370
    15
100
AcDbPolyline
 90
        3
 70
   128
 43
0.0
 10
434.4810307396
 20
495.2057110476
 10
434.2724144829
 20
494.0154360938
 10
433.916246928
 20
493.2992713856
  0
ARC
  5
215
330
1F
100
AcDbEntity
  8
0
  6
Continuous
 62
     7
370
    15
100
AcDbCircle
 10
430.9810322893
 20
495.2057112527
 30
0.0
 40
3.500000000000056
100
AcDbArc
 50
181.0639402281
 51
271.3221928089
  0
ARC
  5
216
330
1F
100
AcDbEntity
  8
0
  6
Continuous
 62
     7
370
    15
100
AcDbCircle
 10
422.1634452488
 20
524.295101721
 30
0.0
 40
9.50000000000043
100
AcDbArc
 50
350.0
 51
20.0
  0
ARC
  5
217
330
1F
100
AcDbEntity
  8
0
  6
Continuous
 62
     7
370
    15
100
AcDbCircle
 10
431.5746500827
 20
495.9032067794
 30
0.0
 40
4.698428302688335
100
AcDbArc
 50
170.0
 51
264.3261771657
  0
LINE
  5
218
330
1F
100
AcDbEntity
  8
0
  6
Continuous
 62
     7
370
    15
100
AcDbLine
 10
427.1440714968
 20
497.8333371091
 30
0.0
 11
426.9475996865
 21
496.7190729785
 31
0.0
  0
SPLINE
  5
219
330
1F
100
AcDbEntity
  8
0
  6
Continuous
 62
     7
370
    15
100
AcDbSpline
210
0.0
220
0.0
230
1.0
 70
     8
 71
     3
 72
    12
 73
     8
 74
     0
 42
0.00000001
 43
0.00000001
 40
0.0
 40
0.0
 40
0.0
 40
0.0
 40
0.2340515605559213
 40
0.4681081209014387
 40
0.7021649452951938
 40
0.9362191094033155
 40
1.0
 40
1.0
 40
1.0
 40
1.0
 10
432.2780132663952
 20
496.092821876967
 30
0.0
 10
432.0816203530334
 20
496.0734431920096
 30
0.0
 10
431.6888303309811
 20
496.034685408129
 30
0.0
 10
431.1513318791617
 20
496.0294291091494
 30
0.0
 10
430.7778297300919
 20
496.0679120462111
 30
0.0
 10
430.5986369508788
 20
496.1225722519028
 30
0.0
 10
430.6273560645805
 20
496.1665275901914
 30
0.0
 10
430.633506215881
 20
496.1759405541063
 30
0.0
  0
SPLINE
  5
21A
330
1F
100
AcDbEntity
  8
0
  6
Continuous
 62
     7
370
    15
100
AcDbSpline
210
0.0
220
0.0
230
1.0
 70
     8
 71
     3
 72
    11
 73
     7
 74
     0
 42
0.00000001
 43
0.00000001
 40
0.0
 40
0.0
 40
0.0
 40
0.0
 40
0.1986869656512229
 40
0.4657887335487899
 40
0.7328960549812761
 40
1.0
 40
1.0
 40
1.0
 40
1.0
 10
433.5739225519406
 20
496.471713702643
 30
0.0
 10
433.5727389372429
 20
496.4472202592807
 30
0.0
 10
433.569964148322
 20
496.3897994318671
 30
0.0
 10
433.300445342753
 20
496.2827223292965
 30
0.0
 10
432.8533789468597
 20
496.1719028340371
 30
0.0
 10
432.4698010184317
 20
496.1191820849189
 30
0.0
 10
432.2780132663952
 20
496.092821876967
 30
0.0
  0
SPLINE
  5
21B
330
1F
100
AcDbEntity
  8
0
  6
Continuous
 62
     7
370
    15
100
AcDbSpline
210
0.0
220
0.0
230
1.0
 70
     8
 71
     3
 72
    12
 73
     8
 74
     0
 42
0.00000001
 43
0.00000001
 40
0.0
 40
0.0
 40
0.0
 40
0.0
 40
0.2339692026286767
 40
0.4679314225258686
 40
0.7018985953360339
 40
0.9358631177081309
 40
0.9999999999999999
 40
0.9999999999999999
 40
0.9999999999999999
 40
0.9999999999999999
 10
431.6710442674863
 20
502.1046953606249
 30
0.0
 10
431.4749588727847
 20
502.0821931719832
 30
0.0
 10
431.0827939354838
 20
502.0371894662703
 30
0.0
 10
430.5798554447752
 20
501.6896947536125
 30
0.0
 10
430.2600478587957
 20
501.1962026202418
 30
0.0
 10
430.1321185332172
 20
500.7426167625806
 30
0.0
 10
430.1899077055389
 20
500.4996237528034
 30
0.0
 10
430.202341116737
 20
500.4473435091616
 30
0.0
  0
SPLINE
  5
21C
330
1F
100
AcDbEntity
  8
0
  6
Continuous
 62
     7
370
    15
100
AcDbSpline
210
0.0
220
0.0
230
1.0
 70
     8
 71
     3
 72
    11
 73
     7
 74
     0
 42
0.00000001
 43
0.00000001
 40
0.0
 40
0.0
 40
0.0
 40
0.0
 40
0.1976865299295927
 40
0.4651276931378727
 40
0.7325631948134215
 40
1.0
 40
1.0
 40
1.0
 40
1.0
 10
433.141252435516
 20
500.7544117378832
 30
0.0
 10
433.1229715717549
 20
500.8991599713135
 30
0.0
 10
433.0799593544188
 20
501.2397315414918
 30
0.0
 10
432.7545058184562
 20
501.6895072835644
 30
0.0
 10
432.2612120069832
 20
502.0372333110901
 30
0.0
 10
431.8677671669336
 20
502.0822079742447
 30
0.0
 10
431.6710442674863
 20
502.1046953606249
 30
0.0
  0
SPLINE
  5
21D
330
1F
100
AcDbEntity
  8
0
  6
Continuous
 62
     7
370
    15
100
AcDbSpline
210
0.0
220
0.0
230
1.0
 70
     8
 71
     3
 72
    12
 73
     8
 74
     0
 42
0.00000001
 43
0.00000001
 40
0.0
 40
0.0
 40
0.0
 40
0.0
 40
0.2350128204151231
 40
0.4700301568031707
 40
0.7050474737853947
 40
0.9400627567906925
 40
1.0
 40
1.0
 40
1.0
 40
1.0
 10
433.8470906389462
 20
480.5518644261003
 30
0.0
 10
433.6507051921012
 20
480.5324801875184
 30
0.0
 10
433.2579305246961
 20
480.4937113378698
 30
0.0
 10
432.7203210028508
 20
480.4884488892138
 30
0.0
 10
432.3472386086802
 20
480.5269728754924
 30
0.0
 10
432.1682424511129
 20
480.5810943382112
 30
0.0
 10
432.1961149590299
 20
480.6243957024295
 30
0.0
 10
432.2017789257275
 20
480.6331949638964
 30
0.0
  0
SPLINE
  5
21E
330
1F
100
AcDbEntity
  8
0
  6
Continuous
 62
     7
370
    15
100
AcDbSpline
210
0.0
220
0.0
230
1.0
 70
     8
 71
     3
 72
    11
 73
     7
 74
     0
 42
0.00000001
 43
0.00000001
 40
0.0
 40
0.0
 40
0.0
 40
0.0
 40
0.1989250980717726
 40
0.4659516698545062
 40
0.7329753060758109
 40
1.0
 40
1.0
 40
1.0
 40
1.0
 10
435.1430446279751
 20
480.9308605599047
 30
0.0
 10
435.141870957816
 20
480.9063281511042
 30
0.0
 10
435.1391218146671
 20
480.8488647291583
 30
0.0
 10
434.869514394488
 20
480.7417548705059
 30
0.0
 10
434.422454632964
 20
480.6309249074287
 30
0.0
 10
434.0388788901809
 20
480.5782179546725
 30
0.0
 10
433.8470906389462
 20
480.5518644261003
 30
0.0
  0
ARC
  5
21F
330
1F
100
AcDbEntity
  8
0
  6
Continuous
 62
     7
370
    15
100
AcDbCircle
 10
435.0483184575
 20
490.8534838318
 30
0.0
 40
0.4000075821847004
100
AcDbArc
 50
0.1473252397
 51
179.5004936418
  0
ELLIPSE
  5
220
330
1F
100
AcDbEntity
  8
0
  6
Continuous
 62
     7
370
    15
100
AcDbEllipse
 10
435.0483316897
 20
490.5886028589
 30
0.0
 11
0.3991830274372887
 21
-0.0262460422114259
 31
0.0
210
0.0
220
0.0
230
0.9999999999999998
 40
0.9763157485
 41
0.0
 42
6.283185307179586
  0
SPLINE
  5
221
330
1F
100
AcDbEntity
  8
0
  6
Continuous
 62
     7
370
    15
100
AcDbSpline
210
0.0
220
0.0
230
1.0
 70
     8
 71
     3
 72
    13
 73
     9
 74
     0
 42
0.00000001
 43
0.00000001
 40
0.0
 40
0.0
 40
0.0
 40
0.0
 40
0.0081675122012609
 40
0.2391521492050921
 40
0.4710962406467845
 40
0.6931204460156718
 40
0.9042211429553025
 40
1.0
 40
1.0
 40
1.0
 40
1.0
 10
435.048332847427
 20
491.3174318480135
 30
0.0
 10
435.0466739354483
 20
491.3170395816052
 30
0.0
 10
434.9980994913227
 20
491.3055536661524
 30
0.0
 10
434.9019892008422
 20
491.2822651114752
 30
0.0
 10
434.779147784072
 20
491.2386469594823
 30
0.0
 10
434.693498308552
 20
491.2011919864351
 30
0.0
 10
434.6494794580265
 20
491.180062176974
 30
0.0
 10
434.6527115441878
 20
491.1750734449028
 30
0.0
 10
434.6537202966916
 20
491.1735164332033
 30
0.0
  0
SPLINE
  5
222
330
1F
100
AcDbEntity
  8
0
  6
Continuous
 62
     7
370
    15
100
AcDbSpline
210
0.0
220
0.0
230
1.0
 70
     8
 71
     3
 72
    13
 73
     9
 74
     0
 42
0.00000001
 43
0.00000001
 40
0.0
 40
0.0
 40
0.0
 40
0.0
 40
0.125228959886928
 40
0.2499779558663477
 40
0.499978012847814
 40
0.7499978855696056
 40
0.8747546811188224
 40
1.0
 40
1.0
 40
1.0
 40
1.0
 10
435.4483396185147
 20
491.3117396044374
 30
0.0
 10
435.4466252967707
 20
491.3117694519832
 30
0.0
 10
435.4432032237482
 20
491.3118290326782
 30
0.0
 10
435.4088233539755
 20
491.3123033923368
 30
0.0
 10
435.3335595669387
 20
491.313375815241
 30
0.0
 10
435.2248969569615
 20
491.3149098942973
 30
0.0
 10
435.1261842010367
 20
491.3163433491239
 30
0.0
 10
435.0743170827411
 20
491.3170685426889
 30
0.0
 10
435.048332847427
 20
491.3174318480135
 30
0.0
  0
SPLINE
  5
223
330
1F
100
AcDbEntity
  8
0
  6
Continuous
 62
     7
370
    15
100
AcDbSpline
210
0.0
220
0.0
230
1.0
 70
     8
 71
     3
 72
    10
 73
     6
 74
     0
 42
0.00000001
 43
0.00000001
 40
0.0
 40
0.0
 40
0.0
 40
0.0
 40
0.0190228700517773
 40
0.5253207342098283
 40
1.0
 40
1.0
 40
1.0
 40
1.0
 10
435.048332847427
 20
491.3174318480134
 30
0.0
 10
435.0498571756854
 20
491.3181720720857
 30
0.0
 10
435.0919518353082
 20
491.3386135224078
 30
0.0
 10
435.1745099840376
 20
491.3769463345437
 30
0.0
 10
435.244657312365
 20
491.4030660771439
 30
0.0
 10
435.2786004913556
 20
491.4157050060869
 30
0.0
  0
LINE
  5
224
330
1F
100
AcDbEntity
  8
0
  6
Continuous
 62
     7
370
    15
100
AcDbLine
 10
430.1718086375
 20
500.5566733288
 30
0.0
 11
430.1842660082
 21
500.4059033799
 31
0.0
  0
LINE
  5
225
330
1F
100
AcDbEntity
  8
0
  6
Continuous
 62
     7
370
    15
100
AcDbLine
 10
433.164036311
 20
500.7494049477
 30
0.0
 11
433.1284523381
 21
500.9595709252
 31
0.0
  0
LINE
  5
226
330
1F
100
AcDbEntity
  8
0
  6
Continuous
 62
     7
370
    15
100
AcDbLine
 10
450.9810269249
 20
654.4157112348
 30
0.0
 11
720.9810376538
 21
654.4157112348
 31
0.0
  0
LINE
  5
227
330
1F
100
AcDbEntity
  8
0
  6
Continuous
 62
     7
370
    15
100
AcDbLine
 10
720.9810376538
 20
639.41571157
 30
0.0
 11
720.9810376538
 21
654.4157112348
 31
0.0
  0
LINE
  5
228
330
1F
100
AcDbEntity
  8
0
  6
Continuous
 62
     7
370
    15
100
AcDbLine
 10
450.9810269249
 20
639.41571157
 30
0.0
 11
720.9810376538
 21
639.41571157
 31
0.0
  0
LINE
  5
229
330
1F
100
AcDbEntity
  8
0
  6
Continuous
 62
     7
370
    15
100
AcDbLine
 10
450.9810269249
 20
639.41571157
 30
0.0
 11
450.9810269249
 21
654.4157112348
 31
0.0
  0
LINE
  5
22A
330
1F
100
AcDbEntity
  8
0
  6
Continuous
 62
     7
370
    15
100
AcDbLine
 10
450.9810269249
 20
639.41571157
 30
0.0
 11
435.9810263289
 21
639.41571157
 31
0.0
  0
ARC
  5
22B
330
1F
100
AcDbEntity
  8
0
  6
Continuous
 62
     7
370
    15
100
AcDbCircle
 10
450.9810322893
 20
639.4157112527
 30
0.0
 40
15.0
100
AcDbArc
 50
90.0
 51
180.0
  0
LINE
  5
22C
330
1F
100
AcDbEntity
  8
0
  6
Continuous
 62
     7
370
    15
100
AcDbLine
 10
720.9810376538
 20
639.41571157
 30
0.0
 11
735.9810382498
 21
639.41571157
 31
0.0
  0
ARC
  5
22D
330
1F
100
AcDbEntity
  8
0
  6
Continuous
 62
     7
370
    15
100
AcDbCircle
 10
720.9810322893
 20
639.4157112527
 30
0.0
 40
15.0
100
AcDbArc
 50
0.0
 51
90.0
  0
LINE
  5
22E
330
1F
100
AcDbEntity
  8
0
  6
Continuous
 62
     7
370
    15
100
AcDbLine
 10
720.9810376538
 20
478.4157084632
 30
0.0
 11
720.9810376538
 21
639.41571157
 31
0.0
  0
LINE
  5
22F
330
1F
100
AcDbEntity
  8
0
  6
Continuous
 62
     7
370
    15
100
AcDbLine
 10
720.9810376538
 20
478.4157084632
 30
0.0
 11
450.9810269249
 21
478.4157084632
 31
0.0
  0
LINE
  5
230
330
1F
100
AcDbEntity
  8
0
  6
Continuous
 62
     7
370
    15
100
AcDbLine
 10
450.9810269249
 20
478.4157084632
 30
0.0
 11
450.9810269249
 21
639.41571157
 31
0.0
  0
LINE
  5
231
330
1F
100
AcDbEntity
  8
0
  6
Continuous
 62
     7
370
    15
100
AcDbLine
 10
715.981027521
 20
634.4157116818
 30
0.0
 11
715.981027521
 21
498.4157042908
 31
0.0
  0
LINE
  5
232
330
1F
100
AcDbEntity
  8
0
  6
Continuous
 62
     7
370
    15
100
AcDbLine
 10
715.981027521
 20
634.4157116818
 30
0.0
 11
455.9810370577
 21
634.4157116818
 31
0.0
  0
LINE
  5
233
330
1F
100
AcDbEntity
  8
0
  6
Continuous
 62
     7
370
    15
100
AcDbLine
 10
455.9810370577
 20
498.4157042908
 30
0.0
 11
455.9810370577
 21
634.4157116818
 31
0.0
  0
LINE
  5
234
330
1F
100
AcDbEntity
  8
0
  6
Continuous
 62
     7
370
    15
100
AcDbLine
 10
455.9810370577
 20
498.4157042908
 30
0.0
 11
715.981027521
 21
498.4157042908
 31
0.0
  0
LINE
  5
235
330
1F
100
AcDbEntity
  8
0
  6
Continuous
 62
     7
370
    15
100
AcDbLine
 10
450.9810269249
 20
478.4157084632
 30
0.0
 11
435.9810263289
 21
478.4157084632
 31
0.0
  0
LINE
  5
236
330
1F
100
AcDbEntity
  8
0
  6
Continuous
 62
     7
370
    15
100
AcDbLine
 10
435.9810263289
 20
478.4157084632
 30
0.0
 11
435.9810263289
 21
639.41571157
 31
0.0
  0
LINE
  5
237
330
1F
100
AcDbEntity
  8
0
  6
Continuous
 62
     7
370
    15
100
AcDbLine
 10
735.9810382498
 20
478.4157084632
 30
0.0
 11
720.9810376538
 21
478.4157084632
 31
0.0
  0
LINE
  5
238
330
1F
100
AcDbEntity
  8
0
  6
Continuous
 62
     7
370
    15
100
AcDbLine
 10
735.9810382498
 20
478.4157084632
 30
0.0
 11
735.9810382498
 21
639.41571157
 31
0.0
  0
LINE
  5
239
330
1F
100
AcDbEntity
  8
0
  6
Continuous
 62
     7
370
    15
100
AcDbLine
 10
730.981028117
 20
474.4157152581
 30
0.0
 11
730.981028117
 21
478.4157084632
 31
0.0
  0
LINE
  5
23A
330
1F
100
AcDbEntity
  8
0
  6
Continuous
 62
     7
370
    15
100
AcDbLine
 10
715.981027521
 20
474.4157152581
 30
0.0
 11
715.981027521
 21
478.4157084632
 31
0.0
  0
LINE
  5
23B
330
1F
100
AcDbEntity
  8
0
  6
Continuous
 62
     7
370
    15
100
AcDbLine
 10
455.9810370577
 20
474.4157152581
 30
0.0
 11
455.9810370577
 21
478.4157084632
 31
0.0
  0
LINE
  5
23C
330
1F
100
AcDbEntity
  8
0
  6
Continuous
 62
     7
370
    15
100
AcDbLine
 10
440.9810364617
 20
474.4157152581
 30
0.0
 11
440.9810364617
 21
478.4157084632
 31
0.0
  0
LINE
  5
23D
330
1F
100
AcDbEntity
  8
0
  6
Continuous
 62
     7
370
    15
100
AcDbLine
 10
735.9810382498
 20
478.4157084632
 30
0.0
 11
736.6483569515
 21
478.4157084632
 31
0.0
  0
ARC
  5
23E
330
1F
100
AcDbEntity
  8
0
  6
Continuous
 62
     7
370
    15
100
AcDbCircle
 10
736.6483500374
 20
478.9157112527
 30
0.0
 40
0.5000000000000541
100
AcDbArc
 50
270.0
 51
332.720387264
  0
ARC
  5
23F
330
1F
100
AcDbEntity
  8
0
  6
Continuous
 62
     7
370
    15
100
AcDbCircle
 10
741.9810322893
 20
476.1657112527
 30
0.0
 40
5.500000000000281
100
AcDbArc
 50
202.024312837
 51
152.720387264
  0
ARC
  5
240
330
1F
100
AcDbEntity
  8
0
  6
Continuous
 62
     7
370
    15
100
AcDbCircle
 10
736.418883424
 20
473.9157112527
 30
0.0
 40
0.5000000000000568
100
AcDbArc
 50
22.0243128371
 51
90.0
  0
LINE
  5
241
330
1F
100
AcDbEntity
  8
0
  6
Continuous
 62
     7
370
    15
100
AcDbLine
 10
736.4188790692
 20
474.4157152581
 30
0.0
 11
735.9810382498
 21
474.4157152581
 31
0.0
  0
LINE
  5
242
330
1F
100
AcDbEntity
  8
0
  6
Continuous
 62
     7
370
    15
100
AcDbLine
 10
435.6810361517
 20
497.6157056498
 30
0.0
 11
435.9810263289
 21
497.6167785334
 31
0.0
  0
LINE
  5
243
330
1F
100
AcDbEntity
  8
0
  6
Continuous
 62
     7
370
    15
100
AcDbLine
 10
435.9810263289
 20
499.6157097029
 30
0.0
 11
435.6810361517
 21
499.6157097029
 31
0.0
  0
LINE
  5
244
330
1F
100
AcDbEntity
  8
0
  6
Continuous
 62
     7
370
    15
100
AcDbLine
 10
435.6810361517
 20
497.6157056498
 30
0.0
 11
435.6810361517
 21
499.6157097029
 31
0.0
  0
ARC
  5
245
330
1F
100
AcDbEntity
  8
0
  6
Continuous
 62
     7
370
    15
100
AcDbCircle
 10
430.7810322893
 20
494.5157112527
 30
0.0
 40
3.10000000000008
100
AcDbArc
 50
192.314918171
 51
270.0
  0
LINE
  5
246
330
1F
100
AcDbEntity
  8
0
  6
Continuous
 62
     7
370
    15
100
AcDbLine
 10
435.6810361517
 20
497.6157056498
 30
0.0
 11
434.4810307396
 21
497.6157056498
 31
0.0
  0
LINE
  5
247
330
1F
100
AcDbEntity
  8
0
  6
Continuous
 62
     7
370
    15
100
AcDbLine
 10
435.6810361517
 20
491.4157050061
 30
0.0
 11
435.6810361517
 21
497.6157056498
 31
0.0
  0
LINE
  5
248
330
1F
100
AcDbEntity
  8
0
  6
Continuous
 62
     7
370
    15
100
AcDbLine
 10
430.7810277117
 20
491.4157050061
 30
0.0
 11
431.0911655796
 21
491.4157050061
 31
0.0
  0
LINE
  5
249
330
1F
100
AcDbEntity
  8
0
  6
Continuous
 62
     7
370
    15
100
AcDbLine
 10
434.1064155472
 20
491.4157050061
 30
0.0
 11
435.6810361517
 21
491.4157050061
 31
0.0
  0
LINE
  5
24A
330
1F
100
AcDbEntity
  8
0
  6
Continuous
 62
     7
370
    15
100
AcDbLine
 10
435.9810263289
 20
491.4157050061
 30
0.0
 11
435.6810361517
 21
491.4157050061
 31
0.0
  0
LINE
  5
24B
330
1F
100
AcDbEntity
  8
0
  6
Continuous
 62
     7
370
    15
100
AcDbLine
 10
435.6810361517
 20
499.6157097029
 30
0.0
 11
435.6810361517
 21
523.6657070326
 31
0.0
  0
LINE
  5
24C
330
1F
100
AcDbEntity
  8
0
  6
Continuous
 62
     7
370
    15
100
AcDbLine
 10
435.6810361517
 20
530.415709536
 30
0.0
 11
435.6810361517
 21
523.6657070326
 31
0.0
  0
LINE
  5
24D
330
1F
100
AcDbEntity
  8
0
  6
Continuous
 62
     7
370
    15
100
AcDbLine
 10
435.5810344589
 20
523.4157102513
 30
0.0
 11
435.5810344589
 21
529.4157149601
 31
0.0
  0
LINE
  5
24E
330
1F
100
AcDbEntity
  8
0
  6
Continuous
 62
     7
370
    15
100
AcDbLine
 10
435.5810344589
 20
500.4157083439
 30
0.0
 11
435.5810344589
 21
506.4157056021
 31
0.0
  0
LINE
  5
24F
330
1F
100
AcDbEntity
  8
0
  6
Continuous
 62
     7
370
    15
100
AcDbLine
 10
434.4810307396
 20
515.7725321459
 30
0.0
 11
435.6810361517
 21
515.4509799885
 31
0.0
  0
LINE
  5
250
330
1F
100
AcDbEntity
  8
0
  6
Continuous
 62
     7
370
    15
100
AcDbLine
 10
435.6810361517
 20
514.4157069134
 30
0.0
 11
434.4810307396
 21
514.7372441697
 31
0.0
  0
LINE
  5
251
330
1F
100
AcDbEntity
  8
0
  6
Continuous
 62
     8
370
    15
100
AcDbLine
 10
435.9810263289
 20
523.6657070326
 30
0.0
 11
435.6810361517
 21
523.6657070326
 31
0.0
  0
ENDSEC
  0
SECTION
  2
OBJECTS
  0
DICTIONARY
  5
C
330
0
100
AcDbDictionary
281
     1
  3
ACAD_GROUP
350
D
  3
ACAD_LAYOUT
350
1A
  3
ACAD_MLINESTYLE
350
17
  3
ACAD_PLOTSETTINGS
350
19
  3
ACAD_PLOTSTYLENAME
350
E
  0
DICTIONARY
  5
D
102
{ACAD_REACTORS
330
C
102
}
330
C
100
AcDbDictionary
281
     1
  0
DICTIONARY
  5
1A
102
{ACAD_REACTORS
330
C
102
}
330
C
100
AcDbDictionary
281
     1
  3
Layout1
350
1E
  3
Layout2
350
26
  3
Model
350
22
  0
DICTIONARY
  5
17
102
{ACAD_REACTORS
330
C
102
}
330
C
100
AcDbDictionary
281
     1
  3
Standard
350
18
  0
DICTIONARY
  5
19
102
{ACAD_REACTORS
330
C
102
}
330
C
100
AcDbDictionary
281
     1
  0
ACDBDICTIONARYWDFLT
  5
E
102
{ACAD_REACTORS
330
C
102
}
330
C
100
AcDbDictionary
281
     1
  3
Normal
350
F
100
AcDbDictionaryWithDefault
340
F
  0
LAYOUT
  5
1E
102
{ACAD_REACTORS
330
1A
102
}
330
1A
100
AcDbPlotSettings
  1

  2
none_device
  4

  6

 40
0.0
 41
0.0
 42
0.0
 43
0.0
 44
0.0
 45
0.0
 46
0.0
 47
0.0
 48
0.0
 49
0.0
140
0.0
141
0.0
142
1.0
143
1.0
 70
   688
 72
     0
 73
     0
 74
     5
  7

 75
    16
147
1.0
148
0.0
149
0.0
100
AcDbLayout
  1
Layout1
 70
     1
 71
     1
 10
0.0
 20
0.0
 11
420.0
 21
297.0
 12
0.0
 22
0.0
 32
0.0
 14
1.0000000000E+20
 24
1.0000000000E+20
 34
1.0000000000E+20
 15
-1.0000000000E+20
 25
-1.0000000000E+20
 35
-1.0000000000E+20
146
0.0
 13
0.0
 23
0.0
 33
0.0
 16
1.0
 26
0.0
 36
0.0
 17
0.0
 27
1.0
 37
0.0
 76
     0
330
1B
  0
LAYOUT
  5
26
102
{ACAD_REACTORS
330
1A
102
}
330
1A
100
AcDbPlotSettings
  1

  2
none_device
  4

  6

 40
0.0
 41
0.0
 42
0.0
 43
0.0
 44
0.0
 45
0.0
 46
0.0
 47
0.0
 48
0.0
 49
0.0
140
0.0
141
0.0
142
1.0
143
1.0
 70
   688
 72
     0
 73
     0
 74
     5
  7

 75
    16
147
1.0
148
0.0
149
0.0
100
AcDbLayout
  1
Layout2
 70
     1
 71
     2
 10
0.0
 20
0.0
 11
0.0
 21
0.0
 12
0.0
 22
0.0
 32
0.0
 14
0.0
 24
0.0
 34
0.0
 15
0.0
 25
0.0
 35
0.0
146
0.0
 13
0.0
 23
0.0
 33
0.0
 16
1.0
 26
0.0
 36
0.0
 17
0.0
 27
1.0
 37
0.0
 76
     0
330
23
  0
LAYOUT
  5
22
102
{ACAD_REACTORS
330
1A
102
}
330
1A
100
AcDbPlotSettings
  1

  2
none_device
  4

  6

 40
0.0
 41
0.0
 42
0.0
 43
0.0
 44
0.0
 45
0.0
 46
0.0
 47
0.0
 48
0.0
 49
0.0
140
0.0
141
0.0
142
1.0
143
1.0
 70
  1712
 72
     0
 73
     0
 74
     0
  7

 75
     0
147
1.0
148
0.0
149
0.0
100
AcDbLayout
  1
Model
 70
     1
 71
     0
 10
0.0
 20
0.0
 11
840.0
 21
594.0
 12
0.0
 22
0.0
 32
0.0
 14
0.0
 24
0.0
 34
0.0
 15
840.0
 25
594.0
 35
0.0
146
0.0
 13
0.0
 23
0.0
 33
0.0
 16
1.0
 26
0.0
 36
0.0
 17
0.0
 27
1.0
 37
0.0
 76
     0
330
1F
331
29
  0
MLINESTYLE
  5
18
102
{ACAD_REACTORS
330
17
102
}
330
17
100
AcDbMlineStyle
  2
Standard
 70
     0
  3

 62
   256
 51
90.0
 52
90.0
 71
     2
 49
0.5
 62
   256
  6
BYLAYER
 49
-0.5
 62
   256
  6
BYLAYER
  0
ACDBPLACEHOLDER
  5
F
102
{ACAD_REACTORS
330
E
102
}
330
E
  0
ENDSEC
  0
EOF
