  0
SECTION
  2
HEADER
  9
$ACADVER
  1
AC1015
  9
$ACADMAINTVER
 70
     6
  9
$DWGCODEPAGE
  3
DOS932
  9
$INSBASE
 10
0.0
 20
0.0
 30
0.0
  9
$EXTMIN
 10
0.0
 20
0.0
 30
0.0
  9
$EXTMAX
 10
840.0
 20
594.0
 30
0.0
  9
$LIMMIN
 10
0.0
 20
0.0
  9
$LIMMAX
 10
840.0
 20
594.0
  9
$ORTHOMODE
 70
     0
  9
$REGENMODE
 70
     1
  9
$FILLMODE
 70
     1
  9
$QTEXTMODE
 70
     0
  9
$MIRRTEXT
 70
     1
  9
$LTSCALE
 40
2.0
  9
$ATTMODE
 70
     1
  9
$TEXTSIZE
 40
7.0
  9
$TRACEWID
 40
1.0
  9
$TEXTSTYLE
  7
Standard
  9
$CLAYER
  8
0
  9
$CELTYPE
  6
ByLayer
  9
$CECOLOR
 62
   256
  9
$CELTSCALE
 40
1.0
  9
$DISPSILH
 70
     0
  9
$DIMSCALE
 40
1.0
  9
$DIMASZ
 40
6.0
  9
$DIMEXO
 40
2.0
  9
$DIMDLI
 40
3.75
  9
$DIMRND
 40
0.0
  9
$DIMDLE
 40
0.0
  9
$DIMEXE
 40
2.0
  9
$DIMTP
 40
0.0
  9
$DIMTM
 40
0.0
  9
$DIMTXT
 40
7.0
  9
$DIMCEN
 40
2.5
  9
$DIMTSZ
 40
0.0
  9
$DIMTOL
 70
     0
  9
$DIMLIM
 70
     0
  9
$DIMTIH
 70
     1
  9
$DIMTOH
 70
     1
  9
$DIMSE1
 70
     0
  9
$DIMSE2
 70
     0
  9
$DIMTAD
 70
     1
  9
$DIMZIN
 70
     0
  9
$DIMBLK
  1

  9
$DIMASO
 70
     1
  9
$DIMSHO
 70
     1
  9
$DIMPOST
  1

  9
$DIMAPOST
  1

  9
$DIMALT
 70
     0
  9
$DIMALTD
 70
     3
  9
$DIMALTF
 40
0.0393700787
  9
$DIMLFAC
 40
1.0
  9
$DIMTOFL
 70
     1
  9
$DIMTVP
 40
0.0
  9
$DIMTIX
 70
     0
  9
$DIMSOXD
 70
     0
  9
$DIMSAH
 70
     0
  9
$DIMBLK1
  1

  9
$DIMBLK2
  1

  9
$DIMSTYLE
  2
ISO-25
  9
$DIMCLRD
 70
     0
  9
$DIMCLRE
 70
     0
  9
$DIMCLRT
 70
     0
  9
$DIMTFAC
 40
1.0
  9
$DIMGAP
 40
3.048
  9
$DIMJUST
 70
     0
  9
$DIMSD1
 70
     0
  9
$DIMSD2
 70
     0
  9
$DIMTOLJ
 70
     0
  9
$DIMTZIN
 70
     0
  9
$DIMALTZ
 70
     0
  9
$DIMALTTZ
 70
     0
  9
$DIMUPT
 70
     0
  9
$DIMDEC
 70
     1
  9
$DIMTDEC
 70
     1
  9
$DIMALTU
 70
     2
  9
$DIMALTTD
 70
     3
  9
$DIMTXSTY
  7
Standard
  9
$DIMAUNIT
 70
     0
  9
$DIMADEC
 70
     2
  9
$DIMALTRND
 40
0.0
  9
$DIMAZIN
 70
     0
  9
$DIMDSEP
 70
    44
  9
$DIMATFIT
 70
     3
  9
$DIMFRAC
 70
     0
  9
$DIMLDRBLK
  1

  9
$DIMLUNIT
 70
     2
  9
$DIMLWD
 70
    -2
  9
$DIMLWE
 70
    -2
  9
$DIMTMOVE
 70
     0
  9
$LUNITS
 70
     2
  9
$LUPREC
 70
     1
  9
$SKETCHINC
 40
1.0
  9
$FILLETRAD
 40
10.0
  9
$AUNITS
 70
     0
  9
$AUPREC
 70
     2
  9
$MENU
  1
.
  9
$ELEVATION
 40
0.0
  9
$PELEVATION
 40
0.0
  9
$THICKNESS
 40
0.0
  9
$LIMCHECK
 70
     0
  9
$CHAMFERA
 40
10.0
  9
$CHAMFERB
 40
10.0
  9
$CHAMFERC
 40
20.0
  9
$CHAMFERD
 40
0.0
  9
$SKPOLY
 70
     0
  9
$TDCREATE
 40
2460445.687925266
  9
$TDUCREATE
 40
2460445.312925266
  9
$TDUPDATE
 40
2460445.687925278
  9
$TDUUPDATE
 40
2460445.312925278
  9
$TDINDWG
 40
0.0000000116
  9
$TDUSRTIMER
 40
0.0000000116
  9
$USRTIMER
 70
     1
  9
$ANGBASE
 50
0.0
  9
$ANGDIR
 70
     0
  9
$PDMODE
 70
     0
  9
$PDSIZE
 40
-1.0
  9
$PLINEWID
 40
0.0
  9
$SPLFRAME
 70
     0
  9
$SPLINETYPE
 70
     6
  9
$SPLINESEGS
 70
     8
  9
$HANDSEED
  5
254
  9
$SURFTAB1
 70
     6
  9
$SURFTAB2
 70
     6
  9
$SURFTYPE
 70
     6
  9
$SURFU
 70
     6
  9
$SURFV
 70
     6
  9
$UCSBASE
  2

  9
$UCSNAME
  2

  9
$UCSORG
 10
0.0
 20
0.0
 30
0.0
  9
$UCSXDIR
 10
1.0
 20
0.0
 30
0.0
  9
$UCSYDIR
 10
0.0
 20
1.0
 30
0.0
  9
$UCSORTHOREF
  2

  9
$UCSORTHOVIEW
 70
     0
  9
$UCSORGTOP
 10
0.0
 20
0.0
 30
0.0
  9
$UCSORGBOTTOM
 10
0.0
 20
0.0
 30
0.0
  9
$UCSORGLEFT
 10
0.0
 20
0.0
 30
0.0
  9
$UCSORGRIGHT
 10
0.0
 20
0.0
 30
0.0
  9
$UCSORGFRONT
 10
0.0
 20
0.0
 30
0.0
  9
$UCSORGBACK
 10
0.0
 20
0.0
 30
0.0
  9
$PUCSBASE
  2

  9
$PUCSNAME
  2

  9
$PUCSORG
 10
0.0
 20
0.0
 30
0.0
  9
$PUCSXDIR
 10
1.0
 20
0.0
 30
0.0
  9
$PUCSYDIR
 10
0.0
 20
1.0
 30
0.0
  9
$PUCSORTHOREF
  2

  9
$PUCSORTHOVIEW
 70
     0
  9
$PUCSORGTOP
 10
0.0
 20
0.0
 30
0.0
  9
$PUCSORGBOTTOM
 10
0.0
 20
0.0
 30
0.0
  9
$PUCSORGLEFT
 10
0.0
 20
0.0
 30
0.0
  9
$PUCSORGRIGHT
 10
0.0
 20
0.0
 30
0.0
  9
$PUCSORGFRONT
 10
0.0
 20
0.0
 30
0.0
  9
$PUCSORGBACK
 10
0.0
 20
0.0
 30
0.0
  9
$USERI1
 70
     0
  9
$USERI2
 70
     0
  9
$USERI3
 70
     0
  9
$USERI4
 70
     0
  9
$USERI5
 70
     0
  9
$USERR1
 40
0.0
  9
$USERR2
 40
0.0
  9
$USERR3
 40
0.0
  9
$USERR4
 40
0.0
  9
$USERR5
 40
0.0
  9
$WORLDVIEW
 70
     1
  9
$SHADEDGE
 70
     3
  9
$SHADEDIF
 70
    70
  9
$TILEMODE
 70
     1
  9
$MAXACTVP
 70
    64
  9
$PINSBASE
 10
0.0
 20
0.0
 30
0.0
  9
$PLIMCHECK
 70
     0
  9
$PEXTMIN
 10
1.0000000000E+20
 20
1.0000000000E+20
 30
1.0000000000E+20
  9
$PEXTMAX
 10
-1.0000000000E+20
 20
-1.0000000000E+20
 30
-1.0000000000E+20
  9
$PLIMMIN
 10
0.0
 20
0.0
  9
$PLIMMAX
 10
420.0
 20
297.0
  9
$UNITMODE
 70
     0
  9
$VISRETAIN
 70
     1
  9
$PLINEGEN
 70
     0
  9
$PSLTSCALE
 70
     1
  9
$TREEDEPTH
 70
  3020
  9
$CMLSTYLE
  2
Standard
  9
$CMLJUST
 70
     0
  9
$CMLSCALE
 40
20.0
  9
$PROXYGRAPHICS
 70
     1
  9
$MEASUREMENT
 70
     1
  9
$CELWEIGHT
370
    -1
  9
$ENDCAPS
280
     0
  9
$JOINSTYLE
280
     0
  9
$LWDISPLAY
290
     1
  9
$INSUNITS
 70
     4
  9
$HYPERLINKBASE
  1

  9
$STYLESHEET
  1

  9
$XEDIT
290
     1
  9
$CEPSNTYPE
380
     0
  9
$PSTYLEMODE
290
     1
  9
$FINGERPRINTGUID
  2
{8DD7EE93-04C7-444A-B1DC-1D71C1EA3ED0}
  9
$VERSIONGUID
  2
{FAEB1C32-E019-11D5-929B-00C0DF256EC4}
  9
$EXTNAMES
290
     1
  9
$PSVPSCALE
 40
0.0
  9
$OLESTARTUP
290
     0
  0
ENDSEC
  0
SECTION
  2
CLASSES
  0
CLASS
  1
ACDBDICTIONARYWDFLT
  2
AcDbDictionaryWithDefault
  3
ObjectDBX Classes
 90
        0
280
     0
281
     0
  0
CLASS
  1
VISUALSTYLE
  2
AcDbVisualStyle
  3
ObjectDBX Classes
 90
     4095
280
     0
281
     0
  0
CLASS
  1
MATERIAL
  2
AcDbMaterial
  3
ObjectDBX Classes
 90
     1153
280
     0
281
     0
  0
CLASS
  1
ACDBPLACEHOLDER
  2
AcDbPlaceHolder
  3
ObjectDBX Classes
 90
        0
280
     0
281
     0
  0
CLASS
  1
LAYOUT
  2
AcDbLayout
  3
ObjectDBX Classes
 90
        0
280
     0
281
     0
  0
ENDSEC
  0
SECTION
  2
TABLES
  0
TABLE
  2
VPORT
  5
8
330
0
100
AcDbSymbolTable
 70
     1
  0
VPORT
  5
29
330
8
100
AcDbSymbolTableRecord
100
AcDbViewportTableRecord
  2
*Active
 70
     0
 10
0.0
 20
0.0
 11
1.0
 21
1.0
 12
420.0
 22
297.0
 13
0.0
 23
0.0
 14
10.0
 24
10.0
 15
10.0
 25
10.0
 16
0.0
 26
0.0
 36
1.0
 17
0.0
 27
0.0
 37
0.0
 40
594.0
 41
1.4141414141
 42
50.0
 43
0.0
 44
0.0
 50
0.0
 51
0.0
 71
     0
 72
  2000
 73
     1
 74
     3
 75
     0
 76
     0
 77
     0
 78
     0
281
     0
 65
     1
110
0.0
120
0.0
130
0.0
111
1.0
121
0.0
131
0.0
112
0.0
122
1.0
132
0.0
 79
     0
146
0.0
  0
ENDTAB
  0
TABLE
  2
LTYPE
  5
5
330
0
100
AcDbSymbolTable
 70
     6
  0
LTYPE
  5
14
330
5
100
AcDbSymbolTableRecord
100
AcDbLinetypeTableRecord
  2
ByBlock
 70
     0
  3

 72
    65
 73
     0
 40
0.0
  0
LTYPE
  5
15
330
5
100
AcDbSymbolTableRecord
100
AcDbLinetypeTableRecord
  2
ByLayer
 70
     0
  3

 72
    65
 73
     0
 40
0.0
  0
LTYPE
  5
16
330
5
100
AcDbSymbolTableRecord
100
AcDbLinetypeTableRecord
  2
Continuous
 70
     0
  3
Solid line
 72
    65
 73
     0
 40
0.0
  0
LTYPE
  5
3F
330
5
100
AcDbSymbolTableRecord
100
AcDbLinetypeTableRecord
  2
HIDDEN
 70
     0
  3
Hidden __ __ __ __ __ __ __ __ __ __ __ __ __ __
 72
    65
 73
     2
 40
1.905
 49
1.27
 74
     0
 49
-0.635
 74
     0
  0
LTYPE
  5
40
330
5
100
AcDbSymbolTableRecord
100
AcDbLinetypeTableRecord
  2
PHANTOM
 70
     0
  3
Phantom ______  __  __  ______  __  __  ______
 72
    65
 73
     6
 40
12.7
 49
6.35
 74
     0
 49
-1.27
 74
     0
 49
1.27
 74
     0
 49
-1.27
 74
     0
 49
1.27
 74
     0
 49
-1.27
 74
     0
  0
LTYPE
  5
41
330
5
100
AcDbSymbolTableRecord
100
AcDbLinetypeTableRecord
  2
CENTER
 70
     0
  3
Center ____ _ ____ _ ____ _ ____ _ ____ _ ____
 72
    65
 73
     4
 40
10.16
 49
6.35
 74
     0
 49
-1.27
 74
     0
 49
1.27
 74
     0
 49
-1.27
 74
     0
  0
LTYPE
  5
42
330
5
100
AcDbSymbolTableRecord
100
AcDbLinetypeTableRecord
  2
CENTERX2
 70
     0
  3
Center (2x) ________  __  ________  __  _____
 72
    65
 73
     4
 40
20.32
 49
12.7
 74
     0
 49
-2.54
 74
     0
 49
2.54
 74
     0
 49
-2.54
 74
     0
  0
LTYPE
  5
43
330
5
100
AcDbSymbolTableRecord
100
AcDbLinetypeTableRecord
  2
DOT2
 70
     0
  3
Dot (.5x) ........................................
 72
    65
 73
     2
 40
0.635
 49
0.0
 74
     0
 49
-0.635
 74
     0
  0
ENDTAB
  0
TABLE
  2
LAYER
  5
2
330
0
100
AcDbSymbolTable
 70
     1
  0
LAYER
  5
10
330
2
100
AcDbSymbolTableRecord
100
AcDbLayerTableRecord
  2
0
 70
     0
 62
     7
  6
Continuous
370
    -3
390
F
  0
ENDTAB
  0
TABLE
  2
STYLE
  5
3
330
0
100
AcDbSymbolTable
 70
     2
  0
STYLE
  5
11
330
3
100
AcDbSymbolTableRecord
100
AcDbTextStyleTableRecord
  2
Standard
 70
     0
 40
0.0
 41
1.0
 50
0.0
 71
     0
 42
2.5
  3
txt
  4
bigfont
  0
STYLE
  5
44
330
3
100
AcDbSymbolTableRecord
100
AcDbTextStyleTableRecord
  2
SLDTEXTSTYLE0
 70
     0
 40
0.0
 41
0.7
 50
0.0
 71
     0
 42
0.2
  3
TXT
  4
bigfont
  0
ENDTAB
  0
TABLE
  2
VIEW
  5
6
330
0
100
AcDbSymbolTable
 70
     0
  0
ENDTAB
  0
TABLE
  2
UCS
  5
7
330
0
100
AcDbSymbolTable
 70
     0
  0
ENDTAB
  0
TABLE
  2
APPID
  5
9
330
0
100
AcDbSymbolTable
 70
     1
  0
APPID
  5
12
330
9
100
AcDbSymbolTableRecord
100
AcDbRegAppTableRecord
  2
ACAD
 70
     0
  0
ENDTAB
  0
TABLE
  2
DIMSTYLE
  5
A
330
0
100
AcDbSymbolTable
 70
     1
100
AcDbDimStyleTable
  0
DIMSTYLE
105
27
330
A
100
AcDbSymbolTableRecord
100
AcDbDimStyleTableRecord
  2
ISO-25
 70
     0
 41
2.5
 42
0.625
 43
3.75
 44
1.25
 73
     0
 74
     0
 77
     1
 78
     8
140
2.5
141
2.5
143
0.0393700787
147
0.625
171
     3
172
     1
178
     0
271
     2
272
     2
274
     3
278
    44
283
     0
284
     8
340
11
  0
ENDTAB
  0
TABLE
  2
BLOCK_RECORD
  5
1
330
0
100
AcDbSymbolTable
 70
     1
  0
BLOCK_RECORD
  5
1F
330
1
100
AcDbSymbolTableRecord
100
AcDbBlockTableRecord
  2
*Model_Space
340
22
  0
BLOCK_RECORD
  5
1B
330
1
100
AcDbSymbolTableRecord
100
AcDbBlockTableRecord
  2
*Paper_Space
340
1E
  0
BLOCK_RECORD
  5
23
330
1
100
AcDbSymbolTableRecord
100
AcDbBlockTableRecord
  2
*Paper_Space0
340
26
  0
ENDTAB
  0
ENDSEC
  0
SECTION
  2
BLOCKS
  0
BLOCK
  5
20
330
1F
100
AcDbEntity
  8
0
100
AcDbBlockBegin
  2
*Model_Space
 70
     0
 10
0.0
 20
0.0
 30
0.0
  3
*Model_Space
  1

  0
ENDBLK
  5
21
330
1F
100
AcDbEntity
  8
0
100
AcDbBlockEnd
  0
BLOCK
  5
1C
330
1B
100
AcDbEntity
 67
     1
  8
0
100
AcDbBlockBegin
  2
*Paper_Space
 70
     0
 10
0.0
 20
0.0
 30
0.0
  3
*Paper_Space
  1

  0
ENDBLK
  5
1D
330
1B
100
AcDbEntity
 67
     1
  8
0
100
AcDbBlockEnd
  0
BLOCK
  5
24
330
23
100
AcDbEntity
  8
0
100
AcDbBlockBegin
  2
*Paper_Space0
 70
     0
 10
0.0
 20
0.0
 30
0.0
  3
*Paper_Space0
  1

  0
ENDBLK
  5
25
330
23
100
AcDbEntity
  8
0
100
AcDbBlockEnd
  0
ENDSEC
  0
SECTION
  2
ENTITIES
  0
MTEXT
  5
45
330
1F
100
AcDbEntity
  8
0
  6
Continuous
 62
     7
370
     0
100
AcDbMText
 10
166.2472753008
 20
487.2520657491
 30
0.0
 40
7.0
 41
0.0
 71
     1
 72
     1
  1
CHB-509N
  7
SLDTEXTSTYLE0
 73
     1
 44
1.0
  0
LINE
  5
46
330
1F
100
AcDbEntity
  8
0
  6
Continuous
 62
     7
370
    15
100
AcDbLine
 10
434.6810341252
 20
218.0516632231
 30
0.0
 11
434.7810358179
 21
218.0516632231
 31
0.0
  0
LINE
  5
47
330
1F
100
AcDbEntity
  8
0
  6
Continuous
 62
     7
370
    15
100
AcDbLine
 10
434.7810358179
 20
224.0516635081
 30
0.0
 11
434.6810341252
 21
224.0516635081
 31
0.0
  0
LINE
  5
48
330
1F
100
AcDbEntity
  8
0
  6
Continuous
 62
     7
370
    15
100
AcDbLine
 10
434.6810341252
 20
208.0516627481
 30
0.0
 11
434.7810358179
 21
208.0516627481
 31
0.0
  0
LINE
  5
49
330
1F
100
AcDbEntity
  8
0
  6
Continuous
 62
     7
370
    15
100
AcDbLine
 10
434.7810358179
 20
214.0516630331
 30
0.0
 11
434.6810341252
 21
214.0516630331
 31
0.0
  0
LINE
  5
4A
330
1F
100
AcDbEntity
  8
0
  6
Continuous
 62
     7
370
    15
100
AcDbLine
 10
435.9810263289
 20
227.5516631504
 30
0.0
 11
434.7810358179
 21
227.5516631504
 31
0.0
  0
LINE
  5
4B
330
1F
100
AcDbEntity
  8
0
  6
Continuous
 62
     7
370
    15
100
AcDbLine
 10
434.7810358179
 20
204.5516631057
 30
0.0
 11
435.9810263289
 21
204.5516631057
 31
0.0
  0
LINE
  5
4C
330
1F
100
AcDbEntity
  8
0
  6
Continuous
 62
     7
370
    15
100
AcDbLine
 10
747.4810392035
 20
325.0516605055
 30
0.0
 11
747.4810392035
 21
360.0516569292
 31
0.0
  0
LINE
  5
4D
330
1F
100
AcDbEntity
  8
0
  6
Continuous
 62
     7
370
    15
100
AcDbLine
 10
747.4810392035
 20
72.051669327
 30
0.0
 11
747.4810392035
 21
107.0516657507
 31
0.0
  0
LINE
  5
4E
330
1F
100
AcDbEntity
  8
0
  6
Continuous
 62
     7
370
    15
100
AcDbLine
 10
426.8762231243
 20
219.9516630223
 30
0.0
 11
426.8762231243
 21
211.3516631959
 31
0.0
  0
LINE
  5
4F
330
1F
100
AcDbEntity
  8
0
  6
Continuous
 62
     7
370
    15
100
AcDbLine
 10
427.4810314549
 20
224.051409257
 30
0.0
 11
427.4810314549
 21
223.2516630044
 31
0.0
  0
LINE
  5
50
330
1F
100
AcDbEntity
  8
0
  6
Continuous
 62
     7
370
    15
100
AcDbLine
 10
427.4810314549
 20
208.8516632518
 30
0.0
 11
427.4810314549
 21
208.0519169992
 31
0.0
  0
LINE
  5
51
330
1F
100
AcDbEntity
  8
0
  6
Continuous
 62
     7
370
    15
100
AcDbLine
 10
428.8810253514
 20
224.3516629985
 30
0.0
 11
428.8810253514
 21
224.0516635081
 31
0.0
  0
ARC
  5
52
330
1F
100
AcDbEntity
  8
0
  6
Continuous
 62
     7
370
    15
100
AcDbCircle
 10
431.0810322893
 20
221.244520271
 30
0.0
 40
3.807142857143162
100
AcDbArc
 50
77.9663271603
 51
90.0
  0
ARC
  5
53
330
1F
100
AcDbEntity
  8
0
  6
Continuous
 62
     7
370
    15
100
AcDbCircle
 10
431.0810322893
 20
221.244520271
 30
0.0
 40
3.807142857143165
100
AcDbArc
 50
90.0
 51
125.3002484399
  0
LINE
  5
54
330
1F
100
AcDbEntity
  8
0
  6
Continuous
 62
     7
370
    15
100
AcDbLine
 10
428.9810270441
 20
207.6516634276
 30
0.0
 11
428.9810270441
 21
207.2516631758
 31
0.0
  0
ARC
  5
55
330
1F
100
AcDbEntity
  8
0
  6
Continuous
 62
     7
370
    15
100
AcDbCircle
 10
429.1810322893
 20
208.0516631281
 30
0.0
 40
0.4000000000007731
100
AcDbArc
 50
270.0
 51
0.0
  0
LINE
  5
56
330
1F
100
AcDbEntity
  8
0
  6
Continuous
 62
     7
370
    15
100
AcDbLine
 10
429.5810372008
 20
223.2516630044
 30
0.0
 11
429.5810372008
 21
222.8016633032
 31
0.0
  0
LINE
  5
57
330
1F
100
AcDbEntity
  8
0
  6
Continuous
 62
     7
370
    15
100
AcDbLine
 10
429.5810372008
 20
209.301662953
 30
0.0
 11
429.5810372008
 21
208.8516632518
 31
0.0
  0
SPLINE
  5
58
330
1F
100
AcDbEntity
  8
0
  6
Continuous
 62
     7
370
    15
100
AcDbSpline
210
0.0
220
0.0
230
1.0
 70
     8
 71
     3
 72
    11
 73
     7
 74
     0
 42
0.00000001
 43
0.00000001
 40
0.0
 40
0.0
 40
0.0
 40
0.0
 40
0.2262263431086887
 40
0.4679482906992269
 40
0.7254882991793307
 40
1.0
 40
1.0
 40
1.0
 40
1.0
 10
432.3015421999199
 20
224.2820978587449
 30
0.0
 10
432.3043692656938
 20
224.2591994472156
 30
0.0
 10
432.3102170399998
 20
224.2118341740664
 30
0.0
 10
432.326977072242
 20
223.8870458958355
 30
0.0
 10
432.3405785102781
 20
223.3865484842226
 30
0.0
 10
432.3411124296383
 20
222.962728056224
 30
0.0
 10
432.3413879049522
 20
222.7440582079769
 30
0.0
  0
SPLINE
  5
59
330
1F
100
AcDbEntity
  8
0
  6
Continuous
 62
     7
370
    15
100
AcDbSpline
210
0.0
220
0.0
230
1.0
 70
     8
 71
     3
 72
    12
 73
     8
 74
     0
 42
0.00000001
 43
0.00000001
 40
0.0
 40
0.0
 40
0.0
 40
0.0
 40
0.2489450918608725
 40
0.4822920041796321
 40
0.6998108393712417
 40
0.9035366771083447
 40
1.0
 40
1.0
 40
1.0
 40
1.0
 10
432.3413879049522
 20
209.1854273764372
 30
0.0
 10
432.3399620340963
 20
209.048092801624
 30
0.0
 10
432.337199633329
 20
208.7820286393031
 30
0.0
 10
432.32629870265
 20
208.4462288677363
 30
0.0
 10
432.3237883489945
 20
208.2130478020046
 30
0.0
 10
432.3285775032929
 20
208.0929440125733
 30
0.0
 10
432.3550080037704
 20
208.0915974893156
 30
0.0
 10
432.3635012281639
 20
208.0911647951186
 30
0.0
  0
LINE
  5
5A
330
1F
100
AcDbEntity
  8
0
  6
Continuous
 62
     7
370
    15
100
AcDbLine
 10
432.3405385388
 20
222.794058123
 30
0.0
 11
432.3405385388
 21
209.1354274614
 31
0.0
  0
LINE
  5
5B
330
1F
100
AcDbEntity
  8
0
  6
Continuous
 62
     7
370
    15
100
AcDbLine
 10
430.816924609
 20
226.7319465479
 30
0.0
 11
432.3042840136
 21
224.2517991414
 31
0.0
  0
LINE
  5
5C
330
1F
100
AcDbEntity
  8
0
  6
Continuous
 62
     7
370
    15
100
AcDbLine
 10
434.7810358179
 20
225.9549087336
 30
0.0
 11
433.3897441996
 21
228.2748723825
 31
0.0
  0
LINE
  5
5D
330
1F
100
AcDbEntity
  8
0
  6
Continuous
 62
     7
370
    15
100
AcDbLine
 10
432.3687762392
 20
207.9590790397
 30
0.0
 11
430.7996988667
 21
205.3426605141
 31
0.0
  0
LINE
  5
5E
330
1F
100
AcDbEntity
  8
0
  6
Continuous
 62
     7
370
    15
100
AcDbLine
 10
433.3725184572
 20
203.7997346794
 30
0.0
 11
434.7810358179
 21
206.1484175226
 31
0.0
  0
LINE
  5
5F
330
1F
100
AcDbEntity
  8
0
  6
Continuous
 62
     7
370
    15
100
AcDbLine
 10
433.4096372498
 20
228.2393638467
 30
0.0
 11
433.3196789397
 21
228.3531509763
 31
0.0
  0
SPLINE
  5
60
330
1F
100
AcDbEntity
  8
0
  6
Continuous
 62
     7
370
    15
100
AcDbSpline
210
0.0
220
0.0
230
1.0
 70
     8
 71
     3
 72
    20
 73
    16
 74
     0
 42
0.00000001
 43
0.00000001
 40
0.0
 40
0.0
 40
0.0
 40
0.0
 40
0.0337795320769634
 40
0.1101052722337214
 40
0.1739286280335738
 40
0.2252742953923542
 40
0.2665369082802277
 40
0.3037730311234147
 40
0.3388589118383759
 40
0.3726392898115905
 40
0.4139180532096744
 40
0.6259819391906802
 40
0.8390271460937679
 40
0.9659462154134418
 40
0.9999999999999999
 40
0.9999999999999999
 40
0.9999999999999999
 40
0.9999999999999999
 10
433.2073688877326
 20
228.4952205097259
 30
0.0
 10
433.1667136971304
 20
228.5514060128085
 30
0.0
 10
433.0341970353021
 20
228.7345441361668
 30
0.0
 10
432.724323638225
 20
228.9117195797639
 30
0.0
 10
432.3370523884557
 20
229.0346773472079
 30
0.0
 10
431.9672026549159
 20
229.049464676962
 30
0.0
 10
431.6328890639642
 20
228.9988771531703
 30
0.0
 10
431.358409579892
 20
228.8978209236357
 30
0.0
 10
431.1308966663511
 20
228.7631165220237
 30
0.0
 10
430.9248822820645
 20
228.5869284553446
 30
0.0
 10
430.5803124531774
 20
228.1444513322676
 30
0.0
 10
430.3992625314518
 20
227.4577579980831
 30
0.0
 10
430.2494496763696
 20
226.2769369637822
 30
0.0
 10
430.1943316295569
 20
225.3722909962456
 30
0.0
 10
430.1877700700815
 20
224.9577031063659
 30
0.0
 10
430.186381973098
 20
224.8699970966161
 30
0.0
  0
SPLINE
  5
61
330
1F
100
AcDbEntity
  8
0
  6
Continuous
 62
     7
370
    15
100
AcDbSpline
210
0.0
220
0.0
230
1.0
 70
     8
 71
     3
 72
    19
 73
    15
 74
     0
 42
0.00000001
 43
0.00000001
 40
0.0
 40
0.0
 40
0.0
 40
0.0
 40
0.010273646983009
 40
0.1295975013657651
 40
0.3268130443643361
 40
0.5525080531561936
 40
0.5858538596457425
 40
0.61860140563484
 40
0.6529072939962007
 40
0.6960067057026089
 40
0.7523142598611406
 40
0.8223144720268509
 40
0.9054617455279842
 40
1.0
 40
1.0
 40
1.0
 40
1.0
 10
430.18353585131
 20
207.2516631757796
 30
0.0
 10
430.1838590340865
 20
207.2244641933631
 30
0.0
 10
430.1879358415134
 20
206.8813610901798
 30
0.0
 10
430.2277237984945
 20
206.0613801150457
 30
0.0
 10
430.3627141153522
 20
204.8389514929913
 30
0.0
 10
430.4531134894344
 20
204.1955667624863
 30
0.0
 10
430.8039967527795
 20
203.6554869507089
 30
0.0
 10
430.9732200023269
 20
203.467636465815
 30
0.0
 10
431.2099380233433
 20
203.2911651046317
 30
0.0
 10
431.5235598545274
 20
203.1376798050979
 30
0.0
 10
431.9270506277811
 20
203.0359004583426
 30
0.0
 10
432.412910738341
 20
203.0590622274494
 30
0.0
 10
432.942667883248
 20
203.2693813380785
 30
0.0
 10
433.207891304531
 20
203.5912037351014
 30
0.0
 10
433.3490044248802
 20
203.7624305536926
 30
0.0
  0
LINE
  5
62
330
1F
100
AcDbEntity
  8
0
  6
Continuous
 62
     7
370
    15
100
AcDbLine
 10
747.4810392035
 20
36.0516559755
 30
0.0
 11
747.4810392035
 21
71.0516673004
 31
0.0
  0
LINE
  5
63
330
1F
100
AcDbEntity
  8
0
  6
Continuous
 62
     7
370
    15
100
AcDbLine
 10
747.4810392035
 20
361.0516589558
 30
0.0
 11
747.4810392035
 21
396.0516702807
 31
0.0
  0
LINE
  5
64
330
1F
100
AcDbEntity
  8
0
  6
Continuous
 62
     7
370
    15
100
AcDbLine
 10
744.4810331238
 20
71.0516673004
 30
0.0
 11
744.4810331238
 21
72.051669327
 31
0.0
  0
LINE
  5
65
330
1F
100
AcDbEntity
  8
0
  6
Continuous
 62
     7
370
    15
100
AcDbLine
 10
744.4810331238
 20
107.0516657507
 30
0.0
 11
744.4810331238
 21
108.0516603267
 31
0.0
  0
LINE
  5
66
330
1F
100
AcDbEntity
  8
0
  6
Continuous
 62
     7
370
    15
100
AcDbLine
 10
739.4810378922
 20
108.0516603267
 30
0.0
 11
739.4810378922
 21
107.0516657507
 31
0.0
  0
LINE
  5
67
330
1F
100
AcDbEntity
  8
0
  6
Continuous
 62
     7
370
    15
100
AcDbLine
 10
739.4810378922
 20
72.051669327
 30
0.0
 11
739.4810378922
 21
71.0516673004
 31
0.0
  0
LINE
  5
68
330
1F
100
AcDbEntity
  8
0
  6
Continuous
 62
     7
370
    15
100
AcDbLine
 10
739.4810378922
 20
361.0516589558
 30
0.0
 11
739.4810378922
 21
360.0516569292
 31
0.0
  0
LINE
  5
69
330
1F
100
AcDbEntity
  8
0
  6
Continuous
 62
     7
370
    15
100
AcDbLine
 10
739.4810378922
 20
325.0516605055
 30
0.0
 11
739.4810378922
 21
324.0516659295
 31
0.0
  0
LINE
  5
6A
330
1F
100
AcDbEntity
  8
0
  6
Continuous
 62
     7
370
    15
100
AcDbLine
 10
744.4810331238
 20
324.0516659295
 30
0.0
 11
744.4810331238
 21
325.0516605055
 31
0.0
  0
LINE
  5
6B
330
1F
100
AcDbEntity
  8
0
  6
Continuous
 62
     7
370
    15
100
AcDbLine
 10
744.4810331238
 20
360.0516569292
 30
0.0
 11
744.4810331238
 21
361.0516589558
 31
0.0
  0
LINE
  5
6C
330
1F
100
AcDbEntity
  8
0
  6
Continuous
 62
     7
370
    15
100
AcDbLine
 10
427.6810348404
 20
209.5944740301
 30
0.0
 11
427.6810348404
 21
209.301662953
 31
0.0
  0
LINE
  5
6D
330
1F
100
AcDbEntity
  8
0
  6
Continuous
 62
     7
370
    15
100
AcDbLine
 10
427.6810348404
 20
222.8016633032
 30
0.0
 11
427.6810348404
 21
222.5088522261
 31
0.0
  0
LINE
  5
6E
330
1F
100
AcDbEntity
  8
0
  6
Continuous
 62
     7
370
    15
100
AcDbLine
 10
450.9810269249
 20
31.0516607439
 30
0.0
 11
450.9810269249
 21
401.0516655123
 31
0.0
  0
LINE
  5
6F
330
1F
100
AcDbEntity
  8
0
  6
Continuous
 62
     7
370
    15
100
AcDbLine
 10
435.9810263289
 20
31.0516607439
 30
0.0
 11
450.9810269249
 21
31.0516607439
 31
0.0
  0
LINE
  5
70
330
1F
100
AcDbEntity
  8
0
  6
Continuous
 62
     7
370
    15
100
AcDbLine
 10
435.9810263289
 20
31.0516607439
 30
0.0
 11
435.9810263289
 21
206.0641710138
 31
0.0
  0
LINE
  5
71
330
1F
100
AcDbEntity
  8
0
  6
Continuous
 62
     7
370
    15
100
AcDbLine
 10
435.9810263289
 20
226.0391552424
 30
0.0
 11
435.9810263289
 21
401.0516655123
 31
0.0
  0
LINE
  5
72
330
1F
100
AcDbEntity
  8
0
  6
Continuous
 62
     7
370
    15
100
AcDbLine
 10
435.9810263289
 20
401.0516655123
 30
0.0
 11
450.9810269249
 21
401.0516655123
 31
0.0
  0
LINE
  5
73
330
1F
100
AcDbEntity
  8
0
  6
Continuous
 62
     7
370
    15
100
AcDbLine
 10
450.9810269249
 20
401.0516655123
 30
0.0
 11
450.9810269249
 21
416.0516661083
 31
0.0
  0
LINE
  5
74
330
1F
100
AcDbEntity
  8
0
  6
Continuous
 62
     7
370
    15
100
AcDbLine
 10
450.9810269249
 20
416.0516661083
 30
0.0
 11
720.9810376538
 21
416.0516661083
 31
0.0
  0
LINE
  5
75
330
1F
100
AcDbEntity
  8
0
  6
Continuous
 62
     7
370
    15
100
AcDbLine
 10
720.9810376538
 20
416.0516661083
 30
0.0
 11
720.9810376538
 21
401.0516655123
 31
0.0
  0
LINE
  5
76
330
1F
100
AcDbEntity
  8
0
  6
Continuous
 62
     7
370
    15
100
AcDbLine
 10
450.9810269249
 20
401.0516655123
 30
0.0
 11
720.9810376538
 21
401.0516655123
 31
0.0
  0
ARC
  5
77
330
1F
100
AcDbEntity
  8
0
  6
Continuous
 62
     7
370
    15
100
AcDbCircle
 10
450.9810322893
 20
401.0516631281
 30
0.0
 40
15.0
100
AcDbArc
 50
90.0
 51
180.0
  0
LINE
  5
78
330
1F
100
AcDbEntity
  8
0
  6
Continuous
 62
     7
370
    15
100
AcDbLine
 10
715.981027521
 20
36.0516559755
 30
0.0
 11
715.981027521
 21
396.0516702807
 31
0.0
  0
LINE
  5
79
330
1F
100
AcDbEntity
  8
0
  6
Continuous
 62
     7
370
    15
100
AcDbLine
 10
455.9810370577
 20
396.0516702807
 30
0.0
 11
715.981027521
 21
396.0516702807
 31
0.0
  0
LINE
  5
7A
330
1F
100
AcDbEntity
  8
0
  6
Continuous
 62
     7
370
    15
100
AcDbLine
 10
455.9810370577
 20
36.0516559755
 30
0.0
 11
455.9810370577
 21
396.0516702807
 31
0.0
  0
LINE
  5
7B
330
1F
100
AcDbEntity
  8
0
  6
Continuous
 62
     7
370
    15
100
AcDbLine
 10
715.981027521
 20
36.0516559755
 30
0.0
 11
455.9810370577
 21
36.0516559755
 31
0.0
  0
LINE
  5
7C
330
1F
100
AcDbEntity
  8
0
  6
Continuous
 62
     7
370
    15
100
AcDbLine
 10
720.9810376538
 20
31.0516607439
 30
0.0
 11
720.9810376538
 21
401.0516655123
 31
0.0
  0
LINE
  5
7D
330
1F
100
AcDbEntity
  8
0
  6
Continuous
 62
     7
370
    15
100
AcDbLine
 10
720.9810376538
 20
31.0516607439
 30
0.0
 11
450.9810269249
 21
31.0516607439
 31
0.0
  0
ARC
  5
7E
330
1F
100
AcDbEntity
  8
0
  6
Continuous
 62
     7
370
    15
100
AcDbCircle
 10
720.9810322893
 20
401.0516631281
 30
0.0
 40
15.0
100
AcDbArc
 50
0.0
 51
90.0
  0
LINE
  5
7F
330
1F
100
AcDbEntity
  8
0
  6
Continuous
 62
     7
370
    15
100
AcDbLine
 10
735.9810382498
 20
401.0516655123
 30
0.0
 11
720.9810376538
 21
401.0516655123
 31
0.0
  0
LINE
  5
80
330
1F
100
AcDbEntity
  8
0
  6
Continuous
 62
     7
370
    15
100
AcDbLine
 10
735.9810382498
 20
31.0516607439
 30
0.0
 11
735.9810382498
 21
401.0516655123
 31
0.0
  0
LINE
  5
81
330
1F
100
AcDbEntity
  8
0
  6
Continuous
 62
     7
370
    15
100
AcDbLine
 10
720.9810376538
 20
31.0516607439
 30
0.0
 11
735.9810382498
 21
31.0516607439
 31
0.0
  0
LINE
  5
82
330
1F
100
AcDbEntity
  8
0
  6
Continuous
 62
     7
370
    15
100
AcDbLine
 10
720.9810376538
 20
31.0516607439
 30
0.0
 11
720.9810376538
 21
16.0516601479
 31
0.0
  0
LINE
  5
83
330
1F
100
AcDbEntity
  8
0
  6
Continuous
 62
     7
370
    15
100
AcDbLine
 10
720.9810376538
 20
16.0516601479
 30
0.0
 11
450.9810269249
 21
16.0516601479
 31
0.0
  0
LINE
  5
84
330
1F
100
AcDbEntity
  8
0
  6
Continuous
 62
     7
370
    15
100
AcDbLine
 10
450.9810269249
 20
16.0516601479
 30
0.0
 11
450.9810269249
 21
31.0516607439
 31
0.0
  0
ARC
  5
85
330
1F
100
AcDbEntity
  8
0
  6
Continuous
 62
     7
370
    15
100
AcDbCircle
 10
720.9810322893
 20
31.0516631281
 30
0.0
 40
15.00000000000001
100
AcDbArc
 50
270.0
 51
0.0
  0
ARC
  5
86
330
1F
100
AcDbEntity
  8
0
  6
Continuous
 62
     7
370
    15
100
AcDbCircle
 10
450.9810322893
 20
31.0516631281
 30
0.0
 40
15.00000000000001
100
AcDbArc
 50
180.0
 51
270.0
  0
LINE
  5
87
330
1F
100
AcDbEntity
  8
0
  6
Continuous
 62
     7
370
    15
100
AcDbLine
 10
434.7810358179
 20
227.0861462181
 30
0.0
 11
435.9810263289
 21
227.0861462181
 31
0.0
  0
LINE
  5
88
330
1F
100
AcDbEntity
  8
0
  6
Continuous
 62
     7
370
    15
100
AcDbLine
 10
434.7810358179
 20
205.0171800381
 30
0.0
 11
435.9810263289
 21
205.0171800381
 31
0.0
  0
LINE
  5
89
330
1F
100
AcDbEntity
  8
0
  6
Continuous
 62
     7
370
    15
100
AcDbLine
 10
435.9810263289
 20
226.0391552424
 30
0.0
 11
435.9810263289
 21
206.0641710138
 31
0.0
  0
LINE
  5
8A
330
1F
100
AcDbEntity
  8
0
  6
Continuous
 62
     7
370
    15
100
AcDbLine
 10
434.7810358179
 20
205.0171800381
 30
0.0
 11
434.7810358179
 21
227.0861462181
 31
0.0
  0
LINE
  5
8B
330
1F
100
AcDbEntity
  8
0
  6
Continuous
 62
     7
370
    15
100
AcDbLine
 10
434.6810341252
 20
221.0516630163
 30
0.0
 11
434.6810341252
 21
224.0516635081
 31
0.0
  0
LINE
  5
8C
330
1F
100
AcDbEntity
  8
0
  6
Continuous
 62
     7
370
    15
100
AcDbLine
 10
434.6810341252
 20
218.0516632231
 30
0.0
 11
434.6810341252
 21
221.0516630163
 31
0.0
  0
LINE
  5
8D
330
1F
100
AcDbEntity
  8
0
  6
Continuous
 62
     7
370
    15
100
AcDbLine
 10
434.6810341252
 20
208.0516627481
 30
0.0
 11
434.6810341252
 21
214.0516630331
 31
0.0
  0
LINE
  5
8E
330
1F
100
AcDbEntity
  8
0
  6
Continuous
 62
     7
370
    15
100
AcDbLine
 10
434.7810358179
 20
227.0861462181
 30
0.0
 11
434.7810358179
 21
227.5516631504
 31
0.0
  0
LINE
  5
8F
330
1F
100
AcDbEntity
  8
0
  6
Continuous
 62
     7
370
    15
100
AcDbLine
 10
434.7810358179
 20
204.5516631057
 30
0.0
 11
434.7810358179
 21
205.0171800381
 31
0.0
  0
LINE
  5
90
330
1F
100
AcDbEntity
  8
0
  6
Continuous
 62
     7
370
    15
100
AcDbLine
 10
736.8823945893
 20
325.0516605055
 30
0.0
 11
747.4810392035
 21
325.0516605055
 31
0.0
  0
LINE
  5
91
330
1F
100
AcDbEntity
  8
0
  6
Continuous
 62
     7
370
    15
100
AcDbLine
 10
736.8823945893
 20
360.0516569292
 30
0.0
 11
736.8823945893
 21
325.0516605055
 31
0.0
  0
LINE
  5
92
330
1F
100
AcDbEntity
  8
0
  6
Continuous
 62
     7
370
    15
100
AcDbLine
 10
736.8823945893
 20
360.0516569292
 30
0.0
 11
747.4810392035
 21
360.0516569292
 31
0.0
  0
LINE
  5
93
330
1F
100
AcDbEntity
  8
0
  6
Continuous
 62
     7
370
    15
100
AcDbLine
 10
736.8823945893
 20
72.051669327
 30
0.0
 11
747.4810392035
 21
72.051669327
 31
0.0
  0
LINE
  5
94
330
1F
100
AcDbEntity
  8
0
  6
Continuous
 62
     7
370
    15
100
AcDbLine
 10
736.8823945893
 20
107.0516657507
 30
0.0
 11
736.8823945893
 21
72.051669327
 31
0.0
  0
LINE
  5
95
330
1F
100
AcDbEntity
  8
0
  6
Continuous
 62
     7
370
    15
100
AcDbLine
 10
736.8823945893
 20
107.0516657507
 30
0.0
 11
747.4810392035
 21
107.0516657507
 31
0.0
  0
LINE
  5
96
330
1F
100
AcDbEntity
  8
0
  6
Continuous
 62
     7
370
    15
100
AcDbLine
 10
736.4188790692
 20
360.0516569292
 30
0.0
 11
736.4188790692
 21
325.0516605055
 31
0.0
  0
LINE
  5
97
330
1F
100
AcDbEntity
  8
0
  6
Continuous
 62
     7
370
    15
100
AcDbLine
 10
736.4188790692
 20
325.0516605055
 30
0.0
 11
736.8823945893
 21
325.0516605055
 31
0.0
  0
LINE
  5
98
330
1F
100
AcDbEntity
  8
0
  6
Continuous
 62
     7
370
    15
100
AcDbLine
 10
736.4188790692
 20
360.0516569292
 30
0.0
 11
736.8823945893
 21
360.0516569292
 31
0.0
  0
LINE
  5
99
330
1F
100
AcDbEntity
  8
0
  6
Continuous
 62
     7
370
    15
100
AcDbLine
 10
736.4188790692
 20
107.0516657507
 30
0.0
 11
736.4188790692
 21
72.051669327
 31
0.0
  0
LINE
  5
9A
330
1F
100
AcDbEntity
  8
0
  6
Continuous
 62
     7
370
    15
100
AcDbLine
 10
736.4188790692
 20
72.051669327
 30
0.0
 11
736.8823945893
 21
72.051669327
 31
0.0
  0
LINE
  5
9B
330
1F
100
AcDbEntity
  8
0
  6
Continuous
 62
     7
370
    15
100
AcDbLine
 10
736.4188790692
 20
107.0516657507
 30
0.0
 11
736.8823945893
 21
107.0516657507
 31
0.0
  0
LINE
  5
9C
330
1F
100
AcDbEntity
  8
0
  6
Continuous
 62
     7
370
    15
100
AcDbLine
 10
735.9810382498
 20
325.0516605055
 30
0.0
 11
736.4188790692
 21
325.0516605055
 31
0.0
  0
LINE
  5
9D
330
1F
100
AcDbEntity
  8
0
  6
Continuous
 62
     7
370
    15
100
AcDbLine
 10
735.9810382498
 20
360.0516569292
 30
0.0
 11
736.4188790692
 21
360.0516569292
 31
0.0
  0
LINE
  5
9E
330
1F
100
AcDbEntity
  8
0
  6
Continuous
 62
     7
370
    15
100
AcDbLine
 10
735.9810382498
 20
72.051669327
 30
0.0
 11
736.4188790692
 21
72.051669327
 31
0.0
  0
LINE
  5
9F
330
1F
100
AcDbEntity
  8
0
  6
Continuous
 62
     7
370
    15
100
AcDbLine
 10
735.9810382498
 20
107.0516657507
 30
0.0
 11
736.4188790692
 21
107.0516657507
 31
0.0
  0
LINE
  5
A0
330
1F
100
AcDbEntity
  8
0
  6
Continuous
 62
     7
370
    15
100
AcDbLine
 10
427.9330581797
 20
222.5516632622
 30
0.0
 11
428.6635727061
 21
222.5516632622
 31
0.0
  0
ARC
  5
A1
330
1F
100
AcDbEntity
  8
0
  6
Continuous
 62
     7
370
    15
100
AcDbCircle
 10
428.803693979
 20
221.4628552283
 30
0.0
 40
1.097787277143268
100
AcDbArc
 50
97.3332226099
 51
185.8133219334
  0
LINE
  5
A2
330
1F
100
AcDbEntity
  8
0
  6
Continuous
 62
     7
370
    15
100
AcDbLine
 10
427.7115524185
 20
221.3516629724
 30
0.0
 11
426.9810378922
 21
221.3516629724
 31
0.0
  0
ARC
  5
A3
330
1F
100
AcDbEntity
  8
0
  6
Continuous
 62
     7
370
    15
100
AcDbCircle
 10
428.0731867472
 20
221.4628494412
 30
0.0
 40
1.097793948007137
100
AcDbArc
 50
97.3335616575
 51
185.8129828859
  0
LINE
  5
A4
330
1F
100
AcDbEntity
  8
0
  6
Continuous
 62
     7
370
    15
100
AcDbLine
 10
427.7115524185
 20
221.3516629724
 30
0.0
 11
427.7115524185
 21
210.7516632838
 31
0.0
  0
LINE
  5
A5
330
1F
100
AcDbEntity
  8
0
  6
Continuous
 62
     7
370
    15
100
AcDbLine
 10
426.9810378922
 20
210.7516632838
 30
0.0
 11
427.7115524185
 21
210.7516632838
 31
0.0
  0
LINE
  5
A6
330
1F
100
AcDbEntity
  8
0
  6
Continuous
 62
     7
370
    15
100
AcDbLine
 10
426.9810378922
 20
221.3516629724
 30
0.0
 11
426.9810378922
 21
210.7516632838
 31
0.0
  0
LINE
  5
A7
330
1F
100
AcDbEntity
  8
0
  6
Continuous
 62
     7
370
    15
100
AcDbLine
 10
428.6635727061
 20
222.5516632622
 30
0.0
 11
432.2070092333
 21
222.5516632622
 31
0.0
  0
LINE
  5
A8
330
1F
100
AcDbEntity
  8
0
  6
Continuous
 62
     7
370
    15
100
AcDbLine
 10
432.2070092333
 20
222.5516632622
 30
0.0
 11
432.2070092333
 21
209.551662994
 31
0.0
  0
LINE
  5
A9
330
1F
100
AcDbEntity
  8
0
  6
Continuous
 62
     7
370
    15
100
AcDbLine
 10
432.2070092333
 20
209.551662994
 30
0.0
 11
428.6635727061
 21
209.551662994
 31
0.0
  0
ARC
  5
AA
330
1F
100
AcDbEntity
  8
0
  6
Continuous
 62
     7
370
    15
100
AcDbCircle
 10
428.803693979
 20
210.6404710279
 30
0.0
 40
1.097787277143325
100
AcDbArc
 50
174.1866780666
 51
262.6667773901
  0
LINE
  5
AB
330
1F
100
AcDbEntity
  8
0
  6
Continuous
 62
     7
370
    15
100
AcDbLine
 10
428.6635727061
 20
209.551662994
 30
0.0
 11
427.9330581797
 21
209.551662994
 31
0.0
  0
ARC
  5
AC
330
1F
100
AcDbEntity
  8
0
  6
Continuous
 62
     7
370
    15
100
AcDbCircle
 10
428.0731867472
 20
210.640476815
 30
0.0
 40
1.097793948007137
100
AcDbArc
 50
174.1870171141
 51
262.6664383425
  0
LINE
  5
AD
330
1F
100
AcDbEntity
  8
0
  6
Continuous
 62
     7
370
    15
100
AcDbLine
 10
432.2885483874
 20
222.5516632622
 30
0.0
 11
432.2070092333
 21
222.5516632622
 31
0.0
  0
LINE
  5
AE
330
1F
100
AcDbEntity
  8
0
  6
Continuous
 62
     7
370
    15
100
AcDbLine
 10
432.2070092333
 20
209.551662994
 30
0.0
 11
432.3405385388
 21
209.551662994
 31
0.0
  0
LINE
  5
AF
330
1F
100
AcDbEntity
  8
0
  6
Continuous
 62
     7
370
    15
100
AcDbLine
 10
426.9810378922
 20
211.3516631959
 30
0.0
 11
426.8762231243
 21
211.3516631959
 31
0.0
  0
LINE
  5
B0
330
1F
100
AcDbEntity
  8
0
  6
Continuous
 62
     7
370
    15
100
AcDbLine
 10
426.9810378922
 20
219.9516630223
 30
0.0
 11
426.8762231243
 21
219.9516630223
 31
0.0
  0
LINE
  5
B1
330
1F
100
AcDbEntity
  8
0
  6
Continuous
 62
     7
370
    15
100
AcDbLine
 10
432.3491812123
 20
223.2516630044
 30
0.0
 11
427.4810314549
 21
223.2516630044
 31
0.0
  0
LINE
  5
B2
330
1F
100
AcDbEntity
  8
0
  6
Continuous
 62
     7
370
    15
100
AcDbLine
 10
432.325309552
 20
224.0516635081
 30
0.0
 11
427.4816424025
 21
224.0516635081
 31
0.0
  0
LINE
  5
B3
330
1F
100
AcDbEntity
  8
0
  6
Continuous
 62
     7
370
    15
100
AcDbLine
 10
432.3469162358
 20
208.8516632518
 30
0.0
 11
427.4810314549
 21
208.8516632518
 31
0.0
  0
LINE
  5
B4
330
1F
100
AcDbEntity
  8
0
  6
Continuous
 62
     7
370
    15
100
AcDbLine
 10
432.3551863802
 20
208.0516627481
 30
0.0
 11
427.4816424025
 21
208.0516627481
 31
0.0
  0
LINE
  5
B5
330
1F
100
AcDbEntity
  8
0
  6
Continuous
 62
     7
370
    15
100
AcDbLine
 10
431.08103279
 20
224.3516629985
 30
0.0
 11
432.2443962467
 21
224.3516629985
 31
0.0
  0
LINE
  5
B6
330
1F
100
AcDbEntity
  8
0
  6
Continuous
 62
     7
370
    15
100
AcDbLine
 10
432.4075490607
 20
224.3516629985
 30
0.0
 11
432.4698806179
 21
224.3516629985
 31
0.0
  0
LINE
  5
B7
330
1F
100
AcDbEntity
  8
0
  6
Continuous
 62
     7
370
    15
100
AcDbLine
 10
428.8810253514
 20
224.3516629985
 30
0.0
 11
431.08103279
 21
224.3516629985
 31
0.0
  0
LINE
  5
B8
330
1F
100
AcDbEntity
  8
0
  6
Continuous
 62
     7
370
    15
100
AcDbLine
 10
431.08103279
 20
207.6516634276
 30
0.0
 11
432.1844190729
 21
207.6516634276
 31
0.0
  0
LINE
  5
B9
330
1F
100
AcDbEntity
  8
0
  6
Continuous
 62
     7
370
    15
100
AcDbLine
 10
428.9810270441
 20
207.6516634276
 30
0.0
 11
431.08103279
 21
207.6516634276
 31
0.0
  0
LINE
  5
BA
330
1F
100
AcDbEntity
  8
0
  6
Continuous
 62
     7
370
    15
100
AcDbLine
 10
431.08103279
 20
207.2516631758
 30
0.0
 11
431.94454018
 21
207.2516631758
 31
0.0
  0
LINE
  5
BB
330
1F
100
AcDbEntity
  8
0
  6
Continuous
 62
     7
370
    15
100
AcDbLine
 10
428.9810270441
 20
207.2516631758
 30
0.0
 11
431.08103279
 21
207.2516631758
 31
0.0
  0
ARC
  5
BC
330
1F
100
AcDbEntity
  8
0
  6
Continuous
 62
     7
370
    15
100
AcDbCircle
 10
427.946817927
 20
208.849426765
 30
0.0
 40
0.8027495456830569
100
AcDbArc
 50
179.8403718595
 51
234.5326562665
  0
ARC
  5
BD
330
1F
100
AcDbEntity
  8
0
  6
Continuous
 62
     7
370
    15
100
AcDbCircle
 10
427.946817927
 20
223.2538994912
 30
0.0
 40
0.8027495456830435
100
AcDbArc
 50
125.4673437335
 51
180.1596281405
  0
LINE
  5
BE
330
1F
100
AcDbEntity
  8
0
  6
Continuous
 62
     7
370
    15
100
AcDbLine
 10
427.9319256914
 20
209.301662953
 30
0.0
 11
427.9319256914
 21
208.8516632518
 31
0.0
  0
LINE
  5
BF
330
1F
100
AcDbEntity
  8
0
  6
Continuous
 62
     7
370
    15
100
AcDbLine
 10
427.9319256914
 20
223.2516630044
 30
0.0
 11
427.9319256914
 21
222.8016633032
 31
0.0
  0
LINE
  5
C0
330
1F
100
AcDbEntity
  8
0
  6
Continuous
 62
     7
370
    15
100
AcDbLine
 10
427.1440714968
 20
208.8516632518
 30
0.0
 11
427.1440714968
 21
210.0801052017
 31
0.0
  0
LINE
  5
C1
330
1F
100
AcDbEntity
  8
0
  6
Continuous
 62
     7
370
    15
100
AcDbLine
 10
427.1440714968
 20
222.0232210545
 30
0.0
 11
427.1440714968
 21
223.2516630044
 31
0.0
  0
SPLINE
  5
C2
330
1F
100
AcDbEntity
  8
0
  6
Continuous
 62
     7
370
    15
100
AcDbSpline
210
0.0
220
0.0
230
1.0
 70
    24
 71
     3
 72
    12
 73
     8
 74
     0
 42
0.00000001
 43
0.00000001
 40
0.0
 40
0.0
 40
0.0
 40
0.0
 40
0.2185050186196134
 40
0.4370114656380577
 40
0.6555178820617118
 40
0.8740297008781536
 40
1.0
 40
1.0
 40
1.0
 40
1.0
 10
434.1403752935631
 20
222.7440582079769
 30
0.0
 10
433.94365506759
 20
222.7440582079769
 30
0.0
 10
433.5502133296554
 20
222.7440582079769
 30
0.0
 10
432.9894663554953
 20
222.7440582079769
 30
0.0
 10
432.5717831370719
 20
222.7440582079769
 30
0.0
 10
432.3452287886849
 20
222.7440582079769
 30
0.0
 10
432.3627547660386
 20
222.7440582079769
 30
0.0
 10
432.3691636694176
 20
222.7440582079769
 30
0.0
  0
SPLINE
  5
C3
330
1F
100
AcDbEntity
  8
0
  6
Continuous
 62
     7
370
    15
100
AcDbSpline
210
0.0
220
0.0
230
1.0
 70
    24
 71
     3
 72
     9
 73
     5
 74
     0
 42
0.00000001
 43
0.00000001
 40
0.0
 40
0.0
 40
0.0
 40
0.0
 40
0.1970246968420801
 40
1.0
 40
1.0
 40
1.0
 40
1.0
 10
434.7810358179314
 20
222.7440582079769
 30
0.0
 10
434.7483840035163
 20
222.7440582079769
 30
0.0
 10
434.5826595286745
 20
222.7440582079769
 30
0.0
 10
434.3373515456219
 20
222.7440582079769
 30
0.0
 10
434.1403752935631
 20
222.7440582079769
 30
0.0
  0
SPLINE
  5
C4
330
1F
100
AcDbEntity
  8
0
  6
Continuous
 62
     7
370
    15
100
AcDbSpline
210
0.0
220
0.0
230
1.0
 70
     8
 71
     3
 72
    13
 73
     9
 74
     0
 42
0.00000001
 43
0.00000001
 40
0.0
 40
0.0
 40
0.0
 40
0.0
 40
0.18773468044012
 40
0.3754729683631524
 40
0.5632112407842811
 40
0.750947888408909
 40
0.9386848456031879
 40
1.0
 40
1.0
 40
1.0
 40
1.0
 10
433.8470906389458
 20
226.3588969087184
 30
0.0
 10
433.6503991530765
 20
226.3561966725526
 30
0.0
 10
433.2570124017424
 20
226.3507961483335
 30
0.0
 10
432.7239935768689
 20
226.0602639675411
 30
0.0
 10
432.3334665165269
 20
225.6053603948691
 30
0.0
 10
432.1605254433342
 20
225.0436795047221
 30
0.0
 10
432.1637956457628
 20
224.5704820224896
 30
0.0
 10
432.2911294926631
 20
224.3490507413136
 30
0.0
 10
432.3224783313972
 20
224.2945356717289
 30
0.0
  0
SPLINE
  5
C5
330
1F
100
AcDbEntity
  8
0
  6
Continuous
 62
     7
370
    15
100
AcDbSpline
210
0.0
220
0.0
230
1.0
 70
     8
 71
     3
 72
    10
 73
     6
 74
     0
 42
0.00000001
 43
0.00000001
 40
0.0
 40
0.0
 40
0.0
 40
0.0
 40
0.2093431762315058
 40
0.6046708051529048
 40
0.9999999999999999
 40
0.9999999999999999
 40
0.9999999999999999
 40
0.9999999999999999
 10
434.9842727554542
 20
225.5527822723568
 30
0.0
 10
434.9425647041316
 20
225.6458457307341
 30
0.0
 10
434.8220943767554
 20
225.9146519909635
 30
0.0
 10
434.4153994624656
 20
226.2313141080031
 30
0.0
 10
434.036527163576
 20
226.3163692523283
 30
0.0
 10
433.8470906389458
 20
226.3588969087184
 30
0.0
  0
SPLINE
  5
C6
330
1F
100
AcDbEntity
  8
0
  6
Continuous
 62
     7
370
    15
100
AcDbSpline
210
0.0
220
0.0
230
1.0
 70
     8
 71
     3
 72
    13
 73
     9
 74
     0
 42
0.00000001
 43
0.00000001
 40
0.0
 40
0.0
 40
0.0
 40
0.0
 40
0.1768612988651324
 40
0.3537265060719917
 40
0.5305915684291158
 40
0.7074548346711061
 40
0.8843186579751815
 40
1.0
 40
1.0
 40
1.0
 40
1.0
 10
433.8298648966057
 20
205.71571015324
 30
0.0
 10
433.6331977692823
 20
205.7184009239075
 30
0.0
 10
433.2398591686181
 20
205.7237825247039
 30
0.0
 10
432.7064741442443
 20
206.0144575859353
 30
0.0
 10
432.3173434943962
 20
206.4688220922722
 30
0.0
 10
432.1391835457558
 20
207.0325153271664
 30
0.0
 10
432.1601459455866
 20
207.5656690178267
 30
0.0
 10
432.3262393213055
 20
207.8389373645745
 30
0.0
 10
432.3919177425606
 20
207.9469960605682
 30
0.0
  0
SPLINE
  5
C7
330
1F
100
AcDbEntity
  8
0
  6
Continuous
 62
     7
370
    15
100
AcDbSpline
210
0.0
220
0.0
230
1.0
 70
     8
 71
     3
 72
    10
 73
     6
 74
     0
 42
0.00000001
 43
0.00000001
 40
0.0
 40
0.0
 40
0.0
 40
0.0
 40
0.0588211701069046
 40
0.5294135593534659
 40
0.9999999999999999
 40
0.9999999999999999
 40
0.9999999999999999
 40
0.9999999999999999
 10
434.8599821699364
 20
206.3156197270334
 30
0.0
 10
434.8493476334662
 20
206.2941393867906
 30
0.0
 10
434.7536326418315
 20
206.1008079150868
 30
0.0
 10
434.3927470427869
 20
205.8466410361133
 30
0.0
 10
434.0174914880812
 20
205.7593535969681
 30
0.0
 10
433.8298648966057
 20
205.71571015324
 30
0.0
  0
SPLINE
  5
C8
330
1F
100
AcDbEntity
  8
0
  6
Continuous
 62
     7
370
    15
100
AcDbSpline
210
0.0
220
0.0
230
1.0
 70
    24
 71
     3
 72
    12
 73
     8
 74
     0
 42
0.00000001
 43
0.00000001
 40
0.0
 40
0.0
 40
0.0
 40
0.0
 40
0.2193531530453107
 40
0.4387077400338293
 40
0.6580622963088032
 40
0.8774222759461303
 40
1.0
 40
1.0
 40
1.0
 40
1.0
 10
434.1403752935631
 20
209.1854273764372
 30
0.0
 10
433.9436597447121
 20
209.1854273764372
 30
0.0
 10
433.5502273610521
 20
209.1854273764372
 30
0.0
 10
432.9894102294836
 20
209.1854273764372
 30
0.0
 10
432.5719936117339
 20
209.1854273764372
 30
0.0
 10
432.3461454579457
 20
209.1854273764372
 30
0.0
 10
432.3631334307401
 20
209.1854273764372
 30
0.0
 10
432.3692232740623
 20
209.1854273764372
 30
0.0
  0
SPLINE
  5
C9
330
1F
100
AcDbEntity
  8
0
  6
Continuous
 62
     7
370
    15
100
AcDbSpline
210
0.0
220
0.0
230
1.0
 70
    24
 71
     3
 72
     9
 73
     5
 74
     0
 42
0.00000001
 43
0.00000001
 40
0.0
 40
0.0
 40
0.0
 40
0.0
 40
0.1970246968420801
 40
1.0
 40
1.0
 40
1.0
 40
1.0
 10
434.7810358179314
 20
209.1854273764372
 30
0.0
 10
434.7483840035163
 20
209.1854273764372
 30
0.0
 10
434.5826595286745
 20
209.1854273764372
 30
0.0
 10
434.3373515456219
 20
209.1854273764372
 30
0.0
 10
434.1403752935631
 20
209.1854273764372
 30
0.0
  0
SPLINE
  5
CA
330
1F
100
AcDbEntity
  8
0
  6
Continuous
 62
     7
370
    15
100
AcDbSpline
210
0.0
220
0.0
230
1.0
 70
     8
 71
     3
 72
    13
 73
     9
 74
     0
 42
0.00000001
 43
0.00000001
 40
0.0
 40
0.0
 40
0.0
 40
0.0
 40
0.1768612840288145
 40
0.3537263461533859
 40
0.5305916078062589
 40
0.7074548592117663
 40
0.8843186676793121
 40
0.9999999999999999
 40
0.9999999999999999
 40
0.9999999999999999
 40
0.9999999999999999
 10
432.2780132663948
 20
228.975315434295
 30
0.0
 10
432.0813461927381
 20
228.9726245766565
 30
0.0
 10
431.6880078442393
 20
228.9672428038976
 30
0.0
 10
431.1546219096663
 20
228.6765691053693
 30
0.0
 10
430.7654921681482
 20
228.2222034893172
 30
0.0
 10
430.5873318527866
 20
227.6585103234985
 30
0.0
 10
430.6082943249224
 20
227.1253565601052
 30
0.0
 10
430.7743876938
 20
226.8520882202392
 30
0.0
 10
430.8400661123497
 20
226.7440295269669
 30
0.0
  0
SPLINE
  5
CB
330
1F
100
AcDbEntity
  8
0
  6
Continuous
 62
     7
370
    15
100
AcDbSpline
210
0.0
220
0.0
230
1.0
 70
     8
 71
     3
 72
    10
 73
     6
 74
     0
 42
0.00000001
 43
0.00000001
 40
0.0
 40
0.0
 40
0.0
 40
0.0
 40
0.1474563383300455
 40
0.5737308633614325
 40
1.0
 40
1.0
 40
1.0
 40
1.0
 10
433.3666026962501
 20
228.2627894034565
 30
0.0
 10
433.3385460636172
 20
228.3230838139445
 30
0.0
 10
433.229381844257
 20
228.5576804720261
 30
0.0
 10
432.8443040573484
 20
228.8464851696701
 30
0.0
 10
432.4667760680069
 20
228.9323721936994
 30
0.0
 10
432.2780132663948
 20
228.975315434295
 30
0.0
  0
SPLINE
  5
CC
330
1F
100
AcDbEntity
  8
0
  6
Continuous
 62
     7
370
    15
100
AcDbSpline
210
0.0
220
0.0
230
1.0
 70
     8
 71
     3
 72
    13
 73
     9
 74
     0
 42
0.00000001
 43
0.00000001
 40
0.0
 40
0.0
 40
0.0
 40
0.0
 40
0.1768652455680534
 40
0.353729932613986
 40
0.5305915664824274
 40
0.7074556950470201
 40
0.8843189981942389
 40
0.9999999999999999
 40
0.9999999999999999
 40
0.9999999999999999
 40
0.9999999999999999
 10
432.2608024252158
 20
203.0992916276634
 30
0.0
 10
432.064130593511
 20
203.1019819744052
 30
0.0
 10
431.6707875511705
 20
203.1073626593928
 30
0.0
 10
431.1373948749749
 20
203.3980340234205
 30
0.0
 10
430.7482869950019
 20
203.852411988073
 30
0.0
 10
430.5701005246813
 20
204.4160930088282
 30
0.0
 10
430.5910694228861
 20
204.9492508303382
 30
0.0
 10
430.7571621895812
 20
205.2225189348038
 30
0.0
 10
430.8228403700095
 20
205.3305775349916
 30
0.0
  0
SPLINE
  5
CD
330
1F
100
AcDbEntity
  8
0
  6
Continuous
 62
     7
370
    15
100
AcDbSpline
210
0.0
220
0.0
230
1.0
 70
     8
 71
     3
 72
    10
 73
     6
 74
     0
 42
0.00000001
 43
0.00000001
 40
0.0
 40
0.0
 40
0.0
 40
0.0
 40
0.147457853109344
 40
0.5737367571442605
 40
1.0
 40
1.0
 40
1.0
 40
1.0
 10
433.3493769539101
 20
203.8118176585019
 30
0.0
 10
433.321320325188
 20
203.7515232392794
 30
0.0
 10
433.2121561210442
 20
203.5169265472133
 30
0.0
 10
432.8270820068394
 20
203.2281254485274
 30
0.0
 10
432.4495599740668
 20
203.1422357086873
 30
0.0
 10
432.2608024252159
 20
203.0992916276634
 30
0.0
  0
LINE
  5
CE
330
1F
100
AcDbEntity
  8
0
  6
Continuous
 62
     7
370
    15
100
AcDbLine
 10
736.8823945893
 20
71.0516673004
 30
0.0
 11
736.8823945893
 21
36.0516559755
 31
0.0
  0
LINE
  5
CF
330
1F
100
AcDbEntity
  8
0
  6
Continuous
 62
     7
370
    15
100
AcDbLine
 10
747.4810392035
 20
71.0516673004
 30
0.0
 11
736.8823945893
 21
71.0516673004
 31
0.0
  0
LINE
  5
D0
330
1F
100
AcDbEntity
  8
0
  6
Continuous
 62
     7
370
    15
100
AcDbLine
 10
747.4810392035
 20
36.0516559755
 30
0.0
 11
736.8823945893
 21
36.0516559755
 31
0.0
  0
LINE
  5
D1
330
1F
100
AcDbEntity
  8
0
  6
Continuous
 62
     7
370
    15
100
AcDbLine
 10
736.8823945893
 20
396.0516702807
 30
0.0
 11
736.8823945893
 21
361.0516589558
 31
0.0
  0
LINE
  5
D2
330
1F
100
AcDbEntity
  8
0
  6
Continuous
 62
     7
370
    15
100
AcDbLine
 10
747.4810392035
 20
361.0516589558
 30
0.0
 11
736.8823945893
 21
361.0516589558
 31
0.0
  0
LINE
  5
D3
330
1F
100
AcDbEntity
  8
0
  6
Continuous
 62
     7
370
    15
100
AcDbLine
 10
747.4810392035
 20
396.0516702807
 30
0.0
 11
736.8823945893
 21
396.0516702807
 31
0.0
  0
LINE
  5
D4
330
1F
100
AcDbEntity
  8
0
  6
Continuous
 62
     7
370
    15
100
AcDbLine
 10
744.4810331238
 20
108.0516603267
 30
0.0
 11
739.4810378922
 21
108.0516603267
 31
0.0
  0
LINE
  5
D5
330
1F
100
AcDbEntity
  8
0
  6
Continuous
 62
     7
370
    15
100
AcDbLine
 10
739.4810378922
 20
324.0516659295
 30
0.0
 11
744.4810331238
 21
324.0516659295
 31
0.0
  0
LINE
  5
D6
330
1F
100
AcDbEntity
  8
0
  6
Continuous
 62
     7
370
    15
100
AcDbLine
 10
736.4188790692
 20
36.0516559755
 30
0.0
 11
736.4188790692
 21
71.0516673004
 31
0.0
  0
LINE
  5
D7
330
1F
100
AcDbEntity
  8
0
  6
Continuous
 62
     7
370
    15
100
AcDbLine
 10
736.4188790692
 20
71.0516673004
 30
0.0
 11
736.8823945893
 21
71.0516673004
 31
0.0
  0
LINE
  5
D8
330
1F
100
AcDbEntity
  8
0
  6
Continuous
 62
     7
370
    15
100
AcDbLine
 10
736.8823945893
 20
36.0516559755
 30
0.0
 11
736.4188790692
 21
36.0516559755
 31
0.0
  0
LINE
  5
D9
330
1F
100
AcDbEntity
  8
0
  6
Continuous
 62
     7
370
    15
100
AcDbLine
 10
736.4188790692
 20
361.0516589558
 30
0.0
 11
736.4188790692
 21
396.0516702807
 31
0.0
  0
LINE
  5
DA
330
1F
100
AcDbEntity
  8
0
  6
Continuous
 62
     7
370
    15
100
AcDbLine
 10
736.8823945893
 20
361.0516589558
 30
0.0
 11
736.4188790692
 21
361.0516589558
 31
0.0
  0
LINE
  5
DB
330
1F
100
AcDbEntity
  8
0
  6
Continuous
 62
     7
370
    15
100
AcDbLine
 10
736.4188790692
 20
396.0516702807
 30
0.0
 11
736.8823945893
 21
396.0516702807
 31
0.0
  0
LINE
  5
DC
330
1F
100
AcDbEntity
  8
0
  6
Continuous
 62
     7
370
    15
100
AcDbLine
 10
736.4188790692
 20
361.0516589558
 30
0.0
 11
735.9810382498
 21
361.0516589558
 31
0.0
  0
LINE
  5
DD
330
1F
100
AcDbEntity
  8
0
  6
Continuous
 62
     7
370
    15
100
AcDbLine
 10
736.4188790692
 20
396.0516702807
 30
0.0
 11
735.9810382498
 21
396.0516702807
 31
0.0
  0
LINE
  5
DE
330
1F
100
AcDbEntity
  8
0
  6
Continuous
 62
     7
370
    15
100
AcDbLine
 10
736.4188790692
 20
71.0516673004
 30
0.0
 11
735.9810382498
 21
71.0516673004
 31
0.0
  0
LINE
  5
DF
330
1F
100
AcDbEntity
  8
0
  6
Continuous
 62
     7
370
    15
100
AcDbLine
 10
736.4188790692
 20
36.0516559755
 30
0.0
 11
735.9810382498
 21
36.0516559755
 31
0.0
  0
LINE
  5
E0
330
1F
100
AcDbEntity
  8
0
  6
Continuous
 62
     7
370
    15
100
AcDbLine
 10
430.7810277117
 20
209.301662953
 30
0.0
 11
432.3405385388
 21
209.301662953
 31
0.0
  0
LINE
  5
E1
330
1F
100
AcDbEntity
  8
0
  6
Continuous
 62
     7
370
    15
100
AcDbLine
 10
430.7810277117
 20
222.8016633032
 30
0.0
 11
432.3411047829
 21
222.8016633032
 31
0.0
  0
LINE
  5
E2
330
1F
100
AcDbEntity
  8
0
  6
Continuous
 62
     7
370
    15
100
AcDbLine
 10
430.7810277117
 20
209.301662953
 30
0.0
 11
427.6810348404
 21
209.301662953
 31
0.0
  0
LINE
  5
E3
330
1F
100
AcDbEntity
  8
0
  6
Continuous
 62
     7
370
    15
100
AcDbLine
 10
430.7810277117
 20
222.8016633032
 30
0.0
 11
427.6810348404
 21
222.8016633032
 31
0.0
  0
LINE
  5
E4
330
1F
100
AcDbEntity
  8
0
  6
Continuous
 62
     8
370
    15
100
AcDbLine
 10
430.7810277117
 20
209.551662994
 30
0.0
 11
430.7810277117
 21
209.301662953
 31
0.0
  0
LINE
  5
E5
330
1F
100
AcDbEntity
  8
0
  6
Continuous
 62
     8
370
    15
100
AcDbLine
 10
430.7810277117
 20
222.8016633032
 30
0.0
 11
430.7810277117
 21
222.5516632622
 31
0.0
  0
LINE
  5
E6
330
1F
100
AcDbEntity
  8
0
  6
Continuous
 62
     7
370
    15
100
AcDbLine
 10
258.9843626659
 20
222.5516632622
 30
0.0
 11
258.9843626659
 21
209.551662994
 31
0.0
  0
LINE
  5
E7
330
1F
100
AcDbEntity
  8
0
  6
Continuous
 62
     7
370
    15
100
AcDbLine
 10
249.1943593662
 20
223.2516630044
 30
0.0
 11
249.1943593662
 21
224.0516635081
 31
0.0
  0
LINE
  5
E8
330
1F
100
AcDbEntity
  8
0
  6
Continuous
 62
     7
370
    15
100
AcDbLine
 10
249.1943593662
 20
208.0516627481
 30
0.0
 11
249.1943593662
 21
208.8516632518
 31
0.0
  0
ARC
  5
E9
330
1F
100
AcDbEntity
  8
0
  6
Continuous
 62
     7
370
    15
100
AcDbCircle
 10
246.4643595188
 20
221.244520271
 30
0.0
 40
3.807142857143165
100
AcDbArc
 50
54.6997515601
 51
125.3002484399
  0
LINE
  5
EA
330
1F
100
AcDbEntity
  8
0
  6
Continuous
 62
     7
370
    15
100
AcDbLine
 10
244.2643548887
 20
224.3516629985
 30
0.0
 11
244.2643548887
 21
224.0516635081
 31
0.0
  0
LINE
  5
EB
330
1F
100
AcDbEntity
  8
0
  6
Continuous
 62
     7
370
    15
100
AcDbLine
 10
248.6643548648
 20
224.0516635081
 30
0.0
 11
248.6643548648
 21
224.3516629985
 31
0.0
  0
LINE
  5
EC
330
1F
100
AcDbEntity
  8
0
  6
Continuous
 62
     7
370
    15
100
AcDbLine
 10
244.3643565814
 20
207.6516634276
 30
0.0
 11
244.3643565814
 21
207.2516631758
 31
0.0
  0
LINE
  5
ED
330
1F
100
AcDbEntity
  8
0
  6
Continuous
 62
     7
370
    15
100
AcDbLine
 10
248.5643531721
 20
207.2516631758
 30
0.0
 11
248.5643531721
 21
207.6516634276
 31
0.0
  0
ARC
  5
EE
330
1F
100
AcDbEntity
  8
0
  6
Continuous
 62
     7
370
    15
100
AcDbCircle
 10
244.5643595188
 20
208.0516631281
 30
0.0
 40
0.4000000000007731
100
AcDbArc
 50
270.0
 51
0.0
  0
ARC
  5
EF
330
1F
100
AcDbEntity
  8
0
  6
Continuous
 62
     7
370
    15
100
AcDbCircle
 10
248.3643595188
 20
208.0516631281
 30
0.0
 40
0.4000000000007731
100
AcDbArc
 50
180.0
 51
270.0
  0
LINE
  5
F0
330
1F
100
AcDbEntity
  8
0
  6
Continuous
 62
     7
370
    15
100
AcDbLine
 10
244.9643667381
 20
223.2516630044
 30
0.0
 11
244.9643667381
 21
222.8016633032
 31
0.0
  0
LINE
  5
F1
330
1F
100
AcDbEntity
  8
0
  6
Continuous
 62
     7
370
    15
100
AcDbLine
 10
244.9643667381
 20
221.8016631393
 30
0.0
 11
244.9643667381
 21
221.3129586032
 31
0.0
  0
LINE
  5
F2
330
1F
100
AcDbEntity
  8
0
  6
Continuous
 62
     7
370
    15
100
AcDbLine
 10
244.9643667381
 20
220.5168440429
 30
0.0
 11
244.9643667381
 21
220.3611469319
 31
0.0
  0
LINE
  5
F3
330
1F
100
AcDbEntity
  8
0
  6
Continuous
 62
     7
370
    15
100
AcDbLine
 10
244.9643667381
 20
211.0620363107
 30
0.0
 11
244.9643667381
 21
210.3016631169
 31
0.0
  0
LINE
  5
F4
330
1F
100
AcDbEntity
  8
0
  6
Continuous
 62
     7
370
    15
100
AcDbLine
 10
244.9643667381
 20
209.301662953
 30
0.0
 11
244.9643667381
 21
208.8516632518
 31
0.0
  0
LINE
  5
F5
330
1F
100
AcDbEntity
  8
0
  6
Continuous
 62
     7
370
    15
100
AcDbLine
 10
247.9643579166
 20
208.8516632518
 30
0.0
 11
247.9643579166
 21
209.301662953
 31
0.0
  0
LINE
  5
F6
330
1F
100
AcDbEntity
  8
0
  6
Continuous
 62
     7
370
    15
100
AcDbLine
 10
247.9643579166
 20
210.3016631169
 30
0.0
 11
247.9643579166
 21
210.7888053594
 31
0.0
  0
LINE
  5
F7
330
1F
100
AcDbEntity
  8
0
  6
Continuous
 62
     7
370
    15
100
AcDbLine
 10
247.9643579166
 20
220.0967225669
 30
0.0
 11
247.9643579166
 21
220.2846611341
 31
0.0
  0
LINE
  5
F8
330
1F
100
AcDbEntity
  8
0
  6
Continuous
 62
     7
370
    15
100
AcDbLine
 10
247.9643579166
 20
221.0397402247
 30
0.0
 11
247.9643579166
 21
221.8016631393
 31
0.0
  0
LINE
  5
F9
330
1F
100
AcDbEntity
  8
0
  6
Continuous
 62
     7
370
    15
100
AcDbLine
 10
247.9643579166
 20
222.8016633032
 30
0.0
 11
247.9643579166
 21
223.2516630044
 31
0.0
  0
SPLINE
  5
FA
330
1F
100
AcDbEntity
  8
0
  6
Continuous
 62
     7
370
    15
100
AcDbSpline
210
0.0
220
0.0
230
1.0
 70
     8
 71
     3
 72
    15
 73
    11
 74
     0
 42
0.00000001
 43
0.00000001
 40
0.0
 40
0.0
 40
0.0
 40
0.0
 40
0.1356028554428815
 40
0.2953315649747645
 40
0.4038123509624403
 40
0.5319641019549548
 40
0.6738462673961908
 40
0.8261078223386852
 40
0.91261718584759
 40
1.0
 40
1.0
 40
1.0
 40
1.0
 10
247.9643579165815
 20
210.6177083639384
 30
0.0
 10
248.0087395784105
 20
210.6103851456125
 30
0.0
 10
248.1053990890184
 20
210.5944357946804
 30
0.0
 10
248.3122485648874
 20
210.6421038614185
 30
0.0
 10
248.5055181509632
 20
210.7298302747497
 30
0.0
 10
248.6520963479137
 20
210.8494943965073
 30
0.0
 10
248.750803311971
 20
211.0003819629486
 30
0.0
 10
248.7804635497952
 20
211.1222356830001
 30
0.0
 10
248.7592892158523
 20
211.2514791319031
 30
0.0
 10
248.7130346146932
 20
211.3181568683898
 30
0.0
 10
248.6897911469816
 20
211.3516631958962
 30
0.0
  0
SPLINE
  5
FB
330
1F
100
AcDbEntity
  8
0
  6
Continuous
 62
     7
370
    15
100
AcDbSpline
210
0.0
220
0.0
230
1.0
 70
     8
 71
     3
 72
    20
 73
    16
 74
     0
 42
0.00000001
 43
0.00000001
 40
0.0
 40
0.0
 40
0.0
 40
0.0
 40
0.0607086059107249
 40
0.2265341314293467
 40
0.3908034809638889
 40
0.4705949034325367
 40
0.5476204825161574
 40
0.622857451169021
 40
0.700337359891757
 40
0.7786474899100327
 40
0.8566579368581354
 40
0.933101260558315
 40
0.9703735486794398
 40
0.9892351573384087
 40
1.0
 40
1.0
 40
1.0
 40
1.0
 10
244.2281599681257
 20
211.3516631958962
 30
0.0
 10
244.2744345289982
 20
211.2983297981574
 30
0.0
 10
244.4471080288628
 20
211.0993162521914
 30
0.0
 10
244.864081446852
 20
211.0813895154034
 30
0.0
 10
245.4290358836509
 20
211.0063664952271
 30
0.0
 10
245.9486486332459
 20
210.9634244247754
 30
0.0
 10
246.3425420657302
 20
210.9328733482819
 30
0.0
 10
246.7354529624709
 20
210.9051910736403
 30
0.0
 10
247.1166143663042
 20
210.8738833518671
 30
0.0
 10
247.4723373595445
 20
210.8414109170111
 30
0.0
 10
247.7749686420435
 20
210.8105849474865
 30
0.0
 10
247.9674665017004
 20
210.7876826478342
 30
0.0
 10
248.0556008903098
 20
210.7796552056117
 30
0.0
 10
248.101017916285
 20
210.7718606478742
 30
0.0
 10
248.1004703627356
 20
210.775819450361
 30
0.0
 10
248.1002714078306
 20
210.7772578908086
 30
0.0
  0
SPLINE
  5
FC
330
1F
100
AcDbEntity
  8
0
  6
Continuous
 62
     7
370
    15
100
AcDbSpline
210
0.0
220
0.0
230
1.0
 70
     8
 71
     3
 72
    18
 73
    14
 74
     0
 42
0.00000001
 43
0.00000001
 40
0.0
 40
0.0
 40
0.0
 40
0.0
 40
0.0057536063763858
 40
0.1156387709753249
 40
0.2383933650208669
 40
0.3593073542079148
 40
0.4757051454843201
 40
0.5872120525988893
 40
0.7047320452631978
 40
0.8265026387471018
 40
0.8891453484251808
 40
0.9517927931064117
 40
1.0
 40
1.0
 40
1.0
 40
1.0
 10
248.4709824960112
 20
219.9984871273816
 30
0.0
 10
248.4663353367462
 20
220.0014406042649
 30
0.0
 10
248.3729344763514
 20
220.0608010148567
 30
0.0
 10
248.1505632080579
 20
220.0669835258079
 30
0.0
 10
247.7591958644193
 20
220.1261806901239
 30
0.0
 10
247.247302333229
 20
220.1717279286113
 30
0.0
 10
246.6962771330693
 20
220.2178782646705
 30
0.0
 10
246.1341580454866
 20
220.2567759887433
 30
0.0
 10
245.5998798482851
 20
220.3015052360608
 30
0.0
 10
245.2022291582185
 20
220.342575090052
 30
0.0
 10
244.9875220787999
 20
220.3636973010417
 30
0.0
 10
244.8914551360682
 20
220.3659860615317
 30
0.0
 10
244.8760127419358
 20
220.3499110159781
 30
0.0
 10
244.8692973296522
 20
220.3429204834581
 30
0.0
  0
SPLINE
  5
FD
330
1F
100
AcDbEntity
  8
0
  6
Continuous
 62
     7
370
    15
100
AcDbSpline
210
0.0
220
0.0
230
1.0
 70
     8
 71
     3
 72
    12
 73
     8
 74
     0
 42
0.00000001
 43
0.00000001
 40
0.0
 40
0.0
 40
0.0
 40
0.0
 40
0.2236724731164027
 40
0.452310651944408
 40
0.6822375069813867
 40
0.910224143092987
 40
1.0
 40
1.0
 40
1.0
 40
1.0
 10
244.1700603406309
 20
221.153513850081
 30
0.0
 10
244.157320328155
 20
221.1109658422197
 30
0.0
 10
244.1315574648554
 20
221.0249252270891
 30
0.0
 10
244.2527064938127
 20
220.933311335135
 30
0.0
 10
244.484382407603
 20
220.8370059050738
 30
0.0
 10
244.7292340550988
 20
220.7745141095738
 30
0.0
 10
244.9125698014019
 20
220.7797344048981
 30
0.0
 10
244.9643667380689
 20
220.7812092689753
 30
0.0
  0
SPLINE
  5
FE
330
1F
100
AcDbEntity
  8
0
  6
Continuous
 62
     7
370
    15
100
AcDbSpline
210
0.0
220
0.0
230
1.0
 70
     8
 71
     3
 72
    19
 73
    15
 74
     0
 42
0.00000001
 43
0.00000001
 40
0.0
 40
0.0
 40
0.0
 40
0.0
 40
0.0979036338672905
 40
0.1753757700205972
 40
0.2884819729928274
 40
0.3734522855814106
 40
0.457000841571836
 40
0.6168872619138224
 40
0.6796664206511335
 40
0.7634259995396097
 40
0.8137553783406133
 40
0.8702969022969015
 40
0.9323986437450937
 40
1.0
 40
1.0
 40
1.0
 40
1.0
 10
244.3462963740705
 20
220.658383188206
 30
0.0
 10
244.3968080858014
 20
220.6320063358779
 30
0.0
 10
244.4872902261463
 20
220.5847572133988
 30
0.0
 10
244.8619104015717
 20
220.5241068153499
 30
0.0
 10
245.3484344783437
 20
220.4702213265514
 30
0.0
 10
245.9397591160547
 20
220.41698788146
 30
0.0
 10
246.6938638272744
 20
220.3654366292629
 30
0.0
 10
247.3349587369371
 20
220.2984942838629
 30
0.0
 10
247.9842379307547
 20
220.2629742448997
 30
0.0
 10
248.3625707838373
 20
220.3411606454412
 30
0.0
 10
248.6144141195689
 20
220.4493591976395
 30
0.0
 10
248.7480095407209
 20
220.5377008873196
 30
0.0
 10
248.809780543774
 20
220.611541567712
 30
0.0
 10
248.7383373677221
 20
220.6920568527252
 30
0.0
 10
248.7011011283277
 20
220.734021482426
 30
0.0
  0
SPLINE
  5
FF
330
1F
100
AcDbEntity
  8
0
  6
Continuous
 62
     7
370
    15
100
AcDbSpline
210
0.0
220
0.0
230
1.0
 70
     8
 71
     3
 72
    25
 73
    21
 74
     0
 42
0.00000001
 43
0.00000001
 40
0.0
 40
0.0
 40
0.0
 40
0.0
 40
0.0176248670236112
 40
0.0344969691582522
 40
0.050314061142475
 40
0.0649727818243312
 40
0.0909434939240802
 40
0.1134370128477215
 40
0.1538396794294686
 40
0.1912339635940851
 40
0.2995705995434672
 40
0.3999634035419894
 40
0.5012956609641801
 40
0.5949061617680064
 40
0.6784894436636939
 40
0.7336315235097717
 40
0.8075201325645285
 40
0.8952851779765146
 40
0.9453106351021356
 40
1.0
 40
1.0
 40
1.0
 40
1.0
 10
248.3437861840605
 20
220.108439536202
 30
0.0
 10
248.3834913959271
 20
220.112834880682
 30
0.0
 10
248.4612059947011
 20
220.1214378427788
 30
0.0
 10
248.5630870474714
 20
220.1674357478762
 30
0.0
 10
248.6441033887063
 20
220.2263974513046
 30
0.0
 10
248.7203024449183
 20
220.3099696263327
 30
0.0
 10
248.7733593449435
 20
220.4136226620508
 30
0.0
 10
248.7975005743698
 20
220.5459559857267
 30
0.0
 10
248.7746294298216
 20
220.6778169688802
 30
0.0
 10
248.6033845051036
 20
220.9230316689757
 30
0.0
 10
248.2606029042136
 20
221.0101129055514
 30
0.0
 10
247.7654877353416
 20
221.0686678025595
 30
0.0
 10
247.1522752776811
 20
221.1270249685868
 30
0.0
 10
246.5028045612458
 20
221.1766480069621
 30
0.0
 10
245.9630917592877
 20
221.216128181234
 30
0.0
 10
245.5170983529457
 20
221.2553045419586
 30
0.0
 10
245.1283846354829
 20
221.2935339403222
 30
0.0
 10
244.8682286260115
 20
221.3213753259987
 30
0.0
 10
244.7377927009409
 20
221.3438690280496
 30
0.0
 10
244.7291210780454
 20
221.3563323982613
 30
0.0
 10
244.7245921532987
 20
221.3628416372419
 30
0.0
  0
SPLINE
  5
100
330
1F
100
AcDbEntity
  8
0
  6
Continuous
 62
     7
370
    15
100
AcDbSpline
210
0.0
220
0.0
230
1.0
 70
     8
 71
     3
 72
    12
 73
     8
 74
     0
 42
0.00000001
 43
0.00000001
 40
0.0
 40
0.0
 40
0.0
 40
0.0
 40
0.175647445545359
 40
0.5723076563006982
 40
0.7586171666716701
 40
0.9207515006097153
 40
1.0
 40
1.0
 40
1.0
 40
1.0
 10
244.8129262368559
 20
220.5443539148152
 30
0.0
 10
244.7473623635837
 20
220.5351829318481
 30
0.0
 10
244.5337372434808
 20
220.5053013485914
 30
0.0
 10
244.3178284298169
 20
220.4313584708997
 30
0.0
 10
244.1566575341409
 20
220.2164390685272
 30
0.0
 10
244.1254575554861
 20
220.0562155840111
 30
0.0
 10
244.1564335345407
 20
219.9775526716798
 30
0.0
 10
244.1666032712339
 20
219.951726817894
 30
0.0
  0
SPLINE
  5
101
330
1F
100
AcDbEntity
  8
0
  6
Continuous
 62
     7
370
    15
100
AcDbSpline
210
0.0
220
0.0
230
1.0
 70
     8
 71
     3
 72
    11
 73
     7
 74
     0
 42
0.00000001
 43
0.00000001
 40
0.0
 40
0.0
 40
0.0
 40
0.0
 40
0.351314127861838
 40
0.6843093014494712
 40
0.9949370775228061
 40
1.0
 40
1.0
 40
1.0
 40
1.0
 10
248.388877097833
 20
220.138919861424
 30
0.0
 10
248.42957296196
 20
220.1406024207361
 30
0.0
 10
248.5088426415545
 20
220.1438798038418
 30
0.0
 10
248.6014767317829
 20
220.190693749532
 30
0.0
 10
248.652723380439
 20
220.2309332924154
 30
0.0
 10
248.6656671954828
 20
220.2541035120414
 30
0.0
 10
248.6658747832655
 20
220.2544751068533
 30
0.0
  0
LINE
  5
102
330
1F
100
AcDbEntity
  8
0
  6
Continuous
 62
     7
370
    15
100
AcDbLine
 10
244.3241234462
 20
211.2539227543
 30
0.0
 11
243.2056571882
 21
211.2539227543
 31
0.0
  0
LINE
  5
103
330
1F
100
AcDbEntity
  8
0
  6
Continuous
 62
     7
370
    15
100
AcDbLine
 10
243.2056571882
 20
210.453923182
 30
0.0
 11
244.9643667381
 21
210.453923182
 31
0.0
  0
LINE
  5
104
330
1F
100
AcDbEntity
  8
0
  6
Continuous
 62
     7
370
    15
100
AcDbLine
 10
241.7953665893
 20
224.0516635081
 30
0.0
 11
241.7953665893
 21
224.1051335311
 31
0.0
  0
LINE
  5
105
330
1F
100
AcDbEntity
  8
0
  6
Continuous
 62
     7
370
    15
100
AcDbLine
 10
238.7953754108
 20
224.1051335311
 30
0.0
 11
238.7953754108
 21
224.0516635081
 31
0.0
  0
SPLINE
  5
106
330
1F
100
AcDbEntity
  8
0
  6
Continuous
 62
     7
370
    15
100
AcDbSpline
210
0.0
220
0.0
230
1.0
 70
     8
 71
     3
 72
    15
 73
    11
 74
     0
 42
0.00000001
 43
0.00000001
 40
0.0
 40
0.0
 40
0.0
 40
0.0
 40
0.1077551316558015
 40
0.2352510952770178
 40
0.362790812364346
 40
0.4902565964082815
 40
0.6176631519439536
 40
0.7450970655907955
 40
0.8724965291587299
 40
1.0
 40
1.0
 40
1.0
 40
1.0
 10
238.811423961389
 20
208.0516627481163
 30
0.0
 10
238.8279631898893
 20
207.7391417309946
 30
0.0
 10
238.8640716476486
 20
207.0568455800343
 30
0.0
 10
239.2002851410723
 20
206.047697116124
 30
0.0
 10
239.7583593458083
 20
205.084213049015
 30
0.0
 10
240.5131925953718
 20
204.2632936142899
 30
0.0
 10
241.4283516191553
 20
203.6280217729015
 30
0.0
 10
242.4556071602549
 20
203.2078597895521
 30
0.0
 10
243.5515873437282
 20
202.9940536576364
 30
0.0
 10
244.287346551077
 20
203.0595840316309
 30
0.0
 10
244.6553762595533
 20
203.0923625877083
 30
0.0
  0
SPLINE
  5
107
330
1F
100
AcDbEntity
  8
0
  6
Continuous
 62
     7
370
    15
100
AcDbSpline
210
0.0
220
0.0
230
1.0
 70
     8
 71
     3
 72
    15
 73
    11
 74
     0
 42
0.00000001
 43
0.00000001
 40
0.0
 40
0.0
 40
0.0
 40
0.0
 40
0.1316476202011945
 40
0.2633131707200008
 40
0.3951883479158034
 40
0.5266682082755362
 40
0.657547438087822
 40
0.7882127018688155
 40
0.9184592395622494
 40
1.0
 40
1.0
 40
1.0
 40
1.0
 10
244.1576774756788
 20
206.0500475069464
 30
0.0
 10
244.0054986589591
 20
206.038234036092
 30
0.0
 10
243.7011202988671
 20
206.0146054853963
 30
0.0
 10
243.2502624936183
 20
206.1160795575141
 30
0.0
 10
242.8312320191349
 20
206.3029361566633
 30
0.0
 10
242.4608413031037
 20
206.5755336575227
 30
0.0
 10
242.1585709009106
 20
206.9214371849357
 30
0.0
 10
241.9394207387968
 20
207.323151097842
 30
0.0
 10
241.8220608847557
 20
207.7094635490039
 30
0.0
 10
241.8118784394047
 20
207.9565365503262
 30
0.0
 10
241.8079580705046
 20
208.0516627481163
 30
0.0
  0
SPLINE
  5
108
330
1F
100
AcDbEntity
  8
0
  6
Continuous
 62
     7
370
    15
100
AcDbSpline
210
0.0
220
0.0
230
1.0
 70
     8
 71
     3
 72
    15
 73
    11
 74
     0
 42
0.00000001
 43
0.00000001
 40
0.0
 40
0.0
 40
0.0
 40
0.0
 40
0.1249271536958361
 40
0.2499157157707922
 40
0.3749662889906207
 40
0.4999570529282178
 40
0.6249211366264824
 40
0.7499169051311477
 40
0.874873894442914
 40
1.0
 40
1.0
 40
1.0
 40
1.0
 10
244.8262478749632
 20
228.9821839382828
 30
0.0
 10
244.4598712005668
 20
229.0255159508797
 30
0.0
 10
243.7269377580389
 20
229.1122012760758
 30
0.0
 10
242.6229143652167
 20
228.9470105391968
 30
0.0
 10
241.5821158740503
 20
228.558078974479
 30
0.0
 10
240.6469221369364
 20
227.9530659832306
 30
0.0
 10
239.8662694301142
 20
227.1568766690479
 30
0.0
 10
239.2783149115149
 20
226.2125078557836
 30
0.0
 10
238.8824878741012
 20
225.1640651200862
 30
0.0
 10
238.8244259864836
 20
224.4249440584825
 30
0.0
 10
238.7953754107832
 20
224.0551336159886
 30
0.0
  0
SPLINE
  5
109
330
1F
100
AcDbEntity
  8
0
  6
Continuous
 62
     7
370
    15
100
AcDbSpline
210
0.0
220
0.0
230
1.0
 70
     8
 71
     3
 72
    15
 73
    11
 74
     0
 42
0.00000001
 43
0.00000001
 40
0.0
 40
0.0
 40
0.0
 40
0.0
 40
0.1242530821660354
 40
0.2486350602761307
 40
0.3735432752958944
 40
0.4985840916991253
 40
0.6236666261484892
 40
0.7490730952873954
 40
0.8744399953768385
 40
1.0
 40
1.0
 40
1.0
 40
1.0
 10
241.7953665892958
 20
224.0551336159886
 30
0.0
 10
241.8089227155718
 20
224.2070903626913
 30
0.0
 10
241.8360490307906
 20
224.5111614908851
 30
0.0
 10
242.01052934137
 20
224.9384708238273
 30
0.0
 10
242.263858475516
 20
225.3201133652281
 30
0.0
 10
242.5936764484764
 20
225.640049746077
 30
0.0
 10
242.9846080733032
 20
225.8806188634728
 30
0.0
 10
243.4173044039946
 20
226.0322443791345
 30
0.0
 10
243.8748313926668
 20
226.0857024948978
 30
0.0
 10
244.1767456394819
 20
226.045012440143
 30
0.0
 10
244.3278189341902
 20
226.0246517559469
 30
0.0
  0
LINE
  5
10A
330
1F
100
AcDbEntity
  8
0
  6
Continuous
 62
     7
370
    15
100
AcDbLine
 10
259.6984263103
 20
208.6667999117
 30
0.0
 11
244.1574539583
 21
206.0503818518
 31
0.0
  0
LINE
  5
10B
330
1F
100
AcDbEntity
  8
0
  6
Continuous
 62
     7
370
    15
100
AcDbLine
 10
244.6555252712
 20
203.0920142731
 30
0.0
 11
260.196482722
 21
205.7084327986
 31
0.0
  0
LINE
  5
10C
330
1F
100
AcDbEntity
  8
0
  6
Continuous
 62
     7
370
    15
100
AcDbLine
 10
244.3280424516
 20
226.0242261415
 30
0.0
 11
259.8690148036
 21
223.4078071503
 31
0.0
  0
LINE
  5
10D
330
1F
100
AcDbEntity
  8
0
  6
Continuous
 62
     7
370
    15
100
AcDbLine
 10
260.3670712154
 20
226.3661742633
 30
0.0
 11
244.8260988634
 21
228.9825927889
 31
0.0
  0
SPLINE
  5
10E
330
1F
100
AcDbEntity
  8
0
  6
Continuous
 62
     7
370
    15
100
AcDbSpline
210
0.0
220
0.0
230
1.0
 70
     8
 71
     3
 72
    12
 73
     8
 74
     0
 42
0.00000001
 43
0.00000001
 40
0.0
 40
0.0
 40
0.0
 40
0.0
 40
0.1526137249280727
 40
0.2973904382913148
 40
0.562370414533387
 40
0.7966025475283883
 40
1.0
 40
1.0
 40
1.0
 40
1.0
 10
260.1961399953245
 20
205.7087419977368
 30
0.0
 10
260.4473595659905
 20
205.7614800991055
 30
0.0
 10
260.9368980938193
 20
205.8642480977774
 30
0.0
 10
261.7864208203069
 20
206.2934930983074
 30
0.0
 10
262.5984116839504
 20
207.0378878055567
 30
0.0
 10
263.1628578654809
 20
208.1089272768479
 30
0.0
 10
263.2445466456026
 20
208.8438546113536
 30
0.0
 10
263.2825132052778
 20
209.1854273764372
 30
0.0
  0
SPLINE
  5
10F
330
1F
100
AcDbEntity
  8
0
  6
Continuous
 62
     7
370
    15
100
AcDbSpline
210
0.0
220
0.0
230
1.0
 70
     8
 71
     3
 72
    11
 73
     7
 74
     0
 42
0.00000001
 43
0.00000001
 40
0.0
 40
0.0
 40
0.0
 40
0.0
 40
0.2003583941858298
 40
0.4328077098157036
 40
0.6990179292940805
 40
0.9999999999999999
 40
0.9999999999999999
 40
0.9999999999999999
 40
0.9999999999999999
 10
260.284190956819
 20
209.1854273764372
 30
0.0
 10
260.2709635531008
 20
209.1290007955067
 30
0.0
 10
260.2423901442685
 20
209.0071099240784
 30
0.0
 10
260.1265053587588
 20
208.8414122868134
 30
0.0
 10
259.9417590581685
 20
208.7024985466098
 30
0.0
 10
259.7841390440207
 20
208.6791118622781
 30
0.0
 10
259.7004975716948
 20
208.6667016571344
 30
0.0
  0
SPLINE
  5
110
330
1F
100
AcDbEntity
  8
0
  6
Continuous
 62
     7
370
    15
100
AcDbSpline
210
0.0
220
0.0
230
1.0
 70
     8
 71
     3
 72
    12
 73
     8
 74
     0
 42
0.00000001
 43
0.00000001
 40
0.0
 40
0.0
 40
0.0
 40
0.0
 40
0.2034069490661571
 40
0.4376406693597494
 40
0.7026181564216957
 40
0.8473898540302094
 40
1.0
 40
1.0
 40
1.0
 40
1.0
 10
263.2825132052778
 20
222.7440582079769
 30
0.0
 10
263.2610716633937
 20
223.0870665631424
 30
0.0
 10
263.2149390667182
 20
223.8250669453308
 30
0.0
 10
262.7028493056841
 20
224.9221875242096
 30
0.0
 10
261.9276258312699
 20
225.7049251181292
 30
0.0
 10
261.0997861289836
 20
226.1746674372602
 30
0.0
 10
260.6158002695712
 20
226.3009257299424
 30
0.0
 10
260.3674288432478
 20
226.3657188465775
 30
0.0
  0
SPLINE
  5
111
330
1F
100
AcDbEntity
  8
0
  6
Continuous
 62
     7
370
    15
100
AcDbSpline
210
0.0
220
0.0
230
1.0
 70
     8
 71
     3
 72
    12
 73
     8
 74
     0
 42
0.00000001
 43
0.00000001
 40
0.0
 40
0.0
 40
0.0
 40
0.0
 40
0.1555604476034988
 40
0.3022086583397345
 40
0.5679707579484776
 40
0.7999460435992334
 40
1.0
 40
1.0
 40
1.0
 40
1.0
 10
259.867092553842
 20
223.408725434351
 30
0.0
 10
259.9076396093562
 20
223.3929762922993
 30
0.0
 10
259.9864107329636
 20
223.3623802946483
 30
0.0
 10
260.116041002206
 20
223.2673335829261
 30
0.0
 10
260.2304759095986
 20
223.1211631043049
 30
0.0
 10
260.2946089903326
 20
222.9269065738052
 30
0.0
 10
260.2874882582302
 20
222.8019296070188
 30
0.0
 10
260.284190956819
 20
222.7440582079769
 30
0.0
  0
LINE
  5
112
330
1F
100
AcDbEntity
  8
0
  6
Continuous
 62
     7
370
    15
100
AcDbLine
 10
260.2833564918
 20
222.794058123
 30
0.0
 11
260.2833564918
 21
222.5516632622
 31
0.0
  0
LINE
  5
113
330
1F
100
AcDbEntity
  8
0
  6
Continuous
 62
     7
370
    15
100
AcDbLine
 10
260.2833564918
 20
209.551662994
 30
0.0
 11
260.2833564918
 21
209.1354274614
 31
0.0
  0
LINE
  5
114
330
1F
100
AcDbEntity
  8
0
  6
Continuous
 62
     7
370
    15
100
AcDbLine
 10
263.2833476703
 20
209.1354274614
 30
0.0
 11
263.2833476703
 21
209.5544076016
 31
0.0
  0
LINE
  5
115
330
1F
100
AcDbEntity
  8
0
  6
Continuous
 62
     7
370
    15
100
AcDbLine
 10
263.2833476703
 20
222.5489186546
 30
0.0
 11
263.2833476703
 21
222.794058123
 31
0.0
  0
LINE
  5
116
330
1F
100
AcDbEntity
  8
0
  6
Continuous
 62
     7
370
    15
100
AcDbLine
 10
249.5826389234
 20
221.6516629284
 30
0.0
 11
247.9643579166
 21
221.6516629284
 31
0.0
  0
LINE
  5
117
330
1F
100
AcDbEntity
  8
0
  6
Continuous
 62
     7
370
    15
100
AcDbLine
 10
248.5912795703
 20
220.8516633561
 30
0.0
 11
249.5826389234
 21
220.8516633561
 31
0.0
  0
LINE
  5
118
330
1F
100
AcDbEntity
  8
0
  6
Continuous
 62
     7
370
    15
100
AcDbLine
 10
249.9208654802
 20
222.9198020374
 30
0.0
 11
249.6543284099
 21
221.7115548862
 31
0.0
  0
LINE
  5
119
330
1F
100
AcDbEntity
  8
0
  6
Continuous
 62
     7
370
    15
100
AcDbLine
 10
250.4224832694
 20
221.4800048111
 30
0.0
 11
250.7020737569
 21
222.7474742992
 31
0.0
  0
SPLINE
  5
11A
330
1F
100
AcDbEntity
  8
0
  6
Continuous
 62
     7
370
    15
100
AcDbSpline
210
0.0
220
0.0
230
1.0
 70
     8
 71
     3
 72
    11
 73
     7
 74
     0
 42
0.00000001
 43
0.00000001
 40
0.0
 40
0.0
 40
0.0
 40
0.0
 40
0.2541315534387046
 40
0.5022702145093869
 40
0.7495144296499624
 40
1.0
 40
1.0
 40
1.0
 40
1.0
 10
249.5826389233946
 20
220.8516633560837
 30
0.0
 10
249.682727708727
 20
220.8619094504236
 30
0.0
 10
249.8805450005927
 20
220.8821600172358
 30
0.0
 10
250.138689732228
 20
221.0361927541612
 30
0.0
 10
250.342140309573
 20
221.2552652349005
 30
0.0
 10
250.4038731894123
 20
221.442316285666
 30
0.0
 10
250.4349406401991
 20
221.5364508753598
 30
0.0
  0
LINE
  5
11B
330
1F
100
AcDbEntity
  8
0
  6
Continuous
 62
     7
370
    15
100
AcDbLine
 10
259.562974755
 20
222.5516632622
 30
0.0
 11
259.562974755
 21
209.551662994
 31
0.0
  0
LINE
  5
11C
330
1F
100
AcDbEntity
  8
0
  6
Continuous
 62
     7
370
    15
100
AcDbLine
 10
259.562974755
 20
222.5516632622
 30
0.0
 11
262.2819449346
 21
222.5516632622
 31
0.0
  0
LWPOLYLINE
  5
11D
330
1F
100
AcDbEntity
  8
0
  6
Continuous
 62
     7
370
    15
100
AcDbPolyline
 90
        9
 70
   128
 43
0.0
 10
263.012459461
 20
221.3516629724
 10
262.9984225671
 20
221.5857713906
 10
262.9568632285
 20
221.8108832328
 10
262.8893460672
 20
222.0183474434
 10
262.7985085885
 20
222.2001914358
 10
262.687807862
 20
222.3494265651
 10
262.5615056198
 20
222.4603186784
 10
262.4244596403
 20
222.5286055779
 10
262.2819449346
 20
222.5516632622
  0
LINE
  5
11E
330
1F
100
AcDbEntity
  8
0
  6
Continuous
 62
     7
370
    15
100
AcDbLine
 10
263.012459461
 20
221.3516629724
 30
0.0
 11
263.012459461
 21
210.7516632838
 31
0.0
  0
LWPOLYLINE
  5
11F
330
1F
100
AcDbEntity
  8
0
  6
Continuous
 62
     7
370
    15
100
AcDbPolyline
 90
        9
 70
   128
 43
0.0
 10
262.2819449346
 20
209.551662994
 10
262.4244596403
 20
209.5747206783
 10
262.5615056198
 20
209.6430075778
 10
262.687807862
 20
209.7538996911
 10
262.7985085885
 20
209.9031348204
 10
262.8893460672
 20
210.0849788127
 10
262.9568632285
 20
210.2924430234
 10
262.9984225671
 20
210.5175548656
 10
263.012459461
 20
210.7516632838
  0
LINE
  5
120
330
1F
100
AcDbEntity
  8
0
  6
Continuous
 62
     7
370
    15
100
AcDbLine
 10
262.2819449346
 20
209.551662994
 30
0.0
 11
259.562974755
 21
209.551662994
 31
0.0
  0
LINE
  5
121
330
1F
100
AcDbEntity
  8
0
  6
Continuous
 62
     7
370
    15
100
AcDbLine
 10
263.2339801233
 20
209.551662994
 30
0.0
 11
262.2819449346
 21
209.551662994
 31
0.0
  0
LINE
  5
122
330
1F
100
AcDbEntity
  8
0
  6
Continuous
 62
     7
370
    15
100
AcDbLine
 10
263.012459461
 20
210.7516632838
 30
0.0
 11
263.9644946496
 21
210.7516632838
 31
0.0
  0
LWPOLYLINE
  5
123
330
1F
100
AcDbEntity
  8
0
  6
Continuous
 62
     7
370
    15
100
AcDbPolyline
 90
        9
 70
   128
 43
0.0
 10
263.9644946496
 20
210.7516632838
 10
263.9504577558
 20
210.5175548656
 10
263.9088835161
 20
210.2924430234
 10
263.8413812559
 20
210.0849788127
 10
263.7505288761
 20
209.9031348204
 10
263.6398281495
 20
209.7538996911
 10
263.5135259073
 20
209.6430075778
 10
263.3764948289
 20
209.5747206783
 10
263.2339801233
 20
209.551662994
  0
LINE
  5
124
330
1F
100
AcDbEntity
  8
0
  6
Continuous
 62
     7
370
    15
100
AcDbLine
 10
262.2819449346
 20
222.5516632622
 30
0.0
 11
263.2339801233
 21
222.5516632622
 31
0.0
  0
LWPOLYLINE
  5
125
330
1F
100
AcDbEntity
  8
0
  6
Continuous
 62
     7
370
    15
100
AcDbPolyline
 90
        9
 70
   128
 43
0.0
 10
263.2339801233
 20
222.5516632622
 10
263.3764948289
 20
222.5286055779
 10
263.5135259073
 20
222.4603186784
 10
263.6398281495
 20
222.3494265651
 10
263.7505288761
 20
222.2001914358
 10
263.8413812559
 20
222.0183474434
 10
263.9088835161
 20
221.8108832328
 10
263.9504577558
 20
221.5857713906
 10
263.9644946496
 20
221.3516629724
  0
LINE
  5
126
330
1F
100
AcDbEntity
  8
0
  6
Continuous
 62
     7
370
    15
100
AcDbLine
 10
263.9644946496
 20
221.3516629724
 30
0.0
 11
263.012459461
 21
221.3516629724
 31
0.0
  0
LINE
  5
127
330
1F
100
AcDbEntity
  8
0
  6
Continuous
 62
     7
370
    15
100
AcDbLine
 10
263.9644946496
 20
221.3516629724
 30
0.0
 11
263.9644946496
 21
210.7516632838
 31
0.0
  0
LINE
  5
128
330
1F
100
AcDbEntity
  8
0
  6
Continuous
 62
     7
370
    15
100
AcDbLine
 10
258.9843626659
 20
222.5516632622
 30
0.0
 11
259.562974755
 21
222.5516632622
 31
0.0
  0
LINE
  5
129
330
1F
100
AcDbEntity
  8
0
  6
Continuous
 62
     7
370
    15
100
AcDbLine
 10
259.562974755
 20
209.551662994
 30
0.0
 11
258.9843626659
 21
209.551662994
 31
0.0
  0
CIRCLE
  5
12A
330
1F
100
AcDbEntity
  8
0
  6
Continuous
 62
     7
370
    15
100
AcDbCircle
 10
269.4843595187
 20
211.0516631281
 30
0.0
 40
3.0
  0
LINE
  5
12B
330
1F
100
AcDbEntity
  8
0
  6
Continuous
 62
     7
370
    15
100
AcDbLine
 10
269.0843548219
 20
209.1516632078
 30
0.0
 11
269.8843534629
 21
209.1516632078
 31
0.0
  0
LINE
  5
12C
330
1F
100
AcDbEntity
  8
0
  6
Continuous
 62
     7
370
    15
100
AcDbLine
 10
269.8843534629
 20
209.1516632078
 30
0.0
 11
269.8843534629
 21
210.651662988
 31
0.0
  0
LINE
  5
12D
330
1F
100
AcDbEntity
  8
0
  6
Continuous
 62
     7
370
    15
100
AcDbLine
 10
269.8843534629
 20
210.651662988
 30
0.0
 11
271.3843639533
 21
210.651662988
 31
0.0
  0
LINE
  5
12E
330
1F
100
AcDbEntity
  8
0
  6
Continuous
 62
     7
370
    15
100
AcDbLine
 10
271.3843639533
 20
210.651662988
 30
0.0
 11
271.3843639533
 21
211.451663026
 31
0.0
  0
LINE
  5
12F
330
1F
100
AcDbEntity
  8
0
  6
Continuous
 62
     7
370
    15
100
AcDbLine
 10
271.3843639533
 20
211.451663026
 30
0.0
 11
269.8843534629
 21
211.451663026
 31
0.0
  0
LINE
  5
130
330
1F
100
AcDbEntity
  8
0
  6
Continuous
 62
     7
370
    15
100
AcDbLine
 10
269.8843534629
 20
211.451663026
 30
0.0
 11
269.8843534629
 21
212.9516630391
 31
0.0
  0
LINE
  5
131
330
1F
100
AcDbEntity
  8
0
  6
Continuous
 62
     7
370
    15
100
AcDbLine
 10
269.8843534629
 20
212.9516630391
 30
0.0
 11
269.0843548219
 21
212.9516630391
 31
0.0
  0
LINE
  5
132
330
1F
100
AcDbEntity
  8
0
  6
Continuous
 62
     7
370
    15
100
AcDbLine
 10
269.0843548219
 20
212.9516630391
 30
0.0
 11
269.0843548219
 21
211.451663026
 31
0.0
  0
LINE
  5
133
330
1F
100
AcDbEntity
  8
0
  6
Continuous
 62
     7
370
    15
100
AcDbLine
 10
269.0843548219
 20
210.651662988
 30
0.0
 11
269.0843548219
 21
209.1516632078
 31
0.0
  0
LINE
  5
134
330
1F
100
AcDbEntity
  8
0
  6
Continuous
 62
     7
370
    15
100
AcDbLine
 10
267.5843592327
 20
210.651662988
 30
0.0
 11
269.0843548219
 21
210.651662988
 31
0.0
  0
LINE
  5
135
330
1F
100
AcDbEntity
  8
0
  6
Continuous
 62
     7
370
    15
100
AcDbLine
 10
267.5843592327
 20
211.451663026
 30
0.0
 11
267.5843592327
 21
210.651662988
 31
0.0
  0
LINE
  5
136
330
1F
100
AcDbEntity
  8
0
  6
Continuous
 62
     7
370
    15
100
AcDbLine
 10
269.0843548219
 20
211.451663026
 30
0.0
 11
267.5843592327
 21
211.451663026
 31
0.0
  0
LINE
  5
137
330
1F
100
AcDbEntity
  8
0
  6
Continuous
 62
     7
370
    15
100
AcDbLine
 10
269.0843548219
 20
220.6516632302
 30
0.0
 11
269.0843548219
 21
219.1516632171
 31
0.0
  0
LINE
  5
138
330
1F
100
AcDbEntity
  8
0
  6
Continuous
 62
     7
370
    15
100
AcDbLine
 10
269.0843548219
 20
219.1516632171
 30
0.0
 11
269.8843534629
 21
219.1516632171
 31
0.0
  0
LINE
  5
139
330
1F
100
AcDbEntity
  8
0
  6
Continuous
 62
     7
370
    15
100
AcDbLine
 10
269.8843534629
 20
219.1516632171
 30
0.0
 11
269.8843534629
 21
220.6516632302
 31
0.0
  0
LINE
  5
13A
330
1F
100
AcDbEntity
  8
0
  6
Continuous
 62
     7
370
    15
100
AcDbLine
 10
269.8843534629
 20
220.6516632302
 30
0.0
 11
271.3843639533
 21
220.6516632302
 31
0.0
  0
LINE
  5
13B
330
1F
100
AcDbEntity
  8
0
  6
Continuous
 62
     7
370
    15
100
AcDbLine
 10
271.3843639533
 20
220.6516632302
 30
0.0
 11
271.3843639533
 21
221.4516632682
 31
0.0
  0
LINE
  5
13C
330
1F
100
AcDbEntity
  8
0
  6
Continuous
 62
     7
370
    15
100
AcDbLine
 10
271.3843639533
 20
221.4516632682
 30
0.0
 11
269.8843534629
 21
221.4516632682
 31
0.0
  0
LINE
  5
13D
330
1F
100
AcDbEntity
  8
0
  6
Continuous
 62
     7
370
    15
100
AcDbLine
 10
269.8843534629
 20
221.4516632682
 30
0.0
 11
269.8843534629
 21
222.9516630484
 31
0.0
  0
LINE
  5
13E
330
1F
100
AcDbEntity
  8
0
  6
Continuous
 62
     7
370
    15
100
AcDbLine
 10
269.8843534629
 20
222.9516630484
 30
0.0
 11
269.0843548219
 21
222.9516630484
 31
0.0
  0
LINE
  5
13F
330
1F
100
AcDbEntity
  8
0
  6
Continuous
 62
     7
370
    15
100
AcDbLine
 10
269.0843548219
 20
222.9516630484
 30
0.0
 11
269.0843548219
 21
221.4516632682
 31
0.0
  0
LINE
  5
140
330
1F
100
AcDbEntity
  8
0
  6
Continuous
 62
     7
370
    15
100
AcDbLine
 10
269.0843548219
 20
221.4516632682
 30
0.0
 11
267.5843592327
 21
221.4516632682
 31
0.0
  0
LINE
  5
141
330
1F
100
AcDbEntity
  8
0
  6
Continuous
 62
     7
370
    15
100
AcDbLine
 10
267.5843592327
 20
221.4516632682
 30
0.0
 11
267.5843592327
 21
220.6516632302
 31
0.0
  0
CIRCLE
  5
142
330
1F
100
AcDbEntity
  8
0
  6
Continuous
 62
     7
370
    15
100
AcDbCircle
 10
269.4843595187
 20
221.0516631281
 30
0.0
 40
3.0
  0
LINE
  5
143
330
1F
100
AcDbEntity
  8
0
  6
Continuous
 62
     7
370
    15
100
AcDbLine
 10
267.5843592327
 20
220.6516632302
 30
0.0
 11
269.0843548219
 21
220.6516632302
 31
0.0
  0
ARC
  5
144
330
1F
100
AcDbEntity
  8
0
  6
Continuous
 62
     7
370
    15
100
AcDbCircle
 10
258.9843595188
 20
216.0516631281
 30
0.0
 40
16.00000000000002
100
AcDbArc
 50
316.3971810272
 51
43.6028189726
  0
ARC
  5
145
330
1F
100
AcDbEntity
  8
0
  6
Continuous
 62
     7
370
    15
100
AcDbCircle
 10
269.4843595187
 20
206.0516631281
 30
0.0
 40
1.50000000000001
100
AcDbArc
 50
227.2726046868
 51
316.3971810272
  0
ARC
  5
146
330
1F
100
AcDbEntity
  8
0
  6
Continuous
 62
     7
370
    15
100
AcDbCircle
 10
269.4843595188
 20
226.0516631281
 30
0.0
 40
1.499999999999994
100
AcDbArc
 50
43.6028189726
 51
132.7273953127
  0
LINE
  5
147
330
1F
100
AcDbEntity
  8
0
  6
Continuous
 62
     7
370
    15
100
AcDbLine
 10
268.4665973823
 20
204.9497774294
 30
0.0
 11
263.4843643348
 21
209.551662994
 31
0.0
  0
LINE
  5
148
330
1F
100
AcDbEntity
  8
0
  6
Continuous
 62
     7
370
    15
100
AcDbLine
 10
263.4843643348
 20
222.5516632622
 30
0.0
 11
268.4665973823
 21
227.1535488268
 31
0.0
  0
LINE
  5
149
330
1F
100
AcDbEntity
  8
0
  6
Continuous
 62
     7
370
    15
100
AcDbLine
 10
263.2833476703
 20
222.5516632622
 30
0.0
 11
263.4843643348
 21
222.5516632622
 31
0.0
  0
LINE
  5
14A
330
1F
100
AcDbEntity
  8
0
  6
Continuous
 62
     7
370
    15
100
AcDbLine
 10
263.4843643348
 20
209.551662994
 30
0.0
 11
263.2833476703
 21
209.551662994
 31
0.0
  0
LINE
  5
14B
330
1F
100
AcDbEntity
  8
0
  6
Continuous
 62
     7
370
    15
100
AcDbLine
 10
266.4843555133
 20
16.0516601479
 30
0.0
 11
271.4843656461
 21
16.0516601479
 31
0.0
  0
LINE
  5
14C
330
1F
100
AcDbEntity
  8
0
  6
Continuous
 62
     7
370
    15
100
AcDbLine
 10
266.4843555133
 20
31.0516607439
 30
0.0
 11
266.4843555133
 21
16.0516601479
 31
0.0
  0
LINE
  5
14D
330
1F
100
AcDbEntity
  8
0
  6
Continuous
 62
     7
370
    15
100
AcDbLine
 10
266.4843555133
 20
31.0516607439
 30
0.0
 11
271.4843656461
 21
31.0516607439
 31
0.0
  0
LINE
  5
14E
330
1F
100
AcDbEntity
  8
0
  6
Continuous
 62
     7
370
    15
100
AcDbLine
 10
271.4843656461
 20
31.0516607439
 30
0.0
 11
271.4843656461
 21
16.0516601479
 31
0.0
  0
LINE
  5
14F
330
1F
100
AcDbEntity
  8
0
  6
Continuous
 62
     7
370
    15
100
AcDbLine
 10
271.4843656461
 20
31.0516607439
 30
0.0
 11
271.4843656461
 21
206.0641710138
 31
0.0
  0
LINE
  5
150
330
1F
100
AcDbEntity
  8
0
  6
Continuous
 62
     7
370
    15
100
AcDbLine
 10
266.4843555133
 20
31.0516607439
 30
0.0
 11
266.4843555133
 21
206.7806858992
 31
0.0
  0
LINE
  5
151
330
1F
100
AcDbEntity
  8
0
  6
Continuous
 62
     7
370
    15
100
AcDbLine
 10
286.4843662422
 20
31.0516607439
 30
0.0
 11
286.4843662422
 21
401.0516655123
 31
0.0
  0
LINE
  5
152
330
1F
100
AcDbEntity
  8
0
  6
Continuous
 62
     7
370
    15
100
AcDbLine
 10
271.4843656461
 20
31.0516607439
 30
0.0
 11
286.4843662422
 21
31.0516607439
 31
0.0
  0
LINE
  5
153
330
1F
100
AcDbEntity
  8
0
  6
Continuous
 62
     7
370
    15
100
AcDbLine
 10
271.4843656461
 20
226.0391552424
 30
0.0
 11
271.4843656461
 21
401.0516655123
 31
0.0
  0
LINE
  5
154
330
1F
100
AcDbEntity
  8
0
  6
Continuous
 62
     7
370
    15
100
AcDbLine
 10
271.4843656461
 20
401.0516655123
 30
0.0
 11
286.4843662422
 21
401.0516655123
 31
0.0
  0
ARC
  5
155
330
1F
100
AcDbEntity
  8
0
  6
Continuous
 62
     7
370
    15
100
AcDbCircle
 10
271.4843595188
 20
31.0516631281
 30
0.0
 40
15.00000000000001
100
AcDbArc
 50
270.0
 51
0.0
  0
LINE
  5
156
330
1F
100
AcDbEntity
  8
0
  6
Continuous
 62
     7
370
    15
100
AcDbLine
 10
266.4843555133
 20
401.0516655123
 30
0.0
 11
271.4843656461
 21
401.0516655123
 31
0.0
  0
LINE
  5
157
330
1F
100
AcDbEntity
  8
0
  6
Continuous
 62
     7
370
    15
100
AcDbLine
 10
266.4843555133
 20
225.322640357
 30
0.0
 11
266.4843555133
 21
401.0516655123
 31
0.0
  0
LINE
  5
158
330
1F
100
AcDbEntity
  8
0
  6
Continuous
 62
     7
370
    15
100
AcDbLine
 10
266.4843555133
 20
416.0516661083
 30
0.0
 11
271.4843656461
 21
416.0516661083
 31
0.0
  0
LINE
  5
159
330
1F
100
AcDbEntity
  8
0
  6
Continuous
 62
     7
370
    15
100
AcDbLine
 10
271.4843656461
 20
401.0516655123
 30
0.0
 11
271.4843656461
 21
416.0516661083
 31
0.0
  0
LINE
  5
15A
330
1F
100
AcDbEntity
  8
0
  6
Continuous
 62
     7
370
    15
100
AcDbLine
 10
266.4843555133
 20
401.0516655123
 30
0.0
 11
266.4843555133
 21
416.0516661083
 31
0.0
  0
ARC
  5
15B
330
1F
100
AcDbEntity
  8
0
  6
Continuous
 62
     7
370
    15
100
AcDbCircle
 10
271.4843595188
 20
401.0516631281
 30
0.0
 40
15.0
100
AcDbArc
 50
0.0
 51
90.0
  0
LINE
  5
15C
330
1F
100
AcDbEntity
  8
0
  6
Continuous
 62
     7
370
    15
100
AcDbLine
 10
249.695291702
 20
211.3516631959
 30
0.0
 11
249.695291702
 21
219.9516630223
 31
0.0
  0
LINE
  5
15D
330
1F
100
AcDbEntity
  8
0
  6
Continuous
 62
     7
370
    15
100
AcDbLine
 10
244.1809977929
 20
211.3516631959
 30
0.0
 11
244.1809977929
 21
219.9516630223
 31
0.0
  0
LINE
  5
15E
330
1F
100
AcDbEntity
  8
0
  6
Continuous
 62
     7
370
    15
100
AcDbLine
 10
249.695291702
 20
219.9516630223
 30
0.0
 11
244.1809977929
 21
219.9516630223
 31
0.0
  0
LINE
  5
15F
330
1F
100
AcDbEntity
  8
0
  6
Continuous
 62
     7
370
    15
100
AcDbLine
 10
249.695291702
 20
211.3516631959
 30
0.0
 11
244.1809977929
 21
211.3516631959
 31
0.0
  0
LINE
  5
160
330
1F
100
AcDbEntity
  8
0
  6
Continuous
 62
     7
370
    15
100
AcDbLine
 10
243.0667336624
 20
223.2516630044
 30
0.0
 11
218.2546313445
 21
223.2516630044
 31
0.0
  0
LINE
  5
161
330
1F
100
AcDbEntity
  8
0
  6
Continuous
 62
     7
370
    15
100
AcDbLine
 10
243.0667336624
 20
219.9516630223
 30
0.0
 11
243.0667336624
 21
223.2516630044
 31
0.0
  0
LINE
  5
162
330
1F
100
AcDbEntity
  8
0
  6
Continuous
 62
     7
370
    15
100
AcDbLine
 10
243.0667336624
 20
208.8516632518
 30
0.0
 11
243.0667336624
 21
211.3516631959
 31
0.0
  0
LINE
  5
163
330
1F
100
AcDbEntity
  8
0
  6
Continuous
 62
     7
370
    15
100
AcDbLine
 10
218.2546313445
 20
208.8516632518
 30
0.0
 11
243.0667336624
 21
208.8516632518
 31
0.0
  0
LINE
  5
164
330
1F
100
AcDbEntity
  8
0
  6
Continuous
 62
     7
370
    15
100
AcDbLine
 10
218.2546313445
 20
208.8516632518
 30
0.0
 11
218.2546313445
 21
223.2516630044
 31
0.0
  0
LINE
  5
165
330
1F
100
AcDbEntity
  8
0
  6
Continuous
 62
     7
370
    15
100
AcDbLine
 10
243.0667336624
 20
219.9516630223
 30
0.0
 11
244.1809977929
 21
219.9516630223
 31
0.0
  0
LINE
  5
166
330
1F
100
AcDbEntity
  8
0
  6
Continuous
 62
     7
370
    15
100
AcDbLine
 10
243.0667336624
 20
211.3516631959
 30
0.0
 11
244.1809977929
 21
211.3516631959
 31
0.0
  0
LINE
  5
167
330
1F
100
AcDbEntity
  8
0
  6
Continuous
 62
     7
370
    15
100
AcDbLine
 10
245.0865860622
 20
224.0490138954
 30
0.0
 11
243.194362108
 21
224.0490138954
 31
0.0
  0
ARC
  5
168
330
1F
100
AcDbEntity
  8
0
  6
Continuous
 62
     7
370
    15
100
AcDbCircle
 10
244.5409319819
 20
223.4245844788
 30
0.0
 40
1.484305400411365
100
AcDbArc
 50
155.1219708609
 51
186.6901462435
  0
ARC
  5
169
330
1F
100
AcDbEntity
  8
0
  6
Continuous
 62
     7
370
    15
100
AcDbCircle
 10
219.510511507
 20
223.4456574071
 30
0.0
 40
1.270774885943835
100
AcDbArc
 50
151.518225283
 51
188.7810136401
  0
LINE
  5
16A
330
1F
100
AcDbEntity
  8
0
  6
Continuous
 62
     7
370
    15
100
AcDbLine
 10
218.3935399692
 20
224.0516635081
 30
0.0
 11
245.7593436878
 21
224.0516635081
 31
0.0
  0
LINE
  5
16B
330
1F
100
AcDbEntity
  8
0
  6
Continuous
 62
     7
370
    15
100
AcDbLine
 10
245.7593436878
 20
224.0516635081
 30
0.0
 11
245.0865860622
 21
224.0490138954
 31
0.0
  0
LINE
  5
16C
330
1F
100
AcDbEntity
  8
0
  6
Continuous
 62
     7
370
    15
100
AcDbLine
 10
243.194362108
 20
208.0543123608
 30
0.0
 11
245.0865860622
 21
208.0543123608
 31
0.0
  0
LINE
  5
16D
330
1F
100
AcDbEntity
  8
0
  6
Continuous
 62
     7
370
    15
100
AcDbLine
 10
245.0865860622
 20
208.0543123608
 30
0.0
 11
245.7593436878
 21
208.0516627481
 31
0.0
  0
LINE
  5
16E
330
1F
100
AcDbEntity
  8
0
  6
Continuous
 62
     7
370
    15
100
AcDbLine
 10
245.7593436878
 20
208.0516627481
 30
0.0
 11
218.3935399692
 21
208.0516627481
 31
0.0
  0
ARC
  5
16F
330
1F
100
AcDbEntity
  8
0
  6
Continuous
 62
     7
370
    15
100
AcDbCircle
 10
219.510511507
 20
208.6576688491
 30
0.0
 40
1.270774885943835
100
AcDbArc
 50
171.2189863599
 51
208.481774717
  0
ARC
  5
170
330
1F
100
AcDbEntity
  8
0
  6
Continuous
 62
     7
370
    15
100
AcDbCircle
 10
244.5409319819
 20
208.6787417774
 30
0.0
 40
1.484305400411365
100
AcDbArc
 50
173.3098537565
 51
204.8780291391
  0
LINE
  5
171
330
1F
100
AcDbEntity
  8
0
  6
Continuous
 62
     7
370
    15
100
AcDbLine
 10
243.194362108
 20
223.2516630044
 30
0.0
 11
243.194362108
 21
224.0490138954
 31
0.0
  0
LINE
  5
172
330
1F
100
AcDbEntity
  8
0
  6
Continuous
 62
     7
370
    15
100
AcDbLine
 10
243.2056571882
 20
223.2516630044
 30
0.0
 11
243.2056571882
 21
219.9516630223
 31
0.0
  0
LINE
  5
173
330
1F
100
AcDbEntity
  8
0
  6
Continuous
 62
     7
370
    15
100
AcDbLine
 10
243.194362108
 20
208.0543123608
 30
0.0
 11
243.194362108
 21
208.8516632518
 31
0.0
  0
LINE
  5
174
330
1F
100
AcDbEntity
  8
0
  6
Continuous
 62
     7
370
    15
100
AcDbLine
 10
243.2056571882
 20
211.3516631959
 30
0.0
 11
243.2056571882
 21
208.8516632518
 31
0.0
  0
LINE
  5
175
330
1F
100
AcDbEntity
  8
0
  6
Continuous
 62
     7
370
    15
100
AcDbLine
 10
245.0865860622
 20
223.2516630044
 30
0.0
 11
245.0865860622
 21
224.0490138954
 31
0.0
  0
LINE
  5
176
330
1F
100
AcDbEntity
  8
0
  6
Continuous
 62
     7
370
    15
100
AcDbLine
 10
249.1943593662
 20
224.0516635081
 30
0.0
 11
245.7593436878
 21
224.0516635081
 31
0.0
  0
LINE
  5
177
330
1F
100
AcDbEntity
  8
0
  6
Continuous
 62
     7
370
    15
100
AcDbLine
 10
249.1943593662
 20
223.2516630044
 30
0.0
 11
245.0865860622
 21
223.2516630044
 31
0.0
  0
LINE
  5
178
330
1F
100
AcDbEntity
  8
0
  6
Continuous
 62
     7
370
    15
100
AcDbLine
 10
249.1943593662
 20
208.0516627481
 30
0.0
 11
245.7593436878
 21
208.0516627481
 31
0.0
  0
LINE
  5
179
330
1F
100
AcDbEntity
  8
0
  6
Continuous
 62
     7
370
    15
100
AcDbLine
 10
245.0865860622
 20
208.0543123608
 30
0.0
 11
245.0865860622
 21
208.8516632518
 31
0.0
  0
LINE
  5
17A
330
1F
100
AcDbEntity
  8
0
  6
Continuous
 62
     7
370
    15
100
AcDbLine
 10
249.1943593662
 20
208.8516632518
 30
0.0
 11
245.0865860622
 21
208.8516632518
 31
0.0
  0
LINE
  5
17B
330
1F
100
AcDbEntity
  8
0
  6
Continuous
 62
     7
370
    15
100
AcDbLine
 10
243.194362108
 20
223.2516630044
 30
0.0
 11
245.0865860622
 21
223.2516630044
 31
0.0
  0
LINE
  5
17C
330
1F
100
AcDbEntity
  8
0
  6
Continuous
 62
     7
370
    15
100
AcDbLine
 10
243.194362108
 20
208.8516632518
 30
0.0
 11
245.0865860622
 21
208.8516632518
 31
0.0
  0
LINE
  5
17D
330
1F
100
AcDbEntity
  8
0
  6
Continuous
 62
     7
370
    15
100
AcDbLine
 10
244.2643548887
 20
224.3516629985
 30
0.0
 11
248.6643548648
 21
224.3516629985
 31
0.0
  0
LINE
  5
17E
330
1F
100
AcDbEntity
  8
0
  6
Continuous
 62
     7
370
    15
100
AcDbLine
 10
244.3643565814
 20
207.2516631758
 30
0.0
 11
248.5643531721
 21
207.2516631758
 31
0.0
  0
LINE
  5
17F
330
1F
100
AcDbEntity
  8
0
  6
Continuous
 62
     7
370
    15
100
AcDbLine
 10
244.3643565814
 20
207.6516634276
 30
0.0
 11
248.5643531721
 21
207.6516634276
 31
0.0
  0
LINE
  5
180
330
1F
100
AcDbEntity
  8
0
  6
Continuous
 62
     7
370
    15
100
AcDbLine
 10
213.3557777445
 20
223.2516630044
 30
0.0
 11
211.3663013618
 21
223.2516630044
 31
0.0
  0
LINE
  5
181
330
1F
100
AcDbEntity
  8
0
  6
Continuous
 62
     7
370
    15
100
AcDbLine
 10
213.3557777445
 20
208.8516632518
 30
0.0
 11
213.3557777445
 21
223.2516630044
 31
0.0
  0
LINE
  5
182
330
1F
100
AcDbEntity
  8
0
  6
Continuous
 62
     7
370
    15
100
AcDbLine
 10
211.3663013618
 20
208.8516632518
 30
0.0
 11
213.3557777445
 21
208.8516632518
 31
0.0
  0
ARC
  5
183
330
1F
100
AcDbEntity
  8
0
  6
Continuous
 62
     7
370
    15
100
AcDbCircle
 10
226.6602585327
 20
216.0516631281
 30
0.0
 40
16.90399728363026
100
AcDbArc
 50
154.7901555355
 51
205.2098444645
  0
SPLINE
  5
184
330
1F
100
AcDbEntity
  8
0
  6
Continuous
 62
     7
370
    15
100
AcDbSpline
210
0.0
220
0.0
230
1.0
 70
     8
 71
     3
 72
    12
 73
     8
 74
     0
 42
0.00000001
 43
0.00000001
 40
0.0
 40
0.0
 40
0.0
 40
0.0
 40
0.1818724424810183
 40
0.3633445516812848
 40
0.5550811285483164
 40
0.7712622896006223
 40
1.0
 40
1.0
 40
1.0
 40
1.0
 10
211.4986758272528
 20
208.0516627481163
 30
0.0
 10
211.5225361381233
 20
208.0589844079895
 30
0.0
 10
211.5702042391174
 20
208.0736116114729
 30
0.0
 10
211.5849491821839
 20
208.1856015962396
 30
0.0
 10
211.5577170558691
 20
208.3549931528139
 30
0.0
 10
211.486038447001
 20
208.5834169975709
 30
0.0
 10
211.4069576656957
 20
208.7605811846467
 30
0.0
 10
211.3663013617872
 20
208.8516632517756
 30
0.0
  0
LINE
  5
185
330
1F
100
AcDbEntity
  8
0
  6
Continuous
 62
     7
370
    15
100
AcDbLine
 10
211.1143152754
 20
208.8061620904
 30
0.0
 11
211.4687617462
 21
208.0516627481
 31
0.0
  0
ARC
  5
186
330
1F
100
AcDbEntity
  8
0
  6
Continuous
 62
     7
370
    15
100
AcDbCircle
 10
226.384975694
 20
216.0516631281
 30
0.0
 40
16.90237719687147
100
AcDbArc
 50
154.6169692401
 51
205.3830307599
  0
LINE
  5
187
330
1F
100
AcDbEntity
  8
0
  6
Continuous
 62
     7
370
    15
100
AcDbLine
 10
211.4687617462
 20
224.0516635081
 30
0.0
 11
211.1143152754
 21
223.2971641658
 31
0.0
  0
SPLINE
  5
188
330
1F
100
AcDbEntity
  8
0
  6
Continuous
 62
     7
370
    15
100
AcDbSpline
210
0.0
220
0.0
230
1.0
 70
     8
 71
     3
 72
    12
 73
     8
 74
     0
 42
0.00000001
 43
0.00000001
 40
0.0
 40
0.0
 40
0.0
 40
0.0
 40
0.251021990599481
 40
0.5023977458077202
 40
0.7402765908566765
 40
0.9473178514528033
 40
1.0
 40
1.0
 40
1.0
 40
1.0
 10
211.3663013617872
 20
223.2516630044163
 30
0.0
 10
211.4106190006681
 20
223.3515451221459
 30
0.0
 10
211.4993167351578
 20
223.551450121202
 30
0.0
 10
211.5743109662687
 20
223.8101852005547
 30
0.0
 10
211.5858000589479
 20
223.987419021077
 30
0.0
 10
211.5441662677061
 20
224.0478622449126
 30
0.0
 10
211.5063470548684
 20
224.0510224864749
 30
0.0
 10
211.4986758272528
 20
224.0516635080755
 30
0.0
  0
LINE
  5
189
330
1F
100
AcDbEntity
  8
0
  6
Continuous
 62
     7
370
    15
100
AcDbLine
 10
211.4986758273
 20
208.0516627481
 30
0.0
 11
211.4687617462
 21
208.0516627481
 31
0.0
  0
LINE
  5
18A
330
1F
100
AcDbEntity
  8
0
  6
Continuous
 62
     7
370
    15
100
AcDbLine
 10
211.4986758273
 20
224.0516635081
 30
0.0
 11
211.4687617462
 21
224.0516635081
 31
0.0
  0
LWPOLYLINE
  5
18B
330
1F
100
AcDbEntity
  8
0
  6
Continuous
 62
     7
370
    15
100
AcDbPolyline
 90
        9
 70
   128
 43
0.0
 10
213.3557777445
 20
223.2516630044
 10
213.3505176346
 20
223.4077354385
 10
213.3349533718
 20
223.5578096895
 10
213.3096661012
 20
223.6961194737
 10
213.2756392996
 20
223.8173483362
 10
213.2341768186
 20
223.9168387329
 10
213.1868730824
 20
223.9907671189
 10
213.1355385821
 20
224.0362910977
 10
213.0821626227
 20
224.0516635081
  0
LINE
  5
18C
330
1F
100
AcDbEntity
  8
0
  6
Continuous
 62
     7
370
    15
100
AcDbLine
 10
211.4986758273
 20
224.0516635081
 30
0.0
 11
213.0821626227
 21
224.0516635081
 31
0.0
  0
LWPOLYLINE
  5
18D
330
1F
100
AcDbEntity
  8
0
  6
Continuous
 62
     7
370
    15
100
AcDbPolyline
 90
        9
 70
   128
 43
0.0
 10
213.3557777445
 20
208.8516632518
 10
213.3505176346
 20
208.6955908177
 10
213.3349533718
 20
208.5455165667
 10
213.3096661012
 20
208.4072067825
 10
213.2756392996
 20
208.28597792
 10
213.2341768186
 20
208.1864875233
 10
213.1868730824
 20
208.1125591373
 10
213.1355385821
 20
208.0670351585
 10
213.0821626227
 20
208.0516627481
  0
LINE
  5
18E
330
1F
100
AcDbEntity
  8
0
  6
Continuous
 62
     7
370
    15
100
AcDbLine
 10
213.0821626227
 20
208.0516627481
 30
0.0
 11
211.4986758273
 21
208.0516627481
 31
0.0
  0
LINE
  5
18F
330
1F
100
AcDbEntity
  8
0
  6
Continuous
 62
     7
370
    15
100
AcDbLine
 10
213.3557777445
 20
208.8516632518
 30
0.0
 11
218.2546313445
 21
208.8516632518
 31
0.0
  0
LINE
  5
190
330
1F
100
AcDbEntity
  8
0
  6
Continuous
 62
     7
370
    15
100
AcDbLine
 10
218.3935399692
 20
208.0516627481
 30
0.0
 11
213.0821626227
 21
208.0516627481
 31
0.0
  0
LINE
  5
191
330
1F
100
AcDbEntity
  8
0
  6
Continuous
 62
     7
370
    15
100
AcDbLine
 10
218.2546313445
 20
223.2516630044
 30
0.0
 11
213.3557777445
 21
223.2516630044
 31
0.0
  0
LINE
  5
192
330
1F
100
AcDbEntity
  8
0
  6
Continuous
 62
     7
370
    15
100
AcDbLine
 10
213.0821626227
 20
224.0516635081
 30
0.0
 11
218.3935399692
 21
224.0516635081
 31
0.0
  0
LINE
  5
193
330
1F
100
AcDbEntity
  8
0
  6
Continuous
 62
     7
370
    15
100
AcDbLine
 10
238.7953754108
 20
224.055133616
 30
0.0
 11
241.7953665893
 21
224.055133616
 31
0.0
  0
SPLINE
  5
194
330
1F
100
AcDbEntity
  8
0
  6
Continuous
 62
     7
370
    15
100
AcDbSpline
210
0.0
220
0.0
230
1.0
 70
     8
 71
     3
 72
    16
 73
    12
 74
     0
 42
0.00000001
 43
0.00000001
 40
0.0
 40
0.0
 40
0.0
 40
0.0
 40
0.1207070531243421
 40
0.2414137250683165
 40
0.3621183132786754
 40
0.4828246040701146
 40
0.6035303315304228
 40
0.7242369722230317
 40
0.844942285925011
 40
0.9656485761664468
 40
1.0
 40
1.0
 40
1.0
 40
1.0
 10
244.6366604010938
 20
203.0992916276634
 30
0.0
 10
244.6560614621727
 20
203.1019639603448
 30
0.0
 10
244.6948635230637
 20
203.1073086172687
 30
0.0
 10
244.6997847136428
 20
203.3982501895658
 30
0.0
 10
244.6625777304207
 20
203.8516013757413
 30
0.0
 10
244.585647249236
 20
204.4191193381935
 30
0.0
 10
244.4818444940505
 20
205.0074490271295
 30
0.0
 10
244.3657486837356
 20
205.5341429248603
 30
0.0
 10
244.2587368984034
 20
205.8974327224969
 30
0.0
 10
244.1861636502631
 20
206.0678980868346
 30
0.0
 10
244.1666131454817
 20
206.034747498026
 30
0.0
 10
244.1622819344877
 20
206.0274033298672
 30
0.0
  0
SPLINE
  5
195
330
1F
100
AcDbEntity
  8
0
  6
Continuous
 62
     7
370
    15
100
AcDbSpline
210
0.0
220
0.0
230
1.0
 70
     8
 71
     3
 72
    16
 73
    12
 74
     0
 42
0.00000001
 43
0.00000001
 40
0.0
 40
0.0
 40
0.0
 40
0.0
 40
0.1205801117693137
 40
0.2411627993607534
 40
0.3617456229861761
 40
0.4823270760694062
 40
0.6029089089452132
 40
0.7234908561383292
 40
0.8440740407054289
 40
0.9646563804077264
 40
1.0
 40
1.0
 40
1.0
 40
1.0
 10
244.807248894441
 20
228.975315434295
 30
0.0
 10
244.8266499985452
 20
228.9726425748836
 30
0.0
 10
244.8654526211981
 20
228.9672967989634
 30
0.0
 10
244.8703726237511
 20
228.676353119622
 30
0.0
 10
244.8331676153111
 20
228.223013432426
 30
0.0
 10
244.7562337228919
 20
227.6554865704039
 30
0.0
 10
244.6524389086221
 20
227.0671504776581
 30
0.0
 10
244.5363161165223
 20
226.5404988634504
 30
0.0
 10
244.4293095675577
 20
226.1770239103567
 30
0.0
 10
244.3565442456852
 20
226.0064767944545
 30
0.0
 10
244.3369048437466
 20
226.0400622022577
 30
0.0
 10
244.3324531953214
 20
226.047674981314
 30
0.0
  0
SPLINE
  5
196
330
1F
100
AcDbEntity
  8
0
  6
Continuous
 62
     7
370
    15
100
AcDbSpline
210
0.0
220
0.0
230
1.0
 70
     8
 71
     3
 72
    16
 73
    12
 74
     0
 42
0.00000001
 43
0.00000001
 40
0.0
 40
0.0
 40
0.0
 40
0.0
 40
0.1205148424821132
 40
0.2410323481426077
 40
0.3615497551012202
 40
0.4820659381712046
 40
0.6025825008281868
 40
0.7230985877221322
 40
0.8436170600217838
 40
0.9641341569043859
 40
1.0
 40
1.0
 40
1.0
 40
1.0
 10
260.1776327531218
 20
205.71571015324
 30
0.0
 10
260.1970338425137
 20
205.7183829332126
 30
0.0
 10
260.2358364500296
 20
205.7237285522218
 30
0.0
 10
260.2407566528732
 20
206.0146734813561
 30
0.0
 10
260.2035508816134
 20
206.4680124892524
 30
0.0
 10
260.1266196435517
 20
207.0355378148756
 30
0.0
 10
260.0228152500785
 20
207.6238788536917
 30
0.0
 10
259.906728869391
 20
208.1505082557965
 30
0.0
 10
259.7996726389728
 20
208.5140803128538
 30
0.0
 10
259.7268227555538
 20
208.6846731817384
 30
0.0
 10
259.7071299971576
 20
208.6508582115165
 30
0.0
 10
259.7026135365843
 20
208.6431028744162
 30
0.0
  0
SPLINE
  5
197
330
1F
100
AcDbEntity
  8
0
  6
Continuous
 62
     7
370
    15
100
AcDbSpline
210
0.0
220
0.0
230
1.0
 70
     8
 71
     3
 72
    16
 73
    12
 74
     0
 42
0.00000001
 43
0.00000001
 40
0.0
 40
0.0
 40
0.0
 40
0.0
 40
0.1205150371703303
 40
0.2410323901404705
 40
0.3615497331592661
 40
0.4820660331506881
 40
0.6025825318683011
 40
0.7230991448412833
 40
0.84361699451781
 40
0.9641311231318558
 40
1.0
 40
1.0
 40
1.0
 40
1.0
 10
260.3482063453077
 20
226.3588969087184
 30
0.0
 10
260.3676137429154
 20
226.3562241109576
 30
0.0
 10
260.4064289110603
 20
226.3508784640761
 30
0.0
 10
260.4113439658847
 20
226.0599346972006
 30
0.0
 10
260.374140077504
 20
225.6065951532293
 30
0.0
 10
260.2972063365814
 20
225.0390697815865
 30
0.0
 10
260.1934103507276
 20
224.4507262694314
 30
0.0
 10
260.0772918985184
 20
223.9241016261333
 30
0.0
 10
259.9702699610505
 20
223.5605288065141
 30
0.0
 10
259.8974083724821
 20
223.3899342289359
 30
0.0
 10
259.8777182630614
 20
223.42374876332
 30
0.0
 10
259.8732020299315
 20
223.4315046532035
 30
0.0
  0
SPLINE
  5
198
330
1F
100
AcDbEntity
  8
0
  6
Continuous
 62
     7
370
    15
100
AcDbSpline
210
0.0
220
0.0
230
1.0
 70
    24
 71
     3
 72
    16
 73
    12
 74
     0
 42
0.00000001
 43
0.00000001
 40
0.0
 40
0.0
 40
0.0
 40
0.0
 40
0.0611072070307172
 40
0.1864695523413118
 40
0.3118318800989477
 40
0.437197307337809
 40
0.5625588331420234
 40
0.6879199714778226
 40
0.8132845450596796
 40
0.9386470294936377
 40
1.0
 40
1.0
 40
1.0
 40
1.0
 10
263.254543725717
 20
209.1854273764372
 30
0.0
 10
263.2603171192394
 20
209.1854273764372
 30
0.0
 10
263.2779347155578
 20
209.1854273764372
 30
0.0
 10
263.0594989734757
 20
209.1854273764372
 30
0.0
 10
262.6467608141301
 20
209.1854273764372
 30
0.0
 10
262.0902895868408
 20
209.1854273764372
 30
0.0
 10
261.491188898741
 20
209.1854273764372
 30
0.0
 10
260.9324821350111
 20
209.1854273764372
 30
0.0
 10
260.515538966018
 20
209.1854273764372
 30
0.0
 10
260.2925363713377
 20
209.1854273764372
 30
0.0
 10
260.307351821284
 20
209.1854273764372
 30
0.0
 10
260.3122200410246
 20
209.1854273764372
 30
0.0
  0
SPLINE
  5
199
330
1F
100
AcDbEntity
  8
0
  6
Continuous
 62
     7
370
    15
100
AcDbSpline
210
0.0
220
0.0
230
1.0
 70
    24
 71
     3
 72
    16
 73
    12
 74
     0
 42
0.00000001
 43
0.00000001
 40
0.0
 40
0.0
 40
0.0
 40
0.0
 40
0.0610096471282254
 40
0.1861718468458703
 40
0.3113340290385807
 40
0.4364993057640805
 40
0.5616606872837173
 40
0.6868216819535465
 40
0.8119861063849371
 40
0.9371484450038299
 40
1.0
 40
1.0
 40
1.0
 40
1.0
 10
263.254543725717
 20
222.7440582079769
 30
0.0
 10
263.2603171130266
 20
222.7440582079769
 30
0.0
 10
263.277934690387
 20
222.7440582079769
 30
0.0
 10
263.0594992068342
 20
222.7440582079769
 30
0.0
 10
262.6467599591296
 20
222.7440582079769
 30
0.0
 10
262.0902927735276
 20
222.7440582079769
 30
0.0
 10
261.4911770074438
 20
222.7440582079769
 30
0.0
 10
260.9325265140354
 20
222.7440582079769
 30
0.0
 10
260.5153733374117
 20
222.7440582079769
 30
0.0
 10
260.2918817742399
 20
222.7440582079769
 30
0.0
 10
260.3071021782375
 20
222.7440582079769
 30
0.0
 10
260.3121902387022
 20
222.7440582079769
 30
0.0
  0
SPLINE
  5
19A
330
1F
100
AcDbEntity
  8
0
  6
Continuous
 62
     7
370
    15
100
AcDbSpline
210
0.0
220
0.0
230
1.0
 70
     8
 71
     3
 72
    19
 73
    15
 74
     0
 42
0.00000001
 43
0.00000001
 40
0.0
 40
0.0
 40
0.0
 40
0.0
 40
0.0039536756518888
 40
0.1157672013349517
 40
0.2280451734193904
 40
0.3355211922199999
 40
0.4377094308195236
 40
0.5348850338918305
 40
0.6283071265472816
 40
0.7303027274472055
 40
0.841341399729053
 40
0.9641267059313875
 40
0.9937688028102243
 40
0.9999999999999999
 40
0.9999999999999999
 40
0.9999999999999999
 40
0.9999999999999999
 10
249.5826389233946
 20
221.6516629284204
 30
0.0
 10
249.5830311828874
 20
221.651657313728
 30
0.0
 10
249.5945168958502
 20
221.6514929104525
 30
0.0
 10
249.6178400900752
 20
221.636361963054
 30
0.0
 10
249.6613044059756
 20
221.5694670937945
 30
0.0
 10
249.6992926306221
 20
221.4647697564324
 30
0.0
 10
249.7227704417727
 20
221.3396918328093
 30
0.0
 10
249.7341109442582
 20
221.2112579735758
 30
0.0
 10
249.7347191377752
 20
221.0900815607084
 30
0.0
 10
249.7189214213235
 20
220.9808582937969
 30
0.0
 10
249.6785485688828
 20
220.8914399072767
 30
0.0
 10
249.6266854691262
 20
220.856386471554
 30
0.0
 10
249.5919766719966
 20
220.8517763118535
 30
0.0
 10
249.584020850859
 20
220.8516800728199
 30
0.0
 10
249.5826389233946
 20
220.8516633560837
 30
0.0
  0
SPLINE
  5
19B
330
1F
100
AcDbEntity
  8
0
  6
Continuous
 62
     7
370
    15
100
AcDbSpline
210
0.0
220
0.0
230
1.0
 70
     8
 71
     3
 72
    30
 73
    26
 74
     0
 42
0.00000001
 43
0.00000001
 40
0.0
 40
0.0
 40
0.0
 40
0.0
 40
0.1247124912642551
 40
0.2494144779370866
 40
0.3741199709553759
 40
0.4367833607455177
 40
0.4681526286820572
 40
0.4838403587050609
 40
0.4916928673866576
 40
0.4956114221914663
 40
0.4975704101842082
 40
0.4985498860909721
 40
0.4990398556235057
 40
0.4992846812798353
 40
0.4994071374951808
 40
0.4994683223493825
 40
0.499504732561544
 40
0.4995172061560401
 40
0.4995296797505361
 40
0.5609164780560348
 40
0.6646178626118237
 40
0.7325801034117178
 40
0.811143560161077
 40
0.900298206435509
 40
1.0
 40
1.0
 40
1.0
 40
1.0
 10
249.6543284098982
 20
221.71155488621
 30
0.0
 10
249.6600981519322
 20
221.7097622597961
 30
0.0
 10
249.6716371500121
 20
221.706177157962
 30
0.0
 10
249.761483707099
 20
221.6843358843861
 30
0.0
 10
249.8689457787443
 20
221.6586539832163
 30
0.0
 10
249.9545001868207
 20
221.6382443258083
 30
0.0
 10
249.9986051119287
 20
221.6277115491832
 30
0.0
 10
250.020832124057
 20
221.6223878000198
 30
0.0
 10
250.0319670878372
 20
221.6197282545988
 30
0.0
 10
250.037536396162
 20
221.6183916301168
 30
0.0
 10
250.0403180134464
 20
221.617724381499
 30
0.0
 10
250.0417092046647
 20
221.6173909630711
 30
0.0
 10
250.0424042335912
 20
221.6172239013882
 30
0.0
 10
250.042751886886
 20
221.6171398107266
 30
0.0
 10
250.0429260930883
 20
221.6170997472713
 30
0.0
 10
250.0430147235662
 20
221.6170756196784
 30
0.0
 10
250.0430604838246
 20
221.6170695820386
 30
0.0
 10
250.0430847886788
 20
221.6170614388806
 30
0.0
 10
250.0675648332644
 20
221.6095208248524
 30
0.0
 10
250.1357537225667
 20
221.5976158179372
 30
0.0
 10
250.2262139524382
 20
221.5767170994106
 30
0.0
 10
250.309857102968
 20
221.5597174686213
 30
0.0
 10
250.3733774171673
 20
221.5467932731306
 30
0.0
 10
250.4239044182053
 20
221.5371589382975
 30
0.0
 10
250.4311274371794
 20
221.5366955231871
 30
0.0
 10
250.4349406401991
 20
221.5364508753598
 30
0.0
  0
ELLIPSE
  5
19C
330
1F
100
AcDbEntity
  8
0
  6
Continuous
 62
     7
370
    15
100
AcDbEllipse
 10
250.3114679125
 20
222.8336383068
 30
0.0
 11
0.3906095144045594
 21
-0.08616383961160068
 31
0.0
210
0.0
220
0.0
230
1.0
 40
0.0142285888
 41
0.0
 42
6.283185307179586
  0
LINE
  5
19D
330
1F
100
AcDbEntity
  8
0
  6
Continuous
 62
     7
370
    15
100
AcDbLine
 10
249.4843657653
 20
222.8016633032
 30
0.0
 11
243.2843651216
 21
222.8016633032
 31
0.0
  0
LINE
  5
19E
330
1F
100
AcDbEntity
  8
0
  6
Continuous
 62
     7
370
    15
100
AcDbLine
 10
249.4843657653
 20
222.8016633032
 30
0.0
 11
249.4843657653
 21
221.8016631393
 31
0.0
  0
LINE
  5
19F
330
1F
100
AcDbEntity
  8
0
  6
Continuous
 62
     7
370
    15
100
AcDbLine
 10
249.4843657653
 20
221.8016631393
 30
0.0
 11
243.2843651216
 21
221.8016631393
 31
0.0
  0
LINE
  5
1A0
330
1F
100
AcDbEntity
  8
0
  6
Continuous
 62
     7
370
    15
100
AcDbLine
 10
243.2843651216
 20
222.8016633032
 30
0.0
 11
243.2843651216
 21
221.8016631393
 31
0.0
  0
LINE
  5
1A1
330
1F
100
AcDbEntity
  8
0
  6
Continuous
 62
     7
370
    15
100
AcDbLine
 10
249.4843657653
 20
210.3016631169
 30
0.0
 11
249.4843657653
 21
209.301662953
 31
0.0
  0
LINE
  5
1A2
330
1F
100
AcDbEntity
  8
0
  6
Continuous
 62
     7
370
    15
100
AcDbLine
 10
249.4843657653
 20
209.301662953
 30
0.0
 11
243.2843651216
 21
209.301662953
 31
0.0
  0
LINE
  5
1A3
330
1F
100
AcDbEntity
  8
0
  6
Continuous
 62
     7
370
    15
100
AcDbLine
 10
243.2843651216
 20
210.3016631169
 30
0.0
 11
243.2843651216
 21
209.301662953
 31
0.0
  0
LINE
  5
1A4
330
1F
100
AcDbEntity
  8
0
  6
Continuous
 62
     7
370
    15
100
AcDbLine
 10
249.4843657653
 20
210.3016631169
 30
0.0
 11
243.2843651216
 21
210.3016631169
 31
0.0
  0
LWPOLYLINE
  5
1A5
330
1F
100
AcDbEntity
  8
0
  6
Continuous
 62
     7
370
    15
100
AcDbPolyline
 90
        3
 70
   128
 43
0.0
 10
243.2056571882
 20
209.6905245868
 10
243.2082350891
 20
209.6843466585
 10
243.2843651216
 20
209.301662953
  0
LWPOLYLINE
  5
1A6
330
1F
100
AcDbEntity
  8
0
  6
Continuous
 62
     7
370
    15
100
AcDbPolyline
 90
        3
 70
   128
 43
0.0
 10
243.2843651216
 20
222.8016633032
 10
243.2082350891
 20
222.4189795976
 10
243.2056571882
 20
222.4128016693
  0
LINE
  5
1A7
330
1F
100
AcDbEntity
  8
0
  6
Continuous
 62
     7
370
    15
100
AcDbLine
 10
249.4843657653
 20
221.8016631393
 30
0.0
 11
249.4843657653
 21
221.6516629284
 31
0.0
  0
LINE
  5
1A8
330
1F
100
AcDbEntity
  8
0
  6
Continuous
 62
     7
370
    15
100
AcDbLine
 10
249.4843657653
 20
220.8516633561
 30
0.0
 11
249.4843657653
 21
219.9516630223
 31
0.0
  0
LINE
  5
1A9
330
1F
100
AcDbEntity
  8
0
  6
Continuous
 62
     7
370
    15
100
AcDbLine
 10
249.4843657653
 20
211.3516631959
 30
0.0
 11
249.4843657653
 21
210.3016631169
 31
0.0
  0
ARC
  5
1AA
330
1F
100
AcDbEntity
  8
0
  6
Continuous
 62
     7
370
    15
100
AcDbCircle
 10
101.4843595188
 20
401.0516631281
 30
0.0
 40
15.0
100
AcDbArc
 50
90.0
 51
180.0
  0
LINE
  5
1AB
330
1F
100
AcDbEntity
  8
0
  6
Continuous
 62
     7
370
    15
100
AcDbLine
 10
101.4843592014
 20
416.0516661083
 30
0.0
 11
101.4843592014
 21
401.0516655123
 31
0.0
  0
LINE
  5
1AC
330
1F
100
AcDbEntity
  8
0
  6
Continuous
 62
     7
370
    15
100
AcDbLine
 10
86.4843595366
 20
401.0516655123
 30
0.0
 11
101.4843592014
 21
401.0516655123
 31
0.0
  0
LINE
  5
1AD
330
1F
100
AcDbEntity
  8
0
  6
Continuous
 62
     7
370
    15
100
AcDbLine
 10
101.4843592014
 20
401.0516655123
 30
0.0
 11
101.4843592014
 21
31.0516607439
 31
0.0
  0
LINE
  5
1AE
330
1F
100
AcDbEntity
  8
0
  6
Continuous
 62
     7
370
    15
100
AcDbLine
 10
101.4843592014
 20
31.0516607439
 30
0.0
 11
86.4843595366
 21
31.0516607439
 31
0.0
  0
LINE
  5
1AF
330
1F
100
AcDbEntity
  8
0
  6
Continuous
 62
     7
370
    15
100
AcDbLine
 10
86.4843595366
 20
401.0516655123
 30
0.0
 11
86.4843595366
 21
31.0516607439
 31
0.0
  0
LINE
  5
1B0
330
1F
100
AcDbEntity
  8
0
  6
Continuous
 62
     7
370
    15
100
AcDbLine
 10
101.4843592014
 20
31.0516607439
 30
0.0
 11
101.4843592014
 21
16.0516601479
 31
0.0
  0
ARC
  5
1B1
330
1F
100
AcDbEntity
  8
0
  6
Continuous
 62
     7
370
    15
100
AcDbCircle
 10
101.4843595188
 20
31.0516631281
 30
0.0
 40
15.00000000000001
100
AcDbArc
 50
180.0
 51
270.0
  0
LINE
  5
1B2
330
1F
100
AcDbEntity
  8
0
  6
Continuous
 62
     7
370
    15
100
AcDbLine
 10
262.4843623083
 20
416.0516661083
 30
0.0
 11
262.4843623083
 21
401.0516655123
 31
0.0
  0
LINE
  5
1B3
330
1F
100
AcDbEntity
  8
0
  6
Continuous
 62
     7
370
    15
100
AcDbLine
 10
262.4843623083
 20
401.0516655123
 30
0.0
 11
101.4843592014
 21
401.0516655123
 31
0.0
  0
LINE
  5
1B4
330
1F
100
AcDbEntity
  8
0
  6
Continuous
 62
     7
370
    15
100
AcDbLine
 10
262.4843623083
 20
416.0516661083
 30
0.0
 11
101.4843592014
 21
416.0516661083
 31
0.0
  0
LINE
  5
1B5
330
1F
100
AcDbEntity
  8
0
  6
Continuous
 62
     7
370
    15
100
AcDbLine
 10
262.4843623083
 20
31.0516607439
 30
0.0
 11
262.4843623083
 21
16.0516601479
 31
0.0
  0
LINE
  5
1B6
330
1F
100
AcDbEntity
  8
0
  6
Continuous
 62
     7
370
    15
100
AcDbLine
 10
262.4843623083
 20
16.0516601479
 30
0.0
 11
101.4843592014
 21
16.0516601479
 31
0.0
  0
LINE
  5
1B7
330
1F
100
AcDbEntity
  8
0
  6
Continuous
 62
     7
370
    15
100
AcDbLine
 10
262.4843623083
 20
31.0516607439
 30
0.0
 11
101.4843592014
 21
31.0516607439
 31
0.0
  0
LINE
  5
1B8
330
1F
100
AcDbEntity
  8
0
  6
Continuous
 62
     7
370
    15
100
AcDbLine
 10
262.4843623083
 20
31.0516607439
 30
0.0
 11
262.4843623083
 21
207.0437556555
 31
0.0
  0
LINE
  5
1B9
330
1F
100
AcDbEntity
  8
0
  6
Continuous
 62
     7
370
    15
100
AcDbLine
 10
262.4843623083
 20
225.0275927087
 30
0.0
 11
262.4843623083
 21
401.0516655123
 31
0.0
  0
LINE
  5
1BA
330
1F
100
AcDbEntity
  8
0
  6
Continuous
 62
     7
370
    15
100
AcDbLine
 10
106.4843590896
 20
396.0516702807
 30
0.0
 11
106.4843590896
 21
36.0516559755
 31
0.0
  0
LINE
  5
1BB
330
1F
100
AcDbEntity
  8
0
  6
Continuous
 62
     7
370
    15
100
AcDbLine
 10
242.4843664806
 20
36.0516559755
 30
0.0
 11
106.4843590896
 21
36.0516559755
 31
0.0
  0
LINE
  5
1BC
330
1F
100
AcDbEntity
  8
0
  6
Continuous
 62
     7
370
    15
100
AcDbLine
 10
242.4843664806
 20
36.0516559755
 30
0.0
 11
242.4843664806
 21
203.2391166737
 31
0.0
  0
LINE
  5
1BD
330
1F
100
AcDbEntity
  8
0
  6
Continuous
 62
     7
370
    15
100
AcDbLine
 10
242.4843664806
 20
206.5789027562
 30
0.0
 11
242.4843664806
 21
208.0516627481
 31
0.0
  0
LINE
  5
1BE
330
1F
100
AcDbEntity
  8
0
  6
Continuous
 62
     7
370
    15
100
AcDbLine
 10
242.4843664806
 20
224.0516635081
 30
0.0
 11
242.4843664806
 21
225.5110655403
 31
0.0
  0
LINE
  5
1BF
330
1F
100
AcDbEntity
  8
0
  6
Continuous
 62
     7
370
    15
100
AcDbLine
 10
242.4843664806
 20
228.8537815636
 30
0.0
 11
242.4843664806
 21
396.0516702807
 31
0.0
  0
LINE
  5
1C0
330
1F
100
AcDbEntity
  8
0
  6
Continuous
 62
     7
370
    15
100
AcDbLine
 10
242.4843664806
 20
396.0516702807
 30
0.0
 11
106.4843590896
 21
396.0516702807
 31
0.0
  0
LINE
  5
1C1
330
1F
100
AcDbEntity
  8
0
  6
Continuous
 62
     7
370
    15
100
AcDbLine
 10
266.4843555133
 20
36.0516559755
 30
0.0
 11
262.4843623083
 21
36.0516559755
 31
0.0
  0
LINE
  5
1C2
330
1F
100
AcDbEntity
  8
0
  6
Continuous
 62
     7
370
    15
100
AcDbLine
 10
266.4843555133
 20
21.0516702807
 30
0.0
 11
262.4843623083
 21
21.0516702807
 31
0.0
  0
LINE
  5
1C3
330
1F
100
AcDbEntity
  8
0
  6
Continuous
 62
     7
370
    15
100
AcDbLine
 10
266.4843555133
 20
411.0516559755
 30
0.0
 11
262.4843623083
 21
411.0516559755
 31
0.0
  0
LINE
  5
1C4
330
1F
100
AcDbEntity
  8
0
  6
Continuous
 62
     7
370
    15
100
AcDbLine
 10
266.4843555133
 20
396.0516702807
 30
0.0
 11
262.4843623083
 21
396.0516702807
 31
0.0
  0
LINE
  5
1C5
330
1F
100
AcDbEntity
  8
0
  6
Continuous
 62
     7
370
    15
100
AcDbLine
 10
434.7810358179
 20
449.7260381085
 30
0.0
 11
435.9810263289
 21
449.7260381085
 31
0.0
  0
LINE
  5
1C6
330
1F
100
AcDbEntity
  8
0
  6
Continuous
 62
     7
370
    15
100
AcDbLine
 10
434.6810341252
 20
452.2260506255
 30
0.0
 11
434.7810358179
 21
452.2260506255
 31
0.0
  0
LINE
  5
1C7
330
1F
100
AcDbEntity
  8
0
  6
Continuous
 62
     7
370
    15
100
AcDbLine
 10
434.7810358179
 20
458.2260478837
 30
0.0
 11
434.6810341252
 21
458.2260478837
 31
0.0
  0
LINE
  5
1C8
330
1F
100
AcDbEntity
  8
0
  6
Continuous
 62
     7
370
    15
100
AcDbLine
 10
430.5327892674
 20
515.2260441882
 30
0.0
 11
429.7810256851
 21
514.9524290664
 31
0.0
  0
SPLINE
  5
1C9
330
1F
100
AcDbEntity
  8
0
  6
Continuous
 62
     7
370
    15
100
AcDbSpline
210
0.0
220
0.0
230
1.0
 70
     8
 71
     3
 72
    15
 73
    11
 74
     0
 42
0.00000001
 43
0.00000001
 40
0.0
 40
0.0
 40
0.0
 40
0.0
 40
0.125074499924387
 40
0.2501516692649175
 40
0.3752905641832175
 40
0.5003035483229457
 40
0.6252869974192125
 40
0.750261894866806
 40
0.8750782123739566
 40
1.0
 40
1.0
 40
1.0
 40
1.0
 10
433.5954696310263
 20
480.283879171089
 30
0.0
 10
433.5693445223126
 20
480.5426406258752
 30
0.0
 10
433.5170937473072
 20
481.060169058092
 30
0.0
 10
433.4382285976235
 20
481.8412813946971
 30
0.0
 10
433.3637938395416
 20
482.5784571734608
 30
0.0
 10
433.2968048187055
 20
483.2420373026479
 30
0.0
 10
433.2406967631978
 20
483.7977905307313
 30
0.0
 10
433.198155588615
 20
484.2189009379766
 30
0.0
 10
433.1693291137901
 20
484.504492269462
 30
0.0
 10
433.1649865930873
 20
484.5475351639865
 30
0.0
 10
433.162814415763
 20
484.5690657002486
 30
0.0
  0
SPLINE
  5
1CA
330
1F
100
AcDbEntity
  8
0
  6
Continuous
 62
     7
370
    15
100
AcDbSpline
210
0.0
220
0.0
230
1.0
 70
     8
 71
     3
 72
    15
 73
    11
 74
     0
 42
0.00000001
 43
0.00000001
 40
0.0
 40
0.0
 40
0.0
 40
0.0
 40
0.1249397545687668
 40
0.2497689716098376
 40
0.3747513451397773
 40
0.4997368520237183
 40
0.6247482439871135
 40
0.7498805481573699
 40
0.8749437638082046
 40
1.0
 40
1.0
 40
1.0
 40
1.0
 10
430.1785737646323
 20
484.267689715103
 30
0.0
 10
430.1807504798081
 20
484.2461084006225
 30
0.0
 10
430.1851019843621
 20
484.2029648652248
 30
0.0
 10
430.213948143691
 20
483.9172574731791
 30
0.0
 10
430.2564839676604
 20
483.4960721307602
 30
0.0
 10
430.3125921973315
 20
482.9403029932512
 30
0.0
 10
430.3795861347421
 20
482.2767695558637
 30
0.0
 10
430.453998228421
 20
481.5397190754515
 30
0.0
 10
430.5328560095199
 20
480.7588107002646
 30
0.0
 10
430.5850852740327
 20
480.2414562932531
 30
0.0
 10
430.6111991775733
 20
479.9827863080062
 30
0.0
  0
LINE
  5
1CB
330
1F
100
AcDbEntity
  8
0
  6
Continuous
 62
     7
370
    15
100
AcDbLine
 10
430.6109160555
 20
479.9826521976
 30
0.0
 11
432.1799934281
 21
464.4416798455
 31
0.0
  0
LINE
  5
1CC
330
1F
100
AcDbEntity
  8
0
  6
Continuous
 62
     7
370
    15
100
AcDbLine
 10
435.1648152245
 20
464.7430409295
 30
0.0
 11
433.5957527531
 21
480.2840132815
 31
0.0
  0
SPLINE
  5
1CD
330
1F
100
AcDbEntity
  8
0
  6
Continuous
 62
     7
370
    15
100
AcDbSpline
210
0.0
220
0.0
230
1.0
 70
     8
 71
     3
 72
     9
 73
     5
 74
     0
 42
0.00000001
 43
0.00000001
 40
0.0
 40
0.0
 40
0.0
 40
0.0
 40
0.4837390865861517
 40
1.0
 40
1.0
 40
1.0
 40
1.0
 10
432.3500752819281
 20
462.7603073222197
 30
0.0
 10
432.3595358476738
 20
462.6960752855329
 30
0.0
 10
432.3790930139396
 20
462.5632928859546
 30
0.0
 10
432.4129357566567
 20
462.5271511597748
 30
0.0
 10
432.4304074419242
 20
462.5084925992049
 30
0.0
  0
SPLINE
  5
1CE
330
1F
100
AcDbEntity
  8
0
  6
Continuous
 62
     7
370
    15
100
AcDbSpline
210
0.0
220
0.0
230
1.0
 70
     8
 71
     3
 72
    11
 73
     7
 74
     0
 42
0.00000001
 43
0.00000001
 40
0.0
 40
0.0
 40
0.0
 40
0.0
 40
0.248445828994454
 40
0.4978883114675502
 40
0.7483892131419273
 40
1.0
 40
1.0
 40
1.0
 40
1.0
 10
432.1802765501242
 20
464.4418437583006
 30
0.0
 10
432.1982912008272
 20
464.263366599683
 30
0.0
 10
432.2343927689497
 20
463.9056963119614
 30
0.0
 10
432.2813872496243
 20
463.4408624321497
 30
0.0
 10
432.3202152971938
 20
463.0579811120132
 30
0.0
 10
432.3352431683166
 20
462.9106918215288
 30
0.0
 10
432.3427737129431
 20
462.8368843895949
 30
0.0
  0
SPLINE
  5
1CF
330
1F
100
AcDbEntity
  8
0
  6
Continuous
 62
     7
370
    15
100
AcDbSpline
210
0.0
220
0.0
230
1.0
 70
     8
 71
     3
 72
    19
 73
    15
 74
     0
 42
0.00000001
 43
0.00000001
 40
0.0
 40
0.0
 40
0.0
 40
0.0
 40
0.0802802156408008
 40
0.1534412727768693
 40
0.219341894322199
 40
0.27794997672309
 40
0.3728442814835823
 40
0.4421533224400602
 40
0.5315369922551351
 40
0.65548349536925
 40
0.7303559970867356
 40
0.813079928758139
 40
0.9031428872308518
 40
1.0
 40
1.0
 40
1.0
 40
1.0
 10
432.3657215011817
 20
462.6776654822386
 30
0.0
 10
432.401081815068
 20
462.5547913911752
 30
0.0
 10
432.4686667302954
 20
462.3199395441343
 30
0.0
 10
432.6658961347501
 20
462.0255287578772
 30
0.0
 10
432.8907400022482
 20
461.8013896759789
 30
0.0
 10
433.1864141938081
 20
461.6083584363957
 30
0.0
 10
433.5283595342525
 20
461.4904549174541
 30
0.0
 10
433.9381128126955
 20
461.4606514682411
 30
0.0
 10
434.3771990022829
 20
461.5629624372024
 30
0.0
 10
434.7637374717692
 20
461.814188762726
 30
0.0
 10
435.0565843052516
 20
462.1549055456186
 30
0.0
 10
435.2373425751146
 20
462.5103781137294
 30
0.0
 10
435.3432704132278
 20
462.9373153211094
 30
0.0
 10
435.3109988147699
 20
463.2323813779169
 30
0.0
 10
435.2942765129309
 20
463.3852769238509
 30
0.0
  0
SPLINE
  5
1D0
330
1F
100
AcDbEntity
  8
0
  6
Continuous
 62
     7
370
    15
100
AcDbSpline
210
0.0
220
0.0
230
1.0
 70
     8
 71
     3
 72
    11
 73
     7
 74
     0
 42
0.00000001
 43
0.00000001
 40
0.0
 40
0.0
 40
0.0
 40
0.0
 40
0.2477432100633458
 40
0.4969484427563743
 40
0.7476802872830232
 40
0.9999999999999999
 40
0.9999999999999999
 40
0.9999999999999999
 40
0.9999999999999999
 10
435.3180587661963
 20
463.2175941569365
 30
0.0
 10
435.311616662906
 20
463.2822198002333
 30
0.0
 10
435.2986944391347
 20
463.4118524662117
 30
0.0
 10
435.2627413758565
 20
463.7697279557945
 30
0.0
 10
435.2177575281878
 20
464.2160579158447
 30
0.0
 10
435.1823211297814
 20
464.5669213544409
 30
0.0
 10
435.1645470035773
 20
464.7429068190611
 30
0.0
  0
LINE
  5
1D1
330
1F
100
AcDbEntity
  8
0
  6
Continuous
 62
     7
370
    15
100
AcDbLine
 10
435.4483396185
 20
474.3977118833
 30
0.0
 11
435.4483247174
 21
474.6975381476
 31
0.0
  0
LINE
  5
1D2
330
1F
100
AcDbEntity
  8
0
  6
Continuous
 62
     7
370
    15
100
AcDbLine
 10
434.6483260763
 20
474.6975381476
 30
0.0
 11
434.6483260763
 21
474.4001556737
 31
0.0
  0
SPLINE
  5
1D3
330
1F
100
AcDbEntity
  8
0
  6
Continuous
 62
     7
370
    15
100
AcDbSpline
210
0.0
220
0.0
230
1.0
 70
    24
 71
     3
 72
    11
 73
     7
 74
     0
 42
0.00000001
 43
0.00000001
 40
0.0
 40
0.0
 40
0.0
 40
0.0
 40
0.0207833414794417
 40
0.3465559490330116
 40
0.6711464500042603
 40
0.9999999999999999
 40
0.9999999999999999
 40
0.9999999999999999
 40
0.9999999999999999
 10
434.6483260763388
 20
474.9838490588225
 30
0.0
 10
434.6483260763388
 20
474.9805273463268
 30
0.0
 10
434.6483260763389
 20
474.9251387925895
 30
0.0
 10
434.6483260763388
 20
474.8319064048139
 30
0.0
 10
434.6483260763388
 20
474.7191914197775
 30
0.0
 10
434.6483260763388
 20
474.684674663069
 30
0.0
 10
434.6483260763388
 20
474.6673036915816
 30
0.0
  0
SPLINE
  5
1D4
330
1F
100
AcDbEntity
  8
0
  6
Continuous
 62
     7
370
    15
100
AcDbSpline
210
0.0
220
0.0
230
1.0
 70
    24
 71
     3
 72
    11
 73
     7
 74
     0
 42
0.00000001
 43
0.00000001
 40
0.0
 40
0.0
 40
0.0
 40
0.0
 40
0.2504889765616955
 40
0.4977290265096876
 40
0.745885531908482
 40
1.0
 40
1.0
 40
1.0
 40
1.0
 10
435.4483396185141
 20
474.6648449999846
 30
0.0
 10
435.4483396185141
 20
474.6810622998158
 30
0.0
 10
435.4483396185141
 20
474.7132865556228
 30
0.0
 10
435.4483396185141
 20
474.8220622548732
 30
0.0
 10
435.4483396185141
 20
474.9609010359072
 30
0.0
 10
435.4483396185141
 20
475.0679253229093
 30
0.0
 10
435.4483396185141
 20
475.1220722300566
 30
0.0
  0
LINE
  5
1D5
330
1F
100
AcDbEntity
  8
0
  6
Continuous
 62
     7
370
    15
100
AcDbLine
 10
434.4416022671
 20
475.2260376317
 30
0.0
 11
434.650516547
 21
474.9788124663
 31
0.0
  0
LINE
  5
1D6
330
1F
100
AcDbEntity
  8
0
  6
Continuous
 62
     7
370
    15
100
AcDbLine
 10
435.4483396185
 20
475.1220722301
 30
0.0
 11
435.4483396185
 21
475.2260376317
 31
0.0
  0
LINE
  5
1D7
330
1F
100
AcDbEntity
  8
0
  6
Continuous
 62
     7
370
    15
100
AcDbLine
 10
430.1719427479
 20
484.3640704257
 30
0.0
 11
430.1563412321
 21
484.8232944114
 31
0.0
  0
SPLINE
  5
1D8
330
1F
100
AcDbEntity
  8
0
  6
Continuous
 62
     7
370
    15
100
AcDbSpline
210
0.0
220
0.0
230
1.0
 70
     8
 71
     3
 72
    11
 73
     7
 74
     0
 42
0.00000001
 43
0.00000001
 40
0.0
 40
0.0
 40
0.0
 40
0.0
 40
0.120753341164443
 40
0.4133918846558738
 40
0.7063575724513753
 40
1.0
 40
1.0
 40
1.0
 40
1.0
 10
432.204625047515
 20
464.2006237608946
 30
0.0
 10
432.214542611944
 20
464.1023285072072
 30
0.0
 10
432.2484948041649
 20
463.7658205498892
 30
0.0
 10
432.2958644960211
 20
463.2969017292237
 30
0.0
 10
432.3387462863129
 20
462.8721634143307
 30
0.0
 10
432.346296046799
 20
462.7976213513774
 30
0.0
 10
432.3500752819281
 20
462.7603073222197
 30
0.0
  0
LINE
  5
1D9
330
1F
100
AcDbEntity
  8
0
  6
Continuous
 62
     7
370
    15
100
AcDbLine
 10
435.9810263289
 20
514.2260421617
 30
0.0
 11
435.6810361517
 21
514.2260421617
 31
0.0
  0
LINE
  5
1DA
330
1F
100
AcDbEntity
  8
0
  6
Continuous
 62
     7
370
    15
100
AcDbLine
 10
435.6810361517
 20
513.2260475857
 30
0.0
 11
435.5810344589
 21
513.2260475857
 31
0.0
  0
LINE
  5
1DB
330
1F
100
AcDbEntity
  8
0
  6
Continuous
 62
     7
370
    15
100
AcDbLine
 10
435.5810344589
 20
507.2260428769
 30
0.0
 11
435.6810361517
 21
507.2260428769
 31
0.0
  0
LINE
  5
1DC
330
1F
100
AcDbEntity
  8
0
  6
Continuous
 62
     7
370
    15
100
AcDbLine
 10
435.6810361517
 20
490.2260382278
 30
0.0
 11
435.5810344589
 21
490.2260382278
 31
0.0
  0
LINE
  5
1DD
330
1F
100
AcDbEntity
  8
0
  6
Continuous
 62
     7
370
    15
100
AcDbLine
 10
435.5810344589
 20
484.2260409696
 30
0.0
 11
435.6810361517
 21
484.2260409696
 31
0.0
  0
LINE
  5
1DE
330
1F
100
AcDbEntity
  8
0
  6
Continuous
 62
     7
370
    15
100
AcDbLine
 10
435.9810263289
 20
458.2260478837
 30
0.0
 11
435.9810263289
 21
453.2260377509
 31
0.0
  0
LINE
  5
1DF
330
1F
100
AcDbEntity
  8
0
  6
Continuous
 62
     7
370
    15
100
AcDbLine
 10
450.9810269249
 20
458.2260478837
 30
0.0
 11
450.9810269249
 21
453.2260377509
 31
0.0
  0
LINE
  5
1E0
330
1F
100
AcDbEntity
  8
0
  6
Continuous
 62
     7
370
    15
100
AcDbLine
 10
435.9810263289
 20
453.2260377509
 30
0.0
 11
450.9810269249
 21
453.2260377509
 31
0.0
  0
LINE
  5
1E1
330
1F
100
AcDbEntity
  8
0
  6
Continuous
 62
     7
370
    15
100
AcDbLine
 10
435.9810263289
 20
458.2260478837
 30
0.0
 11
450.9810269249
 21
458.2260478837
 31
0.0
  0
LINE
  5
1E2
330
1F
100
AcDbEntity
  8
0
  6
Continuous
 62
     7
370
    15
100
AcDbLine
 10
720.9810376538
 20
458.2260478837
 30
0.0
 11
720.9810376538
 21
453.2260377509
 31
0.0
  0
LINE
  5
1E3
330
1F
100
AcDbEntity
  8
0
  6
Continuous
 62
     7
370
    15
100
AcDbLine
 10
450.9810269249
 20
453.2260377509
 30
0.0
 11
720.9810376538
 21
453.2260377509
 31
0.0
  0
LINE
  5
1E4
330
1F
100
AcDbEntity
  8
0
  6
Continuous
 62
     7
370
    15
100
AcDbLine
 10
450.9810269249
 20
458.2260478837
 30
0.0
 11
720.9810376538
 21
458.2260478837
 31
0.0
  0
ARC
  5
1E5
330
1F
100
AcDbEntity
  8
0
  6
Continuous
 62
     7
370
    15
100
AcDbCircle
 10
450.9810322893
 20
453.2260438783
 30
0.0
 40
15.00000000000006
100
AcDbArc
 50
180.0
 51
270.0
  0
LINE
  5
1E6
330
1F
100
AcDbEntity
  8
0
  6
Continuous
 62
     7
370
    15
100
AcDbLine
 10
450.9810269249
 20
438.2260371549
 30
0.0
 11
450.9810269249
 21
453.2260377509
 31
0.0
  0
LINE
  5
1E7
330
1F
100
AcDbEntity
  8
0
  6
Continuous
 62
     7
370
    15
100
AcDbLine
 10
720.9810376538
 20
453.2260377509
 30
0.0
 11
720.9810376538
 21
438.2260371549
 31
0.0
  0
LINE
  5
1E8
330
1F
100
AcDbEntity
  8
0
  6
Continuous
 62
     7
370
    15
100
AcDbLine
 10
450.9810269249
 20
438.2260371549
 30
0.0
 11
720.9810376538
 21
438.2260371549
 31
0.0
  0
LINE
  5
1E9
330
1F
100
AcDbEntity
  8
0
  6
Continuous
 62
     7
370
    15
100
AcDbLine
 10
735.9810382498
 20
458.2260478837
 30
0.0
 11
735.9810382498
 21
453.2260377509
 31
0.0
  0
LINE
  5
1EA
330
1F
100
AcDbEntity
  8
0
  6
Continuous
 62
     7
370
    15
100
AcDbLine
 10
735.9810382498
 20
453.2260377509
 30
0.0
 11
720.9810376538
 21
453.2260377509
 31
0.0
  0
LINE
  5
1EB
330
1F
100
AcDbEntity
  8
0
  6
Continuous
 62
     7
370
    15
100
AcDbLine
 10
735.9810382498
 20
458.2260478837
 30
0.0
 11
720.9810376538
 21
458.2260478837
 31
0.0
  0
ARC
  5
1EC
330
1F
100
AcDbEntity
  8
0
  6
Continuous
 62
     7
370
    15
100
AcDbCircle
 10
720.9810322893
 20
453.2260438783
 30
0.0
 40
15.00000000000006
100
AcDbArc
 50
270.0
 51
0.0
  0
LINE
  5
1ED
330
1F
100
AcDbEntity
  8
0
  6
Continuous
 62
     7
370
    15
100
AcDbLine
 10
434.7810358179
 20
456.2438060147
 30
0.0
 11
435.9810263289
 21
456.2438060147
 31
0.0
  0
LINE
  5
1EE
330
1F
100
AcDbEntity
  8
0
  6
Continuous
 62
     7
370
    15
100
AcDbLine
 10
434.7810358179
 20
454.13983656
 30
0.0
 11
435.9810263289
 21
454.13983656
 31
0.0
  0
LINE
  5
1EF
330
1F
100
AcDbEntity
  8
0
  6
Continuous
 62
     7
370
    15
100
AcDbLine
 10
434.7810358179
 20
454.13983656
 30
0.0
 11
434.7810358179
 21
456.2438060147
 31
0.0
  0
LINE
  5
1F0
330
1F
100
AcDbEntity
  8
0
  6
Continuous
 62
     7
370
    15
100
AcDbLine
 10
434.7810358179
 20
461.2260390622
 30
0.0
 11
435.9810263289
 21
461.2260390622
 31
0.0
  0
LINE
  5
1F1
330
1F
100
AcDbEntity
  8
0
  6
Continuous
 62
     7
370
    15
100
AcDbLine
 10
435.9810263289
 20
458.2260478837
 30
0.0
 11
435.9810263289
 21
461.2260390622
 31
0.0
  0
LINE
  5
1F2
330
1F
100
AcDbEntity
  8
0
  6
Continuous
 62
     7
370
    15
100
AcDbLine
 10
434.7810358179
 20
461.2260390622
 30
0.0
 11
434.7810358179
 21
456.2438060147
 31
0.0
  0
LINE
  5
1F3
330
1F
100
AcDbEntity
  8
0
  6
Continuous
 62
     7
370
    15
100
AcDbLine
 10
435.9810263289
 20
453.2260377509
 30
0.0
 11
435.9810263289
 21
449.7260381085
 31
0.0
  0
LINE
  5
1F4
330
1F
100
AcDbEntity
  8
0
  6
Continuous
 62
     7
370
    15
100
AcDbLine
 10
434.7810358179
 20
449.7260381085
 30
0.0
 11
434.7810358179
 21
454.13983656
 31
0.0
  0
LINE
  5
1F5
330
1F
100
AcDbEntity
  8
0
  6
Continuous
 62
     7
370
    15
100
AcDbLine
 10
434.6810341252
 20
452.2260506255
 30
0.0
 11
434.6810341252
 21
458.2260478837
 31
0.0
  0
ARC
  5
1F6
330
1F
100
AcDbEntity
  8
0
  6
Continuous
 62
     7
370
    15
100
AcDbCircle
 10
433.1810322893
 20
462.9260438783
 30
0.0
 40
2.800000000000011
100
AcDbArc
 50
0.0
 51
45.4024529621
  0
LINE
  5
1F7
330
1F
100
AcDbEntity
  8
0
  6
Continuous
 62
     7
370
    15
100
AcDbLine
 10
432.0733756197
 20
465.4976357324
 30
0.0
 11
431.4764947069
 21
465.147428642
 31
0.0
  0
LINE
  5
1F8
330
1F
100
AcDbEntity
  8
0
  6
Continuous
 62
     7
370
    15
100
AcDbLine
 10
428.6635727061
 20
461.4764232738
 30
0.0
 11
432.2070092333
 21
464.1954083545
 31
0.0
  0
LINE
  5
1F9
330
1F
100
AcDbEntity
  8
0
  6
Continuous
 62
     7
370
    15
100
AcDbLine
 10
427.9330581797
 20
462.4284584624
 30
0.0
 11
428.6635727061
 21
461.4764232738
 31
0.0
  0
LINE
  5
1FA
330
1F
100
AcDbEntity
  8
0
  6
Continuous
 62
     7
370
    15
100
AcDbLine
 10
431.4764947069
 20
465.147428642
 30
0.0
 11
427.9330581797
 21
462.4284584624
 31
0.0
  0
LINE
  5
1FB
330
1F
100
AcDbEntity
  8
0
  6
Continuous
 62
     7
370
    15
100
AcDbLine
 10
435.9810263289
 20
461.2260390622
 30
0.0
 11
435.9810263289
 21
462.2260410888
 31
0.0
  0
LINE
  5
1FC
330
1F
100
AcDbEntity
  8
0
  6
Continuous
 62
     7
370
    15
100
AcDbLine
 10
434.7810358179
 20
461.8669827086
 30
0.0
 11
434.7810358179
 21
461.2260390622
 31
0.0
  0
LINE
  5
1FD
330
1F
100
AcDbEntity
  8
0
  6
Continuous
 62
     7
370
    15
100
AcDbLine
 10
427.7115524185
 20
460.7459087474
 30
0.0
 11
426.9810378922
 21
461.6979439361
 31
0.0
  0
LWPOLYLINE
  5
1FE
330
1F
100
AcDbEntity
  8
0
  6
Continuous
 62
     7
370
    15
100
AcDbPolyline
 90
        9
 70
   128
 43
0.0
 10
426.9810378922
 20
461.6979439361
 10
426.999321617
 20
461.7119808299
 10
427.0535022391
 20
461.7535401685
 10
427.1414786947
 20
461.8210573298
 10
427.2598684204
 20
461.9118948085
 10
427.4041414631
 20
462.022595535
 10
427.5687396897
 20
462.1488977773
 10
427.7473301066
 20
462.2859437568
 10
427.9330581797
 20
462.4284584624
  0
LWPOLYLINE
  5
1FF
330
1F
100
AcDbEntity
  8
0
  6
Continuous
 62
     7
370
    15
100
AcDbPolyline
 90
        9
 70
   128
 43
0.0
 10
428.6635727061
 20
461.4764232738
 10
428.4778446329
 20
461.3339085681
 10
428.2992393149
 20
461.1968774898
 10
428.1346559895
 20
461.0705752475
 10
427.9903829468
 20
460.959874521
 10
427.8719932211
 20
460.8690221412
 10
427.7840167654
 20
460.801519881
 10
427.7298361433
 20
460.7599456412
 10
427.7115524185
 20
460.7459087474
  0
ARC
  5
200
330
1F
100
AcDbEntity
  8
0
  6
Continuous
 62
     7
370
    15
100
AcDbCircle
 10
431.0810322893
 20
478.2460438783
 30
0.0
 40
2.200000000000036
100
AcDbArc
 50
103.5934783352
 51
268.1042765976
  0
LINE
  5
201
330
1F
100
AcDbEntity
  8
0
  6
Continuous
 62
     7
370
    15
100
AcDbLine
 10
427.534198798
 20
479.6238173348
 30
0.0
 11
427.8678506983
 21
481.516041289
 31
0.0
  0
LWPOLYLINE
  5
202
330
1F
100
AcDbEntity
  8
0
  6
Continuous
 62
     7
370
    15
100
AcDbPolyline
 90
        9
 70
   128
 43
0.0
 10
427.8678506983
 20
481.516041289
 10
427.7236223591
 20
481.5414775712
 10
427.5865763796
 20
481.5656472547
 10
427.4614662302
 20
481.5877009732
 10
427.3526281489
 20
481.6068936688
 10
427.263802327
 20
481.6225547893
 10
427.1980584038
 20
481.6341478927
 10
427.1576911581
 20
481.6412706477
 10
427.1440714968
 20
481.6436697347
  0
LINE
  5
203
330
1F
100
AcDbEntity
  8
0
  6
Continuous
 62
     7
370
    15
100
AcDbLine
 10
427.1440714968
 20
481.6436697347
 30
0.0
 11
431.519112028
 21
506.4557720525
 31
0.0
  0
LWPOLYLINE
  5
204
330
1F
100
AcDbEntity
  8
0
  6
Continuous
 62
     7
370
    15
100
AcDbPolyline
 90
        9
 70
   128
 43
0.0
 10
431.519112028
 20
506.4557720525
 10
431.5342516077
 20
506.4531047446
 10
431.5790892018
 20
506.4452071292
 10
431.6518962754
 20
506.4323623282
 10
431.7498714102
 20
506.4150918824
 10
431.8692595137
 20
506.3940365417
 10
432.0054710282
 20
506.3700158698
 10
432.1532607449
 20
506.3439537389
 10
432.3069662226
 20
506.3168634278
  0
LINE
  5
205
330
1F
100
AcDbEntity
  8
0
  6
Continuous
 62
     7
370
    15
100
AcDbLine
 10
432.3069662226
 20
506.3168634278
 30
0.0
 11
427.4816424025
 21
478.9510597093
 31
0.0
  0
LINE
  5
206
330
1F
100
AcDbEntity
  8
0
  6
Continuous
 62
     7
370
    15
100
AcDbLine
 10
427.4816424025
 20
478.9510597093
 30
0.0
 11
427.534198798
 21
479.6238173348
 31
0.0
  0
LWPOLYLINE
  5
207
330
1F
100
AcDbEntity
  8
0
  6
Continuous
 62
     7
370
    15
100
AcDbPolyline
 90
        5
 70
   128
 43
0.0
 10
430.3664178026
 20
513.3441020352
 10
430.1129490507
 20
514.0405078036
 10
429.929381646
 20
514.5448227031
 10
429.8182487858
 20
514.8501772983
 10
429.7810256851
 20
514.9524290664
  0
LWPOLYLINE
  5
208
330
1F
100
AcDbEntity
  8
0
  6
Continuous
 62
     7
370
    15
100
AcDbPolyline
 90
        5
 70
   128
 43
0.0
 10
431.1260342968
 20
513.5960881216
 10
430.8691978825
 20
514.3017624123
 10
430.6831717861
 20
514.8128796918
 10
430.5705041064
 20
515.122391711
 10
430.5327892674
 20
515.2260441882
  0
LINE
  5
209
330
1F
100
AcDbEntity
  8
0
  6
Continuous
 62
     7
370
    15
100
AcDbLine
 10
431.3481361044
 20
513.2416416509
 30
0.0
 11
431.1260342968
 21
513.5960881216
 31
0.0
  0
LINE
  5
20A
330
1F
100
AcDbEntity
  8
0
  6
Continuous
 62
     7
370
    15
100
AcDbLine
 10
431.2659412993
 20
513.2117275698
 30
0.0
 11
431.3481361044
 21
513.2416416509
 31
0.0
  0
SPLINE
  5
20B
330
1F
100
AcDbEntity
  8
0
  6
Continuous
 62
     7
370
    15
100
AcDbSpline
210
0.0
220
0.0
230
1.0
 70
     8
 71
     3
 72
    12
 73
     8
 74
     0
 42
0.00000001
 43
0.00000001
 40
0.0
 40
0.0
 40
0.0
 40
0.0
 40
0.251021990599481
 40
0.5023977458077202
 40
0.7402765908566765
 40
0.9473178514528033
 40
1.0
 40
1.0
 40
1.0
 40
1.0
 10
430.3664178026419
 20
513.3441020352401
 30
0.0
 10
430.3941265999705
 20
513.2997843963592
 30
0.0
 10
430.4495832445603
 20
513.2110866618694
 30
0.0
 10
430.6565818101681
 20
513.1360924307586
 30
0.0
 10
430.9179720897567
 20
513.1246033380794
 30
0.0
 10
431.1345603575064
 20
513.1662371293212
 30
0.0
 10
431.2437860266766
 20
513.2040563421588
 30
0.0
 10
431.2659412992697
 20
513.2117275697746
 30
0.0
  0
LINE
  5
20C
330
1F
100
AcDbEntity
  8
0
  6
Continuous
 62
     7
370
    15
100
AcDbLine
 10
431.2659412993
 20
513.2117275698
 30
0.0
 11
431.8422735108
 21
511.6282407743
 31
0.0
  0
LWPOLYLINE
  5
20D
330
1F
100
AcDbEntity
  8
0
  6
Continuous
 62
     7
370
    15
100
AcDbPolyline
 90
        9
 70
   128
 43
0.0
 10
431.0905248297
 20
511.3546256525
 10
431.1049640549
 20
511.3598857624
 10
431.1477452887
 20
511.3754500253
 10
431.2172145022
 20
511.4007372958
 10
431.3107043875
 20
511.4347640974
 10
431.4246237648
 20
511.4762265784
 10
431.5545916928
 20
511.5235303146
 10
431.6956162823
 20
511.574864815
 10
431.8422735108
 20
511.6282407743
  0
LINE
  5
20E
330
1F
100
AcDbEntity
  8
0
  6
Continuous
 62
     7
370
    15
100
AcDbLine
 10
431.0905248297
 20
511.3546256525
 30
0.0
 11
430.3664178026
 21
513.3441020352
 31
0.0
  0
ARC
  5
20F
330
1F
100
AcDbEntity
  8
0
  6
Continuous
 62
     7
370
    15
100
AcDbCircle
 10
431.6710377955
 20
484.4150347967
 30
0.0
 40
1.599999999999976
100
AcDbArc
 50
347.034367059
 51
204.5705045339
  0
ARC
  5
210
330
1F
100
AcDbEntity
  8
0
  6
Continuous
 62
     7
370
    15
100
AcDbCircle
 10
432.1837467607
 20
512.4381087326
 30
0.0
 40
0.4999999999998863
100
AcDbArc
 50
36.8410865502
 51
90.0
  0
ARC
  5
211
330
1F
100
AcDbEntity
  8
0
  6
Continuous
 62
     7
370
    15
100
AcDbCircle
 10
424.9810322893
 20
507.0417299242
 30
0.0
 40
9.5
100
AcDbArc
 50
0.0
 51
36.8410865502
  0
LINE
  5
212
330
1F
100
AcDbEntity
  8
0
  6
Continuous
 62
     7
370
    15
100
AcDbLine
 10
434.4810307396
 20
507.0417304141
 30
0.0
 11
434.4810307396
 21
479.0160436732
 31
0.0
  0
ARC
  5
213
330
1F
100
AcDbEntity
  8
0
  6
Continuous
 62
     7
370
    15
100
AcDbCircle
 10
422.1634452488
 20
508.1054343466
 30
0.0
 40
10.30000000000022
100
AcDbArc
 50
350.0
 51
20.0
  0
ARC
  5
214
330
1F
100
AcDbEntity
  8
0
  6
Continuous
 62
     7
370
    15
100
AcDbCircle
 10
432.0657342151
 20
513.9381087326
 30
0.0
 40
1.000000000000028
100
AcDbArc
 50
224.1440002858
 51
270.0
  0
LINE
  5
215
330
1F
100
AcDbEntity
  8
0
  6
Continuous
 62
     7
370
    15
100
AcDbLine
 10
432.065731324
 20
512.9381124479
 30
0.0
 11
432.1837485207
 21
512.9381124479
 31
0.0
  0
LWPOLYLINE
  5
216
330
1F
100
AcDbEntity
  8
0
  6
Continuous
 62
     7
370
    15
100
AcDbPolyline
 90
        3
 70
   128
 43
0.0
 10
434.4810307396
 20
479.0160436732
 10
434.2724144829
 20
477.8257687194
 10
433.916246928
 20
477.1096040113
  0
ARC
  5
217
330
1F
100
AcDbEntity
  8
0
  6
Continuous
 62
     7
370
    15
100
AcDbCircle
 10
430.9810322893
 20
479.0160438783
 30
0.0
 40
3.500000000000001
100
AcDbArc
 50
181.0639402281
 51
271.3221928089
  0
ARC
  5
218
330
1F
100
AcDbEntity
  8
0
  6
Continuous
 62
     7
370
    15
100
AcDbCircle
 10
422.1634452488
 20
508.1054343466
 30
0.0
 40
9.500000000000396
100
AcDbArc
 50
350.0
 51
20.0
  0
ARC
  5
219
330
1F
100
AcDbEntity
  8
0
  6
Continuous
 62
     7
370
    15
100
AcDbCircle
 10
431.5746500827
 20
479.7135394051
 30
0.0
 40
4.698428302688325
100
AcDbArc
 50
170.0
 51
264.3261771657
  0
LINE
  5
21A
330
1F
100
AcDbEntity
  8
0
  6
Continuous
 62
     7
370
    15
100
AcDbLine
 10
427.1440714968
 20
481.6436697347
 30
0.0
 11
426.9475996865
 21
480.5294056041
 31
0.0
  0
SPLINE
  5
21B
330
1F
100
AcDbEntity
  8
0
  6
Continuous
 62
     7
370
    15
100
AcDbSpline
210
0.0
220
0.0
230
1.0
 70
     8
 71
     3
 72
    12
 73
     8
 74
     0
 42
0.00000001
 43
0.00000001
 40
0.0
 40
0.0
 40
0.0
 40
0.0
 40
0.2340515605559213
 40
0.4681081209014387
 40
0.7021649452951938
 40
0.9362191094033155
 40
1.0
 40
1.0
 40
1.0
 40
1.0
 10
432.2780132663946
 20
479.9031545025862
 30
0.0
 10
432.0816203530329
 20
479.8837758176289
 30
0.0
 10
431.6888303309806
 20
479.8450180337483
 30
0.0
 10
431.1513318791611
 20
479.8397617347687
 30
0.0
 10
430.7778297300912
 20
479.8782446718303
 30
0.0
 10
430.5986369508782
 20
479.932904877522
 30
0.0
 10
430.6273560645799
 20
479.9768602158106
 30
0.0
 10
430.6335062158805
 20
479.9862731797255
 30
0.0
  0
SPLINE
  5
21C
330
1F
100
AcDbEntity
  8
0
  6
Continuous
 62
     7
370
    15
100
AcDbSpline
210
0.0
220
0.0
230
1.0
 70
     8
 71
     3
 72
    11
 73
     7
 74
     0
 42
0.00000001
 43
0.00000001
 40
0.0
 40
0.0
 40
0.0
 40
0.0
 40
0.1986869656512229
 40
0.4657887335487899
 40
0.7328960549812761
 40
1.0
 40
1.0
 40
1.0
 40
1.0
 10
433.57392255194
 20
480.2820463282622
 30
0.0
 10
433.5727389372424
 20
480.2575528849
 30
0.0
 10
433.5699641483213
 20
480.2001320574864
 30
0.0
 10
433.3004453427524
 20
480.0930549549158
 30
0.0
 10
432.853378946859
 20
479.9822354596564
 30
0.0
 10
432.4698010184312
 20
479.9295147105381
 30
0.0
 10
432.2780132663947
 20
479.9031545025862
 30
0.0
  0
SPLINE
  5
21D
330
1F
100
AcDbEntity
  8
0
  6
Continuous
 62
     7
370
    15
100
AcDbSpline
210
0.0
220
0.0
230
1.0
 70
     8
 71
     3
 72
    12
 73
     8
 74
     0
 42
0.00000001
 43
0.00000001
 40
0.0
 40
0.0
 40
0.0
 40
0.0
 40
0.2339692026286767
 40
0.4679314225258686
 40
0.7018985953360339
 40
0.9358631177081309
 40
0.9999999999999999
 40
0.9999999999999999
 40
0.9999999999999999
 40
0.9999999999999999
 10
431.6710442674857
 20
485.9150279862441
 30
0.0
 10
431.4749588727842
 20
485.8925257976025
 30
0.0
 10
431.0827939354832
 20
485.8475220918895
 30
0.0
 10
430.5798554447746
 20
485.5000273792318
 30
0.0
 10
430.2600478587951
 20
485.006535245861
 30
0.0
 10
430.1321185332166
 20
484.5529493881998
 30
0.0
 10
430.1899077055384
 20
484.3099563784227
 30
0.0
 10
430.2023411167365
 20
484.2576761347808
 30
0.0
  0
SPLINE
  5
21E
330
1F
100
AcDbEntity
  8
0
  6
Continuous
 62
     7
370
    15
100
AcDbSpline
210
0.0
220
0.0
230
1.0
 70
     8
 71
     3
 72
    11
 73
     7
 74
     0
 42
0.00000001
 43
0.00000001
 40
0.0
 40
0.0
 40
0.0
 40
0.0
 40
0.1976865299295927
 40
0.4651276931378727
 40
0.7325631948134215
 40
1.0
 40
1.0
 40
1.0
 40
1.0
 10
433.1412524355155
 20
484.5647443635024
 30
0.0
 10
433.1229715717544
 20
484.7094925969328
 30
0.0
 10
433.0799593544182
 20
485.0500641671111
 30
0.0
 10
432.7545058184556
 20
485.4998399091837
 30
0.0
 10
432.2612120069826
 20
485.8475659367094
 30
0.0
 10
431.867767166933
 20
485.892540599864
 30
0.0
 10
431.6710442674857
 20
485.9150279862441
 30
0.0
  0
SPLINE
  5
21F
330
1F
100
AcDbEntity
  8
0
  6
Continuous
 62
     7
370
    15
100
AcDbSpline
210
0.0
220
0.0
230
1.0
 70
     8
 71
     3
 72
    12
 73
     8
 74
     0
 42
0.00000001
 43
0.00000001
 40
0.0
 40
0.0
 40
0.0
 40
0.0
 40
0.2350128204151231
 40
0.4700301568031707
 40
0.7050474737853947
 40
0.9400627567906925
 40
1.0
 40
1.0
 40
1.0
 40
1.0
 10
433.8470906389456
 20
464.3621970517195
 30
0.0
 10
433.6507051921006
 20
464.3428128131376
 30
0.0
 10
433.2579305246955
 20
464.3040439634891
 30
0.0
 10
432.7203210028503
 20
464.2987815148331
 30
0.0
 10
432.3472386086796
 20
464.3373055011116
 30
0.0
 10
432.1682424511123
 20
464.3914269638305
 30
0.0
 10
432.1961149590293
 20
464.4347283280488
 30
0.0
 10
432.201778925727
 20
464.4435275895156
 30
0.0
  0
SPLINE
  5
220
330
1F
100
AcDbEntity
  8
0
  6
Continuous
 62
     7
370
    15
100
AcDbSpline
210
0.0
220
0.0
230
1.0
 70
     8
 71
     3
 72
    11
 73
     7
 74
     0
 42
0.00000001
 43
0.00000001
 40
0.0
 40
0.0
 40
0.0
 40
0.0
 40
0.1989250980717726
 40
0.4659516698545062
 40
0.7329753060758109
 40
1.0
 40
1.0
 40
1.0
 40
1.0
 10
435.1430446279746
 20
464.7411931855239
 30
0.0
 10
435.1418709578154
 20
464.7166607767235
 30
0.0
 10
435.1391218146665
 20
464.6591973547776
 30
0.0
 10
434.8695143944873
 20
464.5520874961251
 30
0.0
 10
434.4224546329634
 20
464.441257533048
 30
0.0
 10
434.0388788901803
 20
464.3885505802917
 30
0.0
 10
433.8470906389456
 20
464.3621970517195
 30
0.0
  0
ARC
  5
221
330
1F
100
AcDbEntity
  8
0
  6
Continuous
 62
     7
370
    15
100
AcDbCircle
 10
435.0483184575
 20
474.6638164574
 30
0.0
 40
0.4000075821847004
100
AcDbArc
 50
0.1473252397
 51
179.5004936418
  0
ELLIPSE
  5
222
330
1F
100
AcDbEntity
  8
0
  6
Continuous
 62
     7
370
    15
100
AcDbEllipse
 10
435.0483316897
 20
474.3989354845
 30
0.0
 11
0.3991830274372887
 21
-0.02624604221148274
 31
0.0
210
0.0
220
0.0
230
0.9999999999999998
 40
0.9763157485
 41
0.0
 42
6.283185307179586
  0
SPLINE
  5
223
330
1F
100
AcDbEntity
  8
0
  6
Continuous
 62
     7
370
    15
100
AcDbSpline
210
0.0
220
0.0
230
1.0
 70
     8
 71
     3
 72
    13
 73
     9
 74
     0
 42
0.00000001
 43
0.00000001
 40
0.0
 40
0.0
 40
0.0
 40
0.0
 40
0.0081675122012609
 40
0.2391521492050921
 40
0.4710962406467845
 40
0.6931204460156718
 40
0.9042211429553025
 40
1.0
 40
1.0
 40
1.0
 40
1.0
 10
435.0483328474265
 20
475.1277644736327
 30
0.0
 10
435.0466739354477
 20
475.1273722072244
 30
0.0
 10
434.9980994913222
 20
475.1158862917717
 30
0.0
 10
434.9019892008416
 20
475.0925977370945
 30
0.0
 10
434.7791477840714
 20
475.0489795851016
 30
0.0
 10
434.6934983085514
 20
475.0115246120544
 30
0.0
 10
434.6494794580258
 20
474.9903948025932
 30
0.0
 10
434.6527115441873
 20
474.985406070522
 30
0.0
 10
434.653720296691
 20
474.9838490588225
 30
0.0
  0
SPLINE
  5
224
330
1F
100
AcDbEntity
  8
0
  6
Continuous
 62
     7
370
    15
100
AcDbSpline
210
0.0
220
0.0
230
1.0
 70
     8
 71
     3
 72
    13
 73
     9
 74
     0
 42
0.00000001
 43
0.00000001
 40
0.0
 40
0.0
 40
0.0
 40
0.0
 40
0.125228959886928
 40
0.2499779558663477
 40
0.499978012847814
 40
0.7499978855696056
 40
0.8747546811188224
 40
1.0
 40
1.0
 40
1.0
 40
1.0
 10
435.4483396185141
 20
475.1220722300566
 30
0.0
 10
435.4466252967702
 20
475.1221020776024
 30
0.0
 10
435.4432032237476
 20
475.1221616582975
 30
0.0
 10
435.408823353975
 20
475.1226360179561
 30
0.0
 10
435.3335595669382
 20
475.1237084408603
 30
0.0
 10
435.2248969569609
 20
475.1252425199166
 30
0.0
 10
435.126184201036
 20
475.1266759747431
 30
0.0
 10
435.0743170827405
 20
475.1274011683082
 30
0.0
 10
435.0483328474265
 20
475.1277644736327
 30
0.0
  0
SPLINE
  5
225
330
1F
100
AcDbEntity
  8
0
  6
Continuous
 62
     7
370
    15
100
AcDbSpline
210
0.0
220
0.0
230
1.0
 70
     8
 71
     3
 72
    10
 73
     6
 74
     0
 42
0.00000001
 43
0.00000001
 40
0.0
 40
0.0
 40
0.0
 40
0.0
 40
0.0190228700517773
 40
0.5253207342098283
 40
1.0
 40
1.0
 40
1.0
 40
1.0
 10
435.0483328474264
 20
475.1277644736327
 30
0.0
 10
435.0498571756848
 20
475.128504697705
 30
0.0
 10
435.0919518353077
 20
475.1489461480271
 30
0.0
 10
435.1745099840371
 20
475.1872789601629
 30
0.0
 10
435.2446573123643
 20
475.2133987027631
 30
0.0
 10
435.278600491355
 20
475.2260376317061
 30
0.0
  0
LINE
  5
226
330
1F
100
AcDbEntity
  8
0
  6
Continuous
 62
     7
370
    15
100
AcDbLine
 10
430.1718086375
 20
484.3670059545
 30
0.0
 11
430.1842660082
 21
484.2162360055
 31
0.0
  0
LINE
  5
227
330
1F
100
AcDbEntity
  8
0
  6
Continuous
 62
     7
370
    15
100
AcDbLine
 10
433.164036311
 20
484.5597375733
 30
0.0
 11
433.128452338
 21
484.7699035508
 31
0.0
  0
LINE
  5
228
330
1F
100
AcDbEntity
  8
0
  6
Continuous
 62
     7
370
    15
100
AcDbLine
 10
450.9810269249
 20
638.2260438604
 30
0.0
 11
720.9810376538
 21
638.2260438604
 31
0.0
  0
LINE
  5
229
330
1F
100
AcDbEntity
  8
0
  6
Continuous
 62
     7
370
    15
100
AcDbLine
 10
720.9810376538
 20
623.2260441957
 30
0.0
 11
720.9810376538
 21
638.2260438604
 31
0.0
  0
LINE
  5
22A
330
1F
100
AcDbEntity
  8
0
  6
Continuous
 62
     7
370
    15
100
AcDbLine
 10
450.9810269249
 20
623.2260441957
 30
0.0
 11
720.9810376538
 21
623.2260441957
 31
0.0
  0
LINE
  5
22B
330
1F
100
AcDbEntity
  8
0
  6
Continuous
 62
     7
370
    15
100
AcDbLine
 10
450.9810269249
 20
623.2260441957
 30
0.0
 11
450.9810269249
 21
638.2260438604
 31
0.0
  0
LINE
  5
22C
330
1F
100
AcDbEntity
  8
0
  6
Continuous
 62
     7
370
    15
100
AcDbLine
 10
720.9810376538
 20
623.2260441957
 30
0.0
 11
735.9810382498
 21
623.2260441957
 31
0.0
  0
ARC
  5
22D
330
1F
100
AcDbEntity
  8
0
  6
Continuous
 62
     7
370
    15
100
AcDbCircle
 10
720.9810322893
 20
623.2260438783
 30
0.0
 40
15.0
100
AcDbArc
 50
0.0
 51
90.0
  0
LINE
  5
22E
330
1F
100
AcDbEntity
  8
0
  6
Continuous
 62
     7
370
    15
100
AcDbLine
 10
450.9810269249
 20
623.2260441957
 30
0.0
 11
435.9810263289
 21
623.2260441957
 31
0.0
  0
ARC
  5
22F
330
1F
100
AcDbEntity
  8
0
  6
Continuous
 62
     7
370
    15
100
AcDbCircle
 10
450.9810322893
 20
623.2260438783
 30
0.0
 40
15.0
100
AcDbArc
 50
90.0
 51
180.0
  0
LINE
  5
230
330
1F
100
AcDbEntity
  8
0
  6
Continuous
 62
     7
370
    15
100
AcDbLine
 10
720.9810376538
 20
462.2260410888
 30
0.0
 11
720.9810376538
 21
623.2260441957
 31
0.0
  0
LINE
  5
231
330
1F
100
AcDbEntity
  8
0
  6
Continuous
 62
     7
370
    15
100
AcDbLine
 10
720.9810376538
 20
462.2260410888
 30
0.0
 11
450.9810269249
 21
462.2260410888
 31
0.0
  0
LINE
  5
232
330
1F
100
AcDbEntity
  8
0
  6
Continuous
 62
     7
370
    15
100
AcDbLine
 10
450.9810269249
 20
462.2260410888
 30
0.0
 11
450.9810269249
 21
623.2260441957
 31
0.0
  0
LINE
  5
233
330
1F
100
AcDbEntity
  8
0
  6
Continuous
 62
     7
370
    15
100
AcDbLine
 10
715.981027521
 20
618.2260443074
 30
0.0
 11
715.981027521
 21
482.2260369165
 31
0.0
  0
LINE
  5
234
330
1F
100
AcDbEntity
  8
0
  6
Continuous
 62
     7
370
    15
100
AcDbLine
 10
715.981027521
 20
618.2260443074
 30
0.0
 11
455.9810370577
 21
618.2260443074
 31
0.0
  0
LINE
  5
235
330
1F
100
AcDbEntity
  8
0
  6
Continuous
 62
     7
370
    15
100
AcDbLine
 10
455.9810370577
 20
482.2260369165
 30
0.0
 11
455.9810370577
 21
618.2260443074
 31
0.0
  0
LINE
  5
236
330
1F
100
AcDbEntity
  8
0
  6
Continuous
 62
     7
370
    15
100
AcDbLine
 10
455.9810370577
 20
482.2260369165
 30
0.0
 11
715.981027521
 21
482.2260369165
 31
0.0
  0
LINE
  5
237
330
1F
100
AcDbEntity
  8
0
  6
Continuous
 62
     7
370
    15
100
AcDbLine
 10
450.9810269249
 20
462.2260410888
 30
0.0
 11
435.9810263289
 21
462.2260410888
 31
0.0
  0
LINE
  5
238
330
1F
100
AcDbEntity
  8
0
  6
Continuous
 62
     7
370
    15
100
AcDbLine
 10
435.9810263289
 20
462.2260410888
 30
0.0
 11
435.9810263289
 21
623.2260441957
 31
0.0
  0
LINE
  5
239
330
1F
100
AcDbEntity
  8
0
  6
Continuous
 62
     7
370
    15
100
AcDbLine
 10
735.9810382498
 20
462.2260410888
 30
0.0
 11
720.9810376538
 21
462.2260410888
 31
0.0
  0
LINE
  5
23A
330
1F
100
AcDbEntity
  8
0
  6
Continuous
 62
     7
370
    15
100
AcDbLine
 10
735.9810382498
 20
462.2260410888
 30
0.0
 11
735.9810382498
 21
623.2260441957
 31
0.0
  0
LINE
  5
23B
330
1F
100
AcDbEntity
  8
0
  6
Continuous
 62
     7
370
    15
100
AcDbLine
 10
730.981028117
 20
458.2260478837
 30
0.0
 11
730.981028117
 21
462.2260410888
 31
0.0
  0
LINE
  5
23C
330
1F
100
AcDbEntity
  8
0
  6
Continuous
 62
     7
370
    15
100
AcDbLine
 10
715.981027521
 20
458.2260478837
 30
0.0
 11
715.981027521
 21
462.2260410888
 31
0.0
  0
LINE
  5
23D
330
1F
100
AcDbEntity
  8
0
  6
Continuous
 62
     7
370
    15
100
AcDbLine
 10
455.9810370577
 20
458.2260478837
 30
0.0
 11
455.9810370577
 21
462.2260410888
 31
0.0
  0
LINE
  5
23E
330
1F
100
AcDbEntity
  8
0
  6
Continuous
 62
     7
370
    15
100
AcDbLine
 10
440.9810364617
 20
458.2260478837
 30
0.0
 11
440.9810364617
 21
462.2260410888
 31
0.0
  0
LINE
  5
23F
330
1F
100
AcDbEntity
  8
0
  6
Continuous
 62
     7
370
    15
100
AcDbLine
 10
735.9810382498
 20
462.2260410888
 30
0.0
 11
736.6483569515
 21
462.2260410888
 31
0.0
  0
ARC
  5
240
330
1F
100
AcDbEntity
  8
0
  6
Continuous
 62
     7
370
    15
100
AcDbCircle
 10
736.6483500374
 20
462.7260438783
 30
0.0
 40
0.5000000000000541
100
AcDbArc
 50
270.0
 51
332.720387264
  0
ARC
  5
241
330
1F
100
AcDbEntity
  8
0
  6
Continuous
 62
     7
370
    15
100
AcDbCircle
 10
741.9810322893
 20
459.9760438783
 30
0.0
 40
5.500000000000365
100
AcDbArc
 50
202.024312837
 51
152.720387264
  0
ARC
  5
242
330
1F
100
AcDbEntity
  8
0
  6
Continuous
 62
     7
370
    15
100
AcDbCircle
 10
736.418883424
 20
457.7260438783
 30
0.0
 40
0.5
100
AcDbArc
 50
22.0243128371
 51
90.0
  0
LINE
  5
243
330
1F
100
AcDbEntity
  8
0
  6
Continuous
 62
     7
370
    15
100
AcDbLine
 10
736.4188790692
 20
458.2260478837
 30
0.0
 11
735.9810382498
 21
458.2260478837
 31
0.0
  0
LINE
  5
244
330
1F
100
AcDbEntity
  8
0
  6
Continuous
 62
     7
370
    15
100
AcDbLine
 10
435.6810361517
 20
481.4260382754
 30
0.0
 11
435.9810263289
 21
481.427111159
 31
0.0
  0
LINE
  5
245
330
1F
100
AcDbEntity
  8
0
  6
Continuous
 62
     7
370
    15
100
AcDbLine
 10
435.9810263289
 20
483.4260423286
 30
0.0
 11
435.6810361517
 21
483.4260423286
 31
0.0
  0
LINE
  5
246
330
1F
100
AcDbEntity
  8
0
  6
Continuous
 62
     7
370
    15
100
AcDbLine
 10
435.6810361517
 20
481.4260382754
 30
0.0
 11
435.6810361517
 21
483.4260423286
 31
0.0
  0
LINE
  5
247
330
1F
100
AcDbEntity
  8
0
  6
Continuous
 62
     7
370
    15
100
AcDbLine
 10
435.6810361517
 20
475.2260376317
 30
0.0
 11
435.6810361517
 21
481.4260382754
 31
0.0
  0
LINE
  5
248
330
1F
100
AcDbEntity
  8
0
  6
Continuous
 62
     7
370
    15
100
AcDbLine
 10
435.9810263289
 20
475.2260376317
 30
0.0
 11
435.6810361517
 21
475.2260376317
 31
0.0
  0
ARC
  5
249
330
1F
100
AcDbEntity
  8
0
  6
Continuous
 62
     7
370
    15
100
AcDbCircle
 10
430.7810322893
 20
478.3260438783
 30
0.0
 40
3.10000000000005
100
AcDbArc
 50
192.314918171
 51
270.0
  0
LINE
  5
24A
330
1F
100
AcDbEntity
  8
0
  6
Continuous
 62
     7
370
    15
100
AcDbLine
 10
430.7810277117
 20
475.2260376317
 30
0.0
 11
431.0911655796
 21
475.2260376317
 31
0.0
  0
LINE
  5
24B
330
1F
100
AcDbEntity
  8
0
  6
Continuous
 62
     7
370
    15
100
AcDbLine
 10
434.1064155472
 20
475.2260376317
 30
0.0
 11
435.6810361517
 21
475.2260376317
 31
0.0
  0
LINE
  5
24C
330
1F
100
AcDbEntity
  8
0
  6
Continuous
 62
     7
370
    15
100
AcDbLine
 10
435.6810361517
 20
481.4260382754
 30
0.0
 11
434.4810307396
 21
481.4260382754
 31
0.0
  0
LINE
  5
24D
330
1F
100
AcDbEntity
  8
0
  6
Continuous
 62
     7
370
    15
100
AcDbLine
 10
435.6810361517
 20
483.4260423286
 30
0.0
 11
435.6810361517
 21
507.4760396583
 31
0.0
  0
LINE
  5
24E
330
1F
100
AcDbEntity
  8
0
  6
Continuous
 62
     7
370
    15
100
AcDbLine
 10
435.6810361517
 20
514.2260421617
 30
0.0
 11
435.6810361517
 21
507.4760396583
 31
0.0
  0
LINE
  5
24F
330
1F
100
AcDbEntity
  8
0
  6
Continuous
 62
     7
370
    15
100
AcDbLine
 10
435.5810344589
 20
507.2260428769
 30
0.0
 11
435.5810344589
 21
513.2260475857
 31
0.0
  0
LINE
  5
250
330
1F
100
AcDbEntity
  8
0
  6
Continuous
 62
     7
370
    15
100
AcDbLine
 10
435.5810344589
 20
484.2260409696
 30
0.0
 11
435.5810344589
 21
490.2260382278
 31
0.0
  0
LINE
  5
251
330
1F
100
AcDbEntity
  8
0
  6
Continuous
 62
     7
370
    15
100
AcDbLine
 10
434.4810307396
 20
499.5828647716
 30
0.0
 11
435.6810361517
 21
499.2613126142
 31
0.0
  0
LINE
  5
252
330
1F
100
AcDbEntity
  8
0
  6
Continuous
 62
     7
370
    15
100
AcDbLine
 10
435.6810361517
 20
498.2260395391
 30
0.0
 11
434.4810307396
 21
498.5475767953
 31
0.0
  0
LINE
  5
253
330
1F
100
AcDbEntity
  8
0
  6
Continuous
 62
     8
370
    15
100
AcDbLine
 10
435.9810263289
 20
507.4760396583
 30
0.0
 11
435.6810361517
 21
507.4760396583
 31
0.0
  0
ENDSEC
  0
SECTION
  2
OBJECTS
  0
DICTIONARY
  5
C
330
0
100
AcDbDictionary
281
     1
  3
ACAD_GROUP
350
D
  3
ACAD_LAYOUT
350
1A
  3
ACAD_MLINESTYLE
350
17
  3
ACAD_PLOTSETTINGS
350
19
  3
ACAD_PLOTSTYLENAME
350
E
  0
DICTIONARY
  5
D
102
{ACAD_REACTORS
330
C
102
}
330
C
100
AcDbDictionary
281
     1
  0
DICTIONARY
  5
1A
102
{ACAD_REACTORS
330
C
102
}
330
C
100
AcDbDictionary
281
     1
  3
Layout1
350
1E
  3
Layout2
350
26
  3
Model
350
22
  0
DICTIONARY
  5
17
102
{ACAD_REACTORS
330
C
102
}
330
C
100
AcDbDictionary
281
     1
  3
Standard
350
18
  0
DICTIONARY
  5
19
102
{ACAD_REACTORS
330
C
102
}
330
C
100
AcDbDictionary
281
     1
  0
ACDBDICTIONARYWDFLT
  5
E
102
{ACAD_REACTORS
330
C
102
}
330
C
100
AcDbDictionary
281
     1
  3
Normal
350
F
100
AcDbDictionaryWithDefault
340
F
  0
LAYOUT
  5
1E
102
{ACAD_REACTORS
330
1A
102
}
330
1A
100
AcDbPlotSettings
  1

  2
none_device
  4

  6

 40
0.0
 41
0.0
 42
0.0
 43
0.0
 44
0.0
 45
0.0
 46
0.0
 47
0.0
 48
0.0
 49
0.0
140
0.0
141
0.0
142
1.0
143
1.0
 70
   688
 72
     0
 73
     0
 74
     5
  7

 75
    16
147
1.0
148
0.0
149
0.0
100
AcDbLayout
  1
Layout1
 70
     1
 71
     1
 10
0.0
 20
0.0
 11
420.0
 21
297.0
 12
0.0
 22
0.0
 32
0.0
 14
1.0000000000E+20
 24
1.0000000000E+20
 34
1.0000000000E+20
 15
-1.0000000000E+20
 25
-1.0000000000E+20
 35
-1.0000000000E+20
146
0.0
 13
0.0
 23
0.0
 33
0.0
 16
1.0
 26
0.0
 36
0.0
 17
0.0
 27
1.0
 37
0.0
 76
     0
330
1B
  0
LAYOUT
  5
26
102
{ACAD_REACTORS
330
1A
102
}
330
1A
100
AcDbPlotSettings
  1

  2
none_device
  4

  6

 40
0.0
 41
0.0
 42
0.0
 43
0.0
 44
0.0
 45
0.0
 46
0.0
 47
0.0
 48
0.0
 49
0.0
140
0.0
141
0.0
142
1.0
143
1.0
 70
   688
 72
     0
 73
     0
 74
     5
  7

 75
    16
147
1.0
148
0.0
149
0.0
100
AcDbLayout
  1
Layout2
 70
     1
 71
     2
 10
0.0
 20
0.0
 11
0.0
 21
0.0
 12
0.0
 22
0.0
 32
0.0
 14
0.0
 24
0.0
 34
0.0
 15
0.0
 25
0.0
 35
0.0
146
0.0
 13
0.0
 23
0.0
 33
0.0
 16
1.0
 26
0.0
 36
0.0
 17
0.0
 27
1.0
 37
0.0
 76
     0
330
23
  0
LAYOUT
  5
22
102
{ACAD_REACTORS
330
1A
102
}
330
1A
100
AcDbPlotSettings
  1

  2
none_device
  4

  6

 40
0.0
 41
0.0
 42
0.0
 43
0.0
 44
0.0
 45
0.0
 46
0.0
 47
0.0
 48
0.0
 49
0.0
140
0.0
141
0.0
142
1.0
143
1.0
 70
  1712
 72
     0
 73
     0
 74
     0
  7

 75
     0
147
1.0
148
0.0
149
0.0
100
AcDbLayout
  1
Model
 70
     1
 71
     0
 10
0.0
 20
0.0
 11
840.0
 21
594.0
 12
0.0
 22
0.0
 32
0.0
 14
0.0
 24
0.0
 34
0.0
 15
840.0
 25
594.0
 35
0.0
146
0.0
 13
0.0
 23
0.0
 33
0.0
 16
1.0
 26
0.0
 36
0.0
 17
0.0
 27
1.0
 37
0.0
 76
     0
330
1F
331
29
  0
MLINESTYLE
  5
18
102
{ACAD_REACTORS
330
17
102
}
330
17
100
AcDbMlineStyle
  2
Standard
 70
     0
  3

 62
   256
 51
90.0
 52
90.0
 71
     2
 49
0.5
 62
   256
  6
BYLAYER
 49
-0.5
 62
   256
  6
BYLAYER
  0
ACDBPLACEHOLDER
  5
F
102
{ACAD_REACTORS
330
E
102
}
330
E
  0
ENDSEC
  0
EOF
