  0
SECTION
  2
HEADER
  9
$ACADVER
  1
AC1015
  9
$ACADMAINTVER
 70
     6
  9
$DWGCODEPAGE
  3
DOS932
  9
$INSBASE
 10
0.0
 20
0.0
 30
0.0
  9
$EXTMIN
 10
0.0
 20
0.0
 30
0.0
  9
$EXTMAX
 10
840.0
 20
594.0
 30
0.0
  9
$LIMMIN
 10
0.0
 20
0.0
  9
$LIMMAX
 10
840.0
 20
594.0
  9
$ORTHOMODE
 70
     0
  9
$REGENMODE
 70
     1
  9
$FILLMODE
 70
     1
  9
$QTEXTMODE
 70
     0
  9
$MIRRTEXT
 70
     1
  9
$LTSCALE
 40
2.0
  9
$ATTMODE
 70
     1
  9
$TEXTSIZE
 40
7.0
  9
$TRACEWID
 40
1.0
  9
$TEXTSTYLE
  7
Standard
  9
$CLAYER
  8
0
  9
$CELTYPE
  6
ByLayer
  9
$CECOLOR
 62
   256
  9
$CELTSCALE
 40
1.0
  9
$DISPSILH
 70
     0
  9
$DIMSCALE
 40
1.0
  9
$DIMASZ
 40
6.0
  9
$DIMEXO
 40
2.0
  9
$DIMDLI
 40
3.75
  9
$DIMRND
 40
0.0
  9
$DIMDLE
 40
0.0
  9
$DIMEXE
 40
2.0
  9
$DIMTP
 40
0.0
  9
$DIMTM
 40
0.0
  9
$DIMTXT
 40
7.0
  9
$DIMCEN
 40
2.5
  9
$DIMTSZ
 40
0.0
  9
$DIMTOL
 70
     0
  9
$DIMLIM
 70
     0
  9
$DIMTIH
 70
     1
  9
$DIMTOH
 70
     1
  9
$DIMSE1
 70
     0
  9
$DIMSE2
 70
     0
  9
$DIMTAD
 70
     1
  9
$DIMZIN
 70
     0
  9
$DIMBLK
  1

  9
$DIMASO
 70
     1
  9
$DIMSHO
 70
     1
  9
$DIMPOST
  1

  9
$DIMAPOST
  1

  9
$DIMALT
 70
     0
  9
$DIMALTD
 70
     3
  9
$DIMALTF
 40
0.0393700787
  9
$DIMLFAC
 40
1.0
  9
$DIMTOFL
 70
     1
  9
$DIMTVP
 40
0.0
  9
$DIMTIX
 70
     0
  9
$DIMSOXD
 70
     0
  9
$DIMSAH
 70
     0
  9
$DIMBLK1
  1

  9
$DIMBLK2
  1

  9
$DIMSTYLE
  2
ISO-25
  9
$DIMCLRD
 70
     0
  9
$DIMCLRE
 70
     0
  9
$DIMCLRT
 70
     0
  9
$DIMTFAC
 40
1.0
  9
$DIMGAP
 40
3.048
  9
$DIMJUST
 70
     0
  9
$DIMSD1
 70
     0
  9
$DIMSD2
 70
     0
  9
$DIMTOLJ
 70
     0
  9
$DIMTZIN
 70
     0
  9
$DIMALTZ
 70
     0
  9
$DIMALTTZ
 70
     0
  9
$DIMUPT
 70
     0
  9
$DIMDEC
 70
     1
  9
$DIMTDEC
 70
     1
  9
$DIMALTU
 70
     2
  9
$DIMALTTD
 70
     3
  9
$DIMTXSTY
  7
Standard
  9
$DIMAUNIT
 70
     0
  9
$DIMADEC
 70
     2
  9
$DIMALTRND
 40
0.0
  9
$DIMAZIN
 70
     0
  9
$DIMDSEP
 70
    44
  9
$DIMATFIT
 70
     3
  9
$DIMFRAC
 70
     0
  9
$DIMLDRBLK
  1

  9
$DIMLUNIT
 70
     2
  9
$DIMLWD
 70
    -2
  9
$DIMLWE
 70
    -2
  9
$DIMTMOVE
 70
     0
  9
$LUNITS
 70
     2
  9
$LUPREC
 70
     1
  9
$SKETCHINC
 40
1.0
  9
$FILLETRAD
 40
10.0
  9
$AUNITS
 70
     0
  9
$AUPREC
 70
     2
  9
$MENU
  1
.
  9
$ELEVATION
 40
0.0
  9
$PELEVATION
 40
0.0
  9
$THICKNESS
 40
0.0
  9
$LIMCHECK
 70
     0
  9
$CHAMFERA
 40
10.0
  9
$CHAMFERB
 40
10.0
  9
$CHAMFERC
 40
20.0
  9
$CHAMFERD
 40
0.0
  9
$SKPOLY
 70
     0
  9
$TDCREATE
 40
2460445.651109444
  9
$TDUCREATE
 40
2460445.276109444
  9
$TDUPDATE
 40
2460445.651109456
  9
$TDUUPDATE
 40
2460445.276109456
  9
$TDINDWG
 40
0.0000000116
  9
$TDUSRTIMER
 40
0.0000000116
  9
$USRTIMER
 70
     1
  9
$ANGBASE
 50
0.0
  9
$ANGDIR
 70
     0
  9
$PDMODE
 70
     0
  9
$PDSIZE
 40
-1.0
  9
$PLINEWID
 40
0.0
  9
$SPLFRAME
 70
     0
  9
$SPLINETYPE
 70
     6
  9
$SPLINESEGS
 70
     8
  9
$HANDSEED
  5
361
  9
$SURFTAB1
 70
     6
  9
$SURFTAB2
 70
     6
  9
$SURFTYPE
 70
     6
  9
$SURFU
 70
     6
  9
$SURFV
 70
     6
  9
$UCSBASE
  2

  9
$UCSNAME
  2

  9
$UCSORG
 10
0.0
 20
0.0
 30
0.0
  9
$UCSXDIR
 10
1.0
 20
0.0
 30
0.0
  9
$UCSYDIR
 10
0.0
 20
1.0
 30
0.0
  9
$UCSORTHOREF
  2

  9
$UCSORTHOVIEW
 70
     0
  9
$UCSORGTOP
 10
0.0
 20
0.0
 30
0.0
  9
$UCSORGBOTTOM
 10
0.0
 20
0.0
 30
0.0
  9
$UCSORGLEFT
 10
0.0
 20
0.0
 30
0.0
  9
$UCSORGRIGHT
 10
0.0
 20
0.0
 30
0.0
  9
$UCSORGFRONT
 10
0.0
 20
0.0
 30
0.0
  9
$UCSORGBACK
 10
0.0
 20
0.0
 30
0.0
  9
$PUCSBASE
  2

  9
$PUCSNAME
  2

  9
$PUCSORG
 10
0.0
 20
0.0
 30
0.0
  9
$PUCSXDIR
 10
1.0
 20
0.0
 30
0.0
  9
$PUCSYDIR
 10
0.0
 20
1.0
 30
0.0
  9
$PUCSORTHOREF
  2

  9
$PUCSORTHOVIEW
 70
     0
  9
$PUCSORGTOP
 10
0.0
 20
0.0
 30
0.0
  9
$PUCSORGBOTTOM
 10
0.0
 20
0.0
 30
0.0
  9
$PUCSORGLEFT
 10
0.0
 20
0.0
 30
0.0
  9
$PUCSORGRIGHT
 10
0.0
 20
0.0
 30
0.0
  9
$PUCSORGFRONT
 10
0.0
 20
0.0
 30
0.0
  9
$PUCSORGBACK
 10
0.0
 20
0.0
 30
0.0
  9
$USERI1
 70
     0
  9
$USERI2
 70
     0
  9
$USERI3
 70
     0
  9
$USERI4
 70
     0
  9
$USERI5
 70
     0
  9
$USERR1
 40
0.0
  9
$USERR2
 40
0.0
  9
$USERR3
 40
0.0
  9
$USERR4
 40
0.0
  9
$USERR5
 40
0.0
  9
$WORLDVIEW
 70
     1
  9
$SHADEDGE
 70
     3
  9
$SHADEDIF
 70
    70
  9
$TILEMODE
 70
     1
  9
$MAXACTVP
 70
    64
  9
$PINSBASE
 10
0.0
 20
0.0
 30
0.0
  9
$PLIMCHECK
 70
     0
  9
$PEXTMIN
 10
1.0000000000E+20
 20
1.0000000000E+20
 30
1.0000000000E+20
  9
$PEXTMAX
 10
-1.0000000000E+20
 20
-1.0000000000E+20
 30
-1.0000000000E+20
  9
$PLIMMIN
 10
0.0
 20
0.0
  9
$PLIMMAX
 10
420.0
 20
297.0
  9
$UNITMODE
 70
     0
  9
$VISRETAIN
 70
     1
  9
$PLINEGEN
 70
     0
  9
$PSLTSCALE
 70
     1
  9
$TREEDEPTH
 70
  3020
  9
$CMLSTYLE
  2
Standard
  9
$CMLJUST
 70
     0
  9
$CMLSCALE
 40
20.0
  9
$PROXYGRAPHICS
 70
     1
  9
$MEASUREMENT
 70
     1
  9
$CELWEIGHT
370
    -1
  9
$ENDCAPS
280
     0
  9
$JOINSTYLE
280
     0
  9
$LWDISPLAY
290
     1
  9
$INSUNITS
 70
     4
  9
$HYPERLINKBASE
  1

  9
$STYLESHEET
  1

  9
$XEDIT
290
     1
  9
$CEPSNTYPE
380
     0
  9
$PSTYLEMODE
290
     1
  9
$FINGERPRINTGUID
  2
{1916DCD4-2750-4D8B-ABB0-063E72565791}
  9
$VERSIONGUID
  2
{FAEB1C32-E019-11D5-929B-00C0DF256EC4}
  9
$EXTNAMES
290
     1
  9
$PSVPSCALE
 40
0.0
  9
$OLESTARTUP
290
     0
  0
ENDSEC
  0
SECTION
  2
CLASSES
  0
CLASS
  1
ACDBDICTIONARYWDFLT
  2
AcDbDictionaryWithDefault
  3
ObjectDBX Classes
 90
        0
280
     0
281
     0
  0
CLASS
  1
VISUALSTYLE
  2
AcDbVisualStyle
  3
ObjectDBX Classes
 90
     4095
280
     0
281
     0
  0
CLASS
  1
MATERIAL
  2
AcDbMaterial
  3
ObjectDBX Classes
 90
     1153
280
     0
281
     0
  0
CLASS
  1
ACDBPLACEHOLDER
  2
AcDbPlaceHolder
  3
ObjectDBX Classes
 90
        0
280
     0
281
     0
  0
CLASS
  1
LAYOUT
  2
AcDbLayout
  3
ObjectDBX Classes
 90
        0
280
     0
281
     0
  0
ENDSEC
  0
SECTION
  2
TABLES
  0
TABLE
  2
VPORT
  5
8
330
0
100
AcDbSymbolTable
 70
     1
  0
VPORT
  5
29
330
8
100
AcDbSymbolTableRecord
100
AcDbViewportTableRecord
  2
*Active
 70
     0
 10
0.0
 20
0.0
 11
1.0
 21
1.0
 12
420.0
 22
297.0
 13
0.0
 23
0.0
 14
10.0
 24
10.0
 15
10.0
 25
10.0
 16
0.0
 26
0.0
 36
1.0
 17
0.0
 27
0.0
 37
0.0
 40
594.0
 41
1.4141414141
 42
50.0
 43
0.0
 44
0.0
 50
0.0
 51
0.0
 71
     0
 72
  2000
 73
     1
 74
     3
 75
     0
 76
     0
 77
     0
 78
     0
281
     0
 65
     1
110
0.0
120
0.0
130
0.0
111
1.0
121
0.0
131
0.0
112
0.0
122
1.0
132
0.0
 79
     0
146
0.0
  0
ENDTAB
  0
TABLE
  2
LTYPE
  5
5
330
0
100
AcDbSymbolTable
 70
     6
  0
LTYPE
  5
14
330
5
100
AcDbSymbolTableRecord
100
AcDbLinetypeTableRecord
  2
ByBlock
 70
     0
  3

 72
    65
 73
     0
 40
0.0
  0
LTYPE
  5
15
330
5
100
AcDbSymbolTableRecord
100
AcDbLinetypeTableRecord
  2
ByLayer
 70
     0
  3

 72
    65
 73
     0
 40
0.0
  0
LTYPE
  5
16
330
5
100
AcDbSymbolTableRecord
100
AcDbLinetypeTableRecord
  2
Continuous
 70
     0
  3
Solid line
 72
    65
 73
     0
 40
0.0
  0
LTYPE
  5
3F
330
5
100
AcDbSymbolTableRecord
100
AcDbLinetypeTableRecord
  2
HIDDEN
 70
     0
  3
Hidden __ __ __ __ __ __ __ __ __ __ __ __ __ __
 72
    65
 73
     2
 40
1.905
 49
1.27
 74
     0
 49
-0.635
 74
     0
  0
LTYPE
  5
40
330
5
100
AcDbSymbolTableRecord
100
AcDbLinetypeTableRecord
  2
PHANTOM
 70
     0
  3
Phantom ______  __  __  ______  __  __  ______
 72
    65
 73
     6
 40
12.7
 49
6.35
 74
     0
 49
-1.27
 74
     0
 49
1.27
 74
     0
 49
-1.27
 74
     0
 49
1.27
 74
     0
 49
-1.27
 74
     0
  0
LTYPE
  5
41
330
5
100
AcDbSymbolTableRecord
100
AcDbLinetypeTableRecord
  2
CENTER
 70
     0
  3
Center ____ _ ____ _ ____ _ ____ _ ____ _ ____
 72
    65
 73
     4
 40
10.16
 49
6.35
 74
     0
 49
-1.27
 74
     0
 49
1.27
 74
     0
 49
-1.27
 74
     0
  0
LTYPE
  5
42
330
5
100
AcDbSymbolTableRecord
100
AcDbLinetypeTableRecord
  2
CENTERX2
 70
     0
  3
Center (2x) ________  __  ________  __  _____
 72
    65
 73
     4
 40
20.32
 49
12.7
 74
     0
 49
-2.54
 74
     0
 49
2.54
 74
     0
 49
-2.54
 74
     0
  0
LTYPE
  5
43
330
5
100
AcDbSymbolTableRecord
100
AcDbLinetypeTableRecord
  2
DOT2
 70
     0
  3
Dot (.5x) ........................................
 72
    65
 73
     2
 40
0.635
 49
0.0
 74
     0
 49
-0.635
 74
     0
  0
ENDTAB
  0
TABLE
  2
LAYER
  5
2
330
0
100
AcDbSymbolTable
 70
     1
  0
LAYER
  5
10
330
2
100
AcDbSymbolTableRecord
100
AcDbLayerTableRecord
  2
0
 70
     0
 62
     7
  6
Continuous
370
    -3
390
F
  0
ENDTAB
  0
TABLE
  2
STYLE
  5
3
330
0
100
AcDbSymbolTable
 70
     2
  0
STYLE
  5
11
330
3
100
AcDbSymbolTableRecord
100
AcDbTextStyleTableRecord
  2
Standard
 70
     0
 40
0.0
 41
1.0
 50
0.0
 71
     0
 42
2.5
  3
txt
  4
bigfont
  0
STYLE
  5
44
330
3
100
AcDbSymbolTableRecord
100
AcDbTextStyleTableRecord
  2
SLDTEXTSTYLE0
 70
     0
 40
0.0
 41
0.7
 50
0.0
 71
     0
 42
0.2
  3
TXT
  4
bigfont
  0
ENDTAB
  0
TABLE
  2
VIEW
  5
6
330
0
100
AcDbSymbolTable
 70
     0
  0
ENDTAB
  0
TABLE
  2
UCS
  5
7
330
0
100
AcDbSymbolTable
 70
     0
  0
ENDTAB
  0
TABLE
  2
APPID
  5
9
330
0
100
AcDbSymbolTable
 70
     1
  0
APPID
  5
12
330
9
100
AcDbSymbolTableRecord
100
AcDbRegAppTableRecord
  2
ACAD
 70
     0
  0
ENDTAB
  0
TABLE
  2
DIMSTYLE
  5
A
330
0
100
AcDbSymbolTable
 70
     1
100
AcDbDimStyleTable
  0
DIMSTYLE
105
27
330
A
100
AcDbSymbolTableRecord
100
AcDbDimStyleTableRecord
  2
ISO-25
 70
     0
 41
2.5
 42
0.625
 43
3.75
 44
1.25
 73
     0
 74
     0
 77
     1
 78
     8
140
2.5
141
2.5
143
0.0393700787
147
0.625
171
     3
172
     1
178
     0
271
     2
272
     2
274
     3
278
    44
283
     0
284
     8
340
11
  0
ENDTAB
  0
TABLE
  2
BLOCK_RECORD
  5
1
330
0
100
AcDbSymbolTable
 70
     1
  0
BLOCK_RECORD
  5
1F
330
1
100
AcDbSymbolTableRecord
100
AcDbBlockTableRecord
  2
*Model_Space
340
22
  0
BLOCK_RECORD
  5
1B
330
1
100
AcDbSymbolTableRecord
100
AcDbBlockTableRecord
  2
*Paper_Space
340
1E
  0
BLOCK_RECORD
  5
23
330
1
100
AcDbSymbolTableRecord
100
AcDbBlockTableRecord
  2
*Paper_Space0
340
26
  0
ENDTAB
  0
ENDSEC
  0
SECTION
  2
BLOCKS
  0
BLOCK
  5
20
330
1F
100
AcDbEntity
  8
0
100
AcDbBlockBegin
  2
*Model_Space
 70
     0
 10
0.0
 20
0.0
 30
0.0
  3
*Model_Space
  1

  0
ENDBLK
  5
21
330
1F
100
AcDbEntity
  8
0
100
AcDbBlockEnd
  0
BLOCK
  5
1C
330
1B
100
AcDbEntity
 67
     1
  8
0
100
AcDbBlockBegin
  2
*Paper_Space
 70
     0
 10
0.0
 20
0.0
 30
0.0
  3
*Paper_Space
  1

  0
ENDBLK
  5
1D
330
1B
100
AcDbEntity
 67
     1
  8
0
100
AcDbBlockEnd
  0
BLOCK
  5
24
330
23
100
AcDbEntity
  8
0
100
AcDbBlockBegin
  2
*Paper_Space0
 70
     0
 10
0.0
 20
0.0
 30
0.0
  3
*Paper_Space0
  1

  0
ENDBLK
  5
25
330
23
100
AcDbEntity
  8
0
100
AcDbBlockEnd
  0
ENDSEC
  0
SECTION
  2
ENTITIES
  0
MTEXT
  5
45
330
1F
100
AcDbEntity
  8
0
  6
Continuous
 62
     7
370
     0
100
AcDbMText
 10
118.7040505025
 20
567.2691729537
 30
0.0
 40
7.0
 41
0.0
 71
     1
 72
     1
  1
CHB-508P
  7
SLDTEXTSTYLE0
 73
     1
 44
1.0
  0
LINE
  5
46
330
1F
100
AcDbEntity
  8
0
  6
Continuous
 62
     7
370
    15
100
AcDbLine
 10
294.1084235709
 20
92.8627719449
 30
0.0
 11
294.2084401648
 21
92.8627719449
 31
0.0
  0
LINE
  5
47
330
1F
100
AcDbEntity
  8
0
  6
Continuous
 62
     7
370
    15
100
AcDbLine
 10
294.2084401648
 20
98.8627692031
 30
0.0
 11
294.1084235709
 21
98.8627692031
 31
0.0
  0
LINE
  5
48
330
1F
100
AcDbEntity
  8
0
  6
Continuous
 62
     7
370
    15
100
AcDbLine
 10
294.1084235709
 20
82.8627665805
 30
0.0
 11
294.2084401648
 21
82.8627665805
 31
0.0
  0
LINE
  5
49
330
1F
100
AcDbEntity
  8
0
  6
Continuous
 62
     7
370
    15
100
AcDbLine
 10
294.2084401648
 20
88.8627638387
 30
0.0
 11
294.1084235709
 21
88.8627638387
 31
0.0
  0
LINE
  5
4A
330
1F
100
AcDbEntity
  8
0
  6
Continuous
 62
     7
370
    15
100
AcDbLine
 10
294.1084235709
 20
452.8627713489
 30
0.0
 11
294.2084401648
 21
452.8627713489
 31
0.0
  0
LINE
  5
4B
330
1F
100
AcDbEntity
  8
0
  6
Continuous
 62
     7
370
    15
100
AcDbLine
 10
294.2084401648
 20
458.8627686071
 30
0.0
 11
294.1084235709
 21
458.8627686071
 31
0.0
  0
LINE
  5
4C
330
1F
100
AcDbEntity
  8
0
  6
Continuous
 62
     7
370
    15
100
AcDbLine
 10
294.1084235709
 20
462.8627767133
 30
0.0
 11
294.2084401648
 21
462.8627767133
 31
0.0
  0
LINE
  5
4D
330
1F
100
AcDbEntity
  8
0
  6
Continuous
 62
     7
370
    15
100
AcDbLine
 10
294.2084401648
 20
468.8627739715
 30
0.0
 11
294.1084235709
 21
468.8627739715
 31
0.0
  0
LINE
  5
4E
330
1F
100
AcDbEntity
  8
0
  6
Continuous
 62
     7
370
    15
100
AcDbLine
 10
295.4084306757
 20
102.3627688455
 30
0.0
 11
294.2084401648
 21
102.3627688455
 31
0.0
  0
LINE
  5
4F
330
1F
100
AcDbEntity
  8
0
  6
Continuous
 62
     7
370
    15
100
AcDbLine
 10
295.4084306757
 20
472.3627736139
 30
0.0
 11
294.2084401648
 21
472.3627736139
 31
0.0
  0
LINE
  5
50
330
1F
100
AcDbEntity
  8
0
  6
Continuous
 62
     7
370
    15
100
AcDbLine
 10
294.2084401648
 20
79.3627669381
 30
0.0
 11
295.4084306757
 21
79.3627669381
 31
0.0
  0
LINE
  5
51
330
1F
100
AcDbEntity
  8
0
  6
Continuous
 62
     7
370
    15
100
AcDbLine
 10
294.2084401648
 20
449.3627717065
 30
0.0
 11
295.4084306757
 21
449.3627717065
 31
0.0
  0
LINE
  5
52
330
1F
100
AcDbEntity
  8
0
  6
Continuous
 62
     7
370
    15
100
AcDbLine
 10
806.9084316294
 20
81.862764554
 30
0.0
 11
806.9084316294
 21
116.8627758788
 31
0.0
  0
LINE
  5
53
330
1F
100
AcDbEntity
  8
0
  6
Continuous
 62
     7
370
    15
100
AcDbLine
 10
806.9084316294
 20
434.8627646732
 30
0.0
 11
806.9084316294
 21
469.8627759981
 31
0.0
  0
SPLINE
  5
54
330
1F
100
AcDbEntity
  8
0
  6
Continuous
 62
     7
370
    15
100
AcDbSpline
210
0.0
220
0.0
230
1.0
 70
     8
 71
     3
 72
    11
 73
     7
 74
     0
 42
0.00000001
 43
0.00000001
 40
0.0
 40
0.0
 40
0.0
 40
0.0
 40
0.2262211787622261
 40
0.4679428809830629
 40
0.7254872347845625
 40
1.0
 40
1.0
 40
1.0
 40
1.0
 10
291.7289465467952
 20
99.09320075982598
 30
0.0
 10
291.7317673189692
 20
99.07030105398476
 30
0.0
 10
291.7376021407348
 20
99.02293256981523
 30
0.0
 10
291.7543688339773
 20
98.69814995056339
 30
0.0
 10
291.7679638018964
 20
98.19766346748568
 30
0.0
 10
291.7685102922777
 20
97.77383508361689
 30
0.0
 10
291.7687922518275
 20
97.5551625060418
 30
0.0
  0
SPLINE
  5
55
330
1F
100
AcDbEntity
  8
0
  6
Continuous
 62
     7
370
    15
100
AcDbSpline
210
0.0
220
0.0
230
1.0
 70
     8
 71
     3
 72
    12
 73
     8
 74
     0
 42
0.00000001
 43
0.00000001
 40
0.0
 40
0.0
 40
0.0
 40
0.0
 40
0.2489464093299705
 40
0.4822891556317727
 40
0.6998139568662817
 40
0.9035367122982499
 40
1.0
 40
1.0
 40
1.0
 40
1.0
 10
291.7687922518274
 20
83.99653633111501
 30
0.0
 10
291.7673664046632
 20
83.85920145794599
 30
0.0
 10
291.7646040807285
 20
83.59313969711252
 30
0.0
 10
291.753702915891
 20
83.257323391771
 30
0.0
 10
291.751192590298
 20
83.02415030157626
 30
0.0
 10
291.7559821082844
 20
82.90406468593805
 30
0.0
 10
291.7824123490101
 20
82.90270612547381
 30
0.0
 10
291.7909055750392
 20
82.90226955884484
 30
0.0
  0
LINE
  5
56
330
1F
100
AcDbEntity
  8
0
  6
Continuous
 62
     7
370
    15
100
AcDbLine
 10
291.7679577868
 20
97.605170803
 30
0.0
 11
291.7679577868
 21
83.9465280341
 31
0.0
  0
LINE
  5
57
330
1F
100
AcDbEntity
  8
0
  6
Continuous
 62
     7
370
    15
100
AcDbLine
 10
290.2443140547
 20
101.5430559682
 30
0.0
 11
291.7316883605
 21
99.0629066991
 31
0.0
  0
LINE
  5
58
330
1F
100
AcDbEntity
  8
0
  6
Continuous
 62
     7
370
    15
100
AcDbLine
 10
294.2084401648
 20
100.7660200166
 30
0.0
 11
292.8171485465
 21
103.0859818029
 31
0.0
  0
LINE
  5
59
330
1F
100
AcDbEntity
  8
0
  6
Continuous
 62
     7
370
    15
100
AcDbLine
 10
291.7961805861
 20
82.770185666
 30
0.0
 11
290.2270883124
 21
80.1537652778
 31
0.0
  0
LINE
  5
5A
330
1F
100
AcDbEntity
  8
0
  6
Continuous
 62
     7
370
    15
100
AcDbLine
 10
292.7999228041
 20
78.6108394431
 30
0.0
 11
294.2084401648
 21
80.9595306682
 31
0.0
  0
LINE
  5
5B
330
1F
100
AcDbEntity
  8
0
  6
Continuous
 62
     7
370
    15
100
AcDbLine
 10
292.8370266955
 20
103.0504723358
 30
0.0
 11
292.7470832865
 21
103.1642576026
 31
0.0
  0
SPLINE
  5
5C
330
1F
100
AcDbEntity
  8
0
  6
Continuous
 62
     7
370
    15
100
AcDbSpline
210
0.0
220
0.0
230
1.0
 70
     8
 71
     3
 72
    20
 73
    16
 74
     0
 42
0.00000001
 43
0.00000001
 40
0.0
 40
0.0
 40
0.0
 40
0.0
 40
0.0337782135563916
 40
0.1101042125050339
 40
0.1739279692903642
 40
0.225275435550444
 40
0.2665359874219622
 40
0.3037742448268942
 40
0.3388583902671167
 40
0.3726397573712902
 40
0.4139182318237268
 40
0.6259837896725539
 40
0.8390271687235902
 40
0.9659476909920224
 40
0.9999999999999999
 40
0.9999999999999999
 40
0.9999999999999999
 40
0.9999999999999999
 10
292.6347583334468
 20
103.3063252734521
 30
0.0
 10
292.5941085327372
 20
103.3625089448937
 30
0.0
 10
292.4616055426619
 20
103.5456464838104
 30
0.0
 10
292.1517247286264
 20
103.7228295138103
 30
0.0
 10
291.7644558237576
 20
103.8457722146758
 30
0.0
 10
291.3946008090792
 20
103.8605773410428
 30
0.0
 10
291.0602836386006
 20
103.8099824958365
 30
0.0
 10
290.7858054712333
 20
103.7089349924888
 30
0.0
 10
290.5583002713504
 20
103.5742119499654
 30
0.0
 10
290.3522693417927
 20
103.3980365694606
 30
0.0
 10
290.007705462196
 20
102.9555556448898
 30
0.0
 10
289.8266299055213
 20
102.2688728163236
 30
0.0
 10
289.6769070930434
 20
101.0880411349875
 30
0.0
 10
289.6217023777369
 20
100.1834015519653
 30
0.0
 10
289.6151685009819
 20
99.76881344186015
 30
0.0
 10
289.6137863199733
 20
99.68111117356804
 30
0.0
  0
SPLINE
  5
5D
330
1F
100
AcDbEntity
  8
0
  6
Continuous
 62
     7
370
    15
100
AcDbSpline
210
0.0
220
0.0
230
1.0
 70
     8
 71
     3
 72
    19
 73
    15
 74
     0
 42
0.00000001
 43
0.00000001
 40
0.0
 40
0.0
 40
0.0
 40
0.0
 40
0.0102731225753251
 40
0.1295972930301111
 40
0.3268127112115211
 40
0.5525080828414816
 40
0.5858522867258555
 40
0.6185997313975234
 40
0.6529078503247427
 40
0.6960084123553032
 40
0.7523124272928984
 40
0.8223130453796055
 40
0.9054598060275716
 40
1.0
 40
1.0
 40
1.0
 40
1.0
 10
289.610925297024
 20
82.06276793950585
 30
0.0
 10
289.6112484594783
 20
82.03557052539648
 30
0.0
 10
289.6153252120894
 20
81.69247024404066
 30
0.0
 10
289.6551404390542
 20
80.87248098880181
 30
0.0
 10
289.7901055036987
 20
79.65003570076767
 30
0.0
 10
289.8805414752791
 20
79.00671927368919
 30
0.0
 10
290.2313856413897
 20
78.46658960020785
 30
0.0
 10
290.4006148486494
 20
78.27874444121011
 30
0.0
 10
290.6373378335432
 20
78.10226286575909
 30
0.0
 10
290.9509725123129
 20
77.94879884925149
 30
0.0
 10
291.3544466990338
 20
77.84701225666976
 30
0.0
 10
291.8402974893544
 20
77.87017176972533
 30
0.0
 10
292.370062027487
 20
78.08049978453066
 30
0.0
 10
292.6352909581142
 20
78.40231611033983
 30
0.0
 10
292.7764087717555
 20
78.57354183667687
 30
0.0
  0
LINE
  5
5E
330
1F
100
AcDbEntity
  8
0
  6
Continuous
 62
     7
370
    15
100
AcDbLine
 10
286.30361257
 20
94.7627743053
 30
0.0
 11
286.30361257
 21
86.1627628373
 31
0.0
  0
LINE
  5
5F
330
1F
100
AcDbEntity
  8
0
  6
Continuous
 62
     7
370
    15
100
AcDbLine
 10
286.9084209006
 20
83.6627652215
 30
0.0
 11
286.9084209006
 21
82.8630199003
 31
0.0
  0
LINE
  5
60
330
1F
100
AcDbEntity
  8
0
  6
Continuous
 62
     7
370
    15
100
AcDbLine
 10
286.9084209006
 20
98.8625158834
 30
0.0
 11
286.9084209006
 21
98.0627705621
 31
0.0
  0
ARC
  5
61
330
1F
100
AcDbEntity
  8
0
  6
Continuous
 62
     7
370
    15
100
AcDbCircle
 10
290.5084306757
 20
96.0556274189
 30
0.0
 40
3.807142857143189
100
AcDbArc
 50
77.9663271603
 51
90.0
  0
ARC
  5
62
330
1F
100
AcDbEntity
  8
0
  6
Continuous
 62
     7
370
    15
100
AcDbCircle
 10
290.5084306757
 20
96.0556274189
 30
0.0
 40
3.80714285714331
100
AcDbArc
 50
90.0
 51
125.3002484399
  0
LINE
  5
63
330
1F
100
AcDbEntity
  8
0
  6
Continuous
 62
     7
370
    15
100
AcDbLine
 10
288.3084445994
 20
99.1627742814
 30
0.0
 11
288.3084445994
 21
98.8627692031
 31
0.0
  0
LINE
  5
64
330
1F
100
AcDbEntity
  8
0
  6
Continuous
 62
     7
370
    15
100
AcDbLine
 10
288.408431391
 20
82.4627747106
 30
0.0
 11
288.408431391
 21
82.0627679395
 31
0.0
  0
ARC
  5
65
330
1F
100
AcDbEntity
  8
0
  6
Continuous
 62
     7
370
    15
100
AcDbCircle
 10
288.6084306757
 20
82.862770276
 30
0.0
 40
0.4000000000008299
100
AcDbArc
 50
270.0
 51
0.0
  0
LINE
  5
66
330
1F
100
AcDbEntity
  8
0
  6
Continuous
 62
     7
370
    15
100
AcDbLine
 10
289.0084415476
 20
98.0627705621
 30
0.0
 11
289.0084415476
 21
97.6127703952
 31
0.0
  0
LINE
  5
67
330
1F
100
AcDbEntity
  8
0
  6
Continuous
 62
     7
370
    15
100
AcDbLine
 10
289.0084415476
 20
84.1127653884
 30
0.0
 11
289.0084415476
 21
83.6627652215
 31
0.0
  0
SPLINE
  5
68
330
1F
100
AcDbEntity
  8
0
  6
Continuous
 62
     7
370
    15
100
AcDbSpline
210
0.0
220
0.0
230
1.0
 70
     8
 71
     3
 72
    11
 73
     7
 74
     0
 42
0.00000001
 43
0.00000001
 40
0.0
 40
0.0
 40
0.0
 40
0.0
 40
0.2262211787622261
 40
0.4679428809830629
 40
0.7254872347845625
 40
1.0
 40
1.0
 40
1.0
 40
1.0
 10
291.7289465467952
 20
469.0932055281975
 30
0.0
 10
291.7317673189692
 20
469.0703058223563
 30
0.0
 10
291.7376021407348
 20
469.0229373381868
 30
0.0
 10
291.7543688339773
 20
468.698154718935
 30
0.0
 10
291.7679638018964
 20
468.1976682358573
 30
0.0
 10
291.7685102922777
 20
467.7738398519885
 30
0.0
 10
291.7687922518275
 20
467.5551672744133
 30
0.0
  0
SPLINE
  5
69
330
1F
100
AcDbEntity
  8
0
  6
Continuous
 62
     7
370
    15
100
AcDbSpline
210
0.0
220
0.0
230
1.0
 70
     8
 71
     3
 72
    12
 73
     8
 74
     0
 42
0.00000001
 43
0.00000001
 40
0.0
 40
0.0
 40
0.0
 40
0.0
 40
0.2489457273592936
 40
0.482287834435525
 40
0.6998120397765791
 40
0.9035374370595866
 40
1.0
 40
1.0
 40
1.0
 40
1.0
 10
291.7687922518275
 20
453.9965410994866
 30
0.0
 10
291.7673664091081
 20
453.8592064775889
 30
0.0
 10
291.7646040937848
 20
453.5931452035487
 30
0.0
 10
291.7537028688205
 20
453.2573254992793
 30
0.0
 10
291.7511927372225
 20
453.0241629293255
 30
0.0
 10
291.7559817413664
 20
452.9040437778875
 30
0.0
 10
291.782412349121
 20
452.9027046449313
 30
0.0
 10
291.7909055750392
 20
452.9022743272164
 30
0.0
  0
LINE
  5
6A
330
1F
100
AcDbEntity
  8
0
  6
Continuous
 62
     7
370
    15
100
AcDbLine
 10
291.7679577868
 20
467.6051606702
 30
0.0
 11
291.7679577868
 21
453.9465328025
 31
0.0
  0
LINE
  5
6B
330
1F
100
AcDbEntity
  8
0
  6
Continuous
 62
     7
370
    15
100
AcDbLine
 10
290.2443140547
 20
471.5430607366
 30
0.0
 11
291.7316883605
 21
469.0629114675
 31
0.0
  0
LINE
  5
6C
330
1F
100
AcDbEntity
  8
0
  6
Continuous
 62
     7
370
    15
100
AcDbLine
 10
294.2084401648
 20
470.7660098838
 30
0.0
 11
292.8171485465
 21
473.0859865713
 31
0.0
  0
LINE
  5
6D
330
1F
100
AcDbEntity
  8
0
  6
Continuous
 62
     7
370
    15
100
AcDbLine
 10
291.7961805861
 20
452.7701904344
 30
0.0
 11
290.2270883124
 21
450.1537700462
 31
0.0
  0
LINE
  5
6E
330
1F
100
AcDbEntity
  8
0
  6
Continuous
 62
     7
370
    15
100
AcDbLine
 10
292.7999228041
 20
448.6108442115
 30
0.0
 11
294.2084401648
 21
450.9595205354
 31
0.0
  0
LINE
  5
6F
330
1F
100
AcDbEntity
  8
0
  6
Continuous
 62
     7
370
    15
100
AcDbLine
 10
292.8370266955
 20
473.0504771041
 30
0.0
 11
292.7470832865
 21
473.164262371
 31
0.0
  0
SPLINE
  5
70
330
1F
100
AcDbEntity
  8
0
  6
Continuous
 62
     7
370
    15
100
AcDbSpline
210
0.0
220
0.0
230
1.0
 70
     8
 71
     3
 72
    20
 73
    16
 74
     0
 42
0.00000001
 43
0.00000001
 40
0.0
 40
0.0
 40
0.0
 40
0.0
 40
0.0337781691654668
 40
0.1101040678073928
 40
0.1739277407163042
 40
0.2252751394961571
 40
0.2665359406927662
 40
0.3037734934064226
 40
0.3388575927394802
 40
0.3726389154485845
 40
0.413917335653343
 40
0.6259826148081467
 40
0.8390272759393366
 40
0.965945815504299
 40
1.0
 40
1.0
 40
1.0
 40
1.0
 10
292.6347583334468
 20
473.3063300418236
 30
0.0
 10
292.5941085384716
 20
473.3625136850983
 30
0.0
 10
292.4616055670886
 20
473.5456511322016
 30
0.0
 10
292.1517244938355
 20
473.7228354354421
 30
0.0
 10
291.7644564710658
 20
473.8457738035596
 30
0.0
 10
291.3945983421279
 20
473.8605907302773
 30
0.0
 10
291.0602886824615
 20
473.8099629384913
 30
0.0
 10
290.7858022463631
 20
473.70894458302
 30
0.0
 10
290.5583007226954
 20
473.5742153149674
 30
0.0
 10
290.3522691966813
 20
473.3980417894824
 30
0.0
 10
290.0077057359905
 20
472.9555595555937
 30
0.0
 10
289.8266285458828
 20
472.2688777690769
 30
0.0
 10
289.6769087430471
 20
471.0880363070245
 30
0.0
 10
289.6217017206044
 20
470.1833972041845
 30
0.0
 10
289.6151684498313
 20
469.7688083543319
 30
0.0
 10
289.6137863199733
 20
469.6811010407784
 30
0.0
  0
SPLINE
  5
71
330
1F
100
AcDbEntity
  8
0
  6
Continuous
 62
     7
370
    15
100
AcDbSpline
210
0.0
220
0.0
230
1.0
 70
     8
 71
     3
 72
    19
 73
    15
 74
     0
 42
0.00000001
 43
0.00000001
 40
0.0
 40
0.0
 40
0.0
 40
0.0
 40
0.0102731175316047
 40
0.1295972294026681
 40
0.3268125507586546
 40
0.5525090051855244
 40
0.5858518950629011
 40
0.6186006131482236
 40
0.6529075976622192
 40
0.6960081385320095
 40
0.7523125488982696
 40
0.8223131326172809
 40
0.905459852443285
 40
1.0
 40
1.0
 40
1.0
 40
1.0
 10
289.610925297024
 20
452.0627727078774
 30
0.0
 10
289.6112484606155
 20
452.0355752956906
 30
0.0
 10
289.6153252275727
 20
451.6924750385881
 30
0.0
 10
289.6551391215682
 20
450.8724835298449
 30
0.0
 10
289.7901143239669
 20
449.6500521873976
 30
0.0
 10
289.8805187700945
 20
449.0066838430376
 30
0.0
 10
290.2313936629095
 20
448.466595411373
 30
0.0
 10
290.4006051583459
 20
448.2787318136358
 30
0.0
 10
290.6373443789229
 20
448.1022711688495
 30
0.0
 10
290.9509727189413
 20
447.9488048285302
 30
0.0
 10
291.3544448789984
 20
447.84699624972
 30
0.0
 10
291.8402977831732
 20
447.8701636785122
 30
0.0
 10
292.3700619362483
 20
448.080489017776
 30
0.0
 10
292.6352909264284
 20
448.4023057573842
 30
0.0
 10
292.7764087717555
 20
448.5735317038872
 30
0.0
  0
LINE
  5
72
330
1F
100
AcDbEntity
  8
0
  6
Continuous
 62
     7
370
    15
100
AcDbLine
 10
286.30361257
 20
464.7627641725
 30
0.0
 11
286.30361257
 21
456.1627676057
 31
0.0
  0
LINE
  5
73
330
1F
100
AcDbEntity
  8
0
  6
Continuous
 62
     7
370
    15
100
AcDbLine
 10
286.9084209006
 20
453.6627699899
 30
0.0
 11
286.9084209006
 21
452.8630246686
 31
0.0
  0
LINE
  5
74
330
1F
100
AcDbEntity
  8
0
  6
Continuous
 62
     7
370
    15
100
AcDbLine
 10
286.9084209006
 20
468.8625206518
 30
0.0
 11
286.9084209006
 21
468.0627753305
 31
0.0
  0
LINE
  5
75
330
1F
100
AcDbEntity
  8
0
  6
Continuous
 62
     7
370
    15
100
AcDbLine
 10
288.3084445994
 20
469.1627641487
 30
0.0
 11
288.3084445994
 21
468.8627739715
 31
0.0
  0
ARC
  5
76
330
1F
100
AcDbEntity
  8
0
  6
Continuous
 62
     7
370
    15
100
AcDbCircle
 10
290.5084306757
 20
466.0556274189
 30
0.0
 40
3.807142857143203
100
AcDbArc
 50
77.9663271603
 51
90.0
  0
ARC
  5
77
330
1F
100
AcDbEntity
  8
0
  6
Continuous
 62
     7
370
    15
100
AcDbCircle
 10
290.5084306757
 20
466.0556274189
 30
0.0
 40
3.807142857143275
100
AcDbArc
 50
90.0
 51
125.3002484399
  0
LINE
  5
78
330
1F
100
AcDbEntity
  8
0
  6
Continuous
 62
     7
370
    15
100
AcDbLine
 10
288.408431391
 20
452.4627645778
 30
0.0
 11
288.408431391
 21
452.0627727079
 31
0.0
  0
ARC
  5
79
330
1F
100
AcDbEntity
  8
0
  6
Continuous
 62
     7
370
    15
100
AcDbCircle
 10
288.6084306757
 20
452.862770276
 30
0.0
 40
0.4000000000008299
100
AcDbArc
 50
270.0
 51
0.0
  0
LINE
  5
7A
330
1F
100
AcDbEntity
  8
0
  6
Continuous
 62
     7
370
    15
100
AcDbLine
 10
289.0084415476
 20
468.0627753305
 30
0.0
 11
289.0084415476
 21
467.6127751636
 31
0.0
  0
LINE
  5
7B
330
1F
100
AcDbEntity
  8
0
  6
Continuous
 62
     7
370
    15
100
AcDbLine
 10
289.0084415476
 20
454.1127701568
 30
0.0
 11
289.0084415476
 21
453.6627699899
 31
0.0
  0
LINE
  5
7C
330
1F
100
AcDbEntity
  8
0
  6
Continuous
 62
     7
370
    15
100
AcDbLine
 10
806.9084316294
 20
45.8627661037
 30
0.0
 11
806.9084316294
 21
80.8627774286
 31
0.0
  0
LINE
  5
7D
330
1F
100
AcDbEntity
  8
0
  6
Continuous
 62
     7
370
    15
100
AcDbLine
 10
806.9084316294
 20
470.8627631235
 30
0.0
 11
806.9084316294
 21
505.8627744483
 31
0.0
  0
LINE
  5
7E
330
1F
100
AcDbEntity
  8
0
  6
Continuous
 62
     7
370
    15
100
AcDbLine
 10
803.9084404509
 20
80.8627774286
 30
0.0
 11
803.9084404509
 21
81.862764554
 31
0.0
  0
LINE
  5
7F
330
1F
100
AcDbEntity
  8
0
  6
Continuous
 62
     7
370
    15
100
AcDbLine
 10
803.9084404509
 20
116.8627758788
 30
0.0
 11
803.9084404509
 21
117.8627630042
 31
0.0
  0
LINE
  5
80
330
1F
100
AcDbEntity
  8
0
  6
Continuous
 62
     7
370
    15
100
AcDbLine
 10
798.9084452193
 20
117.8627630042
 30
0.0
 11
798.9084452193
 21
116.8627758788
 31
0.0
  0
LINE
  5
81
330
1F
100
AcDbEntity
  8
0
  6
Continuous
 62
     7
370
    15
100
AcDbLine
 10
798.9084452193
 20
81.862764554
 30
0.0
 11
798.9084452193
 21
80.8627774286
 31
0.0
  0
LINE
  5
82
330
1F
100
AcDbEntity
  8
0
  6
Continuous
 62
     7
370
    15
100
AcDbLine
 10
798.9084452193
 20
470.8627631235
 30
0.0
 11
798.9084452193
 21
469.8627759981
 31
0.0
  0
LINE
  5
83
330
1F
100
AcDbEntity
  8
0
  6
Continuous
 62
     7
370
    15
100
AcDbLine
 10
798.9084452193
 20
434.8627646732
 30
0.0
 11
798.9084452193
 21
433.8627775478
 31
0.0
  0
LINE
  5
84
330
1F
100
AcDbEntity
  8
0
  6
Continuous
 62
     7
370
    15
100
AcDbLine
 10
803.9084404509
 20
433.8627775478
 30
0.0
 11
803.9084404509
 21
434.8627646732
 31
0.0
  0
LINE
  5
85
330
1F
100
AcDbEntity
  8
0
  6
Continuous
 62
     7
370
    15
100
AcDbLine
 10
803.9084404509
 20
469.8627759981
 30
0.0
 11
803.9084404509
 21
470.8627631235
 31
0.0
  0
LINE
  5
86
330
1F
100
AcDbEntity
  8
0
  6
Continuous
 62
     7
370
    15
100
AcDbLine
 10
287.1084242861
 20
97.6127703952
 30
0.0
 11
287.1084242861
 21
97.3199625778
 31
0.0
  0
LINE
  5
87
330
1F
100
AcDbEntity
  8
0
  6
Continuous
 62
     7
370
    15
100
AcDbLine
 10
287.1084242861
 20
84.405588107
 30
0.0
 11
287.1084242861
 21
84.1127653884
 31
0.0
  0
LINE
  5
88
330
1F
100
AcDbEntity
  8
0
  6
Continuous
 62
     7
370
    15
100
AcDbLine
 10
287.1084242861
 20
454.4055779743
 30
0.0
 11
287.1084242861
 21
454.1127701568
 31
0.0
  0
LINE
  5
89
330
1F
100
AcDbEntity
  8
0
  6
Continuous
 62
     7
370
    15
100
AcDbLine
 10
287.1084242861
 20
467.6127751636
 30
0.0
 11
287.1084242861
 21
467.319952445
 31
0.0
  0
LINE
  5
8A
330
1F
100
AcDbEntity
  8
0
  6
Continuous
 62
     7
370
    15
100
AcDbLine
 10
780.4084300797
 20
40.8627708721
 30
0.0
 11
780.4084300797
 21
510.86276968
 31
0.0
  0
LINE
  5
8B
330
1F
100
AcDbEntity
  8
0
  6
Continuous
 62
     7
370
    15
100
AcDbLine
 10
310.4084312718
 20
40.8627708721
 30
0.0
 11
780.4084300797
 21
40.8627708721
 31
0.0
  0
LINE
  5
8C
330
1F
100
AcDbEntity
  8
0
  6
Continuous
 62
     7
370
    15
100
AcDbLine
 10
310.4084312718
 20
40.8627708721
 30
0.0
 11
310.4084312718
 21
510.86276968
 31
0.0
  0
LINE
  5
8D
330
1F
100
AcDbEntity
  8
0
  6
Continuous
 62
     7
370
    15
100
AcDbLine
 10
310.4084312718
 20
510.86276968
 30
0.0
 11
780.4084300797
 21
510.86276968
 31
0.0
  0
LINE
  5
8E
330
1F
100
AcDbEntity
  8
0
  6
Continuous
 62
     7
370
    15
100
AcDbLine
 10
315.4084265034
 20
505.8627744483
 30
0.0
 11
775.4084348481
 21
505.8627744483
 31
0.0
  0
LINE
  5
8F
330
1F
100
AcDbEntity
  8
0
  6
Continuous
 62
     7
370
    15
100
AcDbLine
 10
315.4084265034
 20
45.8627661037
 30
0.0
 11
315.4084265034
 21
505.8627744483
 31
0.0
  0
LINE
  5
90
330
1F
100
AcDbEntity
  8
0
  6
Continuous
 62
     7
370
    15
100
AcDbLine
 10
775.4084348481
 20
45.8627661037
 30
0.0
 11
315.4084265034
 21
45.8627661037
 31
0.0
  0
LINE
  5
91
330
1F
100
AcDbEntity
  8
0
  6
Continuous
 62
     7
370
    15
100
AcDbLine
 10
775.4084348481
 20
45.8627661037
 30
0.0
 11
775.4084348481
 21
505.8627744483
 31
0.0
  0
LINE
  5
92
330
1F
100
AcDbEntity
  8
0
  6
Continuous
 62
     7
370
    15
100
AcDbLine
 10
295.4084306757
 20
40.8627708721
 30
0.0
 11
310.4084312718
 21
40.8627708721
 31
0.0
  0
LINE
  5
93
330
1F
100
AcDbEntity
  8
0
  6
Continuous
 62
     7
370
    15
100
AcDbLine
 10
295.4084306757
 20
80.8752795028
 30
0.0
 11
295.4084306757
 21
40.8627708721
 31
0.0
  0
LINE
  5
94
330
1F
100
AcDbEntity
  8
0
  6
Continuous
 62
     7
370
    15
100
AcDbLine
 10
295.4084306757
 20
100.8502562808
 30
0.0
 11
295.4084306757
 21
450.8752842712
 31
0.0
  0
LINE
  5
95
330
1F
100
AcDbEntity
  8
0
  6
Continuous
 62
     7
370
    15
100
AcDbLine
 10
295.4084306757
 20
470.8502610492
 30
0.0
 11
295.4084306757
 21
510.86276968
 31
0.0
  0
LINE
  5
96
330
1F
100
AcDbEntity
  8
0
  6
Continuous
 62
     7
370
    15
100
AcDbLine
 10
295.4084306757
 20
510.86276968
 30
0.0
 11
310.4084312718
 21
510.86276968
 31
0.0
  0
ARC
  5
97
330
1F
100
AcDbEntity
  8
0
  6
Continuous
 62
     7
370
    15
100
AcDbCircle
 10
310.4084306757
 20
40.862770276
 30
0.0
 40
15.00000000000001
100
AcDbArc
 50
180.0
 51
270.0
  0
LINE
  5
98
330
1F
100
AcDbEntity
  8
0
  6
Continuous
 62
     7
370
    15
100
AcDbLine
 10
310.4084312718
 20
25.862770276
 30
0.0
 11
310.4084312718
 21
40.8627708721
 31
0.0
  0
LINE
  5
99
330
1F
100
AcDbEntity
  8
0
  6
Continuous
 62
     7
370
    15
100
AcDbLine
 10
310.4084312718
 20
25.862770276
 30
0.0
 11
780.4084300797
 21
25.862770276
 31
0.0
  0
LINE
  5
9A
330
1F
100
AcDbEntity
  8
0
  6
Continuous
 62
     7
370
    15
100
AcDbLine
 10
780.4084300797
 20
40.8627708721
 30
0.0
 11
780.4084300797
 21
25.862770276
 31
0.0
  0
LINE
  5
9B
330
1F
100
AcDbEntity
  8
0
  6
Continuous
 62
     7
370
    15
100
AcDbLine
 10
310.4084312718
 20
510.86276968
 30
0.0
 11
310.4084312718
 21
525.862770276
 31
0.0
  0
LINE
  5
9C
330
1F
100
AcDbEntity
  8
0
  6
Continuous
 62
     7
370
    15
100
AcDbLine
 10
310.4084312718
 20
525.862770276
 30
0.0
 11
780.4084300797
 21
525.862770276
 31
0.0
  0
LINE
  5
9D
330
1F
100
AcDbEntity
  8
0
  6
Continuous
 62
     7
370
    15
100
AcDbLine
 10
780.4084300797
 20
525.862770276
 30
0.0
 11
780.4084300797
 21
510.86276968
 31
0.0
  0
ARC
  5
9E
330
1F
100
AcDbEntity
  8
0
  6
Continuous
 62
     7
370
    15
100
AcDbCircle
 10
310.4084306757
 20
510.862770276
 30
0.0
 40
15.0
100
AcDbArc
 50
90.0
 51
180.0
  0
LINE
  5
9F
330
1F
100
AcDbEntity
  8
0
  6
Continuous
 62
     7
370
    15
100
AcDbLine
 10
795.4084306757
 20
510.86276968
 30
0.0
 11
780.4084300797
 21
510.86276968
 31
0.0
  0
LINE
  5
A0
330
1F
100
AcDbEntity
  8
0
  6
Continuous
 62
     7
370
    15
100
AcDbLine
 10
795.4084306757
 20
40.8627708721
 30
0.0
 11
795.4084306757
 21
510.86276968
 31
0.0
  0
LINE
  5
A1
330
1F
100
AcDbEntity
  8
0
  6
Continuous
 62
     7
370
    15
100
AcDbLine
 10
780.4084300797
 20
40.8627708721
 30
0.0
 11
795.4084306757
 21
40.8627708721
 31
0.0
  0
ARC
  5
A2
330
1F
100
AcDbEntity
  8
0
  6
Continuous
 62
     7
370
    15
100
AcDbCircle
 10
780.4084306757
 20
40.862770276
 30
0.0
 40
15.00000000000011
100
AcDbArc
 50
270.0
 51
0.0
  0
ARC
  5
A3
330
1F
100
AcDbEntity
  8
0
  6
Continuous
 62
     7
370
    15
100
AcDbCircle
 10
780.4084306757
 20
510.862770276
 30
0.0
 40
15.00000000000006
100
AcDbArc
 50
0.0
 51
90.0
  0
LINE
  5
A4
330
1F
100
AcDbEntity
  8
0
  6
Continuous
 62
     7
370
    15
100
AcDbLine
 10
294.2084401648
 20
101.8972565698
 30
0.0
 11
295.4084306757
 21
101.8972565698
 31
0.0
  0
LINE
  5
A5
330
1F
100
AcDbEntity
  8
0
  6
Continuous
 62
     7
370
    15
100
AcDbLine
 10
295.4084306757
 20
100.8502562808
 30
0.0
 11
295.4084306757
 21
80.8752795028
 31
0.0
  0
LINE
  5
A6
330
1F
100
AcDbEntity
  8
0
  6
Continuous
 62
     7
370
    15
100
AcDbLine
 10
294.2084401648
 20
79.828294115
 30
0.0
 11
295.4084306757
 21
79.828294115
 31
0.0
  0
LINE
  5
A7
330
1F
100
AcDbEntity
  8
0
  6
Continuous
 62
     7
370
    15
100
AcDbLine
 10
294.2084401648
 20
79.828294115
 30
0.0
 11
294.2084401648
 21
101.8972565698
 31
0.0
  0
LINE
  5
A8
330
1F
100
AcDbEntity
  8
0
  6
Continuous
 62
     7
370
    15
100
AcDbLine
 10
294.2084401648
 20
471.897246437
 30
0.0
 11
295.4084306757
 21
471.897246437
 31
0.0
  0
LINE
  5
A9
330
1F
100
AcDbEntity
  8
0
  6
Continuous
 62
     7
370
    15
100
AcDbLine
 10
294.2084401648
 20
449.8282839822
 30
0.0
 11
295.4084306757
 21
449.8282839822
 31
0.0
  0
LINE
  5
AA
330
1F
100
AcDbEntity
  8
0
  6
Continuous
 62
     7
370
    15
100
AcDbLine
 10
294.2084401648
 20
449.8282839822
 30
0.0
 11
294.2084401648
 21
471.897246437
 31
0.0
  0
LINE
  5
AB
330
1F
100
AcDbEntity
  8
0
  6
Continuous
 62
     7
370
    15
100
AcDbLine
 10
295.4084306757
 20
470.8502610492
 30
0.0
 11
295.4084306757
 21
450.8752842712
 31
0.0
  0
LINE
  5
AC
330
1F
100
AcDbEntity
  8
0
  6
Continuous
 62
     7
370
    15
100
AcDbLine
 10
294.1084235709
 20
95.8627631235
 30
0.0
 11
294.1084235709
 21
98.8627692031
 31
0.0
  0
LINE
  5
AD
330
1F
100
AcDbEntity
  8
0
  6
Continuous
 62
     7
370
    15
100
AcDbLine
 10
294.1084235709
 20
92.8627719449
 30
0.0
 11
294.1084235709
 21
95.8627631235
 31
0.0
  0
LINE
  5
AE
330
1F
100
AcDbEntity
  8
0
  6
Continuous
 62
     7
370
    15
100
AcDbLine
 10
294.1084235709
 20
82.8627665805
 30
0.0
 11
294.1084235709
 21
88.8627638387
 31
0.0
  0
LINE
  5
AF
330
1F
100
AcDbEntity
  8
0
  6
Continuous
 62
     7
370
    15
100
AcDbLine
 10
294.1084235709
 20
452.8627713489
 30
0.0
 11
294.1084235709
 21
458.8627686071
 31
0.0
  0
LINE
  5
B0
330
1F
100
AcDbEntity
  8
0
  6
Continuous
 62
     7
370
    15
100
AcDbLine
 10
294.1084235709
 20
465.8627678918
 30
0.0
 11
294.1084235709
 21
468.8627739715
 31
0.0
  0
LINE
  5
B1
330
1F
100
AcDbEntity
  8
0
  6
Continuous
 62
     7
370
    15
100
AcDbLine
 10
294.1084235709
 20
462.8627767133
 30
0.0
 11
294.1084235709
 21
465.8627678918
 31
0.0
  0
LINE
  5
B2
330
1F
100
AcDbEntity
  8
0
  6
Continuous
 62
     7
370
    15
100
AcDbLine
 10
294.2084401648
 20
101.8972565698
 30
0.0
 11
294.2084401648
 21
102.3627688455
 31
0.0
  0
LINE
  5
B3
330
1F
100
AcDbEntity
  8
0
  6
Continuous
 62
     7
370
    15
100
AcDbLine
 10
294.2084401648
 20
471.897246437
 30
0.0
 11
294.2084401648
 21
472.3627736139
 31
0.0
  0
LINE
  5
B4
330
1F
100
AcDbEntity
  8
0
  6
Continuous
 62
     7
370
    15
100
AcDbLine
 10
294.2084401648
 20
79.3627669381
 30
0.0
 11
294.2084401648
 21
79.828294115
 31
0.0
  0
LINE
  5
B5
330
1F
100
AcDbEntity
  8
0
  6
Continuous
 62
     7
370
    15
100
AcDbLine
 10
294.2084401648
 20
449.3627717065
 30
0.0
 11
294.2084401648
 21
449.8282839822
 31
0.0
  0
LINE
  5
B6
330
1F
100
AcDbEntity
  8
0
  6
Continuous
 62
     7
370
    15
100
AcDbLine
 10
796.3098019164
 20
81.862764554
 30
0.0
 11
806.9084316294
 21
81.862764554
 31
0.0
  0
LINE
  5
B7
330
1F
100
AcDbEntity
  8
0
  6
Continuous
 62
     7
370
    15
100
AcDbLine
 10
796.3098019164
 20
116.8627758788
 30
0.0
 11
796.3098019164
 21
81.862764554
 31
0.0
  0
LINE
  5
B8
330
1F
100
AcDbEntity
  8
0
  6
Continuous
 62
     7
370
    15
100
AcDbLine
 10
796.3098019164
 20
116.8627758788
 30
0.0
 11
806.9084316294
 21
116.8627758788
 31
0.0
  0
LINE
  5
B9
330
1F
100
AcDbEntity
  8
0
  6
Continuous
 62
     7
370
    15
100
AcDbLine
 10
796.3098019164
 20
434.8627646732
 30
0.0
 11
806.9084316294
 21
434.8627646732
 31
0.0
  0
LINE
  5
BA
330
1F
100
AcDbEntity
  8
0
  6
Continuous
 62
     7
370
    15
100
AcDbLine
 10
796.3098019164
 20
469.8627759981
 30
0.0
 11
796.3098019164
 21
434.8627646732
 31
0.0
  0
LINE
  5
BB
330
1F
100
AcDbEntity
  8
0
  6
Continuous
 62
     7
370
    15
100
AcDbLine
 10
796.3098019164
 20
469.8627759981
 30
0.0
 11
806.9084316294
 21
469.8627759981
 31
0.0
  0
LINE
  5
BC
330
1F
100
AcDbEntity
  8
0
  6
Continuous
 62
     7
370
    15
100
AcDbLine
 10
795.8462863963
 20
116.8627758788
 30
0.0
 11
795.8462863963
 21
81.862764554
 31
0.0
  0
LINE
  5
BD
330
1F
100
AcDbEntity
  8
0
  6
Continuous
 62
     7
370
    15
100
AcDbLine
 10
795.8462863963
 20
81.862764554
 30
0.0
 11
796.3098019164
 21
81.862764554
 31
0.0
  0
LINE
  5
BE
330
1F
100
AcDbEntity
  8
0
  6
Continuous
 62
     7
370
    15
100
AcDbLine
 10
795.8462863963
 20
116.8627758788
 30
0.0
 11
796.3098019164
 21
116.8627758788
 31
0.0
  0
LINE
  5
BF
330
1F
100
AcDbEntity
  8
0
  6
Continuous
 62
     7
370
    15
100
AcDbLine
 10
795.8462863963
 20
469.8627759981
 30
0.0
 11
795.8462863963
 21
434.8627646732
 31
0.0
  0
LINE
  5
C0
330
1F
100
AcDbEntity
  8
0
  6
Continuous
 62
     7
370
    15
100
AcDbLine
 10
795.8462863963
 20
469.8627759981
 30
0.0
 11
796.3098019164
 21
469.8627759981
 31
0.0
  0
LINE
  5
C1
330
1F
100
AcDbEntity
  8
0
  6
Continuous
 62
     7
370
    15
100
AcDbLine
 10
795.8462863963
 20
434.8627646732
 30
0.0
 11
796.3098019164
 21
434.8627646732
 31
0.0
  0
LINE
  5
C2
330
1F
100
AcDbEntity
  8
0
  6
Continuous
 62
     7
370
    15
100
AcDbLine
 10
795.4084306757
 20
81.862764554
 30
0.0
 11
795.8462863963
 21
81.862764554
 31
0.0
  0
LINE
  5
C3
330
1F
100
AcDbEntity
  8
0
  6
Continuous
 62
     7
370
    15
100
AcDbLine
 10
795.4084306757
 20
116.8627758788
 30
0.0
 11
795.8462863963
 21
116.8627758788
 31
0.0
  0
LINE
  5
C4
330
1F
100
AcDbEntity
  8
0
  6
Continuous
 62
     7
370
    15
100
AcDbLine
 10
795.4084306757
 20
469.8627759981
 30
0.0
 11
795.8462863963
 21
469.8627759981
 31
0.0
  0
LINE
  5
C5
330
1F
100
AcDbEntity
  8
0
  6
Continuous
 62
     7
370
    15
100
AcDbLine
 10
795.4084306757
 20
434.8627646732
 30
0.0
 11
795.8462863963
 21
434.8627646732
 31
0.0
  0
LINE
  5
C6
330
1F
100
AcDbEntity
  8
0
  6
Continuous
 62
     7
370
    15
100
AcDbLine
 10
287.1389418643
 20
96.1627682018
 30
0.0
 11
286.4084273379
 21
96.1627682018
 31
0.0
  0
LINE
  5
C7
330
1F
100
AcDbEntity
  8
0
  6
Continuous
 62
     7
370
    15
100
AcDbLine
 10
287.1389418643
 20
96.1627682018
 30
0.0
 11
287.1389418643
 21
85.5627675819
 31
0.0
  0
LINE
  5
C8
330
1F
100
AcDbEntity
  8
0
  6
Continuous
 62
     7
370
    15
100
AcDbLine
 10
286.4084273379
 20
85.5627675819
 30
0.0
 11
287.1389418643
 21
85.5627675819
 31
0.0
  0
LINE
  5
C9
330
1F
100
AcDbEntity
  8
0
  6
Continuous
 62
     7
370
    15
100
AcDbLine
 10
286.4084273379
 20
96.1627682018
 30
0.0
 11
286.4084273379
 21
85.5627675819
 31
0.0
  0
ARC
  5
CA
330
1F
100
AcDbEntity
  8
0
  6
Continuous
 62
     7
370
    15
100
AcDbCircle
 10
288.231107414
 20
96.2739443333
 30
0.0
 40
1.097809509998412
100
AcDbArc
 50
97.3335515103
 51
185.8123579011
  0
LINE
  5
CB
330
1F
100
AcDbEntity
  8
0
  6
Continuous
 62
     7
370
    15
100
AcDbLine
 10
288.0909770529
 20
97.3627736139
 30
0.0
 11
291.6344135802
 21
97.3627736139
 31
0.0
  0
LINE
  5
CC
330
1F
100
AcDbEntity
  8
0
  6
Continuous
 62
     7
370
    15
100
AcDbLine
 10
291.6344135802
 20
97.3627736139
 30
0.0
 11
291.6344135802
 21
84.3627770709
 31
0.0
  0
LINE
  5
CD
330
1F
100
AcDbEntity
  8
0
  6
Continuous
 62
     7
370
    15
100
AcDbLine
 10
291.6344135802
 20
84.3627770709
 30
0.0
 11
288.0909770529
 21
84.3627770709
 31
0.0
  0
ARC
  5
CE
330
1F
100
AcDbEntity
  8
0
  6
Continuous
 62
     7
370
    15
100
AcDbCircle
 10
288.2310900115
 20
85.4515911645
 30
0.0
 40
1.097792225978435
100
AcDbArc
 50
174.1875352754
 51
262.6672481484
  0
LINE
  5
CF
330
1F
100
AcDbEntity
  8
0
  6
Continuous
 62
     7
370
    15
100
AcDbLine
 10
288.0909770529
 20
84.3627770709
 30
0.0
 11
287.3604625266
 21
84.3627770709
 31
0.0
  0
ARC
  5
D0
330
1F
100
AcDbEntity
  8
0
  6
Continuous
 62
     7
370
    15
100
AcDbCircle
 10
287.5005754852
 20
85.4515911645
 30
0.0
 40
1.097792225978435
100
AcDbArc
 50
174.1875352754
 51
262.6672481484
  0
LINE
  5
D1
330
1F
100
AcDbEntity
  8
0
  6
Continuous
 62
     7
370
    15
100
AcDbLine
 10
287.3604625266
 20
97.3627736139
 30
0.0
 11
288.0909770529
 21
97.3627736139
 31
0.0
  0
ARC
  5
D2
330
1F
100
AcDbEntity
  8
0
  6
Continuous
 62
     7
370
    15
100
AcDbCircle
 10
287.5005928876
 20
96.2739443333
 30
0.0
 40
1.097809509998412
100
AcDbArc
 50
97.3335515103
 51
185.8123579011
  0
ARC
  5
D3
330
1F
100
AcDbEntity
  8
0
  6
Continuous
 62
     7
370
    15
100
AcDbCircle
 10
288.2310900115
 20
466.2739493876
 30
0.0
 40
1.09779222597843
100
AcDbArc
 50
97.3327518516
 51
185.8124647246
  0
LINE
  5
D4
330
1F
100
AcDbEntity
  8
0
  6
Continuous
 62
     7
370
    15
100
AcDbLine
 10
288.0909770529
 20
467.3627634811
 30
0.0
 11
291.6344135802
 21
467.3627634811
 31
0.0
  0
LINE
  5
D5
330
1F
100
AcDbEntity
  8
0
  6
Continuous
 62
     7
370
    15
100
AcDbLine
 10
291.6344135802
 20
467.3627634811
 30
0.0
 11
291.6344135802
 21
454.3627669381
 31
0.0
  0
LINE
  5
D6
330
1F
100
AcDbEntity
  8
0
  6
Continuous
 62
     7
370
    15
100
AcDbLine
 10
291.6344135802
 20
454.3627669381
 30
0.0
 11
288.0909770529
 21
454.3627669381
 31
0.0
  0
ARC
  5
D7
330
1F
100
AcDbEntity
  8
0
  6
Continuous
 62
     7
370
    15
100
AcDbCircle
 10
288.231107414
 20
455.4515962187
 30
0.0
 40
1.097809509998419
100
AcDbArc
 50
174.1876420989
 51
262.6664484898
  0
LINE
  5
D8
330
1F
100
AcDbEntity
  8
0
  6
Continuous
 62
     7
370
    15
100
AcDbLine
 10
287.1389418643
 20
466.1627729701
 30
0.0
 11
287.1389418643
 21
455.5627723502
 31
0.0
  0
LINE
  5
D9
330
1F
100
AcDbEntity
  8
0
  6
Continuous
 62
     7
370
    15
100
AcDbLine
 10
288.0909770529
 20
454.3627669381
 30
0.0
 11
287.3604625266
 21
454.3627669381
 31
0.0
  0
ARC
  5
DA
330
1F
100
AcDbEntity
  8
0
  6
Continuous
 62
     7
370
    15
100
AcDbCircle
 10
287.5005928876
 20
455.4515962187
 30
0.0
 40
1.097809509998419
100
AcDbArc
 50
174.1876420989
 51
262.6664484898
  0
LINE
  5
DB
330
1F
100
AcDbEntity
  8
0
  6
Continuous
 62
     7
370
    15
100
AcDbLine
 10
286.4084273379
 20
455.5627723502
 30
0.0
 11
287.1389418643
 21
455.5627723502
 31
0.0
  0
LINE
  5
DC
330
1F
100
AcDbEntity
  8
0
  6
Continuous
 62
     7
370
    15
100
AcDbLine
 10
287.1389418643
 20
466.1627729701
 30
0.0
 11
286.4084273379
 21
466.1627729701
 31
0.0
  0
LINE
  5
DD
330
1F
100
AcDbEntity
  8
0
  6
Continuous
 62
     7
370
    15
100
AcDbLine
 10
286.4084273379
 20
466.1627729701
 30
0.0
 11
286.4084273379
 21
455.5627723502
 31
0.0
  0
LINE
  5
DE
330
1F
100
AcDbEntity
  8
0
  6
Continuous
 62
     7
370
    15
100
AcDbLine
 10
287.3604625266
 20
467.3627634811
 30
0.0
 11
288.0909770529
 21
467.3627634811
 31
0.0
  0
ARC
  5
DF
330
1F
100
AcDbEntity
  8
0
  6
Continuous
 62
     7
370
    15
100
AcDbCircle
 10
287.5005754852
 20
466.2739493876
 30
0.0
 40
1.09779222597843
100
AcDbArc
 50
97.3327518516
 51
185.8124647246
  0
LINE
  5
E0
330
1F
100
AcDbEntity
  8
0
  6
Continuous
 62
     7
370
    15
100
AcDbLine
 10
291.7343705695
 20
97.3627736139
 30
0.0
 11
291.6344135802
 21
97.3627736139
 31
0.0
  0
LINE
  5
E1
330
1F
100
AcDbEntity
  8
0
  6
Continuous
 62
     7
370
    15
100
AcDbLine
 10
291.6344135802
 20
84.3627770709
 30
0.0
 11
291.7679577868
 21
84.3627770709
 31
0.0
  0
LINE
  5
E2
330
1F
100
AcDbEntity
  8
0
  6
Continuous
 62
     7
370
    15
100
AcDbLine
 10
291.7343705695
 20
467.3627634811
 30
0.0
 11
291.6344135802
 21
467.3627634811
 31
0.0
  0
LINE
  5
E3
330
1F
100
AcDbEntity
  8
0
  6
Continuous
 62
     7
370
    15
100
AcDbLine
 10
291.6344135802
 20
454.3627669381
 30
0.0
 11
291.7679577868
 21
454.3627669381
 31
0.0
  0
SPLINE
  5
E4
330
1F
100
AcDbEntity
  8
0
  6
Continuous
 62
     7
370
    15
100
AcDbSpline
210
0.0
220
0.0
230
1.0
 70
    24
 71
     3
 72
    12
 73
     8
 74
     0
 42
0.00000001
 43
0.00000001
 40
0.0
 40
0.0
 40
0.0
 40
0.0
 40
0.2185036703395748
 40
0.437006665326243
 40
0.6555196009484969
 40
0.8740249421684808
 40
0.9999999999999999
 40
0.9999999999999999
 40
0.9999999999999999
 40
0.9999999999999999
 10
293.5677796404383
 20
97.5551625060418
 30
0.0
 10
293.3710600276265
 20
97.55516250604174
 30
0.0
 10
292.9776214100255
 20
97.55516250604174
 30
0.0
 10
292.4168601662461
 20
97.55516250604174
 30
0.0
 10
291.9991838845319
 20
97.55516250604182
 30
0.0
 10
291.7726082574335
 20
97.55516250604182
 30
0.0
 10
291.7901522505411
 20
97.55516250604174
 30
0.0
 10
291.7965680162928
 20
97.5551625060418
 30
0.0
  0
SPLINE
  5
E5
330
1F
100
AcDbEntity
  8
0
  6
Continuous
 62
     7
370
    15
100
AcDbSpline
210
0.0
220
0.0
230
1.0
 70
    24
 71
     3
 72
     9
 73
     5
 74
     0
 42
0.00000001
 43
0.00000001
 40
0.0
 40
0.0
 40
0.0
 40
0.0
 40
0.002514167495053
 40
1.0
 40
1.0
 40
1.0
 40
1.0
 10
294.1084235708735
 20
97.5551625060418
 30
0.0
 10
294.108076009938
 20
97.5551625060418
 30
0.0
 10
293.9698350469519
 20
97.55516250603716
 30
0.0
 10
293.7685543169607
 20
97.5551625060395
 30
0.0
 10
293.5677796404383
 20
97.55516250604177
 30
0.0
  0
SPLINE
  5
E6
330
1F
100
AcDbEntity
  8
0
  6
Continuous
 62
     7
370
    15
100
AcDbSpline
210
0.0
220
0.0
230
1.0
 70
     8
 71
     3
 72
    13
 73
     9
 74
     0
 42
0.00000001
 43
0.00000001
 40
0.0
 40
0.0
 40
0.0
 40
0.0
 40
0.1877395694049195
 40
0.3754720100250568
 40
0.5632106075103803
 40
0.7509495523755451
 40
0.9386874212068979
 40
1.0
 40
1.0
 40
1.0
 40
1.0
 10
293.274494985821
 20
101.1700053977349
 30
0.0
 10
293.0777985234127
 20
101.1673025134598
 30
0.0
 10
292.684413067489
 20
101.1618968475425
 30
0.0
 10
292.1513923321158
 20
100.8713756528737
 30
0.0
 10
291.7608702795712
 20
100.4164727687963
 30
0.0
 10
291.5879269570569
 20
99.85478672277014
 30
0.0
 10
291.5912092360269
 20
99.38159589826678
 30
0.0
 10
291.718524596792
 20
99.16015800183933
 30
0.0
 10
291.7498677771113
 20
99.10564322942281
 30
0.0
  0
SPLINE
  5
E7
330
1F
100
AcDbEntity
  8
0
  6
Continuous
 62
     7
370
    15
100
AcDbSpline
210
0.0
220
0.0
230
1.0
 70
     8
 71
     3
 72
    10
 73
     6
 74
     0
 42
0.00000001
 43
0.00000001
 40
0.0
 40
0.0
 40
0.0
 40
0.0
 40
0.209341314567853
 40
0.6046782396237235
 40
1.0
 40
1.0
 40
1.0
 40
1.0
 10
294.4116622011683
 20
100.3638823794701
 30
0.0
 10
294.3699665659524
 20
100.456951986358
 30
0.0
 10
294.2495295497121
 20
100.7257817019428
 30
0.0
 10
293.8427831938045
 20
101.0423986903564
 30
0.0
 10
293.4639219663207
 20
101.1274703724949
 30
0.0
 10
293.274494985821
 20
101.1700053977349
 30
0.0
  0
SPLINE
  5
E8
330
1F
100
AcDbEntity
  8
0
  6
Continuous
 62
     7
370
    15
100
AcDbSpline
210
0.0
220
0.0
230
1.0
 70
     8
 71
     3
 72
    13
 73
     9
 74
     0
 42
0.00000001
 43
0.00000001
 40
0.0
 40
0.0
 40
0.0
 40
0.0
 40
0.1768667616314649
 40
0.3537288912869185
 40
0.530594737286841
 40
0.7074560884089673
 40
0.8843220279613943
 40
1.0
 40
1.0
 40
1.0
 40
1.0
 10
293.2572692434809
 20
80.5268158482888
 30
0.0
 10
293.0605966287049
 20
80.52950804812198
 30
0.0
 10
292.6672565498257
 20
80.53489237728215
 30
0.0
 10
292.1338763520084
 20
80.82557663924989
 30
0.0
 10
291.7447504315817
 20
81.27993247460061
 30
0.0
 10
291.5665855841063
 20
81.84362867206838
 30
0.0
 10
291.5875528385856
 20
82.37676829581625
 30
0.0
 10
291.7536348804973
 20
82.65004249784091
 30
0.0
 10
291.8193071882746
 20
82.75810082429436
 30
0.0
  0
SPLINE
  5
E9
330
1F
100
AcDbEntity
  8
0
  6
Continuous
 62
     7
370
    15
100
AcDbSpline
210
0.0
220
0.0
230
1.0
 70
     8
 71
     3
 72
    10
 73
     6
 74
     0
 42
0.00000001
 43
0.00000001
 40
0.0
 40
0.0
 40
0.0
 40
0.0
 40
0.0588229449265306
 40
0.529419407525824
 40
1.0
 40
1.0
 40
1.0
 40
1.0
 10
294.2873865168116
 20
81.12672169679189
 30
0.0
 10
294.2767520613559
 20
81.10524066709979
 30
0.0
 10
294.181039629519
 20
80.91190668787033
 30
0.0
 10
293.820132553902
 20
80.65776510731106
 30
0.0
 10
293.4448882378317
 20
80.5704651106121
 30
0.0
 10
293.2572692434809
 20
80.5268158482888
 30
0.0
  0
SPLINE
  5
EA
330
1F
100
AcDbEntity
  8
0
  6
Continuous
 62
     7
370
    15
100
AcDbSpline
210
0.0
220
0.0
230
1.0
 70
    24
 71
     3
 72
    12
 73
     8
 74
     0
 42
0.00000001
 43
0.00000001
 40
0.0
 40
0.0
 40
0.0
 40
0.0
 40
0.2193530192757135
 40
0.438705360573346
 40
0.6580676811469597
 40
0.8774223777979869
 40
1.0
 40
1.0
 40
1.0
 40
1.0
 10
293.5677796404383
 20
83.99653633111504
 30
0.0
 10
293.3710647137444
 20
83.99653633111504
 30
0.0
 10
292.9776354683645
 20
83.99653633111507
 30
0.0
 10
292.4168039320274
 20
83.99653633111501
 30
0.0
 10
291.9993947704921
 20
83.99653633111504
 30
0.0
 10
291.7735260777959
 20
83.99653633111501
 30
0.0
 10
291.7905314495164
 20
83.99653633111501
 30
0.0
 10
291.7966276209376
 20
83.99653633111501
 30
0.0
  0
SPLINE
  5
EB
330
1F
100
AcDbEntity
  8
0
  6
Continuous
 62
     7
370
    15
100
AcDbSpline
210
0.0
220
0.0
230
1.0
 70
    24
 71
     3
 72
     9
 73
     5
 74
     0
 42
0.00000001
 43
0.00000001
 40
0.0
 40
0.0
 40
0.0
 40
0.0
 40
0.002514167495053
 40
1.0
 40
1.0
 40
1.0
 40
1.0
 10
294.1084235708735
 20
83.99653633111504
 30
0.0
 10
294.108076009938
 20
83.99653633111504
 30
0.0
 10
293.9698350469519
 20
83.99653633110931
 30
0.0
 10
293.7685543169607
 20
83.99653633111215
 30
0.0
 10
293.5677796404383
 20
83.99653633111501
 30
0.0
  0
SPLINE
  5
EC
330
1F
100
AcDbEntity
  8
0
  6
Continuous
 62
     7
370
    15
100
AcDbSpline
210
0.0
220
0.0
230
1.0
 70
     8
 71
     3
 72
    13
 73
     9
 74
     0
 42
0.00000001
 43
0.00000001
 40
0.0
 40
0.0
 40
0.0
 40
0.0
 40
0.1768578919595507
 40
0.3537278527677662
 40
0.5305876148749502
 40
0.707452180799908
 40
0.8843176046508978
 40
1.0
 40
1.0
 40
1.0
 40
1.0
 10
291.7054027121089
 20
103.7864257859567
 30
0.0
 10
291.5087419726006
 20
103.7837298453921
 30
0.0
 10
291.1154070733816
 20
103.7783377802909
 30
0.0
 10
290.5820106436761
 20
103.4876856131119
 30
0.0
 10
290.1929246196109
 20
103.0332894394163
 30
0.0
 10
290.0147108260559
 20
102.4696246591646
 30
0.0
 10
290.0356792784563
 20
101.9364614970956
 30
0.0
 10
290.201786543492
 20
101.6631977075371
 30
0.0
 10
290.267470459225
 20
101.5551408099511
 30
0.0
  0
SPLINE
  5
ED
330
1F
100
AcDbEntity
  8
0
  6
Continuous
 62
     7
370
    15
100
AcDbSpline
210
0.0
220
0.0
230
1.0
 70
     8
 71
     3
 72
    10
 73
     6
 74
     0
 42
0.00000001
 43
0.00000001
 40
0.0
 40
0.0
 40
0.0
 40
0.0
 40
0.1474531881336079
 40
0.5737191927348994
 40
1.0
 40
1.0
 40
1.0
 40
1.0
 10
292.7939921419642
 20
103.0738969611504
 30
0.0
 10
292.7659352443853
 20
103.1341888738048
 30
0.0
 10
292.6567698825955
 20
103.3687760529246
 30
0.0
 10
292.2717028464028
 20
103.6575955654416
 30
0.0
 10
291.8941716085495
 20
103.7434818820405
 30
0.0
 10
291.7054027121089
 20
103.7864257859567
 30
0.0
  0
SPLINE
  5
EE
330
1F
100
AcDbEntity
  8
0
  6
Continuous
 62
     7
370
    15
100
AcDbSpline
210
0.0
220
0.0
230
1.0
 70
     8
 71
     3
 72
    13
 73
     9
 74
     0
 42
0.00000001
 43
0.00000001
 40
0.0
 40
0.0
 40
0.0
 40
0.0
 40
0.1768650341035507
 40
0.3537334191057863
 40
0.5305917210111342
 40
0.7074543974184396
 40
0.884318219437399
 40
1.0
 40
1.0
 40
1.0
 40
1.0
 10
291.6882067720912
 20
77.91039546006706
 30
0.0
 10
291.491535774687
 20
77.91309000783767
 30
0.0
 10
291.0981900537346
 20
77.91847915443003
 30
0.0
 10
290.5647846956282
 20
78.20913576182653
 30
0.0
 10
290.1756993533294
 20
78.66353102678903
 30
0.0
 10
289.9974848102498
 20
79.22719709898823
 30
0.0
 10
290.0184539371414
 20
79.76036069435949
 30
0.0
 10
290.1845608082941
 20
80.03362363119761
 30
0.0
 10
290.2502447168849
 20
80.14168043607262
 30
0.0
  0
SPLINE
  5
EF
330
1F
100
AcDbEntity
  8
0
  6
Continuous
 62
     7
370
    15
100
AcDbSpline
210
0.0
220
0.0
230
1.0
 70
     8
 71
     3
 72
    10
 73
     6
 74
     0
 42
0.00000001
 43
0.00000001
 40
0.0
 40
0.0
 40
0.0
 40
0.0
 40
0.1474562176505191
 40
0.5737309801504082
 40
1.0
 40
1.0
 40
1.0
 40
1.0
 10
292.7767663996241
 20
78.62292428487328
 30
0.0
 10
292.7487095098659
 20
78.56263235475147
 30
0.0
 10
292.6395441785054
 20
78.32804510766813
 30
0.0
 10
292.2544844875451
 20
78.03923279326314
 30
0.0
 10
291.8769651629316
 20
77.95334104494633
 30
0.0
 10
291.6882067720912
 20
77.91039546006706
 30
0.0
  0
LINE
  5
F0
330
1F
100
AcDbEntity
  8
0
  6
Continuous
 62
     7
370
    15
100
AcDbLine
 10
286.4084273379
 20
86.1627628373
 30
0.0
 11
286.30361257
 21
86.1627628373
 31
0.0
  0
LINE
  5
F1
330
1F
100
AcDbEntity
  8
0
  6
Continuous
 62
     7
370
    15
100
AcDbLine
 10
286.4084273379
 20
94.7627743053
 30
0.0
 11
286.30361257
 21
94.7627743053
 31
0.0
  0
LINE
  5
F2
330
1F
100
AcDbEntity
  8
0
  6
Continuous
 62
     7
370
    15
100
AcDbLine
 10
291.7343705695
 20
83.6627652215
 30
0.0
 11
286.9084209006
 21
83.6627652215
 31
0.0
  0
LINE
  5
F3
330
1F
100
AcDbEntity
  8
0
  6
Continuous
 62
     7
370
    15
100
AcDbLine
 10
291.7902797263
 20
82.8627665805
 30
0.0
 11
286.9090467494
 21
82.8627665805
 31
0.0
  0
LINE
  5
F4
330
1F
100
AcDbEntity
  8
0
  6
Continuous
 62
     7
370
    15
100
AcDbLine
 10
291.8384998839
 20
98.8627692031
 30
0.0
 11
286.9090467494
 21
98.8627692031
 31
0.0
  0
LINE
  5
F5
330
1F
100
AcDbEntity
  8
0
  6
Continuous
 62
     7
370
    15
100
AcDbLine
 10
291.7343705695
 20
98.0627705621
 30
0.0
 11
286.9084209006
 21
98.0627705621
 31
0.0
  0
LINE
  5
F6
330
1F
100
AcDbEntity
  8
0
  6
Continuous
 62
     7
370
    15
100
AcDbLine
 10
290.5084222357
 20
99.1627742814
 30
0.0
 11
291.6717856925
 21
99.1627742814
 31
0.0
  0
LINE
  5
F7
330
1F
100
AcDbEntity
  8
0
  6
Continuous
 62
     7
370
    15
100
AcDbLine
 10
288.3084445994
 20
99.1627742814
 30
0.0
 11
290.5084222357
 21
99.1627742814
 31
0.0
  0
LINE
  5
F8
330
1F
100
AcDbEntity
  8
0
  6
Continuous
 62
     7
370
    15
100
AcDbLine
 10
290.5084222357
 20
82.4627747106
 30
0.0
 11
291.6118234198
 21
82.4627747106
 31
0.0
  0
LINE
  5
F9
330
1F
100
AcDbEntity
  8
0
  6
Continuous
 62
     7
370
    15
100
AcDbLine
 10
288.408431391
 20
82.4627747106
 30
0.0
 11
290.5084222357
 21
82.4627747106
 31
0.0
  0
LINE
  5
FA
330
1F
100
AcDbEntity
  8
0
  6
Continuous
 62
     7
370
    15
100
AcDbLine
 10
290.5084222357
 20
82.0627679395
 30
0.0
 11
291.3719445269
 21
82.0627679395
 31
0.0
  0
LINE
  5
FB
330
1F
100
AcDbEntity
  8
0
  6
Continuous
 62
     7
370
    15
100
AcDbLine
 10
288.408431391
 20
82.0627679395
 30
0.0
 11
290.5084222357
 21
82.0627679395
 31
0.0
  0
ARC
  5
FC
330
1F
100
AcDbEntity
  8
0
  6
Continuous
 62
     7
370
    15
100
AcDbCircle
 10
287.3743882101
 20
98.0649379719
 30
0.0
 40
0.8029152918097077
100
AcDbArc
 50
125.4747622064
 51
180.154665862
  0
ARC
  5
FD
330
1F
100
AcDbEntity
  8
0
  6
Continuous
 62
     7
370
    15
100
AcDbCircle
 10
287.3743763665
 20
83.6606065808
 30
0.0
 40
0.8029034246592697
100
AcDbArc
 50
179.8459576192
 51
234.5256721179
  0
LINE
  5
FE
330
1F
100
AcDbEntity
  8
0
  6
Continuous
 62
     7
370
    15
100
AcDbLine
 10
287.3593300383
 20
84.1127653884
 30
0.0
 11
287.3593300383
 21
83.6627652215
 31
0.0
  0
LINE
  5
FF
330
1F
100
AcDbEntity
  8
0
  6
Continuous
 62
     7
370
    15
100
AcDbLine
 10
287.3593300383
 20
98.0627705621
 30
0.0
 11
287.3593300383
 21
97.6127703952
 31
0.0
  0
LINE
  5
100
330
1F
100
AcDbEntity
  8
0
  6
Continuous
 62
     7
370
    15
100
AcDbLine
 10
286.5714758437
 20
83.6627652215
 30
0.0
 11
286.5714758437
 21
84.8912169504
 31
0.0
  0
LINE
  5
101
330
1F
100
AcDbEntity
  8
0
  6
Continuous
 62
     7
370
    15
100
AcDbLine
 10
286.5714758437
 20
96.8343337345
 30
0.0
 11
286.5714758437
 21
98.0627705621
 31
0.0
  0
SPLINE
  5
102
330
1F
100
AcDbEntity
  8
0
  6
Continuous
 62
     7
370
    15
100
AcDbSpline
210
0.0
220
0.0
230
1.0
 70
    24
 71
     3
 72
    12
 73
     8
 74
     0
 42
0.00000001
 43
0.00000001
 40
0.0
 40
0.0
 40
0.0
 40
0.0
 40
0.2185036703395748
 40
0.437006665326243
 40
0.6555196009484969
 40
0.8740249421684808
 40
0.9999999999999999
 40
0.9999999999999999
 40
0.9999999999999999
 40
0.9999999999999999
 10
293.5677796404383
 20
467.5551672744133
 30
0.0
 10
293.3710600276265
 20
467.5551672744134
 30
0.0
 10
292.9776214100255
 20
467.5551672744134
 30
0.0
 10
292.4168601662461
 20
467.5551672744133
 30
0.0
 10
291.9991838845319
 20
467.5551672744133
 30
0.0
 10
291.7726082574335
 20
467.5551672744132
 30
0.0
 10
291.7901522505411
 20
467.5551672744133
 30
0.0
 10
291.7965680162928
 20
467.5551672744133
 30
0.0
  0
SPLINE
  5
103
330
1F
100
AcDbEntity
  8
0
  6
Continuous
 62
     7
370
    15
100
AcDbSpline
210
0.0
220
0.0
230
1.0
 70
    24
 71
     3
 72
     9
 73
     5
 74
     0
 42
0.00000001
 43
0.00000001
 40
0.0
 40
0.0
 40
0.0
 40
0.0
 40
0.1970282982560592
 40
0.9999999999999999
 40
0.9999999999999999
 40
0.9999999999999999
 40
0.9999999999999999
 10
294.2084401648066
 20
467.5551672744133
 30
0.0
 10
294.1757828917451
 20
467.5551672744133
 30
0.0
 10
294.0100337412396
 20
467.5551672744133
 30
0.0
 10
293.7647419818772
 20
467.5551672744134
 30
0.0
 10
293.5677796404383
 20
467.5551672744133
 30
0.0
  0
SPLINE
  5
104
330
1F
100
AcDbEntity
  8
0
  6
Continuous
 62
     7
370
    15
100
AcDbSpline
210
0.0
220
0.0
230
1.0
 70
     8
 71
     3
 72
    13
 73
     9
 74
     0
 42
0.00000001
 43
0.00000001
 40
0.0
 40
0.0
 40
0.0
 40
0.0
 40
0.187740000413576
 40
0.3754750840911282
 40
0.5632141125828769
 40
0.7509489806106309
 40
0.9386872804467359
 40
1.0
 40
1.0
 40
1.0
 40
1.0
 10
293.274494985821
 20
471.1700101661065
 30
0.0
 10
293.0777978837332
 20
471.1673085006572
 30
0.0
 10
292.6844088308717
 20
471.1619052405126
 30
0.0
 10
292.1513959331191
 20
470.8713629590721
 30
0.0
 10
291.7608738400555
 20
470.4164671009841
 30
0.0
 10
291.5879250484012
 20
469.8547870599979
 30
0.0
 10
291.591209367792
 20
469.3816006359535
 30
0.0
 10
291.7185246228224
 20
469.160162764149
 30
0.0
 10
291.7498677771113
 20
469.1056479977944
 30
0.0
  0
SPLINE
  5
105
330
1F
100
AcDbEntity
  8
0
  6
Continuous
 62
     7
370
    15
100
AcDbSpline
210
0.0
220
0.0
230
1.0
 70
     8
 71
     3
 72
    10
 73
     6
 74
     0
 42
0.00000001
 43
0.00000001
 40
0.0
 40
0.0
 40
0.0
 40
0.0
 40
0.2093330610731358
 40
0.6046772709239069
 40
0.9999999999999999
 40
0.9999999999999999
 40
0.9999999999999999
 40
0.9999999999999999
 10
294.4116622011683
 20
470.3638871478417
 30
0.0
 10
294.3699655083296
 20
470.4569509341055
 30
0.0
 10
294.2495208814607
 20
470.7257740049158
 30
0.0
 10
293.8427893668497
 20
471.0424061659151
 30
0.0
 10
293.4639230151606
 20
471.1274762697686
 30
0.0
 10
293.274494985821
 20
471.1700101661065
 30
0.0
  0
SPLINE
  5
106
330
1F
100
AcDbEntity
  8
0
  6
Continuous
 62
     7
370
    15
100
AcDbSpline
210
0.0
220
0.0
230
1.0
 70
     8
 71
     3
 72
    13
 73
     9
 74
     0
 42
0.00000001
 43
0.00000001
 40
0.0
 40
0.0
 40
0.0
 40
0.0
 40
0.17686566111666
 40
0.353727114754838
 40
0.5305922847232801
 40
0.7074572065948584
 40
0.8843224701154473
 40
0.9999999999999999
 40
0.9999999999999999
 40
0.9999999999999999
 40
0.9999999999999999
 10
293.2572692434809
 20
450.5268206166604
 30
0.0
 10
293.0605964918823
 20
450.5295065773843
 30
0.0
 10
292.6672556673567
 20
450.5348784349354
 30
0.0
 10
292.1338767363807
 20
450.8255676804879
 30
0.0
 10
291.744746235308
 20
451.2799253244655
 30
0.0
 10
291.5665875190156
 20
451.8436294421199
 30
0.0
 10
291.58755251541
 20
452.376772938685
 30
0.0
 10
291.753634788919
 20
452.6500472306487
 30
0.0
 10
291.8193071882746
 20
452.7581055926659
 30
0.0
  0
SPLINE
  5
107
330
1F
100
AcDbEntity
  8
0
  6
Continuous
 62
     7
370
    15
100
AcDbSpline
210
0.0
220
0.0
230
1.0
 70
     8
 71
     3
 72
    10
 73
     6
 74
     0
 42
0.00000001
 43
0.00000001
 40
0.0
 40
0.0
 40
0.0
 40
0.0
 40
0.0588227060744696
 40
0.5294247762594761
 40
1.0
 40
1.0
 40
1.0
 40
1.0
 10
294.2873865168116
 20
451.1267264651635
 30
0.0
 10
294.2767520299091
 20
451.1052454783033
 30
0.0
 10
294.1810379557912
 20
450.9119091389668
 30
0.0
 10
293.8201407569899
 20
450.657749170647
 30
0.0
 10
293.4448895133881
 20
450.5704626380596
 30
0.0
 10
293.2572692434809
 20
450.5268206166604
 30
0.0
  0
SPLINE
  5
108
330
1F
100
AcDbEntity
  8
0
  6
Continuous
 62
     7
370
    15
100
AcDbSpline
210
0.0
220
0.0
230
1.0
 70
    24
 71
     3
 72
    12
 73
     8
 74
     0
 42
0.00000001
 43
0.00000001
 40
0.0
 40
0.0
 40
0.0
 40
0.0
 40
0.2193530192757135
 40
0.438705360573346
 40
0.6580676811469597
 40
0.8774223777979869
 40
1.0
 40
1.0
 40
1.0
 40
1.0
 10
293.5677796404383
 20
453.9965410994866
 30
0.0
 10
293.3710647137444
 20
453.9965410994866
 30
0.0
 10
292.9776354683645
 20
453.9965410994866
 30
0.0
 10
292.4168039320274
 20
453.9965410994866
 30
0.0
 10
291.9993947704921
 20
453.9965410994866
 30
0.0
 10
291.7735260777959
 20
453.9965410994866
 30
0.0
 10
291.7905314495164
 20
453.9965410994866
 30
0.0
 10
291.7966276209376
 20
453.9965410994866
 30
0.0
  0
SPLINE
  5
109
330
1F
100
AcDbEntity
  8
0
  6
Continuous
 62
     7
370
    15
100
AcDbSpline
210
0.0
220
0.0
230
1.0
 70
    24
 71
     3
 72
     9
 73
     5
 74
     0
 42
0.00000001
 43
0.00000001
 40
0.0
 40
0.0
 40
0.0
 40
0.0
 40
0.1970282982560592
 40
0.9999999999999999
 40
0.9999999999999999
 40
0.9999999999999999
 40
0.9999999999999999
 10
294.2084401648066
 20
453.9965410994866
 30
0.0
 10
294.1757828917451
 20
453.9965410994866
 30
0.0
 10
294.0100337412396
 20
453.9965410994865
 30
0.0
 10
293.7647419818772
 20
453.9965410994866
 30
0.0
 10
293.5677796404383
 20
453.9965410994866
 30
0.0
  0
SPLINE
  5
10A
330
1F
100
AcDbEntity
  8
0
  6
Continuous
 62
     7
370
    15
100
AcDbSpline
210
0.0
220
0.0
230
1.0
 70
     8
 71
     3
 72
    13
 73
     9
 74
     0
 42
0.00000001
 43
0.00000001
 40
0.0
 40
0.0
 40
0.0
 40
0.0
 40
0.1768568489331523
 40
0.3537261911734089
 40
0.5305853347483019
 40
0.7074492821241682
 40
0.8843140874230662
 40
1.0
 40
1.0
 40
1.0
 40
1.0
 10
291.7054027121089
 20
473.786415653167
 30
0.0
 10
291.5087418652031
 20
473.7837259469331
 30
0.0
 10
291.1154062791146
 20
473.7783463444621
 30
0.0
 10
290.5820106748801
 20
473.4876892641482
 30
0.0
 10
290.1929248622828
 20
473.0332946489242
 30
0.0
 10
290.0147098241256
 20
472.4696287803099
 30
0.0
 10
290.0356826690532
 20
471.9364636365262
 30
0.0
 10
290.2017865395815
 20
471.6631926395357
 30
0.0
 10
290.267470459225
 20
471.5551306771615
 30
0.0
  0
SPLINE
  5
10B
330
1F
100
AcDbEntity
  8
0
  6
Continuous
 62
     7
370
    15
100
AcDbSpline
210
0.0
220
0.0
230
1.0
 70
     8
 71
     3
 72
    10
 73
     6
 74
     0
 42
0.00000001
 43
0.00000001
 40
0.0
 40
0.0
 40
0.0
 40
0.0
 40
0.1474536499754668
 40
0.5737209896952892
 40
0.9999999999999999
 40
0.9999999999999999
 40
0.9999999999999999
 40
0.9999999999999999
 10
292.7939921419642
 20
473.073901729522
 30
0.0
 10
292.7659352270247
 20
473.1341935839903
 30
0.0
 10
292.6567697976874
 20
473.3687805367171
 30
0.0
 10
292.2717052241136
 20
473.6576033560693
 30
0.0
 10
291.8941719388063
 20
473.7434778289532
 30
0.0
 10
291.7054027121088
 20
473.786415653167
 30
0.0
  0
SPLINE
  5
10C
330
1F
100
AcDbEntity
  8
0
  6
Continuous
 62
     7
370
    15
100
AcDbSpline
210
0.0
220
0.0
230
1.0
 70
     8
 71
     3
 72
    13
 73
     9
 74
     0
 42
0.00000001
 43
0.00000001
 40
0.0
 40
0.0
 40
0.0
 40
0.0
 40
0.1768639336190619
 40
0.3537316425996797
 40
0.5305892685219492
 40
0.7074555155784291
 40
0.8843186615932112
 40
1.0
 40
1.0
 40
1.0
 40
1.0
 10
291.6882067720912
 20
447.9104002284386
 30
0.0
 10
291.4915356378533
 20
447.9130885371106
 30
0.0
 10
291.0981891712088
 20
447.9184652118398
 30
0.0
 10
290.5647850800996
 20
448.2091268031168
 30
0.0
 10
290.1756951571522
 20
448.6635238766224
 30
0.0
 10
289.9974867453694
 20
449.2271978691946
 30
0.0
 10
290.0184536139179
 20
449.7603653371906
 30
0.0
 10
290.1845607167003
 20
450.033628363994
 30
0.0
 10
290.2502447168849
 20
450.1416852044442
 30
0.0
  0
SPLINE
  5
10D
330
1F
100
AcDbEntity
  8
0
  6
Continuous
 62
     7
370
    15
100
AcDbSpline
210
0.0
220
0.0
230
1.0
 70
     8
 71
     3
 72
    10
 73
     6
 74
     0
 42
0.00000001
 43
0.00000001
 40
0.0
 40
0.0
 40
0.0
 40
0.0
 40
0.1474647381230586
 40
0.5737368065240295
 40
1.0
 40
1.0
 40
1.0
 40
1.0
 10
292.7767663996241
 20
448.6229290532448
 30
0.0
 10
292.7487100404394
 20
448.5626318774353
 30
0.0
 10
292.6395519723737
 20
448.3280353933424
 30
0.0
 10
292.2544854086957
 20
448.0392205302496
 30
0.0
 10
291.8769650076254
 20
447.9533400310359
 30
0.0
 10
291.6882067720912
 20
447.9104002284386
 30
0.0
  0
LINE
  5
10E
330
1F
100
AcDbEntity
  8
0
  6
Continuous
 62
     7
370
    15
100
AcDbLine
 10
286.4084273379
 20
456.1627676057
 30
0.0
 11
286.30361257
 21
456.1627676057
 31
0.0
  0
LINE
  5
10F
330
1F
100
AcDbEntity
  8
0
  6
Continuous
 62
     7
370
    15
100
AcDbLine
 10
286.4084273379
 20
464.7627641725
 30
0.0
 11
286.30361257
 21
464.7627641725
 31
0.0
  0
LINE
  5
110
330
1F
100
AcDbEntity
  8
0
  6
Continuous
 62
     7
370
    15
100
AcDbLine
 10
291.7343705695
 20
453.6627699899
 30
0.0
 11
286.9084209006
 21
453.6627699899
 31
0.0
  0
LINE
  5
111
330
1F
100
AcDbEntity
  8
0
  6
Continuous
 62
     7
370
    15
100
AcDbLine
 10
291.7902797263
 20
452.8627713489
 30
0.0
 11
286.9090467494
 21
452.8627713489
 31
0.0
  0
LINE
  5
112
330
1F
100
AcDbEntity
  8
0
  6
Continuous
 62
     7
370
    15
100
AcDbLine
 10
291.7343705695
 20
468.0627753305
 30
0.0
 11
286.9084209006
 21
468.0627753305
 31
0.0
  0
LINE
  5
113
330
1F
100
AcDbEntity
  8
0
  6
Continuous
 62
     7
370
    15
100
AcDbLine
 10
291.8384998839
 20
468.8627739715
 30
0.0
 11
286.9090467494
 21
468.8627739715
 31
0.0
  0
LINE
  5
114
330
1F
100
AcDbEntity
  8
0
  6
Continuous
 62
     7
370
    15
100
AcDbLine
 10
290.5084222357
 20
469.1627641487
 30
0.0
 11
291.6717856925
 21
469.1627641487
 31
0.0
  0
LINE
  5
115
330
1F
100
AcDbEntity
  8
0
  6
Continuous
 62
     7
370
    15
100
AcDbLine
 10
288.3084445994
 20
469.1627641487
 30
0.0
 11
290.5084222357
 21
469.1627641487
 31
0.0
  0
LINE
  5
116
330
1F
100
AcDbEntity
  8
0
  6
Continuous
 62
     7
370
    15
100
AcDbLine
 10
290.5084222357
 20
452.4627645778
 30
0.0
 11
291.6118234198
 21
452.4627645778
 31
0.0
  0
LINE
  5
117
330
1F
100
AcDbEntity
  8
0
  6
Continuous
 62
     7
370
    15
100
AcDbLine
 10
288.408431391
 20
452.4627645778
 30
0.0
 11
290.5084222357
 21
452.4627645778
 31
0.0
  0
LINE
  5
118
330
1F
100
AcDbEntity
  8
0
  6
Continuous
 62
     7
370
    15
100
AcDbLine
 10
290.5084222357
 20
452.0627727079
 30
0.0
 11
291.3719445269
 21
452.0627727079
 31
0.0
  0
LINE
  5
119
330
1F
100
AcDbEntity
  8
0
  6
Continuous
 62
     7
370
    15
100
AcDbLine
 10
288.408431391
 20
452.0627727079
 30
0.0
 11
290.5084222357
 21
452.0627727079
 31
0.0
  0
ARC
  5
11A
330
1F
100
AcDbEntity
  8
0
  6
Continuous
 62
     7
370
    15
100
AcDbCircle
 10
287.3743882101
 20
453.6606025801
 30
0.0
 40
0.8029152918097094
100
AcDbArc
 50
179.845334138
 51
234.5252377936
  0
ARC
  5
11B
330
1F
100
AcDbEntity
  8
0
  6
Continuous
 62
     7
370
    15
100
AcDbCircle
 10
287.3743763665
 20
468.0649339713
 30
0.0
 40
0.802903424659316
100
AcDbArc
 50
125.4743278821
 51
180.1540423808
  0
LINE
  5
11C
330
1F
100
AcDbEntity
  8
0
  6
Continuous
 62
     7
370
    15
100
AcDbLine
 10
287.3593300383
 20
454.1127701568
 30
0.0
 11
287.3593300383
 21
453.6627699899
 31
0.0
  0
LINE
  5
11D
330
1F
100
AcDbEntity
  8
0
  6
Continuous
 62
     7
370
    15
100
AcDbLine
 10
287.3593300383
 20
468.0627753305
 30
0.0
 11
287.3593300383
 21
467.6127751636
 31
0.0
  0
LINE
  5
11E
330
1F
100
AcDbEntity
  8
0
  6
Continuous
 62
     7
370
    15
100
AcDbLine
 10
286.5714758437
 20
453.6627699899
 30
0.0
 11
286.5714758437
 21
454.8912068176
 31
0.0
  0
LINE
  5
11F
330
1F
100
AcDbEntity
  8
0
  6
Continuous
 62
     7
370
    15
100
AcDbLine
 10
286.5714758437
 20
466.8343236017
 30
0.0
 11
286.5714758437
 21
468.0627753305
 31
0.0
  0
LINE
  5
120
330
1F
100
AcDbEntity
  8
0
  6
Continuous
 62
     7
370
    15
100
AcDbLine
 10
796.3098019164
 20
80.8627774286
 30
0.0
 11
796.3098019164
 21
45.8627661037
 31
0.0
  0
LINE
  5
121
330
1F
100
AcDbEntity
  8
0
  6
Continuous
 62
     7
370
    15
100
AcDbLine
 10
806.9084316294
 20
45.8627661037
 30
0.0
 11
796.3098019164
 21
45.8627661037
 31
0.0
  0
LINE
  5
122
330
1F
100
AcDbEntity
  8
0
  6
Continuous
 62
     7
370
    15
100
AcDbLine
 10
806.9084316294
 20
80.8627774286
 30
0.0
 11
796.3098019164
 21
80.8627774286
 31
0.0
  0
LINE
  5
123
330
1F
100
AcDbEntity
  8
0
  6
Continuous
 62
     7
370
    15
100
AcDbLine
 10
796.3098019164
 20
505.8627744483
 30
0.0
 11
796.3098019164
 21
470.8627631235
 31
0.0
  0
LINE
  5
124
330
1F
100
AcDbEntity
  8
0
  6
Continuous
 62
     7
370
    15
100
AcDbLine
 10
806.9084316294
 20
505.8627744483
 30
0.0
 11
796.3098019164
 21
505.8627744483
 31
0.0
  0
LINE
  5
125
330
1F
100
AcDbEntity
  8
0
  6
Continuous
 62
     7
370
    15
100
AcDbLine
 10
806.9084316294
 20
470.8627631235
 30
0.0
 11
796.3098019164
 21
470.8627631235
 31
0.0
  0
LINE
  5
126
330
1F
100
AcDbEntity
  8
0
  6
Continuous
 62
     7
370
    15
100
AcDbLine
 10
803.9084404509
 20
117.8627630042
 30
0.0
 11
798.9084452193
 21
117.8627630042
 31
0.0
  0
LINE
  5
127
330
1F
100
AcDbEntity
  8
0
  6
Continuous
 62
     7
370
    15
100
AcDbLine
 10
798.9084452193
 20
433.8627775478
 30
0.0
 11
803.9084404509
 21
433.8627775478
 31
0.0
  0
LINE
  5
128
330
1F
100
AcDbEntity
  8
0
  6
Continuous
 62
     7
370
    15
100
AcDbLine
 10
795.8462863963
 20
45.8627661037
 30
0.0
 11
795.8462863963
 21
80.8627774286
 31
0.0
  0
LINE
  5
129
330
1F
100
AcDbEntity
  8
0
  6
Continuous
 62
     7
370
    15
100
AcDbLine
 10
796.3098019164
 20
45.8627661037
 30
0.0
 11
795.8462863963
 21
45.8627661037
 31
0.0
  0
LINE
  5
12A
330
1F
100
AcDbEntity
  8
0
  6
Continuous
 62
     7
370
    15
100
AcDbLine
 10
795.8462863963
 20
80.8627774286
 30
0.0
 11
796.3098019164
 21
80.8627774286
 31
0.0
  0
LINE
  5
12B
330
1F
100
AcDbEntity
  8
0
  6
Continuous
 62
     7
370
    15
100
AcDbLine
 10
795.8462863963
 20
470.8627631235
 30
0.0
 11
795.8462863963
 21
505.8627744483
 31
0.0
  0
LINE
  5
12C
330
1F
100
AcDbEntity
  8
0
  6
Continuous
 62
     7
370
    15
100
AcDbLine
 10
795.8462863963
 20
505.8627744483
 30
0.0
 11
796.3098019164
 21
505.8627744483
 31
0.0
  0
LINE
  5
12D
330
1F
100
AcDbEntity
  8
0
  6
Continuous
 62
     7
370
    15
100
AcDbLine
 10
796.3098019164
 20
470.8627631235
 30
0.0
 11
795.8462863963
 21
470.8627631235
 31
0.0
  0
LINE
  5
12E
330
1F
100
AcDbEntity
  8
0
  6
Continuous
 62
     7
370
    15
100
AcDbLine
 10
795.8462863963
 20
505.8627744483
 30
0.0
 11
795.4084306757
 21
505.8627744483
 31
0.0
  0
LINE
  5
12F
330
1F
100
AcDbEntity
  8
0
  6
Continuous
 62
     7
370
    15
100
AcDbLine
 10
795.8462863963
 20
470.8627631235
 30
0.0
 11
795.4084306757
 21
470.8627631235
 31
0.0
  0
LINE
  5
130
330
1F
100
AcDbEntity
  8
0
  6
Continuous
 62
     7
370
    15
100
AcDbLine
 10
795.8462863963
 20
45.8627661037
 30
0.0
 11
795.4084306757
 21
45.8627661037
 31
0.0
  0
LINE
  5
131
330
1F
100
AcDbEntity
  8
0
  6
Continuous
 62
     7
370
    15
100
AcDbLine
 10
795.8462863963
 20
80.8627774286
 30
0.0
 11
795.4084306757
 21
80.8627774286
 31
0.0
  0
LINE
  5
132
330
1F
100
AcDbEntity
  8
0
  6
Continuous
 62
     7
370
    15
100
AcDbLine
 10
290.2084320586
 20
97.6127703952
 30
0.0
 11
287.1084242861
 21
97.6127703952
 31
0.0
  0
LINE
  5
133
330
1F
100
AcDbEntity
  8
0
  6
Continuous
 62
     7
370
    15
100
AcDbLine
 10
290.2084320586
 20
84.1127653884
 30
0.0
 11
287.1084242861
 21
84.1127653884
 31
0.0
  0
LINE
  5
134
330
1F
100
AcDbEntity
  8
0
  6
Continuous
 62
     7
370
    15
100
AcDbLine
 10
290.2084320586
 20
84.1127653884
 30
0.0
 11
291.7679577868
 21
84.1127653884
 31
0.0
  0
LINE
  5
135
330
1F
100
AcDbEntity
  8
0
  6
Continuous
 62
     7
370
    15
100
AcDbLine
 10
290.2084320586
 20
97.6127703952
 30
0.0
 11
291.7684942286
 21
97.6127703952
 31
0.0
  0
LINE
  5
136
330
1F
100
AcDbEntity
  8
0
  6
Continuous
 62
     7
370
    15
100
AcDbLine
 10
290.2084320586
 20
467.6127751636
 30
0.0
 11
291.7684942286
 21
467.6127751636
 31
0.0
  0
LINE
  5
137
330
1F
100
AcDbEntity
  8
0
  6
Continuous
 62
     7
370
    15
100
AcDbLine
 10
290.2084320586
 20
454.1127701568
 30
0.0
 11
291.7679577868
 21
454.1127701568
 31
0.0
  0
LINE
  5
138
330
1F
100
AcDbEntity
  8
0
  6
Continuous
 62
     7
370
    15
100
AcDbLine
 10
290.2084320586
 20
454.1127701568
 30
0.0
 11
287.1084242861
 21
454.1127701568
 31
0.0
  0
LINE
  5
139
330
1F
100
AcDbEntity
  8
0
  6
Continuous
 62
     7
370
    15
100
AcDbLine
 10
290.2084320586
 20
467.6127751636
 30
0.0
 11
287.1084242861
 21
467.6127751636
 31
0.0
  0
LINE
  5
13A
330
1F
100
AcDbEntity
  8
0
  6
Continuous
 62
     8
370
    15
100
AcDbLine
 10
290.2084320586
 20
97.6127703952
 30
0.0
 11
290.2084320586
 21
97.3627736139
 31
0.0
  0
LINE
  5
13B
330
1F
100
AcDbEntity
  8
0
  6
Continuous
 62
     8
370
    15
100
AcDbLine
 10
290.2084320586
 20
84.3627770709
 30
0.0
 11
290.2084320586
 21
84.1127653884
 31
0.0
  0
LINE
  5
13C
330
1F
100
AcDbEntity
  8
0
  6
Continuous
 62
     8
370
    15
100
AcDbLine
 10
290.2084320586
 20
454.3627669381
 30
0.0
 11
290.2084320586
 21
454.1127701568
 31
0.0
  0
LINE
  5
13D
330
1F
100
AcDbEntity
  8
0
  6
Continuous
 62
     8
370
    15
100
AcDbLine
 10
290.2084320586
 20
467.6127751636
 30
0.0
 11
290.2084320586
 21
467.3627634811
 31
0.0
  0
LINE
  5
13E
330
1F
100
AcDbEntity
  8
0
  6
Continuous
 62
     7
370
    15
100
AcDbLine
 10
199.2069909572
 20
97.3627736139
 30
0.0
 11
199.2069909572
 21
84.3627770709
 31
0.0
  0
LINE
  5
13F
330
1F
100
AcDbEntity
  8
0
  6
Continuous
 62
     7
370
    15
100
AcDbLine
 10
199.2069909572
 20
467.3627634811
 30
0.0
 11
199.2069909572
 21
454.3627669381
 31
0.0
  0
SPLINE
  5
140
330
1F
100
AcDbEntity
  8
0
  6
Continuous
 62
     7
370
    15
100
AcDbSpline
210
0.0
220
0.0
230
1.0
 70
     8
 71
     3
 72
    15
 73
    11
 74
     0
 42
0.00000001
 43
0.00000001
 40
0.0
 40
0.0
 40
0.0
 40
0.0
 40
0.135596888537424
 40
0.2953259978568167
 40
0.4038082329308685
 40
0.5319575953941899
 40
0.6738360944567005
 40
0.8261050528133796
 40
0.9126193093972146
 40
1.0
 40
1.0
 40
1.0
 40
1.0
 10
188.1869936584926
 20
85.42882104390648
 30
0.0
 10
188.2313756946245
 20
85.4214945071543
 30
0.0
 10
188.3280384517791
 20
85.40553752760627
 30
0.0
 10
188.5348906306226
 20
85.45321229636873
 30
0.0
 10
188.7281380036656
 20
85.54093102157964
 30
0.0
 10
188.8747363153647
 20
85.66059597521816
 30
0.0
 10
188.9734398014839
 20
85.8115002545013
 30
0.0
 10
189.0031031883622
 20
85.93335310371525
 30
0.0
 10
188.9819172641078
 20
86.06258138304639
 30
0.0
 10
188.935662202409
 20
86.12925827972259
 30
0.0
 10
188.912419438312
 20
86.16276283734825
 30
0.0
  0
SPLINE
  5
141
330
1F
100
AcDbEntity
  8
0
  6
Continuous
 62
     7
370
    15
100
AcDbSpline
210
0.0
220
0.0
230
1.0
 70
     8
 71
     3
 72
    20
 73
    16
 74
     0
 42
0.00000001
 43
0.00000001
 40
0.0
 40
0.0
 40
0.0
 40
0.0
 40
0.0607080798465042
 40
0.2265357102980886
 40
0.390803212013224
 40
0.4705945552791758
 40
0.5476205116764288
 40
0.6228560851560659
 40
0.7003373287420667
 40
0.7786474321767142
 40
0.8566576969482275
 40
0.9330985320568687
 40
0.9703734888127845
 40
0.9892323091344675
 40
1.0
 40
1.0
 40
1.0
 40
1.0
 10
184.4507957100367
 20
86.16276283734825
 30
0.0
 10
184.4970705785255
 20
86.10943139190383
 30
0.0
 10
184.6697479260638
 20
85.91042201941961
 30
0.0
 10
185.086706344284
 20
85.89249514860997
 30
0.0
 10
185.6516753503596
 20
85.81746994277987
 30
0.0
 10
186.1712856268566
 20
85.7745321472659
 30
0.0
 10
186.5651743602476
 20
85.74397201940354
 30
0.0
 10
186.9580856578281
 20
85.71629905746936
 30
0.0
 10
187.3392479072778
 20
85.68499068149377
 30
0.0
 10
187.6949741438085
 20
85.65251144951839
 30
0.0
 10
187.9975958755312
 20
85.62169621995788
 30
0.0
 10
188.1901164796758
 20
85.59880137235693
 30
0.0
 10
188.2782265043137
 20
85.5907622536868
 30
0.0
 10
188.3236598915583
 20
85.58296992255693
 30
0.0
 10
188.3231023400431
 20
85.58692889640118
 30
0.0
 10
188.322899699161
 20
85.58836777680901
 30
0.0
  0
SPLINE
  5
142
330
1F
100
AcDbEntity
  8
0
  6
Continuous
 62
     7
370
    15
100
AcDbSpline
210
0.0
220
0.0
230
1.0
 70
     8
 71
     3
 72
    18
 73
    14
 74
     0
 42
0.00000001
 43
0.00000001
 40
0.0
 40
0.0
 40
0.0
 40
0.0
 40
0.0449172897847653
 40
0.1504734569456598
 40
0.2683940230762255
 40
0.3845468410256176
 40
0.4963585962873353
 40
0.6034750092392611
 40
0.7163648355374178
 40
0.8333378146117868
 40
0.8935123352002242
 40
0.9536978184994453
 40
1.0
 40
1.0
 40
1.0
 40
1.0
 10
188.7932399510836
 20
94.74744101041344
 30
0.0
 10
188.7559319855229
 20
94.77325296943917
 30
0.0
 10
188.6309498555584
 20
94.85972334028631
 30
0.0
 10
188.3743435384498
 20
94.88252466443667
 30
0.0
 10
187.9815041394254
 20
94.93606209928262
 30
0.0
 10
187.4700179555387
 20
94.98313741396112
 30
0.0
 10
186.9188871497392
 20
95.02891376311027
 30
0.0
 10
186.3567976662804
 20
95.06789212919354
 30
0.0
 10
185.8225091784637
 20
95.11261849509218
 30
0.0
 10
185.424886580096
 20
95.15366526284522
 30
0.0
 10
185.2101367760609
 20
95.17481349865834
 30
0.0
 10
185.1140896854854
 20
95.17708250351816
 30
0.0
 10
185.0986475200957
 20
95.1610187971487
 30
0.0
 10
185.0919330715632
 20
95.15403409474877
 30
0.0
  0
SPLINE
  5
143
330
1F
100
AcDbEntity
  8
0
  6
Continuous
 62
     7
370
    15
100
AcDbSpline
210
0.0
220
0.0
230
1.0
 70
     8
 71
     3
 72
    12
 73
     8
 74
     0
 42
0.00000001
 43
0.00000001
 40
0.0
 40
0.0
 40
0.0
 40
0.0
 40
0.2236877335818112
 40
0.4523166583911747
 40
0.6822431391913665
 40
0.9102276025632665
 40
1.0
 40
1.0
 40
1.0
 40
1.0
 10
184.3926960825419
 20
95.96462746137169
 30
0.0
 10
184.3799592701245
 20
95.92207946110095
 30
0.0
 10
184.3542042931349
 20
95.83604358870193
 30
0.0
 10
184.4753337690669
 20
95.74441574519128
 30
0.0
 10
184.7070069797414
 20
95.64812409310805
 30
0.0
 10
184.9518715710183
 20
95.58561973424356
 30
0.0
 10
185.13520096523
 20
95.5908455546243
 30
0.0
 10
185.1869950293994
 20
95.59232194894341
 30
0.0
  0
SPLINE
  5
144
330
1F
100
AcDbEntity
  8
0
  6
Continuous
 62
     7
370
    15
100
AcDbSpline
210
0.0
220
0.0
230
1.0
 70
     8
 71
     3
 72
    19
 73
    15
 74
     0
 42
0.00000001
 43
0.00000001
 40
0.0
 40
0.0
 40
0.0
 40
0.0
 40
0.0979054285216552
 40
0.1753770361033848
 40
0.2884839255568595
 40
0.3734536151784779
 40
0.4570033395651014
 40
0.6168871079054774
 40
0.6796671660329294
 40
0.7634255454403586
 40
0.8137557016770524
 40
0.8702993889100683
 40
0.9324009967643566
 40
1.0
 40
1.0
 40
1.0
 40
1.0
 10
184.5689321159816
 20
95.46949167722252
 30
0.0
 10
184.6194369751898
 20
95.4431169871013
 30
0.0
 10
184.709905835298
 20
95.39587226276436
 30
0.0
 10
185.0845681597112
 20
95.33521908831452
 30
0.0
 10
185.5710602919291
 20
95.28133840682801
 30
0.0
 10
186.162401662743
 20
95.22808732644478
 30
0.0
 10
186.9164953125207
 20
95.17654443891921
 30
0.0
 10
187.5576011973682
 20
95.10960417449226
 30
0.0
 10
188.2068582408347
 20
95.07408597653094
 30
0.0
 10
188.585200892292
 20
95.15226967669682
 30
0.0
 10
188.8370539361175
 20
95.26047161674498
 30
0.0
 10
188.970644170586
 20
95.34881499218214
 30
0.0
 10
189.032405432957
 20
95.4226519583615
 30
0.0
 10
188.9609690085169
 20
95.50316642462633
 30
0.0
 10
188.9237368702388
 20
95.54512997144249
 30
0.0
  0
SPLINE
  5
145
330
1F
100
AcDbEntity
  8
0
  6
Continuous
 62
     7
370
    15
100
AcDbSpline
210
0.0
220
0.0
230
1.0
 70
     8
 71
     3
 72
    25
 73
    21
 74
     0
 42
0.00000001
 43
0.00000001
 40
0.0
 40
0.0
 40
0.0
 40
0.0
 40
0.0176277270217914
 40
0.0344983469749089
 40
0.0503162262942265
 40
0.0649745907550359
 40
0.0909466161566495
 40
0.1134377624030968
 40
0.1538403982782512
 40
0.1912351913204073
 40
0.2995717589845327
 40
0.3999642420985151
 40
0.5012962218567567
 40
0.5949063943502271
 40
0.678487546488849
 40
0.733628543452054
 40
0.8075190726719963
 40
0.8952815219502029
 40
0.9453088205119118
 40
1.0
 40
1.0
 40
1.0
 40
1.0
 10
188.5664144753909
 20
94.91954942220238
 30
0.0
 10
188.6061241434859
 20
94.92393853552065
 30
0.0
 10
188.683837958007
 20
94.93252825068804
 30
0.0
 10
188.7857295473693
 20
94.97854859343882
 30
0.0
 10
188.8667351255419
 20
95.03749313533427
 30
0.0
 10
188.9429431831219
 20
95.12109356074325
 30
0.0
 10
188.9959871705982
 20
95.22472472657742
 30
0.0
 10
189.0201527063888
 20
95.35706659489287
 30
0.0
 10
188.9972593967348
 20
95.48891808107476
 30
0.0
 10
188.826027317987
 20
95.73415261007304
 30
0.0
 10
188.4832273692498
 20
95.8212103568144
 30
0.0
 10
187.988116673836
 20
95.87977439559187
 30
0.0
 10
187.3749047299168
 20
95.9381378735815
 30
0.0
 10
186.7254335059735
 20
95.98776439631013
 30
0.0
 10
186.1857410005505
 20
96.02722768901309
 30
0.0
 10
185.7397206399431
 20
96.06641052358117
 30
0.0
 10
185.3510246135019
 20
96.10462857225139
 30
0.0
 10
185.0908579986219
 20
96.13249351677806
 30
0.0
 10
184.9604274947799
 20
96.15497553704728
 30
0.0
 10
184.9517613839198
 20
96.1674362386826
 30
0.0
 10
184.9472353457904
 20
96.17394407266167
 30
0.0
  0
SPLINE
  5
146
330
1F
100
AcDbEntity
  8
0
  6
Continuous
 62
     7
370
    15
100
AcDbSpline
210
0.0
220
0.0
230
1.0
 70
     8
 71
     3
 72
    12
 73
     8
 74
     0
 42
0.00000001
 43
0.00000001
 40
0.0
 40
0.0
 40
0.0
 40
0.0
 40
0.1756472898476807
 40
0.5723034427100719
 40
0.7586208901224243
 40
0.9207422341325122
 40
1.0
 40
1.0
 40
1.0
 40
1.0
 10
185.0355619787669
 20
95.3554679917672
 30
0.0
 10
184.9699985569667
 20
95.34629131140804
 30
0.0
 10
184.7563762913189
 20
95.31639135811673
 30
0.0
 10
184.5404486809852
 20
95.2424741590193
 30
0.0
 10
184.3793106339319
 20
95.02754506582922
 30
0.0
 10
184.3480945560354
 20
94.86732094972086
 30
0.0
 10
184.3790685742622
 20
94.78866191026802
 30
0.0
 10
184.389239013145
 20
94.76283390992668
 30
0.0
  0
LINE
  5
147
330
1F
100
AcDbEntity
  8
0
  6
Continuous
 62
     7
370
    15
100
AcDbLine
 10
184.5467517375
 20
86.0650261211
 30
0.0
 11
183.4282929301
 21
86.0650261211
 31
0.0
  0
LINE
  5
148
330
1F
100
AcDbEntity
  8
0
  6
Continuous
 62
     7
370
    15
100
AcDbLine
 10
183.4282929301
 20
85.2650274801
 30
0.0
 11
185.1869950294
 21
85.2650274801
 31
0.0
  0
LINE
  5
149
330
1F
100
AcDbEntity
  8
0
  6
Continuous
 62
     7
370
    15
100
AcDbLine
 10
182.0180023312
 20
98.8627692031
 30
0.0
 11
182.0180023312
 21
98.9162345695
 31
0.0
  0
LINE
  5
14A
330
1F
100
AcDbEntity
  8
0
  6
Continuous
 62
     7
370
    15
100
AcDbLine
 10
179.0180037021
 20
98.9162345695
 30
0.0
 11
179.0180037021
 21
98.8627692031
 31
0.0
  0
SPLINE
  5
14B
330
1F
100
AcDbEntity
  8
0
  6
Continuous
 62
     7
370
    15
100
AcDbSpline
210
0.0
220
0.0
230
1.0
 70
     8
 71
     3
 72
    15
 73
    11
 74
     0
 42
0.00000001
 43
0.00000001
 40
0.0
 40
0.0
 40
0.0
 40
0.0
 40
0.107755570493865
 40
0.2352510004359349
 40
0.3627906072704312
 40
0.4902569527135733
 40
0.6176625138292798
 40
0.7450971095731884
 40
0.8724966849586578
 40
1.0
 40
1.0
 40
1.0
 40
1.0
 10
179.0340597033
 20
82.86276658051995
 30
0.0
 10
179.0505995363336
 20
82.55024458956228
 30
0.0
 10
179.0867091522945
 20
81.86794936627065
 30
0.0
 10
179.4229085356014
 20
80.85879620318087
 30
0.0
 10
179.9810008657979
 20
79.89532319232254
 30
0.0
 10
180.7358231874632
 20
79.07439619504125
 30
0.0
 10
181.6509837441953
 20
78.43912405345633
 30
0.0
 10
182.678242375448
 20
78.01896926952898
 30
0.0
 10
183.7742214613906
 20
77.805166006258
 30
0.0
 10
184.5099820088591
 20
77.87069072647235
 30
0.0
 10
184.8780120014644
 20
77.90346642011193
 30
0.0
  0
SPLINE
  5
14C
330
1F
100
AcDbEntity
  8
0
  6
Continuous
 62
     7
370
    15
100
AcDbSpline
210
0.0
220
0.0
230
1.0
 70
     8
 71
     3
 72
    15
 73
    11
 74
     0
 42
0.00000001
 43
0.00000001
 40
0.0
 40
0.0
 40
0.0
 40
0.0
 40
0.1316522836865303
 40
0.2633121166332077
 40
0.3951903172333486
 40
0.5266700583614803
 40
0.6575475036272325
 40
0.7882151626060379
 40
0.918460811993896
 40
1.0
 40
1.0
 40
1.0
 40
1.0
 10
184.3803206681704
 20
80.86115320199517
 30
0.0
 10
184.2281375368343
 20
80.84933809898376
 30
0.0
 10
183.9237625476133
 20
80.8257072154544
 30
0.0
 10
183.4728935286189
 20
80.92718052354306
 30
0.0
 10
183.0538725932614
 20
81.11404938571465
 30
0.0
 10
182.683476716749
 20
81.38663765509779
 30
0.0
 10
182.3812128040475
 20
81.73255124978063
 30
0.0
 10
182.1620605364941
 20
82.13425921495967
 30
0.0
 10
182.0446848371125
 20
82.52056941038668
 30
0.0
 10
182.0345108823194
 20
82.7676414732172
 30
0.0
 10
182.0305938124156
 20
82.86276658051995
 30
0.0
  0
SPLINE
  5
14D
330
1F
100
AcDbEntity
  8
0
  6
Continuous
 62
     7
370
    15
100
AcDbSpline
210
0.0
220
0.0
230
1.0
 70
     8
 71
     3
 72
    15
 73
    11
 74
     0
 42
0.00000001
 43
0.00000001
 40
0.0
 40
0.0
 40
0.0
 40
0.0
 40
0.1249271386512288
 40
0.249916440710712
 40
0.3749668515804486
 40
0.4999574096988544
 40
0.6249206649717214
 40
0.7499166873374816
 40
0.8748746398258233
 40
1.0
 40
1.0
 40
1.0
 40
1.0
 10
185.0488836168742
 20
103.793295221267
 30
0.0
 10
184.682506963786
 20
103.8366276605666
 30
0.0
 10
183.9495713495722
 20
103.9233141012709
 30
0.0
 10
182.8455458343243
 20
103.7581157990293
 30
0.0
 10
181.8047421130753
 20
103.3691948338625
 30
0.0
 10
180.869560314213
 20
102.7641673333228
 30
0.0
 10
180.0889127554204
 20
101.9679787377358
 30
0.0
 10
179.5009489435796
 20
101.0236143525348
 30
0.0
 10
179.1051164666291
 20
99.97517126593445
 30
0.0
 10
179.0470542460506
 20
99.23604946236617
 30
0.0
 10
179.0180037021136
 20
98.86624117368248
 30
0.0
  0
SPLINE
  5
14E
330
1F
100
AcDbEntity
  8
0
  6
Continuous
 62
     7
370
    15
100
AcDbSpline
210
0.0
220
0.0
230
1.0
 70
     8
 71
     3
 72
    15
 73
    11
 74
     0
 42
0.00000001
 43
0.00000001
 40
0.0
 40
0.0
 40
0.0
 40
0.0
 40
0.1242545820370135
 40
0.2486324542486632
 40
0.3735410131487474
 40
0.4985826398082712
 40
0.6236634404273055
 40
0.7490700366649097
 40
0.8744380995702337
 40
1.0
 40
1.0
 40
1.0
 40
1.0
 10
182.0180023312068
 20
98.86624117368245
 30
0.0
 10
182.0315622763644
 20
99.01819942369411
 30
0.0
 10
182.0586956213787
 20
99.32226670253671
 30
0.0
 10
182.2331571355043
 20
99.74957995953729
 30
0.0
 10
182.486485876537
 20
100.1312224159572
 30
0.0
 10
182.8163121284112
 20
100.4511495849215
 30
0.0
 10
183.2072376511375
 20
100.6917273340484
 30
0.0
 10
183.6399329644019
 20
100.8433560446035
 30
0.0
 10
184.0974689355708
 20
100.8968178946116
 30
0.0
 10
184.3993866548539
 20
100.856121411228
 30
0.0
 10
184.5504621266818
 20
100.8357574509957
 30
0.0
  0
LINE
  5
14F
330
1F
100
AcDbEntity
  8
0
  6
Continuous
 62
     7
370
    15
100
AcDbLine
 10
199.9210695028
 20
83.4779014158
 30
0.0
 11
184.3800971508
 21
80.8614959287
 31
0.0
  0
LINE
  5
150
330
1F
100
AcDbEntity
  8
0
  6
Continuous
 62
     7
370
    15
100
AcDbLine
 10
184.8781535625
 20
77.9031236934
 30
0.0
 11
200.4191259145
 21
80.5195440816
 31
0.0
  0
LINE
  5
151
330
1F
100
AcDbEntity
  8
0
  6
Continuous
 62
     7
370
    15
100
AcDbLine
 10
184.5506781935
 20
100.8353402185
 30
0.0
 11
200.091643095
 21
98.2189198303
 31
0.0
  0
LINE
  5
152
330
1F
100
AcDbEntity
  8
0
  6
Continuous
 62
     7
370
    15
100
AcDbLine
 10
200.5897144079
 20
101.1772771644
 30
0.0
 11
185.0487420558
 21
103.7936975526
 31
0.0
  0
SPLINE
  5
153
330
1F
100
AcDbEntity
  8
0
  6
Continuous
 62
     7
370
    15
100
AcDbSpline
210
0.0
220
0.0
230
1.0
 70
     8
 71
     3
 72
    12
 73
     8
 74
     0
 42
0.00000001
 43
0.00000001
 40
0.0
 40
0.0
 40
0.0
 40
0.0
 40
0.1526145672469793
 40
0.2973904845171755
 40
0.5623710231218961
 40
0.7966012194016354
 40
1.0
 40
1.0
 40
1.0
 40
1.0
 10
200.4187831878161
 20
80.51984210485008
 30
0.0
 10
200.6700020469439
 20
80.57258724141103
 30
0.0
 10
201.159536562446
 20
80.67536839789396
 30
0.0
 10
202.0090686340395
 20
81.10459160673436
 30
0.0
 10
202.8210550617471
 20
81.84899286995798
 30
0.0
 10
203.3854853406235
 20
82.9200362116945
 30
0.0
 10
203.467174472662
 20
83.65496171277692
 30
0.0
 10
203.5051414966082
 20
83.99653633111504
 30
0.0
  0
SPLINE
  5
154
330
1F
100
AcDbEntity
  8
0
  6
Continuous
 62
     7
370
    15
100
AcDbSpline
210
0.0
220
0.0
230
1.0
 70
     8
 71
     3
 72
    11
 73
     7
 74
     0
 42
0.00000001
 43
0.00000001
 40
0.0
 40
0.0
 40
0.0
 40
0.0
 40
0.2003614332042009
 40
0.4328002787250614
 40
0.6990289005539189
 40
0.9999999999999999
 40
0.9999999999999999
 40
0.9999999999999999
 40
0.9999999999999999
 10
200.5068341493106
 20
83.99653633111501
 30
0.0
 10
200.493607406117
 20
83.94010804314766
 30
0.0
 10
200.4650363480584
 20
83.81821742592824
 30
0.0
 10
200.3491411273643
 20
83.6525127291394
 30
0.0
 10
200.1643965324001
 20
83.51360363236255
 30
0.0
 10
200.0067678110067
 20
83.4902199866255
 30
0.0
 10
199.9231258630252
 20
83.47781200879601
 30
0.0
  0
SPLINE
  5
155
330
1F
100
AcDbEntity
  8
0
  6
Continuous
 62
     7
370
    15
100
AcDbSpline
210
0.0
220
0.0
230
1.0
 70
     8
 71
     3
 72
    12
 73
     8
 74
     0
 42
0.00000001
 43
0.00000001
 40
0.0
 40
0.0
 40
0.0
 40
0.0
 40
0.2034072081522018
 40
0.4376402954345011
 40
0.7026159938043711
 40
0.8473895447225762
 40
1.0
 40
1.0
 40
1.0
 40
1.0
 10
203.5051414966082
 20
97.5551625060418
 30
0.0
 10
203.4837079774153
 20
97.8981737261063
 30
0.0
 10
203.4375927401187
 20
98.63617870169222
 30
0.0
 10
202.9254657239389
 20
99.73327878210087
 30
0.0
 10
202.1502717235356
 20
100.5160476715531
 30
0.0
 10
201.3224136662746
 20
100.9857610351957
 30
0.0
 10
200.8384274442077
 20
101.1120312398482
 30
0.0
 10
200.5900571345782
 20
101.1768301295617
 30
0.0
  0
SPLINE
  5
156
330
1F
100
AcDbEntity
  8
0
  6
Continuous
 62
     7
370
    15
100
AcDbSpline
210
0.0
220
0.0
230
1.0
 70
     8
 71
     3
 72
    12
 73
     8
 74
     0
 42
0.00000001
 43
0.00000001
 40
0.0
 40
0.0
 40
0.0
 40
0.0
 40
0.1555468069860065
 40
0.3021980194966735
 40
0.5679579326063526
 40
0.7999343262328438
 40
1.0
 40
1.0
 40
1.0
 40
1.0
 10
200.0897357463336
 20
98.21982880109337
 30
0.0
 10
200.1302774966622
 20
98.20407801874994
 30
0.0
 10
200.2090424478278
 20
98.17347722840303
 30
0.0
 10
200.3386680159039
 20
98.0784446694859
 30
0.0
 10
200.4530990818029
 20
97.93226409086725
 30
0.0
 10
200.5172568856428
 20
97.73802017069305
 30
0.0
 10
200.5101330042858
 20
97.61303799070959
 30
0.0
 10
200.5068341493106
 20
97.5551625060418
 30
0.0
  0
LINE
  5
157
330
1F
100
AcDbEntity
  8
0
  6
Continuous
 62
     7
370
    15
100
AcDbLine
 10
200.5059847831
 20
97.605170803
 30
0.0
 11
200.5059847831
 21
97.3627736139
 31
0.0
  0
LINE
  5
158
330
1F
100
AcDbEntity
  8
0
  6
Continuous
 62
     7
370
    15
100
AcDbLine
 10
200.5059847831
 20
84.3627770709
 30
0.0
 11
200.5059847831
 21
83.9465280341
 31
0.0
  0
LINE
  5
159
330
1F
100
AcDbEntity
  8
0
  6
Continuous
 62
     7
370
    15
100
AcDbLine
 10
203.5059908628
 20
83.9465280341
 30
0.0
 11
203.5059908628
 21
84.3655188846
 31
0.0
  0
LINE
  5
15A
330
1F
100
AcDbEntity
  8
0
  6
Continuous
 62
     7
370
    15
100
AcDbLine
 10
203.5059908628
 20
97.3600318002
 30
0.0
 11
203.5059908628
 21
97.605170803
 31
0.0
  0
LINE
  5
15B
330
1F
100
AcDbEntity
  8
0
  6
Continuous
 62
     7
370
    15
100
AcDbLine
 10
189.8052672147
 20
96.4627732801
 30
0.0
 11
188.1869936585
 21
96.4627732801
 31
0.0
  0
LINE
  5
15C
330
1F
100
AcDbEntity
  8
0
  6
Continuous
 62
     7
370
    15
100
AcDbLine
 10
188.8139153122
 20
95.6627746391
 30
0.0
 11
189.8052672147
 21
95.6627746391
 31
0.0
  0
LINE
  5
15D
330
1F
100
AcDbEntity
  8
0
  6
Continuous
 62
     7
370
    15
100
AcDbLine
 10
190.1434937715
 20
97.7309068012
 30
0.0
 11
189.8769716024
 21
96.5226610469
 31
0.0
  0
LINE
  5
15E
330
1F
100
AcDbEntity
  8
0
  6
Continuous
 62
     7
370
    15
100
AcDbLine
 10
190.6451264619
 20
96.2911119031
 30
0.0
 11
190.9247094988
 21
97.558574872
 31
0.0
  0
SPLINE
  5
15F
330
1F
100
AcDbEntity
  8
0
  6
Continuous
 62
     7
370
    15
100
AcDbSpline
210
0.0
220
0.0
230
1.0
 70
     8
 71
     3
 72
    11
 73
     7
 74
     0
 42
0.00000001
 43
0.00000001
 40
0.0
 40
0.0
 40
0.0
 40
0.0
 40
0.2541305495495546
 40
0.5022664238365682
 40
0.7495161270384285
 40
1.0
 40
1.0
 40
1.0
 40
1.0
 10
189.805267214725
 20
95.66277463906792
 30
0.0
 10
189.9053556071228
 20
95.67301978045889
 30
0.0
 10
190.1031714108751
 20
95.69326839101458
 30
0.0
 10
190.3613235925934
 20
95.84729377875762
 30
0.0
 10
190.5647634182727
 20
96.06637666203733
 30
0.0
 10
190.6265049994924
 20
96.25342542046056
 30
0.0
 10
190.6575763821101
 20
96.34755750173119
 30
0.0
  0
LINE
  5
160
330
1F
100
AcDbEntity
  8
0
  6
Continuous
 62
     7
370
    15
100
AcDbLine
 10
189.4169951081
 20
82.8627665805
 30
0.0
 11
189.4169951081
 21
83.6627652215
 31
0.0
  0
LINE
  5
161
330
1F
100
AcDbEntity
  8
0
  6
Continuous
 62
     7
370
    15
100
AcDbLine
 10
189.4169951081
 20
98.0627705621
 30
0.0
 11
189.4169951081
 21
98.8627692031
 31
0.0
  0
ARC
  5
162
330
1F
100
AcDbEntity
  8
0
  6
Continuous
 62
     7
370
    15
100
AcDbCircle
 10
186.6869943666
 20
96.0556274189
 30
0.0
 40
3.807142857143293
100
AcDbArc
 50
54.6997515601
 51
125.3002484399
  0
LINE
  5
163
330
1F
100
AcDbEntity
  8
0
  6
Continuous
 62
     7
370
    15
100
AcDbLine
 10
184.4869980812
 20
99.1627742814
 30
0.0
 11
184.4869980812
 21
98.8627692031
 31
0.0
  0
LINE
  5
164
330
1F
100
AcDbEntity
  8
0
  6
Continuous
 62
     7
370
    15
100
AcDbLine
 10
188.8869980573
 20
98.8627692031
 30
0.0
 11
188.8869980573
 21
99.1627742814
 31
0.0
  0
LINE
  5
165
330
1F
100
AcDbEntity
  8
0
  6
Continuous
 62
     7
370
    15
100
AcDbLine
 10
184.5869923233
 20
82.4627747106
 30
0.0
 11
184.5869923233
 21
82.0627679395
 31
0.0
  0
LINE
  5
166
330
1F
100
AcDbEntity
  8
0
  6
Continuous
 62
     7
370
    15
100
AcDbLine
 10
188.7869963645
 20
82.0627679395
 30
0.0
 11
188.7869963645
 21
82.4627747106
 31
0.0
  0
ARC
  5
167
330
1F
100
AcDbEntity
  8
0
  6
Continuous
 62
     7
370
    15
100
AcDbCircle
 10
184.7869943666
 20
82.862770276
 30
0.0
 40
0.4000000000008015
100
AcDbArc
 50
270.0
 51
0.0
  0
ARC
  5
168
330
1F
100
AcDbEntity
  8
0
  6
Continuous
 62
     7
370
    15
100
AcDbCircle
 10
188.5869943666
 20
82.862770276
 30
0.0
 40
0.4000000000007731
100
AcDbArc
 50
180.0
 51
270.0
  0
LINE
  5
169
330
1F
100
AcDbEntity
  8
0
  6
Continuous
 62
     7
370
    15
100
AcDbLine
 10
185.1869950294
 20
98.0627705621
 30
0.0
 11
185.1869950294
 21
97.6127703952
 31
0.0
  0
LINE
  5
16A
330
1F
100
AcDbEntity
  8
0
  6
Continuous
 62
     7
370
    15
100
AcDbLine
 10
185.1869950294
 20
96.6127683687
 30
0.0
 11
185.1869950294
 21
96.1240698861
 31
0.0
  0
LINE
  5
16B
330
1F
100
AcDbEntity
  8
0
  6
Continuous
 62
     7
370
    15
100
AcDbLine
 10
185.1869950294
 20
95.327945547
 30
0.0
 11
185.1869950294
 21
95.1722582149
 31
0.0
  0
LINE
  5
16C
330
1F
100
AcDbEntity
  8
0
  6
Continuous
 62
     7
370
    15
100
AcDbLine
 10
185.1869950294
 20
85.8731438684
 30
0.0
 11
185.1869950294
 21
85.112767415
 31
0.0
  0
LINE
  5
16D
330
1F
100
AcDbEntity
  8
0
  6
Continuous
 62
     7
370
    15
100
AcDbLine
 10
185.1869950294
 20
84.1127653884
 30
0.0
 11
185.1869950294
 21
83.6627652215
 31
0.0
  0
LINE
  5
16E
330
1F
100
AcDbEntity
  8
0
  6
Continuous
 62
     7
370
    15
100
AcDbLine
 10
188.1869936585
 20
83.6627652215
 30
0.0
 11
188.1869936585
 21
84.1127653884
 31
0.0
  0
LINE
  5
16F
330
1F
100
AcDbEntity
  8
0
  6
Continuous
 62
     7
370
    15
100
AcDbLine
 10
188.1869936585
 20
85.112767415
 30
0.0
 11
188.1869936585
 21
85.5999161767
 31
0.0
  0
LINE
  5
170
330
1F
100
AcDbEntity
  8
0
  6
Continuous
 62
     7
370
    15
100
AcDbLine
 10
188.1869936585
 20
94.9078371095
 30
0.0
 11
188.1869936585
 21
95.0957705545
 31
0.0
  0
LINE
  5
171
330
1F
100
AcDbEntity
  8
0
  6
Continuous
 62
     7
370
    15
100
AcDbLine
 10
188.1869936585
 20
95.8508421945
 30
0.0
 11
188.1869936585
 21
96.6127683687
 31
0.0
  0
LINE
  5
172
330
1F
100
AcDbEntity
  8
0
  6
Continuous
 62
     7
370
    15
100
AcDbLine
 10
188.1869936585
 20
97.6127703952
 30
0.0
 11
188.1869936585
 21
98.0627705621
 31
0.0
  0
SPLINE
  5
173
330
1F
100
AcDbEntity
  8
0
  6
Continuous
 62
     7
370
    15
100
AcDbSpline
210
0.0
220
0.0
230
1.0
 70
     8
 71
     3
 72
    15
 73
    11
 74
     0
 42
0.00000001
 43
0.00000001
 40
0.0
 40
0.0
 40
0.0
 40
0.0
 40
0.1355965374029472
 40
0.2953256217509696
 40
0.4038078398653699
 40
0.5319571822943643
 40
0.6738315565179956
 40
0.826100491069593
 40
0.9126193230579405
 40
1.0
 40
1.0
 40
1.0
 40
1.0
 10
188.1869936584926
 20
455.4288109111168
 30
0.0
 10
188.2313757431399
 20
455.4214905796929
 30
0.0
 10
188.3280387331698
 20
455.4055470941835
 30
0.0
 10
188.5348905450665
 20
455.4532164165395
 30
0.0
 10
188.7281381849855
 20
455.5409353943941
 30
0.0
 10
188.874733883365
 20
455.6606023981519
 30
0.0
 10
188.9734418487579
 20
455.8114890295223
 30
0.0
 10
189.0031022630344
 20
455.9333388409257
 30
0.0
 10
188.9819186218461
 20
456.0625873398272
 30
0.0
 10
188.9356622482628
 20
456.1292640339863
 30
0.0
 10
188.912419438312
 20
456.1627676057198
 30
0.0
  0
SPLINE
  5
174
330
1F
100
AcDbEntity
  8
0
  6
Continuous
 62
     7
370
    15
100
AcDbSpline
210
0.0
220
0.0
230
1.0
 70
     8
 71
     3
 72
    20
 73
    16
 74
     0
 42
0.00000001
 43
0.00000001
 40
0.0
 40
0.0
 40
0.0
 40
0.0
 40
0.0607080851403745
 40
0.2265357300524719
 40
0.3908032460920737
 40
0.470594596315996
 40
0.5476205594300718
 40
0.6228561394704069
 40
0.7003373898129326
 40
0.7786475000763834
 40
0.8566579956215412
 40
0.9330988373959815
 40
0.9703736620656487
 40
0.9892324840318598
 40
1.0
 40
1.0
 40
1.0
 40
1.0
 10
184.4507957100367
 20
456.1627676057198
 30
0.0
 10
184.4970705785203
 20
456.1094361601918
 30
0.0
 10
184.6697479260396
 20
455.9104267873958
 30
0.0
 10
185.0867063445955
 20
455.8924999220715
 30
0.0
 10
185.6516753494837
 20
455.8174746968432
 30
0.0
 10
186.1712856283049
 20
455.7745369392965
 30
0.0
 10
186.5651743549833
 20
455.743976701777
 30
0.0
 10
186.9580856772618
 20
455.7163041433109
 30
0.0
 10
187.3392478319198
 20
455.6849942188233
 30
0.0
 10
187.6949747684481
 20
455.6525208240611
 30
0.0
 10
187.9975953881734
 20
455.6216838505165
 30
0.0
 10
188.1901161696463
 20
455.5987828357428
 30
0.0
 10
188.2782266217042
 20
455.5907644277741
 30
0.0
 10
188.3236597949843
 20
455.5829817788114
 30
0.0
 10
188.323102312755
 20
455.5869246360522
 30
0.0
 10
188.322899699161
 20
455.5883576440194
 30
0.0
  0
SPLINE
  5
175
330
1F
100
AcDbEntity
  8
0
  6
Continuous
 62
     7
370
    15
100
AcDbSpline
210
0.0
220
0.0
230
1.0
 70
     8
 71
     3
 72
    18
 73
    14
 74
     0
 42
0.00000001
 43
0.00000001
 40
0.0
 40
0.0
 40
0.0
 40
0.0
 40
0.0057509066951679
 40
0.1156357341153016
 40
0.2383920012957009
 40
0.3593080282605342
 40
0.4757049737061607
 40
0.5872140296682338
 40
0.7047332558196875
 40
0.8265030771775798
 40
0.889145241892323
 40
0.9517988188780394
 40
1.0
 40
1.0
 40
1.0
 40
1.0
 10
188.6936107873416
 20
464.8095985221245
 30
0.0
 10
188.6889635508318
 20
464.8125507179129
 30
0.0
 10
188.5955197455499
 20
464.8719116752966
 30
0.0
 10
188.3732220898702
 20
464.8780907820734
 30
0.0
 10
187.9818137730141
 20
464.9372923841663
 30
0.0
 10
187.4699388385225
 20
464.9828290456834
 30
0.0
 10
186.9189069975698
 20
465.0289970690756
 30
0.0
 10
186.3567921279773
 20
465.0678750477388
 30
0.0
 10
185.8225107902986
 20
465.112629359092
 30
0.0
 10
185.4248863672145
 20
465.153670062534
 30
0.0
 10
185.2101368221608
 20
465.1748168888912
 30
0.0
 10
185.1140895285465
 20
465.1770925413105
 30
0.0
 10
185.0986474853804
 20
465.1610147903238
 30
0.0
 10
185.0919330715632
 20
465.1540239619591
 30
0.0
  0
SPLINE
  5
176
330
1F
100
AcDbEntity
  8
0
  6
Continuous
 62
     7
370
    15
100
AcDbSpline
210
0.0
220
0.0
230
1.0
 70
     8
 71
     3
 72
    12
 73
     8
 74
     0
 42
0.00000001
 43
0.00000001
 40
0.0
 40
0.0
 40
0.0
 40
0.0
 40
0.2236880114425852
 40
0.452315443220578
 40
0.682243866257405
 40
0.9102275416706823
 40
1.0
 40
1.0
 40
1.0
 40
1.0
 10
184.3926960825419
 20
465.9646173285821
 30
0.0
 10
184.3799590692365
 20
465.9220671389078
 30
0.0
 10
184.3542037872195
 20
465.836027177367
 30
0.0
 10
184.4753357173793
 20
465.7444330307173
 30
0.0
 10
184.7070046606696
 20
465.6480975966567
 30
0.0
 10
184.9518723055748
 20
465.5856379601815
 30
0.0
 10
185.1352010072438
 20
465.5908416654237
 30
0.0
 10
185.1869950293994
 20
465.5923118161538
 30
0.0
  0
SPLINE
  5
177
330
1F
100
AcDbEntity
  8
0
  6
Continuous
 62
     7
370
    15
100
AcDbSpline
210
0.0
220
0.0
230
1.0
 70
     8
 71
     3
 72
    19
 73
    15
 74
     0
 42
0.00000001
 43
0.00000001
 40
0.0
 40
0.0
 40
0.0
 40
0.0
 40
0.0979056202253811
 40
0.1753771800554816
 40
0.2884839997925994
 40
0.3734534570055243
 40
0.4570031298941141
 40
0.6168869757869907
 40
0.6796669952183301
 40
0.7634256496661528
 40
0.8137552489563898
 40
0.8702989013372416
 40
0.9324004709135976
 40
1.0
 40
1.0
 40
1.0
 40
1.0
 10
184.5689321159816
 20
465.4694964455941
 30
0.0
 10
184.6194368635351
 20
465.443115205737
 30
0.0
 10
184.7099054207533
 20
465.3958588026637
 30
0.0
 10
185.0845682901182
 20
465.335211473605
 30
0.0
 10
185.5710594065095
 20
465.2813208040861
 30
0.0
 10
186.1624023859564
 20
465.2280967002852
 30
0.0
 10
186.9164958251274
 20
465.1765486598966
 30
0.0
 10
187.5576001897013
 20
465.1095962966249
 30
0.0
 10
188.2068597015783
 20
465.0740702193845
 30
0.0
 10
188.5851978624949
 20
465.1522860122068
 30
0.0
 10
188.8370553394807
 20
465.2604554062373
 30
0.0
 10
188.9706439286151
 20
465.3488075580709
 30
0.0
 10
189.0324054168227
 20
465.4226381316658
 30
0.0
 10
188.9609691013745
 20
465.5031647110313
 30
0.0
 10
188.9237368702388
 20
465.545134739814
 30
0.0
  0
SPLINE
  5
178
330
1F
100
AcDbEntity
  8
0
  6
Continuous
 62
     7
370
    15
100
AcDbSpline
210
0.0
220
0.0
230
1.0
 70
     8
 71
     3
 72
    25
 73
    21
 74
     0
 42
0.00000001
 43
0.00000001
 40
0.0
 40
0.0
 40
0.0
 40
0.0
 40
0.0176277380210759
 40
0.034498368501061
 40
0.0503162576903609
 40
0.0649732835377912
 40
0.0909453251453341
 40
0.1134378605560476
 40
0.1538405216414906
 40
0.1912342002105126
 40
0.2995713553075202
 40
0.3999639010640361
 40
0.5012957663992693
 40
0.5949059973032719
 40
0.6784873620415822
 40
0.7336283934114642
 40
0.8075189687373481
 40
0.8952813469409744
 40
0.9453087863859101
 40
1.0
 40
1.0
 40
1.0
 40
1.0
 10
188.5664144753909
 20
464.9195541905739
 30
0.0
 10
188.6061240945043
 20
464.9239433871987
 30
0.0
 10
188.683837813166
 20
464.9325332654009
 30
0.0
 10
188.7857300835738
 20
464.9785524498498
 30
0.0
 10
188.8667310035283
 20
465.0374993146438
 30
0.0
 10
188.9429482206577
 20
465.1210800138281
 30
0.0
 10
188.9959875157665
 20
465.2247150850176
 30
0.0
 10
189.0201521876095
 20
465.3570739712544
 30
0.0
 10
188.9972611591155
 20
465.4889239878333
 30
0.0
 10
188.8260219147866
 20
465.7341314943209
 30
0.0
 10
188.4832298790598
 20
465.8212224520111
 30
0.0
 10
187.9881168688043
 20
465.8797816673638
 30
0.0
 10
187.3749042267203
 20
465.938125368301
 30
0.0
 10
186.7254327097755
 20
465.9877487159899
 30
0.0
 10
186.1857415948112
 20
466.0272361210612
 30
0.0
 10
185.739720536084
 20
466.0664129869932
 30
0.0
 10
185.3510250288113
 20
466.1046412367391
 30
0.0
 10
185.0908575563548
 20
466.1324706413916
 30
0.0
 10
184.960427622352
 20
466.154986136423
 30
0.0
 10
184.9517614245742
 20
466.1674430120643
 30
0.0
 10
184.9472353457904
 20
466.1739488410332
 30
0.0
  0
SPLINE
  5
179
330
1F
100
AcDbEntity
  8
0
  6
Continuous
 62
     7
370
    15
100
AcDbSpline
210
0.0
220
0.0
230
1.0
 70
     8
 71
     3
 72
    12
 73
     8
 74
     0
 42
0.00000001
 43
0.00000001
 40
0.0
 40
0.0
 40
0.0
 40
0.0
 40
0.1756468858642229
 40
0.5723066050612917
 40
0.7586197610388242
 40
0.9207477055217959
 40
1.0
 40
1.0
 40
1.0
 40
1.0
 10
185.0355619787669
 20
465.3554578589776
 30
0.0
 10
184.9699983895573
 20
465.3462878587738
 30
0.0
 10
184.7563739067115
 20
465.316409437308
 30
0.0
 10
184.540452991904
 20
465.2424484385589
 30
0.0
 10
184.3793083493301
 20
465.0275560194971
 30
0.0
 10
184.3480931122871
 20
464.8673077807341
 30
0.0
 10
184.3790687817702
 20
464.7886608117583
 30
0.0
 10
184.389239013145
 20
464.7628386782982
 30
0.0
  0
LINE
  5
17A
330
1F
100
AcDbEntity
  8
0
  6
Continuous
 62
     7
370
    15
100
AcDbLine
 10
184.5467517375
 20
456.0650308894
 30
0.0
 11
183.4282929301
 21
456.0650308894
 31
0.0
  0
LINE
  5
17B
330
1F
100
AcDbEntity
  8
0
  6
Continuous
 62
     7
370
    15
100
AcDbLine
 10
183.4282929301
 20
455.2650322484
 30
0.0
 11
185.1869950294
 21
455.2650322484
 31
0.0
  0
LINE
  5
17C
330
1F
100
AcDbEntity
  8
0
  6
Continuous
 62
     7
370
    15
100
AcDbLine
 10
182.0180023312
 20
468.8627739715
 30
0.0
 11
182.0180023312
 21
468.9162393379
 31
0.0
  0
LINE
  5
17D
330
1F
100
AcDbEntity
  8
0
  6
Continuous
 62
     7
370
    15
100
AcDbLine
 10
179.0180037021
 20
468.9162393379
 30
0.0
 11
179.0180037021
 21
468.8627739715
 31
0.0
  0
SPLINE
  5
17E
330
1F
100
AcDbEntity
  8
0
  6
Continuous
 62
     7
370
    15
100
AcDbSpline
210
0.0
220
0.0
230
1.0
 70
     8
 71
     3
 72
    15
 73
    11
 74
     0
 42
0.00000001
 43
0.00000001
 40
0.0
 40
0.0
 40
0.0
 40
0.0
 40
0.1077555299954202
 40
0.2352509120200914
 40
0.3627904709205857
 40
0.4902567684572602
 40
0.6176622816893439
 40
0.7450968295387175
 40
0.8724966611848949
 40
1.0
 40
1.0
 40
1.0
 40
1.0
 10
179.0340597033
 20
452.8627713488915
 30
0.0
 10
179.0505995360338
 20
452.5502493558336
 30
0.0
 10
179.0867091513402
 20
451.8679541279568
 30
0.0
 10
179.422908540249
 20
450.8588010041084
 30
0.0
 10
179.9810008484645
 20
449.8953278392748
 30
0.0
 10
180.7358232520938
 20
449.0744014161434
 30
0.0
 10
181.6509835030919
 20
448.4391271329245
 30
0.0
 10
182.6782440927716
 20
448.0189800076429
 30
0.0
 10
183.7742200790397
 20
447.8051469487212
 30
0.0
 10
184.5099817717159
 20
447.8706875706526
 30
0.0
 10
184.8780120014644
 20
447.9034711884835
 30
0.0
  0
SPLINE
  5
17F
330
1F
100
AcDbEntity
  8
0
  6
Continuous
 62
     7
370
    15
100
AcDbSpline
210
0.0
220
0.0
230
1.0
 70
     8
 71
     3
 72
    15
 73
    11
 74
     0
 42
0.00000001
 43
0.00000001
 40
0.0
 40
0.0
 40
0.0
 40
0.0
 40
0.1316521329133259
 40
0.2633118150781532
 40
0.3951881368594772
 40
0.5266702333234908
 40
0.6575475287034128
 40
0.7882113217210472
 40
0.9184609053756765
 40
1.0
 40
1.0
 40
1.0
 40
1.0
 10
184.3803206681704
 20
450.8611579703667
 30
0.0
 10
184.2281373244975
 20
450.8493424266023
 30
0.0
 10
183.9237619105909
 20
450.8257106615417
 30
0.0
 10
183.4728980498446
 20
450.9271901413863
 30
0.0
 10
183.0538639635751
 20
451.1140336578649
 30
0.0
 10
182.6834812298515
 20
451.38664482462
 30
0.0
 10
182.3812171625727
 20
451.7325526647821
 30
0.0
 10
182.1620534678217
 20
452.1342560325385
 30
0.0
 10
182.0446863806131
 20
452.5205698518228
 30
0.0
 10
182.0345112568512
 20
452.7676463630305
 30
0.0
 10
182.0305938124156
 20
452.8627713488915
 30
0.0
  0
SPLINE
  5
180
330
1F
100
AcDbEntity
  8
0
  6
Continuous
 62
     7
370
    15
100
AcDbSpline
210
0.0
220
0.0
230
1.0
 70
     8
 71
     3
 72
    15
 73
    11
 74
     0
 42
0.00000001
 43
0.00000001
 40
0.0
 40
0.0
 40
0.0
 40
0.0
 40
0.1249272082402243
 40
0.24991634699995
 40
0.3749674166976121
 40
0.4999571311568022
 40
0.6249204560387831
 40
0.7499165480319095
 40
0.8748745701264112
 40
1.0
 40
1.0
 40
1.0
 40
1.0
 10
185.0488836168742
 20
473.7932850884774
 30
0.0
 10
184.6825073913175
 20
473.836615422131
 30
0.0
 10
183.949573315478
 20
473.9232975697078
 30
0.0
 10
182.8455403373187
 20
473.758130995444
 30
0.0
 10
181.8047505338373
 20
473.3691766091367
 30
0.0
 10
180.8695552806525
 20
472.7641758481708
 30
0.0
 10
180.0889135945518
 20
471.9679819828085
 30
0.0
 10
179.5009487198725
 20
471.023619527008
 30
0.0
 10
179.1051165226362
 20
469.9751759326348
 30
0.0
 10
179.047054264728
 20
469.2360541968322
 30
0.0
 10
179.0180037021136
 20
468.866245942054
 30
0.0
  0
SPLINE
  5
181
330
1F
100
AcDbEntity
  8
0
  6
Continuous
 62
     7
370
    15
100
AcDbSpline
210
0.0
220
0.0
230
1.0
 70
     8
 71
     3
 72
    15
 73
    11
 74
     0
 42
0.00000001
 43
0.00000001
 40
0.0
 40
0.0
 40
0.0
 40
0.0
 40
0.1242508113591687
 40
0.2486326926246578
 40
0.3735414934793928
 40
0.4985833623513268
 40
0.6236644052586534
 40
0.7490699200289973
 40
0.8744382257790562
 40
1.0
 40
1.0
 40
1.0
 40
1.0
 10
182.0180023312068
 20
468.866245942054
 30
0.0
 10
182.031563490713
 20
469.0181988596249
 30
0.0
 10
182.0587001151442
 20
469.3222649871178
 30
0.0
 10
182.2331530683687
 20
469.7495814006606
 30
0.0
 10
182.4864861696183
 20
470.1312273568035
 30
0.0
 10
182.8163124780004
 20
470.4511531461287
 30
0.0
 10
183.2072345785449
 20
470.6917359163741
 30
0.0
 10
183.6399362854215
 20
470.8433424128602
 30
0.0
 10
184.0974677258121
 20
470.8968049730472
 30
0.0
 10
184.3993863994063
 20
470.856120259973
 30
0.0
 10
184.5504621266818
 20
470.8357622193673
 30
0.0
  0
LINE
  5
182
330
1F
100
AcDbEntity
  8
0
  6
Continuous
 62
     7
370
    15
100
AcDbLine
 10
199.9210695028
 20
453.4779061841
 30
0.0
 11
184.3800971508
 21
450.8614857959
 31
0.0
  0
LINE
  5
183
330
1F
100
AcDbEntity
  8
0
  6
Continuous
 62
     7
370
    15
100
AcDbLine
 10
184.8781535625
 20
447.9031284618
 30
0.0
 11
200.4191259145
 21
450.5195339488
 31
0.0
  0
LINE
  5
184
330
1F
100
AcDbEntity
  8
0
  6
Continuous
 62
     7
370
    15
100
AcDbLine
 10
184.5506781935
 20
470.8353300857
 30
0.0
 11
200.091643095
 21
468.2189096975
 31
0.0
  0
LINE
  5
185
330
1F
100
AcDbEntity
  8
0
  6
Continuous
 62
     7
370
    15
100
AcDbLine
 10
200.5897144079
 20
471.1772819328
 30
0.0
 11
185.0487420558
 21
473.793702321
 31
0.0
  0
SPLINE
  5
186
330
1F
100
AcDbEntity
  8
0
  6
Continuous
 62
     7
370
    15
100
AcDbSpline
210
0.0
220
0.0
230
1.0
 70
     8
 71
     3
 72
    12
 73
     8
 74
     0
 42
0.00000001
 43
0.00000001
 40
0.0
 40
0.0
 40
0.0
 40
0.0
 40
0.1526137453424628
 40
0.2973908863817187
 40
0.5623712734281687
 40
0.7966013357376034
 40
1.0
 40
1.0
 40
1.0
 40
1.0
 10
200.4187831878162
 20
450.5198468732216
 30
0.0
 10
200.6700029878464
 20
450.572584564183
 30
0.0
 10
201.1595426347502
 20
450.6753519042119
 30
0.0
 10
202.0090623446755
 20
451.1046051540728
 30
0.0
 10
202.8210564068144
 20
451.8489946568658
 30
0.0
 10
203.3854850704627
 20
452.920041578902
 30
0.0
 10
203.4671743869396
 20
453.6549666711598
 30
0.0
 10
203.5051414966082
 20
453.9965410994866
 30
0.0
  0
SPLINE
  5
187
330
1F
100
AcDbEntity
  8
0
  6
Continuous
 62
     7
370
    15
100
AcDbSpline
210
0.0
220
0.0
230
1.0
 70
     8
 71
     3
 72
    11
 73
     7
 74
     0
 42
0.00000001
 43
0.00000001
 40
0.0
 40
0.0
 40
0.0
 40
0.0
 40
0.2003606672654827
 40
0.4327986242225684
 40
0.6990262283165949
 40
1.0
 40
1.0
 40
1.0
 40
1.0
 10
200.5068341493106
 20
453.9965410994866
 30
0.0
 10
200.4936073955759
 20
453.9401128587203
 30
0.0
 10
200.4650363147474
 20
453.8182223434595
 30
0.0
 10
200.3491412955984
 20
453.6525167441944
 30
0.0
 10
200.1643948782287
 20
453.5136111888975
 30
0.0
 10
200.0067675633302
 20
453.4902160345939
 30
0.0
 10
199.9231258630252
 20
453.4778018760064
 30
0.0
  0
SPLINE
  5
188
330
1F
100
AcDbEntity
  8
0
  6
Continuous
 62
     7
370
    15
100
AcDbSpline
210
0.0
220
0.0
230
1.0
 70
     8
 71
     3
 72
    12
 73
     8
 74
     0
 42
0.00000001
 43
0.00000001
 40
0.0
 40
0.0
 40
0.0
 40
0.0
 40
0.2034073854615157
 40
0.437640676923934
 40
0.702616606272144
 40
0.8473902833889199
 40
1.0
 40
1.0
 40
1.0
 40
1.0
 10
203.5051414966082
 20
467.5551672744133
 30
0.0
 10
203.4837079672486
 20
467.8981784616321
 30
0.0
 10
203.4375927080779
 20
468.636183366549
 30
0.0
 10
202.9254658834548
 20
469.7332840658237
 30
0.0
 10
202.1502711730526
 20
470.5160506614666
 30
0.0
 10
201.3224160205522
 20
470.9857685357183
 30
0.0
 10
200.8384277862131
 20
471.1120272062611
 30
0.0
 10
200.5900571345782
 20
471.1768199967721
 30
0.0
  0
SPLINE
  5
189
330
1F
100
AcDbEntity
  8
0
  6
Continuous
 62
     7
370
    15
100
AcDbSpline
210
0.0
220
0.0
230
1.0
 70
     8
 71
     3
 72
    12
 73
     8
 74
     0
 42
0.00000001
 43
0.00000001
 40
0.0
 40
0.0
 40
0.0
 40
0.0
 40
0.1555469491259979
 40
0.3021982956477866
 40
0.5679584516111281
 40
0.799951343323332
 40
1.0
 40
1.0
 40
1.0
 40
1.0
 10
200.0897357463336
 20
468.2198335694649
 30
0.0
 10
200.1302775075074
 20
468.2040827913917
 30
0.0
 10
200.2090424797433
 20
468.1734820093409
 30
0.0
 10
200.3386678566136
 20
468.0784493751391
 30
0.0
 10
200.4531030705399
 20
467.9322655964919
 30
0.0
 10
200.5172544784197
 20
467.7380190391635
 30
0.0
 10
200.5101320533498
 20
467.6130375745954
 30
0.0
 10
200.5068341493106
 20
467.5551672744133
 30
0.0
  0
LINE
  5
18A
330
1F
100
AcDbEntity
  8
0
  6
Continuous
 62
     7
370
    15
100
AcDbLine
 10
200.5059847831
 20
467.6051606702
 30
0.0
 11
200.5059847831
 21
467.3627634811
 31
0.0
  0
LINE
  5
18B
330
1F
100
AcDbEntity
  8
0
  6
Continuous
 62
     7
370
    15
100
AcDbLine
 10
200.5059847831
 20
454.3627669381
 30
0.0
 11
200.5059847831
 21
453.9465328025
 31
0.0
  0
LINE
  5
18C
330
1F
100
AcDbEntity
  8
0
  6
Continuous
 62
     7
370
    15
100
AcDbLine
 10
203.5059908628
 20
453.9465328025
 30
0.0
 11
203.5059908628
 21
454.3655087518
 31
0.0
  0
LINE
  5
18D
330
1F
100
AcDbEntity
  8
0
  6
Continuous
 62
     7
370
    15
100
AcDbLine
 10
203.5059908628
 20
467.3600216674
 30
0.0
 11
203.5059908628
 21
467.6051606702
 31
0.0
  0
LINE
  5
18E
330
1F
100
AcDbEntity
  8
0
  6
Continuous
 62
     7
370
    15
100
AcDbLine
 10
189.8052672147
 20
466.4627631473
 30
0.0
 11
188.1869936585
 21
466.4627631473
 31
0.0
  0
LINE
  5
18F
330
1F
100
AcDbEntity
  8
0
  6
Continuous
 62
     7
370
    15
100
AcDbLine
 10
188.8139153122
 20
465.6627645063
 30
0.0
 11
189.8052672147
 21
465.6627645063
 31
0.0
  0
LINE
  5
190
330
1F
100
AcDbEntity
  8
0
  6
Continuous
 62
     7
370
    15
100
AcDbLine
 10
190.1434937715
 20
467.7309115695
 30
0.0
 11
189.8769716024
 21
466.5226658153
 31
0.0
  0
LINE
  5
191
330
1F
100
AcDbEntity
  8
0
  6
Continuous
 62
     7
370
    15
100
AcDbLine
 10
190.6451264619
 20
466.2911166715
 30
0.0
 11
190.9247094988
 21
467.5585796403
 31
0.0
  0
SPLINE
  5
192
330
1F
100
AcDbEntity
  8
0
  6
Continuous
 62
     7
370
    15
100
AcDbSpline
210
0.0
220
0.0
230
1.0
 70
     8
 71
     3
 72
    11
 73
     7
 74
     0
 42
0.00000001
 43
0.00000001
 40
0.0
 40
0.0
 40
0.0
 40
0.0
 40
0.2541316261173311
 40
0.502266394026237
 40
0.7495055111375698
 40
1.0
 40
1.0
 40
1.0
 40
1.0
 10
189.805267214725
 20
465.6627645062783
 30
0.0
 10
189.9053556298423
 20
465.6730156418078
 30
0.0
 10
190.1031706287578
 20
465.6932760122139
 30
0.0
 10
190.3613178893356
 20
465.8472977519544
 30
0.0
 10
190.5647715884103
 20
466.0663709852923
 30
0.0
 10
190.6265068599654
 20
466.2534240418709
 30
0.0
 10
190.6575763821101
 20
466.3475622701027
 30
0.0
  0
LINE
  5
193
330
1F
100
AcDbEntity
  8
0
  6
Continuous
 62
     7
370
    15
100
AcDbLine
 10
189.4169951081
 20
452.8627713489
 30
0.0
 11
189.4169951081
 21
453.6627699899
 31
0.0
  0
LINE
  5
194
330
1F
100
AcDbEntity
  8
0
  6
Continuous
 62
     7
370
    15
100
AcDbLine
 10
189.4169951081
 20
468.0627753305
 30
0.0
 11
189.4169951081
 21
468.8627739715
 31
0.0
  0
LINE
  5
195
330
1F
100
AcDbEntity
  8
0
  6
Continuous
 62
     7
370
    15
100
AcDbLine
 10
184.4869980812
 20
469.1627641487
 30
0.0
 11
184.4869980812
 21
468.8627739715
 31
0.0
  0
LINE
  5
196
330
1F
100
AcDbEntity
  8
0
  6
Continuous
 62
     7
370
    15
100
AcDbLine
 10
188.8869980573
 20
468.8627739715
 30
0.0
 11
188.8869980573
 21
469.1627641487
 31
0.0
  0
ARC
  5
197
330
1F
100
AcDbEntity
  8
0
  6
Continuous
 62
     7
370
    15
100
AcDbCircle
 10
186.6869943666
 20
466.0556274189
 30
0.0
 40
3.807142857143259
100
AcDbArc
 50
54.6997515601
 51
125.3002484399
  0
LINE
  5
198
330
1F
100
AcDbEntity
  8
0
  6
Continuous
 62
     7
370
    15
100
AcDbLine
 10
184.5869923233
 20
452.4627645778
 30
0.0
 11
184.5869923233
 21
452.0627727079
 31
0.0
  0
LINE
  5
199
330
1F
100
AcDbEntity
  8
0
  6
Continuous
 62
     7
370
    15
100
AcDbLine
 10
188.7869963645
 20
452.0627727079
 30
0.0
 11
188.7869963645
 21
452.4627645778
 31
0.0
  0
ARC
  5
19A
330
1F
100
AcDbEntity
  8
0
  6
Continuous
 62
     7
370
    15
100
AcDbCircle
 10
184.7869943666
 20
452.862770276
 30
0.0
 40
0.4000000000008015
100
AcDbArc
 50
270.0
 51
0.0
  0
ARC
  5
19B
330
1F
100
AcDbEntity
  8
0
  6
Continuous
 62
     7
370
    15
100
AcDbCircle
 10
188.5869943666
 20
452.862770276
 30
0.0
 40
0.4000000000007731
100
AcDbArc
 50
180.0
 51
270.0
  0
LINE
  5
19C
330
1F
100
AcDbEntity
  8
0
  6
Continuous
 62
     7
370
    15
100
AcDbLine
 10
185.1869950294
 20
468.0627753305
 30
0.0
 11
185.1869950294
 21
467.6127751636
 31
0.0
  0
LINE
  5
19D
330
1F
100
AcDbEntity
  8
0
  6
Continuous
 62
     7
370
    15
100
AcDbLine
 10
185.1869950294
 20
466.612773137
 30
0.0
 11
185.1869950294
 21
466.1240597534
 31
0.0
  0
LINE
  5
19E
330
1F
100
AcDbEntity
  8
0
  6
Continuous
 62
     7
370
    15
100
AcDbLine
 10
185.1869950294
 20
465.3279503154
 30
0.0
 11
185.1869950294
 21
465.1722480821
 31
0.0
  0
LINE
  5
19F
330
1F
100
AcDbEntity
  8
0
  6
Continuous
 62
     7
370
    15
100
AcDbLine
 10
185.1869950294
 20
455.8731486368
 30
0.0
 11
185.1869950294
 21
455.1127721834
 31
0.0
  0
LINE
  5
1A0
330
1F
100
AcDbEntity
  8
0
  6
Continuous
 62
     7
370
    15
100
AcDbLine
 10
185.1869950294
 20
454.1127701568
 30
0.0
 11
185.1869950294
 21
453.6627699899
 31
0.0
  0
LINE
  5
1A1
330
1F
100
AcDbEntity
  8
0
  6
Continuous
 62
     7
370
    15
100
AcDbLine
 10
188.1869936585
 20
453.6627699899
 30
0.0
 11
188.1869936585
 21
454.1127701568
 31
0.0
  0
LINE
  5
1A2
330
1F
100
AcDbEntity
  8
0
  6
Continuous
 62
     7
370
    15
100
AcDbLine
 10
188.1869936585
 20
455.1127721834
 30
0.0
 11
188.1869936585
 21
455.5999060439
 31
0.0
  0
LINE
  5
1A3
330
1F
100
AcDbEntity
  8
0
  6
Continuous
 62
     7
370
    15
100
AcDbLine
 10
188.1869936585
 20
464.9078269767
 30
0.0
 11
188.1869936585
 21
465.0957753229
 31
0.0
  0
LINE
  5
1A4
330
1F
100
AcDbEntity
  8
0
  6
Continuous
 62
     7
370
    15
100
AcDbLine
 10
188.1869936585
 20
465.8508469629
 30
0.0
 11
188.1869936585
 21
466.612773137
 31
0.0
  0
LINE
  5
1A5
330
1F
100
AcDbEntity
  8
0
  6
Continuous
 62
     7
370
    15
100
AcDbLine
 10
188.1869936585
 20
467.6127751636
 30
0.0
 11
188.1869936585
 21
468.0627753305
 31
0.0
  0
LINE
  5
1A6
330
1F
100
AcDbEntity
  8
0
  6
Continuous
 62
     7
370
    15
100
AcDbLine
 10
203.4566084146
 20
84.3627770709
 30
0.0
 11
202.5045881271
 21
84.3627770709
 31
0.0
  0
LWPOLYLINE
  5
1A7
330
1F
100
AcDbEntity
  8
0
  6
Continuous
 62
     7
370
    15
100
AcDbPolyline
 90
        9
 70
   128
 43
0.0
 10
202.5045881271
 20
84.3627770709
 10
202.6471028327
 20
84.3858291673
 10
202.7841339111
 20
84.4541211891
 10
202.9104361534
 20
84.5650007295
 10
203.0211368799
 20
84.7142358589
 10
203.1119892597
 20
84.8960896301
 10
203.1794915199
 20
85.1035435962
 10
203.2210657596
 20
85.3286554384
 10
203.2351026535
 20
85.5627675819
  0
LINE
  5
1A8
330
1F
100
AcDbEntity
  8
0
  6
Continuous
 62
     7
370
    15
100
AcDbLine
 10
203.2351026535
 20
85.5627675819
 30
0.0
 11
204.187122941
 21
85.5627675819
 31
0.0
  0
LWPOLYLINE
  5
1A9
330
1F
100
AcDbEntity
  8
0
  6
Continuous
 62
     7
370
    15
100
AcDbPolyline
 90
        9
 70
   128
 43
0.0
 10
204.187122941
 20
85.5627675819
 10
204.1730860471
 20
85.3286554384
 10
204.1315118074
 20
85.1035435962
 10
204.0640095472
 20
84.8960896301
 10
203.9731571674
 20
84.7142358589
 10
203.8624564409
 20
84.5650007295
 10
203.7361690998
 20
84.4541211891
 10
203.5991231203
 20
84.3858291673
 10
203.4566084146
 20
84.3627770709
  0
LINE
  5
1AA
330
1F
100
AcDbEntity
  8
0
  6
Continuous
 62
     7
370
    15
100
AcDbLine
 10
204.187122941
 20
96.1627682018
 30
0.0
 11
203.2351026535
 21
96.1627682018
 31
0.0
  0
LINE
  5
1AB
330
1F
100
AcDbEntity
  8
0
  6
Continuous
 62
     7
370
    15
100
AcDbLine
 10
204.187122941
 20
96.1627682018
 30
0.0
 11
204.187122941
 21
85.5627675819
 31
0.0
  0
LINE
  5
1AC
330
1F
100
AcDbEntity
  8
0
  6
Continuous
 62
     7
370
    15
100
AcDbLine
 10
203.2351026535
 20
96.1627682018
 30
0.0
 11
203.2351026535
 21
85.5627675819
 31
0.0
  0
LINE
  5
1AD
330
1F
100
AcDbEntity
  8
0
  6
Continuous
 62
     7
370
    15
100
AcDbLine
 10
199.7856030464
 20
97.3627736139
 30
0.0
 11
199.7856030464
 21
84.3627770709
 31
0.0
  0
LINE
  5
1AE
330
1F
100
AcDbEntity
  8
0
  6
Continuous
 62
     7
370
    15
100
AcDbLine
 10
199.7856030464
 20
97.3627736139
 30
0.0
 11
202.5045881271
 21
97.3627736139
 31
0.0
  0
LWPOLYLINE
  5
1AF
330
1F
100
AcDbEntity
  8
0
  6
Continuous
 62
     7
370
    15
100
AcDbPolyline
 90
        9
 70
   128
 43
0.0
 10
203.2351026535
 20
96.1627682018
 10
203.2210657596
 20
96.3968803453
 10
203.1794915199
 20
96.6219921874
 10
203.1119892597
 20
96.8294610547
 10
203.0211368799
 20
97.0112999248
 10
202.9104361534
 20
97.1605350541
 10
202.7841339111
 20
97.2714294957
 10
202.6471028327
 20
97.3397066163
 10
202.5045881271
 20
97.3627736139
  0
LINE
  5
1B0
330
1F
100
AcDbEntity
  8
0
  6
Continuous
 62
     7
370
    15
100
AcDbLine
 10
202.5045881271
 20
84.3627770709
 30
0.0
 11
199.7856030464
 21
84.3627770709
 31
0.0
  0
LINE
  5
1B1
330
1F
100
AcDbEntity
  8
0
  6
Continuous
 62
     7
370
    15
100
AcDbLine
 10
202.5045881271
 20
97.3627736139
 30
0.0
 11
203.4566084146
 21
97.3627736139
 31
0.0
  0
LWPOLYLINE
  5
1B2
330
1F
100
AcDbEntity
  8
0
  6
Continuous
 62
     7
370
    15
100
AcDbPolyline
 90
        9
 70
   128
 43
0.0
 10
203.4566084146
 20
97.3627736139
 10
203.5991231203
 20
97.3397066163
 10
203.7361690998
 20
97.2714294957
 10
203.8624564409
 20
97.1605350541
 10
203.9731571674
 20
97.0112999248
 10
204.0640095472
 20
96.8294610547
 10
204.1315118074
 20
96.6219921874
 10
204.1730860471
 20
96.3968803453
 10
204.187122941
 20
96.1627682018
  0
LINE
  5
1B3
330
1F
100
AcDbEntity
  8
0
  6
Continuous
 62
     7
370
    15
100
AcDbLine
 10
204.187122941
 20
466.1627729701
 30
0.0
 11
203.2351026535
 21
466.1627729701
 31
0.0
  0
LINE
  5
1B4
330
1F
100
AcDbEntity
  8
0
  6
Continuous
 62
     7
370
    15
100
AcDbLine
 10
204.187122941
 20
466.1627729701
 30
0.0
 11
204.187122941
 21
455.5627723502
 31
0.0
  0
LINE
  5
1B5
330
1F
100
AcDbEntity
  8
0
  6
Continuous
 62
     7
370
    15
100
AcDbLine
 10
203.2351026535
 20
455.5627723502
 30
0.0
 11
204.187122941
 21
455.5627723502
 31
0.0
  0
LINE
  5
1B6
330
1F
100
AcDbEntity
  8
0
  6
Continuous
 62
     7
370
    15
100
AcDbLine
 10
203.2351026535
 20
466.1627729701
 30
0.0
 11
203.2351026535
 21
455.5627723502
 31
0.0
  0
LINE
  5
1B7
330
1F
100
AcDbEntity
  8
0
  6
Continuous
 62
     7
370
    15
100
AcDbLine
 10
203.4566084146
 20
454.3627669381
 30
0.0
 11
202.5045881271
 21
454.3627669381
 31
0.0
  0
LWPOLYLINE
  5
1B8
330
1F
100
AcDbEntity
  8
0
  6
Continuous
 62
     7
370
    15
100
AcDbPolyline
 90
        9
 70
   128
 43
0.0
 10
202.5045881271
 20
454.3627669381
 10
202.6471028327
 20
454.3858339357
 10
202.7841339111
 20
454.4541110563
 10
202.9104361534
 20
454.5650054979
 10
203.0211368799
 20
454.7142406272
 10
203.1119892597
 20
454.8960794973
 10
203.1794915199
 20
455.1035483646
 10
203.2210657596
 20
455.3286602067
 10
203.2351026535
 20
455.5627723502
  0
LWPOLYLINE
  5
1B9
330
1F
100
AcDbEntity
  8
0
  6
Continuous
 62
     7
370
    15
100
AcDbPolyline
 90
        9
 70
   128
 43
0.0
 10
204.187122941
 20
455.5627723502
 10
204.1730860471
 20
455.3286602067
 10
204.1315118074
 20
455.1035483646
 10
204.0640095472
 20
454.8960794973
 10
203.9731571674
 20
454.7142406272
 10
203.8624564409
 20
454.5650054979
 10
203.7361690998
 20
454.4541110563
 10
203.5991231203
 20
454.3858339357
 10
203.4566084146
 20
454.3627669381
  0
LINE
  5
1BA
330
1F
100
AcDbEntity
  8
0
  6
Continuous
 62
     7
370
    15
100
AcDbLine
 10
199.7856030464
 20
467.3627634811
 30
0.0
 11
199.7856030464
 21
454.3627669381
 31
0.0
  0
LINE
  5
1BB
330
1F
100
AcDbEntity
  8
0
  6
Continuous
 62
     7
370
    15
100
AcDbLine
 10
199.7856030464
 20
467.3627634811
 30
0.0
 11
202.5045881271
 21
467.3627634811
 31
0.0
  0
LWPOLYLINE
  5
1BC
330
1F
100
AcDbEntity
  8
0
  6
Continuous
 62
     7
370
    15
100
AcDbPolyline
 90
        9
 70
   128
 43
0.0
 10
203.2351026535
 20
466.1627729701
 10
203.2210657596
 20
466.3968851137
 10
203.1794915199
 20
466.6219969558
 10
203.1119892597
 20
466.829450922
 10
203.0211368799
 20
467.0113046932
 10
202.9104361534
 20
467.1605398225
 10
202.7841339111
 20
467.271419363
 10
202.6471028327
 20
467.3397113847
 10
202.5045881271
 20
467.3627634811
  0
LINE
  5
1BD
330
1F
100
AcDbEntity
  8
0
  6
Continuous
 62
     7
370
    15
100
AcDbLine
 10
202.5045881271
 20
454.3627669381
 30
0.0
 11
199.7856030464
 21
454.3627669381
 31
0.0
  0
LINE
  5
1BE
330
1F
100
AcDbEntity
  8
0
  6
Continuous
 62
     7
370
    15
100
AcDbLine
 10
202.5045881271
 20
467.3627634811
 30
0.0
 11
203.4566084146
 21
467.3627634811
 31
0.0
  0
LWPOLYLINE
  5
1BF
330
1F
100
AcDbEntity
  8
0
  6
Continuous
 62
     7
370
    15
100
AcDbPolyline
 90
        9
 70
   128
 43
0.0
 10
203.4566084146
 20
467.3627634811
 10
203.5991231203
 20
467.3397113847
 10
203.7361690998
 20
467.271419363
 10
203.8624564409
 20
467.1605398225
 10
203.9731571674
 20
467.0113046932
 10
204.0640095472
 20
466.829450922
 10
204.1315118074
 20
466.6219969558
 10
204.1730860471
 20
466.3968851137
 10
204.187122941
 20
466.1627729701
  0
LINE
  5
1C0
330
1F
100
AcDbEntity
  8
0
  6
Continuous
 62
     7
370
    15
100
AcDbLine
 10
199.2069909572
 20
97.3627736139
 30
0.0
 11
199.7856030464
 21
97.3627736139
 31
0.0
  0
LINE
  5
1C1
330
1F
100
AcDbEntity
  8
0
  6
Continuous
 62
     7
370
    15
100
AcDbLine
 10
199.7856030464
 20
84.3627770709
 30
0.0
 11
199.2069909572
 21
84.3627770709
 31
0.0
  0
LINE
  5
1C2
330
1F
100
AcDbEntity
  8
0
  6
Continuous
 62
     7
370
    15
100
AcDbLine
 10
199.2069909572
 20
467.3627634811
 30
0.0
 11
199.7856030464
 21
467.3627634811
 31
0.0
  0
LINE
  5
1C3
330
1F
100
AcDbEntity
  8
0
  6
Continuous
 62
     7
370
    15
100
AcDbLine
 10
199.7856030464
 20
454.3627669381
 30
0.0
 11
199.2069909572
 21
454.3627669381
 31
0.0
  0
LINE
  5
1C4
330
1F
100
AcDbEntity
  8
0
  6
Continuous
 62
     7
370
    15
100
AcDbLine
 10
209.3069980144
 20
83.9627702998
 30
0.0
 11
210.1069966554
 21
83.9627702998
 31
0.0
  0
LINE
  5
1C5
330
1F
100
AcDbEntity
  8
0
  6
Continuous
 62
     7
370
    15
100
AcDbLine
 10
210.1069966554
 20
83.9627702998
 30
0.0
 11
210.1069966554
 21
85.4627658891
 31
0.0
  0
LINE
  5
1C6
330
1F
100
AcDbEntity
  8
0
  6
Continuous
 62
     7
370
    15
100
AcDbLine
 10
210.1069966554
 20
85.4627658891
 30
0.0
 11
211.6069922447
 21
85.4627658891
 31
0.0
  0
LINE
  5
1C7
330
1F
100
AcDbEntity
  8
0
  6
Continuous
 62
     7
370
    15
100
AcDbLine
 10
211.6069922447
 20
85.4627658891
 30
0.0
 11
211.6069922447
 21
86.2627645301
 31
0.0
  0
LINE
  5
1C8
330
1F
100
AcDbEntity
  8
0
  6
Continuous
 62
     7
370
    15
100
AcDbLine
 10
210.1069966554
 20
86.2627645301
 30
0.0
 11
210.1069966554
 21
87.7627750205
 31
0.0
  0
LINE
  5
1C9
330
1F
100
AcDbEntity
  8
0
  6
Continuous
 62
     7
370
    15
100
AcDbLine
 10
210.1069966554
 20
87.7627750205
 30
0.0
 11
209.3069980144
 21
87.7627750205
 31
0.0
  0
LINE
  5
1CA
330
1F
100
AcDbEntity
  8
0
  6
Continuous
 62
     7
370
    15
100
AcDbLine
 10
209.3069980144
 20
87.7627750205
 30
0.0
 11
209.3069980144
 21
86.2627645301
 31
0.0
  0
LINE
  5
1CB
330
1F
100
AcDbEntity
  8
0
  6
Continuous
 62
     7
370
    15
100
AcDbLine
 10
207.806987524
 20
85.4627658891
 30
0.0
 11
209.3069980144
 21
85.4627658891
 31
0.0
  0
LINE
  5
1CC
330
1F
100
AcDbEntity
  8
0
  6
Continuous
 62
     7
370
    15
100
AcDbLine
 10
209.3069980144
 20
85.4627658891
 30
0.0
 11
209.3069980144
 21
83.9627702998
 31
0.0
  0
LINE
  5
1CD
330
1F
100
AcDbEntity
  8
0
  6
Continuous
 62
     7
370
    15
100
AcDbLine
 10
207.806987524
 20
86.2627645301
 30
0.0
 11
207.806987524
 21
85.4627658891
 31
0.0
  0
LINE
  5
1CE
330
1F
100
AcDbEntity
  8
0
  6
Continuous
 62
     7
370
    15
100
AcDbLine
 10
211.6069922447
 20
86.2627645301
 30
0.0
 11
210.1069966554
 21
86.2627645301
 31
0.0
  0
CIRCLE
  5
1CF
330
1F
100
AcDbEntity
  8
0
  6
Continuous
 62
     7
370
    15
100
AcDbCircle
 10
209.7069943666
 20
85.862770276
 30
0.0
 40
2.999999999999943
  0
LINE
  5
1D0
330
1F
100
AcDbEntity
  8
0
  6
Continuous
 62
     7
370
    15
100
AcDbLine
 10
209.3069980144
 20
86.2627645301
 30
0.0
 11
207.806987524
 21
86.2627645301
 31
0.0
  0
LINE
  5
1D1
330
1F
100
AcDbEntity
  8
0
  6
Continuous
 62
     7
370
    15
100
AcDbLine
 10
207.806987524
 20
95.4627712535
 30
0.0
 11
209.3069980144
 21
95.4627712535
 31
0.0
  0
LINE
  5
1D2
330
1F
100
AcDbEntity
  8
0
  6
Continuous
 62
     7
370
    15
100
AcDbLine
 10
210.1069966554
 20
97.7627654838
 30
0.0
 11
209.3069980144
 21
97.7627654838
 31
0.0
  0
LINE
  5
1D3
330
1F
100
AcDbEntity
  8
0
  6
Continuous
 62
     7
370
    15
100
AcDbLine
 10
211.6069922447
 20
95.4627712535
 30
0.0
 11
211.6069922447
 21
96.2627698945
 31
0.0
  0
LINE
  5
1D4
330
1F
100
AcDbEntity
  8
0
  6
Continuous
 62
     7
370
    15
100
AcDbLine
 10
210.1069966554
 20
93.9627756643
 30
0.0
 11
210.1069966554
 21
95.4627712535
 31
0.0
  0
LINE
  5
1D5
330
1F
100
AcDbEntity
  8
0
  6
Continuous
 62
     7
370
    15
100
AcDbLine
 10
209.3069980144
 20
95.4627712535
 30
0.0
 11
209.3069980144
 21
93.9627756643
 31
0.0
  0
LINE
  5
1D6
330
1F
100
AcDbEntity
  8
0
  6
Continuous
 62
     7
370
    15
100
AcDbLine
 10
209.3069980144
 20
93.9627756643
 30
0.0
 11
210.1069966554
 21
93.9627756643
 31
0.0
  0
LINE
  5
1D7
330
1F
100
AcDbEntity
  8
0
  6
Continuous
 62
     7
370
    15
100
AcDbLine
 10
210.1069966554
 20
95.4627712535
 30
0.0
 11
211.6069922447
 21
95.4627712535
 31
0.0
  0
CIRCLE
  5
1D8
330
1F
100
AcDbEntity
  8
0
  6
Continuous
 62
     7
370
    15
100
AcDbCircle
 10
209.7069943666
 20
95.862770276
 30
0.0
 40
3.0
  0
LINE
  5
1D9
330
1F
100
AcDbEntity
  8
0
  6
Continuous
 62
     7
370
    15
100
AcDbLine
 10
210.1069966554
 20
96.2627698945
 30
0.0
 11
210.1069966554
 21
97.7627654838
 31
0.0
  0
LINE
  5
1DA
330
1F
100
AcDbEntity
  8
0
  6
Continuous
 62
     7
370
    15
100
AcDbLine
 10
207.806987524
 20
96.2627698945
 30
0.0
 11
207.806987524
 21
95.4627712535
 31
0.0
  0
LINE
  5
1DB
330
1F
100
AcDbEntity
  8
0
  6
Continuous
 62
     7
370
    15
100
AcDbLine
 10
211.6069922447
 20
96.2627698945
 30
0.0
 11
210.1069966554
 21
96.2627698945
 31
0.0
  0
LINE
  5
1DC
330
1F
100
AcDbEntity
  8
0
  6
Continuous
 62
     7
370
    15
100
AcDbLine
 10
209.3069980144
 20
96.2627698945
 30
0.0
 11
207.806987524
 21
96.2627698945
 31
0.0
  0
LINE
  5
1DD
330
1F
100
AcDbEntity
  8
0
  6
Continuous
 62
     7
370
    15
100
AcDbLine
 10
209.3069980144
 20
97.7627654838
 30
0.0
 11
209.3069980144
 21
96.2627698945
 31
0.0
  0
LINE
  5
1DE
330
1F
100
AcDbEntity
  8
0
  6
Continuous
 62
     7
370
    15
100
AcDbLine
 10
209.3069980144
 20
453.9627750682
 30
0.0
 11
210.1069966554
 21
453.9627750682
 31
0.0
  0
LINE
  5
1DF
330
1F
100
AcDbEntity
  8
0
  6
Continuous
 62
     7
370
    15
100
AcDbLine
 10
210.1069966554
 20
455.4627706575
 30
0.0
 11
211.6069922447
 21
455.4627706575
 31
0.0
  0
LINE
  5
1E0
330
1F
100
AcDbEntity
  8
0
  6
Continuous
 62
     7
370
    15
100
AcDbLine
 10
211.6069922447
 20
456.2627692985
 30
0.0
 11
210.1069966554
 21
456.2627692985
 31
0.0
  0
CIRCLE
  5
1E1
330
1F
100
AcDbEntity
  8
0
  6
Continuous
 62
     7
370
    15
100
AcDbCircle
 10
209.7069943666
 20
455.862770276
 30
0.0
 40
3.0
  0
LINE
  5
1E2
330
1F
100
AcDbEntity
  8
0
  6
Continuous
 62
     7
370
    15
100
AcDbLine
 10
211.6069922447
 20
455.4627706575
 30
0.0
 11
211.6069922447
 21
456.2627692985
 31
0.0
  0
LINE
  5
1E3
330
1F
100
AcDbEntity
  8
0
  6
Continuous
 62
     7
370
    15
100
AcDbLine
 10
210.1069966554
 20
457.7627648877
 30
0.0
 11
209.3069980144
 21
457.7627648877
 31
0.0
  0
LINE
  5
1E4
330
1F
100
AcDbEntity
  8
0
  6
Continuous
 62
     7
370
    15
100
AcDbLine
 10
210.1069966554
 20
456.2627692985
 30
0.0
 11
210.1069966554
 21
457.7627648877
 31
0.0
  0
LINE
  5
1E5
330
1F
100
AcDbEntity
  8
0
  6
Continuous
 62
     7
370
    15
100
AcDbLine
 10
209.3069980144
 20
457.7627648877
 30
0.0
 11
209.3069980144
 21
456.2627692985
 31
0.0
  0
LINE
  5
1E6
330
1F
100
AcDbEntity
  8
0
  6
Continuous
 62
     7
370
    15
100
AcDbLine
 10
209.3069980144
 20
456.2627692985
 30
0.0
 11
207.806987524
 21
456.2627692985
 31
0.0
  0
LINE
  5
1E7
330
1F
100
AcDbEntity
  8
0
  6
Continuous
 62
     7
370
    15
100
AcDbLine
 10
207.806987524
 20
456.2627692985
 30
0.0
 11
207.806987524
 21
455.4627706575
 31
0.0
  0
LINE
  5
1E8
330
1F
100
AcDbEntity
  8
0
  6
Continuous
 62
     7
370
    15
100
AcDbLine
 10
210.1069966554
 20
453.9627750682
 30
0.0
 11
210.1069966554
 21
455.4627706575
 31
0.0
  0
LINE
  5
1E9
330
1F
100
AcDbEntity
  8
0
  6
Continuous
 62
     7
370
    15
100
AcDbLine
 10
207.806987524
 20
455.4627706575
 30
0.0
 11
209.3069980144
 21
455.4627706575
 31
0.0
  0
LINE
  5
1EA
330
1F
100
AcDbEntity
  8
0
  6
Continuous
 62
     7
370
    15
100
AcDbLine
 10
209.3069980144
 20
455.4627706575
 30
0.0
 11
209.3069980144
 21
453.9627750682
 31
0.0
  0
CIRCLE
  5
1EB
330
1F
100
AcDbEntity
  8
0
  6
Continuous
 62
     7
370
    15
100
AcDbCircle
 10
209.7069943666
 20
465.862770276
 30
0.0
 40
3.0
  0
LINE
  5
1EC
330
1F
100
AcDbEntity
  8
0
  6
Continuous
 62
     7
370
    15
100
AcDbLine
 10
209.3069980144
 20
466.2627746629
 30
0.0
 11
207.806987524
 21
466.2627746629
 31
0.0
  0
LINE
  5
1ED
330
1F
100
AcDbEntity
  8
0
  6
Continuous
 62
     7
370
    15
100
AcDbLine
 10
207.806987524
 20
466.2627746629
 30
0.0
 11
207.806987524
 21
465.4627760219
 31
0.0
  0
LINE
  5
1EE
330
1F
100
AcDbEntity
  8
0
  6
Continuous
 62
     7
370
    15
100
AcDbLine
 10
207.806987524
 20
465.4627760219
 30
0.0
 11
209.3069980144
 21
465.4627760219
 31
0.0
  0
LINE
  5
1EF
330
1F
100
AcDbEntity
  8
0
  6
Continuous
 62
     7
370
    15
100
AcDbLine
 10
209.3069980144
 20
465.4627760219
 30
0.0
 11
209.3069980144
 21
463.9627655315
 31
0.0
  0
LINE
  5
1F0
330
1F
100
AcDbEntity
  8
0
  6
Continuous
 62
     7
370
    15
100
AcDbLine
 10
209.3069980144
 20
463.9627655315
 30
0.0
 11
210.1069966554
 21
463.9627655315
 31
0.0
  0
LINE
  5
1F1
330
1F
100
AcDbEntity
  8
0
  6
Continuous
 62
     7
370
    15
100
AcDbLine
 10
210.1069966554
 20
463.9627655315
 30
0.0
 11
210.1069966554
 21
465.4627760219
 31
0.0
  0
LINE
  5
1F2
330
1F
100
AcDbEntity
  8
0
  6
Continuous
 62
     7
370
    15
100
AcDbLine
 10
210.1069966554
 20
465.4627760219
 30
0.0
 11
211.6069922447
 21
465.4627760219
 31
0.0
  0
LINE
  5
1F3
330
1F
100
AcDbEntity
  8
0
  6
Continuous
 62
     7
370
    15
100
AcDbLine
 10
211.6069922447
 20
465.4627760219
 30
0.0
 11
211.6069922447
 21
466.2627746629
 31
0.0
  0
LINE
  5
1F4
330
1F
100
AcDbEntity
  8
0
  6
Continuous
 62
     7
370
    15
100
AcDbLine
 10
210.1069966554
 20
466.2627746629
 30
0.0
 11
210.1069966554
 21
467.7627702522
 31
0.0
  0
LINE
  5
1F5
330
1F
100
AcDbEntity
  8
0
  6
Continuous
 62
     7
370
    15
100
AcDbLine
 10
210.1069966554
 20
467.7627702522
 30
0.0
 11
209.3069980144
 21
467.7627702522
 31
0.0
  0
LINE
  5
1F6
330
1F
100
AcDbEntity
  8
0
  6
Continuous
 62
     7
370
    15
100
AcDbLine
 10
211.6069922447
 20
466.2627746629
 30
0.0
 11
210.1069966554
 21
466.2627746629
 31
0.0
  0
LINE
  5
1F7
330
1F
100
AcDbEntity
  8
0
  6
Continuous
 62
     7
370
    15
100
AcDbLine
 10
209.3069980144
 20
467.7627702522
 30
0.0
 11
209.3069980144
 21
466.2627746629
 31
0.0
  0
LINE
  5
1F8
330
1F
100
AcDbEntity
  8
0
  6
Continuous
 62
     7
370
    15
100
AcDbLine
 10
203.7069926261
 20
97.3627736139
 30
0.0
 11
208.6892256736
 21
101.9646545219
 31
0.0
  0
ARC
  5
1F9
330
1F
100
AcDbEntity
  8
0
  6
Continuous
 62
     7
370
    15
100
AcDbCircle
 10
209.7069943666
 20
100.862770276
 30
0.0
 40
1.50000000000003
100
AcDbArc
 50
43.6028189726
 51
132.7273953127
  0
ARC
  5
1FA
330
1F
100
AcDbEntity
  8
0
  6
Continuous
 62
     7
370
    15
100
AcDbCircle
 10
199.2069943666
 20
90.862770276
 30
0.0
 40
16.00000000000017
100
AcDbArc
 50
316.3971810272
 51
43.6028189726
  0
ARC
  5
1FB
330
1F
100
AcDbEntity
  8
0
  6
Continuous
 62
     7
370
    15
100
AcDbCircle
 10
209.7069943666
 20
80.862770276
 30
0.0
 40
1.500000000000128
100
AcDbArc
 50
227.2726046868
 51
316.3971810272
  0
LINE
  5
1FC
330
1F
100
AcDbEntity
  8
0
  6
Continuous
 62
     7
370
    15
100
AcDbLine
 10
208.6892256736
 20
79.7608812618
 30
0.0
 11
203.7069926261
 21
84.3627770709
 31
0.0
  0
LINE
  5
1FD
330
1F
100
AcDbEntity
  8
0
  6
Continuous
 62
     7
370
    15
100
AcDbLine
 10
203.5059908628
 20
97.3627736139
 30
0.0
 11
203.7069926261
 21
97.3627736139
 31
0.0
  0
LINE
  5
1FE
330
1F
100
AcDbEntity
  8
0
  6
Continuous
 62
     7
370
    15
100
AcDbLine
 10
203.7069926261
 20
84.3627770709
 30
0.0
 11
203.5059908628
 21
84.3627770709
 31
0.0
  0
LINE
  5
1FF
330
1F
100
AcDbEntity
  8
0
  6
Continuous
 62
     7
370
    15
100
AcDbLine
 10
203.7069926261
 20
467.3627634811
 30
0.0
 11
208.6892256736
 21
471.9646592903
 31
0.0
  0
ARC
  5
200
330
1F
100
AcDbEntity
  8
0
  6
Continuous
 62
     7
370
    15
100
AcDbCircle
 10
209.7069943666
 20
470.862770276
 30
0.0
 40
1.49999999999997
100
AcDbArc
 50
43.6028189726
 51
132.7273953127
  0
ARC
  5
201
330
1F
100
AcDbEntity
  8
0
  6
Continuous
 62
     7
370
    15
100
AcDbCircle
 10
199.2069943666
 20
460.862770276
 30
0.0
 40
16.00000000000017
100
AcDbArc
 50
316.3971810272
 51
43.6028189726
  0
ARC
  5
202
330
1F
100
AcDbEntity
  8
0
  6
Continuous
 62
     7
370
    15
100
AcDbCircle
 10
209.7069943666
 20
450.862770276
 30
0.0
 40
1.499999999999805
100
AcDbArc
 50
227.2726046868
 51
316.3971810272
  0
LINE
  5
203
330
1F
100
AcDbEntity
  8
0
  6
Continuous
 62
     7
370
    15
100
AcDbLine
 10
208.6892256736
 20
449.7608860301
 30
0.0
 11
203.7069926261
 21
454.3627669381
 31
0.0
  0
LINE
  5
204
330
1F
100
AcDbEntity
  8
0
  6
Continuous
 62
     7
370
    15
100
AcDbLine
 10
203.5059908628
 20
467.3627634811
 30
0.0
 11
203.7069926261
 21
467.3627634811
 31
0.0
  0
LINE
  5
205
330
1F
100
AcDbEntity
  8
0
  6
Continuous
 62
     7
370
    15
100
AcDbLine
 10
203.7069926261
 20
454.3627669381
 30
0.0
 11
203.5059908628
 21
454.3627669381
 31
0.0
  0
LINE
  5
206
330
1F
100
AcDbEntity
  8
0
  6
Continuous
 62
     7
370
    15
100
AcDbLine
 10
211.7069939374
 20
40.8627708721
 30
0.0
 11
211.7069939374
 21
25.862770276
 31
0.0
  0
LINE
  5
207
330
1F
100
AcDbEntity
  8
0
  6
Continuous
 62
     7
370
    15
100
AcDbLine
 10
211.7069939374
 20
40.8627708721
 30
0.0
 11
226.7069945335
 21
40.8627708721
 31
0.0
  0
ARC
  5
208
330
1F
100
AcDbEntity
  8
0
  6
Continuous
 62
     7
370
    15
100
AcDbCircle
 10
211.7069943666
 20
40.862770276
 30
0.0
 40
15.00000000000003
100
AcDbArc
 50
270.0
 51
0.0
  0
LINE
  5
209
330
1F
100
AcDbEntity
  8
0
  6
Continuous
 62
     7
370
    15
100
AcDbLine
 10
206.7069987058
 20
25.862770276
 30
0.0
 11
211.7069939374
 21
25.862770276
 31
0.0
  0
LINE
  5
20A
330
1F
100
AcDbEntity
  8
0
  6
Continuous
 62
     7
370
    15
100
AcDbLine
 10
206.7069987058
 20
40.8627708721
 30
0.0
 11
211.7069939374
 21
40.8627708721
 31
0.0
  0
LINE
  5
20B
330
1F
100
AcDbEntity
  8
0
  6
Continuous
 62
     7
370
    15
100
AcDbLine
 10
206.7069987058
 20
40.8627708721
 30
0.0
 11
206.7069987058
 21
25.862770276
 31
0.0
  0
LINE
  5
20C
330
1F
100
AcDbEntity
  8
0
  6
Continuous
 62
     7
370
    15
100
AcDbLine
 10
226.7069945335
 20
40.8627708721
 30
0.0
 11
226.7069945335
 21
510.86276968
 31
0.0
  0
LINE
  5
20D
330
1F
100
AcDbEntity
  8
0
  6
Continuous
 62
     7
370
    15
100
AcDbLine
 10
211.7069939374
 20
80.8752795028
 30
0.0
 11
211.7069939374
 21
40.8627708721
 31
0.0
  0
LINE
  5
20E
330
1F
100
AcDbEntity
  8
0
  6
Continuous
 62
     7
370
    15
100
AcDbLine
 10
211.7069939374
 20
100.8502562808
 30
0.0
 11
211.7069939374
 21
450.8752842712
 31
0.0
  0
LINE
  5
20F
330
1F
100
AcDbEntity
  8
0
  6
Continuous
 62
     7
370
    15
100
AcDbLine
 10
211.7069939374
 20
470.8502610492
 30
0.0
 11
211.7069939374
 21
510.86276968
 31
0.0
  0
LINE
  5
210
330
1F
100
AcDbEntity
  8
0
  6
Continuous
 62
     7
370
    15
100
AcDbLine
 10
211.7069939374
 20
510.86276968
 30
0.0
 11
226.7069945335
 21
510.86276968
 31
0.0
  0
LINE
  5
211
330
1F
100
AcDbEntity
  8
0
  6
Continuous
 62
     7
370
    15
100
AcDbLine
 10
206.7069987058
 20
81.5917869377
 30
0.0
 11
206.7069987058
 21
40.8627708721
 31
0.0
  0
LINE
  5
212
330
1F
100
AcDbEntity
  8
0
  6
Continuous
 62
     7
370
    15
100
AcDbLine
 10
206.7069987058
 20
100.133748846
 30
0.0
 11
206.7069987058
 21
451.591791706
 31
0.0
  0
LINE
  5
213
330
1F
100
AcDbEntity
  8
0
  6
Continuous
 62
     7
370
    15
100
AcDbLine
 10
206.7069987058
 20
510.86276968
 30
0.0
 11
211.7069939374
 21
510.86276968
 31
0.0
  0
LINE
  5
214
330
1F
100
AcDbEntity
  8
0
  6
Continuous
 62
     7
370
    15
100
AcDbLine
 10
206.7069987058
 20
470.1337536144
 30
0.0
 11
206.7069987058
 21
510.86276968
 31
0.0
  0
LINE
  5
215
330
1F
100
AcDbEntity
  8
0
  6
Continuous
 62
     7
370
    15
100
AcDbLine
 10
206.7069987058
 20
525.862770276
 30
0.0
 11
211.7069939374
 21
525.862770276
 31
0.0
  0
LINE
  5
216
330
1F
100
AcDbEntity
  8
0
  6
Continuous
 62
     7
370
    15
100
AcDbLine
 10
211.7069939374
 20
510.86276968
 30
0.0
 11
211.7069939374
 21
525.862770276
 31
0.0
  0
LINE
  5
217
330
1F
100
AcDbEntity
  8
0
  6
Continuous
 62
     7
370
    15
100
AcDbLine
 10
206.7069987058
 20
510.86276968
 30
0.0
 11
206.7069987058
 21
525.862770276
 31
0.0
  0
ARC
  5
218
330
1F
100
AcDbEntity
  8
0
  6
Continuous
 62
     7
370
    15
100
AcDbCircle
 10
211.7069943666
 20
510.862770276
 30
0.0
 40
15.00000000000003
100
AcDbArc
 50
0.0
 51
90.0
  0
SPLINE
  5
219
330
1F
100
AcDbEntity
  8
0
  6
Continuous
 62
     7
370
    15
100
AcDbSpline
210
0.0
220
0.0
230
1.0
 70
     8
 71
     3
 72
    16
 73
    12
 74
     0
 42
0.00000001
 43
0.00000001
 40
0.0
 40
0.0
 40
0.0
 40
0.0
 40
0.1207066594662601
 40
0.2414156058502737
 40
0.3621176707330987
 40
0.482822721121345
 40
0.6035285533654084
 40
0.7242356201371724
 40
0.8449404771439366
 40
0.965648638875574
 40
1.0
 40
1.0
 40
1.0
 40
1.0
 10
184.8592961430049
 20
77.91039546006706
 30
0.0
 10
184.8786970921458
 20
77.9130719892114
 30
0.0
 10
184.9174993579996
 20
77.91842509820981
 30
0.0
 10
184.9224216461034
 20
78.20935198635034
 30
0.0
 10
184.8852100189571
 20
78.66272022848767
 30
0.0
 10
184.8082944063719
 20
79.2302241765839
 30
0.0
 10
184.7044800175163
 20
79.81855696374302
 30
0.0
 10
184.5883730985075
 20
80.34525046246097
 30
0.0
 10
184.4813745764657
 20
80.7085519547478
 30
0.0
 10
184.4087996168698
 20
80.87900708980003
 30
0.0
 10
184.3892488803097
 20
80.8458491373733
 30
0.0
 10
184.3849176763987
 20
80.83850343698052
 30
0.0
  0
SPLINE
  5
21A
330
1F
100
AcDbEntity
  8
0
  6
Continuous
 62
     7
370
    15
100
AcDbSpline
210
0.0
220
0.0
230
1.0
 70
     8
 71
     3
 72
    16
 73
    12
 74
     0
 42
0.00000001
 43
0.00000001
 40
0.0
 40
0.0
 40
0.0
 40
0.0
 40
0.1205774266830139
 40
0.241163081614702
 40
0.3617417833190714
 40
0.4823237601500354
 40
0.6029063218941864
 40
0.7234898217505062
 40
0.8440714092533166
 40
0.9646562981060588
 40
1.0
 40
1.0
 40
1.0
 40
1.0
 10
185.0298771857715
 20
103.7864257859567
 30
0.0
 10
185.0492824082859
 20
103.7837478444791
 30
0.0
 10
185.0880941775343
 20
103.7783917787804
 30
0.0
 10
185.0929959143611
 20
103.4874696071476
 30
0.0
 10
185.0558044581015
 20
103.0340994170725
 30
0.0
 10
184.9788730679818
 20
102.4666006396046
 30
0.0
 10
184.8750575537455
 20
101.8782538164268
 30
0.0
 10
184.7589711382291
 20
101.3516121502961
 30
0.0
 10
184.6519352990734
 20
100.9881121794346
 30
0.0
 10
184.5791884424674
 20
100.8175899487645
 30
0.0
 10
184.5595360213268
 20
100.8511686066963
 30
0.0
 10
184.5550814866519
 20
100.8587797450402
 30
0.0
  0
SPLINE
  5
21B
330
1F
100
AcDbEntity
  8
0
  6
Continuous
 62
     7
370
    15
100
AcDbSpline
210
0.0
220
0.0
230
1.0
 70
     8
 71
     3
 72
    16
 73
    12
 74
     0
 42
0.00000001
 43
0.00000001
 40
0.0
 40
0.0
 40
0.0
 40
0.0
 40
0.1205182486616619
 40
0.2410333410624663
 40
0.3615509658063898
 40
0.4820655277091387
 40
0.6025832162003932
 40
0.7231015765364663
 40
0.8436163793725734
 40
0.964130762528084
 40
1.0
 40
1.0
 40
1.0
 40
1.0
 10
200.4002610444522
 20
80.5268158482888
 30
0.0
 10
200.4196620073934
 20
80.52949006444993
 30
0.0
 10
200.4584634251827
 20
80.53483842673695
 30
0.0
 10
200.4633866885794
 20
80.82579243672657
 30
0.0
 10
200.4261727992701
 20
81.27912322305167
 30
0.0
 10
200.3492728613526
 20
81.84664982355316
 30
0.0
 10
200.2454348713823
 20
82.43498956156294
 30
0.0
 10
200.1293655903789
 20
82.9616125502202
 30
0.0
 10
200.0222880679459
 20
83.3251771325387
 30
0.0
 10
199.9494798519795
 20
83.49578141184428
 30
0.0
 10
199.9297639944491
 20
83.46196494911214
 30
0.0
 10
199.9252418279147
 20
83.45420856946495
 30
0.0
  0
SPLINE
  5
21C
330
1F
100
AcDbEntity
  8
0
  6
Continuous
 62
     7
370
    15
100
AcDbSpline
210
0.0
220
0.0
230
1.0
 70
     8
 71
     3
 72
    16
 73
    12
 74
     0
 42
0.00000001
 43
0.00000001
 40
0.0
 40
0.0
 40
0.0
 40
0.0
 40
0.1205178402881146
 40
0.2410311043126925
 40
0.3615483206851828
 40
0.4820657600552455
 40
0.6025825086744372
 40
0.723097685590186
 40
0.8436167256558825
 40
0.9641311427468158
 40
1.0
 40
1.0
 40
1.0
 40
1.0
 10
200.5708495377993
 20
101.1700053977349
 30
0.0
 10
200.5902506484771
 20
101.1673299502839
 30
0.0
 10
200.62905213314
 20
101.1619791569731
 30
0.0
 10
200.6339734751208
 20
100.8710464252378
 30
0.0
 10
200.5967671040529
 20
100.4177074201722
 30
0.0
 10
200.5198368517957
 20
99.85017736392402
 30
0.0
 10
200.4160327821881
 20
99.2618397282625
 30
0.0
 10
200.2999444064949
 20
98.73519019798383
 30
0.0
 10
200.192891787879
 20
98.37165360789557
 30
0.0
 10
200.1200371364667
 20
98.20103932866256
 30
0.0
 10
200.1003466342511
 20
98.23485625550465
 30
0.0
 10
200.0958303212619
 20
98.24261267655876
 30
0.0
  0
SPLINE
  5
21D
330
1F
100
AcDbEntity
  8
0
  6
Continuous
 62
     7
370
    15
100
AcDbSpline
210
0.0
220
0.0
230
1.0
 70
    24
 71
     3
 72
    16
 73
    12
 74
     0
 42
0.00000001
 43
0.00000001
 40
0.0
 40
0.0
 40
0.0
 40
0.0
 40
0.0611043000645534
 40
0.186466054610903
 40
0.3118335123995281
 40
0.4371966130506533
 40
0.5625587550673226
 40
0.6879258783844973
 40
0.8132865543788016
 40
0.9386467122227417
 40
1.0
 40
1.0
 40
1.0
 40
1.0
 10
203.4771869182086
 20
83.99653633111501
 30
0.0
 10
203.4829535695926
 20
83.99653633111501
 30
0.0
 10
203.5005510992385
 20
83.99653633111498
 30
0.0
 10
203.2821452025654
 20
83.99653633111504
 30
0.0
 10
202.8693956174345
 20
83.99653633111507
 30
0.0
 10
202.31293051659
 20
83.99653633111501
 30
0.0
 10
201.7138203645819
 20
83.99653633111507
 30
0.0
 10
201.1551266424976
 20
83.99653633111501
 30
0.0
 10
200.738179231316
 20
83.9965363311151
 30
0.0
 10
200.5151876139763
 20
83.99653633111504
 30
0.0
 10
200.529985730683
 20
83.99653633111504
 30
0.0
 10
200.534848332355
 20
83.99653633111504
 30
0.0
  0
SPLINE
  5
21E
330
1F
100
AcDbEntity
  8
0
  6
Continuous
 62
     7
370
    15
100
AcDbSpline
210
0.0
220
0.0
230
1.0
 70
    24
 71
     3
 72
    16
 73
    12
 74
     0
 42
0.00000001
 43
0.00000001
 40
0.0
 40
0.0
 40
0.0
 40
0.0
 40
0.0610065499222275
 40
0.1861677600005743
 40
0.3113346641975711
 40
0.4364972182272945
 40
0.5616588151561146
 40
0.6868253854167237
 40
0.8119855186684131
 40
0.9371451345986368
 40
1.0
 40
1.0
 40
1.0
 40
1.0
 10
203.4771869182086
 20
97.5551625060418
 30
0.0
 10
203.482953563372
 20
97.55516250604182
 30
0.0
 10
203.5005510740356
 20
97.55516250604188
 30
0.0
 10
203.2821454362357
 20
97.55516250604177
 30
0.0
 10
202.8693947612716
 20
97.55516250604182
 30
0.0
 10
202.3129337074245
 20
97.5551625060418
 30
0.0
 10
201.7138084572587
 20
97.55516250604185
 30
0.0
 10
201.1551710819406
 20
97.55516250604177
 30
0.0
 10
200.7380133911395
 20
97.55516250604177
 30
0.0
 10
200.514531406457
 20
97.55516250604177
 30
0.0
 10
200.5297356275644
 20
97.55516250604177
 30
0.0
 10
200.5348185300326
 20
97.5551625060418
 30
0.0
  0
SPLINE
  5
21F
330
1F
100
AcDbEntity
  8
0
  6
Continuous
 62
     7
370
    15
100
AcDbSpline
210
0.0
220
0.0
230
1.0
 70
     8
 71
     3
 72
    19
 73
    15
 74
     0
 42
0.00000001
 43
0.00000001
 40
0.0
 40
0.0
 40
0.0
 40
0.0
 40
0.0039549520505456
 40
0.1157774914692775
 40
0.2280458084614683
 40
0.3355270350029579
 40
0.437705129903378
 40
0.5348802689994074
 40
0.6283077546069006
 40
0.7302961157270326
 40
0.8413388966431353
 40
0.964111810652723
 40
0.9937659832340476
 40
1.0
 40
1.0
 40
1.0
 40
1.0
 10
189.805267214725
 20
96.46277328008202
 30
0.0
 10
189.8056620051676
 20
96.46276624097605
 30
0.0
 10
189.8172191230579
 20
96.46256017778718
 30
0.0
 10
189.8404404839568
 20
96.44749430174434
 30
0.0
 10
189.8839531878029
 20
96.38055311380015
 30
0.0
 10
189.9219193241916
 20
96.27587894165981
 30
0.0
 10
189.945421011929
 20
96.15080197307446
 30
0.0
 10
189.9567435636131
 20
96.02236535142892
 30
0.0
 10
189.9573547579739
 20
95.90119337438846
 30
0.0
 10
189.9415633838885
 20
95.7919717387028
 30
0.0
 10
189.9012022879128
 20
95.70254103403019
 30
0.0
 10
189.8493074567883
 20
95.66748898371341
 30
0.0
 10
189.8146226231322
 20
95.66287751518973
 30
0.0
 10
189.8066517996802
 20
95.66278986456359
 30
0.0
 10
189.805267214725
 20
95.66277463906792
 30
0.0
  0
SPLINE
  5
220
330
1F
100
AcDbEntity
  8
0
  6
Continuous
 62
     7
370
    15
100
AcDbSpline
210
0.0
220
0.0
230
1.0
 70
     8
 71
     3
 72
    30
 73
    26
 74
     0
 42
0.00000001
 43
0.00000001
 40
0.0
 40
0.0
 40
0.0
 40
0.0
 40
0.1247213585688043
 40
0.2494234058088359
 40
0.3741304486735728
 40
0.4367875361816683
 40
0.4681574411496511
 40
0.4838465038546005
 40
0.4916918866861865
 40
0.4956169069943145
 40
0.4975749588206896
 40
0.4985539123394589
 40
0.4990447988121799
 40
0.4992902420485404
 40
0.4994116573083296
 40
0.4994782124503699
 40
0.4995102696518732
 40
0.4995221753976215
 40
0.4995436387860057
 40
0.5609234269433827
 40
0.66462561505
 40
0.732584619476053
 40
0.8111552731622595
 40
0.9002859084490367
 40
1.0
 40
1.0
 40
1.0
 40
1.0
 10
189.8769716023898
 20
96.52266104692009
 30
0.0
 10
189.8827349020408
 20
96.52086978705269
 30
0.0
 10
189.8942606089779
 20
96.51728754466899
 30
0.0
 10
189.9841079596281
 20
96.49543288604973
 30
0.0
 10
190.0915891616143
 20
96.46976277473398
 30
0.0
 10
190.1771374899371
 20
96.44935409150641
 30
0.0
 10
190.2212433088065
 20
96.43882160174994
 30
0.0
 10
190.24346285235
 20
96.43348794262435
 30
0.0
 10
190.2546015810805
 20
96.43083764698335
 30
0.0
 10
190.2601688690215
 20
96.42949528144729
 30
0.0
 10
190.2629530450805
 20
96.42883039434707
 30
0.0
 10
190.2643463885099
 20
96.42850744930188
 30
0.0
 10
190.2650398685596
 20
96.42833121802416
 30
0.0
 10
190.2653874391126
 20
96.42824543362455
 30
0.0
 10
190.2655623442655
 20
96.42820039553047
 30
0.0
 10
190.2656566149335
 20
96.42819967111666
 30
0.0
 10
190.2656965767881
 20
96.4281700962296
 30
0.0
 10
190.2657252210228
 20
96.42817520352726
 30
0.0
 10
190.2855224087454
 20
96.40877242492577
 30
0.0
 10
190.3621773750677
 20
96.4183230394005
 30
0.0
 10
190.4480917883413
 20
96.38589691160088
 30
0.0
 10
190.5326931722468
 20
96.37130629738067
 30
0.0
 10
190.5959387350237
 20
96.35775716095127
 30
0.0
 10
190.6465572165543
 20
96.34831084673687
 30
0.0
 10
190.6537686104774
 20
96.34781782686447
 30
0.0
 10
190.6575763821101
 20
96.34755750173119
 30
0.0
  0
ELLIPSE
  5
221
330
1F
100
AcDbEntity
  8
0
  6
Continuous
 62
     7
370
    15
100
AcDbEllipse
 10
190.5341027603
 20
97.6447454548
 30
0.0
 11
0.3906095144045878
 21
-0.08616383961160068
 31
0.0
210
0.0
220
0.0
230
1.0
 40
0.0142285888
 41
0.0
 42
6.283185307179586
  0
LINE
  5
222
330
1F
100
AcDbEntity
  8
0
  6
Continuous
 62
     7
370
    15
100
AcDbLine
 10
189.9179199934
 20
86.1627628373
 30
0.0
 11
189.9179199934
 21
94.7627743053
 31
0.0
  0
LINE
  5
223
330
1F
100
AcDbEntity
  8
0
  6
Continuous
 62
     7
370
    15
100
AcDbLine
 10
184.4036260843
 20
86.1627628373
 30
0.0
 11
184.4036260843
 21
94.7627743053
 31
0.0
  0
LINE
  5
224
330
1F
100
AcDbEntity
  8
0
  6
Continuous
 62
     7
370
    15
100
AcDbLine
 10
189.9179199934
 20
94.7627743053
 30
0.0
 11
184.4036260843
 21
94.7627743053
 31
0.0
  0
LINE
  5
225
330
1F
100
AcDbEntity
  8
0
  6
Continuous
 62
     7
370
    15
100
AcDbLine
 10
189.9179199934
 20
86.1627628373
 30
0.0
 11
184.4036260843
 21
86.1627628373
 31
0.0
  0
LINE
  5
226
330
1F
100
AcDbEntity
  8
0
  6
Continuous
 62
     7
370
    15
100
AcDbLine
 10
183.2893694043
 20
98.0627705621
 30
0.0
 11
158.4772596359
 21
98.0627705621
 31
0.0
  0
LINE
  5
227
330
1F
100
AcDbEntity
  8
0
  6
Continuous
 62
     7
370
    15
100
AcDbLine
 10
183.2893694043
 20
94.7627743053
 30
0.0
 11
183.2893694043
 21
98.0627705621
 31
0.0
  0
LINE
  5
228
330
1F
100
AcDbEntity
  8
0
  6
Continuous
 62
     7
370
    15
100
AcDbLine
 10
183.2893694043
 20
83.6627652215
 30
0.0
 11
183.2893694043
 21
86.1627628373
 31
0.0
  0
LINE
  5
229
330
1F
100
AcDbEntity
  8
0
  6
Continuous
 62
     7
370
    15
100
AcDbLine
 10
158.4772596359
 20
83.6627652215
 30
0.0
 11
183.2893694043
 21
83.6627652215
 31
0.0
  0
LINE
  5
22A
330
1F
100
AcDbEntity
  8
0
  6
Continuous
 62
     7
370
    15
100
AcDbLine
 10
158.4772596359
 20
83.6627652215
 30
0.0
 11
158.4772596359
 21
98.0627705621
 31
0.0
  0
LINE
  5
22B
330
1F
100
AcDbEntity
  8
0
  6
Continuous
 62
     7
370
    15
100
AcDbLine
 10
183.2893694043
 20
94.7627743053
 30
0.0
 11
184.4036260843
 21
94.7627743053
 31
0.0
  0
LINE
  5
22C
330
1F
100
AcDbEntity
  8
0
  6
Continuous
 62
     7
370
    15
100
AcDbLine
 10
183.2893694043
 20
86.1627628373
 30
0.0
 11
184.4036260843
 21
86.1627628373
 31
0.0
  0
LINE
  5
22D
330
1F
100
AcDbEntity
  8
0
  6
Continuous
 62
     7
370
    15
100
AcDbLine
 10
185.3092292547
 20
98.8601167964
 30
0.0
 11
183.4169978499
 21
98.8601167964
 31
0.0
  0
ARC
  5
22E
330
1F
100
AcDbEntity
  8
0
  6
Continuous
 62
     7
370
    15
100
AcDbCircle
 10
184.7636023996
 20
98.2356828393
 30
0.0
 40
1.484338768683186
100
AcDbArc
 50
155.122374946
 51
186.6896377137
  0
ARC
  5
22F
330
1F
100
AcDbEntity
  8
0
  6
Continuous
 62
     7
370
    15
100
AcDbCircle
 10
159.7332348723
 20
98.2567262387
 30
0.0
 40
1.270862934734452
100
AcDbArc
 50
151.5184881633
 51
188.7786338264
  0
LINE
  5
230
330
1F
100
AcDbEntity
  8
0
  6
Continuous
 62
     7
370
    15
100
AcDbLine
 10
158.6161831617
 20
98.8627692031
 30
0.0
 11
185.9819794297
 21
98.8627692031
 31
0.0
  0
LINE
  5
231
330
1F
100
AcDbEntity
  8
0
  6
Continuous
 62
     7
370
    15
100
AcDbLine
 10
185.9819794297
 20
98.8627692031
 30
0.0
 11
185.3092292547
 21
98.8601167964
 31
0.0
  0
LINE
  5
232
330
1F
100
AcDbEntity
  8
0
  6
Continuous
 62
     7
370
    15
100
AcDbLine
 10
183.4169978499
 20
82.8654189872
 30
0.0
 11
185.3092292547
 21
82.8654189872
 31
0.0
  0
LINE
  5
233
330
1F
100
AcDbEntity
  8
0
  6
Continuous
 62
     7
370
    15
100
AcDbLine
 10
185.3092292547
 20
82.8654189872
 30
0.0
 11
185.9819794297
 21
82.8627665805
 31
0.0
  0
LINE
  5
234
330
1F
100
AcDbEntity
  8
0
  6
Continuous
 62
     7
370
    15
100
AcDbLine
 10
185.9819794297
 20
82.8627665805
 30
0.0
 11
158.6161831617
 21
82.8627665805
 31
0.0
  0
ARC
  5
235
330
1F
100
AcDbEntity
  8
0
  6
Continuous
 62
     7
370
    15
100
AcDbCircle
 10
159.7332348723
 20
83.468809545
 30
0.0
 40
1.270862934734449
100
AcDbArc
 50
171.2213661736
 51
208.4815118367
  0
ARC
  5
236
330
1F
100
AcDbEntity
  8
0
  6
Continuous
 62
     7
370
    15
100
AcDbCircle
 10
184.7636309421
 20
83.4898575131
 30
0.0
 40
1.484366584631196
100
AcDbArc
 50
173.310665776
 51
204.8773215644
  0
LINE
  5
237
330
1F
100
AcDbEntity
  8
0
  6
Continuous
 62
     7
370
    15
100
AcDbLine
 10
183.4169978499
 20
98.0627705621
 30
0.0
 11
183.4169978499
 21
98.8601167964
 31
0.0
  0
LINE
  5
238
330
1F
100
AcDbEntity
  8
0
  6
Continuous
 62
     7
370
    15
100
AcDbLine
 10
183.4282929301
 20
98.0627705621
 30
0.0
 11
183.4282929301
 21
94.7627743053
 31
0.0
  0
LINE
  5
239
330
1F
100
AcDbEntity
  8
0
  6
Continuous
 62
     7
370
    15
100
AcDbLine
 10
183.4169978499
 20
82.8654189872
 30
0.0
 11
183.4169978499
 21
83.6627652215
 31
0.0
  0
LINE
  5
23A
330
1F
100
AcDbEntity
  8
0
  6
Continuous
 62
     7
370
    15
100
AcDbLine
 10
183.4282929301
 20
86.1627628373
 30
0.0
 11
183.4282929301
 21
83.6627652215
 31
0.0
  0
LINE
  5
23B
330
1F
100
AcDbEntity
  8
0
  6
Continuous
 62
     7
370
    15
100
AcDbLine
 10
189.4169951081
 20
82.8627665805
 30
0.0
 11
185.9819794297
 21
82.8627665805
 31
0.0
  0
LINE
  5
23C
330
1F
100
AcDbEntity
  8
0
  6
Continuous
 62
     7
370
    15
100
AcDbLine
 10
185.3092292547
 20
82.8654189872
 30
0.0
 11
185.3092292547
 21
83.6627652215
 31
0.0
  0
LINE
  5
23D
330
1F
100
AcDbEntity
  8
0
  6
Continuous
 62
     7
370
    15
100
AcDbLine
 10
189.4169951081
 20
83.6627652215
 30
0.0
 11
185.3092292547
 21
83.6627652215
 31
0.0
  0
LINE
  5
23E
330
1F
100
AcDbEntity
  8
0
  6
Continuous
 62
     7
370
    15
100
AcDbLine
 10
185.3092292547
 20
98.0627705621
 30
0.0
 11
185.3092292547
 21
98.8601167964
 31
0.0
  0
LINE
  5
23F
330
1F
100
AcDbEntity
  8
0
  6
Continuous
 62
     7
370
    15
100
AcDbLine
 10
189.4169951081
 20
98.8627692031
 30
0.0
 11
185.9819794297
 21
98.8627692031
 31
0.0
  0
LINE
  5
240
330
1F
100
AcDbEntity
  8
0
  6
Continuous
 62
     7
370
    15
100
AcDbLine
 10
189.4169951081
 20
98.0627705621
 30
0.0
 11
185.3092292547
 21
98.0627705621
 31
0.0
  0
LINE
  5
241
330
1F
100
AcDbEntity
  8
0
  6
Continuous
 62
     7
370
    15
100
AcDbLine
 10
183.4169978499
 20
83.6627652215
 30
0.0
 11
185.3092292547
 21
83.6627652215
 31
0.0
  0
LINE
  5
242
330
1F
100
AcDbEntity
  8
0
  6
Continuous
 62
     7
370
    15
100
AcDbLine
 10
183.4169978499
 20
98.0627705621
 30
0.0
 11
185.3092292547
 21
98.0627705621
 31
0.0
  0
LINE
  5
243
330
1F
100
AcDbEntity
  8
0
  6
Continuous
 62
     7
370
    15
100
AcDbLine
 10
184.4869980812
 20
99.1627742814
 30
0.0
 11
188.8869980573
 21
99.1627742814
 31
0.0
  0
LINE
  5
244
330
1F
100
AcDbEntity
  8
0
  6
Continuous
 62
     7
370
    15
100
AcDbLine
 10
184.5869923233
 20
82.4627747106
 30
0.0
 11
188.7869963645
 21
82.4627747106
 31
0.0
  0
LINE
  5
245
330
1F
100
AcDbEntity
  8
0
  6
Continuous
 62
     7
370
    15
100
AcDbLine
 10
184.5869923233
 20
82.0627679395
 30
0.0
 11
188.7869963645
 21
82.0627679395
 31
0.0
  0
ARC
  5
246
330
1F
100
AcDbEntity
  8
0
  6
Continuous
 62
     7
370
    15
100
AcDbCircle
 10
166.8829115264
 20
90.8627678918
 30
0.0
 40
16.90401408232907
100
AcDbArc
 50
154.7901718738
 51
205.2098281262
  0
SPLINE
  5
247
330
1F
100
AcDbEntity
  8
0
  6
Continuous
 62
     7
370
    15
100
AcDbSpline
210
0.0
220
0.0
230
1.0
 70
     8
 71
     3
 72
    12
 73
     8
 74
     0
 42
0.00000001
 43
0.00000001
 40
0.0
 40
0.0
 40
0.0
 40
0.0
 40
0.1818838816861573
 40
0.3633457911357219
 40
0.5550838744260245
 40
0.7712677179948781
 40
0.9999999999999999
 40
0.9999999999999999
 40
0.9999999999999999
 40
0.9999999999999999
 10
151.7213115691638
 20
82.86276658051995
 30
0.0
 10
151.7451728544741
 20
82.87008887915597
 30
0.0
 10
151.792840066699
 20
82.88471648862955
 30
0.0
 10
151.8075727611477
 20
82.99671330826871
 30
0.0
 10
151.7803560387392
 20
83.16610932896818
 30
0.0
 10
151.7086752921446
 20
83.39451538441777
 30
0.0
 10
151.6295933106727
 20
83.57168299421669
 30
0.0
 10
151.5889371036982
 20
83.66276522153404
 30
0.0
  0
LINE
  5
248
330
1F
100
AcDbEntity
  8
0
  6
Continuous
 62
     7
370
    15
100
AcDbLine
 10
151.3369510173
 20
83.6172719764
 30
0.0
 11
151.6913900375
 21
82.8627665805
 31
0.0
  0
ARC
  5
249
330
1F
100
AcDbEntity
  8
0
  6
Continuous
 62
     7
370
    15
100
AcDbCircle
 10
166.6075797104
 20
90.8627678918
 30
0.0
 40
16.90234633834254
100
AcDbArc
 50
154.616938827
 51
205.383061173
  0
LINE
  5
24A
330
1F
100
AcDbEntity
  8
0
  6
Continuous
 62
     7
370
    15
100
AcDbLine
 10
151.6913900375
 20
98.8627692031
 30
0.0
 11
151.3369510173
 21
98.1082638072
 31
0.0
  0
SPLINE
  5
24B
330
1F
100
AcDbEntity
  8
0
  6
Continuous
 62
     7
370
    15
100
AcDbSpline
210
0.0
220
0.0
230
1.0
 70
     8
 71
     3
 72
    12
 73
     8
 74
     0
 42
0.00000001
 43
0.00000001
 40
0.0
 40
0.0
 40
0.0
 40
0.0
 40
0.2510209911880205
 40
0.5023974552454273
 40
0.7402778730390002
 40
0.9473077450497924
 40
1.0
 40
1.0
 40
1.0
 40
1.0
 10
151.5889371036982
 20
98.06277056211022
 30
0.0
 10
151.6332548960095
 20
98.16265621586027
 30
0.0
 10
151.7219532394186
 20
98.3625689722478
 30
0.0
 10
151.7969454451454
 20
98.62128620557564
 30
0.0
 10
151.808439910776
 20
98.79852425487476
 30
0.0
 10
151.7667939275704
 20
98.85898415334715
 30
0.0
 10
151.7289826885606
 20
98.86213081123391
 30
0.0
 10
151.7213115691638
 20
98.86276920312432
 30
0.0
  0
LINE
  5
24C
330
1F
100
AcDbEntity
  8
0
  6
Continuous
 62
     7
370
    15
100
AcDbLine
 10
151.7213115692
 20
82.8627665805
 30
0.0
 11
151.6913900375
 21
82.8627665805
 31
0.0
  0
LINE
  5
24D
330
1F
100
AcDbEntity
  8
0
  6
Continuous
 62
     7
370
    15
100
AcDbLine
 10
151.7213115692
 20
98.8627692031
 30
0.0
 11
151.6913900375
 21
98.8627692031
 31
0.0
  0
LINE
  5
24E
330
1F
100
AcDbEntity
  8
0
  6
Continuous
 62
     7
370
    15
100
AcDbLine
 10
153.5784134864
 20
98.0627705621
 30
0.0
 11
151.5889371037
 21
98.0627705621
 31
0.0
  0
LINE
  5
24F
330
1F
100
AcDbEntity
  8
0
  6
Continuous
 62
     7
370
    15
100
AcDbLine
 10
153.5784134864
 20
83.6627652215
 30
0.0
 11
153.5784134864
 21
98.0627705621
 31
0.0
  0
LINE
  5
250
330
1F
100
AcDbEntity
  8
0
  6
Continuous
 62
     7
370
    15
100
AcDbLine
 10
151.5889371037
 20
83.6627652215
 30
0.0
 11
153.5784134864
 21
83.6627652215
 31
0.0
  0
LWPOLYLINE
  5
251
330
1F
100
AcDbEntity
  8
0
  6
Continuous
 62
     7
370
    15
100
AcDbPolyline
 90
        9
 70
   128
 43
0.0
 10
153.5784134864
 20
98.0627705621
 10
153.5731533765
 20
98.2188453245
 10
153.5575816631
 20
98.3689149188
 10
153.5323018431
 20
98.507227497
 10
153.4982750415
 20
98.6284484434
 10
153.4568125605
 20
98.7279434966
 10
153.4095013737
 20
98.8018681573
 10
153.358174324
 20
98.8473912048
 10
153.3047983646
 20
98.8627692031
  0
LINE
  5
252
330
1F
100
AcDbEntity
  8
0
  6
Continuous
 62
     7
370
    15
100
AcDbLine
 10
151.7213115692
 20
98.8627692031
 30
0.0
 11
153.3047983646
 21
98.8627692031
 31
0.0
  0
LWPOLYLINE
  5
253
330
1F
100
AcDbEntity
  8
0
  6
Continuous
 62
     7
370
    15
100
AcDbPolyline
 90
        9
 70
   128
 43
0.0
 10
153.5784134864
 20
83.6627652215
 10
153.5731533765
 20
83.5067053604
 10
153.5575816631
 20
83.3566208648
 10
153.5323018431
 20
83.2183082866
 10
153.4982750415
 20
83.0970873403
 10
153.4568125605
 20
82.997592287
 10
153.4095013737
 20
82.9236676263
 10
153.358174324
 20
82.8781445789
 10
153.3047983646
 20
82.8627665805
  0
LINE
  5
254
330
1F
100
AcDbEntity
  8
0
  6
Continuous
 62
     7
370
    15
100
AcDbLine
 10
153.3047983646
 20
82.8627665805
 30
0.0
 11
151.7213115692
 21
82.8627665805
 31
0.0
  0
LINE
  5
255
330
1F
100
AcDbEntity
  8
0
  6
Continuous
 62
     7
370
    15
100
AcDbLine
 10
158.4772596359
 20
98.0627705621
 30
0.0
 11
153.5784134864
 21
98.0627705621
 31
0.0
  0
LINE
  5
256
330
1F
100
AcDbEntity
  8
0
  6
Continuous
 62
     7
370
    15
100
AcDbLine
 10
153.5784134864
 20
83.6627652215
 30
0.0
 11
158.4772596359
 21
83.6627652215
 31
0.0
  0
LINE
  5
257
330
1F
100
AcDbEntity
  8
0
  6
Continuous
 62
     7
370
    15
100
AcDbLine
 10
153.3047983646
 20
98.8627692031
 30
0.0
 11
158.6161831617
 21
98.8627692031
 31
0.0
  0
LINE
  5
258
330
1F
100
AcDbEntity
  8
0
  6
Continuous
 62
     7
370
    15
100
AcDbLine
 10
158.6161831617
 20
82.8627665805
 30
0.0
 11
153.3047983646
 21
82.8627665805
 31
0.0
  0
SPLINE
  5
259
330
1F
100
AcDbEntity
  8
0
  6
Continuous
 62
     7
370
    15
100
AcDbSpline
210
0.0
220
0.0
230
1.0
 70
     8
 71
     3
 72
    16
 73
    12
 74
     0
 42
0.00000001
 43
0.00000001
 40
0.0
 40
0.0
 40
0.0
 40
0.0
 40
0.1207062709178884
 40
0.2414151184482352
 40
0.3621170844830289
 40
0.4828249342779559
 40
0.6035306676709027
 40
0.7242349590584071
 40
0.8449397172148535
 40
0.9656486670073579
 40
1.0
 40
1.0
 40
1.0
 40
1.0
 10
184.8592961430049
 20
447.9104002284386
 30
0.0
 10
184.8786970770918
 20
447.9130705203449
 30
0.0
 10
184.9174993594005
 20
447.9184111611578
 30
0.0
 10
184.9224218172557
 20
448.209343006093
 30
0.0
 10
184.885209039088
 20
448.6627131509655
 30
0.0
 10
184.8082955733856
 20
449.2302247257691
 30
0.0
 10
184.7044815437928
 20
449.8185582699738
 30
0.0
 10
184.5883714884291
 20
450.3452436374333
 30
0.0
 10
184.4813743149878
 20
450.7085371724385
 30
0.0
 10
184.4087997763777
 20
450.8790130837577
 30
0.0
 10
184.389248888957
 20
450.8458540936189
 30
0.0
 10
184.3849176763987
 20
450.8385082053521
 30
0.0
  0
SPLINE
  5
25A
330
1F
100
AcDbEntity
  8
0
  6
Continuous
 62
     7
370
    15
100
AcDbSpline
210
0.0
220
0.0
230
1.0
 70
     8
 71
     3
 72
    16
 73
    12
 74
     0
 42
0.00000001
 43
0.00000001
 40
0.0
 40
0.0
 40
0.0
 40
0.0
 40
0.1205771721646178
 40
0.241162861995646
 40
0.3617415985973432
 40
0.4823236103265828
 40
0.6029062069691787
 40
0.723489741724215
 40
0.8440713641251881
 40
0.9646562878770487
 40
0.9999999999999999
 40
0.9999999999999999
 40
0.9999999999999999
 40
0.9999999999999999
 10
185.0298771857715
 20
473.786415653167
 30
0.0
 10
185.0492824084526
 20
473.7837439425647
 30
0.0
 10
185.088094224615
 20
473.7784003326283
 30
0.0
 10
185.0929959027971
 20
473.4874732988752
 30
0.0
 10
185.0558044612001
 20
473.0341044739319
 30
0.0
 10
184.9788730671516
 20
472.4666053306739
 30
0.0
 10
184.875057553968
 20
471.8782586055152
 30
0.0
 10
184.7589711381693
 20
471.3516169131035
 30
0.0
 10
184.6519352990899
 20
470.9881169493461
 30
0.0
 10
184.5791884424664
 20
470.8175947170439
 30
0.0
 10
184.5595360213266
 20
470.8511733750509
 30
0.0
 10
184.5550814866519
 20
470.8587845134118
 30
0.0
  0
SPLINE
  5
25B
330
1F
100
AcDbEntity
  8
0
  6
Continuous
 62
     7
370
    15
100
AcDbSpline
210
0.0
220
0.0
230
1.0
 70
     8
 71
     3
 72
    16
 73
    12
 74
     0
 42
0.00000001
 43
0.00000001
 40
0.0
 40
0.0
 40
0.0
 40
0.0
 40
0.1205177355296194
 40
0.2410326040483349
 40
0.3615500049054653
 40
0.4820672367073249
 40
0.6025847013116677
 40
0.7231001654014779
 40
0.8436166698879849
 40
0.9641308291627243
 40
1.0
 40
1.0
 40
1.0
 40
1.0
 10
200.4002610444522
 20
450.5268206166604
 30
0.0
 10
200.4196619926303
 20
450.5294885977758
 30
0.0
 10
200.458463427455
 20
450.5348244965377
 30
0.0
 10
200.4633868562365
 20
450.8257834299799
 30
0.0
 10
200.4261718324348
 20
451.2791162447245
 30
0.0
 10
200.3492739797912
 20
451.8466500022894
 30
0.0
 10
200.2454365795566
 20
452.4349922491747
 30
0.0
 10
200.1293626833138
 20
452.9616033756476
 30
0.0
 10
200.0222894838968
 20
453.3251841401438
 30
0.0
 10
199.9494797965064
 20
453.4957859713118
 30
0.0
 10
199.9297639840993
 20
453.4619696785078
 30
0.0
 10
199.9252418279147
 20
453.4542133378365
 30
0.0
  0
SPLINE
  5
25C
330
1F
100
AcDbEntity
  8
0
  6
Continuous
 62
     7
370
    15
100
AcDbSpline
210
0.0
220
0.0
230
1.0
 70
     8
 71
     3
 72
    16
 73
    12
 74
     0
 42
0.00000001
 43
0.00000001
 40
0.0
 40
0.0
 40
0.0
 40
0.0
 40
0.1205178925769872
 40
0.2410326289024424
 40
0.3615498975635347
 40
0.4820644954546702
 40
0.6025812963622609
 40
0.7230965255657268
 40
0.8436175433764338
 40
0.9641311271844549
 40
0.9999999999999999
 40
0.9999999999999999
 40
0.9999999999999999
 40
0.9999999999999999
 10
200.5708495377993
 20
471.1700101661065
 30
0.0
 10
200.5902506548853
 20
471.1673359353755
 30
0.0
 10
200.62905238096
 20
471.1619875439492
 30
0.0
 10
200.6339733322462
 20
470.8710337525011
 30
0.0
 10
200.5967681886675
 20
470.417701644118
 30
0.0
 10
200.5198353839931
 20
469.8501781800303
 30
0.0
 10
200.4160331215399
 20
469.2618430129294
 30
0.0
 10
200.2999430678211
 20
468.7351973398382
 30
0.0
 10
200.1928934763864
 20
468.3716365994184
 30
0.0
 10
200.120036918761
 20
468.201045587677
 30
0.0
 10
200.1003466144367
 20
468.2348612662611
 30
0.0
 10
200.0958303212619
 20
468.2426174449303
 30
0.0
  0
SPLINE
  5
25D
330
1F
100
AcDbEntity
  8
0
  6
Continuous
 62
     7
370
    15
100
AcDbSpline
210
0.0
220
0.0
230
1.0
 70
    24
 71
     3
 72
    16
 73
    12
 74
     0
 42
0.00000001
 43
0.00000001
 40
0.0
 40
0.0
 40
0.0
 40
0.0
 40
0.0611043000645534
 40
0.186466054610903
 40
0.3118335123995281
 40
0.4371966130506533
 40
0.5625587550673226
 40
0.6879258783844973
 40
0.8132865543788016
 40
0.9386467122227417
 40
1.0
 40
1.0
 40
1.0
 40
1.0
 10
203.4771869182086
 20
453.9965410994866
 30
0.0
 10
203.4829535695926
 20
453.9965410994866
 30
0.0
 10
203.5005510992385
 20
453.9965410994866
 30
0.0
 10
203.2821452025654
 20
453.9965410994866
 30
0.0
 10
202.8693956174345
 20
453.9965410994866
 30
0.0
 10
202.31293051659
 20
453.9965410994866
 30
0.0
 10
201.7138203645819
 20
453.9965410994866
 30
0.0
 10
201.1551266424976
 20
453.9965410994866
 30
0.0
 10
200.738179231316
 20
453.9965410994865
 30
0.0
 10
200.5151876139763
 20
453.9965410994866
 30
0.0
 10
200.529985730683
 20
453.9965410994866
 30
0.0
 10
200.534848332355
 20
453.9965410994866
 30
0.0
  0
SPLINE
  5
25E
330
1F
100
AcDbEntity
  8
0
  6
Continuous
 62
     7
370
    15
100
AcDbSpline
210
0.0
220
0.0
230
1.0
 70
    24
 71
     3
 72
    16
 73
    12
 74
     0
 42
0.00000001
 43
0.00000001
 40
0.0
 40
0.0
 40
0.0
 40
0.0
 40
0.0610065499222275
 40
0.1861677600005743
 40
0.3113346641975711
 40
0.4364972182272945
 40
0.5616588151561146
 40
0.6868253854167237
 40
0.8119855186684131
 40
0.9371451345986368
 40
1.0
 40
1.0
 40
1.0
 40
1.0
 10
203.4771869182086
 20
467.5551672744133
 30
0.0
 10
203.482953563372
 20
467.5551672744133
 30
0.0
 10
203.5005510740356
 20
467.5551672744132
 30
0.0
 10
203.2821454362357
 20
467.5551672744134
 30
0.0
 10
202.8693947612716
 20
467.5551672744133
 30
0.0
 10
202.3129337074245
 20
467.5551672744133
 30
0.0
 10
201.7138084572587
 20
467.5551672744133
 30
0.0
 10
201.1551710819406
 20
467.5551672744133
 30
0.0
 10
200.7380133911395
 20
467.5551672744133
 30
0.0
 10
200.514531406457
 20
467.5551672744134
 30
0.0
 10
200.5297356275644
 20
467.5551672744133
 30
0.0
 10
200.5348185300326
 20
467.5551672744133
 30
0.0
  0
SPLINE
  5
25F
330
1F
100
AcDbEntity
  8
0
  6
Continuous
 62
     7
370
    15
100
AcDbSpline
210
0.0
220
0.0
230
1.0
 70
     8
 71
     3
 72
    19
 73
    15
 74
     0
 42
0.00000001
 43
0.00000001
 40
0.0
 40
0.0
 40
0.0
 40
0.0
 40
0.0039548928158107
 40
0.1157771803511018
 40
0.2280452444557253
 40
0.3355262288927045
 40
0.4377147670967206
 40
0.5348896873029939
 40
0.6283060379467074
 40
0.7303035747518893
 40
0.8413391369656924
 40
0.96411177442581
 40
0.99376588021027
 40
1.0
 40
1.0
 40
1.0
 40
1.0
 10
189.805267214725
 20
466.4627631472924
 30
0.0
 10
189.8056620052543
 20
466.4627611725996
 30
0.0
 10
189.8172192677221
 20
466.4627033646196
 30
0.0
 10
189.8404404907118
 20
466.4474361113238
 30
0.0
 10
189.8839529598115
 20
466.3805738929683
 30
0.0
 10
189.9219214257517
 20
466.2758766593212
 30
0.0
 10
189.9454195141243
 20
466.1507971113187
 30
0.0
 10
189.9567437724454
 20
466.0223583970859
 30
0.0
 10
189.9573534340755
 20
465.90119413414
 30
0.0
 10
189.9415662483688
 20
465.7919581032339
 30
0.0
 10
189.9011998237566
 20
465.7025631087488
 30
0.0
 10
189.8493077258604
 20
465.6674544808544
 30
0.0
 10
189.814622482702
 20
465.6629039975659
 30
0.0
 10
189.8066517972009
 20
465.6627851510308
 30
0.0
 10
189.805267214725
 20
465.6627645062783
 30
0.0
  0
SPLINE
  5
260
330
1F
100
AcDbEntity
  8
0
  6
Continuous
 62
     7
370
    15
100
AcDbSpline
210
0.0
220
0.0
230
1.0
 70
     8
 71
     3
 72
    30
 73
    26
 74
     0
 42
0.00000001
 43
0.00000001
 40
0.0
 40
0.0
 40
0.0
 40
0.0
 40
0.124720975155802
 40
0.2494226390421973
 40
0.3741292985379406
 40
0.4367888390803792
 40
0.4681559115136746
 40
0.4838449259879865
 40
0.4916902847016362
 40
0.4956152929436367
 40
0.4975761238434012
 40
0.498555074352714
 40
0.4990432084277902
 40
0.4992886509096197
 40
0.4994129501623328
 40
0.4994795050997722
 40
0.4995092693726427
 40
0.4995261065879897
 40
0.499543965151712
 40
0.5609261660260535
 40
0.6646280353358924
 40
0.7325848670715057
 40
0.8111568261873138
 40
0.9002862149857809
 40
0.9999999999999999
 40
0.9999999999999999
 40
0.9999999999999999
 40
0.9999999999999999
 10
189.8769716023898
 20
466.5226658152916
 30
0.0
 10
189.8827350228483
 20
466.5208750887741
 30
0.0
 10
189.8942609713816
 20
466.5172939130074
 30
0.0
 10
189.9841065102512
 20
466.495431255603
 30
0.0
 10
190.0915943664134
 20
466.4697862811237
 30
0.0
 10
190.1771325050039
 20
466.4493321053602
 30
0.0
 10
190.2212444765328
 20
466.4388263943885
 30
0.0
 10
190.2434635267275
 20
466.4334955916061
 30
0.0
 10
190.254600561704
 20
466.4308380570874
 30
0.0
 10
190.2601714438383
 20
466.4295059574241
 30
0.0
 10
190.2629532672811
 20
466.4288259098934
 30
0.0
 10
190.2643426422295
 20
466.4284869939563
 30
0.0
 10
190.2650414123701
 20
466.428336830613
 30
0.0
 10
190.2653887137839
 20
466.4282513400513
 30
0.0
 10
190.2655644515423
 20
466.4282022089309
 30
0.0
 10
190.2656498410297
 20
466.4281684998232
 30
0.0
 10
190.2657042462255
 20
466.428187315605
 30
0.0
 10
190.2657189067718
 20
466.4281576398129
 30
0.0
 10
190.2937563468749
 20
466.4340158012097
 30
0.0
 10
190.3555139972848
 20
466.3978826901795
 30
0.0
 10
190.4494397147097
 20
466.3900162183943
 30
0.0
 10
190.5323481819786
 20
466.3702572162456
 30
0.0
 10
190.5960497749636
 20
466.3580796784817
 30
0.0
 10
190.6465240346499
 20
466.3482204286266
 30
0.0
 10
190.6537571313008
 20
466.3477897034588
 30
0.0
 10
190.6575763821101
 20
466.3475622701027
 30
0.0
  0
ELLIPSE
  5
261
330
1F
100
AcDbEntity
  8
0
  6
Continuous
 62
     7
370
    15
100
AcDbEllipse
 10
190.5341027603
 20
467.6447454548
 30
0.0
 11
0.3906095144045594
 21
-0.08616383961157226
 31
0.0
210
0.0
220
0.0
230
1.0
 40
0.0142285888
 41
0.0
 42
6.283185307179586
  0
LINE
  5
262
330
1F
100
AcDbEntity
  8
0
  6
Continuous
 62
     7
370
    15
100
AcDbLine
 10
189.9179199934
 20
456.1627676057
 30
0.0
 11
189.9179199934
 21
464.7627641725
 31
0.0
  0
LINE
  5
263
330
1F
100
AcDbEntity
  8
0
  6
Continuous
 62
     7
370
    15
100
AcDbLine
 10
184.4036260843
 20
456.1627676057
 30
0.0
 11
184.4036260843
 21
464.7627641725
 31
0.0
  0
LINE
  5
264
330
1F
100
AcDbEntity
  8
0
  6
Continuous
 62
     7
370
    15
100
AcDbLine
 10
189.9179199934
 20
456.1627676057
 30
0.0
 11
184.4036260843
 21
456.1627676057
 31
0.0
  0
LINE
  5
265
330
1F
100
AcDbEntity
  8
0
  6
Continuous
 62
     7
370
    15
100
AcDbLine
 10
189.9179199934
 20
464.7627641725
 30
0.0
 11
184.4036260843
 21
464.7627641725
 31
0.0
  0
LINE
  5
266
330
1F
100
AcDbEntity
  8
0
  6
Continuous
 62
     7
370
    15
100
AcDbLine
 10
183.2893694043
 20
468.0627753305
 30
0.0
 11
158.4772596359
 21
468.0627753305
 31
0.0
  0
LINE
  5
267
330
1F
100
AcDbEntity
  8
0
  6
Continuous
 62
     7
370
    15
100
AcDbLine
 10
183.2893694043
 20
464.7627641725
 30
0.0
 11
183.2893694043
 21
468.0627753305
 31
0.0
  0
LINE
  5
268
330
1F
100
AcDbEntity
  8
0
  6
Continuous
 62
     7
370
    15
100
AcDbLine
 10
183.2893694043
 20
453.6627699899
 30
0.0
 11
183.2893694043
 21
456.1627676057
 31
0.0
  0
LINE
  5
269
330
1F
100
AcDbEntity
  8
0
  6
Continuous
 62
     7
370
    15
100
AcDbLine
 10
158.4772596359
 20
453.6627699899
 30
0.0
 11
183.2893694043
 21
453.6627699899
 31
0.0
  0
LINE
  5
26A
330
1F
100
AcDbEntity
  8
0
  6
Continuous
 62
     7
370
    15
100
AcDbLine
 10
158.4772596359
 20
453.6627699899
 30
0.0
 11
158.4772596359
 21
468.0627753305
 31
0.0
  0
LINE
  5
26B
330
1F
100
AcDbEntity
  8
0
  6
Continuous
 62
     7
370
    15
100
AcDbLine
 10
183.2893694043
 20
456.1627676057
 30
0.0
 11
184.4036260843
 21
456.1627676057
 31
0.0
  0
LINE
  5
26C
330
1F
100
AcDbEntity
  8
0
  6
Continuous
 62
     7
370
    15
100
AcDbLine
 10
183.2893694043
 20
464.7627641725
 30
0.0
 11
184.4036260843
 21
464.7627641725
 31
0.0
  0
LINE
  5
26D
330
1F
100
AcDbEntity
  8
0
  6
Continuous
 62
     7
370
    15
100
AcDbLine
 10
185.3092292547
 20
468.8601215648
 30
0.0
 11
183.4169978499
 21
468.8601215648
 31
0.0
  0
ARC
  5
26E
330
1F
100
AcDbEntity
  8
0
  6
Continuous
 62
     7
370
    15
100
AcDbCircle
 10
184.7636309421
 20
468.235683039
 30
0.0
 40
1.484366584631194
100
AcDbArc
 50
155.1226784356
 51
186.689334224
  0
ARC
  5
26F
330
1F
100
AcDbEntity
  8
0
  6
Continuous
 62
     7
370
    15
100
AcDbCircle
 10
159.7332348723
 20
468.256731007
 30
0.0
 40
1.270862934734468
100
AcDbArc
 50
151.5184881633
 51
188.7786338264
  0
LINE
  5
270
330
1F
100
AcDbEntity
  8
0
  6
Continuous
 62
     7
370
    15
100
AcDbLine
 10
158.6161831617
 20
468.8627739715
 30
0.0
 11
185.9819794297
 21
468.8627739715
 31
0.0
  0
LINE
  5
271
330
1F
100
AcDbEntity
  8
0
  6
Continuous
 62
     7
370
    15
100
AcDbLine
 10
185.9819794297
 20
468.8627739715
 30
0.0
 11
185.3092292547
 21
468.8601215648
 31
0.0
  0
LINE
  5
272
330
1F
100
AcDbEntity
  8
0
  6
Continuous
 62
     7
370
    15
100
AcDbLine
 10
183.4169978499
 20
452.8654237556
 30
0.0
 11
185.3092292547
 21
452.8654237556
 31
0.0
  0
LINE
  5
273
330
1F
100
AcDbEntity
  8
0
  6
Continuous
 62
     7
370
    15
100
AcDbLine
 10
185.3092292547
 20
452.8654237556
 30
0.0
 11
185.9819794297
 21
452.8627713489
 31
0.0
  0
LINE
  5
274
330
1F
100
AcDbEntity
  8
0
  6
Continuous
 62
     7
370
    15
100
AcDbLine
 10
185.9819794297
 20
452.8627713489
 30
0.0
 11
158.6161831617
 21
452.8627713489
 31
0.0
  0
ARC
  5
275
330
1F
100
AcDbEntity
  8
0
  6
Continuous
 62
     7
370
    15
100
AcDbCircle
 10
159.7332348723
 20
453.4688143134
 30
0.0
 40
1.270862934734452
100
AcDbArc
 50
171.2213661736
 51
208.4815118367
  0
ARC
  5
276
330
1F
100
AcDbEntity
  8
0
  6
Continuous
 62
     7
370
    15
100
AcDbCircle
 10
184.7636023996
 20
453.4898577127
 30
0.0
 40
1.484338768683188
100
AcDbArc
 50
173.3103622863
 51
204.877625054
  0
LINE
  5
277
330
1F
100
AcDbEntity
  8
0
  6
Continuous
 62
     7
370
    15
100
AcDbLine
 10
183.4169978499
 20
468.0627753305
 30
0.0
 11
183.4169978499
 21
468.8601215648
 31
0.0
  0
LINE
  5
278
330
1F
100
AcDbEntity
  8
0
  6
Continuous
 62
     7
370
    15
100
AcDbLine
 10
183.4282929301
 20
468.0627753305
 30
0.0
 11
183.4282929301
 21
464.7627641725
 31
0.0
  0
LINE
  5
279
330
1F
100
AcDbEntity
  8
0
  6
Continuous
 62
     7
370
    15
100
AcDbLine
 10
183.4169978499
 20
452.8654237556
 30
0.0
 11
183.4169978499
 21
453.6627699899
 31
0.0
  0
LINE
  5
27A
330
1F
100
AcDbEntity
  8
0
  6
Continuous
 62
     7
370
    15
100
AcDbLine
 10
183.4282929301
 20
456.1627676057
 30
0.0
 11
183.4282929301
 21
453.6627699899
 31
0.0
  0
LINE
  5
27B
330
1F
100
AcDbEntity
  8
0
  6
Continuous
 62
     7
370
    15
100
AcDbLine
 10
189.4169951081
 20
452.8627713489
 30
0.0
 11
185.9819794297
 21
452.8627713489
 31
0.0
  0
LINE
  5
27C
330
1F
100
AcDbEntity
  8
0
  6
Continuous
 62
     7
370
    15
100
AcDbLine
 10
185.3092292547
 20
452.8654237556
 30
0.0
 11
185.3092292547
 21
453.6627699899
 31
0.0
  0
LINE
  5
27D
330
1F
100
AcDbEntity
  8
0
  6
Continuous
 62
     7
370
    15
100
AcDbLine
 10
189.4169951081
 20
453.6627699899
 30
0.0
 11
185.3092292547
 21
453.6627699899
 31
0.0
  0
LINE
  5
27E
330
1F
100
AcDbEntity
  8
0
  6
Continuous
 62
     7
370
    15
100
AcDbLine
 10
185.3092292547
 20
468.0627753305
 30
0.0
 11
185.3092292547
 21
468.8601215648
 31
0.0
  0
LINE
  5
27F
330
1F
100
AcDbEntity
  8
0
  6
Continuous
 62
     7
370
    15
100
AcDbLine
 10
189.4169951081
 20
468.8627739715
 30
0.0
 11
185.9819794297
 21
468.8627739715
 31
0.0
  0
LINE
  5
280
330
1F
100
AcDbEntity
  8
0
  6
Continuous
 62
     7
370
    15
100
AcDbLine
 10
189.4169951081
 20
468.0627753305
 30
0.0
 11
185.3092292547
 21
468.0627753305
 31
0.0
  0
LINE
  5
281
330
1F
100
AcDbEntity
  8
0
  6
Continuous
 62
     7
370
    15
100
AcDbLine
 10
183.4169978499
 20
468.0627753305
 30
0.0
 11
185.3092292547
 21
468.0627753305
 31
0.0
  0
LINE
  5
282
330
1F
100
AcDbEntity
  8
0
  6
Continuous
 62
     7
370
    15
100
AcDbLine
 10
183.4169978499
 20
453.6627699899
 30
0.0
 11
185.3092292547
 21
453.6627699899
 31
0.0
  0
LINE
  5
283
330
1F
100
AcDbEntity
  8
0
  6
Continuous
 62
     7
370
    15
100
AcDbLine
 10
184.4869980812
 20
469.1627641487
 30
0.0
 11
188.8869980573
 21
469.1627641487
 31
0.0
  0
LINE
  5
284
330
1F
100
AcDbEntity
  8
0
  6
Continuous
 62
     7
370
    15
100
AcDbLine
 10
184.5869923233
 20
452.4627645778
 30
0.0
 11
188.7869963645
 21
452.4627645778
 31
0.0
  0
LINE
  5
285
330
1F
100
AcDbEntity
  8
0
  6
Continuous
 62
     7
370
    15
100
AcDbLine
 10
184.5869923233
 20
452.0627727079
 30
0.0
 11
188.7869963645
 21
452.0627727079
 31
0.0
  0
ARC
  5
286
330
1F
100
AcDbEntity
  8
0
  6
Continuous
 62
     7
370
    15
100
AcDbCircle
 10
166.8829115264
 20
460.8627726602
 30
0.0
 40
16.90401408232907
100
AcDbArc
 50
154.7901718738
 51
205.2098281262
  0
SPLINE
  5
287
330
1F
100
AcDbEntity
  8
0
  6
Continuous
 62
     7
370
    15
100
AcDbSpline
210
0.0
220
0.0
230
1.0
 70
     8
 71
     3
 72
    12
 73
     8
 74
     0
 42
0.00000001
 43
0.00000001
 40
0.0
 40
0.0
 40
0.0
 40
0.0
 40
0.1818835694295244
 40
0.3633451673468943
 40
0.5550758196191257
 40
0.7712681106804287
 40
0.9999999999999999
 40
0.9999999999999999
 40
0.9999999999999999
 40
0.9999999999999999
 10
151.7213115691638
 20
452.8627713488915
 30
0.0
 10
151.7451727946381
 20
452.870093387881
 30
0.0
 10
151.7928398873295
 20
452.8847204786637
 30
0.0
 10
151.807573305059
 20
452.9967198218507
 30
0.0
 10
151.7803535074878
 20
453.1660988361847
 30
0.0
 10
151.708677831576
 20
453.3945198993067
 30
0.0
 10
151.6295936406878
 20
453.5716888688521
 30
0.0
 10
151.5889371036982
 20
453.6627699899056
 30
0.0
  0
LINE
  5
288
330
1F
100
AcDbEntity
  8
0
  6
Continuous
 62
     7
370
    15
100
AcDbLine
 10
151.3369510173
 20
453.6172767448
 30
0.0
 11
151.6913900375
 21
452.8627713489
 31
0.0
  0
ARC
  5
289
330
1F
100
AcDbEntity
  8
0
  6
Continuous
 62
     7
370
    15
100
AcDbCircle
 10
166.6075797104
 20
460.8627726602
 30
0.0
 40
16.90234633834254
100
AcDbArc
 50
154.616938827
 51
205.383061173
  0
LINE
  5
28A
330
1F
100
AcDbEntity
  8
0
  6
Continuous
 62
     7
370
    15
100
AcDbLine
 10
151.6913900375
 20
468.8627739715
 30
0.0
 11
151.3369510173
 21
468.1082685756
 31
0.0
  0
SPLINE
  5
28B
330
1F
100
AcDbEntity
  8
0
  6
Continuous
 62
     7
370
    15
100
AcDbSpline
210
0.0
220
0.0
230
1.0
 70
     8
 71
     3
 72
    12
 73
     8
 74
     0
 42
0.00000001
 43
0.00000001
 40
0.0
 40
0.0
 40
0.0
 40
0.0
 40
0.2510129476244693
 40
0.5023997049789553
 40
0.7402755902731164
 40
0.9473068909495996
 40
0.9999999999999999
 40
0.9999999999999999
 40
0.9999999999999999
 40
0.9999999999999999
 10
151.5889371036982
 20
468.0627753304818
 30
0.0
 10
151.6332553694166
 20
468.1626546820473
 30
0.0
 10
151.7219578998349
 20
468.3625621260053
 30
0.0
 10
151.7969432558891
 20
468.6212905990136
 30
0.0
 10
151.8084401114041
 20
468.7985193408505
 30
0.0
 10
151.7667935937707
 20
468.8589563944853
 30
0.0
 10
151.7289826795798
 20
468.8621300895442
 30
0.0
 10
151.7213115691638
 20
468.8627739714959
 30
0.0
  0
LINE
  5
28C
330
1F
100
AcDbEntity
  8
0
  6
Continuous
 62
     7
370
    15
100
AcDbLine
 10
151.7213115692
 20
468.8627739715
 30
0.0
 11
151.6913900375
 21
468.8627739715
 31
0.0
  0
LINE
  5
28D
330
1F
100
AcDbEntity
  8
0
  6
Continuous
 62
     7
370
    15
100
AcDbLine
 10
151.7213115692
 20
452.8627713489
 30
0.0
 11
151.6913900375
 21
452.8627713489
 31
0.0
  0
LINE
  5
28E
330
1F
100
AcDbEntity
  8
0
  6
Continuous
 62
     7
370
    15
100
AcDbLine
 10
153.5784134864
 20
468.0627753305
 30
0.0
 11
151.5889371037
 21
468.0627753305
 31
0.0
  0
LINE
  5
28F
330
1F
100
AcDbEntity
  8
0
  6
Continuous
 62
     7
370
    15
100
AcDbLine
 10
153.5784134864
 20
453.6627699899
 30
0.0
 11
153.5784134864
 21
468.0627753305
 31
0.0
  0
LINE
  5
290
330
1F
100
AcDbEntity
  8
0
  6
Continuous
 62
     7
370
    15
100
AcDbLine
 10
151.5889371037
 20
453.6627699899
 30
0.0
 11
153.5784134864
 21
453.6627699899
 31
0.0
  0
LWPOLYLINE
  5
291
330
1F
100
AcDbEntity
  8
0
  6
Continuous
 62
     7
370
    15
100
AcDbPolyline
 90
        9
 70
   128
 43
0.0
 10
153.5784134864
 20
468.0627753305
 10
153.5731533765
 20
468.2188351917
 10
153.5575816631
 20
468.3689196872
 10
153.5323018431
 20
468.5072322654
 10
153.4982750415
 20
468.6284532117
 10
153.4568125605
 20
468.727948265
 10
153.4095013737
 20
468.8018729257
 10
153.358174324
 20
468.8473959731
 10
153.3047983646
 20
468.8627739715
  0
LINE
  5
292
330
1F
100
AcDbEntity
  8
0
  6
Continuous
 62
     7
370
    15
100
AcDbLine
 10
151.7213115692
 20
468.8627739715
 30
0.0
 11
153.3047983646
 21
468.8627739715
 31
0.0
  0
LWPOLYLINE
  5
293
330
1F
100
AcDbEntity
  8
0
  6
Continuous
 62
     7
370
    15
100
AcDbPolyline
 90
        9
 70
   128
 43
0.0
 10
153.5784134864
 20
453.6627699899
 10
153.5731533765
 20
453.5066952276
 10
153.5575816631
 20
453.3566256332
 10
153.5323018431
 20
453.218313055
 10
153.4982750415
 20
453.0970921087
 10
153.4568125605
 20
452.9975970554
 10
153.4095013737
 20
452.9236723947
 10
153.358174324
 20
452.8781493472
 10
153.3047983646
 20
452.8627713489
  0
LINE
  5
294
330
1F
100
AcDbEntity
  8
0
  6
Continuous
 62
     7
370
    15
100
AcDbLine
 10
153.3047983646
 20
452.8627713489
 30
0.0
 11
151.7213115692
 21
452.8627713489
 31
0.0
  0
LINE
  5
295
330
1F
100
AcDbEntity
  8
0
  6
Continuous
 62
     7
370
    15
100
AcDbLine
 10
153.5784134864
 20
453.6627699899
 30
0.0
 11
158.4772596359
 21
453.6627699899
 31
0.0
  0
LINE
  5
296
330
1F
100
AcDbEntity
  8
0
  6
Continuous
 62
     7
370
    15
100
AcDbLine
 10
158.6161831617
 20
452.8627713489
 30
0.0
 11
153.3047983646
 21
452.8627713489
 31
0.0
  0
LINE
  5
297
330
1F
100
AcDbEntity
  8
0
  6
Continuous
 62
     7
370
    15
100
AcDbLine
 10
158.4772596359
 20
468.0627753305
 30
0.0
 11
153.5784134864
 21
468.0627753305
 31
0.0
  0
LINE
  5
298
330
1F
100
AcDbEntity
  8
0
  6
Continuous
 62
     7
370
    15
100
AcDbLine
 10
153.3047983646
 20
468.8627739715
 30
0.0
 11
158.6161831617
 21
468.8627739715
 31
0.0
  0
LINE
  5
299
330
1F
100
AcDbEntity
  8
0
  6
Continuous
 62
     7
370
    15
100
AcDbLine
 10
189.7069940567
 20
85.112767415
 30
0.0
 11
189.7069940567
 21
84.1127653884
 31
0.0
  0
LINE
  5
29A
330
1F
100
AcDbEntity
  8
0
  6
Continuous
 62
     7
370
    15
100
AcDbLine
 10
189.7069940567
 20
84.1127653884
 30
0.0
 11
183.5069934129
 21
84.1127653884
 31
0.0
  0
LINE
  5
29B
330
1F
100
AcDbEntity
  8
0
  6
Continuous
 62
     7
370
    15
100
AcDbLine
 10
183.5069934129
 20
85.112767415
 30
0.0
 11
183.5069934129
 21
84.1127653884
 31
0.0
  0
LINE
  5
29C
330
1F
100
AcDbEntity
  8
0
  6
Continuous
 62
     7
370
    15
100
AcDbLine
 10
189.7069940567
 20
85.112767415
 30
0.0
 11
183.5069934129
 21
85.112767415
 31
0.0
  0
LINE
  5
29D
330
1F
100
AcDbEntity
  8
0
  6
Continuous
 62
     7
370
    15
100
AcDbLine
 10
189.7069940567
 20
455.1127721834
 30
0.0
 11
189.7069940567
 21
454.1127701568
 31
0.0
  0
LINE
  5
29E
330
1F
100
AcDbEntity
  8
0
  6
Continuous
 62
     7
370
    15
100
AcDbLine
 10
189.7069940567
 20
454.1127701568
 30
0.0
 11
183.5069934129
 21
454.1127701568
 31
0.0
  0
LINE
  5
29F
330
1F
100
AcDbEntity
  8
0
  6
Continuous
 62
     7
370
    15
100
AcDbLine
 10
183.5069934129
 20
455.1127721834
 30
0.0
 11
183.5069934129
 21
454.1127701568
 31
0.0
  0
LINE
  5
2A0
330
1F
100
AcDbEntity
  8
0
  6
Continuous
 62
     7
370
    15
100
AcDbLine
 10
189.7069940567
 20
455.1127721834
 30
0.0
 11
183.5069934129
 21
455.1127721834
 31
0.0
  0
LINE
  5
2A1
330
1F
100
AcDbEntity
  8
0
  6
Continuous
 62
     7
370
    15
100
AcDbLine
 10
189.7069940567
 20
467.6127751636
 30
0.0
 11
189.7069940567
 21
466.612773137
 31
0.0
  0
LINE
  5
2A2
330
1F
100
AcDbEntity
  8
0
  6
Continuous
 62
     7
370
    15
100
AcDbLine
 10
183.5069934129
 20
467.6127751636
 30
0.0
 11
183.5069934129
 21
466.612773137
 31
0.0
  0
LINE
  5
2A3
330
1F
100
AcDbEntity
  8
0
  6
Continuous
 62
     7
370
    15
100
AcDbLine
 10
189.7069940567
 20
466.612773137
 30
0.0
 11
183.5069934129
 21
466.612773137
 31
0.0
  0
LINE
  5
2A4
330
1F
100
AcDbEntity
  8
0
  6
Continuous
 62
     7
370
    15
100
AcDbLine
 10
189.7069940567
 20
467.6127751636
 30
0.0
 11
183.5069934129
 21
467.6127751636
 31
0.0
  0
LINE
  5
2A5
330
1F
100
AcDbEntity
  8
0
  6
Continuous
 62
     7
370
    15
100
AcDbLine
 10
189.7069940567
 20
97.6127703952
 30
0.0
 11
189.7069940567
 21
96.6127683687
 31
0.0
  0
LINE
  5
2A6
330
1F
100
AcDbEntity
  8
0
  6
Continuous
 62
     7
370
    15
100
AcDbLine
 10
183.5069934129
 20
97.6127703952
 30
0.0
 11
183.5069934129
 21
96.6127683687
 31
0.0
  0
LINE
  5
2A7
330
1F
100
AcDbEntity
  8
0
  6
Continuous
 62
     7
370
    15
100
AcDbLine
 10
189.7069940567
 20
97.6127703952
 30
0.0
 11
183.5069934129
 21
97.6127703952
 31
0.0
  0
LINE
  5
2A8
330
1F
100
AcDbEntity
  8
0
  6
Continuous
 62
     7
370
    15
100
AcDbLine
 10
189.7069940567
 20
96.6127683687
 30
0.0
 11
183.5069934129
 21
96.6127683687
 31
0.0
  0
LWPOLYLINE
  5
2A9
330
1F
100
AcDbEntity
  8
0
  6
Continuous
 62
     7
370
    15
100
AcDbPolyline
 90
        3
 70
   128
 43
0.0
 10
183.4282929301
 20
84.5016260909
 10
183.430870831
 20
84.4954570102
 10
183.5069934129
 20
84.1127653884
  0
LWPOLYLINE
  5
2AA
330
1F
100
AcDbEntity
  8
0
  6
Continuous
 62
     7
370
    15
100
AcDbPolyline
 90
        3
 70
   128
 43
0.0
 10
183.5069934129
 20
97.6127703952
 10
183.430870831
 20
97.2300936746
 10
183.4282929301
 20
97.2239096927
  0
LINE
  5
2AB
330
1F
100
AcDbEntity
  8
0
  6
Continuous
 62
     7
370
    15
100
AcDbLine
 10
189.7069940567
 20
96.6127683687
 30
0.0
 11
189.7069940567
 21
96.4627732801
 31
0.0
  0
LINE
  5
2AC
330
1F
100
AcDbEntity
  8
0
  6
Continuous
 62
     7
370
    15
100
AcDbLine
 10
189.7069940567
 20
95.6627746391
 30
0.0
 11
189.7069940567
 21
94.7627743053
 31
0.0
  0
LINE
  5
2AD
330
1F
100
AcDbEntity
  8
0
  6
Continuous
 62
     7
370
    15
100
AcDbLine
 10
189.7069940567
 20
86.1627628373
 30
0.0
 11
189.7069940567
 21
85.112767415
 31
0.0
  0
LWPOLYLINE
  5
2AE
330
1F
100
AcDbEntity
  8
0
  6
Continuous
 62
     7
370
    15
100
AcDbPolyline
 90
        3
 70
   128
 43
0.0
 10
183.4282929301
 20
454.5016308593
 10
183.430870831
 20
454.4954468774
 10
183.5069934129
 20
454.1127701568
  0
LWPOLYLINE
  5
2AF
330
1F
100
AcDbEntity
  8
0
  6
Continuous
 62
     7
370
    15
100
AcDbPolyline
 90
        3
 70
   128
 43
0.0
 10
183.5069934129
 20
467.6127751636
 10
183.430870831
 20
467.2300835418
 10
183.4282929301
 20
467.2239144611
  0
LINE
  5
2B0
330
1F
100
AcDbEntity
  8
0
  6
Continuous
 62
     7
370
    15
100
AcDbLine
 10
189.7069940567
 20
466.612773137
 30
0.0
 11
189.7069940567
 21
466.4627631473
 31
0.0
  0
LINE
  5
2B1
330
1F
100
AcDbEntity
  8
0
  6
Continuous
 62
     7
370
    15
100
AcDbLine
 10
189.7069940567
 20
465.6627645063
 30
0.0
 11
189.7069940567
 21
464.7627641725
 31
0.0
  0
LINE
  5
2B2
330
1F
100
AcDbEntity
  8
0
  6
Continuous
 62
     7
370
    15
100
AcDbLine
 10
189.7069940567
 20
456.1627676057
 30
0.0
 11
189.7069940567
 21
455.1127721834
 31
0.0
  0
LINE
  5
2B3
330
1F
100
AcDbEntity
  8
0
  6
Continuous
 62
     7
370
    15
100
AcDbLine
 10
202.7069905996
 20
40.8627708721
 30
0.0
 11
81.7069940492
 21
40.8627708721
 31
0.0
  0
LINE
  5
2B4
330
1F
100
AcDbEntity
  8
0
  6
Continuous
 62
     7
370
    15
100
AcDbLine
 10
202.7069905996
 20
40.8627708721
 30
0.0
 11
202.7069905996
 21
25.862770276
 31
0.0
  0
LINE
  5
2B5
330
1F
100
AcDbEntity
  8
0
  6
Continuous
 62
     7
370
    15
100
AcDbLine
 10
202.7069905996
 20
25.862770276
 30
0.0
 11
81.7069940492
 21
25.862770276
 31
0.0
  0
LINE
  5
2B6
330
1F
100
AcDbEntity
  8
0
  6
Continuous
 62
     7
370
    15
100
AcDbLine
 10
81.7069940492
 20
40.8627708721
 30
0.0
 11
81.7069940492
 21
25.862770276
 31
0.0
  0
LINE
  5
2B7
330
1F
100
AcDbEntity
  8
0
  6
Continuous
 62
     7
370
    15
100
AcDbLine
 10
66.7069943845
 20
510.86276968
 30
0.0
 11
81.7069940492
 21
510.86276968
 31
0.0
  0
LINE
  5
2B8
330
1F
100
AcDbEntity
  8
0
  6
Continuous
 62
     7
370
    15
100
AcDbLine
 10
81.7069940492
 20
510.86276968
 30
0.0
 11
81.7069940492
 21
40.8627708721
 31
0.0
  0
LINE
  5
2B9
330
1F
100
AcDbEntity
  8
0
  6
Continuous
 62
     7
370
    15
100
AcDbLine
 10
81.7069940492
 20
40.8627708721
 30
0.0
 11
66.7069943845
 21
40.8627708721
 31
0.0
  0
LINE
  5
2BA
330
1F
100
AcDbEntity
  8
0
  6
Continuous
 62
     7
370
    15
100
AcDbLine
 10
66.7069943845
 20
510.86276968
 30
0.0
 11
66.7069943845
 21
40.8627708721
 31
0.0
  0
LINE
  5
2BB
330
1F
100
AcDbEntity
  8
0
  6
Continuous
 62
     7
370
    15
100
AcDbLine
 10
182.7069947719
 20
45.8627661037
 30
0.0
 11
182.7069947719
 21
78.0502279567
 31
0.0
  0
LINE
  5
2BC
330
1F
100
AcDbEntity
  8
0
  6
Continuous
 62
     7
370
    15
100
AcDbLine
 10
182.7069947719
 20
81.3900103139
 30
0.0
 11
182.7069947719
 21
82.8627665805
 31
0.0
  0
LINE
  5
2BD
330
1F
100
AcDbEntity
  8
0
  6
Continuous
 62
     7
370
    15
100
AcDbLine
 10
182.7069947719
 20
98.8627692031
 30
0.0
 11
182.7069947719
 21
100.3221740293
 31
0.0
  0
LINE
  5
2BE
330
1F
100
AcDbEntity
  8
0
  6
Continuous
 62
     7
370
    15
100
AcDbLine
 10
182.7069947719
 20
103.6648919153
 30
0.0
 11
182.7069947719
 21
448.0502178239
 31
0.0
  0
LINE
  5
2BF
330
1F
100
AcDbEntity
  8
0
  6
Continuous
 62
     7
370
    15
100
AcDbLine
 10
182.7069947719
 20
451.3900150823
 30
0.0
 11
182.7069947719
 21
452.8627713489
 31
0.0
  0
LINE
  5
2C0
330
1F
100
AcDbEntity
  8
0
  6
Continuous
 62
     7
370
    15
100
AcDbLine
 10
182.7069947719
 20
468.8627739715
 30
0.0
 11
182.7069947719
 21
470.3221787977
 31
0.0
  0
LINE
  5
2C1
330
1F
100
AcDbEntity
  8
0
  6
Continuous
 62
     7
370
    15
100
AcDbLine
 10
182.7069947719
 20
473.6648817825
 30
0.0
 11
182.7069947719
 21
505.8627744483
 31
0.0
  0
LINE
  5
2C2
330
1F
100
AcDbEntity
  8
0
  6
Continuous
 62
     7
370
    15
100
AcDbLine
 10
182.7069947719
 20
505.8627744483
 30
0.0
 11
86.7069939374
 21
505.8627744483
 31
0.0
  0
LINE
  5
2C3
330
1F
100
AcDbEntity
  8
0
  6
Continuous
 62
     7
370
    15
100
AcDbLine
 10
86.7069939374
 20
505.8627744483
 30
0.0
 11
86.7069939374
 21
45.8627661037
 31
0.0
  0
LINE
  5
2C4
330
1F
100
AcDbEntity
  8
0
  6
Continuous
 62
     7
370
    15
100
AcDbLine
 10
182.7069947719
 20
45.8627661037
 30
0.0
 11
86.7069939374
 21
45.8627661037
 31
0.0
  0
LINE
  5
2C5
330
1F
100
AcDbEntity
  8
0
  6
Continuous
 62
     7
370
    15
100
AcDbLine
 10
202.7069905996
 20
510.86276968
 30
0.0
 11
81.7069940492
 21
510.86276968
 31
0.0
  0
LINE
  5
2C6
330
1F
100
AcDbEntity
  8
0
  6
Continuous
 62
     7
370
    15
100
AcDbLine
 10
202.7069905996
 20
40.8627708721
 30
0.0
 11
202.7069905996
 21
81.8548669385
 31
0.0
  0
LINE
  5
2C7
330
1F
100
AcDbEntity
  8
0
  6
Continuous
 62
     7
370
    15
100
AcDbLine
 10
202.7069905996
 20
99.8387058544
 30
0.0
 11
202.7069905996
 21
451.8548568057
 31
0.0
  0
LINE
  5
2C8
330
1F
100
AcDbEntity
  8
0
  6
Continuous
 62
     7
370
    15
100
AcDbLine
 10
202.7069905996
 20
469.8386957216
 30
0.0
 11
202.7069905996
 21
510.86276968
 31
0.0
  0
ARC
  5
2C9
330
1F
100
AcDbEntity
  8
0
  6
Continuous
 62
     7
370
    15
100
AcDbCircle
 10
81.7069943666
 20
40.862770276
 30
0.0
 40
15.00000000000001
100
AcDbArc
 50
180.0
 51
270.0
  0
LINE
  5
2CA
330
1F
100
AcDbEntity
  8
0
  6
Continuous
 62
     7
370
    15
100
AcDbLine
 10
202.7069905996
 20
525.862770276
 30
0.0
 11
81.7069940492
 21
525.862770276
 31
0.0
  0
LINE
  5
2CB
330
1F
100
AcDbEntity
  8
0
  6
Continuous
 62
     7
370
    15
100
AcDbLine
 10
202.7069905996
 20
525.862770276
 30
0.0
 11
202.7069905996
 21
510.86276968
 31
0.0
  0
LINE
  5
2CC
330
1F
100
AcDbEntity
  8
0
  6
Continuous
 62
     7
370
    15
100
AcDbLine
 10
81.7069940492
 20
525.862770276
 30
0.0
 11
81.7069940492
 21
510.86276968
 31
0.0
  0
ARC
  5
2CD
330
1F
100
AcDbEntity
  8
0
  6
Continuous
 62
     7
370
    15
100
AcDbCircle
 10
81.7069943666
 20
510.862770276
 30
0.0
 40
15.00000000000006
100
AcDbArc
 50
90.0
 51
180.0
  0
LINE
  5
2CE
330
1F
100
AcDbEntity
  8
0
  6
Continuous
 62
     7
370
    15
100
AcDbLine
 10
206.7069987058
 20
520.8627750444
 30
0.0
 11
202.7069905996
 21
520.8627750444
 31
0.0
  0
LINE
  5
2CF
330
1F
100
AcDbEntity
  8
0
  6
Continuous
 62
     7
370
    15
100
AcDbLine
 10
206.7069987058
 20
505.8627744483
 30
0.0
 11
202.7069905996
 21
505.8627744483
 31
0.0
  0
LINE
  5
2D0
330
1F
100
AcDbEntity
  8
0
  6
Continuous
 62
     7
370
    15
100
AcDbLine
 10
206.7069987058
 20
45.8627661037
 30
0.0
 11
202.7069905996
 21
45.8627661037
 31
0.0
  0
LINE
  5
2D1
330
1F
100
AcDbEntity
  8
0
  6
Continuous
 62
     7
370
    15
100
AcDbLine
 10
206.7069987058
 20
30.8627655076
 30
0.0
 11
202.7069905996
 21
30.8627655076
 31
0.0
  0
LINE
  5
2D2
330
1F
100
AcDbEntity
  8
0
  6
Continuous
 62
     7
370
    15
100
AcDbLine
 10
294.2084401648
 20
641.8947385646
 30
0.0
 11
295.4084306757
 21
641.8947385646
 31
0.0
  0
LINE
  5
2D3
330
1F
100
AcDbEntity
  8
0
  6
Continuous
 62
     7
370
    15
100
AcDbLine
 10
294.1084235709
 20
644.3947361804
 30
0.0
 11
294.2084401648
 21
644.3947361804
 31
0.0
  0
LINE
  5
2D4
330
1F
100
AcDbEntity
  8
0
  6
Continuous
 62
     7
370
    15
100
AcDbLine
 10
294.2084401648
 20
650.3947334386
 30
0.0
 11
294.1084235709
 21
650.3947334386
 31
0.0
  0
SPLINE
  5
2D5
330
1F
100
AcDbEntity
  8
0
  6
Continuous
 62
     7
370
    15
100
AcDbSpline
210
0.0
220
0.0
230
1.0
 70
     8
 71
     3
 72
    15
 73
    11
 74
     0
 42
0.00000001
 43
0.00000001
 40
0.0
 40
0.0
 40
0.0
 40
0.0
 40
0.1250758502442964
 40
0.2501515181520967
 40
0.3752915865228048
 40
0.5003052766261131
 40
0.625289326162837
 40
0.7502628591728802
 40
0.875079163494045
 40
1.0
 40
1.0
 40
1.0
 40
1.0
 10
293.0228739779017
 20
672.4525647259437
 30
0.0
 10
292.9967410324639
 20
672.7113284365179
 30
0.0
 10
292.944475179685
 20
673.2288554804388
 30
0.0
 10
292.8656388206776
 20
674.0099723270318
 30
0.0
 10
292.7911944785269
 20
674.7471513779343
 30
0.0
 10
292.724218218891
 20
675.4107265539878
 30
0.0
 10
292.6680691078433
 20
675.9664924155333
 30
0.0
 10
292.6255911307968
 20
676.3875903292945
 30
0.0
 10
292.5967294309734
 20
676.6731968442615
 30
0.0
 10
292.5923796582024
 20
676.7162320808068
 30
0.0
 10
292.5902038614772
 20
676.7377587056839
 30
0.0
  0
SPLINE
  5
2D6
330
1F
100
AcDbEntity
  8
0
  6
Continuous
 62
     7
370
    15
100
AcDbSpline
210
0.0
220
0.0
230
1.0
 70
     8
 71
     3
 72
    15
 73
    11
 74
     0
 42
0.00000001
 43
0.00000001
 40
0.0
 40
0.0
 40
0.0
 40
0.0
 40
0.1249400656609977
 40
0.249767920150836
 40
0.3747499640727444
 40
0.4997367305381343
 40
0.6247475330371232
 40
0.749879426605655
 40
0.874942639496871
 40
1.0
 40
1.0
 40
1.0
 40
1.0
 10
289.6059781115076
 20
676.4363752699576
 30
0.0
 10
289.6081549007133
 20
676.4147975620468
 30
0.0
 10
289.6125065241068
 20
676.3716615255961
 30
0.0
 10
289.6413512461473
 20
676.0859479940739
 30
0.0
 10
289.6838938477835
 20
675.6647640843288
 30
0.0
 10
289.739976960094
 20
675.1089897759372
 30
0.0
 10
289.8069720181046
 20
674.4454621701101
 30
0.0
 10
289.8814066158739
 20
673.7084200143713
 30
0.0
 10
289.9602635064588
 20
672.9275085939752
 30
0.0
 10
290.0124806582749
 20
672.410151705201
 30
0.0
 10
290.0385886232875
 20
672.1514793134414
 30
0.0
  0
LINE
  5
2D7
330
1F
100
AcDbEntity
  8
0
  6
Continuous
 62
     7
370
    15
100
AcDbLine
 10
290.0383204024
 20
672.151345203
 30
0.0
 11
291.6073828738
 21
656.6103654004
 31
0.0
  0
LINE
  5
2D8
330
1F
100
AcDbEntity
  8
0
  6
Continuous
 62
     7
370
    15
100
AcDbLine
 10
294.5922344725
 20
656.9117264844
 30
0.0
 11
293.0231421988
 21
672.4526988364
 31
0.0
  0
SPLINE
  5
2D9
330
1F
100
AcDbEntity
  8
0
  6
Continuous
 62
     7
370
    15
100
AcDbSpline
210
0.0
220
0.0
230
1.0
 70
     8
 71
     3
 72
     9
 73
     5
 74
     0
 42
0.00000001
 43
0.00000001
 40
0.0
 40
0.0
 40
0.0
 40
0.0
 40
0.4837423281541608
 40
1.0
 40
1.0
 40
1.0
 40
1.0
 10
291.7774647276423
 20
654.9289928770744
 30
0.0
 10
291.7869314066984
 20
654.864768164181
 30
0.0
 10
291.8065010794457
 20
654.7320017942452
 30
0.0
 10
291.8403414420084
 20
654.6958445887757
 30
0.0
 10
291.8578117887996
 20
654.6771781540596
 30
0.0
  0
SPLINE
  5
2DA
330
1F
100
AcDbEntity
  8
0
  6
Continuous
 62
     7
370
    15
100
AcDbSpline
210
0.0
220
0.0
230
1.0
 70
     8
 71
     3
 72
    11
 73
     7
 74
     0
 42
0.00000001
 43
0.00000001
 40
0.0
 40
0.0
 40
0.0
 40
0.0
 40
0.24843859520607
 40
0.4978874476122649
 40
0.7483874041745817
 40
1.0
 40
1.0
 40
1.0
 40
1.0
 10
291.6076808969996
 20
656.6105293131553
 30
0.0
 10
291.6256953625872
 20
656.4320576253767
 30
0.0
 10
291.6617975482563
 20
656.0743885078815
 30
0.0
 10
291.7087958795587
 20
655.609551566418
 30
0.0
 10
291.7476000151134
 20
655.2266647686199
 30
0.0
 10
291.7626310083364
 20
655.0793770116079
 30
0.0
 10
291.7701631586573
 20
655.0055699444496
 30
0.0
  0
SPLINE
  5
2DB
330
1F
100
AcDbEntity
  8
0
  6
Continuous
 62
     7
370
    15
100
AcDbSpline
210
0.0
220
0.0
230
1.0
 70
     8
 71
     3
 72
    19
 73
    15
 74
     0
 42
0.00000001
 43
0.00000001
 40
0.0
 40
0.0
 40
0.0
 40
0.0
 40
0.0802801529479596
 40
0.1534412922591482
 40
0.2193398889295901
 40
0.2779506360393799
 40
0.3728460648198181
 40
0.4421518861814596
 40
0.5315384986156683
 40
0.6554822832505874
 40
0.7303552552707726
 40
0.8130764939023809
 40
0.9031425884064256
 40
1.0
 40
1.0
 40
1.0
 40
1.0
 10
291.7931109468959
 20
654.8463510370933
 30
0.0
 10
291.8284715535241
 20
654.7234771164367
 30
0.0
 10
291.8960570896359
 20
654.4886253818777
 30
0.0
 10
292.093281149896
 20
654.1942148908885
 30
0.0
 10
292.3181355090852
 20
653.9700841252359
 30
0.0
 10
292.6138190668155
 20
653.7770674028277
 30
0.0
 10
292.9557552145354
 20
653.6591299463515
 30
0.0
 10
293.3655122510208
 20
653.6293614726834
 30
0.0
 10
293.8045962797278
 20
653.7316528173732
 30
0.0
 10
294.1911312565289
 20
653.982895646892
 30
0.0
 10
294.4839683869087
 20
654.3236019263487
 30
0.0
 10
294.6647389100418
 20
654.6790711813042
 30
0.0
 10
294.7706579047008
 20
655.1060121100388
 30
0.0
 10
294.7383874250584
 20
655.4010821222421
 30
0.0
 10
294.7216659586451
 20
655.5539773798668
 30
0.0
  0
SPLINE
  5
2DC
330
1F
100
AcDbEntity
  8
0
  6
Continuous
 62
     7
370
    15
100
AcDbSpline
210
0.0
220
0.0
230
1.0
 70
     8
 71
     3
 72
    11
 73
     7
 74
     0
 42
0.00000001
 43
0.00000001
 40
0.0
 40
0.0
 40
0.0
 40
0.0
 40
0.2477441740661877
 40
0.4969485595492578
 40
0.747676767748903
 40
1.0
 40
1.0
 40
1.0
 40
1.0
 10
294.7454482119105
 20
655.3862946129523
 30
0.0
 10
294.7390040071038
 20
655.4509197887425
 30
0.0
 10
294.7260776151586
 20
655.5805510430014
 30
0.0
 10
294.6901567447661
 20
655.9384299395718
 30
0.0
 10
294.6451396547079
 20
656.3847469900818
 30
0.0
 10
294.6097082984703
 20
656.7356064229041
 30
0.0
 10
294.5919364492915
 20
656.9115923739158
 30
0.0
  0
LINE
  5
2DD
330
1F
100
AcDbEntity
  8
0
  6
Continuous
 62
     7
370
    15
100
AcDbLine
 10
294.8757439654
 20
666.5664048887
 30
0.0
 11
294.8757439654
 21
666.8662237025
 31
0.0
  0
LINE
  5
2DE
330
1F
100
AcDbEntity
  8
0
  6
Continuous
 62
     7
370
    15
100
AcDbLine
 10
294.0757304232
 20
666.8662237025
 30
0.0
 11
294.0757304232
 21
666.5688561297
 31
0.0
  0
SPLINE
  5
2DF
330
1F
100
AcDbEntity
  8
0
  6
Continuous
 62
     7
370
    15
100
AcDbSpline
210
0.0
220
0.0
230
1.0
 70
    24
 71
     3
 72
    11
 73
     7
 74
     0
 42
0.00000001
 43
0.00000001
 40
0.0
 40
0.0
 40
0.0
 40
0.0
 40
0.0207851580527776
 40
0.3465582713038245
 40
0.6711422062876115
 40
0.9999999999999999
 40
0.9999999999999999
 40
0.9999999999999999
 40
0.9999999999999999
 10
294.0757304232142
 20
667.1525420642578
 30
0.0
 10
294.0757304232142
 20
667.1492203598966
 30
0.0
 10
294.075730423214
 20
667.0938364114929
 30
0.0
 10
294.0757304232143
 20
667.000598753232
 30
0.0
 10
294.0757304232143
 20
666.8878850374608
 30
0.0
 10
294.0757304232142
 20
666.8533631074124
 30
0.0
 10
294.0757304232142
 20
666.8359892464363
 30
0.0
  0
SPLINE
  5
2E0
330
1F
100
AcDbEntity
  8
0
  6
Continuous
 62
     7
370
    15
100
AcDbSpline
210
0.0
220
0.0
230
1.0
 70
    24
 71
     3
 72
    11
 73
     7
 74
     0
 42
0.00000001
 43
0.00000001
 40
0.0
 40
0.0
 40
0.0
 40
0.0
 40
0.2504858112135913
 40
0.4977299750592455
 40
0.74586599487306
 40
1.0
 40
1.0
 40
1.0
 40
1.0
 10
294.8757439653895
 20
666.8335380054199
 30
0.0
 10
294.8757439653895
 20
666.8497547025431
 30
0.0
 10
294.8757439653895
 20
666.8819782293594
 30
0.0
 10
294.8757439653896
 20
666.9907622372556
 30
0.0
 10
294.8757439653895
 20
667.1295920262627
 30
0.0
 10
294.8757439653895
 20
667.236619766471
 30
0.0
 10
294.8757439653895
 20
667.2907726860725
 30
0.0
  0
LINE
  5
2E1
330
1F
100
AcDbEntity
  8
0
  6
Continuous
 62
     7
370
    15
100
AcDbLine
 10
293.8689917128
 20
667.3947380877
 30
0.0
 11
294.0779059927
 21
667.1475129224
 31
0.0
  0
LINE
  5
2E2
330
1F
100
AcDbEntity
  8
0
  6
Continuous
 62
     7
370
    15
100
AcDbLine
 10
294.8757439654
 20
667.2907726861
 30
0.0
 11
294.8757439654
 21
667.3947380877
 31
0.0
  0
LINE
  5
2E3
330
1F
100
AcDbEntity
  8
0
  6
Continuous
 62
     7
370
    15
100
AcDbLine
 10
289.5993619959
 20
676.5327559806
 30
0.0
 11
289.583745579
 21
676.9919874168
 31
0.0
  0
SPLINE
  5
2E4
330
1F
100
AcDbEntity
  8
0
  6
Continuous
 62
     7
370
    15
100
AcDbSpline
210
0.0
220
0.0
230
1.0
 70
     8
 71
     3
 72
    11
 73
     7
 74
     0
 42
0.00000001
 43
0.00000001
 40
0.0
 40
0.0
 40
0.0
 40
0.0
 40
0.1207592406345323
 40
0.413392642697813
 40
0.7063557390918365
 40
1.0
 40
1.0
 40
1.0
 40
1.0
 10
291.6320293943904
 20
656.3693242169105
 30
0.0
 10
291.6419530808884
 20
656.2710236556086
 30
0.0
 10
291.6759246342468
 20
655.9345133512898
 30
0.0
 10
291.723258815985
 20
655.4656030809325
 30
0.0
 10
291.766157133578
 20
655.0408646873069
 30
0.0
 10
291.7736926129049
 20
654.9663123370476
 30
0.0
 10
291.7774647276423
 20
654.9289928770744
 30
0.0
  0
LINE
  5
2E5
330
1F
100
AcDbEntity
  8
0
  6
Continuous
 62
     7
370
    15
100
AcDbLine
 10
289.9601787131
 20
707.3947371937
 30
0.0
 11
289.2084449332
 21
707.1211220718
 31
0.0
  0
LINE
  5
2E6
330
1F
100
AcDbEntity
  8
0
  6
Continuous
 62
     7
370
    15
100
AcDbLine
 10
295.4084306757
 20
706.3947351671
 30
0.0
 11
295.1084404986
 21
706.3947351671
 31
0.0
  0
LINE
  5
2E7
330
1F
100
AcDbEntity
  8
0
  6
Continuous
 62
     7
370
    15
100
AcDbLine
 10
295.1084404986
 20
705.3947405911
 30
0.0
 11
295.0084239047
 21
705.3947405911
 31
0.0
  0
LINE
  5
2E8
330
1F
100
AcDbEntity
  8
0
  6
Continuous
 62
     7
370
    15
100
AcDbLine
 10
295.0084239047
 20
699.3947358824
 30
0.0
 11
295.1084404986
 21
699.3947358824
 31
0.0
  0
LINE
  5
2E9
330
1F
100
AcDbEntity
  8
0
  6
Continuous
 62
     7
370
    15
100
AcDbLine
 10
295.1084404986
 20
682.3947386838
 30
0.0
 11
295.0084239047
 21
682.3947386838
 31
0.0
  0
LINE
  5
2EA
330
1F
100
AcDbEntity
  8
0
  6
Continuous
 62
     7
370
    15
100
AcDbLine
 10
295.0084239047
 20
676.3947414256
 30
0.0
 11
295.1084404986
 21
676.3947414256
 31
0.0
  0
LINE
  5
2EB
330
1F
100
AcDbEntity
  8
0
  6
Continuous
 62
     7
370
    15
100
AcDbLine
 10
295.4084306757
 20
650.3947334386
 30
0.0
 11
295.4084306757
 21
645.3947382069
 31
0.0
  0
LINE
  5
2EC
330
1F
100
AcDbEntity
  8
0
  6
Continuous
 62
     7
370
    15
100
AcDbLine
 10
295.4084306757
 20
650.3947334386
 30
0.0
 11
310.4084312718
 21
650.3947334386
 31
0.0
  0
LINE
  5
2ED
330
1F
100
AcDbEntity
  8
0
  6
Continuous
 62
     7
370
    15
100
AcDbLine
 10
310.4084312718
 20
650.3947334386
 30
0.0
 11
310.4084312718
 21
645.3947382069
 31
0.0
  0
LINE
  5
2EE
330
1F
100
AcDbEntity
  8
0
  6
Continuous
 62
     7
370
    15
100
AcDbLine
 10
295.4084306757
 20
645.3947382069
 30
0.0
 11
310.4084312718
 21
645.3947382069
 31
0.0
  0
ARC
  5
2EF
330
1F
100
AcDbEntity
  8
0
  6
Continuous
 62
     7
370
    15
100
AcDbCircle
 10
310.4084306757
 20
645.3947377778
 30
0.0
 40
15.0
100
AcDbArc
 50
180.0
 51
270.0
  0
LINE
  5
2F0
330
1F
100
AcDbEntity
  8
0
  6
Continuous
 62
     7
370
    15
100
AcDbLine
 10
310.4084312718
 20
630.3947376109
 30
0.0
 11
310.4084312718
 21
645.3947382069
 31
0.0
  0
LINE
  5
2F1
330
1F
100
AcDbEntity
  8
0
  6
Continuous
 62
     7
370
    15
100
AcDbLine
 10
310.4084312718
 20
645.3947382069
 30
0.0
 11
780.4084300797
 21
645.3947382069
 31
0.0
  0
LINE
  5
2F2
330
1F
100
AcDbEntity
  8
0
  6
Continuous
 62
     7
370
    15
100
AcDbLine
 10
780.4084300797
 20
645.3947382069
 30
0.0
 11
780.4084300797
 21
630.3947376109
 31
0.0
  0
LINE
  5
2F3
330
1F
100
AcDbEntity
  8
0
  6
Continuous
 62
     7
370
    15
100
AcDbLine
 10
310.4084312718
 20
630.3947376109
 30
0.0
 11
780.4084300797
 21
630.3947376109
 31
0.0
  0
LINE
  5
2F4
330
1F
100
AcDbEntity
  8
0
  6
Continuous
 62
     7
370
    15
100
AcDbLine
 10
780.4084300797
 20
650.3947334386
 30
0.0
 11
780.4084300797
 21
645.3947382069
 31
0.0
  0
LINE
  5
2F5
330
1F
100
AcDbEntity
  8
0
  6
Continuous
 62
     7
370
    15
100
AcDbLine
 10
310.4084312718
 20
650.3947334386
 30
0.0
 11
780.4084300797
 21
650.3947334386
 31
0.0
  0
LINE
  5
2F6
330
1F
100
AcDbEntity
  8
0
  6
Continuous
 62
     7
370
    15
100
AcDbLine
 10
795.4084306757
 20
650.3947334386
 30
0.0
 11
795.4084306757
 21
645.3947382069
 31
0.0
  0
LINE
  5
2F7
330
1F
100
AcDbEntity
  8
0
  6
Continuous
 62
     7
370
    15
100
AcDbLine
 10
795.4084306757
 20
645.3947382069
 30
0.0
 11
780.4084300797
 21
645.3947382069
 31
0.0
  0
LINE
  5
2F8
330
1F
100
AcDbEntity
  8
0
  6
Continuous
 62
     7
370
    15
100
AcDbLine
 10
795.4084306757
 20
650.3947334386
 30
0.0
 11
780.4084300797
 21
650.3947334386
 31
0.0
  0
ARC
  5
2F9
330
1F
100
AcDbEntity
  8
0
  6
Continuous
 62
     7
370
    15
100
AcDbCircle
 10
780.4084306757
 20
645.3947377778
 30
0.0
 40
15.0
100
AcDbArc
 50
270.0
 51
0.0
  0
LINE
  5
2FA
330
1F
100
AcDbEntity
  8
0
  6
Continuous
 62
     7
370
    15
100
AcDbLine
 10
294.2084401648
 20
646.308537016
 30
0.0
 11
294.2084401648
 21
648.4125064707
 31
0.0
  0
LINE
  5
2FB
330
1F
100
AcDbEntity
  8
0
  6
Continuous
 62
     7
370
    15
100
AcDbLine
 10
294.2084401648
 20
648.4125064707
 30
0.0
 11
295.4084306757
 21
648.4125064707
 31
0.0
  0
LINE
  5
2FC
330
1F
100
AcDbEntity
  8
0
  6
Continuous
 62
     7
370
    15
100
AcDbLine
 10
294.2084401648
 20
646.308537016
 30
0.0
 11
295.4084306757
 21
646.308537016
 31
0.0
  0
LINE
  5
2FD
330
1F
100
AcDbEntity
  8
0
  6
Continuous
 62
     7
370
    15
100
AcDbLine
 10
294.2084401648
 20
653.3947395182
 30
0.0
 11
295.4084306757
 21
653.3947395182
 31
0.0
  0
LINE
  5
2FE
330
1F
100
AcDbEntity
  8
0
  6
Continuous
 62
     7
370
    15
100
AcDbLine
 10
295.4084306757
 20
650.3947334386
 30
0.0
 11
295.4084306757
 21
653.3947395182
 31
0.0
  0
LINE
  5
2FF
330
1F
100
AcDbEntity
  8
0
  6
Continuous
 62
     7
370
    15
100
AcDbLine
 10
294.2084401648
 20
653.3947395182
 30
0.0
 11
294.2084401648
 21
648.4125064707
 31
0.0
  0
LINE
  5
300
330
1F
100
AcDbEntity
  8
0
  6
Continuous
 62
     7
370
    15
100
AcDbLine
 10
295.4084306757
 20
645.3947382069
 30
0.0
 11
295.4084306757
 21
641.8947385646
 31
0.0
  0
LINE
  5
301
330
1F
100
AcDbEntity
  8
0
  6
Continuous
 62
     7
370
    15
100
AcDbLine
 10
294.2084401648
 20
641.8947385646
 30
0.0
 11
294.2084401648
 21
646.308537016
 31
0.0
  0
LINE
  5
302
330
1F
100
AcDbEntity
  8
0
  6
Continuous
 62
     7
370
    15
100
AcDbLine
 10
294.1084235709
 20
644.3947361804
 30
0.0
 11
294.1084235709
 21
650.3947334386
 31
0.0
  0
ARC
  5
303
330
1F
100
AcDbEntity
  8
0
  6
Continuous
 62
     7
370
    15
100
AcDbCircle
 10
292.6084306757
 20
655.0947377778
 30
0.0
 40
2.799999999999955
100
AcDbArc
 50
0.0
 51
45.7322600129
  0
LINE
  5
304
330
1F
100
AcDbEntity
  8
0
  6
Continuous
 62
     7
370
    15
100
AcDbLine
 10
291.5007799666
 20
657.6663361884
 30
0.0
 11
290.9038990538
 21
657.316129098
 31
0.0
  0
LINE
  5
305
330
1F
100
AcDbEntity
  8
0
  6
Continuous
 62
     7
370
    15
100
AcDbLine
 10
288.0909770529
 20
653.6451237298
 30
0.0
 11
291.6344135802
 21
656.3641088105
 31
0.0
  0
LINE
  5
306
330
1F
100
AcDbEntity
  8
0
  6
Continuous
 62
     7
370
    15
100
AcDbLine
 10
287.3604625266
 20
654.5971440173
 30
0.0
 11
288.0909770529
 21
653.6451237298
 31
0.0
  0
LINE
  5
307
330
1F
100
AcDbEntity
  8
0
  6
Continuous
 62
     7
370
    15
100
AcDbLine
 10
290.9038990538
 20
657.316129098
 30
0.0
 11
287.3604625266
 21
654.5971440173
 31
0.0
  0
LINE
  5
308
330
1F
100
AcDbEntity
  8
0
  6
Continuous
 62
     7
370
    15
100
AcDbLine
 10
295.4084306757
 20
653.3947395182
 30
0.0
 11
295.4084306757
 21
654.3947415448
 31
0.0
  0
LINE
  5
309
330
1F
100
AcDbEntity
  8
0
  6
Continuous
 62
     7
370
    15
100
AcDbLine
 10
294.2084401648
 20
654.0356831647
 30
0.0
 11
294.2084401648
 21
653.3947395182
 31
0.0
  0
LINE
  5
30A
330
1F
100
AcDbEntity
  8
0
  6
Continuous
 62
     7
370
    15
100
AcDbLine
 10
287.1389418643
 20
652.9146092034
 30
0.0
 11
286.4084273379
 21
653.8666294909
 31
0.0
  0
LWPOLYLINE
  5
30B
330
1F
100
AcDbEntity
  8
0
  6
Continuous
 62
     7
370
    15
100
AcDbPolyline
 90
        9
 70
   128
 43
0.0
 10
288.0909770529
 20
653.6451237298
 10
287.9052489798
 20
653.5026090241
 10
287.7266436617
 20
653.3655630446
 10
287.5620454352
 20
653.2392757035
 10
287.4177723925
 20
653.128574977
 10
287.299397568
 20
653.0377225972
 10
287.2114211123
 20
652.970220337
 10
287.1572404902
 20
652.9286460973
 10
287.1389418643
 20
652.9146092034
  0
LWPOLYLINE
  5
30C
330
1F
100
AcDbEntity
  8
0
  6
Continuous
 62
     7
370
    15
100
AcDbPolyline
 90
        9
 70
   128
 43
0.0
 10
286.4084273379
 20
653.8666294909
 10
286.4267259638
 20
653.8806663848
 10
286.4809065859
 20
653.9222406245
 10
286.5688830416
 20
653.9897428847
 10
286.6872578661
 20
654.0805952645
 10
286.8315309088
 20
654.191295991
 10
286.9961291354
 20
654.3175982333
 10
287.1747344534
 20
654.4546293116
 10
287.3604625266
 20
654.5971440173
  0
SPLINE
  5
30D
330
1F
100
AcDbEntity
  8
0
  6
Continuous
 62
     7
370
    15
100
AcDbSpline
210
0.0
220
0.0
230
1.0
 70
     8
 71
     3
 72
    12
 73
     8
 74
     0
 42
0.00000001
 43
0.00000001
 40
0.0
 40
0.0
 40
0.0
 40
0.0
 40
0.234046876581693
 40
0.4681102864190871
 40
0.7021601996585941
 40
0.9362164700995343
 40
1.0
 40
1.0
 40
1.0
 40
1.0
 10
291.7054027121089
 20
672.0718549586021
 30
0.0
 10
291.5090161929112
 20
672.0524721154608
 30
0.0
 10
291.1162292816175
 20
672.013705059959
 30
0.0
 10
290.5787184726584
 20
672.0084676650943
 30
0.0
 10
290.2052699381892
 20
672.0469347893101
 30
0.0
 10
290.0260073206352
 20
672.1015993259357
 30
0.0
 10
290.0547542896362
 20
672.1455532784803
 30
0.0
 10
290.0609105627559
 20
672.1549661851608
 30
0.0
  0
SPLINE
  5
30E
330
1F
100
AcDbEntity
  8
0
  6
Continuous
 62
     7
370
    15
100
AcDbSpline
210
0.0
220
0.0
230
1.0
 70
     8
 71
     3
 72
    11
 73
     7
 74
     0
 42
0.00000001
 43
0.00000001
 40
0.0
 40
0.0
 40
0.0
 40
0.0
 40
0.198685414473905
 40
0.4657910986118576
 40
0.732891892888696
 40
1.0
 40
1.0
 40
1.0
 40
1.0
 10
293.0013268988154
 20
672.4507393336975
 30
0.0
 10
293.0001439281391
 20
672.4262494001442
 30
0.0
 10
292.9973706132867
 20
672.368836061149
 30
0.0
 10
292.7278334854364
 20
672.2617448369549
 30
0.0
 10
292.2807805926996
 20
672.1509367037538
 30
0.0
 10
291.8971970892757
 20
672.0982157808864
 30
0.0
 10
291.7054027121089
 20
672.0718549586021
 30
0.0
  0
SPLINE
  5
30F
330
1F
100
AcDbEntity
  8
0
  6
Continuous
 62
     7
370
    15
100
AcDbSpline
210
0.0
220
0.0
230
1.0
 70
     8
 71
     3
 72
    12
 73
     8
 74
     0
 42
0.00000001
 43
0.00000001
 40
0.0
 40
0.0
 40
0.0
 40
0.0
 40
0.2339756308627727
 40
0.4679329027377401
 40
0.7019009134061414
 40
0.9358671996917016
 40
1.0
 40
1.0
 40
1.0
 40
1.0
 10
291.098448614361
 20
678.0837284422598
 30
0.0
 10
290.9023568587956
 20
678.0612252535785
 30
0.0
 10
290.51018873408
 20
678.016220641937
 30
0.0
 10
290.0072663310148
 20
677.6687114345679
 30
0.0
 10
289.6874195872143
 20
677.1752392252166
 30
0.0
 10
289.5595386031817
 20
676.721649623324
 30
0.0
 10
289.6173031449046
 20
676.4786543916093
 30
0.0
 10
289.6297305624507
 20
676.4263765907966
 30
0.0
  0
SPLINE
  5
310
330
1F
100
AcDbEntity
  8
0
  6
Continuous
 62
     7
370
    15
100
AcDbSpline
210
0.0
220
0.0
230
1.0
 70
     8
 71
     3
 72
    11
 73
     7
 74
     0
 42
0.00000001
 43
0.00000001
 40
0.0
 40
0.0
 40
0.0
 40
0.0
 40
0.1976900086147052
 40
0.4651323128312848
 40
0.7325623418327518
 40
1.0
 40
1.0
 40
1.0
 40
1.0
 10
292.5686567823909
 20
676.7334373689376
 30
0.0
 10
292.5503773162652
 20
676.8781889259252
 30
0.0
 10
292.5073687170143
 20
677.2187657054972
 30
0.0
 10
292.1818918845511
 20
677.668524017083
 30
0.0
 10
291.6886144661663
 20
678.0162614516745
 30
0.0
 10
291.2951724356026
 20
678.061239231549
 30
0.0
 10
291.0984486143611
 20
678.0837284422599
 30
0.0
  0
SPLINE
  5
311
330
1F
100
AcDbEntity
  8
0
  6
Continuous
 62
     7
370
    15
100
AcDbSpline
210
0.0
220
0.0
230
1.0
 70
     8
 71
     3
 72
    12
 73
     8
 74
     0
 42
0.00000001
 43
0.00000001
 40
0.0
 40
0.0
 40
0.0
 40
0.0
 40
0.2350193850730122
 40
0.4700326152068836
 40
0.7050507835947478
 40
0.9400637437707898
 40
1.0
 40
1.0
 40
1.0
 40
1.0
 10
293.274494985821
 20
656.5308826065741
 30
0.0
 10
293.0781037665978
 20
656.5115046451494
 30
0.0
 10
292.6853264714551
 20
656.4727492297906
 30
0.0
 10
292.1477254507998
 20
656.467480952676
 30
0.0
 10
291.7746383549433
 20
656.5060059442571
 30
0.0
 10
291.5956645465252
 20
656.5601271553654
 30
0.0
 10
291.6235099436111
 20
656.6034287777575
 30
0.0
 10
291.6291683714412
 20
656.6122280455314
 30
0.0
  0
SPLINE
  5
312
330
1F
100
AcDbEntity
  8
0
  6
Continuous
 62
     7
370
    15
100
AcDbSpline
210
0.0
220
0.0
230
1.0
 70
     8
 71
     3
 72
    11
 73
     7
 74
     0
 42
0.00000001
 43
0.00000001
 40
0.0
 40
0.0
 40
0.0
 40
0.0
 40
0.1989201846168
 40
0.4659430756912897
 40
0.7329787924530475
 40
1.0
 40
1.0
 40
1.0
 40
1.0
 10
294.57044897485
 20
656.9098787403785
 30
0.0
 10
294.5692667436646
 20
656.8853525453645
 30
0.0
 10
294.5664975302953
 20
656.8279033188729
 30
0.0
 10
294.2969420229354
 20
656.7207808149185
 30
0.0
 10
293.8498459936458
 20
656.6099661824735
 30
0.0
 10
293.4662751814892
 20
656.5572433210838
 30
0.0
 10
293.274494985821
 20
656.5308826065742
 30
0.0
  0
ARC
  5
313
330
1F
100
AcDbEntity
  8
0
  6
Continuous
 62
     7
370
    15
100
AcDbCircle
 10
294.4757303008
 20
666.8325137962
 30
0.0
 40
0.4000149757733843
100
AcDbArc
 50
0.1467018328
 51
179.5021907974
  0
ELLIPSE
  5
314
330
1F
100
AcDbEntity
  8
0
  6
Continuous
 62
     7
370
    15
100
AcDbEllipse
 10
294.4757300761
 20
666.567629384
 30
0.0
 11
0.3991830274373456
 21
-0.02624604221148275
 31
0.0
210
0.0
220
0.0
230
1.0
 40
0.9763157485
 41
0.0
 42
6.283185307179586
  0
SPLINE
  5
315
330
1F
100
AcDbEntity
  8
0
  6
Continuous
 62
     7
370
    15
100
AcDbSpline
210
0.0
220
0.0
230
1.0
 70
     8
 71
     3
 72
    13
 73
     9
 74
     0
 42
0.00000001
 43
0.00000001
 40
0.0
 40
0.0
 40
0.0
 40
0.0
 40
0.0081700813214444
 40
0.2391743651950643
 40
0.4710995414903649
 40
0.6931354914530248
 40
0.9042382206872192
 40
1.0
 40
1.0
 40
1.0
 40
1.0
 10
294.4757371943019
 20
667.2964649296486
 30
0.0
 10
294.4740782941655
 20
667.2960701321816
 30
0.0
 10
294.4255149602846
 20
667.2845126666181
 30
0.0
 10
294.3293750260675
 20
667.2613261760025
 30
0.0
 10
294.2065543270618
 20
667.2176594734041
 30
0.0
 10
294.1208877056303
 20
667.180225678794
 30
0.0
 10
294.0768605839402
 20
667.1590754597021
 30
0.0
 10
294.0801104675197
 20
667.1540959855778
 30
0.0
 10
294.0811246435664
 20
667.1525420642578
 30
0.0
  0
SPLINE
  5
316
330
1F
100
AcDbEntity
  8
0
  6
Continuous
 62
     7
370
    15
100
AcDbSpline
210
0.0
220
0.0
230
1.0
 70
     8
 71
     3
 72
    13
 73
     9
 74
     0
 42
0.00000001
 43
0.00000001
 40
0.0
 40
0.0
 40
0.0
 40
0.0
 40
0.1252375801846441
 40
0.2499791709688103
 40
0.4999837225977353
 40
0.7499971849147907
 40
0.8747791277768512
 40
1.0
 40
1.0
 40
1.0
 40
1.0
 10
294.8757439653895
 20
667.2907726860725
 30
0.0
 10
294.8740220165153
 20
667.2907955244802
 30
0.0
 10
294.8705849383524
 20
667.2908411108466
 30
0.0
 10
294.8362419465997
 20
667.291336256691
 30
0.0
 10
294.7609361084318
 20
667.2924043546763
 30
0.0
 10
294.6522986737681
 20
667.2939567730606
 30
0.0
 10
294.5535831092315
 20
667.295352743578
 30
0.0
 10
294.5017161868234
 20
667.2960937672872
 30
0.0
 10
294.4757371943019
 20
667.2964649296486
 30
0.0
  0
SPLINE
  5
317
330
1F
100
AcDbEntity
  8
0
  6
Continuous
 62
     7
370
    15
100
AcDbSpline
210
0.0
220
0.0
230
1.0
 70
     8
 71
     3
 72
    10
 73
     6
 74
     0
 42
0.00000001
 43
0.00000001
 40
0.0
 40
0.0
 40
0.0
 40
0.0
 40
0.0189614195973397
 40
0.5252897390997647
 40
1.0
 40
1.0
 40
1.0
 40
1.0
 10
294.4757371943019
 20
667.2964649296486
 30
0.0
 10
294.4772565600923
 20
667.2972026659154
 30
0.0
 10
294.5193476733424
 20
667.3176402333237
 30
0.0
 10
294.6018993102366
 20
667.3559829747388
 30
0.0
 10
294.6720466583806
 20
667.382100296591
 30
0.0
 10
294.7059899370691
 20
667.3947380877219
 30
0.0
  0
LINE
  5
318
330
1F
100
AcDbEntity
  8
0
  6
Continuous
 62
     7
370
    15
100
AcDbLine
 10
289.5992129843
 20
676.5356989599
 30
0.0
 11
289.6116703551
 21
676.3849290109
 31
0.0
  0
LINE
  5
319
330
1F
100
AcDbEntity
  8
0
  6
Continuous
 62
     7
370
    15
100
AcDbLine
 10
292.5914257567
 20
676.7284380294
 30
0.0
 11
292.5558417838
 21
676.9385965563
 31
0.0
  0
ARC
  5
31A
330
1F
100
AcDbEntity
  8
0
  6
Continuous
 62
     7
370
    15
100
AcDbCircle
 10
290.5084306757
 20
670.4147377778
 30
0.0
 40
2.200000000000049
100
AcDbArc
 50
103.5934783353
 51
268.1042765976
  0
LINE
  5
31B
330
1F
100
AcDbEntity
  8
0
  6
Continuous
 62
     7
370
    15
100
AcDbLine
 10
286.961618046
 20
671.7925028897
 30
0.0
 11
287.2952550452
 21
673.6847342945
 31
0.0
  0
LWPOLYLINE
  5
31C
330
1F
100
AcDbEntity
  8
0
  6
Continuous
 62
     7
370
    15
100
AcDbPolyline
 90
        9
 70
   128
 43
0.0
 10
287.2952550452
 20
673.6847342945
 10
287.1510118048
 20
673.7101705766
 10
287.0139807265
 20
673.7343328095
 10
286.8888705771
 20
673.7563939787
 10
286.7800324957
 20
673.7755866743
 10
286.6911917727
 20
673.7912477947
 10
286.6254478495
 20
673.8028408981
 10
286.585095505
 20
673.8099562026
 10
286.5714758437
 20
673.8123627401
  0
LINE
  5
31D
330
1F
100
AcDbEntity
  8
0
  6
Continuous
 62
     7
370
    15
100
AcDbLine
 10
286.5714758437
 20
673.8123627401
 30
0.0
 11
290.9465163748
 21
698.6244725085
 31
0.0
  0
LWPOLYLINE
  5
31E
330
1F
100
AcDbEntity
  8
0
  6
Continuous
 62
     7
370
    15
100
AcDbPolyline
 90
        9
 70
   128
 43
0.0
 10
290.9465163748
 20
698.6244725085
 10
290.9616559546
 20
698.6217977501
 10
291.0064786475
 20
698.6138926841
 10
291.0792857211
 20
698.6010553337
 10
291.1772757571
 20
698.5837848879
 10
291.2966638606
 20
698.5627295471
 10
291.4328604739
 20
698.5387163258
 10
291.5806501906
 20
698.5126541949
 10
291.7343705695
 20
698.4855489827
  0
LINE
  5
31F
330
1F
100
AcDbEntity
  8
0
  6
Continuous
 62
     7
370
    15
100
AcDbLine
 10
291.7343705695
 20
698.4855489827
 30
0.0
 11
286.9090467494
 21
671.1197527147
 31
0.0
  0
LINE
  5
320
330
1F
100
AcDbEntity
  8
0
  6
Continuous
 62
     7
370
    15
100
AcDbLine
 10
286.9090467494
 20
671.1197527147
 30
0.0
 11
286.961618046
 21
671.7925028897
 31
0.0
  0
LWPOLYLINE
  5
321
330
1F
100
AcDbEntity
  8
0
  6
Continuous
 62
     7
370
    15
100
AcDbPolyline
 90
        5
 70
   128
 43
0.0
 10
289.7938221495
 20
705.5127950407
 10
289.5403533976
 20
706.2092008091
 10
289.356800894
 20
706.7135157085
 10
289.2456382315
 20
707.0188703037
 10
289.2084449332
 20
707.1211220718
  0
LWPOLYLINE
  5
322
330
1F
100
AcDbEntity
  8
0
  6
Continuous
 62
     7
370
    15
100
AcDbPolyline
 90
        5
 70
   128
 43
0.0
 10
290.5534535449
 20
705.764781127
 10
290.2965873282
 20
706.4704554177
 10
290.1105612319
 20
706.9815726972
 10
289.9979084532
 20
707.291092167
 10
289.9601787131
 20
707.3947371937
  0
LINE
  5
323
330
1F
100
AcDbEntity
  8
0
  6
Continuous
 62
     7
370
    15
100
AcDbLine
 10
290.7755404513
 20
705.4103421069
 30
0.0
 11
290.5534535449
 21
705.764781127
 31
0.0
  0
LINE
  5
324
330
1F
100
AcDbEntity
  8
0
  6
Continuous
 62
     7
370
    15
100
AcDbLine
 10
290.6933456461
 20
705.3804205752
 30
0.0
 11
290.7755404513
 21
705.4103421069
 31
0.0
  0
SPLINE
  5
325
330
1F
100
AcDbEntity
  8
0
  6
Continuous
 62
     7
370
    15
100
AcDbSpline
210
0.0
220
0.0
230
1.0
 70
     8
 71
     3
 72
    12
 73
     8
 74
     0
 42
0.00000001
 43
0.00000001
 40
0.0
 40
0.0
 40
0.0
 40
0.0
 40
0.2510129476244693
 40
0.5023997049789553
 40
0.7402755902731164
 40
0.9473068909495996
 40
0.9999999999999999
 40
0.9999999999999999
 40
0.9999999999999999
 40
0.9999999999999999
 10
289.7938221495173
 20
705.5127950406753
 30
0.0
 10
289.8215249879297
 20
705.4684767749569
 30
0.0
 10
289.8769719199591
 20
705.3797742445387
 30
0.0
 10
290.0839826555469
 20
705.3047888884844
 30
0.0
 10
290.345375789128
 20
705.2932920329695
 30
0.0
 10
290.5619572669075
 20
705.3349385506028
 30
0.0
 10
290.6711853581363
 20
705.3727494647936
 30
0.0
 10
290.6933456461451
 20
705.3804205752097
 30
0.0
  0
LINE
  5
326
330
1F
100
AcDbEntity
  8
0
  6
Continuous
 62
     7
370
    15
100
AcDbLine
 10
290.6933456461
 20
705.3804205752
 30
0.0
 11
291.2696629565
 21
703.7969337798
 31
0.0
  0
LWPOLYLINE
  5
327
330
1F
100
AcDbEntity
  8
0
  6
Continuous
 62
     7
370
    15
100
AcDbPolyline
 90
        9
 70
   128
 43
0.0
 10
290.5179291766
 20
703.5233186579
 10
290.5323535006
 20
703.5285787678
 10
290.5751496356
 20
703.5441504813
 10
290.644618849
 20
703.5694303013
 10
290.7381087344
 20
703.6034571028
 10
290.8520132105
 20
703.6449195839
 10
290.9819811385
 20
703.6922307707
 10
291.123005728
 20
703.7435578204
 10
291.2696629565
 20
703.7969337798
  0
LINE
  5
328
330
1F
100
AcDbEntity
  8
0
  6
Continuous
 62
     7
370
    15
100
AcDbLine
 10
290.5179291766
 20
703.5233186579
 30
0.0
 11
289.7938221495
 21
705.5127950407
 31
0.0
  0
ARC
  5
329
330
1F
100
AcDbEntity
  8
0
  6
Continuous
 62
     7
370
    15
100
AcDbCircle
 10
281.5908436352
 20
700.2741282461
 30
0.0
 40
9.50000000000002
100
AcDbArc
 50
350.0
 51
20.0
  0
ARC
  5
32A
330
1F
100
AcDbEntity
  8
0
  6
Continuous
 62
     7
370
    15
100
AcDbCircle
 10
281.5908436352
 20
700.2741282461
 30
0.0
 40
10.30000000000016
100
AcDbArc
 50
350.0
 51
20.0
  0
ARC
  5
32B
330
1F
100
AcDbEntity
  8
0
  6
Continuous
 62
     7
370
    15
100
AcDbCircle
 10
291.0984361819
 20
676.5837286963
 30
0.0
 40
1.60000000000003
100
AcDbArc
 50
347.034367059
 51
204.5950707184
  0
LINE
  5
32C
330
1F
100
AcDbEntity
  8
0
  6
Continuous
 62
     7
370
    15
100
AcDbLine
 10
293.9084201853
 20
699.2104234195
 30
0.0
 11
293.9084201853
 21
671.1847366787
 31
0.0
  0
ARC
  5
32D
330
1F
100
AcDbEntity
  8
0
  6
Continuous
 62
     7
370
    15
100
AcDbCircle
 10
284.4084306757
 20
699.2104238237
 30
0.0
 40
9.5
100
AcDbArc
 50
0.0
 51
36.8410865502
  0
ARC
  5
32E
330
1F
100
AcDbEntity
  8
0
  6
Continuous
 62
     7
370
    15
100
AcDbCircle
 10
291.4931326015
 20
706.1068026321
 30
0.0
 40
1.0
100
AcDbArc
 50
224.1440002858
 51
270.0
  0
LINE
  5
32F
330
1F
100
AcDbEntity
  8
0
  6
Continuous
 62
     7
370
    15
100
AcDbLine
 10
291.4931207697
 20
705.1068054534
 30
0.0
 11
291.6111379664
 21
705.1068054534
 31
0.0
  0
ARC
  5
330
330
1F
100
AcDbEntity
  8
0
  6
Continuous
 62
     7
370
    15
100
AcDbCircle
 10
291.6111451471
 20
704.6068026321
 30
0.0
 40
0.5
100
AcDbArc
 50
36.8410865503
 51
90.0
  0
LWPOLYLINE
  5
331
330
1F
100
AcDbEntity
  8
0
  6
Continuous
 62
     7
370
    15
100
AcDbPolyline
 90
        3
 70
   128
 43
0.0
 10
293.9084201853
 20
671.1847366787
 10
293.6998039286
 20
669.9944542742
 10
293.3436363738
 20
669.2782970167
  0
ARC
  5
332
330
1F
100
AcDbEntity
  8
0
  6
Continuous
 62
     7
370
    15
100
AcDbCircle
 10
290.4084306757
 20
671.1847377778
 30
0.0
 40
3.500000000000008
100
AcDbArc
 50
181.0639402281
 51
271.3221928089
  0
ARC
  5
333
330
1F
100
AcDbEntity
  8
0
  6
Continuous
 62
     7
370
    15
100
AcDbCircle
 10
291.0020484691
 20
671.8822333046
 30
0.0
 40
4.698428302688391
100
AcDbArc
 50
170.0
 51
264.3261771657
  0
LINE
  5
334
330
1F
100
AcDbEntity
  8
0
  6
Continuous
 62
     7
370
    15
100
AcDbLine
 10
286.5714758437
 20
673.8123627401
 30
0.0
 11
286.3749891322
 21
672.6981060601
 31
0.0
  0
LINE
  5
335
330
1F
100
AcDbEntity
  8
0
  6
Continuous
 62
     7
370
    15
100
AcDbLine
 10
310.4084312718
 20
775.3947380952
 30
0.0
 11
310.4084312718
 21
790.3947377599
 31
0.0
  0
LINE
  5
336
330
1F
100
AcDbEntity
  8
0
  6
Continuous
 62
     7
370
    15
100
AcDbLine
 10
310.4084312718
 20
775.3947380952
 30
0.0
 11
295.4084306757
 21
775.3947380952
 31
0.0
  0
ARC
  5
337
330
1F
100
AcDbEntity
  8
0
  6
Continuous
 62
     7
370
    15
100
AcDbCircle
 10
310.4084306757
 20
775.3947377778
 30
0.0
 40
15.0
100
AcDbArc
 50
90.0
 51
180.0
  0
LINE
  5
338
330
1F
100
AcDbEntity
  8
0
  6
Continuous
 62
     7
370
    15
100
AcDbLine
 10
780.4084300797
 20
775.3947380952
 30
0.0
 11
795.4084306757
 21
775.3947380952
 31
0.0
  0
LINE
  5
339
330
1F
100
AcDbEntity
  8
0
  6
Continuous
 62
     7
370
    15
100
AcDbLine
 10
780.4084300797
 20
775.3947380952
 30
0.0
 11
780.4084300797
 21
790.3947377599
 31
0.0
  0
ARC
  5
33A
330
1F
100
AcDbEntity
  8
0
  6
Continuous
 62
     7
370
    15
100
AcDbCircle
 10
780.4084306757
 20
775.3947377778
 30
0.0
 40
15.0
100
AcDbArc
 50
0.0
 51
90.0
  0
LINE
  5
33B
330
1F
100
AcDbEntity
  8
0
  6
Continuous
 62
     7
370
    15
100
AcDbLine
 10
795.4084306757
 20
775.3947380952
 30
0.0
 11
795.4084306757
 21
654.3947415448
 31
0.0
  0
LINE
  5
33C
330
1F
100
AcDbEntity
  8
0
  6
Continuous
 62
     7
370
    15
100
AcDbLine
 10
795.4084306757
 20
654.3947415448
 30
0.0
 11
780.4084300797
 21
654.3947415448
 31
0.0
  0
LINE
  5
33D
330
1F
100
AcDbEntity
  8
0
  6
Continuous
 62
     7
370
    15
100
AcDbLine
 10
780.4084300797
 20
775.3947380952
 30
0.0
 11
780.4084300797
 21
654.3947415448
 31
0.0
  0
LINE
  5
33E
330
1F
100
AcDbEntity
  8
0
  6
Continuous
 62
     7
370
    15
100
AcDbLine
 10
315.4084265034
 20
674.3947373725
 30
0.0
 11
775.4084348481
 21
674.3947373725
 31
0.0
  0
LINE
  5
33F
330
1F
100
AcDbEntity
  8
0
  6
Continuous
 62
     7
370
    15
100
AcDbLine
 10
775.4084348481
 20
770.3947382069
 30
0.0
 11
775.4084348481
 21
674.3947373725
 31
0.0
  0
LINE
  5
340
330
1F
100
AcDbEntity
  8
0
  6
Continuous
 62
     7
370
    15
100
AcDbLine
 10
775.4084348481
 20
770.3947382069
 30
0.0
 11
315.4084265034
 21
770.3947382069
 31
0.0
  0
LINE
  5
341
330
1F
100
AcDbEntity
  8
0
  6
Continuous
 62
     7
370
    15
100
AcDbLine
 10
315.4084265034
 20
674.3947373725
 30
0.0
 11
315.4084265034
 21
770.3947382069
 31
0.0
  0
LINE
  5
342
330
1F
100
AcDbEntity
  8
0
  6
Continuous
 62
     7
370
    15
100
AcDbLine
 10
310.4084312718
 20
654.3947415448
 30
0.0
 11
780.4084300797
 21
654.3947415448
 31
0.0
  0
LINE
  5
343
330
1F
100
AcDbEntity
  8
0
  6
Continuous
 62
     7
370
    15
100
AcDbLine
 10
310.4084312718
 20
654.3947415448
 30
0.0
 11
310.4084312718
 21
775.3947380952
 31
0.0
  0
LINE
  5
344
330
1F
100
AcDbEntity
  8
0
  6
Continuous
 62
     7
370
    15
100
AcDbLine
 10
310.4084312718
 20
775.3947380952
 30
0.0
 11
780.4084300797
 21
775.3947380952
 31
0.0
  0
LINE
  5
345
330
1F
100
AcDbEntity
  8
0
  6
Continuous
 62
     7
370
    15
100
AcDbLine
 10
310.4084312718
 20
654.3947415448
 30
0.0
 11
295.4084306757
 21
654.3947415448
 31
0.0
  0
LINE
  5
346
330
1F
100
AcDbEntity
  8
0
  6
Continuous
 62
     7
370
    15
100
AcDbLine
 10
295.4084306757
 20
654.3947415448
 30
0.0
 11
295.4084306757
 21
775.3947380952
 31
0.0
  0
LINE
  5
347
330
1F
100
AcDbEntity
  8
0
  6
Continuous
 62
     7
370
    15
100
AcDbLine
 10
310.4084312718
 20
790.3947377599
 30
0.0
 11
780.4084300797
 21
790.3947377599
 31
0.0
  0
LINE
  5
348
330
1F
100
AcDbEntity
  8
0
  6
Continuous
 62
     7
370
    15
100
AcDbLine
 10
315.4084265034
 20
650.3947334386
 30
0.0
 11
315.4084265034
 21
654.3947415448
 31
0.0
  0
LINE
  5
349
330
1F
100
AcDbEntity
  8
0
  6
Continuous
 62
     7
370
    15
100
AcDbLine
 10
300.4084259074
 20
650.3947334386
 30
0.0
 11
300.4084259074
 21
654.3947415448
 31
0.0
  0
LINE
  5
34A
330
1F
100
AcDbEntity
  8
0
  6
Continuous
 62
     7
370
    15
100
AcDbLine
 10
775.4084348481
 20
650.3947334386
 30
0.0
 11
775.4084348481
 21
654.3947415448
 31
0.0
  0
LINE
  5
34B
330
1F
100
AcDbEntity
  8
0
  6
Continuous
 62
     7
370
    15
100
AcDbLine
 10
790.4084354441
 20
650.3947334386
 30
0.0
 11
790.4084354441
 21
654.3947415448
 31
0.0
  0
LINE
  5
34C
330
1F
100
AcDbEntity
  8
0
  6
Continuous
 62
     7
370
    15
100
AcDbLine
 10
795.4084306757
 20
654.3947415448
 30
0.0
 11
796.0757344763
 21
654.3947415448
 31
0.0
  0
ARC
  5
34D
330
1F
100
AcDbEntity
  8
0
  6
Continuous
 62
     7
370
    15
100
AcDbCircle
 10
796.0757484238
 20
654.8947377778
 30
0.0
 40
0.5000000000001137
100
AcDbArc
 50
270.0
 51
332.720387264
  0
ARC
  5
34E
330
1F
100
AcDbEntity
  8
0
  6
Continuous
 62
     7
370
    15
100
AcDbCircle
 10
795.8462818104
 20
649.8947377778
 30
0.0
 40
0.500000000000081
100
AcDbArc
 50
22.024312837
 51
90.0
  0
ARC
  5
34F
330
1F
100
AcDbEntity
  8
0
  6
Continuous
 62
     7
370
    15
100
AcDbCircle
 10
801.4084306757
 20
652.1447377778
 30
0.0
 40
5.500000000000216
100
AcDbArc
 50
202.024312837
 51
152.720387264
  0
LINE
  5
350
330
1F
100
AcDbEntity
  8
0
  6
Continuous
 62
     7
370
    15
100
AcDbLine
 10
795.8462863963
 20
650.3947334386
 30
0.0
 11
795.4084306757
 21
650.3947334386
 31
0.0
  0
LINE
  5
351
330
1F
100
AcDbEntity
  8
0
  6
Continuous
 62
     7
370
    15
100
AcDbLine
 10
295.4084306757
 20
667.3947380877
 30
0.0
 11
295.1084404986
 21
667.3947380877
 31
0.0
  0
LINE
  5
352
330
1F
100
AcDbEntity
  8
0
  6
Continuous
 62
     7
370
    15
100
AcDbLine
 10
295.1084404986
 20
667.3947380877
 30
0.0
 11
295.1084404986
 21
673.5947387315
 31
0.0
  0
LINE
  5
353
330
1F
100
AcDbEntity
  8
0
  6
Continuous
 62
     7
370
    15
100
AcDbLine
 10
295.1084404986
 20
673.5947387315
 30
0.0
 11
295.4084306757
 21
673.5957967139
 31
0.0
  0
LINE
  5
354
330
1F
100
AcDbEntity
  8
0
  6
Continuous
 62
     7
370
    15
100
AcDbLine
 10
295.4084306757
 20
675.594735334
 30
0.0
 11
295.1084404986
 21
675.594735334
 31
0.0
  0
LINE
  5
355
330
1F
100
AcDbEntity
  8
0
  6
Continuous
 62
     7
370
    15
100
AcDbLine
 10
295.1084404986
 20
673.5947387315
 30
0.0
 11
295.1084404986
 21
675.594735334
 31
0.0
  0
ARC
  5
356
330
1F
100
AcDbEntity
  8
0
  6
Continuous
 62
     7
370
    15
100
AcDbCircle
 10
290.2084306757
 20
670.4947377778
 30
0.0
 40
3.100000000000023
100
AcDbArc
 50
192.3149201505
 51
270.0
  0
LINE
  5
357
330
1F
100
AcDbEntity
  8
0
  6
Continuous
 62
     7
370
    15
100
AcDbLine
 10
290.2084320586
 20
667.3947380877
 30
0.0
 11
290.5185550253
 21
667.3947380877
 31
0.0
  0
LINE
  5
358
330
1F
100
AcDbEntity
  8
0
  6
Continuous
 62
     7
370
    15
100
AcDbLine
 10
293.5338049929
 20
667.3947380877
 30
0.0
 11
295.1084404986
 21
667.3947380877
 31
0.0
  0
LINE
  5
359
330
1F
100
AcDbEntity
  8
0
  6
Continuous
 62
     7
370
    15
100
AcDbLine
 10
295.1084404986
 20
673.5947387315
 30
0.0
 11
293.9084201853
 21
673.5947387315
 31
0.0
  0
LINE
  5
35A
330
1F
100
AcDbEntity
  8
0
  6
Continuous
 62
     7
370
    15
100
AcDbLine
 10
295.1084404986
 20
706.3947351671
 30
0.0
 11
295.1084404986
 21
699.6447401143
 31
0.0
  0
LINE
  5
35B
330
1F
100
AcDbEntity
  8
0
  6
Continuous
 62
     7
370
    15
100
AcDbLine
 10
295.1084404986
 20
675.594735334
 30
0.0
 11
295.1084404986
 21
699.6447401143
 31
0.0
  0
LINE
  5
35C
330
1F
100
AcDbEntity
  8
0
  6
Continuous
 62
     7
370
    15
100
AcDbLine
 10
295.0084239047
 20
699.3947358824
 30
0.0
 11
295.0084239047
 21
705.3947405911
 31
0.0
  0
LINE
  5
35D
330
1F
100
AcDbEntity
  8
0
  6
Continuous
 62
     7
370
    15
100
AcDbLine
 10
295.0084239047
 20
676.3947414256
 30
0.0
 11
295.0084239047
 21
682.3947386838
 31
0.0
  0
LINE
  5
35E
330
1F
100
AcDbEntity
  8
0
  6
Continuous
 62
     7
370
    15
100
AcDbLine
 10
293.9084201853
 20
691.7515503264
 30
0.0
 11
295.1084404986
 21
691.4300130702
 31
0.0
  0
LINE
  5
35F
330
1F
100
AcDbEntity
  8
0
  6
Continuous
 62
     7
370
    15
100
AcDbLine
 10
295.1084404986
 20
690.3947399951
 30
0.0
 11
293.9084201853
 21
690.7162772513
 31
0.0
  0
LINE
  5
360
330
1F
100
AcDbEntity
  8
0
  6
Continuous
 62
     8
370
    15
100
AcDbLine
 10
295.4084306757
 20
699.6447401143
 30
0.0
 11
295.1084404986
 21
699.6447401143
 31
0.0
  0
ENDSEC
  0
SECTION
  2
OBJECTS
  0
DICTIONARY
  5
C
330
0
100
AcDbDictionary
281
     1
  3
ACAD_GROUP
350
D
  3
ACAD_LAYOUT
350
1A
  3
ACAD_MLINESTYLE
350
17
  3
ACAD_PLOTSETTINGS
350
19
  3
ACAD_PLOTSTYLENAME
350
E
  0
DICTIONARY
  5
D
102
{ACAD_REACTORS
330
C
102
}
330
C
100
AcDbDictionary
281
     1
  0
DICTIONARY
  5
1A
102
{ACAD_REACTORS
330
C
102
}
330
C
100
AcDbDictionary
281
     1
  3
Layout1
350
1E
  3
Layout2
350
26
  3
Model
350
22
  0
DICTIONARY
  5
17
102
{ACAD_REACTORS
330
C
102
}
330
C
100
AcDbDictionary
281
     1
  3
Standard
350
18
  0
DICTIONARY
  5
19
102
{ACAD_REACTORS
330
C
102
}
330
C
100
AcDbDictionary
281
     1
  0
ACDBDICTIONARYWDFLT
  5
E
102
{ACAD_REACTORS
330
C
102
}
330
C
100
AcDbDictionary
281
     1
  3
Normal
350
F
100
AcDbDictionaryWithDefault
340
F
  0
LAYOUT
  5
1E
102
{ACAD_REACTORS
330
1A
102
}
330
1A
100
AcDbPlotSettings
  1

  2
none_device
  4

  6

 40
0.0
 41
0.0
 42
0.0
 43
0.0
 44
0.0
 45
0.0
 46
0.0
 47
0.0
 48
0.0
 49
0.0
140
0.0
141
0.0
142
1.0
143
1.0
 70
   688
 72
     0
 73
     0
 74
     5
  7

 75
    16
147
1.0
148
0.0
149
0.0
100
AcDbLayout
  1
Layout1
 70
     1
 71
     1
 10
0.0
 20
0.0
 11
420.0
 21
297.0
 12
0.0
 22
0.0
 32
0.0
 14
1.0000000000E+20
 24
1.0000000000E+20
 34
1.0000000000E+20
 15
-1.0000000000E+20
 25
-1.0000000000E+20
 35
-1.0000000000E+20
146
0.0
 13
0.0
 23
0.0
 33
0.0
 16
1.0
 26
0.0
 36
0.0
 17
0.0
 27
1.0
 37
0.0
 76
     0
330
1B
  0
LAYOUT
  5
26
102
{ACAD_REACTORS
330
1A
102
}
330
1A
100
AcDbPlotSettings
  1

  2
none_device
  4

  6

 40
0.0
 41
0.0
 42
0.0
 43
0.0
 44
0.0
 45
0.0
 46
0.0
 47
0.0
 48
0.0
 49
0.0
140
0.0
141
0.0
142
1.0
143
1.0
 70
   688
 72
     0
 73
     0
 74
     5
  7

 75
    16
147
1.0
148
0.0
149
0.0
100
AcDbLayout
  1
Layout2
 70
     1
 71
     2
 10
0.0
 20
0.0
 11
0.0
 21
0.0
 12
0.0
 22
0.0
 32
0.0
 14
0.0
 24
0.0
 34
0.0
 15
0.0
 25
0.0
 35
0.0
146
0.0
 13
0.0
 23
0.0
 33
0.0
 16
1.0
 26
0.0
 36
0.0
 17
0.0
 27
1.0
 37
0.0
 76
     0
330
23
  0
LAYOUT
  5
22
102
{ACAD_REACTORS
330
1A
102
}
330
1A
100
AcDbPlotSettings
  1

  2
none_device
  4

  6

 40
0.0
 41
0.0
 42
0.0
 43
0.0
 44
0.0
 45
0.0
 46
0.0
 47
0.0
 48
0.0
 49
0.0
140
0.0
141
0.0
142
1.0
143
1.0
 70
  1712
 72
     0
 73
     0
 74
     0
  7

 75
     0
147
1.0
148
0.0
149
0.0
100
AcDbLayout
  1
Model
 70
     1
 71
     0
 10
0.0
 20
0.0
 11
840.0
 21
594.0
 12
0.0
 22
0.0
 32
0.0
 14
0.0
 24
0.0
 34
0.0
 15
840.0
 25
594.0
 35
0.0
146
0.0
 13
0.0
 23
0.0
 33
0.0
 16
1.0
 26
0.0
 36
0.0
 17
0.0
 27
1.0
 37
0.0
 76
     0
330
1F
331
29
  0
MLINESTYLE
  5
18
102
{ACAD_REACTORS
330
17
102
}
330
17
100
AcDbMlineStyle
  2
Standard
 70
     0
  3

 62
   256
 51
90.0
 52
90.0
 71
     2
 49
0.5
 62
   256
  6
BYLAYER
 49
-0.5
 62
   256
  6
BYLAYER
  0
ACDBPLACEHOLDER
  5
F
102
{ACAD_REACTORS
330
E
102
}
330
E
  0
ENDSEC
  0
EOF
