  0
SECTION
  2
HEADER
  9
$ACADVER
  1
AC1015
  9
$ACADMAINTVER
 70
     6
  9
$DWGCODEPAGE
  3
DOS932
  9
$INSBASE
 10
0.0
 20
0.0
 30
0.0
  9
$EXTMIN
 10
0.0
 20
0.0
 30
0.0
  9
$EXTMAX
 10
840.0
 20
594.0
 30
0.0
  9
$LIMMIN
 10
0.0
 20
0.0
  9
$LIMMAX
 10
840.0
 20
594.0
  9
$ORTHOMODE
 70
     0
  9
$REGENMODE
 70
     1
  9
$FILLMODE
 70
     1
  9
$QTEXTMODE
 70
     0
  9
$MIRRTEXT
 70
     1
  9
$LTSCALE
 40
2.0
  9
$ATTMODE
 70
     1
  9
$TEXTSIZE
 40
7.0
  9
$TRACEWID
 40
1.0
  9
$TEXTSTYLE
  7
Standard
  9
$CLAYER
  8
0
  9
$CELTYPE
  6
ByLayer
  9
$CECOLOR
 62
   256
  9
$CELTSCALE
 40
1.0
  9
$DISPSILH
 70
     0
  9
$DIMSCALE
 40
1.0
  9
$DIMASZ
 40
6.0
  9
$DIMEXO
 40
2.0
  9
$DIMDLI
 40
3.75
  9
$DIMRND
 40
0.0
  9
$DIMDLE
 40
0.0
  9
$DIMEXE
 40
2.0
  9
$DIMTP
 40
0.0
  9
$DIMTM
 40
0.0
  9
$DIMTXT
 40
7.0
  9
$DIMCEN
 40
2.5
  9
$DIMTSZ
 40
0.0
  9
$DIMTOL
 70
     0
  9
$DIMLIM
 70
     0
  9
$DIMTIH
 70
     1
  9
$DIMTOH
 70
     1
  9
$DIMSE1
 70
     0
  9
$DIMSE2
 70
     0
  9
$DIMTAD
 70
     1
  9
$DIMZIN
 70
     0
  9
$DIMBLK
  1

  9
$DIMASO
 70
     1
  9
$DIMSHO
 70
     1
  9
$DIMPOST
  1

  9
$DIMAPOST
  1

  9
$DIMALT
 70
     0
  9
$DIMALTD
 70
     3
  9
$DIMALTF
 40
0.0393700787
  9
$DIMLFAC
 40
1.0
  9
$DIMTOFL
 70
     1
  9
$DIMTVP
 40
0.0
  9
$DIMTIX
 70
     0
  9
$DIMSOXD
 70
     0
  9
$DIMSAH
 70
     0
  9
$DIMBLK1
  1

  9
$DIMBLK2
  1

  9
$DIMSTYLE
  2
ISO-25
  9
$DIMCLRD
 70
     0
  9
$DIMCLRE
 70
     0
  9
$DIMCLRT
 70
     0
  9
$DIMTFAC
 40
1.0
  9
$DIMGAP
 40
3.048
  9
$DIMJUST
 70
     0
  9
$DIMSD1
 70
     0
  9
$DIMSD2
 70
     0
  9
$DIMTOLJ
 70
     0
  9
$DIMTZIN
 70
     0
  9
$DIMALTZ
 70
     0
  9
$DIMALTTZ
 70
     0
  9
$DIMUPT
 70
     0
  9
$DIMDEC
 70
     1
  9
$DIMTDEC
 70
     1
  9
$DIMALTU
 70
     2
  9
$DIMALTTD
 70
     3
  9
$DIMTXSTY
  7
Standard
  9
$DIMAUNIT
 70
     0
  9
$DIMADEC
 70
     2
  9
$DIMALTRND
 40
0.0
  9
$DIMAZIN
 70
     0
  9
$DIMDSEP
 70
    44
  9
$DIMATFIT
 70
     3
  9
$DIMFRAC
 70
     0
  9
$DIMLDRBLK
  1

  9
$DIMLUNIT
 70
     2
  9
$DIMLWD
 70
    -2
  9
$DIMLWE
 70
    -2
  9
$DIMTMOVE
 70
     0
  9
$LUNITS
 70
     2
  9
$LUPREC
 70
     1
  9
$SKETCHINC
 40
1.0
  9
$FILLETRAD
 40
10.0
  9
$AUNITS
 70
     0
  9
$AUPREC
 70
     2
  9
$MENU
  1
.
  9
$ELEVATION
 40
0.0
  9
$PELEVATION
 40
0.0
  9
$THICKNESS
 40
0.0
  9
$LIMCHECK
 70
     0
  9
$CHAMFERA
 40
10.0
  9
$CHAMFERB
 40
10.0
  9
$CHAMFERC
 40
20.0
  9
$CHAMFERD
 40
0.0
  9
$SKPOLY
 70
     0
  9
$TDCREATE
 40
2460445.646681852
  9
$TDUCREATE
 40
2460445.271681852
  9
$TDUPDATE
 40
2460445.646681863
  9
$TDUUPDATE
 40
2460445.271681863
  9
$TDINDWG
 40
0.0000000116
  9
$TDUSRTIMER
 40
0.0000000116
  9
$USRTIMER
 70
     1
  9
$ANGBASE
 50
0.0
  9
$ANGDIR
 70
     0
  9
$PDMODE
 70
     0
  9
$PDSIZE
 40
-1.0
  9
$PLINEWID
 40
0.0
  9
$SPLFRAME
 70
     0
  9
$SPLINETYPE
 70
     6
  9
$SPLINESEGS
 70
     8
  9
$HANDSEED
  5
362
  9
$SURFTAB1
 70
     6
  9
$SURFTAB2
 70
     6
  9
$SURFTYPE
 70
     6
  9
$SURFU
 70
     6
  9
$SURFV
 70
     6
  9
$UCSBASE
  2

  9
$UCSNAME
  2

  9
$UCSORG
 10
0.0
 20
0.0
 30
0.0
  9
$UCSXDIR
 10
1.0
 20
0.0
 30
0.0
  9
$UCSYDIR
 10
0.0
 20
1.0
 30
0.0
  9
$UCSORTHOREF
  2

  9
$UCSORTHOVIEW
 70
     0
  9
$UCSORGTOP
 10
0.0
 20
0.0
 30
0.0
  9
$UCSORGBOTTOM
 10
0.0
 20
0.0
 30
0.0
  9
$UCSORGLEFT
 10
0.0
 20
0.0
 30
0.0
  9
$UCSORGRIGHT
 10
0.0
 20
0.0
 30
0.0
  9
$UCSORGFRONT
 10
0.0
 20
0.0
 30
0.0
  9
$UCSORGBACK
 10
0.0
 20
0.0
 30
0.0
  9
$PUCSBASE
  2

  9
$PUCSNAME
  2

  9
$PUCSORG
 10
0.0
 20
0.0
 30
0.0
  9
$PUCSXDIR
 10
1.0
 20
0.0
 30
0.0
  9
$PUCSYDIR
 10
0.0
 20
1.0
 30
0.0
  9
$PUCSORTHOREF
  2

  9
$PUCSORTHOVIEW
 70
     0
  9
$PUCSORGTOP
 10
0.0
 20
0.0
 30
0.0
  9
$PUCSORGBOTTOM
 10
0.0
 20
0.0
 30
0.0
  9
$PUCSORGLEFT
 10
0.0
 20
0.0
 30
0.0
  9
$PUCSORGRIGHT
 10
0.0
 20
0.0
 30
0.0
  9
$PUCSORGFRONT
 10
0.0
 20
0.0
 30
0.0
  9
$PUCSORGBACK
 10
0.0
 20
0.0
 30
0.0
  9
$USERI1
 70
     0
  9
$USERI2
 70
     0
  9
$USERI3
 70
     0
  9
$USERI4
 70
     0
  9
$USERI5
 70
     0
  9
$USERR1
 40
0.0
  9
$USERR2
 40
0.0
  9
$USERR3
 40
0.0
  9
$USERR4
 40
0.0
  9
$USERR5
 40
0.0
  9
$WORLDVIEW
 70
     1
  9
$SHADEDGE
 70
     3
  9
$SHADEDIF
 70
    70
  9
$TILEMODE
 70
     1
  9
$MAXACTVP
 70
    64
  9
$PINSBASE
 10
0.0
 20
0.0
 30
0.0
  9
$PLIMCHECK
 70
     0
  9
$PEXTMIN
 10
1.0000000000E+20
 20
1.0000000000E+20
 30
1.0000000000E+20
  9
$PEXTMAX
 10
-1.0000000000E+20
 20
-1.0000000000E+20
 30
-1.0000000000E+20
  9
$PLIMMIN
 10
0.0
 20
0.0
  9
$PLIMMAX
 10
420.0
 20
297.0
  9
$UNITMODE
 70
     0
  9
$VISRETAIN
 70
     1
  9
$PLINEGEN
 70
     0
  9
$PSLTSCALE
 70
     1
  9
$TREEDEPTH
 70
  3020
  9
$CMLSTYLE
  2
Standard
  9
$CMLJUST
 70
     0
  9
$CMLSCALE
 40
20.0
  9
$PROXYGRAPHICS
 70
     1
  9
$MEASUREMENT
 70
     1
  9
$CELWEIGHT
370
    -1
  9
$ENDCAPS
280
     0
  9
$JOINSTYLE
280
     0
  9
$LWDISPLAY
290
     1
  9
$INSUNITS
 70
     4
  9
$HYPERLINKBASE
  1

  9
$STYLESHEET
  1

  9
$XEDIT
290
     1
  9
$CEPSNTYPE
380
     0
  9
$PSTYLEMODE
290
     1
  9
$FINGERPRINTGUID
  2
{B743B887-9835-404D-8B5F-FE4D6DCA6DF5}
  9
$VERSIONGUID
  2
{FAEB1C32-E019-11D5-929B-00C0DF256EC4}
  9
$EXTNAMES
290
     1
  9
$PSVPSCALE
 40
0.0
  9
$OLESTARTUP
290
     0
  0
ENDSEC
  0
SECTION
  2
CLASSES
  0
CLASS
  1
ACDBDICTIONARYWDFLT
  2
AcDbDictionaryWithDefault
  3
ObjectDBX Classes
 90
        0
280
     0
281
     0
  0
CLASS
  1
VISUALSTYLE
  2
AcDbVisualStyle
  3
ObjectDBX Classes
 90
     4095
280
     0
281
     0
  0
CLASS
  1
MATERIAL
  2
AcDbMaterial
  3
ObjectDBX Classes
 90
     1153
280
     0
281
     0
  0
CLASS
  1
ACDBPLACEHOLDER
  2
AcDbPlaceHolder
  3
ObjectDBX Classes
 90
        0
280
     0
281
     0
  0
CLASS
  1
LAYOUT
  2
AcDbLayout
  3
ObjectDBX Classes
 90
        0
280
     0
281
     0
  0
ENDSEC
  0
SECTION
  2
TABLES
  0
TABLE
  2
VPORT
  5
8
330
0
100
AcDbSymbolTable
 70
     1
  0
VPORT
  5
29
330
8
100
AcDbSymbolTableRecord
100
AcDbViewportTableRecord
  2
*Active
 70
     0
 10
0.0
 20
0.0
 11
1.0
 21
1.0
 12
420.0
 22
297.0
 13
0.0
 23
0.0
 14
10.0
 24
10.0
 15
10.0
 25
10.0
 16
0.0
 26
0.0
 36
1.0
 17
0.0
 27
0.0
 37
0.0
 40
594.0
 41
1.4141414141
 42
50.0
 43
0.0
 44
0.0
 50
0.0
 51
0.0
 71
     0
 72
  2000
 73
     1
 74
     3
 75
     0
 76
     0
 77
     0
 78
     0
281
     0
 65
     1
110
0.0
120
0.0
130
0.0
111
1.0
121
0.0
131
0.0
112
0.0
122
1.0
132
0.0
 79
     0
146
0.0
  0
ENDTAB
  0
TABLE
  2
LTYPE
  5
5
330
0
100
AcDbSymbolTable
 70
     6
  0
LTYPE
  5
14
330
5
100
AcDbSymbolTableRecord
100
AcDbLinetypeTableRecord
  2
ByBlock
 70
     0
  3

 72
    65
 73
     0
 40
0.0
  0
LTYPE
  5
15
330
5
100
AcDbSymbolTableRecord
100
AcDbLinetypeTableRecord
  2
ByLayer
 70
     0
  3

 72
    65
 73
     0
 40
0.0
  0
LTYPE
  5
16
330
5
100
AcDbSymbolTableRecord
100
AcDbLinetypeTableRecord
  2
Continuous
 70
     0
  3
Solid line
 72
    65
 73
     0
 40
0.0
  0
LTYPE
  5
3F
330
5
100
AcDbSymbolTableRecord
100
AcDbLinetypeTableRecord
  2
HIDDEN
 70
     0
  3
Hidden __ __ __ __ __ __ __ __ __ __ __ __ __ __
 72
    65
 73
     2
 40
1.905
 49
1.27
 74
     0
 49
-0.635
 74
     0
  0
LTYPE
  5
40
330
5
100
AcDbSymbolTableRecord
100
AcDbLinetypeTableRecord
  2
PHANTOM
 70
     0
  3
Phantom ______  __  __  ______  __  __  ______
 72
    65
 73
     6
 40
12.7
 49
6.35
 74
     0
 49
-1.27
 74
     0
 49
1.27
 74
     0
 49
-1.27
 74
     0
 49
1.27
 74
     0
 49
-1.27
 74
     0
  0
LTYPE
  5
41
330
5
100
AcDbSymbolTableRecord
100
AcDbLinetypeTableRecord
  2
CENTER
 70
     0
  3
Center ____ _ ____ _ ____ _ ____ _ ____ _ ____
 72
    65
 73
     4
 40
10.16
 49
6.35
 74
     0
 49
-1.27
 74
     0
 49
1.27
 74
     0
 49
-1.27
 74
     0
  0
LTYPE
  5
42
330
5
100
AcDbSymbolTableRecord
100
AcDbLinetypeTableRecord
  2
CENTERX2
 70
     0
  3
Center (2x) ________  __  ________  __  _____
 72
    65
 73
     4
 40
20.32
 49
12.7
 74
     0
 49
-2.54
 74
     0
 49
2.54
 74
     0
 49
-2.54
 74
     0
  0
LTYPE
  5
43
330
5
100
AcDbSymbolTableRecord
100
AcDbLinetypeTableRecord
  2
DOT2
 70
     0
  3
Dot (.5x) ........................................
 72
    65
 73
     2
 40
0.635
 49
0.0
 74
     0
 49
-0.635
 74
     0
  0
ENDTAB
  0
TABLE
  2
LAYER
  5
2
330
0
100
AcDbSymbolTable
 70
     1
  0
LAYER
  5
10
330
2
100
AcDbSymbolTableRecord
100
AcDbLayerTableRecord
  2
0
 70
     0
 62
     7
  6
Continuous
370
    -3
390
F
  0
ENDTAB
  0
TABLE
  2
STYLE
  5
3
330
0
100
AcDbSymbolTable
 70
     2
  0
STYLE
  5
11
330
3
100
AcDbSymbolTableRecord
100
AcDbTextStyleTableRecord
  2
Standard
 70
     0
 40
0.0
 41
1.0
 50
0.0
 71
     0
 42
2.5
  3
txt
  4
bigfont
  0
STYLE
  5
44
330
3
100
AcDbSymbolTableRecord
100
AcDbTextStyleTableRecord
  2
SLDTEXTSTYLE0
 70
     0
 40
0.0
 41
0.7
 50
0.0
 71
     0
 42
0.2
  3
TXT
  4
bigfont
  0
ENDTAB
  0
TABLE
  2
VIEW
  5
6
330
0
100
AcDbSymbolTable
 70
     0
  0
ENDTAB
  0
TABLE
  2
UCS
  5
7
330
0
100
AcDbSymbolTable
 70
     0
  0
ENDTAB
  0
TABLE
  2
APPID
  5
9
330
0
100
AcDbSymbolTable
 70
     1
  0
APPID
  5
12
330
9
100
AcDbSymbolTableRecord
100
AcDbRegAppTableRecord
  2
ACAD
 70
     0
  0
ENDTAB
  0
TABLE
  2
DIMSTYLE
  5
A
330
0
100
AcDbSymbolTable
 70
     1
100
AcDbDimStyleTable
  0
DIMSTYLE
105
27
330
A
100
AcDbSymbolTableRecord
100
AcDbDimStyleTableRecord
  2
ISO-25
 70
     0
 41
2.5
 42
0.625
 43
3.75
 44
1.25
 73
     0
 74
     0
 77
     1
 78
     8
140
2.5
141
2.5
143
0.0393700787
147
0.625
171
     3
172
     1
178
     0
271
     2
272
     2
274
     3
278
    44
283
     0
284
     8
340
11
  0
ENDTAB
  0
TABLE
  2
BLOCK_RECORD
  5
1
330
0
100
AcDbSymbolTable
 70
     1
  0
BLOCK_RECORD
  5
1F
330
1
100
AcDbSymbolTableRecord
100
AcDbBlockTableRecord
  2
*Model_Space
340
22
  0
BLOCK_RECORD
  5
1B
330
1
100
AcDbSymbolTableRecord
100
AcDbBlockTableRecord
  2
*Paper_Space
340
1E
  0
BLOCK_RECORD
  5
23
330
1
100
AcDbSymbolTableRecord
100
AcDbBlockTableRecord
  2
*Paper_Space0
340
26
  0
ENDTAB
  0
ENDSEC
  0
SECTION
  2
BLOCKS
  0
BLOCK
  5
20
330
1F
100
AcDbEntity
  8
0
100
AcDbBlockBegin
  2
*Model_Space
 70
     0
 10
0.0
 20
0.0
 30
0.0
  3
*Model_Space
  1

  0
ENDBLK
  5
21
330
1F
100
AcDbEntity
  8
0
100
AcDbBlockEnd
  0
BLOCK
  5
1C
330
1B
100
AcDbEntity
 67
     1
  8
0
100
AcDbBlockBegin
  2
*Paper_Space
 70
     0
 10
0.0
 20
0.0
 30
0.0
  3
*Paper_Space
  1

  0
ENDBLK
  5
1D
330
1B
100
AcDbEntity
 67
     1
  8
0
100
AcDbBlockEnd
  0
BLOCK
  5
24
330
23
100
AcDbEntity
  8
0
100
AcDbBlockBegin
  2
*Paper_Space0
 70
     0
 10
0.0
 20
0.0
 30
0.0
  3
*Paper_Space0
  1

  0
ENDBLK
  5
25
330
23
100
AcDbEntity
  8
0
100
AcDbBlockEnd
  0
ENDSEC
  0
SECTION
  2
ENTITIES
  0
MTEXT
  5
45
330
1F
100
AcDbEntity
  8
0
  6
Continuous
 62
     7
370
     0
100
AcDbMText
 10
120.2135516583
 20
554.5876133923
 30
0.0
 40
7.0
 41
0.0
 71
     1
 72
     1
  1
CHB-508N
  7
SLDTEXTSTYLE0
 73
     1
 44
1.0
  0
LINE
  5
46
330
1F
100
AcDbEntity
  8
0
  6
Continuous
 62
     7
370
    15
100
AcDbLine
 10
304.9788138327
 20
74.112575158
 30
0.0
 11
305.0788304267
 21
74.112575158
 31
0.0
  0
LINE
  5
47
330
1F
100
AcDbEntity
  8
0
  6
Continuous
 62
     7
370
    15
100
AcDbLine
 10
305.0788304267
 20
80.1125724162
 30
0.0
 11
304.9788138327
 21
80.1125724162
 31
0.0
  0
LINE
  5
48
330
1F
100
AcDbEntity
  8
0
  6
Continuous
 62
     7
370
    15
100
AcDbLine
 10
304.9788138327
 20
84.1125805224
 30
0.0
 11
305.0788304267
 21
84.1125805224
 31
0.0
  0
LINE
  5
49
330
1F
100
AcDbEntity
  8
0
  6
Continuous
 62
     7
370
    15
100
AcDbLine
 10
305.0788304267
 20
90.1125777806
 30
0.0
 11
304.9788138327
 21
90.1125777806
 31
0.0
  0
LINE
  5
4A
330
1F
100
AcDbEntity
  8
0
  6
Continuous
 62
     7
370
    15
100
AcDbLine
 10
304.9788138327
 20
444.1125799264
 30
0.0
 11
305.0788304267
 21
444.1125799264
 31
0.0
  0
LINE
  5
4B
330
1F
100
AcDbEntity
  8
0
  6
Continuous
 62
     7
370
    15
100
AcDbLine
 10
305.0788304267
 20
450.1125771846
 30
0.0
 11
304.9788138327
 21
450.1125771846
 31
0.0
  0
LINE
  5
4C
330
1F
100
AcDbEntity
  8
0
  6
Continuous
 62
     7
370
    15
100
AcDbLine
 10
304.9788138327
 20
454.1125852908
 30
0.0
 11
305.0788304267
 21
454.1125852908
 31
0.0
  0
LINE
  5
4D
330
1F
100
AcDbEntity
  8
0
  6
Continuous
 62
     7
370
    15
100
AcDbLine
 10
305.0788304267
 20
460.112582549
 30
0.0
 11
304.9788138327
 21
460.112582549
 31
0.0
  0
LINE
  5
4E
330
1F
100
AcDbEntity
  8
0
  6
Continuous
 62
     7
370
    15
100
AcDbLine
 10
306.2788209376
 20
93.612577423
 30
0.0
 11
305.0788304267
 21
93.612577423
 31
0.0
  0
LINE
  5
4F
330
1F
100
AcDbEntity
  8
0
  6
Continuous
 62
     7
370
    15
100
AcDbLine
 10
306.2788209376
 20
463.6125821914
 30
0.0
 11
305.0788304267
 21
463.6125821914
 31
0.0
  0
LINE
  5
50
330
1F
100
AcDbEntity
  8
0
  6
Continuous
 62
     7
370
    15
100
AcDbLine
 10
305.0788304267
 20
70.6125755156
 30
0.0
 11
306.2788209376
 21
70.6125755156
 31
0.0
  0
LINE
  5
51
330
1F
100
AcDbEntity
  8
0
  6
Continuous
 62
     7
370
    15
100
AcDbLine
 10
305.0788304267
 20
440.612580284
 30
0.0
 11
306.2788209376
 21
440.612580284
 31
0.0
  0
LINE
  5
52
330
1F
100
AcDbEntity
  8
0
  6
Continuous
 62
     7
370
    15
100
AcDbLine
 10
817.7788218913
 20
73.1125731315
 30
0.0
 11
817.7788218913
 21
108.1125844563
 31
0.0
  0
LINE
  5
53
330
1F
100
AcDbEntity
  8
0
  6
Continuous
 62
     7
370
    15
100
AcDbLine
 10
817.7788218913
 20
426.1125732507
 30
0.0
 11
817.7788218913
 21
461.1125845755
 31
0.0
  0
SPLINE
  5
54
330
1F
100
AcDbEntity
  8
0
  6
Continuous
 62
     7
370
    15
100
AcDbSpline
210
0.0
220
0.0
230
1.0
 70
     8
 71
     3
 72
    11
 73
     7
 74
     0
 42
0.00000001
 43
0.00000001
 40
0.0
 40
0.0
 40
0.0
 40
0.0
 40
0.2262211787622261
 40
0.4679428809830629
 40
0.7254872347845625
 40
1.0
 40
1.0
 40
1.0
 40
1.0
 10
302.5993368086496
 20
90.34300933732042
 30
0.0
 10
302.6021575808236
 20
90.32010963147921
 30
0.0
 10
302.6079924025892
 20
90.27274114730969
 30
0.0
 10
302.6247590958317
 20
89.94795852805784
 30
0.0
 10
302.6383540637509
 20
89.44747204498013
 30
0.0
 10
302.6389005541322
 20
89.02364366111135
 30
0.0
 10
302.6391825136819
 20
88.80497108353624
 30
0.0
  0
SPLINE
  5
55
330
1F
100
AcDbEntity
  8
0
  6
Continuous
 62
     7
370
    15
100
AcDbSpline
210
0.0
220
0.0
230
1.0
 70
     8
 71
     3
 72
    12
 73
     8
 74
     0
 42
0.00000001
 43
0.00000001
 40
0.0
 40
0.0
 40
0.0
 40
0.0
 40
0.2489464093299705
 40
0.4822891556317727
 40
0.6998139568662817
 40
0.9035367122982499
 40
1.0
 40
1.0
 40
1.0
 40
1.0
 10
302.6391825136819
 20
75.24634490860946
 30
0.0
 10
302.6377566665176
 20
75.10901003544043
 30
0.0
 10
302.634994342583
 20
74.84294827460697
 30
0.0
 10
302.6240931777455
 20
74.50713196926544
 30
0.0
 10
302.6215828521525
 20
74.2739588790707
 30
0.0
 10
302.6263723701388
 20
74.1538732634325
 30
0.0
 10
302.6528026108645
 20
74.15251470296828
 30
0.0
 10
302.6612958368936
 20
74.15207813633928
 30
0.0
  0
LINE
  5
56
330
1F
100
AcDbEntity
  8
0
  6
Continuous
 62
     7
370
    15
100
AcDbLine
 10
302.6383480487
 20
88.8549793805
 30
0.0
 11
302.6383480487
 21
75.1963366116
 31
0.0
  0
LINE
  5
57
330
1F
100
AcDbEntity
  8
0
  6
Continuous
 62
     7
370
    15
100
AcDbLine
 10
301.1147043166
 20
92.7928645457
 30
0.0
 11
302.6020786223
 21
90.3127152766
 31
0.0
  0
LINE
  5
58
330
1F
100
AcDbEntity
  8
0
  6
Continuous
 62
     7
370
    15
100
AcDbLine
 10
305.0788304267
 20
92.0158285941
 30
0.0
 11
303.6875388083
 21
94.3357903804
 31
0.0
  0
LINE
  5
59
330
1F
100
AcDbEntity
  8
0
  6
Continuous
 62
     7
370
    15
100
AcDbLine
 10
302.666570848
 20
74.0199942435
 30
0.0
 11
301.0974785742
 21
71.4035738553
 31
0.0
  0
LINE
  5
5A
330
1F
100
AcDbEntity
  8
0
  6
Continuous
 62
     7
370
    15
100
AcDbLine
 10
303.670313066
 20
69.8606480206
 30
0.0
 11
305.0788304267
 21
72.2093392457
 31
0.0
  0
LINE
  5
5B
330
1F
100
AcDbEntity
  8
0
  6
Continuous
 62
     7
370
    15
100
AcDbLine
 10
303.7074169573
 20
94.3002809132
 30
0.0
 11
303.6174735484
 21
94.4140661801
 31
0.0
  0
SPLINE
  5
5C
330
1F
100
AcDbEntity
  8
0
  6
Continuous
 62
     7
370
    15
100
AcDbSpline
210
0.0
220
0.0
230
1.0
 70
     8
 71
     3
 72
    20
 73
    16
 74
     0
 42
0.00000001
 43
0.00000001
 40
0.0
 40
0.0
 40
0.0
 40
0.0
 40
0.0337782135563916
 40
0.1101042125050339
 40
0.1739279692903642
 40
0.225275435550444
 40
0.2665359874219622
 40
0.3037742448268942
 40
0.3388583902671167
 40
0.3726397573712902
 40
0.4139182318237268
 40
0.6259837896725539
 40
0.8390271687235902
 40
0.9659476909920224
 40
0.9999999999999999
 40
0.9999999999999999
 40
0.9999999999999999
 40
0.9999999999999999
 10
303.5051485953012
 20
94.55613385094652
 30
0.0
 10
303.4644987945916
 20
94.61231752238814
 30
0.0
 10
303.3319958045163
 20
94.79545506130488
 30
0.0
 10
303.0221149904809
 20
94.97263809130477
 30
0.0
 10
302.634846085612
 20
95.09558079217022
 30
0.0
 10
302.2649910709337
 20
95.1103859185372
 30
0.0
 10
301.930673900455
 20
95.05979107333098
 30
0.0
 10
301.6561957330877
 20
94.95874356998324
 30
0.0
 10
301.4286905332049
 20
94.82402052745987
 30
0.0
 10
301.2226596036471
 20
94.64784514695504
 30
0.0
 10
300.8780957240505
 20
94.20536422238426
 30
0.0
 10
300.6970201673757
 20
93.51868139381803
 30
0.0
 10
300.5472973548978
 20
92.33784971248197
 30
0.0
 10
300.4920926395913
 20
91.43321012945974
 30
0.0
 10
300.4855587628363
 20
91.0186220193546
 30
0.0
 10
300.4841765818277
 20
90.93091975106249
 30
0.0
  0
SPLINE
  5
5D
330
1F
100
AcDbEntity
  8
0
  6
Continuous
 62
     7
370
    15
100
AcDbSpline
210
0.0
220
0.0
230
1.0
 70
     8
 71
     3
 72
    19
 73
    15
 74
     0
 42
0.00000001
 43
0.00000001
 40
0.0
 40
0.0
 40
0.0
 40
0.0
 40
0.0102731225753251
 40
0.1295972930301111
 40
0.3268127112115211
 40
0.5525080828414816
 40
0.5858522867258555
 40
0.6185997313975234
 40
0.6529078503247427
 40
0.6960084123553032
 40
0.7523124272928984
 40
0.8223130453796055
 40
0.9054598060275716
 40
1.0
 40
1.0
 40
1.0
 40
1.0
 10
300.4813155588785
 20
73.3125765170003
 30
0.0
 10
300.4816387213328
 20
73.28537910289093
 30
0.0
 10
300.4857154739439
 20
72.94227882153511
 30
0.0
 10
300.5255307009086
 20
72.12228956629626
 30
0.0
 10
300.6604957655532
 20
70.89984427826212
 30
0.0
 10
300.7509317371336
 20
70.25652785118363
 30
0.0
 10
301.1017759032442
 20
69.71639817770232
 30
0.0
 10
301.2710051105039
 20
69.52855301870456
 30
0.0
 10
301.5077280953976
 20
69.35207144325354
 30
0.0
 10
301.8213627741673
 20
69.19860742674594
 30
0.0
 10
302.2248369608882
 20
69.09682083416422
 30
0.0
 10
302.7106877512089
 20
69.11998034721978
 30
0.0
 10
303.2404522893414
 20
69.33030836202511
 30
0.0
 10
303.5056812199687
 20
69.65212468783427
 30
0.0
 10
303.6467990336099
 20
69.82335041417132
 30
0.0
  0
LINE
  5
5E
330
1F
100
AcDbEntity
  8
0
  6
Continuous
 62
     7
370
    15
100
AcDbLine
 10
297.1740028319
 20
86.0125828828
 30
0.0
 11
297.1740028319
 21
77.4125714148
 31
0.0
  0
LINE
  5
5F
330
1F
100
AcDbEntity
  8
0
  6
Continuous
 62
     7
370
    15
100
AcDbLine
 10
297.7788111624
 20
90.1123244609
 30
0.0
 11
297.7788111624
 21
89.3125791396
 31
0.0
  0
LINE
  5
60
330
1F
100
AcDbEntity
  8
0
  6
Continuous
 62
     7
370
    15
100
AcDbLine
 10
297.7788111624
 20
74.912573799
 30
0.0
 11
297.7788111624
 21
74.1128284778
 31
0.0
  0
LINE
  5
61
330
1F
100
AcDbEntity
  8
0
  6
Continuous
 62
     7
370
    15
100
AcDbLine
 10
299.1788348612
 20
90.4125828589
 30
0.0
 11
299.1788348612
 21
90.1125777806
 31
0.0
  0
ARC
  5
62
330
1F
100
AcDbEntity
  8
0
  6
Continuous
 62
     7
370
    15
100
AcDbCircle
 10
301.3788209376
 20
87.3054359964
 30
0.0
 40
3.807142857143189
100
AcDbArc
 50
77.9663271603
 51
90.0
  0
ARC
  5
63
330
1F
100
AcDbEntity
  8
0
  6
Continuous
 62
     7
370
    15
100
AcDbCircle
 10
301.3788209376
 20
87.3054359964
 30
0.0
 40
3.807142857143277
100
AcDbArc
 50
90.0
 51
125.3002484399
  0
LINE
  5
64
330
1F
100
AcDbEntity
  8
0
  6
Continuous
 62
     7
370
    15
100
AcDbLine
 10
299.2788216529
 20
73.7125832881
 30
0.0
 11
299.2788216529
 21
73.312576517
 31
0.0
  0
ARC
  5
65
330
1F
100
AcDbEntity
  8
0
  6
Continuous
 62
     7
370
    15
100
AcDbCircle
 10
299.4788209376
 20
74.1125788535
 30
0.0
 40
0.4000000000008299
100
AcDbArc
 50
270.0
 51
0.0
  0
LINE
  5
66
330
1F
100
AcDbEntity
  8
0
  6
Continuous
 62
     7
370
    15
100
AcDbLine
 10
299.8788318095
 20
89.3125791396
 30
0.0
 11
299.8788318095
 21
88.8625789727
 31
0.0
  0
LINE
  5
67
330
1F
100
AcDbEntity
  8
0
  6
Continuous
 62
     7
370
    15
100
AcDbLine
 10
299.8788318095
 20
75.3625739659
 30
0.0
 11
299.8788318095
 21
74.912573799
 31
0.0
  0
SPLINE
  5
68
330
1F
100
AcDbEntity
  8
0
  6
Continuous
 62
     7
370
    15
100
AcDbSpline
210
0.0
220
0.0
230
1.0
 70
     8
 71
     3
 72
    11
 73
     7
 74
     0
 42
0.00000001
 43
0.00000001
 40
0.0
 40
0.0
 40
0.0
 40
0.0
 40
0.2262211787622261
 40
0.4679428809830629
 40
0.7254872347845625
 40
1.0
 40
1.0
 40
1.0
 40
1.0
 10
302.5993368086496
 20
460.343014105692
 30
0.0
 10
302.6021575808236
 20
460.3201143998508
 30
0.0
 10
302.6079924025892
 20
460.2727459156812
 30
0.0
 10
302.6247590958317
 20
459.9479632964294
 30
0.0
 10
302.6383540637509
 20
459.4474768133517
 30
0.0
 10
302.6389005541322
 20
459.0236484294829
 30
0.0
 10
302.6391825136819
 20
458.8049758519078
 30
0.0
  0
SPLINE
  5
69
330
1F
100
AcDbEntity
  8
0
  6
Continuous
 62
     7
370
    15
100
AcDbSpline
210
0.0
220
0.0
230
1.0
 70
     8
 71
     3
 72
    12
 73
     8
 74
     0
 42
0.00000001
 43
0.00000001
 40
0.0
 40
0.0
 40
0.0
 40
0.0
 40
0.2489457273592936
 40
0.482287834435525
 40
0.6998120397765791
 40
0.9035374370595866
 40
1.0
 40
1.0
 40
1.0
 40
1.0
 10
302.6391825136819
 20
445.2463496769811
 30
0.0
 10
302.6377566709625
 20
445.1090150550833
 30
0.0
 10
302.6349943556393
 20
444.8429537810431
 30
0.0
 10
302.624093130675
 20
444.5071340767738
 30
0.0
 10
302.621582999077
 20
444.27397150682
 30
0.0
 10
302.6263720032209
 20
444.1538523553819
 30
0.0
 10
302.6528026109755
 20
444.1525132224258
 30
0.0
 10
302.6612958368936
 20
444.1520829047109
 30
0.0
  0
LINE
  5
6A
330
1F
100
AcDbEntity
  8
0
  6
Continuous
 62
     7
370
    15
100
AcDbLine
 10
302.6383480487
 20
458.8549692477
 30
0.0
 11
302.6383480487
 21
445.19634138
 31
0.0
  0
LINE
  5
6B
330
1F
100
AcDbEntity
  8
0
  6
Continuous
 62
     7
370
    15
100
AcDbLine
 10
301.1147043166
 20
462.7928693141
 30
0.0
 11
302.6020786223
 21
460.312720045
 31
0.0
  0
LINE
  5
6C
330
1F
100
AcDbEntity
  8
0
  6
Continuous
 62
     7
370
    15
100
AcDbLine
 10
305.0788304267
 20
462.0158184613
 30
0.0
 11
303.6875388083
 21
464.3357951487
 31
0.0
  0
LINE
  5
6D
330
1F
100
AcDbEntity
  8
0
  6
Continuous
 62
     7
370
    15
100
AcDbLine
 10
302.666570848
 20
444.0199990119
 30
0.0
 11
301.0974785742
 21
441.4035786237
 31
0.0
  0
LINE
  5
6E
330
1F
100
AcDbEntity
  8
0
  6
Continuous
 62
     7
370
    15
100
AcDbLine
 10
303.670313066
 20
439.860652789
 30
0.0
 11
305.0788304267
 21
442.2093291129
 31
0.0
  0
LINE
  5
6F
330
1F
100
AcDbEntity
  8
0
  6
Continuous
 62
     7
370
    15
100
AcDbLine
 10
303.7074169573
 20
464.3002856816
 30
0.0
 11
303.6174735484
 21
464.4140709485
 31
0.0
  0
SPLINE
  5
70
330
1F
100
AcDbEntity
  8
0
  6
Continuous
 62
     7
370
    15
100
AcDbSpline
210
0.0
220
0.0
230
1.0
 70
     8
 71
     3
 72
    20
 73
    16
 74
     0
 42
0.00000001
 43
0.00000001
 40
0.0
 40
0.0
 40
0.0
 40
0.0
 40
0.0337781691654668
 40
0.1101040678073928
 40
0.1739277407163042
 40
0.2252751394961571
 40
0.2665359406927662
 40
0.3037734934064226
 40
0.3388575927394802
 40
0.3726389154485845
 40
0.413917335653343
 40
0.6259826148081467
 40
0.8390272759393366
 40
0.965945815504299
 40
1.0
 40
1.0
 40
1.0
 40
1.0
 10
303.5051485953012
 20
464.5561386193181
 30
0.0
 10
303.464498800326
 20
464.6123222625928
 30
0.0
 10
303.331995828943
 20
464.795459709696
 30
0.0
 10
303.02211475569
 20
464.9726440129366
 30
0.0
 10
302.6348467329203
 20
465.095582381054
 30
0.0
 10
302.2649886039824
 20
465.1103993077718
 30
0.0
 10
301.930678944316
 20
465.0597715159857
 30
0.0
 10
301.6561925082175
 20
464.9587531605144
 30
0.0
 10
301.4286909845499
 20
464.8240238924618
 30
0.0
 10
301.2226594585358
 20
464.6478503669768
 30
0.0
 10
300.8780959978449
 20
464.2053681330881
 30
0.0
 10
300.6970188077372
 20
463.5186863465714
 30
0.0
 10
300.5472990049016
 20
462.337844884519
 30
0.0
 10
300.4920919824589
 20
461.433205781679
 30
0.0
 10
300.4855587116858
 20
461.0186169318263
 30
0.0
 10
300.4841765818277
 20
460.9309096182729
 30
0.0
  0
SPLINE
  5
71
330
1F
100
AcDbEntity
  8
0
  6
Continuous
 62
     7
370
    15
100
AcDbSpline
210
0.0
220
0.0
230
1.0
 70
     8
 71
     3
 72
    19
 73
    15
 74
     0
 42
0.00000001
 43
0.00000001
 40
0.0
 40
0.0
 40
0.0
 40
0.0
 40
0.0102731175316047
 40
0.1295972294026681
 40
0.3268125507586546
 40
0.5525090051855244
 40
0.5858518950629011
 40
0.6186006131482236
 40
0.6529075976622192
 40
0.6960081385320095
 40
0.7523125488982696
 40
0.8223131326172809
 40
0.905459852443285
 40
1.0
 40
1.0
 40
1.0
 40
1.0
 10
300.4813155588785
 20
443.3125812853719
 30
0.0
 10
300.48163872247
 20
443.2853838731851
 30
0.0
 10
300.4857154894272
 20
442.9422836160826
 30
0.0
 10
300.5255293834226
 20
442.1222921073394
 30
0.0
 10
300.6605045858213
 20
440.8998607648921
 30
0.0
 10
300.7509090319489
 20
440.2564924205321
 30
0.0
 10
301.1017839247639
 20
439.7164039888675
 30
0.0
 10
301.2709954202003
 20
439.5285403911302
 30
0.0
 10
301.5077346407773
 20
439.3520797463439
 30
0.0
 10
301.8213629807958
 20
439.1986134060246
 30
0.0
 10
302.2248351408528
 20
439.0968048272144
 30
0.0
 10
302.7106880450276
 20
439.1199722560066
 30
0.0
 10
303.2404521981027
 20
439.3302975952705
 30
0.0
 10
303.5056811882828
 20
439.6521143348786
 30
0.0
 10
303.6467990336099
 20
439.8233402813817
 30
0.0
  0
LINE
  5
72
330
1F
100
AcDbEntity
  8
0
  6
Continuous
 62
     7
370
    15
100
AcDbLine
 10
297.1740028319
 20
456.01257275
 30
0.0
 11
297.1740028319
 21
447.4125761832
 31
0.0
  0
LINE
  5
73
330
1F
100
AcDbEntity
  8
0
  6
Continuous
 62
     7
370
    15
100
AcDbLine
 10
297.7788111624
 20
444.9125785674
 30
0.0
 11
297.7788111624
 21
444.1128332461
 31
0.0
  0
LINE
  5
74
330
1F
100
AcDbEntity
  8
0
  6
Continuous
 62
     7
370
    15
100
AcDbLine
 10
297.7788111624
 20
460.1123292293
 30
0.0
 11
297.7788111624
 21
459.312583908
 31
0.0
  0
ARC
  5
75
330
1F
100
AcDbEntity
  8
0
  6
Continuous
 62
     7
370
    15
100
AcDbCircle
 10
301.3788209376
 20
457.3054359964
 30
0.0
 40
3.807142857143203
100
AcDbArc
 50
77.9663271603
 51
90.0
  0
ARC
  5
76
330
1F
100
AcDbEntity
  8
0
  6
Continuous
 62
     7
370
    15
100
AcDbCircle
 10
301.3788209376
 20
457.3054359964
 30
0.0
 40
3.807142857143289
100
AcDbArc
 50
90.0
 51
125.3002484399
  0
LINE
  5
77
330
1F
100
AcDbEntity
  8
0
  6
Continuous
 62
     7
370
    15
100
AcDbLine
 10
299.1788348612
 20
460.4125727261
 30
0.0
 11
299.1788348612
 21
460.112582549
 31
0.0
  0
LINE
  5
78
330
1F
100
AcDbEntity
  8
0
  6
Continuous
 62
     7
370
    15
100
AcDbLine
 10
299.2788216529
 20
443.7125731553
 30
0.0
 11
299.2788216529
 21
443.3125812854
 31
0.0
  0
ARC
  5
79
330
1F
100
AcDbEntity
  8
0
  6
Continuous
 62
     7
370
    15
100
AcDbCircle
 10
299.4788209376
 20
444.1125788535
 30
0.0
 40
0.4000000000008299
100
AcDbArc
 50
270.0
 51
0.0
  0
LINE
  5
7A
330
1F
100
AcDbEntity
  8
0
  6
Continuous
 62
     7
370
    15
100
AcDbLine
 10
299.8788318095
 20
459.312583908
 30
0.0
 11
299.8788318095
 21
458.8625837411
 31
0.0
  0
LINE
  5
7B
330
1F
100
AcDbEntity
  8
0
  6
Continuous
 62
     7
370
    15
100
AcDbLine
 10
299.8788318095
 20
445.3625787343
 30
0.0
 11
299.8788318095
 21
444.9125785674
 31
0.0
  0
LINE
  5
7C
330
1F
100
AcDbEntity
  8
0
  6
Continuous
 62
     7
370
    15
100
AcDbLine
 10
817.7788218913
 20
37.1125746812
 30
0.0
 11
817.7788218913
 21
72.1125860061
 31
0.0
  0
LINE
  5
7D
330
1F
100
AcDbEntity
  8
0
  6
Continuous
 62
     7
370
    15
100
AcDbLine
 10
817.7788218913
 20
462.1125717009
 30
0.0
 11
817.7788218913
 21
497.1125830258
 31
0.0
  0
LINE
  5
7E
330
1F
100
AcDbEntity
  8
0
  6
Continuous
 62
     7
370
    15
100
AcDbLine
 10
814.7788307128
 20
72.1125860061
 30
0.0
 11
814.7788307128
 21
73.1125731315
 31
0.0
  0
LINE
  5
7F
330
1F
100
AcDbEntity
  8
0
  6
Continuous
 62
     7
370
    15
100
AcDbLine
 10
814.7788307128
 20
108.1125844563
 30
0.0
 11
814.7788307128
 21
109.1125715817
 31
0.0
  0
LINE
  5
80
330
1F
100
AcDbEntity
  8
0
  6
Continuous
 62
     7
370
    15
100
AcDbLine
 10
809.7788354811
 20
109.1125715817
 30
0.0
 11
809.7788354811
 21
108.1125844563
 31
0.0
  0
LINE
  5
81
330
1F
100
AcDbEntity
  8
0
  6
Continuous
 62
     7
370
    15
100
AcDbLine
 10
809.7788354811
 20
73.1125731315
 30
0.0
 11
809.7788354811
 21
72.1125860061
 31
0.0
  0
LINE
  5
82
330
1F
100
AcDbEntity
  8
0
  6
Continuous
 62
     7
370
    15
100
AcDbLine
 10
809.7788354811
 20
462.1125717009
 30
0.0
 11
809.7788354811
 21
461.1125845755
 31
0.0
  0
LINE
  5
83
330
1F
100
AcDbEntity
  8
0
  6
Continuous
 62
     7
370
    15
100
AcDbLine
 10
809.7788354811
 20
426.1125732507
 30
0.0
 11
809.7788354811
 21
425.1125861253
 31
0.0
  0
LINE
  5
84
330
1F
100
AcDbEntity
  8
0
  6
Continuous
 62
     7
370
    15
100
AcDbLine
 10
814.7788307128
 20
425.1125861253
 30
0.0
 11
814.7788307128
 21
426.1125732507
 31
0.0
  0
LINE
  5
85
330
1F
100
AcDbEntity
  8
0
  6
Continuous
 62
     7
370
    15
100
AcDbLine
 10
814.7788307128
 20
461.1125845755
 30
0.0
 11
814.7788307128
 21
462.1125717009
 31
0.0
  0
LINE
  5
86
330
1F
100
AcDbEntity
  8
0
  6
Continuous
 62
     7
370
    15
100
AcDbLine
 10
297.978814548
 20
75.6553966845
 30
0.0
 11
297.978814548
 21
75.3625739659
 31
0.0
  0
LINE
  5
87
330
1F
100
AcDbEntity
  8
0
  6
Continuous
 62
     7
370
    15
100
AcDbLine
 10
297.978814548
 20
88.8625789727
 30
0.0
 11
297.978814548
 21
88.5697711553
 31
0.0
  0
LINE
  5
88
330
1F
100
AcDbEntity
  8
0
  6
Continuous
 62
     7
370
    15
100
AcDbLine
 10
297.978814548
 20
458.8625837411
 30
0.0
 11
297.978814548
 21
458.5697610225
 31
0.0
  0
LINE
  5
89
330
1F
100
AcDbEntity
  8
0
  6
Continuous
 62
     7
370
    15
100
AcDbLine
 10
297.978814548
 20
445.6553865518
 30
0.0
 11
297.978814548
 21
445.3625787343
 31
0.0
  0
ARC
  5
8A
330
1F
100
AcDbEntity
  8
0
  6
Continuous
 62
     7
370
    15
100
AcDbCircle
 10
321.2788209376
 20
32.1125788535
 30
0.0
 40
15.00000000000006
100
AcDbArc
 50
180.0
 51
270.0
  0
LINE
  5
8B
330
1F
100
AcDbEntity
  8
0
  6
Continuous
 62
     7
370
    15
100
AcDbLine
 10
306.2788209376
 20
32.1125794495
 30
0.0
 11
321.2788215336
 21
32.1125794495
 31
0.0
  0
LINE
  5
8C
330
1F
100
AcDbEntity
  8
0
  6
Continuous
 62
     7
370
    15
100
AcDbLine
 10
321.2788215336
 20
17.1125788535
 30
0.0
 11
321.2788215336
 21
32.1125794495
 31
0.0
  0
LINE
  5
8D
330
1F
100
AcDbEntity
  8
0
  6
Continuous
 62
     7
370
    15
100
AcDbLine
 10
321.2788215336
 20
17.1125788535
 30
0.0
 11
791.2788203416
 21
17.1125788535
 31
0.0
  0
LINE
  5
8E
330
1F
100
AcDbEntity
  8
0
  6
Continuous
 62
     7
370
    15
100
AcDbLine
 10
321.2788215336
 20
32.1125794495
 30
0.0
 11
791.2788203416
 21
32.1125794495
 31
0.0
  0
LINE
  5
8F
330
1F
100
AcDbEntity
  8
0
  6
Continuous
 62
     7
370
    15
100
AcDbLine
 10
791.2788203416
 20
32.1125794495
 30
0.0
 11
791.2788203416
 21
17.1125788535
 31
0.0
  0
LINE
  5
90
330
1F
100
AcDbEntity
  8
0
  6
Continuous
 62
     7
370
    15
100
AcDbLine
 10
321.2788215336
 20
32.1125794495
 30
0.0
 11
321.2788215336
 21
502.1125782575
 31
0.0
  0
LINE
  5
91
330
1F
100
AcDbEntity
  8
0
  6
Continuous
 62
     7
370
    15
100
AcDbLine
 10
306.2788209376
 20
72.1250880803
 30
0.0
 11
306.2788209376
 21
32.1125794495
 31
0.0
  0
LINE
  5
92
330
1F
100
AcDbEntity
  8
0
  6
Continuous
 62
     7
370
    15
100
AcDbLine
 10
306.2788209376
 20
92.1000648583
 30
0.0
 11
306.2788209376
 21
442.1250928487
 31
0.0
  0
LINE
  5
93
330
1F
100
AcDbEntity
  8
0
  6
Continuous
 62
     7
370
    15
100
AcDbLine
 10
306.2788209376
 20
462.1000696267
 30
0.0
 11
306.2788209376
 21
502.1125782575
 31
0.0
  0
LINE
  5
94
330
1F
100
AcDbEntity
  8
0
  6
Continuous
 62
     7
370
    15
100
AcDbLine
 10
306.2788209376
 20
502.1125782575
 30
0.0
 11
321.2788215336
 21
502.1125782575
 31
0.0
  0
LINE
  5
95
330
1F
100
AcDbEntity
  8
0
  6
Continuous
 62
     7
370
    15
100
AcDbLine
 10
791.2788203416
 20
32.1125794495
 30
0.0
 11
791.2788203416
 21
502.1125782575
 31
0.0
  0
LINE
  5
96
330
1F
100
AcDbEntity
  8
0
  6
Continuous
 62
     7
370
    15
100
AcDbLine
 10
321.2788215336
 20
502.1125782575
 30
0.0
 11
791.2788203416
 21
502.1125782575
 31
0.0
  0
LINE
  5
97
330
1F
100
AcDbEntity
  8
0
  6
Continuous
 62
     7
370
    15
100
AcDbLine
 10
326.2788167653
 20
497.1125830258
 30
0.0
 11
786.2788251099
 21
497.1125830258
 31
0.0
  0
LINE
  5
98
330
1F
100
AcDbEntity
  8
0
  6
Continuous
 62
     7
370
    15
100
AcDbLine
 10
326.2788167653
 20
37.1125746812
 30
0.0
 11
326.2788167653
 21
497.1125830258
 31
0.0
  0
LINE
  5
99
330
1F
100
AcDbEntity
  8
0
  6
Continuous
 62
     7
370
    15
100
AcDbLine
 10
786.2788251099
 20
37.1125746812
 30
0.0
 11
326.2788167653
 21
37.1125746812
 31
0.0
  0
LINE
  5
9A
330
1F
100
AcDbEntity
  8
0
  6
Continuous
 62
     7
370
    15
100
AcDbLine
 10
786.2788251099
 20
37.1125746812
 30
0.0
 11
786.2788251099
 21
497.1125830258
 31
0.0
  0
LINE
  5
9B
330
1F
100
AcDbEntity
  8
0
  6
Continuous
 62
     7
370
    15
100
AcDbLine
 10
791.2788203416
 20
32.1125794495
 30
0.0
 11
806.2788209376
 21
32.1125794495
 31
0.0
  0
ARC
  5
9C
330
1F
100
AcDbEntity
  8
0
  6
Continuous
 62
     7
370
    15
100
AcDbCircle
 10
791.2788209376
 20
32.1125788535
 30
0.0
 40
15.0
100
AcDbArc
 50
270.0
 51
0.0
  0
LINE
  5
9D
330
1F
100
AcDbEntity
  8
0
  6
Continuous
 62
     7
370
    15
100
AcDbLine
 10
806.2788209376
 20
502.1125782575
 30
0.0
 11
791.2788203416
 21
502.1125782575
 31
0.0
  0
LINE
  5
9E
330
1F
100
AcDbEntity
  8
0
  6
Continuous
 62
     7
370
    15
100
AcDbLine
 10
806.2788209376
 20
32.1125794495
 30
0.0
 11
806.2788209376
 21
502.1125782575
 31
0.0
  0
ARC
  5
9F
330
1F
100
AcDbEntity
  8
0
  6
Continuous
 62
     7
370
    15
100
AcDbCircle
 10
321.2788209376
 20
502.1125788535
 30
0.0
 40
15.0
100
AcDbArc
 50
90.0
 51
180.0
  0
LINE
  5
A0
330
1F
100
AcDbEntity
  8
0
  6
Continuous
 62
     7
370
    15
100
AcDbLine
 10
321.2788215336
 20
502.1125782575
 30
0.0
 11
321.2788215336
 21
517.1125788535
 31
0.0
  0
LINE
  5
A1
330
1F
100
AcDbEntity
  8
0
  6
Continuous
 62
     7
370
    15
100
AcDbLine
 10
321.2788215336
 20
517.1125788535
 30
0.0
 11
791.2788203416
 21
517.1125788535
 31
0.0
  0
LINE
  5
A2
330
1F
100
AcDbEntity
  8
0
  6
Continuous
 62
     7
370
    15
100
AcDbLine
 10
791.2788203416
 20
517.1125788535
 30
0.0
 11
791.2788203416
 21
502.1125782575
 31
0.0
  0
ARC
  5
A3
330
1F
100
AcDbEntity
  8
0
  6
Continuous
 62
     7
370
    15
100
AcDbCircle
 10
791.2788209376
 20
502.1125788535
 30
0.0
 40
15.00000000000011
100
AcDbArc
 50
0.0
 51
90.0
  0
LINE
  5
A4
330
1F
100
AcDbEntity
  8
0
  6
Continuous
 62
     7
370
    15
100
AcDbLine
 10
305.0788304267
 20
93.1470651473
 30
0.0
 11
306.2788209376
 21
93.1470651473
 31
0.0
  0
LINE
  5
A5
330
1F
100
AcDbEntity
  8
0
  6
Continuous
 62
     7
370
    15
100
AcDbLine
 10
305.0788304267
 20
71.0781026925
 30
0.0
 11
306.2788209376
 21
71.0781026925
 31
0.0
  0
LINE
  5
A6
330
1F
100
AcDbEntity
  8
0
  6
Continuous
 62
     7
370
    15
100
AcDbLine
 10
305.0788304267
 20
71.0781026925
 30
0.0
 11
305.0788304267
 21
93.1470651473
 31
0.0
  0
LINE
  5
A7
330
1F
100
AcDbEntity
  8
0
  6
Continuous
 62
     7
370
    15
100
AcDbLine
 10
306.2788209376
 20
92.1000648583
 30
0.0
 11
306.2788209376
 21
72.1250880803
 31
0.0
  0
LINE
  5
A8
330
1F
100
AcDbEntity
  8
0
  6
Continuous
 62
     7
370
    15
100
AcDbLine
 10
305.0788304267
 20
463.1470550145
 30
0.0
 11
306.2788209376
 21
463.1470550145
 31
0.0
  0
LINE
  5
A9
330
1F
100
AcDbEntity
  8
0
  6
Continuous
 62
     7
370
    15
100
AcDbLine
 10
306.2788209376
 20
462.1000696267
 30
0.0
 11
306.2788209376
 21
442.1250928487
 31
0.0
  0
LINE
  5
AA
330
1F
100
AcDbEntity
  8
0
  6
Continuous
 62
     7
370
    15
100
AcDbLine
 10
305.0788304267
 20
441.0780925597
 30
0.0
 11
306.2788209376
 21
441.0780925597
 31
0.0
  0
LINE
  5
AB
330
1F
100
AcDbEntity
  8
0
  6
Continuous
 62
     7
370
    15
100
AcDbLine
 10
305.0788304267
 20
441.0780925597
 30
0.0
 11
305.0788304267
 21
463.1470550145
 31
0.0
  0
LINE
  5
AC
330
1F
100
AcDbEntity
  8
0
  6
Continuous
 62
     7
370
    15
100
AcDbLine
 10
304.9788138327
 20
74.112575158
 30
0.0
 11
304.9788138327
 21
80.1125724162
 31
0.0
  0
LINE
  5
AD
330
1F
100
AcDbEntity
  8
0
  6
Continuous
 62
     7
370
    15
100
AcDbLine
 10
304.9788138327
 20
87.1125717009
 30
0.0
 11
304.9788138327
 21
90.1125777806
 31
0.0
  0
LINE
  5
AE
330
1F
100
AcDbEntity
  8
0
  6
Continuous
 62
     7
370
    15
100
AcDbLine
 10
304.9788138327
 20
84.1125805224
 30
0.0
 11
304.9788138327
 21
87.1125717009
 31
0.0
  0
LINE
  5
AF
330
1F
100
AcDbEntity
  8
0
  6
Continuous
 62
     7
370
    15
100
AcDbLine
 10
304.9788138327
 20
444.1125799264
 30
0.0
 11
304.9788138327
 21
450.1125771846
 31
0.0
  0
LINE
  5
B0
330
1F
100
AcDbEntity
  8
0
  6
Continuous
 62
     7
370
    15
100
AcDbLine
 10
304.9788138327
 20
457.1125764693
 30
0.0
 11
304.9788138327
 21
460.112582549
 31
0.0
  0
LINE
  5
B1
330
1F
100
AcDbEntity
  8
0
  6
Continuous
 62
     7
370
    15
100
AcDbLine
 10
304.9788138327
 20
454.1125852908
 30
0.0
 11
304.9788138327
 21
457.1125764693
 31
0.0
  0
LINE
  5
B2
330
1F
100
AcDbEntity
  8
0
  6
Continuous
 62
     7
370
    15
100
AcDbLine
 10
305.0788304267
 20
93.1470651473
 30
0.0
 11
305.0788304267
 21
93.612577423
 31
0.0
  0
LINE
  5
B3
330
1F
100
AcDbEntity
  8
0
  6
Continuous
 62
     7
370
    15
100
AcDbLine
 10
305.0788304267
 20
463.1470550145
 30
0.0
 11
305.0788304267
 21
463.6125821914
 31
0.0
  0
LINE
  5
B4
330
1F
100
AcDbEntity
  8
0
  6
Continuous
 62
     7
370
    15
100
AcDbLine
 10
305.0788304267
 20
70.6125755156
 30
0.0
 11
305.0788304267
 21
71.0781026925
 31
0.0
  0
LINE
  5
B5
330
1F
100
AcDbEntity
  8
0
  6
Continuous
 62
     7
370
    15
100
AcDbLine
 10
305.0788304267
 20
440.612580284
 30
0.0
 11
305.0788304267
 21
441.0780925597
 31
0.0
  0
LINE
  5
B6
330
1F
100
AcDbEntity
  8
0
  6
Continuous
 62
     7
370
    15
100
AcDbLine
 10
807.1801921782
 20
108.1125844563
 30
0.0
 11
807.1801921782
 21
73.1125731315
 31
0.0
  0
LINE
  5
B7
330
1F
100
AcDbEntity
  8
0
  6
Continuous
 62
     7
370
    15
100
AcDbLine
 10
807.1801921782
 20
108.1125844563
 30
0.0
 11
817.7788218913
 21
108.1125844563
 31
0.0
  0
LINE
  5
B8
330
1F
100
AcDbEntity
  8
0
  6
Continuous
 62
     7
370
    15
100
AcDbLine
 10
807.1801921782
 20
73.1125731315
 30
0.0
 11
817.7788218913
 21
73.1125731315
 31
0.0
  0
LINE
  5
B9
330
1F
100
AcDbEntity
  8
0
  6
Continuous
 62
     7
370
    15
100
AcDbLine
 10
807.1801921782
 20
426.1125732507
 30
0.0
 11
817.7788218913
 21
426.1125732507
 31
0.0
  0
LINE
  5
BA
330
1F
100
AcDbEntity
  8
0
  6
Continuous
 62
     7
370
    15
100
AcDbLine
 10
807.1801921782
 20
461.1125845755
 30
0.0
 11
807.1801921782
 21
426.1125732507
 31
0.0
  0
LINE
  5
BB
330
1F
100
AcDbEntity
  8
0
  6
Continuous
 62
     7
370
    15
100
AcDbLine
 10
807.1801921782
 20
461.1125845755
 30
0.0
 11
817.7788218913
 21
461.1125845755
 31
0.0
  0
LINE
  5
BC
330
1F
100
AcDbEntity
  8
0
  6
Continuous
 62
     7
370
    15
100
AcDbLine
 10
806.7166766581
 20
108.1125844563
 30
0.0
 11
806.7166766581
 21
73.1125731315
 31
0.0
  0
LINE
  5
BD
330
1F
100
AcDbEntity
  8
0
  6
Continuous
 62
     7
370
    15
100
AcDbLine
 10
806.7166766581
 20
108.1125844563
 30
0.0
 11
807.1801921782
 21
108.1125844563
 31
0.0
  0
LINE
  5
BE
330
1F
100
AcDbEntity
  8
0
  6
Continuous
 62
     7
370
    15
100
AcDbLine
 10
806.7166766581
 20
73.1125731315
 30
0.0
 11
807.1801921782
 21
73.1125731315
 31
0.0
  0
LINE
  5
BF
330
1F
100
AcDbEntity
  8
0
  6
Continuous
 62
     7
370
    15
100
AcDbLine
 10
806.7166766581
 20
461.1125845755
 30
0.0
 11
806.7166766581
 21
426.1125732507
 31
0.0
  0
LINE
  5
C0
330
1F
100
AcDbEntity
  8
0
  6
Continuous
 62
     7
370
    15
100
AcDbLine
 10
806.7166766581
 20
461.1125845755
 30
0.0
 11
807.1801921782
 21
461.1125845755
 31
0.0
  0
LINE
  5
C1
330
1F
100
AcDbEntity
  8
0
  6
Continuous
 62
     7
370
    15
100
AcDbLine
 10
806.7166766581
 20
426.1125732507
 30
0.0
 11
807.1801921782
 21
426.1125732507
 31
0.0
  0
LINE
  5
C2
330
1F
100
AcDbEntity
  8
0
  6
Continuous
 62
     7
370
    15
100
AcDbLine
 10
806.2788209376
 20
108.1125844563
 30
0.0
 11
806.7166766581
 21
108.1125844563
 31
0.0
  0
LINE
  5
C3
330
1F
100
AcDbEntity
  8
0
  6
Continuous
 62
     7
370
    15
100
AcDbLine
 10
806.2788209376
 20
73.1125731315
 30
0.0
 11
806.7166766581
 21
73.1125731315
 31
0.0
  0
LINE
  5
C4
330
1F
100
AcDbEntity
  8
0
  6
Continuous
 62
     7
370
    15
100
AcDbLine
 10
806.2788209376
 20
461.1125845755
 30
0.0
 11
806.7166766581
 21
461.1125845755
 31
0.0
  0
LINE
  5
C5
330
1F
100
AcDbEntity
  8
0
  6
Continuous
 62
     7
370
    15
100
AcDbLine
 10
806.2788209376
 20
426.1125732507
 30
0.0
 11
806.7166766581
 21
426.1125732507
 31
0.0
  0
LINE
  5
C6
330
1F
100
AcDbEntity
  8
0
  6
Continuous
 62
     7
370
    15
100
AcDbLine
 10
298.0093321261
 20
87.4125767793
 30
0.0
 11
297.2788175997
 21
87.4125767793
 31
0.0
  0
LINE
  5
C7
330
1F
100
AcDbEntity
  8
0
  6
Continuous
 62
     7
370
    15
100
AcDbLine
 10
298.0093321261
 20
87.4125767793
 30
0.0
 11
298.0093321261
 21
76.8125761594
 31
0.0
  0
LINE
  5
C8
330
1F
100
AcDbEntity
  8
0
  6
Continuous
 62
     7
370
    15
100
AcDbLine
 10
297.2788175997
 20
76.8125761594
 30
0.0
 11
298.0093321261
 21
76.8125761594
 31
0.0
  0
LINE
  5
C9
330
1F
100
AcDbEntity
  8
0
  6
Continuous
 62
     7
370
    15
100
AcDbLine
 10
297.2788175997
 20
87.4125767793
 30
0.0
 11
297.2788175997
 21
76.8125761594
 31
0.0
  0
ARC
  5
CA
330
1F
100
AcDbEntity
  8
0
  6
Continuous
 62
     7
370
    15
100
AcDbCircle
 10
299.1014976758
 20
87.5237529108
 30
0.0
 40
1.097809509998414
100
AcDbArc
 50
97.3335515103
 51
185.8123579011
  0
LINE
  5
CB
330
1F
100
AcDbEntity
  8
0
  6
Continuous
 62
     7
370
    15
100
AcDbLine
 10
298.9613673148
 20
88.6125821914
 30
0.0
 11
302.504803842
 21
88.6125821914
 31
0.0
  0
LINE
  5
CC
330
1F
100
AcDbEntity
  8
0
  6
Continuous
 62
     7
370
    15
100
AcDbLine
 10
302.504803842
 20
88.6125821914
 30
0.0
 11
302.504803842
 21
75.6125856484
 31
0.0
  0
LINE
  5
CD
330
1F
100
AcDbEntity
  8
0
  6
Continuous
 62
     7
370
    15
100
AcDbLine
 10
302.504803842
 20
75.6125856484
 30
0.0
 11
298.9613673148
 21
75.6125856484
 31
0.0
  0
ARC
  5
CE
330
1F
100
AcDbEntity
  8
0
  6
Continuous
 62
     7
370
    15
100
AcDbCircle
 10
299.1014802734
 20
76.701399742
 30
0.0
 40
1.097792225978379
100
AcDbArc
 50
174.1875352754
 51
262.6672481484
  0
LINE
  5
CF
330
1F
100
AcDbEntity
  8
0
  6
Continuous
 62
     7
370
    15
100
AcDbLine
 10
298.9613673148
 20
75.6125856484
 30
0.0
 11
298.2308527884
 21
75.6125856484
 31
0.0
  0
ARC
  5
D0
330
1F
100
AcDbEntity
  8
0
  6
Continuous
 62
     7
370
    15
100
AcDbCircle
 10
298.370965747
 20
76.701399742
 30
0.0
 40
1.097792225978378
100
AcDbArc
 50
174.1875352754
 51
262.6672481484
  0
LINE
  5
D1
330
1F
100
AcDbEntity
  8
0
  6
Continuous
 62
     7
370
    15
100
AcDbLine
 10
298.2308527884
 20
88.6125821914
 30
0.0
 11
298.9613673148
 21
88.6125821914
 31
0.0
  0
ARC
  5
D2
330
1F
100
AcDbEntity
  8
0
  6
Continuous
 62
     7
370
    15
100
AcDbCircle
 10
298.3709831495
 20
87.5237529108
 30
0.0
 40
1.097809509998414
100
AcDbArc
 50
97.3335515103
 51
185.8123579011
  0
LINE
  5
D3
330
1F
100
AcDbEntity
  8
0
  6
Continuous
 62
     7
370
    15
100
AcDbLine
 10
298.9613673148
 20
445.6125755156
 30
0.0
 11
298.2308527884
 21
445.6125755156
 31
0.0
  0
ARC
  5
D4
330
1F
100
AcDbEntity
  8
0
  6
Continuous
 62
     7
370
    15
100
AcDbCircle
 10
298.3709831495
 20
446.7014047962
 30
0.0
 40
1.097809509998475
100
AcDbArc
 50
174.1876420989
 51
262.6664484898
  0
LINE
  5
D5
330
1F
100
AcDbEntity
  8
0
  6
Continuous
 62
     7
370
    15
100
AcDbLine
 10
297.2788175997
 20
446.8125809277
 30
0.0
 11
298.0093321261
 21
446.8125809277
 31
0.0
  0
ARC
  5
D6
330
1F
100
AcDbEntity
  8
0
  6
Continuous
 62
     7
370
    15
100
AcDbCircle
 10
299.1014976758
 20
446.7014047962
 30
0.0
 40
1.097809509998475
100
AcDbArc
 50
174.1876420989
 51
262.6664484898
  0
ARC
  5
D7
330
1F
100
AcDbEntity
  8
0
  6
Continuous
 62
     7
370
    15
100
AcDbCircle
 10
299.1014802734
 20
457.5237579651
 30
0.0
 40
1.097792225978379
100
AcDbArc
 50
97.3327518516
 51
185.8124647246
  0
LINE
  5
D8
330
1F
100
AcDbEntity
  8
0
  6
Continuous
 62
     7
370
    15
100
AcDbLine
 10
298.9613673148
 20
458.6125720586
 30
0.0
 11
302.504803842
 21
458.6125720586
 31
0.0
  0
LINE
  5
D9
330
1F
100
AcDbEntity
  8
0
  6
Continuous
 62
     7
370
    15
100
AcDbLine
 10
302.504803842
 20
458.6125720586
 30
0.0
 11
302.504803842
 21
445.6125755156
 31
0.0
  0
LINE
  5
DA
330
1F
100
AcDbEntity
  8
0
  6
Continuous
 62
     7
370
    15
100
AcDbLine
 10
302.504803842
 20
445.6125755156
 30
0.0
 11
298.9613673148
 21
445.6125755156
 31
0.0
  0
LINE
  5
DB
330
1F
100
AcDbEntity
  8
0
  6
Continuous
 62
     7
370
    15
100
AcDbLine
 10
298.0093321261
 20
457.4125815476
 30
0.0
 11
298.0093321261
 21
446.8125809277
 31
0.0
  0
LINE
  5
DC
330
1F
100
AcDbEntity
  8
0
  6
Continuous
 62
     7
370
    15
100
AcDbLine
 10
298.0093321261
 20
457.4125815476
 30
0.0
 11
297.2788175997
 21
457.4125815476
 31
0.0
  0
LINE
  5
DD
330
1F
100
AcDbEntity
  8
0
  6
Continuous
 62
     7
370
    15
100
AcDbLine
 10
297.2788175997
 20
457.4125815476
 30
0.0
 11
297.2788175997
 21
446.8125809277
 31
0.0
  0
LINE
  5
DE
330
1F
100
AcDbEntity
  8
0
  6
Continuous
 62
     7
370
    15
100
AcDbLine
 10
298.2308527884
 20
458.6125720586
 30
0.0
 11
298.9613673148
 21
458.6125720586
 31
0.0
  0
ARC
  5
DF
330
1F
100
AcDbEntity
  8
0
  6
Continuous
 62
     7
370
    15
100
AcDbCircle
 10
298.370965747
 20
457.5237579651
 30
0.0
 40
1.097792225978379
100
AcDbArc
 50
97.3327518516
 51
185.8124647246
  0
LINE
  5
E0
330
1F
100
AcDbEntity
  8
0
  6
Continuous
 62
     7
370
    15
100
AcDbLine
 10
302.5863429961
 20
88.6125821914
 30
0.0
 11
302.504803842
 21
88.6125821914
 31
0.0
  0
LINE
  5
E1
330
1F
100
AcDbEntity
  8
0
  6
Continuous
 62
     7
370
    15
100
AcDbLine
 10
302.504803842
 20
75.6125856484
 30
0.0
 11
302.6383480487
 21
75.6125856484
 31
0.0
  0
LINE
  5
E2
330
1F
100
AcDbEntity
  8
0
  6
Continuous
 62
     7
370
    15
100
AcDbLine
 10
302.6047608313
 20
458.6125720586
 30
0.0
 11
302.504803842
 21
458.6125720586
 31
0.0
  0
LINE
  5
E3
330
1F
100
AcDbEntity
  8
0
  6
Continuous
 62
     7
370
    15
100
AcDbLine
 10
302.504803842
 20
445.6125755156
 30
0.0
 11
302.6383480487
 21
445.6125755156
 31
0.0
  0
SPLINE
  5
E4
330
1F
100
AcDbEntity
  8
0
  6
Continuous
 62
     7
370
    15
100
AcDbSpline
210
0.0
220
0.0
230
1.0
 70
    24
 71
     3
 72
    12
 73
     8
 74
     0
 42
0.00000001
 43
0.00000001
 40
0.0
 40
0.0
 40
0.0
 40
0.0
 40
0.2185036703395748
 40
0.437006665326243
 40
0.6555196009484969
 40
0.8740249421684808
 40
0.9999999999999999
 40
0.9999999999999999
 40
0.9999999999999999
 40
0.9999999999999999
 10
304.4381699022928
 20
88.80497108353624
 30
0.0
 10
304.241450289481
 20
88.80497108353619
 30
0.0
 10
303.8480116718799
 20
88.80497108353619
 30
0.0
 10
303.2872504281005
 20
88.80497108353619
 30
0.0
 10
302.8695741463864
 20
88.80497108353627
 30
0.0
 10
302.6429985192879
 20
88.80497108353627
 30
0.0
 10
302.6605425123955
 20
88.80497108353619
 30
0.0
 10
302.6669582781473
 20
88.80497108353624
 30
0.0
  0
SPLINE
  5
E5
330
1F
100
AcDbEntity
  8
0
  6
Continuous
 62
     7
370
    15
100
AcDbSpline
210
0.0
220
0.0
230
1.0
 70
    24
 71
     3
 72
     9
 73
     5
 74
     0
 42
0.00000001
 43
0.00000001
 40
0.0
 40
0.0
 40
0.0
 40
0.0
 40
0.002514167495053
 40
1.0
 40
1.0
 40
1.0
 40
1.0
 10
304.978813832728
 20
88.80497108353624
 30
0.0
 10
304.9784662717924
 20
88.80497108353624
 30
0.0
 10
304.8402253088063
 20
88.80497108353161
 30
0.0
 10
304.6389445788151
 20
88.80497108353394
 30
0.0
 10
304.4381699022927
 20
88.80497108353622
 30
0.0
  0
SPLINE
  5
E6
330
1F
100
AcDbEntity
  8
0
  6
Continuous
 62
     7
370
    15
100
AcDbSpline
210
0.0
220
0.0
230
1.0
 70
     8
 71
     3
 72
    13
 73
     9
 74
     0
 42
0.00000001
 43
0.00000001
 40
0.0
 40
0.0
 40
0.0
 40
0.0
 40
0.1877395694049195
 40
0.3754720100250568
 40
0.5632106075103803
 40
0.7509495523755451
 40
0.9386874212068979
 40
1.0
 40
1.0
 40
1.0
 40
1.0
 10
304.1448852476755
 20
92.41981397522936
 30
0.0
 10
303.9481887852671
 20
92.41711109095424
 30
0.0
 10
303.5548033293434
 20
92.41170542503698
 30
0.0
 10
303.0217825939702
 20
92.12118423036812
 30
0.0
 10
302.6312605414257
 20
91.66628134629079
 30
0.0
 10
302.4583172189113
 20
91.1045953002646
 30
0.0
 10
302.4615994978814
 20
90.63140447576123
 30
0.0
 10
302.5889148586464
 20
90.40996657933378
 30
0.0
 10
302.6202580389657
 20
90.35545180691726
 30
0.0
  0
SPLINE
  5
E7
330
1F
100
AcDbEntity
  8
0
  6
Continuous
 62
     7
370
    15
100
AcDbSpline
210
0.0
220
0.0
230
1.0
 70
     8
 71
     3
 72
    10
 73
     6
 74
     0
 42
0.00000001
 43
0.00000001
 40
0.0
 40
0.0
 40
0.0
 40
0.0
 40
0.209341314567853
 40
0.6046782396237235
 40
1.0
 40
1.0
 40
1.0
 40
1.0
 10
305.2820524630228
 20
91.61369095696459
 30
0.0
 10
305.2403568278068
 20
91.70676056385247
 30
0.0
 10
305.1199198115665
 20
91.97559027943721
 30
0.0
 10
304.7131734556589
 20
92.2922072678509
 30
0.0
 10
304.3343122281751
 20
92.37727894998932
 30
0.0
 10
304.1448852476755
 20
92.41981397522936
 30
0.0
  0
SPLINE
  5
E8
330
1F
100
AcDbEntity
  8
0
  6
Continuous
 62
     7
370
    15
100
AcDbSpline
210
0.0
220
0.0
230
1.0
 70
     8
 71
     3
 72
    13
 73
     9
 74
     0
 42
0.00000001
 43
0.00000001
 40
0.0
 40
0.0
 40
0.0
 40
0.0
 40
0.1768667616314649
 40
0.3537288912869185
 40
0.530594737286841
 40
0.7074560884089673
 40
0.8843220279613943
 40
1.0
 40
1.0
 40
1.0
 40
1.0
 10
304.1276595053354
 20
71.77662442578325
 30
0.0
 10
303.9309868905593
 20
71.77931662561643
 30
0.0
 10
303.5376468116801
 20
71.7847009547766
 30
0.0
 10
303.0042666138628
 20
72.07538521674434
 30
0.0
 10
302.6151406934362
 20
72.52974105209506
 30
0.0
 10
302.4369758459607
 20
73.09343724956283
 30
0.0
 10
302.45794310044
 20
73.6265768733107
 30
0.0
 10
302.6240251423517
 20
73.89985107533536
 30
0.0
 10
302.6896974501291
 20
74.00790940178881
 30
0.0
  0
SPLINE
  5
E9
330
1F
100
AcDbEntity
  8
0
  6
Continuous
 62
     7
370
    15
100
AcDbSpline
210
0.0
220
0.0
230
1.0
 70
     8
 71
     3
 72
    10
 73
     6
 74
     0
 42
0.00000001
 43
0.00000001
 40
0.0
 40
0.0
 40
0.0
 40
0.0
 40
0.0588229449265306
 40
0.529419407525824
 40
1.0
 40
1.0
 40
1.0
 40
1.0
 10
305.157776778666
 20
72.37653027428634
 30
0.0
 10
305.1471423232103
 20
72.35504924459424
 30
0.0
 10
305.0514298913734
 20
72.16171526536478
 30
0.0
 10
304.6905228157564
 20
71.90757368480553
 30
0.0
 10
304.3152784996861
 20
71.82027368810657
 30
0.0
 10
304.1276595053354
 20
71.77662442578325
 30
0.0
  0
SPLINE
  5
EA
330
1F
100
AcDbEntity
  8
0
  6
Continuous
 62
     7
370
    15
100
AcDbSpline
210
0.0
220
0.0
230
1.0
 70
    24
 71
     3
 72
    12
 73
     8
 74
     0
 42
0.00000001
 43
0.00000001
 40
0.0
 40
0.0
 40
0.0
 40
0.0
 40
0.2193530192757135
 40
0.438705360573346
 40
0.6580676811469597
 40
0.8774223777979869
 40
1.0
 40
1.0
 40
1.0
 40
1.0
 10
304.4381699022928
 20
75.24634490860949
 30
0.0
 10
304.2414549755988
 20
75.24634490860949
 30
0.0
 10
303.8480257302189
 20
75.24634490860952
 30
0.0
 10
303.2871941938819
 20
75.24634490860946
 30
0.0
 10
302.8697850323466
 20
75.24634490860949
 30
0.0
 10
302.6439163396503
 20
75.24634490860946
 30
0.0
 10
302.6609217113709
 20
75.24634490860946
 30
0.0
 10
302.667017882792
 20
75.24634490860946
 30
0.0
  0
SPLINE
  5
EB
330
1F
100
AcDbEntity
  8
0
  6
Continuous
 62
     7
370
    15
100
AcDbSpline
210
0.0
220
0.0
230
1.0
 70
    24
 71
     3
 72
     9
 73
     5
 74
     0
 42
0.00000001
 43
0.00000001
 40
0.0
 40
0.0
 40
0.0
 40
0.0
 40
0.002514167495053
 40
1.0
 40
1.0
 40
1.0
 40
1.0
 10
304.978813832728
 20
75.24634490860949
 30
0.0
 10
304.9784662717924
 20
75.24634490860949
 30
0.0
 10
304.8402253088063
 20
75.24634490860377
 30
0.0
 10
304.6389445788151
 20
75.2463449086066
 30
0.0
 10
304.4381699022927
 20
75.24634490860946
 30
0.0
  0
SPLINE
  5
EC
330
1F
100
AcDbEntity
  8
0
  6
Continuous
 62
     7
370
    15
100
AcDbSpline
210
0.0
220
0.0
230
1.0
 70
     8
 71
     3
 72
    13
 73
     9
 74
     0
 42
0.00000001
 43
0.00000001
 40
0.0
 40
0.0
 40
0.0
 40
0.0
 40
0.1768578919595507
 40
0.3537278527677662
 40
0.5305876148749502
 40
0.707452180799908
 40
0.8843176046508978
 40
1.0
 40
1.0
 40
1.0
 40
1.0
 10
302.5757929739633
 20
95.0362343634511
 30
0.0
 10
302.3791322344551
 20
95.03353842288656
 30
0.0
 10
301.985797335236
 20
95.02814635778533
 30
0.0
 10
301.4524009055305
 20
94.73749419060637
 30
0.0
 10
301.0633148814654
 20
94.28309801691078
 30
0.0
 10
300.8851010879104
 20
93.71943323665901
 30
0.0
 10
300.9060695403107
 20
93.1862700745901
 30
0.0
 10
301.0721768053464
 20
92.91300628503151
 30
0.0
 10
301.1378607210794
 20
92.80494938744555
 30
0.0
  0
SPLINE
  5
ED
330
1F
100
AcDbEntity
  8
0
  6
Continuous
 62
     7
370
    15
100
AcDbSpline
210
0.0
220
0.0
230
1.0
 70
     8
 71
     3
 72
    10
 73
     6
 74
     0
 42
0.00000001
 43
0.00000001
 40
0.0
 40
0.0
 40
0.0
 40
0.0
 40
0.1474531881336079
 40
0.5737191927348994
 40
1.0
 40
1.0
 40
1.0
 40
1.0
 10
303.6643824038186
 20
94.32370553864489
 30
0.0
 10
303.6363255062397
 20
94.38399745129922
 30
0.0
 10
303.52716014445
 20
94.61858463041908
 30
0.0
 10
303.1420931082573
 20
94.90740414293609
 30
0.0
 10
302.7645618704039
 20
94.99329045953498
 30
0.0
 10
302.5757929739633
 20
95.0362343634511
 30
0.0
  0
SPLINE
  5
EE
330
1F
100
AcDbEntity
  8
0
  6
Continuous
 62
     7
370
    15
100
AcDbSpline
210
0.0
220
0.0
230
1.0
 70
     8
 71
     3
 72
    13
 73
     9
 74
     0
 42
0.00000001
 43
0.00000001
 40
0.0
 40
0.0
 40
0.0
 40
0.0
 40
0.1768650341035507
 40
0.3537334191057863
 40
0.5305917210111342
 40
0.7074543974184396
 40
0.884318219437399
 40
1.0
 40
1.0
 40
1.0
 40
1.0
 10
302.5585970339456
 20
69.16020403756151
 30
0.0
 10
302.3619260365414
 20
69.16289858533212
 30
0.0
 10
301.9685803155891
 20
69.1682877319245
 30
0.0
 10
301.4351749574826
 20
69.45894433932098
 30
0.0
 10
301.0460896151838
 20
69.91333960428348
 30
0.0
 10
300.8678750721043
 20
70.47700567648269
 30
0.0
 10
300.8888441989959
 20
71.01016927185394
 30
0.0
 10
301.0549510701485
 20
71.28343220869208
 30
0.0
 10
301.1206349787393
 20
71.39148901356707
 30
0.0
  0
SPLINE
  5
EF
330
1F
100
AcDbEntity
  8
0
  6
Continuous
 62
     7
370
    15
100
AcDbSpline
210
0.0
220
0.0
230
1.0
 70
     8
 71
     3
 72
    10
 73
     6
 74
     0
 42
0.00000001
 43
0.00000001
 40
0.0
 40
0.0
 40
0.0
 40
0.0
 40
0.1474562176505191
 40
0.5737309801504082
 40
1.0
 40
1.0
 40
1.0
 40
1.0
 10
303.6471566614786
 20
69.87273286236773
 30
0.0
 10
303.6190997717203
 20
69.81244093224592
 30
0.0
 10
303.5099344403599
 20
69.5778536851626
 30
0.0
 10
303.1248747493995
 20
69.28904137075759
 30
0.0
 10
302.747355424786
 20
69.20314962244079
 30
0.0
 10
302.5585970339456
 20
69.16020403756151
 30
0.0
  0
LINE
  5
F0
330
1F
100
AcDbEntity
  8
0
  6
Continuous
 62
     7
370
    15
100
AcDbLine
 10
297.2788175997
 20
77.4125714148
 30
0.0
 11
297.1740028319
 21
77.4125714148
 31
0.0
  0
LINE
  5
F1
330
1F
100
AcDbEntity
  8
0
  6
Continuous
 62
     7
370
    15
100
AcDbLine
 10
297.2788175997
 20
86.0125828828
 30
0.0
 11
297.1740028319
 21
86.0125828828
 31
0.0
  0
LINE
  5
F2
330
1F
100
AcDbEntity
  8
0
  6
Continuous
 62
     7
370
    15
100
AcDbLine
 10
302.6047608313
 20
89.3125791396
 30
0.0
 11
297.7788111624
 21
89.3125791396
 31
0.0
  0
LINE
  5
F3
330
1F
100
AcDbEntity
  8
0
  6
Continuous
 62
     7
370
    15
100
AcDbLine
 10
302.6072940287
 20
90.1125777806
 30
0.0
 11
297.7794370112
 21
90.1125777806
 31
0.0
  0
LINE
  5
F4
330
1F
100
AcDbEntity
  8
0
  6
Continuous
 62
     7
370
    15
100
AcDbLine
 10
302.6446959433
 20
74.912573799
 30
0.0
 11
297.7788111624
 21
74.912573799
 31
0.0
  0
LINE
  5
F5
330
1F
100
AcDbEntity
  8
0
  6
Continuous
 62
     7
370
    15
100
AcDbLine
 10
302.6529809889
 20
74.112575158
 30
0.0
 11
297.7794370112
 21
74.112575158
 31
0.0
  0
LINE
  5
F6
330
1F
100
AcDbEntity
  8
0
  6
Continuous
 62
     7
370
    15
100
AcDbLine
 10
301.3788124976
 20
90.4125828589
 30
0.0
 11
302.5421759543
 21
90.4125828589
 31
0.0
  0
LINE
  5
F7
330
1F
100
AcDbEntity
  8
0
  6
Continuous
 62
     7
370
    15
100
AcDbLine
 10
302.7053436694
 20
90.4125828589
 30
0.0
 11
302.7676603255
 21
90.4125828589
 31
0.0
  0
LINE
  5
F8
330
1F
100
AcDbEntity
  8
0
  6
Continuous
 62
     7
370
    15
100
AcDbLine
 10
299.1788348612
 20
90.4125828589
 30
0.0
 11
301.3788124976
 21
90.4125828589
 31
0.0
  0
LINE
  5
F9
330
1F
100
AcDbEntity
  8
0
  6
Continuous
 62
     7
370
    15
100
AcDbLine
 10
301.3788124976
 20
73.312576517
 30
0.0
 11
302.2423347888
 21
73.312576517
 31
0.0
  0
LINE
  5
FA
330
1F
100
AcDbEntity
  8
0
  6
Continuous
 62
     7
370
    15
100
AcDbLine
 10
299.2788216529
 20
73.312576517
 30
0.0
 11
301.3788124976
 21
73.312576517
 31
0.0
  0
LINE
  5
FB
330
1F
100
AcDbEntity
  8
0
  6
Continuous
 62
     7
370
    15
100
AcDbLine
 10
301.3788124976
 20
73.7125832881
 30
0.0
 11
302.4822136817
 21
73.7125832881
 31
0.0
  0
LINE
  5
FC
330
1F
100
AcDbEntity
  8
0
  6
Continuous
 62
     7
370
    15
100
AcDbLine
 10
299.2788216529
 20
73.7125832881
 30
0.0
 11
301.3788124976
 21
73.7125832881
 31
0.0
  0
ARC
  5
FD
330
1F
100
AcDbEntity
  8
0
  6
Continuous
 62
     7
370
    15
100
AcDbCircle
 10
298.2447666284
 20
74.9104151582
 30
0.0
 40
0.8029034246593127
100
AcDbArc
 50
179.8459576192
 51
234.5256721179
  0
ARC
  5
FE
330
1F
100
AcDbEntity
  8
0
  6
Continuous
 62
     7
370
    15
100
AcDbCircle
 10
298.2447784719
 20
89.3147465494
 30
0.0
 40
0.8029152918097077
100
AcDbArc
 50
125.4747622064
 51
180.154665862
  0
LINE
  5
FF
330
1F
100
AcDbEntity
  8
0
  6
Continuous
 62
     7
370
    15
100
AcDbLine
 10
298.2297203002
 20
75.3625739659
 30
0.0
 11
298.2297203002
 21
74.912573799
 31
0.0
  0
LINE
  5
100
330
1F
100
AcDbEntity
  8
0
  6
Continuous
 62
     7
370
    15
100
AcDbLine
 10
298.2297203002
 20
89.3125791396
 30
0.0
 11
298.2297203002
 21
88.8625789727
 31
0.0
  0
LINE
  5
101
330
1F
100
AcDbEntity
  8
0
  6
Continuous
 62
     7
370
    15
100
AcDbLine
 10
297.4418661055
 20
88.0841423119
 30
0.0
 11
297.4418661055
 21
89.3125791396
 31
0.0
  0
LINE
  5
102
330
1F
100
AcDbEntity
  8
0
  6
Continuous
 62
     7
370
    15
100
AcDbLine
 10
297.4418661055
 20
74.912573799
 30
0.0
 11
297.4418661055
 21
76.1410255278
 31
0.0
  0
SPLINE
  5
103
330
1F
100
AcDbEntity
  8
0
  6
Continuous
 62
     7
370
    15
100
AcDbSpline
210
0.0
220
0.0
230
1.0
 70
    24
 71
     3
 72
    12
 73
     8
 74
     0
 42
0.00000001
 43
0.00000001
 40
0.0
 40
0.0
 40
0.0
 40
0.0
 40
0.2185036703395748
 40
0.437006665326243
 40
0.6555196009484969
 40
0.8740249421684808
 40
0.9999999999999999
 40
0.9999999999999999
 40
0.9999999999999999
 40
0.9999999999999999
 10
304.4381699022928
 20
458.8049758519078
 30
0.0
 10
304.241450289481
 20
458.8049758519079
 30
0.0
 10
303.8480116718799
 20
458.8049758519079
 30
0.0
 10
303.2872504281005
 20
458.8049758519078
 30
0.0
 10
302.8695741463864
 20
458.8049758519078
 30
0.0
 10
302.6429985192879
 20
458.8049758519077
 30
0.0
 10
302.6605425123955
 20
458.8049758519078
 30
0.0
 10
302.6669582781473
 20
458.8049758519078
 30
0.0
  0
SPLINE
  5
104
330
1F
100
AcDbEntity
  8
0
  6
Continuous
 62
     7
370
    15
100
AcDbSpline
210
0.0
220
0.0
230
1.0
 70
    24
 71
     3
 72
     9
 73
     5
 74
     0
 42
0.00000001
 43
0.00000001
 40
0.0
 40
0.0
 40
0.0
 40
0.0
 40
0.1970282982560592
 40
0.9999999999999999
 40
0.9999999999999999
 40
0.9999999999999999
 40
0.9999999999999999
 10
305.0788304266611
 20
458.8049758519078
 30
0.0
 10
305.0461731535995
 20
458.8049758519078
 30
0.0
 10
304.880424003094
 20
458.8049758519078
 30
0.0
 10
304.6351322437316
 20
458.8049758519079
 30
0.0
 10
304.4381699022927
 20
458.8049758519078
 30
0.0
  0
SPLINE
  5
105
330
1F
100
AcDbEntity
  8
0
  6
Continuous
 62
     7
370
    15
100
AcDbSpline
210
0.0
220
0.0
230
1.0
 70
     8
 71
     3
 72
    13
 73
     9
 74
     0
 42
0.00000001
 43
0.00000001
 40
0.0
 40
0.0
 40
0.0
 40
0.0
 40
0.187740000413576
 40
0.3754750840911282
 40
0.5632141125828769
 40
0.7509489806106309
 40
0.9386872804467359
 40
1.0
 40
1.0
 40
1.0
 40
1.0
 10
304.1448852476755
 20
462.419818743601
 30
0.0
 10
303.9481881455877
 20
462.4171170781516
 30
0.0
 10
303.5547990927262
 20
462.411713818007
 30
0.0
 10
303.0217861949735
 20
462.1211715365665
 30
0.0
 10
302.6312641019099
 20
461.6662756784785
 30
0.0
 10
302.4583153102557
 20
461.1045956374924
 30
0.0
 10
302.4615996296464
 20
460.6314092134479
 30
0.0
 10
302.5889148846769
 20
460.4099713416435
 30
0.0
 10
302.6202580389657
 20
460.3554565752889
 30
0.0
  0
SPLINE
  5
106
330
1F
100
AcDbEntity
  8
0
  6
Continuous
 62
     7
370
    15
100
AcDbSpline
210
0.0
220
0.0
230
1.0
 70
     8
 71
     3
 72
    10
 73
     6
 74
     0
 42
0.00000001
 43
0.00000001
 40
0.0
 40
0.0
 40
0.0
 40
0.0
 40
0.2093330610731358
 40
0.6046772709239069
 40
0.9999999999999999
 40
0.9999999999999999
 40
0.9999999999999999
 40
0.9999999999999999
 10
305.2820524630228
 20
461.6136957253362
 30
0.0
 10
305.2403557701841
 20
461.7067595115999
 30
0.0
 10
305.1199111433152
 20
461.9755825824103
 30
0.0
 10
304.7131796287042
 20
462.2922147434095
 30
0.0
 10
304.334313277015
 20
462.377284847263
 30
0.0
 10
304.1448852476755
 20
462.419818743601
 30
0.0
  0
SPLINE
  5
107
330
1F
100
AcDbEntity
  8
0
  6
Continuous
 62
     7
370
    15
100
AcDbSpline
210
0.0
220
0.0
230
1.0
 70
     8
 71
     3
 72
    13
 73
     9
 74
     0
 42
0.00000001
 43
0.00000001
 40
0.0
 40
0.0
 40
0.0
 40
0.0
 40
0.17686566111666
 40
0.353727114754838
 40
0.5305922847232801
 40
0.7074572065948584
 40
0.8843224701154473
 40
0.9999999999999999
 40
0.9999999999999999
 40
0.9999999999999999
 40
0.9999999999999999
 10
304.1276595053354
 20
441.7766291941549
 30
0.0
 10
303.9309867537367
 20
441.7793151548787
 30
0.0
 10
303.5376459292111
 20
441.7846870124299
 30
0.0
 10
303.0042669982352
 20
442.0753762579824
 30
0.0
 10
302.6151364971624
 20
442.52973390196
 30
0.0
 10
302.4369777808701
 20
443.0934380196143
 30
0.0
 10
302.4579427772644
 20
443.6265815161794
 30
0.0
 10
302.6240250507734
 20
443.8998558081431
 30
0.0
 10
302.6896974501291
 20
444.0079141701604
 30
0.0
  0
SPLINE
  5
108
330
1F
100
AcDbEntity
  8
0
  6
Continuous
 62
     7
370
    15
100
AcDbSpline
210
0.0
220
0.0
230
1.0
 70
     8
 71
     3
 72
    10
 73
     6
 74
     0
 42
0.00000001
 43
0.00000001
 40
0.0
 40
0.0
 40
0.0
 40
0.0
 40
0.0588227060744696
 40
0.5294247762594761
 40
1.0
 40
1.0
 40
1.0
 40
1.0
 10
305.1577767786661
 20
442.376535042658
 30
0.0
 10
305.1471422917635
 20
442.3550540557978
 30
0.0
 10
305.0514282176456
 20
442.1617177164613
 30
0.0
 10
304.6905310188444
 20
441.9075577481415
 30
0.0
 10
304.3152797752425
 20
441.820271215554
 30
0.0
 10
304.1276595053354
 20
441.7766291941549
 30
0.0
  0
SPLINE
  5
109
330
1F
100
AcDbEntity
  8
0
  6
Continuous
 62
     7
370
    15
100
AcDbSpline
210
0.0
220
0.0
230
1.0
 70
    24
 71
     3
 72
    12
 73
     8
 74
     0
 42
0.00000001
 43
0.00000001
 40
0.0
 40
0.0
 40
0.0
 40
0.0
 40
0.2193530192757135
 40
0.438705360573346
 40
0.6580676811469597
 40
0.8774223777979869
 40
1.0
 40
1.0
 40
1.0
 40
1.0
 10
304.4381699022928
 20
445.2463496769811
 30
0.0
 10
304.2414549755988
 20
445.2463496769811
 30
0.0
 10
303.8480257302189
 20
445.2463496769811
 30
0.0
 10
303.2871941938819
 20
445.2463496769811
 30
0.0
 10
302.8697850323466
 20
445.2463496769811
 30
0.0
 10
302.6439163396503
 20
445.2463496769811
 30
0.0
 10
302.6609217113709
 20
445.2463496769811
 30
0.0
 10
302.667017882792
 20
445.2463496769811
 30
0.0
  0
SPLINE
  5
10A
330
1F
100
AcDbEntity
  8
0
  6
Continuous
 62
     7
370
    15
100
AcDbSpline
210
0.0
220
0.0
230
1.0
 70
    24
 71
     3
 72
     9
 73
     5
 74
     0
 42
0.00000001
 43
0.00000001
 40
0.0
 40
0.0
 40
0.0
 40
0.0
 40
0.1970282982560592
 40
0.9999999999999999
 40
0.9999999999999999
 40
0.9999999999999999
 40
0.9999999999999999
 10
305.0788304266611
 20
445.2463496769811
 30
0.0
 10
305.0461731535995
 20
445.2463496769811
 30
0.0
 10
304.880424003094
 20
445.246349676981
 30
0.0
 10
304.6351322437316
 20
445.2463496769811
 30
0.0
 10
304.4381699022927
 20
445.2463496769811
 30
0.0
  0
SPLINE
  5
10B
330
1F
100
AcDbEntity
  8
0
  6
Continuous
 62
     7
370
    15
100
AcDbSpline
210
0.0
220
0.0
230
1.0
 70
     8
 71
     3
 72
    13
 73
     9
 74
     0
 42
0.00000001
 43
0.00000001
 40
0.0
 40
0.0
 40
0.0
 40
0.0
 40
0.1768568489331523
 40
0.3537261911734089
 40
0.5305853347483019
 40
0.7074492821241682
 40
0.8843140874230662
 40
1.0
 40
1.0
 40
1.0
 40
1.0
 10
302.5757929739633
 20
465.0362242306615
 30
0.0
 10
302.3791321270576
 20
465.0335345244275
 30
0.0
 10
301.985796540969
 20
465.0281549219566
 30
0.0
 10
301.4524009367345
 20
464.7374978416427
 30
0.0
 10
301.0633151241373
 20
464.2831032264186
 30
0.0
 10
300.8851000859801
 20
463.7194373578043
 30
0.0
 10
300.9060729309076
 20
463.1862722140206
 30
0.0
 10
301.0721768014359
 20
462.9130012170302
 30
0.0
 10
301.1378607210794
 20
462.8049392546559
 30
0.0
  0
SPLINE
  5
10C
330
1F
100
AcDbEntity
  8
0
  6
Continuous
 62
     7
370
    15
100
AcDbSpline
210
0.0
220
0.0
230
1.0
 70
     8
 71
     3
 72
    10
 73
     6
 74
     0
 42
0.00000001
 43
0.00000001
 40
0.0
 40
0.0
 40
0.0
 40
0.0
 40
0.1474536499754668
 40
0.5737209896952892
 40
0.9999999999999999
 40
0.9999999999999999
 40
0.9999999999999999
 40
0.9999999999999999
 10
303.6643824038186
 20
464.3237103070165
 30
0.0
 10
303.6363254888791
 20
464.3840021614848
 30
0.0
 10
303.5271600595419
 20
464.6185891142115
 30
0.0
 10
303.1420954859681
 20
464.9074119335638
 30
0.0
 10
302.7645622006607
 20
464.9932864064477
 30
0.0
 10
302.5757929739632
 20
465.0362242306615
 30
0.0
  0
SPLINE
  5
10D
330
1F
100
AcDbEntity
  8
0
  6
Continuous
 62
     7
370
    15
100
AcDbSpline
210
0.0
220
0.0
230
1.0
 70
     8
 71
     3
 72
    13
 73
     9
 74
     0
 42
0.00000001
 43
0.00000001
 40
0.0
 40
0.0
 40
0.0
 40
0.0
 40
0.1768639336190619
 40
0.3537316425996797
 40
0.5305892685219492
 40
0.7074555155784291
 40
0.8843186615932112
 40
1.0
 40
1.0
 40
1.0
 40
1.0
 10
302.5585970339456
 20
439.1602088059331
 30
0.0
 10
302.3619258997077
 20
439.1628971146051
 30
0.0
 10
301.9685794330632
 20
439.1682737893342
 30
0.0
 10
301.435175341954
 20
439.4589353806112
 30
0.0
 10
301.0460854190067
 20
439.9133324541169
 30
0.0
 10
300.8678770072238
 20
440.4770064466891
 30
0.0
 10
300.8888438757723
 20
441.0101739146851
 30
0.0
 10
301.0549509785548
 20
441.2834369414884
 30
0.0
 10
301.1206349787393
 20
441.3914937819387
 30
0.0
  0
SPLINE
  5
10E
330
1F
100
AcDbEntity
  8
0
  6
Continuous
 62
     7
370
    15
100
AcDbSpline
210
0.0
220
0.0
230
1.0
 70
     8
 71
     3
 72
    10
 73
     6
 74
     0
 42
0.00000001
 43
0.00000001
 40
0.0
 40
0.0
 40
0.0
 40
0.0
 40
0.1474647381230586
 40
0.5737368065240295
 40
1.0
 40
1.0
 40
1.0
 40
1.0
 10
303.6471566614786
 20
439.8727376307393
 30
0.0
 10
303.6191003022938
 20
439.8124404549298
 30
0.0
 10
303.5099422342282
 20
439.5778439708368
 30
0.0
 10
303.1248756705501
 20
439.2890291077441
 30
0.0
 10
302.7473552694798
 20
439.2031486085303
 30
0.0
 10
302.5585970339456
 20
439.1602088059331
 30
0.0
  0
LINE
  5
10F
330
1F
100
AcDbEntity
  8
0
  6
Continuous
 62
     7
370
    15
100
AcDbLine
 10
297.2788175997
 20
456.01257275
 30
0.0
 11
297.1740028319
 21
456.01257275
 31
0.0
  0
LINE
  5
110
330
1F
100
AcDbEntity
  8
0
  6
Continuous
 62
     7
370
    15
100
AcDbLine
 10
297.2788175997
 20
447.4125761832
 30
0.0
 11
297.1740028319
 21
447.4125761832
 31
0.0
  0
LINE
  5
111
330
1F
100
AcDbEntity
  8
0
  6
Continuous
 62
     7
370
    15
100
AcDbLine
 10
302.6047608313
 20
444.9125785674
 30
0.0
 11
297.7788111624
 21
444.9125785674
 31
0.0
  0
LINE
  5
112
330
1F
100
AcDbEntity
  8
0
  6
Continuous
 62
     7
370
    15
100
AcDbLine
 10
302.6606699881
 20
444.1125799264
 30
0.0
 11
297.7794370112
 21
444.1125799264
 31
0.0
  0
LINE
  5
113
330
1F
100
AcDbEntity
  8
0
  6
Continuous
 62
     7
370
    15
100
AcDbLine
 10
302.6047608313
 20
459.312583908
 30
0.0
 11
297.7788111624
 21
459.312583908
 31
0.0
  0
LINE
  5
114
330
1F
100
AcDbEntity
  8
0
  6
Continuous
 62
     7
370
    15
100
AcDbLine
 10
302.7088901457
 20
460.112582549
 30
0.0
 11
297.7794370112
 21
460.112582549
 31
0.0
  0
LINE
  5
115
330
1F
100
AcDbEntity
  8
0
  6
Continuous
 62
     7
370
    15
100
AcDbLine
 10
301.3788124976
 20
460.4125727261
 30
0.0
 11
302.5421759543
 21
460.4125727261
 31
0.0
  0
LINE
  5
116
330
1F
100
AcDbEntity
  8
0
  6
Continuous
 62
     7
370
    15
100
AcDbLine
 10
299.1788348612
 20
460.4125727261
 30
0.0
 11
301.3788124976
 21
460.4125727261
 31
0.0
  0
LINE
  5
117
330
1F
100
AcDbEntity
  8
0
  6
Continuous
 62
     7
370
    15
100
AcDbLine
 10
301.3788124976
 20
443.3125812854
 30
0.0
 11
302.2423347888
 21
443.3125812854
 31
0.0
  0
LINE
  5
118
330
1F
100
AcDbEntity
  8
0
  6
Continuous
 62
     7
370
    15
100
AcDbLine
 10
299.2788216529
 20
443.3125812854
 30
0.0
 11
301.3788124976
 21
443.3125812854
 31
0.0
  0
LINE
  5
119
330
1F
100
AcDbEntity
  8
0
  6
Continuous
 62
     7
370
    15
100
AcDbLine
 10
301.3788124976
 20
443.7125731553
 30
0.0
 11
302.4822136817
 21
443.7125731553
 31
0.0
  0
LINE
  5
11A
330
1F
100
AcDbEntity
  8
0
  6
Continuous
 62
     7
370
    15
100
AcDbLine
 10
299.2788216529
 20
443.7125731553
 30
0.0
 11
301.3788124976
 21
443.7125731553
 31
0.0
  0
ARC
  5
11B
330
1F
100
AcDbEntity
  8
0
  6
Continuous
 62
     7
370
    15
100
AcDbCircle
 10
298.2447666284
 20
459.3147425488
 30
0.0
 40
0.8029034246593127
100
AcDbArc
 50
125.4743278821
 51
180.1540423808
  0
ARC
  5
11C
330
1F
100
AcDbEntity
  8
0
  6
Continuous
 62
     7
370
    15
100
AcDbCircle
 10
298.2447784719
 20
444.9104111576
 30
0.0
 40
0.8029152918097094
100
AcDbArc
 50
179.845334138
 51
234.5252377936
  0
LINE
  5
11D
330
1F
100
AcDbEntity
  8
0
  6
Continuous
 62
     7
370
    15
100
AcDbLine
 10
298.2297203002
 20
445.3625787343
 30
0.0
 11
298.2297203002
 21
444.9125785674
 31
0.0
  0
LINE
  5
11E
330
1F
100
AcDbEntity
  8
0
  6
Continuous
 62
     7
370
    15
100
AcDbLine
 10
298.2297203002
 20
459.312583908
 30
0.0
 11
298.2297203002
 21
458.8625837411
 31
0.0
  0
LINE
  5
11F
330
1F
100
AcDbEntity
  8
0
  6
Continuous
 62
     7
370
    15
100
AcDbLine
 10
297.4418661055
 20
444.9125785674
 30
0.0
 11
297.4418661055
 21
446.1410153951
 31
0.0
  0
LINE
  5
120
330
1F
100
AcDbEntity
  8
0
  6
Continuous
 62
     7
370
    15
100
AcDbLine
 10
297.4418661055
 20
458.0841321792
 30
0.0
 11
297.4418661055
 21
459.312583908
 31
0.0
  0
LINE
  5
121
330
1F
100
AcDbEntity
  8
0
  6
Continuous
 62
     7
370
    15
100
AcDbLine
 10
807.1801921782
 20
72.1125860061
 30
0.0
 11
807.1801921782
 21
37.1125746812
 31
0.0
  0
LINE
  5
122
330
1F
100
AcDbEntity
  8
0
  6
Continuous
 62
     7
370
    15
100
AcDbLine
 10
817.7788218913
 20
72.1125860061
 30
0.0
 11
807.1801921782
 21
72.1125860061
 31
0.0
  0
LINE
  5
123
330
1F
100
AcDbEntity
  8
0
  6
Continuous
 62
     7
370
    15
100
AcDbLine
 10
817.7788218913
 20
37.1125746812
 30
0.0
 11
807.1801921782
 21
37.1125746812
 31
0.0
  0
LINE
  5
124
330
1F
100
AcDbEntity
  8
0
  6
Continuous
 62
     7
370
    15
100
AcDbLine
 10
807.1801921782
 20
497.1125830258
 30
0.0
 11
807.1801921782
 21
462.1125717009
 31
0.0
  0
LINE
  5
125
330
1F
100
AcDbEntity
  8
0
  6
Continuous
 62
     7
370
    15
100
AcDbLine
 10
817.7788218913
 20
497.1125830258
 30
0.0
 11
807.1801921782
 21
497.1125830258
 31
0.0
  0
LINE
  5
126
330
1F
100
AcDbEntity
  8
0
  6
Continuous
 62
     7
370
    15
100
AcDbLine
 10
817.7788218913
 20
462.1125717009
 30
0.0
 11
807.1801921782
 21
462.1125717009
 31
0.0
  0
LINE
  5
127
330
1F
100
AcDbEntity
  8
0
  6
Continuous
 62
     7
370
    15
100
AcDbLine
 10
814.7788307128
 20
109.1125715817
 30
0.0
 11
809.7788354811
 21
109.1125715817
 31
0.0
  0
LINE
  5
128
330
1F
100
AcDbEntity
  8
0
  6
Continuous
 62
     7
370
    15
100
AcDbLine
 10
809.7788354811
 20
425.1125861253
 30
0.0
 11
814.7788307128
 21
425.1125861253
 31
0.0
  0
LINE
  5
129
330
1F
100
AcDbEntity
  8
0
  6
Continuous
 62
     7
370
    15
100
AcDbLine
 10
806.7166766581
 20
37.1125746812
 30
0.0
 11
806.7166766581
 21
72.1125860061
 31
0.0
  0
LINE
  5
12A
330
1F
100
AcDbEntity
  8
0
  6
Continuous
 62
     7
370
    15
100
AcDbLine
 10
806.7166766581
 20
72.1125860061
 30
0.0
 11
807.1801921782
 21
72.1125860061
 31
0.0
  0
LINE
  5
12B
330
1F
100
AcDbEntity
  8
0
  6
Continuous
 62
     7
370
    15
100
AcDbLine
 10
807.1801921782
 20
37.1125746812
 30
0.0
 11
806.7166766581
 21
37.1125746812
 31
0.0
  0
LINE
  5
12C
330
1F
100
AcDbEntity
  8
0
  6
Continuous
 62
     7
370
    15
100
AcDbLine
 10
806.7166766581
 20
462.1125717009
 30
0.0
 11
806.7166766581
 21
497.1125830258
 31
0.0
  0
LINE
  5
12D
330
1F
100
AcDbEntity
  8
0
  6
Continuous
 62
     7
370
    15
100
AcDbLine
 10
807.1801921782
 20
462.1125717009
 30
0.0
 11
806.7166766581
 21
462.1125717009
 31
0.0
  0
LINE
  5
12E
330
1F
100
AcDbEntity
  8
0
  6
Continuous
 62
     7
370
    15
100
AcDbLine
 10
806.7166766581
 20
497.1125830258
 30
0.0
 11
807.1801921782
 21
497.1125830258
 31
0.0
  0
LINE
  5
12F
330
1F
100
AcDbEntity
  8
0
  6
Continuous
 62
     7
370
    15
100
AcDbLine
 10
806.7166766581
 20
462.1125717009
 30
0.0
 11
806.2788209376
 21
462.1125717009
 31
0.0
  0
LINE
  5
130
330
1F
100
AcDbEntity
  8
0
  6
Continuous
 62
     7
370
    15
100
AcDbLine
 10
806.7166766581
 20
497.1125830258
 30
0.0
 11
806.2788209376
 21
497.1125830258
 31
0.0
  0
LINE
  5
131
330
1F
100
AcDbEntity
  8
0
  6
Continuous
 62
     7
370
    15
100
AcDbLine
 10
806.7166766581
 20
72.1125860061
 30
0.0
 11
806.2788209376
 21
72.1125860061
 31
0.0
  0
LINE
  5
132
330
1F
100
AcDbEntity
  8
0
  6
Continuous
 62
     7
370
    15
100
AcDbLine
 10
806.7166766581
 20
37.1125746812
 30
0.0
 11
806.2788209376
 21
37.1125746812
 31
0.0
  0
LINE
  5
133
330
1F
100
AcDbEntity
  8
0
  6
Continuous
 62
     7
370
    15
100
AcDbLine
 10
301.0788223204
 20
75.3625739659
 30
0.0
 11
297.978814548
 21
75.3625739659
 31
0.0
  0
LINE
  5
134
330
1F
100
AcDbEntity
  8
0
  6
Continuous
 62
     7
370
    15
100
AcDbLine
 10
301.0788223204
 20
88.8625789727
 30
0.0
 11
297.978814548
 21
88.8625789727
 31
0.0
  0
LINE
  5
135
330
1F
100
AcDbEntity
  8
0
  6
Continuous
 62
     7
370
    15
100
AcDbLine
 10
301.0788223204
 20
88.8625789727
 30
0.0
 11
302.6388844905
 21
88.8625789727
 31
0.0
  0
LINE
  5
136
330
1F
100
AcDbEntity
  8
0
  6
Continuous
 62
     7
370
    15
100
AcDbLine
 10
301.0788223204
 20
75.3625739659
 30
0.0
 11
302.6383480487
 21
75.3625739659
 31
0.0
  0
LINE
  5
137
330
1F
100
AcDbEntity
  8
0
  6
Continuous
 62
     7
370
    15
100
AcDbLine
 10
301.0788223204
 20
458.8625837411
 30
0.0
 11
297.978814548
 21
458.8625837411
 31
0.0
  0
LINE
  5
138
330
1F
100
AcDbEntity
  8
0
  6
Continuous
 62
     7
370
    15
100
AcDbLine
 10
301.0788223204
 20
445.3625787343
 30
0.0
 11
297.978814548
 21
445.3625787343
 31
0.0
  0
LINE
  5
139
330
1F
100
AcDbEntity
  8
0
  6
Continuous
 62
     7
370
    15
100
AcDbLine
 10
301.0788223204
 20
445.3625787343
 30
0.0
 11
302.6383480487
 21
445.3625787343
 31
0.0
  0
LINE
  5
13A
330
1F
100
AcDbEntity
  8
0
  6
Continuous
 62
     7
370
    15
100
AcDbLine
 10
301.0788223204
 20
458.8625837411
 30
0.0
 11
302.6388844905
 21
458.8625837411
 31
0.0
  0
LINE
  5
13B
330
1F
100
AcDbEntity
  8
0
  6
Continuous
 62
     8
370
    15
100
AcDbLine
 10
301.0788223204
 20
75.6125856484
 30
0.0
 11
301.0788223204
 21
75.3625739659
 31
0.0
  0
LINE
  5
13C
330
1F
100
AcDbEntity
  8
0
  6
Continuous
 62
     8
370
    15
100
AcDbLine
 10
301.0788223204
 20
88.8625789727
 30
0.0
 11
301.0788223204
 21
88.6125821914
 31
0.0
  0
LINE
  5
13D
330
1F
100
AcDbEntity
  8
0
  6
Continuous
 62
     8
370
    15
100
AcDbLine
 10
301.0788223204
 20
458.8625837411
 30
0.0
 11
301.0788223204
 21
458.6125720586
 31
0.0
  0
LINE
  5
13E
330
1F
100
AcDbEntity
  8
0
  6
Continuous
 62
     8
370
    15
100
AcDbLine
 10
301.0788223204
 20
445.6125755156
 30
0.0
 11
301.0788223204
 21
445.3625787343
 31
0.0
  0
LINE
  5
13F
330
1F
100
AcDbEntity
  8
0
  6
Continuous
 62
     7
370
    15
100
AcDbLine
 10
197.7007043047
 20
88.6125821914
 30
0.0
 11
197.7007043047
 21
75.6125856484
 31
0.0
  0
LINE
  5
140
330
1F
100
AcDbEntity
  8
0
  6
Continuous
 62
     7
370
    15
100
AcDbLine
 10
197.7007043047
 20
458.6125720586
 30
0.0
 11
197.7007043047
 21
445.6125755156
 31
0.0
  0
SPLINE
  5
141
330
1F
100
AcDbEntity
  8
0
  6
Continuous
 62
     7
370
    15
100
AcDbSpline
210
0.0
220
0.0
230
1.0
 70
     8
 71
     3
 72
    15
 73
    11
 74
     0
 42
0.00000001
 43
0.00000001
 40
0.0
 40
0.0
 40
0.0
 40
0.0
 40
0.135596888537424
 40
0.2953259978568167
 40
0.4038082329308685
 40
0.5319575953941899
 40
0.6738360944567005
 40
0.8261050528133796
 40
0.9126193093972146
 40
1.0
 40
1.0
 40
1.0
 40
1.0
 10
186.6807070059801
 20
76.67862962140093
 30
0.0
 10
186.7250890421121
 20
76.67130308464876
 30
0.0
 10
186.8217517992666
 20
76.65534610510072
 30
0.0
 10
187.0286039781102
 20
76.70302087386318
 30
0.0
 10
187.2218513511532
 20
76.79073959907409
 30
0.0
 10
187.3684496628523
 20
76.91040455271262
 30
0.0
 10
187.4671531489714
 20
77.06130883199575
 30
0.0
 10
187.4968165358498
 20
77.1831616812097
 30
0.0
 10
187.4756306115954
 20
77.31238996054086
 30
0.0
 10
187.4293755498966
 20
77.37906685721704
 30
0.0
 10
187.4061327857996
 20
77.4125714148427
 30
0.0
  0
SPLINE
  5
142
330
1F
100
AcDbEntity
  8
0
  6
Continuous
 62
     7
370
    15
100
AcDbSpline
210
0.0
220
0.0
230
1.0
 70
     8
 71
     3
 72
    20
 73
    16
 74
     0
 42
0.00000001
 43
0.00000001
 40
0.0
 40
0.0
 40
0.0
 40
0.0
 40
0.0607080798465042
 40
0.2265357102980886
 40
0.390803212013224
 40
0.4705945552791758
 40
0.5476205116764288
 40
0.6228560851560659
 40
0.7003373287420667
 40
0.7786474321767142
 40
0.8566576969482275
 40
0.9330985320568687
 40
0.9703734888127845
 40
0.9892323091344675
 40
1.0
 40
1.0
 40
1.0
 40
1.0
 10
182.9445090575243
 20
77.4125714148427
 30
0.0
 10
182.990783926013
 20
77.35923996939827
 30
0.0
 10
183.1634612735514
 20
77.16023059691408
 30
0.0
 10
183.5804196917716
 20
77.14230372610442
 30
0.0
 10
184.1453886978471
 20
77.06727852027431
 30
0.0
 10
184.6649989743442
 20
77.02434072476036
 30
0.0
 10
185.0588877077352
 20
76.99378059689799
 30
0.0
 10
185.4517990053156
 20
76.9661076349638
 30
0.0
 10
185.8329612547654
 20
76.93479925898822
 30
0.0
 10
186.1886874912961
 20
76.90232002701283
 30
0.0
 10
186.4913092230188
 20
76.87150479745233
 30
0.0
 10
186.6838298271634
 20
76.84860994985138
 30
0.0
 10
186.7719398518012
 20
76.84057083118125
 30
0.0
 10
186.8173732390458
 20
76.83277850005138
 30
0.0
 10
186.8168156875306
 20
76.83673747389564
 30
0.0
 10
186.8166130466486
 20
76.83817635430346
 30
0.0
  0
SPLINE
  5
143
330
1F
100
AcDbEntity
  8
0
  6
Continuous
 62
     7
370
    15
100
AcDbSpline
210
0.0
220
0.0
230
1.0
 70
     8
 71
     3
 72
    18
 73
    14
 74
     0
 42
0.00000001
 43
0.00000001
 40
0.0
 40
0.0
 40
0.0
 40
0.0
 40
0.0057509080413356
 40
0.1156357611832225
 40
0.2383920570983114
 40
0.3593081123670723
 40
0.4757050850588034
 40
0.5872141671228278
 40
0.7047334207830889
 40
0.8265032706447643
 40
0.8891454500227357
 40
0.9517990416743517
 40
1.0
 40
1.0
 40
1.0
 40
1.0
 10
187.1873241348292
 20
86.05940233124743
 30
0.0
 10
187.1826768983194
 20
86.06235452703604
 30
0.0
 10
187.0892330930374
 20
86.12171548442294
 30
0.0
 10
186.8669354373592
 20
86.12789459081205
 30
0.0
 10
186.475527120496
 20
86.18709619480481
 30
0.0
 10
185.9636521860305
 20
86.23263284937447
 30
0.0
 10
185.4126203449855
 20
86.27880089728419
 30
0.0
 10
184.8505054757265
 20
86.3176787873293
 30
0.0
 10
184.3162241367329
 20
86.36243344799912
 30
0.0
 10
183.9185997179437
 20
86.403473010593
 30
0.0
 10
183.7038501638594
 20
86.42462223570185
 30
0.0
 10
183.6078030255563
 20
86.42689105165766
 30
0.0
 10
183.5923608653356
 20
86.41082736574732
 30
0.0
 10
183.5856464190508
 20
86.40384267224321
 30
0.0
  0
SPLINE
  5
144
330
1F
100
AcDbEntity
  8
0
  6
Continuous
 62
     7
370
    15
100
AcDbSpline
210
0.0
220
0.0
230
1.0
 70
     8
 71
     3
 72
    12
 73
     8
 74
     0
 42
0.00000001
 43
0.00000001
 40
0.0
 40
0.0
 40
0.0
 40
0.0
 40
0.2236877335818112
 40
0.4523166583911747
 40
0.6822431391913665
 40
0.9102276025632665
 40
1.0
 40
1.0
 40
1.0
 40
1.0
 10
182.8864094300295
 20
87.21443603886614
 30
0.0
 10
182.873672617612
 20
87.17188803859541
 30
0.0
 10
182.8479176406225
 20
87.08585216619637
 30
0.0
 10
182.9690471165544
 20
86.99422432268572
 30
0.0
 10
183.2007203272289
 20
86.8979326706025
 30
0.0
 10
183.4455849185059
 20
86.83542831173801
 30
0.0
 10
183.6289143127175
 20
86.84065413211874
 30
0.0
 10
183.680708376887
 20
86.84213052643786
 30
0.0
  0
SPLINE
  5
145
330
1F
100
AcDbEntity
  8
0
  6
Continuous
 62
     7
370
    15
100
AcDbSpline
210
0.0
220
0.0
230
1.0
 70
     8
 71
     3
 72
    19
 73
    15
 74
     0
 42
0.00000001
 43
0.00000001
 40
0.0
 40
0.0
 40
0.0
 40
0.0
 40
0.0979054285216552
 40
0.1753770361033848
 40
0.2884839255568595
 40
0.3734536151784779
 40
0.4570033395651014
 40
0.6168871079054774
 40
0.6796671660329294
 40
0.7634255454403586
 40
0.8137557016770524
 40
0.8702993889100683
 40
0.9324009967643566
 40
1.0
 40
1.0
 40
1.0
 40
1.0
 10
183.0626454634692
 20
86.71930025471697
 30
0.0
 10
183.1131503226774
 20
86.69292556459577
 30
0.0
 10
183.2036191827856
 20
86.6456808402588
 30
0.0
 10
183.5782815071988
 20
86.58502766580897
 30
0.0
 10
184.0647736394166
 20
86.53114698432246
 30
0.0
 10
184.6561150102305
 20
86.47789590393923
 30
0.0
 10
185.4102086600083
 20
86.42635301641366
 30
0.0
 10
186.0513145448557
 20
86.35941275198672
 30
0.0
 10
186.7005715883223
 20
86.32389455402539
 30
0.0
 10
187.0789142397796
 20
86.40207825419127
 30
0.0
 10
187.3307672836051
 20
86.51028019423943
 30
0.0
 10
187.4643575180736
 20
86.59862356967659
 30
0.0
 10
187.5261187804446
 20
86.67246053585595
 30
0.0
 10
187.4546823560045
 20
86.75297500212079
 30
0.0
 10
187.4174502177264
 20
86.79493854893694
 30
0.0
  0
SPLINE
  5
146
330
1F
100
AcDbEntity
  8
0
  6
Continuous
 62
     7
370
    15
100
AcDbSpline
210
0.0
220
0.0
230
1.0
 70
     8
 71
     3
 72
    25
 73
    21
 74
     0
 42
0.00000001
 43
0.00000001
 40
0.0
 40
0.0
 40
0.0
 40
0.0
 40
0.0176277270217914
 40
0.0344983469749089
 40
0.0503162262942265
 40
0.0649745907550359
 40
0.0909466161566495
 40
0.1134377624030968
 40
0.1538403982782512
 40
0.1912351913204073
 40
0.2995717589845327
 40
0.3999642420985151
 40
0.5012962218567567
 40
0.5949063943502271
 40
0.678487546488849
 40
0.733628543452054
 40
0.8075190726719963
 40
0.8952815219502029
 40
0.9453088205119118
 40
1.0
 40
1.0
 40
1.0
 40
1.0
 10
187.0601278228785
 20
86.16935799969683
 30
0.0
 10
187.0998374909735
 20
86.1737471130151
 30
0.0
 10
187.1775513054946
 20
86.1823368281825
 30
0.0
 10
187.2794428948568
 20
86.22835717093328
 30
0.0
 10
187.3604484730295
 20
86.28730171282872
 30
0.0
 10
187.4366565306095
 20
86.3709021382377
 30
0.0
 10
187.4897005180858
 20
86.47453330407187
 30
0.0
 10
187.5138660538763
 20
86.60687517238733
 30
0.0
 10
187.4909727442224
 20
86.73872665856922
 30
0.0
 10
187.3197406654746
 20
86.98396118756749
 30
0.0
 10
186.9769407167374
 20
87.07101893430885
 30
0.0
 10
186.4818300213235
 20
87.12958297308631
 30
0.0
 10
185.8686180774043
 20
87.18794645107594
 30
0.0
 10
185.219146853461
 20
87.23757297380457
 30
0.0
 10
184.6794543480381
 20
87.27703626650754
 30
0.0
 10
184.2334339874307
 20
87.31621910107562
 30
0.0
 10
183.8447379609895
 20
87.35443714974583
 30
0.0
 10
183.5845713461094
 20
87.3823020942725
 30
0.0
 10
183.4541408422675
 20
87.40478411454173
 30
0.0
 10
183.4454747314074
 20
87.41724481617705
 30
0.0
 10
183.440948693278
 20
87.42375265015612
 30
0.0
  0
SPLINE
  5
147
330
1F
100
AcDbEntity
  8
0
  6
Continuous
 62
     7
370
    15
100
AcDbSpline
210
0.0
220
0.0
230
1.0
 70
     8
 71
     3
 72
    12
 73
     8
 74
     0
 42
0.00000001
 43
0.00000001
 40
0.0
 40
0.0
 40
0.0
 40
0.0
 40
0.1756472898476807
 40
0.5723034427100719
 40
0.7586208901224243
 40
0.9207422341325122
 40
1.0
 40
1.0
 40
1.0
 40
1.0
 10
183.5292753262545
 20
86.60527656926165
 30
0.0
 10
183.4637119044542
 20
86.59609988890249
 30
0.0
 10
183.2500896388065
 20
86.56619993561118
 30
0.0
 10
183.0341620284728
 20
86.49228273651374
 30
0.0
 10
182.8730239814194
 20
86.27735364332368
 30
0.0
 10
182.8418079035229
 20
86.11712952721531
 30
0.0
 10
182.8727819217497
 20
86.03847048776248
 30
0.0
 10
182.8829523606325
 20
86.01264248742113
 30
0.0
  0
LINE
  5
148
330
1F
100
AcDbEntity
  8
0
  6
Continuous
 62
     7
370
    15
100
AcDbLine
 10
183.040465085
 20
77.3148346986
 30
0.0
 11
181.9220062776
 21
77.3148346986
 31
0.0
  0
LINE
  5
149
330
1F
100
AcDbEntity
  8
0
  6
Continuous
 62
     7
370
    15
100
AcDbLine
 10
181.9220062776
 20
76.5148360576
 30
0.0
 11
183.6807083769
 21
76.5148360576
 31
0.0
  0
LINE
  5
14A
330
1F
100
AcDbEntity
  8
0
  6
Continuous
 62
     7
370
    15
100
AcDbLine
 10
180.5117156787
 20
90.1125777806
 30
0.0
 11
180.5117156787
 21
90.166043147
 31
0.0
  0
LINE
  5
14B
330
1F
100
AcDbEntity
  8
0
  6
Continuous
 62
     7
370
    15
100
AcDbLine
 10
177.5117170496
 20
90.166043147
 30
0.0
 11
177.5117170496
 21
90.1125777806
 31
0.0
  0
SPLINE
  5
14C
330
1F
100
AcDbEntity
  8
0
  6
Continuous
 62
     7
370
    15
100
AcDbSpline
210
0.0
220
0.0
230
1.0
 70
     8
 71
     3
 72
    15
 73
    11
 74
     0
 42
0.00000001
 43
0.00000001
 40
0.0
 40
0.0
 40
0.0
 40
0.0
 40
0.107755570493865
 40
0.2352510004359349
 40
0.3627906072704312
 40
0.4902569527135733
 40
0.6176625138292798
 40
0.7450971095731884
 40
0.8724966849586578
 40
1.0
 40
1.0
 40
1.0
 40
1.0
 10
177.5277730507876
 20
74.1125751580144
 30
0.0
 10
177.5443128838211
 20
73.80005316705673
 30
0.0
 10
177.5804224997821
 20
73.1177579437651
 30
0.0
 10
177.9166218830889
 20
72.10860478067532
 30
0.0
 10
178.4747142132855
 20
71.14513176981698
 30
0.0
 10
179.2295365349508
 20
70.32420477253571
 30
0.0
 10
180.1446970916828
 20
69.68893263095077
 30
0.0
 10
181.1719557229355
 20
69.26877784702343
 30
0.0
 10
182.2679348088782
 20
69.05497458375245
 30
0.0
 10
183.0036953563466
 20
69.1204993039668
 30
0.0
 10
183.3717253489519
 20
69.15327499760637
 30
0.0
  0
SPLINE
  5
14D
330
1F
100
AcDbEntity
  8
0
  6
Continuous
 62
     7
370
    15
100
AcDbSpline
210
0.0
220
0.0
230
1.0
 70
     8
 71
     3
 72
    15
 73
    11
 74
     0
 42
0.00000001
 43
0.00000001
 40
0.0
 40
0.0
 40
0.0
 40
0.0
 40
0.1316522836865303
 40
0.2633121166332077
 40
0.3951903172333486
 40
0.5266700583614803
 40
0.6575475036272325
 40
0.7882151626060379
 40
0.918460811993896
 40
1.0
 40
1.0
 40
1.0
 40
1.0
 10
182.874034015658
 20
72.11096177948961
 30
0.0
 10
182.7218508843218
 20
72.09914667647821
 30
0.0
 10
182.4174758951009
 20
72.07551579294885
 30
0.0
 10
181.9666068761065
 20
72.1769891010375
 30
0.0
 10
181.5475859407489
 20
72.3638579632091
 30
0.0
 10
181.1771900642366
 20
72.63644623259225
 30
0.0
 10
180.874926151535
 20
72.98235982727508
 30
0.0
 10
180.6557738839817
 20
73.38406779245413
 30
0.0
 10
180.5383981846001
 20
73.77037798788113
 30
0.0
 10
180.528224229807
 20
74.01745005071164
 30
0.0
 10
180.5243071599032
 20
74.1125751580144
 30
0.0
  0
SPLINE
  5
14E
330
1F
100
AcDbEntity
  8
0
  6
Continuous
 62
     7
370
    15
100
AcDbSpline
210
0.0
220
0.0
230
1.0
 70
     8
 71
     3
 72
    15
 73
    11
 74
     0
 42
0.00000001
 43
0.00000001
 40
0.0
 40
0.0
 40
0.0
 40
0.0
 40
0.1249271386512288
 40
0.249916440710712
 40
0.3749668515804486
 40
0.4999574096988544
 40
0.6249206649717214
 40
0.7499166873374816
 40
0.8748746398258233
 40
1.0
 40
1.0
 40
1.0
 40
1.0
 10
183.5425969643618
 20
95.04310379876146
 30
0.0
 10
183.1762203112736
 20
95.08643623806104
 30
0.0
 10
182.4432846970598
 20
95.17312267876538
 30
0.0
 10
181.3392591818119
 20
95.00792437652372
 30
0.0
 10
180.2984554605628
 20
94.61900341135696
 30
0.0
 10
179.3632736617005
 20
94.01397591081728
 30
0.0
 10
178.582626102908
 20
93.21778731523025
 30
0.0
 10
177.9946622910671
 20
92.27342293002924
 30
0.0
 10
177.5988298141167
 20
91.2249798434289
 30
0.0
 10
177.5407675935382
 20
90.48585803986062
 30
0.0
 10
177.5117170496012
 20
90.11604975117693
 30
0.0
  0
SPLINE
  5
14F
330
1F
100
AcDbEntity
  8
0
  6
Continuous
 62
     7
370
    15
100
AcDbSpline
210
0.0
220
0.0
230
1.0
 70
     8
 71
     3
 72
    15
 73
    11
 74
     0
 42
0.00000001
 43
0.00000001
 40
0.0
 40
0.0
 40
0.0
 40
0.0
 40
0.1242545820370135
 40
0.2486324542486632
 40
0.3735410131487474
 40
0.4985826398082712
 40
0.6236634404273055
 40
0.7490700366649097
 40
0.8744380995702337
 40
1.0
 40
1.0
 40
1.0
 40
1.0
 10
180.5117156786944
 20
90.1160497511769
 30
0.0
 10
180.525275623852
 20
90.26800800118856
 30
0.0
 10
180.5524089688663
 20
90.57207528003117
 30
0.0
 10
180.7268704829918
 20
90.99938853703173
 30
0.0
 10
180.9801992240245
 20
91.38103099345169
 30
0.0
 10
181.3100254758988
 20
91.70095816241592
 30
0.0
 10
181.700950998625
 20
91.94153591154286
 30
0.0
 10
182.1336463118894
 20
92.0931646220979
 30
0.0
 10
182.5911822830584
 20
92.14662647210604
 30
0.0
 10
182.8931000023414
 20
92.1059299887225
 30
0.0
 10
183.0441754741694
 20
92.08556602849016
 30
0.0
  0
LINE
  5
150
330
1F
100
AcDbEntity
  8
0
  6
Continuous
 62
     7
370
    15
100
AcDbLine
 10
198.4147828503
 20
74.7277099933
 30
0.0
 11
182.8738104982
 21
72.1113045062
 31
0.0
  0
LINE
  5
151
330
1F
100
AcDbEntity
  8
0
  6
Continuous
 62
     7
370
    15
100
AcDbLine
 10
183.37186691
 20
69.1529322709
 30
0.0
 11
198.912839262
 21
71.7693526591
 31
0.0
  0
LINE
  5
152
330
1F
100
AcDbEntity
  8
0
  6
Continuous
 62
     7
370
    15
100
AcDbLine
 10
183.044391541
 20
92.085148796
 30
0.0
 11
198.5853564425
 21
89.4687284078
 31
0.0
  0
LINE
  5
153
330
1F
100
AcDbEntity
  8
0
  6
Continuous
 62
     7
370
    15
100
AcDbLine
 10
199.0834277554
 20
92.4270857419
 30
0.0
 11
183.5424554033
 21
95.0435061301
 31
0.0
  0
SPLINE
  5
154
330
1F
100
AcDbEntity
  8
0
  6
Continuous
 62
     7
370
    15
100
AcDbSpline
210
0.0
220
0.0
230
1.0
 70
     8
 71
     3
 72
    12
 73
     8
 74
     0
 42
0.00000001
 43
0.00000001
 40
0.0
 40
0.0
 40
0.0
 40
0.0
 40
0.1526145672469793
 40
0.2973904845171755
 40
0.5623710231218961
 40
0.7966012194016354
 40
1.0
 40
1.0
 40
1.0
 40
1.0
 10
198.9124965353037
 20
71.76965068234453
 30
0.0
 10
199.1637153944314
 20
71.82239581890548
 30
0.0
 10
199.6532499099336
 20
71.92517697538841
 30
0.0
 10
200.5027819815271
 20
72.35440018422881
 30
0.0
 10
201.3147684092346
 20
73.09880144745243
 30
0.0
 10
201.879198688111
 20
74.16984478918894
 30
0.0
 10
201.9608878201495
 20
74.90477029027137
 30
0.0
 10
201.9988548440958
 20
75.24634490860949
 30
0.0
  0
SPLINE
  5
155
330
1F
100
AcDbEntity
  8
0
  6
Continuous
 62
     7
370
    15
100
AcDbSpline
210
0.0
220
0.0
230
1.0
 70
     8
 71
     3
 72
    11
 73
     7
 74
     0
 42
0.00000001
 43
0.00000001
 40
0.0
 40
0.0
 40
0.0
 40
0.0
 40
0.2003614332042009
 40
0.4328002787250614
 40
0.6990289005539189
 40
0.9999999999999999
 40
0.9999999999999999
 40
0.9999999999999999
 40
0.9999999999999999
 10
199.0005474967982
 20
75.24634490860946
 30
0.0
 10
198.9873207536046
 20
75.18991662064212
 30
0.0
 10
198.958749695546
 20
75.06802600342269
 30
0.0
 10
198.8428544748518
 20
74.90232130663385
 30
0.0
 10
198.6581098798876
 20
74.763412209857
 30
0.0
 10
198.5004811584943
 20
74.74002856411995
 30
0.0
 10
198.4168392105128
 20
74.72762058629046
 30
0.0
  0
SPLINE
  5
156
330
1F
100
AcDbEntity
  8
0
  6
Continuous
 62
     7
370
    15
100
AcDbSpline
210
0.0
220
0.0
230
1.0
 70
     8
 71
     3
 72
    12
 73
     8
 74
     0
 42
0.00000001
 43
0.00000001
 40
0.0
 40
0.0
 40
0.0
 40
0.0
 40
0.2034072081522018
 40
0.4376402954345011
 40
0.7026159938043711
 40
0.8473895447225762
 40
1.0
 40
1.0
 40
1.0
 40
1.0
 10
201.9988548440958
 20
88.80497108353624
 30
0.0
 10
201.9774213249029
 20
89.14798230360074
 30
0.0
 10
201.9313060876063
 20
89.88598727918668
 30
0.0
 10
201.4191790714265
 20
90.98308735959532
 30
0.0
 10
200.6439850710232
 20
91.7658562490476
 30
0.0
 10
199.8161270137621
 20
92.23556961269017
 30
0.0
 10
199.3321407916952
 20
92.36183981734267
 30
0.0
 10
199.0837704820658
 20
92.42663870705614
 30
0.0
  0
SPLINE
  5
157
330
1F
100
AcDbEntity
  8
0
  6
Continuous
 62
     7
370
    15
100
AcDbSpline
210
0.0
220
0.0
230
1.0
 70
     8
 71
     3
 72
    12
 73
     8
 74
     0
 42
0.00000001
 43
0.00000001
 40
0.0
 40
0.0
 40
0.0
 40
0.0
 40
0.1555468069860065
 40
0.3021980194966735
 40
0.5679579326063526
 40
0.7999343262328438
 40
1.0
 40
1.0
 40
1.0
 40
1.0
 10
198.5834490938212
 20
89.46963737858782
 30
0.0
 10
198.6239908441497
 20
89.4538865962444
 30
0.0
 10
198.7027557953153
 20
89.42328580589748
 30
0.0
 10
198.8323813633915
 20
89.32825324698035
 30
0.0
 10
198.9468124292904
 20
89.1820726683617
 30
0.0
 10
199.0109702331303
 20
88.9878287481875
 30
0.0
 10
199.0038463517733
 20
88.86284656820403
 30
0.0
 10
199.0005474967982
 20
88.80497108353624
 30
0.0
  0
LINE
  5
158
330
1F
100
AcDbEntity
  8
0
  6
Continuous
 62
     7
370
    15
100
AcDbLine
 10
198.9996981306
 20
88.8549793805
 30
0.0
 11
198.9996981306
 21
88.6125821914
 31
0.0
  0
LINE
  5
159
330
1F
100
AcDbEntity
  8
0
  6
Continuous
 62
     7
370
    15
100
AcDbLine
 10
198.9996981306
 20
75.6125856484
 30
0.0
 11
198.9996981306
 21
75.1963366116
 31
0.0
  0
LINE
  5
15A
330
1F
100
AcDbEntity
  8
0
  6
Continuous
 62
     7
370
    15
100
AcDbLine
 10
201.9997042103
 20
75.1963366116
 30
0.0
 11
201.9997042103
 21
75.6153274621
 31
0.0
  0
LINE
  5
15B
330
1F
100
AcDbEntity
  8
0
  6
Continuous
 62
     7
370
    15
100
AcDbLine
 10
201.9997042103
 20
88.6098403777
 30
0.0
 11
201.9997042103
 21
88.8549793805
 31
0.0
  0
LINE
  5
15C
330
1F
100
AcDbEntity
  8
0
  6
Continuous
 62
     7
370
    15
100
AcDbLine
 10
188.2989805622
 20
87.7125818576
 30
0.0
 11
186.680707006
 21
87.7125818576
 31
0.0
  0
LINE
  5
15D
330
1F
100
AcDbEntity
  8
0
  6
Continuous
 62
     7
370
    15
100
AcDbLine
 10
187.3076286597
 20
86.9125832166
 30
0.0
 11
188.2989805622
 21
86.9125832166
 31
0.0
  0
LINE
  5
15E
330
1F
100
AcDbEntity
  8
0
  6
Continuous
 62
     7
370
    15
100
AcDbLine
 10
188.637207119
 20
88.9807153787
 30
0.0
 11
188.3706849499
 21
87.7724696244
 31
0.0
  0
LINE
  5
15F
330
1F
100
AcDbEntity
  8
0
  6
Continuous
 62
     7
370
    15
100
AcDbLine
 10
189.1388398094
 20
87.5409204806
 30
0.0
 11
189.4184228463
 21
88.8083834494
 31
0.0
  0
SPLINE
  5
160
330
1F
100
AcDbEntity
  8
0
  6
Continuous
 62
     7
370
    15
100
AcDbSpline
210
0.0
220
0.0
230
1.0
 70
     8
 71
     3
 72
    11
 73
     7
 74
     0
 42
0.00000001
 43
0.00000001
 40
0.0
 40
0.0
 40
0.0
 40
0.0
 40
0.2541305495495546
 40
0.5022664238365682
 40
0.7495161270384285
 40
1.0
 40
1.0
 40
1.0
 40
1.0
 10
188.2989805622126
 20
86.91258321656237
 30
0.0
 10
188.3990689546103
 20
86.92282835795334
 30
0.0
 10
188.5968847583627
 20
86.94307696850903
 30
0.0
 10
188.855036940081
 20
87.09710235625207
 30
0.0
 10
189.0584767657603
 20
87.31618523953178
 30
0.0
 10
189.12021834698
 20
87.50323399795501
 30
0.0
 10
189.1512897295977
 20
87.59736607922564
 30
0.0
  0
LINE
  5
161
330
1F
100
AcDbEntity
  8
0
  6
Continuous
 62
     7
370
    15
100
AcDbLine
 10
187.9107084556
 20
74.112575158
 30
0.0
 11
187.9107084556
 21
74.912573799
 31
0.0
  0
LINE
  5
162
330
1F
100
AcDbEntity
  8
0
  6
Continuous
 62
     7
370
    15
100
AcDbLine
 10
187.9107084556
 20
89.3125791396
 30
0.0
 11
187.9107084556
 21
90.1125777806
 31
0.0
  0
ARC
  5
163
330
1F
100
AcDbEntity
  8
0
  6
Continuous
 62
     7
370
    15
100
AcDbCircle
 10
185.1807077141
 20
87.3054359964
 30
0.0
 40
3.80714285714331
100
AcDbArc
 50
54.6997515601
 51
125.3002484399
  0
LINE
  5
164
330
1F
100
AcDbEntity
  8
0
  6
Continuous
 62
     7
370
    15
100
AcDbLine
 10
182.9807114286
 20
90.4125828589
 30
0.0
 11
182.9807114286
 21
90.1125777806
 31
0.0
  0
LINE
  5
165
330
1F
100
AcDbEntity
  8
0
  6
Continuous
 62
     7
370
    15
100
AcDbLine
 10
187.3807114048
 20
90.1125777806
 30
0.0
 11
187.3807114048
 21
90.4125828589
 31
0.0
  0
LINE
  5
166
330
1F
100
AcDbEntity
  8
0
  6
Continuous
 62
     7
370
    15
100
AcDbLine
 10
183.0807056708
 20
73.7125832881
 30
0.0
 11
183.0807056708
 21
73.312576517
 31
0.0
  0
LINE
  5
167
330
1F
100
AcDbEntity
  8
0
  6
Continuous
 62
     7
370
    15
100
AcDbLine
 10
187.280709712
 20
73.312576517
 30
0.0
 11
187.280709712
 21
73.7125832881
 31
0.0
  0
ARC
  5
168
330
1F
100
AcDbEntity
  8
0
  6
Continuous
 62
     7
370
    15
100
AcDbCircle
 10
183.2807077141
 20
74.1125788535
 30
0.0
 40
0.4000000000007731
100
AcDbArc
 50
270.0
 51
0.0
  0
ARC
  5
169
330
1F
100
AcDbEntity
  8
0
  6
Continuous
 62
     7
370
    15
100
AcDbCircle
 10
187.0807077141
 20
74.1125788535
 30
0.0
 40
0.4000000000008015
100
AcDbArc
 50
180.0
 51
270.0
  0
LINE
  5
16A
330
1F
100
AcDbEntity
  8
0
  6
Continuous
 62
     7
370
    15
100
AcDbLine
 10
183.6807083769
 20
89.3125791396
 30
0.0
 11
183.6807083769
 21
88.8625789727
 31
0.0
  0
LINE
  5
16B
330
1F
100
AcDbEntity
  8
0
  6
Continuous
 62
     7
370
    15
100
AcDbLine
 10
183.6807083769
 20
87.8625769462
 30
0.0
 11
183.6807083769
 21
87.3738784636
 31
0.0
  0
LINE
  5
16C
330
1F
100
AcDbEntity
  8
0
  6
Continuous
 62
     7
370
    15
100
AcDbLine
 10
183.6807083769
 20
86.5777541245
 30
0.0
 11
183.6807083769
 21
86.4220667924
 31
0.0
  0
LINE
  5
16D
330
1F
100
AcDbEntity
  8
0
  6
Continuous
 62
     7
370
    15
100
AcDbLine
 10
183.6807083769
 20
77.1229524459
 30
0.0
 11
183.6807083769
 21
76.3625759925
 31
0.0
  0
LINE
  5
16E
330
1F
100
AcDbEntity
  8
0
  6
Continuous
 62
     7
370
    15
100
AcDbLine
 10
183.6807083769
 20
75.3625739659
 30
0.0
 11
183.6807083769
 21
74.912573799
 31
0.0
  0
LINE
  5
16F
330
1F
100
AcDbEntity
  8
0
  6
Continuous
 62
     7
370
    15
100
AcDbLine
 10
186.680707006
 20
74.912573799
 30
0.0
 11
186.680707006
 21
75.3625739659
 31
0.0
  0
LINE
  5
170
330
1F
100
AcDbEntity
  8
0
  6
Continuous
 62
     7
370
    15
100
AcDbLine
 10
186.680707006
 20
76.3625759925
 30
0.0
 11
186.680707006
 21
76.8497247542
 31
0.0
  0
LINE
  5
171
330
1F
100
AcDbEntity
  8
0
  6
Continuous
 62
     7
370
    15
100
AcDbLine
 10
186.680707006
 20
86.157645687
 30
0.0
 11
186.680707006
 21
86.345579132
 31
0.0
  0
LINE
  5
172
330
1F
100
AcDbEntity
  8
0
  6
Continuous
 62
     7
370
    15
100
AcDbLine
 10
186.680707006
 20
87.100650772
 30
0.0
 11
186.680707006
 21
87.8625769462
 31
0.0
  0
LINE
  5
173
330
1F
100
AcDbEntity
  8
0
  6
Continuous
 62
     7
370
    15
100
AcDbLine
 10
186.680707006
 20
88.8625789727
 30
0.0
 11
186.680707006
 21
89.3125791396
 31
0.0
  0
SPLINE
  5
174
330
1F
100
AcDbEntity
  8
0
  6
Continuous
 62
     7
370
    15
100
AcDbSpline
210
0.0
220
0.0
230
1.0
 70
     8
 71
     3
 72
    15
 73
    11
 74
     0
 42
0.00000001
 43
0.00000001
 40
0.0
 40
0.0
 40
0.0
 40
0.0
 40
0.1355965374029472
 40
0.2953256217509696
 40
0.4038078398653699
 40
0.5319571822943643
 40
0.6738315565179956
 40
0.826100491069593
 40
0.9126193230579405
 40
1.0
 40
1.0
 40
1.0
 40
1.0
 10
186.6807070059801
 20
446.6786194886113
 30
0.0
 10
186.7250890906274
 20
446.6712991571874
 30
0.0
 10
186.8217520806574
 20
446.6553556716779
 30
0.0
 10
187.0286038925541
 20
446.7030249940339
 30
0.0
 10
187.221851532473
 20
446.7907439718886
 30
0.0
 10
187.3684472308526
 20
446.9104109756464
 30
0.0
 10
187.4671551962455
 20
447.0612976070167
 30
0.0
 10
187.496815610522
 20
447.1831474184202
 30
0.0
 10
187.4756319693337
 20
447.3123959173216
 30
0.0
 10
187.4293755957504
 20
447.3790726114807
 30
0.0
 10
187.4061327857996
 20
447.4125761832143
 30
0.0
  0
SPLINE
  5
175
330
1F
100
AcDbEntity
  8
0
  6
Continuous
 62
     7
370
    15
100
AcDbSpline
210
0.0
220
0.0
230
1.0
 70
     8
 71
     3
 72
    20
 73
    16
 74
     0
 42
0.00000001
 43
0.00000001
 40
0.0
 40
0.0
 40
0.0
 40
0.0
 40
0.0776624544479926
 40
0.240496883844472
 40
0.4017993449441549
 40
0.480150448533513
 40
0.5557860806926949
 40
0.6296636464789976
 40
0.7057463478593303
 40
0.7826429481064352
 40
0.8592453417288372
 40
0.934306414082157
 40
0.9709084222042434
 40
0.9894268394174024
 40
1.0
 40
1.0
 40
1.0
 40
1.0
 10
182.9009678645159
 20
447.4569369400884
 30
0.0
 10
182.9608368318272
 20
447.3863035161944
 30
0.0
 10
183.1462327246005
 20
447.167573391548
 30
0.0
 10
183.579588068087
 20
447.1400425472915
 30
0.0
 10
184.1454884187546
 20
447.0675549894428
 30
0.0
 10
184.6649812333732
 20
447.0242971734586
 30
0.0
 10
185.0588922596555
 20
446.9937976963769
 30
0.0
 10
185.4517977759492
 20
446.9661093181599
 30
0.0
 10
185.8329615223075
 20
446.9348037306286
 30
0.0
 10
186.188688023812
 20
446.9023291505433
 30
0.0
 10
186.4913087603483
 20
446.8714924952773
 30
0.0
 10
186.6838295140785
 20
446.8485914049123
 30
0.0
 10
186.7719399694579
 20
446.8405730059939
 30
0.0
 10
186.8173731424476
 20
446.83279035624
 30
0.0
 10
186.8168156602362
 20
446.836733213529
 30
0.0
 10
186.8166130466487
 20
446.8381662215139
 30
0.0
  0
SPLINE
  5
176
330
1F
100
AcDbEntity
  8
0
  6
Continuous
 62
     7
370
    15
100
AcDbSpline
210
0.0
220
0.0
230
1.0
 70
     8
 71
     3
 72
    18
 73
    14
 74
     0
 42
0.00000001
 43
0.00000001
 40
0.0
 40
0.0
 40
0.0
 40
0.0
 40
0.0355487853490374
 40
0.1421403387039337
 40
0.2612175717488481
 40
0.3785097170093191
 40
0.4914182186842391
 40
0.5995853220705036
 40
0.7135824694351236
 40
0.8317028206703276
 40
0.8924675850078866
 40
0.9532434195879794
 40
1.0
 40
1.0
 40
1.0
 40
1.0
 10
187.2623812837626
 20
456.0125727499868
 30
0.0
 10
187.2330740808765
 20
456.0325372211896
 30
0.0
 10
187.1158904498805
 20
456.1123643283875
 30
0.0
 10
186.8678406050068
 20
456.1314961457244
 30
0.0
 10
186.4752772023977
 20
456.1861078837733
 30
0.0
 10
185.9637160446179
 20
456.2328913725878
 30
0.0
 10
185.4126043251083
 20
456.2787419894884
 30
0.0
 10
184.8505099454477
 20
456.3177013872163
 30
0.0
 10
184.3162228376575
 20
456.3624327703783
 30
0.0
 10
183.9185998839111
 20
456.4034793123998
 30
0.0
 10
183.7038501371117
 20
456.4246253370978
 30
0.0
 10
183.6078028820204
 20
456.4269011425924
 30
0.0
 10
183.5923608346822
 20
456.410823375027
 30
0.0
 10
183.5856464190508
 20
456.4038325394536
 30
0.0
  0
SPLINE
  5
177
330
1F
100
AcDbEntity
  8
0
  6
Continuous
 62
     7
370
    15
100
AcDbSpline
210
0.0
220
0.0
230
1.0
 70
     8
 71
     3
 72
    12
 73
     8
 74
     0
 42
0.00000001
 43
0.00000001
 40
0.0
 40
0.0
 40
0.0
 40
0.0
 40
0.2236880114425852
 40
0.452315443220578
 40
0.682243866257405
 40
0.9102275416706823
 40
1.0
 40
1.0
 40
1.0
 40
1.0
 10
182.8864094300295
 20
457.2144259060765
 30
0.0
 10
182.8736724167241
 20
457.1718757164023
 30
0.0
 10
182.847917134707
 20
457.0858357548615
 30
0.0
 10
182.9690490648668
 20
456.9942416082118
 30
0.0
 10
183.2007180081571
 20
456.8979061741512
 30
0.0
 10
183.4455856530624
 20
456.8354465376759
 30
0.0
 10
183.6289143547314
 20
456.8406502429182
 30
0.0
 10
183.680708376887
 20
456.8421203936483
 30
0.0
  0
SPLINE
  5
178
330
1F
100
AcDbEntity
  8
0
  6
Continuous
 62
     7
370
    15
100
AcDbSpline
210
0.0
220
0.0
230
1.0
 70
     8
 71
     3
 72
    19
 73
    15
 74
     0
 42
0.00000001
 43
0.00000001
 40
0.0
 40
0.0
 40
0.0
 40
0.0
 40
0.0979056202253811
 40
0.1753771800554816
 40
0.2884839997925994
 40
0.3734534570055243
 40
0.4570031298941141
 40
0.6168869757869907
 40
0.6796669952183301
 40
0.7634256496661528
 40
0.8137552489563898
 40
0.8702989013372416
 40
0.9324004709135976
 40
1.0
 40
1.0
 40
1.0
 40
1.0
 10
183.0626454634692
 20
456.7193050230886
 30
0.0
 10
183.1131502110227
 20
456.6929237832314
 30
0.0
 10
183.2036187682408
 20
456.6456673801581
 30
0.0
 10
183.5782816376058
 20
456.5850200510995
 30
0.0
 10
184.0647727539971
 20
456.5311293815806
 30
0.0
 10
184.6561157334439
 20
456.4779052777796
 30
0.0
 10
185.410209172615
 20
456.4263572373911
 30
0.0
 10
186.0513135371888
 20
456.3594048741194
 30
0.0
 10
186.7005730490659
 20
456.3238787968789
 30
0.0
 10
187.0789112099824
 20
456.4020945897013
 30
0.0
 10
187.3307686869682
 20
456.5102639837318
 30
0.0
 10
187.4643572761027
 20
456.5986161355653
 30
0.0
 10
187.5261187643102
 20
456.6724467091603
 30
0.0
 10
187.454682448862
 20
456.7529732885257
 30
0.0
 10
187.4174502177264
 20
456.7949433173085
 30
0.0
  0
SPLINE
  5
179
330
1F
100
AcDbEntity
  8
0
  6
Continuous
 62
     7
370
    15
100
AcDbSpline
210
0.0
220
0.0
230
1.0
 70
     8
 71
     3
 72
    25
 73
    21
 74
     0
 42
0.00000001
 43
0.00000001
 40
0.0
 40
0.0
 40
0.0
 40
0.0
 40
0.0176277380210759
 40
0.034498368501061
 40
0.0503162576903609
 40
0.0649732835377912
 40
0.0909453251453341
 40
0.1134378605560476
 40
0.1538405216414906
 40
0.1912342002105126
 40
0.2995713553075202
 40
0.3999639010640361
 40
0.5012957663992693
 40
0.5949059973032719
 40
0.6784873620415822
 40
0.7336283934114642
 40
0.8075189687373481
 40
0.8952813469409744
 40
0.9453087863859101
 40
1.0
 40
1.0
 40
1.0
 40
1.0
 10
187.0601278228785
 20
456.1693627680684
 30
0.0
 10
187.0998374419919
 20
456.1737519646931
 30
0.0
 10
187.1775511606535
 20
456.1823418428954
 30
0.0
 10
187.2794434310614
 20
456.2283610273442
 30
0.0
 10
187.3604443510159
 20
456.2873078921382
 30
0.0
 10
187.4366615681452
 20
456.3708885913226
 30
0.0
 10
187.4897008632541
 20
456.4745236625121
 30
0.0
 10
187.513865535097
 20
456.6068825487488
 30
0.0
 10
187.490974506603
 20
456.7387325653278
 30
0.0
 10
187.3197352622742
 20
456.9839400718153
 30
0.0
 10
186.9769432265474
 20
457.0710310295055
 30
0.0
 10
186.4818302162918
 20
457.1295902448582
 30
0.0
 10
185.8686175742078
 20
457.1879339457955
 30
0.0
 10
185.2191460572631
 20
457.2375572934844
 30
0.0
 10
184.6794549422987
 20
457.2770446985557
 30
0.0
 10
184.2334338835716
 20
457.3162215644876
 30
0.0
 10
183.8447383762989
 20
457.3544498142336
 30
0.0
 10
183.5845709038424
 20
457.382279218886
 30
0.0
 10
183.4541409698396
 20
457.4047947139175
 30
0.0
 10
183.4454747720618
 20
457.4172515895587
 30
0.0
 10
183.440948693278
 20
457.4237574185277
 30
0.0
  0
SPLINE
  5
17A
330
1F
100
AcDbEntity
  8
0
  6
Continuous
 62
     7
370
    15
100
AcDbSpline
210
0.0
220
0.0
230
1.0
 70
     8
 71
     3
 72
    12
 73
     8
 74
     0
 42
0.00000001
 43
0.00000001
 40
0.0
 40
0.0
 40
0.0
 40
0.0
 40
0.1717170412599219
 40
0.5595020738973034
 40
0.7416467429294166
 40
0.9001473095360429
 40
1.0
 40
1.0
 40
1.0
 40
1.0
 10
183.5292753262545
 20
456.605266436472
 30
0.0
 10
183.4636994242299
 20
456.5960933911392
 30
0.0
 10
183.2500348227948
 20
456.5662050477922
 30
0.0
 10
183.0345805460311
 20
456.4923594550745
 30
0.0
 10
182.8723934986567
 20
456.2772092349127
 30
0.0
 10
182.8418718760652
 20
456.1089708519519
 30
0.0
 10
182.876767056352
 20
456.023087007978
 30
0.0
 10
182.8902539296176
 20
455.9898931826497
 30
0.0
  0
LINE
  5
17B
330
1F
100
AcDbEntity
  8
0
  6
Continuous
 62
     7
370
    15
100
AcDbLine
 10
183.040465085
 20
447.3148394669
 30
0.0
 11
181.9220062776
 21
447.3148394669
 31
0.0
  0
LINE
  5
17C
330
1F
100
AcDbEntity
  8
0
  6
Continuous
 62
     7
370
    15
100
AcDbLine
 10
181.9220062776
 20
446.5148408259
 30
0.0
 11
183.6807083769
 21
446.5148408259
 31
0.0
  0
LINE
  5
17D
330
1F
100
AcDbEntity
  8
0
  6
Continuous
 62
     7
370
    15
100
AcDbLine
 10
180.5117156787
 20
460.112582549
 30
0.0
 11
180.5117156787
 21
460.1660479154
 31
0.0
  0
LINE
  5
17E
330
1F
100
AcDbEntity
  8
0
  6
Continuous
 62
     7
370
    15
100
AcDbLine
 10
177.5117170496
 20
460.1660479154
 30
0.0
 11
177.5117170496
 21
460.112582549
 31
0.0
  0
SPLINE
  5
17F
330
1F
100
AcDbEntity
  8
0
  6
Continuous
 62
     7
370
    15
100
AcDbSpline
210
0.0
220
0.0
230
1.0
 70
     8
 71
     3
 72
    15
 73
    11
 74
     0
 42
0.00000001
 43
0.00000001
 40
0.0
 40
0.0
 40
0.0
 40
0.0
 40
0.1077555299954202
 40
0.2352509120200914
 40
0.3627904709205857
 40
0.4902567684572602
 40
0.6176622816893439
 40
0.7450968295387175
 40
0.8724966611848949
 40
1.0
 40
1.0
 40
1.0
 40
1.0
 10
177.5277730507876
 20
444.112579926386
 30
0.0
 10
177.5443128835213
 20
443.800057933328
 30
0.0
 10
177.5804224988277
 20
443.1177627054512
 30
0.0
 10
177.9166218877365
 20
442.1086095816029
 30
0.0
 10
178.474714195952
 20
441.1451364167692
 30
0.0
 10
179.2295365995814
 20
440.3242099936379
 30
0.0
 10
180.1446968505794
 20
439.6889357104189
 30
0.0
 10
181.1719574402591
 20
439.2687885851374
 30
0.0
 10
182.2679334265272
 20
439.0549555262157
 30
0.0
 10
183.0036951192035
 20
439.1204961481471
 30
0.0
 10
183.3717253489519
 20
439.153279765978
 30
0.0
  0
SPLINE
  5
180
330
1F
100
AcDbEntity
  8
0
  6
Continuous
 62
     7
370
    15
100
AcDbSpline
210
0.0
220
0.0
230
1.0
 70
     8
 71
     3
 72
    15
 73
    11
 74
     0
 42
0.00000001
 43
0.00000001
 40
0.0
 40
0.0
 40
0.0
 40
0.0
 40
0.1316521329133259
 40
0.2633118150781532
 40
0.3951881368594772
 40
0.5266702333234908
 40
0.6575475287034128
 40
0.7882113217210472
 40
0.9184609053756765
 40
1.0
 40
1.0
 40
1.0
 40
1.0
 10
182.874034015658
 20
442.1109665478612
 30
0.0
 10
182.7218506719851
 20
442.0991510040968
 30
0.0
 10
182.4174752580784
 20
442.0755192390362
 30
0.0
 10
181.9666113973321
 20
442.1769987188808
 30
0.0
 10
181.5475773110626
 20
442.3638422353593
 30
0.0
 10
181.177194577339
 20
442.6364534021145
 30
0.0
 10
180.8749305100602
 20
442.9823612422765
 30
0.0
 10
180.6557668153093
 20
443.384064610033
 30
0.0
 10
180.5383997281006
 20
443.7703784293172
 30
0.0
 10
180.5282246043387
 20
444.0174549405249
 30
0.0
 10
180.5243071599032
 20
444.112579926386
 30
0.0
  0
SPLINE
  5
181
330
1F
100
AcDbEntity
  8
0
  6
Continuous
 62
     7
370
    15
100
AcDbSpline
210
0.0
220
0.0
230
1.0
 70
     8
 71
     3
 72
    15
 73
    11
 74
     0
 42
0.00000001
 43
0.00000001
 40
0.0
 40
0.0
 40
0.0
 40
0.0
 40
0.1249272082402243
 40
0.24991634699995
 40
0.3749674166976121
 40
0.4999571311568022
 40
0.6249204560387831
 40
0.7499165480319095
 40
0.8748745701264112
 40
1.0
 40
1.0
 40
1.0
 40
1.0
 10
183.5425969643618
 20
465.0430936659719
 30
0.0
 10
183.1762207388051
 20
465.0864239996255
 30
0.0
 10
182.4432866629656
 20
465.1731061472022
 30
0.0
 10
181.3392536848062
 20
465.0079395729385
 30
0.0
 10
180.2984638813249
 20
464.6189851866312
 30
0.0
 10
179.36326862814
 20
464.0139844256653
 30
0.0
 10
178.5826269420394
 20
463.217790560303
 30
0.0
 10
177.9946620673601
 20
462.2734281045024
 30
0.0
 10
177.5988298701238
 20
461.2249845101293
 30
0.0
 10
177.5407676122155
 20
460.4858627743266
 30
0.0
 10
177.5117170496012
 20
460.1160545195485
 30
0.0
  0
SPLINE
  5
182
330
1F
100
AcDbEntity
  8
0
  6
Continuous
 62
     7
370
    15
100
AcDbSpline
210
0.0
220
0.0
230
1.0
 70
     8
 71
     3
 72
    15
 73
    11
 74
     0
 42
0.00000001
 43
0.00000001
 40
0.0
 40
0.0
 40
0.0
 40
0.0
 40
0.1242508113591687
 40
0.2486326926246578
 40
0.3735414934793928
 40
0.4985833623513268
 40
0.6236644052586534
 40
0.7490699200289973
 40
0.8744382257790562
 40
1.0
 40
1.0
 40
1.0
 40
1.0
 10
180.5117156786944
 20
460.1160545195485
 30
0.0
 10
180.5252768382005
 20
460.2680074371194
 30
0.0
 10
180.5524134626318
 20
460.5720735646122
 30
0.0
 10
180.7268664158562
 20
460.9993899781551
 30
0.0
 10
180.9801995171059
 20
461.381035934298
 30
0.0
 10
181.310025825488
 20
461.7009617236232
 30
0.0
 10
181.7009479260325
 20
461.9415444938685
 30
0.0
 10
182.133649632909
 20
462.0931509903546
 30
0.0
 10
182.5911810732997
 20
462.1466135505416
 30
0.0
 10
182.8930997468939
 20
462.1059288374675
 30
0.0
 10
183.0441754741694
 20
462.0855707968618
 30
0.0
  0
LINE
  5
183
330
1F
100
AcDbEntity
  8
0
  6
Continuous
 62
     7
370
    15
100
AcDbLine
 10
198.4147828503
 20
444.7277147616
 30
0.0
 11
182.8738104982
 21
442.1112943734
 31
0.0
  0
LINE
  5
184
330
1F
100
AcDbEntity
  8
0
  6
Continuous
 62
     7
370
    15
100
AcDbLine
 10
183.37186691
 20
439.1529370393
 30
0.0
 11
198.912839262
 21
441.7693425263
 31
0.0
  0
LINE
  5
185
330
1F
100
AcDbEntity
  8
0
  6
Continuous
 62
     7
370
    15
100
AcDbLine
 10
183.044391541
 20
462.0851386632
 30
0.0
 11
198.5853564425
 21
459.468718275
 31
0.0
  0
LINE
  5
186
330
1F
100
AcDbEntity
  8
0
  6
Continuous
 62
     7
370
    15
100
AcDbLine
 10
199.0834277554
 20
462.4270905103
 30
0.0
 11
183.5424554033
 21
465.0435108985
 31
0.0
  0
SPLINE
  5
187
330
1F
100
AcDbEntity
  8
0
  6
Continuous
 62
     7
370
    15
100
AcDbSpline
210
0.0
220
0.0
230
1.0
 70
     8
 71
     3
 72
    12
 73
     8
 74
     0
 42
0.00000001
 43
0.00000001
 40
0.0
 40
0.0
 40
0.0
 40
0.0
 40
0.1526137453424628
 40
0.2973908863817187
 40
0.5623712734281687
 40
0.7966013357376034
 40
1.0
 40
1.0
 40
1.0
 40
1.0
 10
198.9124965353037
 20
441.7696554507161
 30
0.0
 10
199.1637163353339
 20
441.8223931416774
 30
0.0
 10
199.6532559822377
 20
441.9251604817064
 30
0.0
 10
200.5027756921631
 20
442.3544137315673
 30
0.0
 10
201.3147697543019
 20
443.0988032343602
 30
0.0
 10
201.8791984179503
 20
444.1698501563964
 30
0.0
 10
201.9608877344271
 20
444.9047752486542
 30
0.0
 10
201.9988548440958
 20
445.2463496769811
 30
0.0
  0
SPLINE
  5
188
330
1F
100
AcDbEntity
  8
0
  6
Continuous
 62
     7
370
    15
100
AcDbSpline
210
0.0
220
0.0
230
1.0
 70
     8
 71
     3
 72
    11
 73
     7
 74
     0
 42
0.00000001
 43
0.00000001
 40
0.0
 40
0.0
 40
0.0
 40
0.0
 40
0.2003606672654827
 40
0.4327986242225684
 40
0.6990262283165949
 40
1.0
 40
1.0
 40
1.0
 40
1.0
 10
199.0005474967982
 20
445.2463496769811
 30
0.0
 10
198.9873207430635
 20
445.1899214362147
 30
0.0
 10
198.958749662235
 20
445.0680309209539
 30
0.0
 10
198.842854643086
 20
444.9023253216888
 30
0.0
 10
198.6581082257163
 20
444.763419766392
 30
0.0
 10
198.5004809108177
 20
444.7400246120883
 30
0.0
 10
198.4168392105128
 20
444.7276104535009
 30
0.0
  0
SPLINE
  5
189
330
1F
100
AcDbEntity
  8
0
  6
Continuous
 62
     7
370
    15
100
AcDbSpline
210
0.0
220
0.0
230
1.0
 70
     8
 71
     3
 72
    12
 73
     8
 74
     0
 42
0.00000001
 43
0.00000001
 40
0.0
 40
0.0
 40
0.0
 40
0.0
 40
0.2034073854615157
 40
0.437640676923934
 40
0.702616606272144
 40
0.8473902833889199
 40
1.0
 40
1.0
 40
1.0
 40
1.0
 10
201.9988548440958
 20
458.8049758519078
 30
0.0
 10
201.9774213147362
 20
459.1479870391266
 30
0.0
 10
201.9313060555655
 20
459.8859919440434
 30
0.0
 10
201.4191792309423
 20
460.9830926433182
 30
0.0
 10
200.6439845205401
 20
461.7658592389611
 30
0.0
 10
199.8161293680397
 20
462.2355771132127
 30
0.0
 10
199.3321411337006
 20
462.3618357837556
 30
0.0
 10
199.0837704820658
 20
462.4266285742665
 30
0.0
  0
SPLINE
  5
18A
330
1F
100
AcDbEntity
  8
0
  6
Continuous
 62
     7
370
    15
100
AcDbSpline
210
0.0
220
0.0
230
1.0
 70
     8
 71
     3
 72
    12
 73
     8
 74
     0
 42
0.00000001
 43
0.00000001
 40
0.0
 40
0.0
 40
0.0
 40
0.0
 40
0.1555469491259979
 40
0.3021982956477866
 40
0.5679584516111281
 40
0.799951343323332
 40
1.0
 40
1.0
 40
1.0
 40
1.0
 10
198.5834490938212
 20
459.4696421469594
 30
0.0
 10
198.623990854995
 20
459.4538913688862
 30
0.0
 10
198.7027558272309
 20
459.4232905868353
 30
0.0
 10
198.8323812041012
 20
459.3282579526336
 30
0.0
 10
198.9468164180275
 20
459.1820741739864
 30
0.0
 10
199.0109678259072
 20
458.9878276166579
 30
0.0
 10
199.0038454008373
 20
458.8628461520898
 30
0.0
 10
199.0005474967982
 20
458.8049758519078
 30
0.0
  0
LINE
  5
18B
330
1F
100
AcDbEntity
  8
0
  6
Continuous
 62
     7
370
    15
100
AcDbLine
 10
198.9996981306
 20
458.8549692477
 30
0.0
 11
198.9996981306
 21
458.6125720586
 31
0.0
  0
LINE
  5
18C
330
1F
100
AcDbEntity
  8
0
  6
Continuous
 62
     7
370
    15
100
AcDbLine
 10
198.9996981306
 20
445.6125755156
 30
0.0
 11
198.9996981306
 21
445.19634138
 31
0.0
  0
LINE
  5
18D
330
1F
100
AcDbEntity
  8
0
  6
Continuous
 62
     7
370
    15
100
AcDbLine
 10
201.9997042103
 20
445.19634138
 30
0.0
 11
201.9997042103
 21
445.6153173293
 31
0.0
  0
LINE
  5
18E
330
1F
100
AcDbEntity
  8
0
  6
Continuous
 62
     7
370
    15
100
AcDbLine
 10
201.9997042103
 20
458.6098302449
 30
0.0
 11
201.9997042103
 21
458.8549692477
 31
0.0
  0
LINE
  5
18F
330
1F
100
AcDbEntity
  8
0
  6
Continuous
 62
     7
370
    15
100
AcDbLine
 10
188.2989805622
 20
457.7125717248
 30
0.0
 11
186.680707006
 21
457.7125717248
 31
0.0
  0
LINE
  5
190
330
1F
100
AcDbEntity
  8
0
  6
Continuous
 62
     7
370
    15
100
AcDbLine
 10
187.3076286597
 20
456.9125730838
 30
0.0
 11
188.2989805622
 21
456.9125730838
 31
0.0
  0
LINE
  5
191
330
1F
100
AcDbEntity
  8
0
  6
Continuous
 62
     7
370
    15
100
AcDbLine
 10
188.637207119
 20
458.980720147
 30
0.0
 11
188.3706849499
 21
457.7724743928
 31
0.0
  0
LINE
  5
192
330
1F
100
AcDbEntity
  8
0
  6
Continuous
 62
     7
370
    15
100
AcDbLine
 10
189.1388398094
 20
457.540925249
 30
0.0
 11
189.4184228463
 21
458.8083882178
 31
0.0
  0
SPLINE
  5
193
330
1F
100
AcDbEntity
  8
0
  6
Continuous
 62
     7
370
    15
100
AcDbSpline
210
0.0
220
0.0
230
1.0
 70
     8
 71
     3
 72
    11
 73
     7
 74
     0
 42
0.00000001
 43
0.00000001
 40
0.0
 40
0.0
 40
0.0
 40
0.0
 40
0.2541316261173311
 40
0.502266394026237
 40
0.7495055111375698
 40
1.0
 40
1.0
 40
1.0
 40
1.0
 10
188.2989805622126
 20
456.9125730837728
 30
0.0
 10
188.3990689773299
 20
456.9228242193022
 30
0.0
 10
188.5968839762454
 20
456.9430845897083
 30
0.0
 10
188.8550312368231
 20
457.0971063294488
 30
0.0
 10
189.0584849358978
 20
457.3161795627868
 30
0.0
 10
189.1202202074529
 20
457.5032326193653
 30
0.0
 10
189.1512897295977
 20
457.5973708475972
 30
0.0
  0
LINE
  5
194
330
1F
100
AcDbEntity
  8
0
  6
Continuous
 62
     7
370
    15
100
AcDbLine
 10
187.9107084556
 20
459.312583908
 30
0.0
 11
187.9107084556
 21
460.112582549
 31
0.0
  0
LINE
  5
195
330
1F
100
AcDbEntity
  8
0
  6
Continuous
 62
     7
370
    15
100
AcDbLine
 10
187.9107084556
 20
444.1125799264
 30
0.0
 11
187.9107084556
 21
444.9125785674
 31
0.0
  0
LINE
  5
196
330
1F
100
AcDbEntity
  8
0
  6
Continuous
 62
     7
370
    15
100
AcDbLine
 10
182.9807114286
 20
460.4125727261
 30
0.0
 11
182.9807114286
 21
460.112582549
 31
0.0
  0
LINE
  5
197
330
1F
100
AcDbEntity
  8
0
  6
Continuous
 62
     7
370
    15
100
AcDbLine
 10
187.3807114048
 20
460.112582549
 30
0.0
 11
187.3807114048
 21
460.4125727261
 31
0.0
  0
ARC
  5
198
330
1F
100
AcDbEntity
  8
0
  6
Continuous
 62
     7
370
    15
100
AcDbCircle
 10
185.1807077141
 20
457.3054359964
 30
0.0
 40
3.807142857143322
100
AcDbArc
 50
54.6997515601
 51
125.3002484399
  0
LINE
  5
199
330
1F
100
AcDbEntity
  8
0
  6
Continuous
 62
     7
370
    15
100
AcDbLine
 10
183.0807056708
 20
443.7125731553
 30
0.0
 11
183.0807056708
 21
443.3125812854
 31
0.0
  0
LINE
  5
19A
330
1F
100
AcDbEntity
  8
0
  6
Continuous
 62
     7
370
    15
100
AcDbLine
 10
187.280709712
 20
443.3125812854
 30
0.0
 11
187.280709712
 21
443.7125731553
 31
0.0
  0
ARC
  5
19B
330
1F
100
AcDbEntity
  8
0
  6
Continuous
 62
     7
370
    15
100
AcDbCircle
 10
183.2807077141
 20
444.1125788535
 30
0.0
 40
0.4000000000007731
100
AcDbArc
 50
270.0
 51
0.0
  0
ARC
  5
19C
330
1F
100
AcDbEntity
  8
0
  6
Continuous
 62
     7
370
    15
100
AcDbCircle
 10
187.0807077141
 20
444.1125788535
 30
0.0
 40
0.4000000000008015
100
AcDbArc
 50
180.0
 51
270.0
  0
LINE
  5
19D
330
1F
100
AcDbEntity
  8
0
  6
Continuous
 62
     7
370
    15
100
AcDbLine
 10
183.6807083769
 20
459.312583908
 30
0.0
 11
183.6807083769
 21
458.8625837411
 31
0.0
  0
LINE
  5
19E
330
1F
100
AcDbEntity
  8
0
  6
Continuous
 62
     7
370
    15
100
AcDbLine
 10
183.6807083769
 20
457.8625817145
 30
0.0
 11
183.6807083769
 21
457.3738683309
 31
0.0
  0
LINE
  5
19F
330
1F
100
AcDbEntity
  8
0
  6
Continuous
 62
     7
370
    15
100
AcDbLine
 10
183.6807083769
 20
456.5777588929
 30
0.0
 11
183.6807083769
 21
456.4081091727
 31
0.0
  0
LINE
  5
1A0
330
1F
100
AcDbEntity
  8
0
  6
Continuous
 62
     7
370
    15
100
AcDbLine
 10
183.6807083769
 20
447.1229572143
 30
0.0
 11
183.6807083769
 21
446.3625807609
 31
0.0
  0
LINE
  5
1A1
330
1F
100
AcDbEntity
  8
0
  6
Continuous
 62
     7
370
    15
100
AcDbLine
 10
183.6807083769
 20
445.3625787343
 30
0.0
 11
183.6807083769
 21
444.9125785674
 31
0.0
  0
LINE
  5
1A2
330
1F
100
AcDbEntity
  8
0
  6
Continuous
 62
     7
370
    15
100
AcDbLine
 10
186.680707006
 20
444.9125785674
 30
0.0
 11
186.680707006
 21
445.3625787343
 31
0.0
  0
LINE
  5
1A3
330
1F
100
AcDbEntity
  8
0
  6
Continuous
 62
     7
370
    15
100
AcDbLine
 10
186.680707006
 20
446.3625807609
 30
0.0
 11
186.680707006
 21
446.8497146214
 31
0.0
  0
LINE
  5
1A4
330
1F
100
AcDbEntity
  8
0
  6
Continuous
 62
     7
370
    15
100
AcDbLine
 10
186.680707006
 20
456.1576355542
 30
0.0
 11
186.680707006
 21
456.3455839003
 31
0.0
  0
LINE
  5
1A5
330
1F
100
AcDbEntity
  8
0
  6
Continuous
 62
     7
370
    15
100
AcDbLine
 10
186.680707006
 20
457.1006555404
 30
0.0
 11
186.680707006
 21
457.8625817145
 31
0.0
  0
LINE
  5
1A6
330
1F
100
AcDbEntity
  8
0
  6
Continuous
 62
     7
370
    15
100
AcDbLine
 10
186.680707006
 20
458.8625837411
 30
0.0
 11
186.680707006
 21
459.312583908
 31
0.0
  0
LINE
  5
1A7
330
1F
100
AcDbEntity
  8
0
  6
Continuous
 62
     7
370
    15
100
AcDbLine
 10
202.6808362885
 20
87.4125767793
 30
0.0
 11
201.7288160009
 21
87.4125767793
 31
0.0
  0
LINE
  5
1A8
330
1F
100
AcDbEntity
  8
0
  6
Continuous
 62
     7
370
    15
100
AcDbLine
 10
202.6808362885
 20
87.4125767793
 30
0.0
 11
202.6808362885
 21
76.8125761594
 31
0.0
  0
LINE
  5
1A9
330
1F
100
AcDbEntity
  8
0
  6
Continuous
 62
     7
370
    15
100
AcDbLine
 10
201.7288160009
 20
76.8125761594
 30
0.0
 11
202.6808362885
 21
76.8125761594
 31
0.0
  0
LINE
  5
1AA
330
1F
100
AcDbEntity
  8
0
  6
Continuous
 62
     7
370
    15
100
AcDbLine
 10
201.7288160009
 20
87.4125767793
 30
0.0
 11
201.7288160009
 21
76.8125761594
 31
0.0
  0
LINE
  5
1AB
330
1F
100
AcDbEntity
  8
0
  6
Continuous
 62
     7
370
    15
100
AcDbLine
 10
200.9983014746
 20
88.6125821914
 30
0.0
 11
201.9503217621
 21
88.6125821914
 31
0.0
  0
LWPOLYLINE
  5
1AC
330
1F
100
AcDbEntity
  8
0
  6
Continuous
 62
     7
370
    15
100
AcDbPolyline
 90
        9
 70
   128
 43
0.0
 10
201.9503217621
 20
88.6125821914
 10
202.0928364677
 20
88.5895151938
 10
202.2298824472
 20
88.5212380732
 10
202.3561697884
 20
88.4103436316
 10
202.4668705149
 20
88.2611085023
 10
202.5577228947
 20
88.0792696322
 10
202.6252251549
 20
87.8718007649
 10
202.6667993946
 20
87.6466889228
 10
202.6808362885
 20
87.4125767793
  0
LWPOLYLINE
  5
1AD
330
1F
100
AcDbEntity
  8
0
  6
Continuous
 62
     7
370
    15
100
AcDbPolyline
 90
        9
 70
   128
 43
0.0
 10
201.7288160009
 20
87.4125767793
 10
201.7147791071
 20
87.6466889228
 10
201.6732048674
 20
87.8718007649
 10
201.6057026072
 20
88.0792696322
 10
201.5148502274
 20
88.2611085023
 10
201.4041495008
 20
88.4103436316
 10
201.2778472586
 20
88.5212380732
 10
201.1408161802
 20
88.5895151938
 10
200.9983014746
 20
88.6125821914
  0
LINE
  5
1AE
330
1F
100
AcDbEntity
  8
0
  6
Continuous
 62
     7
370
    15
100
AcDbLine
 10
201.9503217621
 20
75.6125856484
 30
0.0
 11
200.9983014746
 21
75.6125856484
 31
0.0
  0
LWPOLYLINE
  5
1AF
330
1F
100
AcDbEntity
  8
0
  6
Continuous
 62
     7
370
    15
100
AcDbPolyline
 90
        9
 70
   128
 43
0.0
 10
200.9983014746
 20
75.6125856484
 10
201.1408161802
 20
75.6356377448
 10
201.2778472586
 20
75.7039297666
 10
201.4041495008
 20
75.814809307
 10
201.5148502274
 20
75.9640444363
 10
201.6057026072
 20
76.1458982076
 10
201.6732048674
 20
76.3533521737
 10
201.7147791071
 20
76.5784640159
 10
201.7288160009
 20
76.8125761594
  0
LWPOLYLINE
  5
1B0
330
1F
100
AcDbEntity
  8
0
  6
Continuous
 62
     7
370
    15
100
AcDbPolyline
 90
        9
 70
   128
 43
0.0
 10
202.6808362885
 20
76.8125761594
 10
202.6667993946
 20
76.5784640159
 10
202.6252251549
 20
76.3533521737
 10
202.5577228947
 20
76.1458982076
 10
202.4668705149
 20
75.9640444363
 10
202.3561697884
 20
75.814809307
 10
202.2298824472
 20
75.7039297666
 10
202.0928364677
 20
75.6356377448
 10
201.9503217621
 20
75.6125856484
  0
LINE
  5
1B1
330
1F
100
AcDbEntity
  8
0
  6
Continuous
 62
     7
370
    15
100
AcDbLine
 10
198.2793163939
 20
88.6125821914
 30
0.0
 11
198.2793163939
 21
75.6125856484
 31
0.0
  0
LINE
  5
1B2
330
1F
100
AcDbEntity
  8
0
  6
Continuous
 62
     7
370
    15
100
AcDbLine
 10
198.2793163939
 20
88.6125821914
 30
0.0
 11
200.9983014746
 21
88.6125821914
 31
0.0
  0
LINE
  5
1B3
330
1F
100
AcDbEntity
  8
0
  6
Continuous
 62
     7
370
    15
100
AcDbLine
 10
200.9983014746
 20
75.6125856484
 30
0.0
 11
198.2793163939
 21
75.6125856484
 31
0.0
  0
LINE
  5
1B4
330
1F
100
AcDbEntity
  8
0
  6
Continuous
 62
     7
370
    15
100
AcDbLine
 10
201.9503217621
 20
445.6125755156
 30
0.0
 11
200.9983014746
 21
445.6125755156
 31
0.0
  0
LWPOLYLINE
  5
1B5
330
1F
100
AcDbEntity
  8
0
  6
Continuous
 62
     7
370
    15
100
AcDbPolyline
 90
        9
 70
   128
 43
0.0
 10
200.9983014746
 20
445.6125755156
 10
201.1408161802
 20
445.6356425132
 10
201.2778472586
 20
445.7039196338
 10
201.4041495008
 20
445.8148140754
 10
201.5148502274
 20
445.9640492047
 10
201.6057026072
 20
446.1458880748
 10
201.6732048674
 20
446.3533569421
 10
201.7147791071
 20
446.5784687842
 10
201.7288160009
 20
446.8125809277
  0
LINE
  5
1B6
330
1F
100
AcDbEntity
  8
0
  6
Continuous
 62
     7
370
    15
100
AcDbLine
 10
201.7288160009
 20
446.8125809277
 30
0.0
 11
202.6808362885
 21
446.8125809277
 31
0.0
  0
LWPOLYLINE
  5
1B7
330
1F
100
AcDbEntity
  8
0
  6
Continuous
 62
     7
370
    15
100
AcDbPolyline
 90
        9
 70
   128
 43
0.0
 10
202.6808362885
 20
446.8125809277
 10
202.6667993946
 20
446.5784687842
 10
202.6252251549
 20
446.3533569421
 10
202.5577228947
 20
446.1458880748
 10
202.4668705149
 20
445.9640492047
 10
202.3561697884
 20
445.8148140754
 10
202.2298824472
 20
445.7039196338
 10
202.0928364677
 20
445.6356425132
 10
201.9503217621
 20
445.6125755156
  0
LINE
  5
1B8
330
1F
100
AcDbEntity
  8
0
  6
Continuous
 62
     7
370
    15
100
AcDbLine
 10
198.2793163939
 20
458.6125720586
 30
0.0
 11
198.2793163939
 21
445.6125755156
 31
0.0
  0
LINE
  5
1B9
330
1F
100
AcDbEntity
  8
0
  6
Continuous
 62
     7
370
    15
100
AcDbLine
 10
198.2793163939
 20
458.6125720586
 30
0.0
 11
200.9983014746
 21
458.6125720586
 31
0.0
  0
LWPOLYLINE
  5
1BA
330
1F
100
AcDbEntity
  8
0
  6
Continuous
 62
     7
370
    15
100
AcDbPolyline
 90
        9
 70
   128
 43
0.0
 10
201.7288160009
 20
457.4125815476
 10
201.7147791071
 20
457.6466936911
 10
201.6732048674
 20
457.8718055333
 10
201.6057026072
 20
458.0792594994
 10
201.5148502274
 20
458.2611132707
 10
201.4041495008
 20
458.4103484
 10
201.2778472586
 20
458.5212279405
 10
201.1408161802
 20
458.5895199622
 10
200.9983014746
 20
458.6125720586
  0
LINE
  5
1BB
330
1F
100
AcDbEntity
  8
0
  6
Continuous
 62
     7
370
    15
100
AcDbLine
 10
201.7288160009
 20
457.4125815476
 30
0.0
 11
201.7288160009
 21
446.8125809277
 31
0.0
  0
LINE
  5
1BC
330
1F
100
AcDbEntity
  8
0
  6
Continuous
 62
     7
370
    15
100
AcDbLine
 10
200.9983014746
 20
445.6125755156
 30
0.0
 11
198.2793163939
 21
445.6125755156
 31
0.0
  0
LINE
  5
1BD
330
1F
100
AcDbEntity
  8
0
  6
Continuous
 62
     7
370
    15
100
AcDbLine
 10
202.6808362885
 20
457.4125815476
 30
0.0
 11
201.7288160009
 21
457.4125815476
 31
0.0
  0
LINE
  5
1BE
330
1F
100
AcDbEntity
  8
0
  6
Continuous
 62
     7
370
    15
100
AcDbLine
 10
202.6808362885
 20
457.4125815476
 30
0.0
 11
202.6808362885
 21
446.8125809277
 31
0.0
  0
LINE
  5
1BF
330
1F
100
AcDbEntity
  8
0
  6
Continuous
 62
     7
370
    15
100
AcDbLine
 10
200.9983014746
 20
458.6125720586
 30
0.0
 11
201.9503217621
 21
458.6125720586
 31
0.0
  0
LWPOLYLINE
  5
1C0
330
1F
100
AcDbEntity
  8
0
  6
Continuous
 62
     7
370
    15
100
AcDbPolyline
 90
        9
 70
   128
 43
0.0
 10
201.9503217621
 20
458.6125720586
 10
202.0928364677
 20
458.5895199622
 10
202.2298824472
 20
458.5212279405
 10
202.3561697884
 20
458.4103484
 10
202.4668705149
 20
458.2611132707
 10
202.5577228947
 20
458.0792594994
 10
202.6252251549
 20
457.8718055333
 10
202.6667993946
 20
457.6466936911
 10
202.6808362885
 20
457.4125815476
  0
LINE
  5
1C1
330
1F
100
AcDbEntity
  8
0
  6
Continuous
 62
     7
370
    15
100
AcDbLine
 10
197.7007043047
 20
88.6125821914
 30
0.0
 11
198.2793163939
 21
88.6125821914
 31
0.0
  0
LINE
  5
1C2
330
1F
100
AcDbEntity
  8
0
  6
Continuous
 62
     7
370
    15
100
AcDbLine
 10
198.2793163939
 20
75.6125856484
 30
0.0
 11
197.7007043047
 21
75.6125856484
 31
0.0
  0
LINE
  5
1C3
330
1F
100
AcDbEntity
  8
0
  6
Continuous
 62
     7
370
    15
100
AcDbLine
 10
197.7007043047
 20
458.6125720586
 30
0.0
 11
198.2793163939
 21
458.6125720586
 31
0.0
  0
LINE
  5
1C4
330
1F
100
AcDbEntity
  8
0
  6
Continuous
 62
     7
370
    15
100
AcDbLine
 10
198.2793163939
 20
445.6125755156
 30
0.0
 11
197.7007043047
 21
445.6125755156
 31
0.0
  0
CIRCLE
  5
1C5
330
1F
100
AcDbEntity
  8
0
  6
Continuous
 62
     7
370
    15
100
AcDbCircle
 10
208.2007077141
 20
87.1125788535
 30
0.0
 40
3.0
  0
LINE
  5
1C6
330
1F
100
AcDbEntity
  8
0
  6
Continuous
 62
     7
370
    15
100
AcDbLine
 10
207.8007113619
 20
87.512578472
 30
0.0
 11
206.3007008715
 21
87.512578472
 31
0.0
  0
LINE
  5
1C7
330
1F
100
AcDbEntity
  8
0
  6
Continuous
 62
     7
370
    15
100
AcDbLine
 10
206.3007008715
 20
87.512578472
 30
0.0
 11
206.3007008715
 21
86.712579831
 31
0.0
  0
LINE
  5
1C8
330
1F
100
AcDbEntity
  8
0
  6
Continuous
 62
     7
370
    15
100
AcDbLine
 10
206.3007008715
 20
86.712579831
 30
0.0
 11
207.8007113619
 21
86.712579831
 31
0.0
  0
LINE
  5
1C9
330
1F
100
AcDbEntity
  8
0
  6
Continuous
 62
     7
370
    15
100
AcDbLine
 10
207.8007113619
 20
86.712579831
 30
0.0
 11
207.8007113619
 21
85.2125842418
 31
0.0
  0
LINE
  5
1CA
330
1F
100
AcDbEntity
  8
0
  6
Continuous
 62
     7
370
    15
100
AcDbLine
 10
208.6007100029
 20
85.2125842418
 30
0.0
 11
208.6007100029
 21
86.712579831
 31
0.0
  0
LINE
  5
1CB
330
1F
100
AcDbEntity
  8
0
  6
Continuous
 62
     7
370
    15
100
AcDbLine
 10
210.1007055922
 20
86.712579831
 30
0.0
 11
210.1007055922
 21
87.512578472
 31
0.0
  0
LINE
  5
1CC
330
1F
100
AcDbEntity
  8
0
  6
Continuous
 62
     7
370
    15
100
AcDbLine
 10
210.1007055922
 20
87.512578472
 30
0.0
 11
208.6007100029
 21
87.512578472
 31
0.0
  0
LINE
  5
1CD
330
1F
100
AcDbEntity
  8
0
  6
Continuous
 62
     7
370
    15
100
AcDbLine
 10
208.6007100029
 20
87.512578472
 30
0.0
 11
208.6007100029
 21
89.0125740613
 31
0.0
  0
LINE
  5
1CE
330
1F
100
AcDbEntity
  8
0
  6
Continuous
 62
     7
370
    15
100
AcDbLine
 10
208.6007100029
 20
89.0125740613
 30
0.0
 11
207.8007113619
 21
89.0125740613
 31
0.0
  0
LINE
  5
1CF
330
1F
100
AcDbEntity
  8
0
  6
Continuous
 62
     7
370
    15
100
AcDbLine
 10
207.8007113619
 20
89.0125740613
 30
0.0
 11
207.8007113619
 21
87.512578472
 31
0.0
  0
LINE
  5
1D0
330
1F
100
AcDbEntity
  8
0
  6
Continuous
 62
     7
370
    15
100
AcDbLine
 10
207.8007113619
 20
85.2125842418
 30
0.0
 11
208.6007100029
 21
85.2125842418
 31
0.0
  0
LINE
  5
1D1
330
1F
100
AcDbEntity
  8
0
  6
Continuous
 62
     7
370
    15
100
AcDbLine
 10
208.6007100029
 20
86.712579831
 30
0.0
 11
210.1007055922
 21
86.712579831
 31
0.0
  0
CIRCLE
  5
1D2
330
1F
100
AcDbEntity
  8
0
  6
Continuous
 62
     7
370
    15
100
AcDbCircle
 10
208.2007077141
 20
77.1125788535
 30
0.0
 40
3.0
  0
LINE
  5
1D3
330
1F
100
AcDbEntity
  8
0
  6
Continuous
 62
     7
370
    15
100
AcDbLine
 10
208.6007100029
 20
75.2125788773
 30
0.0
 11
208.6007100029
 21
76.7125744666
 31
0.0
  0
LINE
  5
1D4
330
1F
100
AcDbEntity
  8
0
  6
Continuous
 62
     7
370
    15
100
AcDbLine
 10
210.1007055922
 20
76.7125744666
 30
0.0
 11
210.1007055922
 21
77.5125731076
 31
0.0
  0
LINE
  5
1D5
330
1F
100
AcDbEntity
  8
0
  6
Continuous
 62
     7
370
    15
100
AcDbLine
 10
210.1007055922
 20
77.5125731076
 30
0.0
 11
208.6007100029
 21
77.5125731076
 31
0.0
  0
LINE
  5
1D6
330
1F
100
AcDbEntity
  8
0
  6
Continuous
 62
     7
370
    15
100
AcDbLine
 10
208.6007100029
 20
77.5125731076
 30
0.0
 11
208.6007100029
 21
79.012583598
 31
0.0
  0
LINE
  5
1D7
330
1F
100
AcDbEntity
  8
0
  6
Continuous
 62
     7
370
    15
100
AcDbLine
 10
207.8007113619
 20
79.012583598
 30
0.0
 11
207.8007113619
 21
77.5125731076
 31
0.0
  0
LINE
  5
1D8
330
1F
100
AcDbEntity
  8
0
  6
Continuous
 62
     7
370
    15
100
AcDbLine
 10
206.3007008715
 20
77.5125731076
 30
0.0
 11
206.3007008715
 21
76.7125744666
 31
0.0
  0
LINE
  5
1D9
330
1F
100
AcDbEntity
  8
0
  6
Continuous
 62
     7
370
    15
100
AcDbLine
 10
206.3007008715
 20
76.7125744666
 30
0.0
 11
207.8007113619
 21
76.7125744666
 31
0.0
  0
LINE
  5
1DA
330
1F
100
AcDbEntity
  8
0
  6
Continuous
 62
     7
370
    15
100
AcDbLine
 10
208.6007100029
 20
79.012583598
 30
0.0
 11
207.8007113619
 21
79.012583598
 31
0.0
  0
LINE
  5
1DB
330
1F
100
AcDbEntity
  8
0
  6
Continuous
 62
     7
370
    15
100
AcDbLine
 10
207.8007113619
 20
75.2125788773
 30
0.0
 11
208.6007100029
 21
75.2125788773
 31
0.0
  0
LINE
  5
1DC
330
1F
100
AcDbEntity
  8
0
  6
Continuous
 62
     7
370
    15
100
AcDbLine
 10
207.8007113619
 20
76.7125744666
 30
0.0
 11
207.8007113619
 21
75.2125788773
 31
0.0
  0
LINE
  5
1DD
330
1F
100
AcDbEntity
  8
0
  6
Continuous
 62
     7
370
    15
100
AcDbLine
 10
207.8007113619
 20
77.5125731076
 30
0.0
 11
206.3007008715
 21
77.5125731076
 31
0.0
  0
LINE
  5
1DE
330
1F
100
AcDbEntity
  8
0
  6
Continuous
 62
     7
370
    15
100
AcDbLine
 10
208.6007100029
 20
76.7125744666
 30
0.0
 11
210.1007055922
 21
76.7125744666
 31
0.0
  0
CIRCLE
  5
1DF
330
1F
100
AcDbEntity
  8
0
  6
Continuous
 62
     7
370
    15
100
AcDbCircle
 10
208.2007077141
 20
457.1125788535
 30
0.0
 40
3.0
  0
LINE
  5
1E0
330
1F
100
AcDbEntity
  8
0
  6
Continuous
 62
     7
370
    15
100
AcDbLine
 10
207.8007113619
 20
457.5125832404
 30
0.0
 11
206.3007008715
 21
457.5125832404
 31
0.0
  0
LINE
  5
1E1
330
1F
100
AcDbEntity
  8
0
  6
Continuous
 62
     7
370
    15
100
AcDbLine
 10
206.3007008715
 20
457.5125832404
 30
0.0
 11
206.3007008715
 21
456.7125845994
 31
0.0
  0
LINE
  5
1E2
330
1F
100
AcDbEntity
  8
0
  6
Continuous
 62
     7
370
    15
100
AcDbLine
 10
206.3007008715
 20
456.7125845994
 30
0.0
 11
207.8007113619
 21
456.7125845994
 31
0.0
  0
LINE
  5
1E3
330
1F
100
AcDbEntity
  8
0
  6
Continuous
 62
     7
370
    15
100
AcDbLine
 10
207.8007113619
 20
456.7125845994
 30
0.0
 11
207.8007113619
 21
455.212574109
 31
0.0
  0
LINE
  5
1E4
330
1F
100
AcDbEntity
  8
0
  6
Continuous
 62
     7
370
    15
100
AcDbLine
 10
207.8007113619
 20
455.212574109
 30
0.0
 11
208.6007100029
 21
455.212574109
 31
0.0
  0
LINE
  5
1E5
330
1F
100
AcDbEntity
  8
0
  6
Continuous
 62
     7
370
    15
100
AcDbLine
 10
208.6007100029
 20
455.212574109
 30
0.0
 11
208.6007100029
 21
456.7125845994
 31
0.0
  0
LINE
  5
1E6
330
1F
100
AcDbEntity
  8
0
  6
Continuous
 62
     7
370
    15
100
AcDbLine
 10
208.6007100029
 20
456.7125845994
 30
0.0
 11
210.1007055922
 21
456.7125845994
 31
0.0
  0
LINE
  5
1E7
330
1F
100
AcDbEntity
  8
0
  6
Continuous
 62
     7
370
    15
100
AcDbLine
 10
210.1007055922
 20
456.7125845994
 30
0.0
 11
210.1007055922
 21
457.5125832404
 31
0.0
  0
LINE
  5
1E8
330
1F
100
AcDbEntity
  8
0
  6
Continuous
 62
     7
370
    15
100
AcDbLine
 10
210.1007055922
 20
457.5125832404
 30
0.0
 11
208.6007100029
 21
457.5125832404
 31
0.0
  0
LINE
  5
1E9
330
1F
100
AcDbEntity
  8
0
  6
Continuous
 62
     7
370
    15
100
AcDbLine
 10
208.6007100029
 20
457.5125832404
 30
0.0
 11
208.6007100029
 21
459.0125788297
 31
0.0
  0
LINE
  5
1EA
330
1F
100
AcDbEntity
  8
0
  6
Continuous
 62
     7
370
    15
100
AcDbLine
 10
208.6007100029
 20
459.0125788297
 30
0.0
 11
207.8007113619
 21
459.0125788297
 31
0.0
  0
LINE
  5
1EB
330
1F
100
AcDbEntity
  8
0
  6
Continuous
 62
     7
370
    15
100
AcDbLine
 10
207.8007113619
 20
459.0125788297
 30
0.0
 11
207.8007113619
 21
457.5125832404
 31
0.0
  0
LINE
  5
1EC
330
1F
100
AcDbEntity
  8
0
  6
Continuous
 62
     7
370
    15
100
AcDbLine
 10
210.1007055922
 20
446.712579235
 30
0.0
 11
210.1007055922
 21
447.512577876
 31
0.0
  0
LINE
  5
1ED
330
1F
100
AcDbEntity
  8
0
  6
Continuous
 62
     7
370
    15
100
AcDbLine
 10
206.3007008715
 20
447.512577876
 30
0.0
 11
206.3007008715
 21
446.712579235
 31
0.0
  0
LINE
  5
1EE
330
1F
100
AcDbEntity
  8
0
  6
Continuous
 62
     7
370
    15
100
AcDbLine
 10
206.3007008715
 20
446.712579235
 30
0.0
 11
207.8007113619
 21
446.712579235
 31
0.0
  0
LINE
  5
1EF
330
1F
100
AcDbEntity
  8
0
  6
Continuous
 62
     7
370
    15
100
AcDbLine
 10
207.8007113619
 20
446.712579235
 30
0.0
 11
207.8007113619
 21
445.2125836457
 31
0.0
  0
LINE
  5
1F0
330
1F
100
AcDbEntity
  8
0
  6
Continuous
 62
     7
370
    15
100
AcDbLine
 10
207.8007113619
 20
447.512577876
 30
0.0
 11
206.3007008715
 21
447.512577876
 31
0.0
  0
LINE
  5
1F1
330
1F
100
AcDbEntity
  8
0
  6
Continuous
 62
     7
370
    15
100
AcDbLine
 10
208.6007100029
 20
449.0125734652
 30
0.0
 11
207.8007113619
 21
449.0125734652
 31
0.0
  0
LINE
  5
1F2
330
1F
100
AcDbEntity
  8
0
  6
Continuous
 62
     7
370
    15
100
AcDbLine
 10
208.6007100029
 20
447.512577876
 30
0.0
 11
208.6007100029
 21
449.0125734652
 31
0.0
  0
LINE
  5
1F3
330
1F
100
AcDbEntity
  8
0
  6
Continuous
 62
     7
370
    15
100
AcDbLine
 10
210.1007055922
 20
447.512577876
 30
0.0
 11
208.6007100029
 21
447.512577876
 31
0.0
  0
LINE
  5
1F4
330
1F
100
AcDbEntity
  8
0
  6
Continuous
 62
     7
370
    15
100
AcDbLine
 10
208.6007100029
 20
446.712579235
 30
0.0
 11
210.1007055922
 21
446.712579235
 31
0.0
  0
LINE
  5
1F5
330
1F
100
AcDbEntity
  8
0
  6
Continuous
 62
     7
370
    15
100
AcDbLine
 10
207.8007113619
 20
445.2125836457
 30
0.0
 11
208.6007100029
 21
445.2125836457
 31
0.0
  0
LINE
  5
1F6
330
1F
100
AcDbEntity
  8
0
  6
Continuous
 62
     7
370
    15
100
AcDbLine
 10
207.8007113619
 20
449.0125734652
 30
0.0
 11
207.8007113619
 21
447.512577876
 31
0.0
  0
CIRCLE
  5
1F7
330
1F
100
AcDbEntity
  8
0
  6
Continuous
 62
     7
370
    15
100
AcDbCircle
 10
208.2007077141
 20
447.1125788535
 30
0.0
 40
2.999999999999972
  0
LINE
  5
1F8
330
1F
100
AcDbEntity
  8
0
  6
Continuous
 62
     7
370
    15
100
AcDbLine
 10
208.6007100029
 20
445.2125836457
 30
0.0
 11
208.6007100029
 21
446.712579235
 31
0.0
  0
ARC
  5
1F9
330
1F
100
AcDbEntity
  8
0
  6
Continuous
 62
     7
370
    15
100
AcDbCircle
 10
208.2007077141
 20
92.1125788535
 30
0.0
 40
1.499999999999989
100
AcDbArc
 50
43.6028189726
 51
132.7273953127
  0
ARC
  5
1FA
330
1F
100
AcDbEntity
  8
0
  6
Continuous
 62
     7
370
    15
100
AcDbCircle
 10
197.7007077141
 20
82.1125788535
 30
0.0
 40
16.00000000000017
100
AcDbArc
 50
316.3971810272
 51
43.6028189726
  0
ARC
  5
1FB
330
1F
100
AcDbEntity
  8
0
  6
Continuous
 62
     7
370
    15
100
AcDbCircle
 10
208.2007077141
 20
72.1125788535
 30
0.0
 40
1.500000000000098
100
AcDbArc
 50
227.2726046868
 51
316.3971810272
  0
LINE
  5
1FC
330
1F
100
AcDbEntity
  8
0
  6
Continuous
 62
     7
370
    15
100
AcDbLine
 10
207.1829390211
 20
71.0106898393
 30
0.0
 11
202.2007059736
 21
75.6125856484
 31
0.0
  0
LINE
  5
1FD
330
1F
100
AcDbEntity
  8
0
  6
Continuous
 62
     7
370
    15
100
AcDbLine
 10
202.2007059736
 20
88.6125821914
 30
0.0
 11
207.1829390211
 21
93.2144630994
 31
0.0
  0
LINE
  5
1FE
330
1F
100
AcDbEntity
  8
0
  6
Continuous
 62
     7
370
    15
100
AcDbLine
 10
201.9997042103
 20
88.6125821914
 30
0.0
 11
202.2007059736
 21
88.6125821914
 31
0.0
  0
LINE
  5
1FF
330
1F
100
AcDbEntity
  8
0
  6
Continuous
 62
     7
370
    15
100
AcDbLine
 10
202.2007059736
 20
75.6125856484
 30
0.0
 11
201.9997042103
 21
75.6125856484
 31
0.0
  0
LINE
  5
200
330
1F
100
AcDbEntity
  8
0
  6
Continuous
 62
     7
370
    15
100
AcDbLine
 10
207.1829390211
 20
441.0106946076
 30
0.0
 11
202.2007059736
 21
445.6125755156
 31
0.0
  0
LINE
  5
201
330
1F
100
AcDbEntity
  8
0
  6
Continuous
 62
     7
370
    15
100
AcDbLine
 10
202.2007059736
 20
458.6125720586
 30
0.0
 11
207.1829390211
 21
463.2144678677
 31
0.0
  0
ARC
  5
202
330
1F
100
AcDbEntity
  8
0
  6
Continuous
 62
     7
370
    15
100
AcDbCircle
 10
208.2007077141
 20
462.1125788535
 30
0.0
 40
1.500000000000048
100
AcDbArc
 50
43.6028189726
 51
132.7273953127
  0
ARC
  5
203
330
1F
100
AcDbEntity
  8
0
  6
Continuous
 62
     7
370
    15
100
AcDbCircle
 10
197.7007077141
 20
452.1125788535
 30
0.0
 40
16.00000000000018
100
AcDbArc
 50
316.3971810272
 51
43.6028189726
  0
ARC
  5
204
330
1F
100
AcDbEntity
  8
0
  6
Continuous
 62
     7
370
    15
100
AcDbCircle
 10
208.2007077141
 20
442.1125788535
 30
0.0
 40
1.499999999999764
100
AcDbArc
 50
227.2726046868
 51
316.3971810272
  0
LINE
  5
205
330
1F
100
AcDbEntity
  8
0
  6
Continuous
 62
     7
370
    15
100
AcDbLine
 10
201.9997042103
 20
458.6125720586
 30
0.0
 11
202.2007059736
 21
458.6125720586
 31
0.0
  0
LINE
  5
206
330
1F
100
AcDbEntity
  8
0
  6
Continuous
 62
     7
370
    15
100
AcDbLine
 10
202.2007059736
 20
445.6125755156
 30
0.0
 11
201.9997042103
 21
445.6125755156
 31
0.0
  0
LINE
  5
207
330
1F
100
AcDbEntity
  8
0
  6
Continuous
 62
     7
370
    15
100
AcDbLine
 10
225.200707881
 20
32.1125794495
 30
0.0
 11
225.200707881
 21
502.1125782575
 31
0.0
  0
LINE
  5
208
330
1F
100
AcDbEntity
  8
0
  6
Continuous
 62
     7
370
    15
100
AcDbLine
 10
210.2007072849
 20
32.1125794495
 30
0.0
 11
225.200707881
 21
32.1125794495
 31
0.0
  0
LINE
  5
209
330
1F
100
AcDbEntity
  8
0
  6
Continuous
 62
     7
370
    15
100
AcDbLine
 10
210.2007072849
 20
72.1250880803
 30
0.0
 11
210.2007072849
 21
32.1125794495
 31
0.0
  0
LINE
  5
20A
330
1F
100
AcDbEntity
  8
0
  6
Continuous
 62
     7
370
    15
100
AcDbLine
 10
210.2007072849
 20
92.1000648583
 30
0.0
 11
210.2007072849
 21
442.1250928487
 31
0.0
  0
LINE
  5
20B
330
1F
100
AcDbEntity
  8
0
  6
Continuous
 62
     7
370
    15
100
AcDbLine
 10
210.2007072849
 20
462.1000696267
 30
0.0
 11
210.2007072849
 21
502.1125782575
 31
0.0
  0
LINE
  5
20C
330
1F
100
AcDbEntity
  8
0
  6
Continuous
 62
     7
370
    15
100
AcDbLine
 10
210.2007072849
 20
502.1125782575
 30
0.0
 11
225.200707881
 21
502.1125782575
 31
0.0
  0
LINE
  5
20D
330
1F
100
AcDbEntity
  8
0
  6
Continuous
 62
     7
370
    15
100
AcDbLine
 10
205.2007120533
 20
17.1125788535
 30
0.0
 11
210.2007072849
 21
17.1125788535
 31
0.0
  0
LINE
  5
20E
330
1F
100
AcDbEntity
  8
0
  6
Continuous
 62
     7
370
    15
100
AcDbLine
 10
205.2007120533
 20
32.1125794495
 30
0.0
 11
205.2007120533
 21
17.1125788535
 31
0.0
  0
LINE
  5
20F
330
1F
100
AcDbEntity
  8
0
  6
Continuous
 62
     7
370
    15
100
AcDbLine
 10
205.2007120533
 20
32.1125794495
 30
0.0
 11
210.2007072849
 21
32.1125794495
 31
0.0
  0
LINE
  5
210
330
1F
100
AcDbEntity
  8
0
  6
Continuous
 62
     7
370
    15
100
AcDbLine
 10
210.2007072849
 20
32.1125794495
 30
0.0
 11
210.2007072849
 21
17.1125788535
 31
0.0
  0
ARC
  5
211
330
1F
100
AcDbEntity
  8
0
  6
Continuous
 62
     7
370
    15
100
AcDbCircle
 10
210.2007077141
 20
32.1125788535
 30
0.0
 40
15.00000000000003
100
AcDbArc
 50
270.0
 51
0.0
  0
LINE
  5
212
330
1F
100
AcDbEntity
  8
0
  6
Continuous
 62
     7
370
    15
100
AcDbLine
 10
205.2007120533
 20
72.8415955151
 30
0.0
 11
205.2007120533
 21
32.1125794495
 31
0.0
  0
LINE
  5
213
330
1F
100
AcDbEntity
  8
0
  6
Continuous
 62
     7
370
    15
100
AcDbLine
 10
205.2007120533
 20
91.3835574235
 30
0.0
 11
205.2007120533
 21
442.8416002835
 31
0.0
  0
LINE
  5
214
330
1F
100
AcDbEntity
  8
0
  6
Continuous
 62
     7
370
    15
100
AcDbLine
 10
205.2007120533
 20
502.1125782575
 30
0.0
 11
210.2007072849
 21
502.1125782575
 31
0.0
  0
LINE
  5
215
330
1F
100
AcDbEntity
  8
0
  6
Continuous
 62
     7
370
    15
100
AcDbLine
 10
205.2007120533
 20
461.3835621919
 30
0.0
 11
205.2007120533
 21
502.1125782575
 31
0.0
  0
LINE
  5
216
330
1F
100
AcDbEntity
  8
0
  6
Continuous
 62
     7
370
    15
100
AcDbLine
 10
210.2007072849
 20
502.1125782575
 30
0.0
 11
210.2007072849
 21
517.1125788535
 31
0.0
  0
ARC
  5
217
330
1F
100
AcDbEntity
  8
0
  6
Continuous
 62
     7
370
    15
100
AcDbCircle
 10
210.2007077141
 20
502.1125788535
 30
0.0
 40
15.0
100
AcDbArc
 50
0.0
 51
90.0
  0
LINE
  5
218
330
1F
100
AcDbEntity
  8
0
  6
Continuous
 62
     7
370
    15
100
AcDbLine
 10
205.2007120533
 20
517.1125788535
 30
0.0
 11
210.2007072849
 21
517.1125788535
 31
0.0
  0
LINE
  5
219
330
1F
100
AcDbEntity
  8
0
  6
Continuous
 62
     7
370
    15
100
AcDbLine
 10
205.2007120533
 20
502.1125782575
 30
0.0
 11
205.2007120533
 21
517.1125788535
 31
0.0
  0
SPLINE
  5
21A
330
1F
100
AcDbEntity
  8
0
  6
Continuous
 62
     7
370
    15
100
AcDbSpline
210
0.0
220
0.0
230
1.0
 70
     8
 71
     3
 72
    16
 73
    12
 74
     0
 42
0.00000001
 43
0.00000001
 40
0.0
 40
0.0
 40
0.0
 40
0.0
 40
0.1207066594662601
 40
0.2414156058502737
 40
0.3621176707330987
 40
0.482822721121345
 40
0.6035285533654084
 40
0.7242356201371724
 40
0.8449404771439366
 40
0.965648638875574
 40
1.0
 40
1.0
 40
1.0
 40
1.0
 10
183.3530094904925
 20
69.16020403756151
 30
0.0
 10
183.3724104396334
 20
69.16288056670587
 30
0.0
 10
183.4112127054871
 20
69.16823367570427
 30
0.0
 10
183.416134993591
 20
69.45916056384479
 30
0.0
 10
183.3789233664446
 20
69.91252880598212
 30
0.0
 10
183.3020077538595
 20
70.48003275407835
 30
0.0
 10
183.1981933650039
 20
71.06836554123747
 30
0.0
 10
183.0820864459951
 20
71.59505903995542
 30
0.0
 10
182.9750879239533
 20
71.95836053224225
 30
0.0
 10
182.9025129643574
 20
72.12881566729449
 30
0.0
 10
182.8829622277973
 20
72.09565771486776
 30
0.0
 10
182.8786310238863
 20
72.08831201447497
 30
0.0
  0
SPLINE
  5
21B
330
1F
100
AcDbEntity
  8
0
  6
Continuous
 62
     7
370
    15
100
AcDbSpline
210
0.0
220
0.0
230
1.0
 70
     8
 71
     3
 72
    16
 73
    12
 74
     0
 42
0.00000001
 43
0.00000001
 40
0.0
 40
0.0
 40
0.0
 40
0.0
 40
0.1205774266830139
 40
0.241163081614702
 40
0.3617417833190714
 40
0.4823237601500354
 40
0.6029063218941864
 40
0.7234898217505062
 40
0.8440714092533166
 40
0.9646562981060588
 40
1.0
 40
1.0
 40
1.0
 40
1.0
 10
183.523590533259
 20
95.0362343634511
 30
0.0
 10
183.5429957557734
 20
95.03355642197359
 30
0.0
 10
183.5818075250219
 20
95.02820035627482
 30
0.0
 10
183.5867092618486
 20
94.73727818464201
 30
0.0
 10
183.549517805589
 20
94.2839079945669
 30
0.0
 10
183.4725864154694
 20
93.716409217099
 30
0.0
 10
183.3687709012331
 20
93.12806239392121
 30
0.0
 10
183.2526844857166
 20
92.60142072779054
 30
0.0
 10
183.1456486465609
 20
92.23792075692907
 30
0.0
 10
183.072901789955
 20
92.06739852625893
 30
0.0
 10
183.0532493688143
 20
92.1009771841908
 30
0.0
 10
183.0487948341395
 20
92.10858832253466
 30
0.0
  0
SPLINE
  5
21C
330
1F
100
AcDbEntity
  8
0
  6
Continuous
 62
     7
370
    15
100
AcDbSpline
210
0.0
220
0.0
230
1.0
 70
     8
 71
     3
 72
    16
 73
    12
 74
     0
 42
0.00000001
 43
0.00000001
 40
0.0
 40
0.0
 40
0.0
 40
0.0
 40
0.1205182486616619
 40
0.2410333410624663
 40
0.3615509658063898
 40
0.4820655277091387
 40
0.6025832162003932
 40
0.7231015765364663
 40
0.8436163793725734
 40
0.964130762528084
 40
1.0
 40
1.0
 40
1.0
 40
1.0
 10
198.8939743919398
 20
71.77662442578325
 30
0.0
 10
198.913375354881
 20
71.77929864194438
 30
0.0
 10
198.9521767726702
 20
71.7846470042314
 30
0.0
 10
198.957100036067
 20
72.07560101422104
 30
0.0
 10
198.9198861467576
 20
72.52893180054612
 30
0.0
 10
198.8429862088402
 20
73.09645840104761
 30
0.0
 10
198.7391482188699
 20
73.6847981390574
 30
0.0
 10
198.6230789378665
 20
74.21142112771464
 30
0.0
 10
198.5160014154335
 20
74.57498571003315
 30
0.0
 10
198.443193199467
 20
74.74558998933873
 30
0.0
 10
198.4234773419367
 20
74.7117735266066
 30
0.0
 10
198.4189551754023
 20
74.7040171469594
 30
0.0
  0
SPLINE
  5
21D
330
1F
100
AcDbEntity
  8
0
  6
Continuous
 62
     7
370
    15
100
AcDbSpline
210
0.0
220
0.0
230
1.0
 70
     8
 71
     3
 72
    16
 73
    12
 74
     0
 42
0.00000001
 43
0.00000001
 40
0.0
 40
0.0
 40
0.0
 40
0.0
 40
0.1205178402881146
 40
0.2410311043126925
 40
0.3615483206851828
 40
0.4820657600552455
 40
0.6025825086744372
 40
0.723097685590186
 40
0.8436167256558825
 40
0.9641311427468158
 40
1.0
 40
1.0
 40
1.0
 40
1.0
 10
199.0645628852869
 20
92.41981397522936
 30
0.0
 10
199.0839639959646
 20
92.41713852777839
 30
0.0
 10
199.1227654806275
 20
92.4117877344676
 30
0.0
 10
199.1276868226084
 20
92.12085500273226
 30
0.0
 10
199.0904804515404
 20
91.66751599766663
 30
0.0
 10
199.0135501992832
 20
91.09998594141847
 30
0.0
 10
198.9097461296757
 20
90.51164830575695
 30
0.0
 10
198.7936577539825
 20
89.98499877547827
 30
0.0
 10
198.6866051353665
 20
89.62146218539002
 30
0.0
 10
198.6137504839543
 20
89.45084790615701
 30
0.0
 10
198.5940599817386
 20
89.4846648329991
 30
0.0
 10
198.5895436687495
 20
89.49242125405321
 30
0.0
  0
SPLINE
  5
21E
330
1F
100
AcDbEntity
  8
0
  6
Continuous
 62
     7
370
    15
100
AcDbSpline
210
0.0
220
0.0
230
1.0
 70
    24
 71
     3
 72
    16
 73
    12
 74
     0
 42
0.00000001
 43
0.00000001
 40
0.0
 40
0.0
 40
0.0
 40
0.0
 40
0.0611043000645534
 40
0.186466054610903
 40
0.3118335123995281
 40
0.4371966130506533
 40
0.5625587550673226
 40
0.6879258783844973
 40
0.8132865543788016
 40
0.9386467122227417
 40
1.0
 40
1.0
 40
1.0
 40
1.0
 10
201.9709002656962
 20
75.24634490860946
 30
0.0
 10
201.9766669170801
 20
75.24634490860946
 30
0.0
 10
201.9942644467261
 20
75.24634490860943
 30
0.0
 10
201.7758585500529
 20
75.24634490860949
 30
0.0
 10
201.3631089649221
 20
75.24634490860952
 30
0.0
 10
200.8066438640776
 20
75.24634490860946
 30
0.0
 10
200.2075337120694
 20
75.24634490860952
 30
0.0
 10
199.6488399899851
 20
75.24634490860946
 30
0.0
 10
199.2318925788036
 20
75.24634490860954
 30
0.0
 10
199.0089009614639
 20
75.24634490860949
 30
0.0
 10
199.0236990781706
 20
75.24634490860949
 30
0.0
 10
199.0285616798426
 20
75.24634490860949
 30
0.0
  0
SPLINE
  5
21F
330
1F
100
AcDbEntity
  8
0
  6
Continuous
 62
     7
370
    15
100
AcDbSpline
210
0.0
220
0.0
230
1.0
 70
    24
 71
     3
 72
    16
 73
    12
 74
     0
 42
0.00000001
 43
0.00000001
 40
0.0
 40
0.0
 40
0.0
 40
0.0
 40
0.0610065499222275
 40
0.1861677600005743
 40
0.3113346641975711
 40
0.4364972182272945
 40
0.5616588151561146
 40
0.6868253854167237
 40
0.8119855186684131
 40
0.9371451345986368
 40
1.0
 40
1.0
 40
1.0
 40
1.0
 10
201.9709002656962
 20
88.80497108353624
 30
0.0
 10
201.9766669108596
 20
88.80497108353627
 30
0.0
 10
201.9942644215231
 20
88.80497108353633
 30
0.0
 10
201.7758587837233
 20
88.80497108353622
 30
0.0
 10
201.3631081087592
 20
88.80497108353627
 30
0.0
 10
200.806647054912
 20
88.80497108353624
 30
0.0
 10
200.2075218047462
 20
88.8049710835363
 30
0.0
 10
199.6488844294281
 20
88.80497108353622
 30
0.0
 10
199.2317267386271
 20
88.80497108353622
 30
0.0
 10
199.0082447539446
 20
88.80497108353622
 30
0.0
 10
199.0234489750519
 20
88.80497108353622
 30
0.0
 10
199.0285318775202
 20
88.80497108353624
 30
0.0
  0
SPLINE
  5
220
330
1F
100
AcDbEntity
  8
0
  6
Continuous
 62
     7
370
    15
100
AcDbSpline
210
0.0
220
0.0
230
1.0
 70
     8
 71
     3
 72
    19
 73
    15
 74
     0
 42
0.00000001
 43
0.00000001
 40
0.0
 40
0.0
 40
0.0
 40
0.0
 40
0.0039549520505456
 40
0.1157774914692775
 40
0.2280458084614683
 40
0.3355270350029579
 40
0.437705129903378
 40
0.5348802689994074
 40
0.6283077546069006
 40
0.7302961157270326
 40
0.8413388966431353
 40
0.964111810652723
 40
0.9937659832340476
 40
1.0
 40
1.0
 40
1.0
 40
1.0
 10
188.2989805622126
 20
87.71258185757647
 30
0.0
 10
188.2993753526552
 20
87.7125748184705
 30
0.0
 10
188.3109324705454
 20
87.71236875528163
 30
0.0
 10
188.3341538314443
 20
87.69730287923879
 30
0.0
 10
188.3776665352905
 20
87.6303616912946
 30
0.0
 10
188.4156326716792
 20
87.52568751915426
 30
0.0
 10
188.4391343594165
 20
87.40061055056891
 30
0.0
 10
188.4504569111006
 20
87.27217392892337
 30
0.0
 10
188.4510681054615
 20
87.15100195188292
 30
0.0
 10
188.435276731376
 20
87.04178031619725
 30
0.0
 10
188.3949156354003
 20
86.95234961152465
 30
0.0
 10
188.3430208042759
 20
86.91729756120786
 30
0.0
 10
188.3083359706198
 20
86.91268609268418
 30
0.0
 10
188.3003651471678
 20
86.91259844205804
 30
0.0
 10
188.2989805622126
 20
86.91258321656237
 30
0.0
  0
SPLINE
  5
221
330
1F
100
AcDbEntity
  8
0
  6
Continuous
 62
     7
370
    15
100
AcDbSpline
210
0.0
220
0.0
230
1.0
 70
     8
 71
     3
 72
    30
 73
    26
 74
     0
 42
0.00000001
 43
0.00000001
 40
0.0
 40
0.0
 40
0.0
 40
0.0
 40
0.1247213585688043
 40
0.2494234058088359
 40
0.3741304486735728
 40
0.4367875361816683
 40
0.4681574411496511
 40
0.4838465038546005
 40
0.4916918866861865
 40
0.4956169069943145
 40
0.4975749588206896
 40
0.4985539123394589
 40
0.4990447988121799
 40
0.4992902420485404
 40
0.4994116573083296
 40
0.4994782124503699
 40
0.4995102696518732
 40
0.4995221753976215
 40
0.4995436387860057
 40
0.5609234269433827
 40
0.66462561505
 40
0.732584619476053
 40
0.8111552731622595
 40
0.9002859084490367
 40
1.0
 40
1.0
 40
1.0
 40
1.0
 10
188.3706849498774
 20
87.77246962441454
 30
0.0
 10
188.3764482495284
 20
87.77067836454714
 30
0.0
 10
188.3879739564655
 20
87.76709612216344
 30
0.0
 10
188.4778213071156
 20
87.74524146354418
 30
0.0
 10
188.5853025091019
 20
87.71957135222844
 30
0.0
 10
188.6708508374247
 20
87.69916266900086
 30
0.0
 10
188.7149566562941
 20
87.68863017924438
 30
0.0
 10
188.7371761998375
 20
87.6832965201188
 30
0.0
 10
188.7483149285681
 20
87.6806462244778
 30
0.0
 10
188.753882216509
 20
87.67930385894174
 30
0.0
 10
188.7566663925681
 20
87.67863897184152
 30
0.0
 10
188.7580597359975
 20
87.67831602679632
 30
0.0
 10
188.7587532160472
 20
87.67813979551862
 30
0.0
 10
188.7591007866002
 20
87.678054011119
 30
0.0
 10
188.7592756917531
 20
87.67800897302492
 30
0.0
 10
188.759369962421
 20
87.6780082486111
 30
0.0
 10
188.7594099242756
 20
87.67797867372404
 30
0.0
 10
188.7594385685103
 20
87.67798378102171
 30
0.0
 10
188.7792357562329
 20
87.65858100242022
 30
0.0
 10
188.8558907225553
 20
87.66813161689497
 30
0.0
 10
188.9418051358288
 20
87.63570548909533
 30
0.0
 10
189.0264065197344
 20
87.62111487487512
 30
0.0
 10
189.0896520825113
 20
87.60756573844571
 30
0.0
 10
189.1402705640419
 20
87.59811942423131
 30
0.0
 10
189.1474819579649
 20
87.59762640435892
 30
0.0
 10
189.1512897295977
 20
87.59736607922564
 30
0.0
  0
ELLIPSE
  5
222
330
1F
100
AcDbEntity
  8
0
  6
Continuous
 62
     7
370
    15
100
AcDbEllipse
 10
189.0278161078
 20
88.8945540323
 30
0.0
 11
0.3906095144045878
 21
-0.08616383961160068
 31
0.0
210
0.0
220
0.0
230
1.0
 40
0.0142285888
 41
0.0
 42
6.283185307179586
  0
LINE
  5
223
330
1F
100
AcDbEntity
  8
0
  6
Continuous
 62
     7
370
    15
100
AcDbLine
 10
188.4116333408
 20
77.4125714148
 30
0.0
 11
188.4116333408
 21
86.0125828828
 31
0.0
  0
LINE
  5
224
330
1F
100
AcDbEntity
  8
0
  6
Continuous
 62
     7
370
    15
100
AcDbLine
 10
182.8973394318
 20
77.4125714148
 30
0.0
 11
182.8973394318
 21
86.0125828828
 31
0.0
  0
LINE
  5
225
330
1F
100
AcDbEntity
  8
0
  6
Continuous
 62
     7
370
    15
100
AcDbLine
 10
188.4116333408
 20
77.4125714148
 30
0.0
 11
182.8973394318
 21
77.4125714148
 31
0.0
  0
LINE
  5
226
330
1F
100
AcDbEntity
  8
0
  6
Continuous
 62
     7
370
    15
100
AcDbLine
 10
188.4116333408
 20
86.0125828828
 30
0.0
 11
182.8973394318
 21
86.0125828828
 31
0.0
  0
LINE
  5
227
330
1F
100
AcDbEntity
  8
0
  6
Continuous
 62
     7
370
    15
100
AcDbLine
 10
181.7830827518
 20
89.3125791396
 30
0.0
 11
156.9709729834
 21
89.3125791396
 31
0.0
  0
LINE
  5
228
330
1F
100
AcDbEntity
  8
0
  6
Continuous
 62
     7
370
    15
100
AcDbLine
 10
181.7830827518
 20
86.0125828828
 30
0.0
 11
181.7830827518
 21
89.3125791396
 31
0.0
  0
LINE
  5
229
330
1F
100
AcDbEntity
  8
0
  6
Continuous
 62
     7
370
    15
100
AcDbLine
 10
181.7830827518
 20
74.912573799
 30
0.0
 11
181.7830827518
 21
77.4125714148
 31
0.0
  0
LINE
  5
22A
330
1F
100
AcDbEntity
  8
0
  6
Continuous
 62
     7
370
    15
100
AcDbLine
 10
156.9709729834
 20
74.912573799
 30
0.0
 11
181.7830827518
 21
74.912573799
 31
0.0
  0
LINE
  5
22B
330
1F
100
AcDbEntity
  8
0
  6
Continuous
 62
     7
370
    15
100
AcDbLine
 10
156.9709729834
 20
74.912573799
 30
0.0
 11
156.9709729834
 21
89.3125791396
 31
0.0
  0
LINE
  5
22C
330
1F
100
AcDbEntity
  8
0
  6
Continuous
 62
     7
370
    15
100
AcDbLine
 10
181.7830827518
 20
77.4125714148
 30
0.0
 11
182.8973394318
 21
77.4125714148
 31
0.0
  0
LINE
  5
22D
330
1F
100
AcDbEntity
  8
0
  6
Continuous
 62
     7
370
    15
100
AcDbLine
 10
181.7830827518
 20
86.0125828828
 30
0.0
 11
182.8973394318
 21
86.0125828828
 31
0.0
  0
LINE
  5
22E
330
1F
100
AcDbEntity
  8
0
  6
Continuous
 62
     7
370
    15
100
AcDbLine
 10
183.8029426022
 20
90.1099253739
 30
0.0
 11
181.9107111974
 21
90.1099253739
 31
0.0
  0
ARC
  5
22F
330
1F
100
AcDbEntity
  8
0
  6
Continuous
 62
     7
370
    15
100
AcDbCircle
 10
183.2573157471
 20
89.4854914168
 30
0.0
 40
1.484338768683216
100
AcDbArc
 50
155.122374946
 51
186.6896377137
  0
ARC
  5
230
330
1F
100
AcDbEntity
  8
0
  6
Continuous
 62
     7
370
    15
100
AcDbCircle
 10
158.2269482197
 20
89.5065348162
 30
0.0
 40
1.270862934734455
100
AcDbArc
 50
151.5184881633
 51
188.7786338264
  0
LINE
  5
231
330
1F
100
AcDbEntity
  8
0
  6
Continuous
 62
     7
370
    15
100
AcDbLine
 10
157.1098965092
 20
90.1125777806
 30
0.0
 11
184.4756927772
 21
90.1125777806
 31
0.0
  0
LINE
  5
232
330
1F
100
AcDbEntity
  8
0
  6
Continuous
 62
     7
370
    15
100
AcDbLine
 10
184.4756927772
 20
90.1125777806
 30
0.0
 11
183.8029426022
 21
90.1099253739
 31
0.0
  0
LINE
  5
233
330
1F
100
AcDbEntity
  8
0
  6
Continuous
 62
     7
370
    15
100
AcDbLine
 10
181.9107111974
 20
74.1152275647
 30
0.0
 11
183.8029426022
 21
74.1152275647
 31
0.0
  0
LINE
  5
234
330
1F
100
AcDbEntity
  8
0
  6
Continuous
 62
     7
370
    15
100
AcDbLine
 10
183.8029426022
 20
74.1152275647
 30
0.0
 11
184.4756927772
 21
74.112575158
 31
0.0
  0
LINE
  5
235
330
1F
100
AcDbEntity
  8
0
  6
Continuous
 62
     7
370
    15
100
AcDbLine
 10
184.4756927772
 20
74.112575158
 30
0.0
 11
157.1098965092
 21
74.112575158
 31
0.0
  0
ARC
  5
236
330
1F
100
AcDbEntity
  8
0
  6
Continuous
 62
     7
370
    15
100
AcDbCircle
 10
158.2269482197
 20
74.7186181225
 30
0.0
 40
1.270862934734449
100
AcDbArc
 50
171.2213661736
 51
208.4815118367
  0
ARC
  5
237
330
1F
100
AcDbEntity
  8
0
  6
Continuous
 62
     7
370
    15
100
AcDbCircle
 10
183.2573442896
 20
74.7396660905
 30
0.0
 40
1.484366584631168
100
AcDbArc
 50
173.310665776
 51
204.8773215644
  0
LINE
  5
238
330
1F
100
AcDbEntity
  8
0
  6
Continuous
 62
     7
370
    15
100
AcDbLine
 10
181.9107111974
 20
89.3125791396
 30
0.0
 11
181.9107111974
 21
90.1099253739
 31
0.0
  0
LINE
  5
239
330
1F
100
AcDbEntity
  8
0
  6
Continuous
 62
     7
370
    15
100
AcDbLine
 10
181.9220062776
 20
89.3125791396
 30
0.0
 11
181.9220062776
 21
86.0125828828
 31
0.0
  0
LINE
  5
23A
330
1F
100
AcDbEntity
  8
0
  6
Continuous
 62
     7
370
    15
100
AcDbLine
 10
181.9107111974
 20
74.1152275647
 30
0.0
 11
181.9107111974
 21
74.912573799
 31
0.0
  0
LINE
  5
23B
330
1F
100
AcDbEntity
  8
0
  6
Continuous
 62
     7
370
    15
100
AcDbLine
 10
181.9220062776
 20
77.4125714148
 30
0.0
 11
181.9220062776
 21
74.912573799
 31
0.0
  0
LINE
  5
23C
330
1F
100
AcDbEntity
  8
0
  6
Continuous
 62
     7
370
    15
100
AcDbLine
 10
187.9107084556
 20
74.112575158
 30
0.0
 11
184.4756927772
 21
74.112575158
 31
0.0
  0
LINE
  5
23D
330
1F
100
AcDbEntity
  8
0
  6
Continuous
 62
     7
370
    15
100
AcDbLine
 10
183.8029426022
 20
74.1152275647
 30
0.0
 11
183.8029426022
 21
74.912573799
 31
0.0
  0
LINE
  5
23E
330
1F
100
AcDbEntity
  8
0
  6
Continuous
 62
     7
370
    15
100
AcDbLine
 10
187.9107084556
 20
74.912573799
 30
0.0
 11
183.8029426022
 21
74.912573799
 31
0.0
  0
LINE
  5
23F
330
1F
100
AcDbEntity
  8
0
  6
Continuous
 62
     7
370
    15
100
AcDbLine
 10
183.8029426022
 20
89.3125791396
 30
0.0
 11
183.8029426022
 21
90.1099253739
 31
0.0
  0
LINE
  5
240
330
1F
100
AcDbEntity
  8
0
  6
Continuous
 62
     7
370
    15
100
AcDbLine
 10
187.9107084556
 20
90.1125777806
 30
0.0
 11
184.4756927772
 21
90.1125777806
 31
0.0
  0
LINE
  5
241
330
1F
100
AcDbEntity
  8
0
  6
Continuous
 62
     7
370
    15
100
AcDbLine
 10
187.9107084556
 20
89.3125791396
 30
0.0
 11
183.8029426022
 21
89.3125791396
 31
0.0
  0
LINE
  5
242
330
1F
100
AcDbEntity
  8
0
  6
Continuous
 62
     7
370
    15
100
AcDbLine
 10
181.9107111974
 20
89.3125791396
 30
0.0
 11
183.8029426022
 21
89.3125791396
 31
0.0
  0
LINE
  5
243
330
1F
100
AcDbEntity
  8
0
  6
Continuous
 62
     7
370
    15
100
AcDbLine
 10
181.9107111974
 20
74.912573799
 30
0.0
 11
183.8029426022
 21
74.912573799
 31
0.0
  0
LINE
  5
244
330
1F
100
AcDbEntity
  8
0
  6
Continuous
 62
     7
370
    15
100
AcDbLine
 10
182.9807114286
 20
90.4125828589
 30
0.0
 11
187.3807114048
 21
90.4125828589
 31
0.0
  0
LINE
  5
245
330
1F
100
AcDbEntity
  8
0
  6
Continuous
 62
     7
370
    15
100
AcDbLine
 10
183.0807056708
 20
73.7125832881
 30
0.0
 11
187.280709712
 21
73.7125832881
 31
0.0
  0
LINE
  5
246
330
1F
100
AcDbEntity
  8
0
  6
Continuous
 62
     7
370
    15
100
AcDbLine
 10
183.0807056708
 20
73.312576517
 30
0.0
 11
187.280709712
 21
73.312576517
 31
0.0
  0
ARC
  5
247
330
1F
100
AcDbEntity
  8
0
  6
Continuous
 62
     7
370
    15
100
AcDbCircle
 10
165.3766248739
 20
82.1125764693
 30
0.0
 40
16.90401408232909
100
AcDbArc
 50
154.7901718738
 51
205.2098281262
  0
SPLINE
  5
248
330
1F
100
AcDbEntity
  8
0
  6
Continuous
 62
     7
370
    15
100
AcDbSpline
210
0.0
220
0.0
230
1.0
 70
     8
 71
     3
 72
    12
 73
     8
 74
     0
 42
0.00000001
 43
0.00000001
 40
0.0
 40
0.0
 40
0.0
 40
0.0
 40
0.1818838816861573
 40
0.3633457911357219
 40
0.5550838744260245
 40
0.7712677179948781
 40
0.9999999999999999
 40
0.9999999999999999
 40
0.9999999999999999
 40
0.9999999999999999
 10
150.2150249166514
 20
74.1125751580144
 30
0.0
 10
150.2388862019617
 20
74.11989745665043
 30
0.0
 10
150.2865534141865
 20
74.134525066124
 30
0.0
 10
150.3012861086353
 20
74.24652188576317
 30
0.0
 10
150.2740693862268
 20
74.41591790646262
 30
0.0
 10
150.2023886396322
 20
74.64432396191224
 30
0.0
 10
150.1233066581602
 20
74.82149157171114
 30
0.0
 10
150.0826504511858
 20
74.9125737990285
 30
0.0
  0
LINE
  5
249
330
1F
100
AcDbEntity
  8
0
  6
Continuous
 62
     7
370
    15
100
AcDbLine
 10
149.8306643648
 20
74.8670805539
 30
0.0
 11
150.185103385
 21
74.112575158
 31
0.0
  0
ARC
  5
24A
330
1F
100
AcDbEntity
  8
0
  6
Continuous
 62
     7
370
    15
100
AcDbCircle
 10
165.1012930579
 20
82.1125764693
 30
0.0
 40
16.90234633834251
100
AcDbArc
 50
154.616938827
 51
205.383061173
  0
LINE
  5
24B
330
1F
100
AcDbEntity
  8
0
  6
Continuous
 62
     7
370
    15
100
AcDbLine
 10
150.185103385
 20
90.1125777806
 30
0.0
 11
149.8306643648
 21
89.3580723847
 31
0.0
  0
SPLINE
  5
24C
330
1F
100
AcDbEntity
  8
0
  6
Continuous
 62
     7
370
    15
100
AcDbSpline
210
0.0
220
0.0
230
1.0
 70
     8
 71
     3
 72
    12
 73
     8
 74
     0
 42
0.00000001
 43
0.00000001
 40
0.0
 40
0.0
 40
0.0
 40
0.0
 40
0.2510209911880205
 40
0.5023974552454273
 40
0.7402778730390002
 40
0.9473077450497924
 40
1.0
 40
1.0
 40
1.0
 40
1.0
 10
150.0826504511858
 20
89.31257913960467
 30
0.0
 10
150.1269682434971
 20
89.41246479335472
 30
0.0
 10
150.2156665869062
 20
89.61237754974225
 30
0.0
 10
150.2906587926329
 20
89.87109478307009
 30
0.0
 10
150.3021532582635
 20
90.04833283236921
 30
0.0
 10
150.2605072750579
 20
90.1087927308416
 30
0.0
 10
150.2226960360481
 20
90.11193938872836
 30
0.0
 10
150.2150249166514
 20
90.11257778061876
 30
0.0
  0
LINE
  5
24D
330
1F
100
AcDbEntity
  8
0
  6
Continuous
 62
     7
370
    15
100
AcDbLine
 10
150.2150249167
 20
90.1125777806
 30
0.0
 11
150.185103385
 21
90.1125777806
 31
0.0
  0
LINE
  5
24E
330
1F
100
AcDbEntity
  8
0
  6
Continuous
 62
     7
370
    15
100
AcDbLine
 10
150.2150249167
 20
74.112575158
 30
0.0
 11
150.185103385
 21
74.112575158
 31
0.0
  0
LINE
  5
24F
330
1F
100
AcDbEntity
  8
0
  6
Continuous
 62
     7
370
    15
100
AcDbLine
 10
152.0721268339
 20
89.3125791396
 30
0.0
 11
150.0826504512
 21
89.3125791396
 31
0.0
  0
LINE
  5
250
330
1F
100
AcDbEntity
  8
0
  6
Continuous
 62
     7
370
    15
100
AcDbLine
 10
152.0721268339
 20
74.912573799
 30
0.0
 11
152.0721268339
 21
89.3125791396
 31
0.0
  0
LINE
  5
251
330
1F
100
AcDbEntity
  8
0
  6
Continuous
 62
     7
370
    15
100
AcDbLine
 10
150.0826504512
 20
74.912573799
 30
0.0
 11
152.0721268339
 21
74.912573799
 31
0.0
  0
LWPOLYLINE
  5
252
330
1F
100
AcDbEntity
  8
0
  6
Continuous
 62
     7
370
    15
100
AcDbPolyline
 90
        9
 70
   128
 43
0.0
 10
152.0721268339
 20
89.3125791396
 10
152.066866724
 20
89.4686539019
 10
152.0512950106
 20
89.6187234963
 10
152.0260151906
 20
89.7570360745
 10
151.991988389
 20
89.8782570208
 10
151.950525908
 20
89.9777520741
 10
151.9032147212
 20
90.0516767348
 10
151.8518876715
 20
90.0971997823
 10
151.7985117121
 20
90.1125777806
  0
LINE
  5
253
330
1F
100
AcDbEntity
  8
0
  6
Continuous
 62
     7
370
    15
100
AcDbLine
 10
150.2150249167
 20
90.1125777806
 30
0.0
 11
151.7985117121
 21
90.1125777806
 31
0.0
  0
LWPOLYLINE
  5
254
330
1F
100
AcDbEntity
  8
0
  6
Continuous
 62
     7
370
    15
100
AcDbPolyline
 90
        9
 70
   128
 43
0.0
 10
152.0721268339
 20
74.912573799
 10
152.066866724
 20
74.7565139378
 10
152.0512950106
 20
74.6064294423
 10
152.0260151906
 20
74.4681168641
 10
151.991988389
 20
74.3468959178
 10
151.950525908
 20
74.2474008645
 10
151.9032147212
 20
74.1734762038
 10
151.8518876715
 20
74.1279531564
 10
151.7985117121
 20
74.112575158
  0
LINE
  5
255
330
1F
100
AcDbEntity
  8
0
  6
Continuous
 62
     7
370
    15
100
AcDbLine
 10
151.7985117121
 20
74.112575158
 30
0.0
 11
150.2150249167
 21
74.112575158
 31
0.0
  0
LINE
  5
256
330
1F
100
AcDbEntity
  8
0
  6
Continuous
 62
     7
370
    15
100
AcDbLine
 10
156.9709729834
 20
89.3125791396
 30
0.0
 11
152.0721268339
 21
89.3125791396
 31
0.0
  0
LINE
  5
257
330
1F
100
AcDbEntity
  8
0
  6
Continuous
 62
     7
370
    15
100
AcDbLine
 10
151.7985117121
 20
90.1125777806
 30
0.0
 11
157.1098965092
 21
90.1125777806
 31
0.0
  0
LINE
  5
258
330
1F
100
AcDbEntity
  8
0
  6
Continuous
 62
     7
370
    15
100
AcDbLine
 10
152.0721268339
 20
74.912573799
 30
0.0
 11
156.9709729834
 21
74.912573799
 31
0.0
  0
LINE
  5
259
330
1F
100
AcDbEntity
  8
0
  6
Continuous
 62
     7
370
    15
100
AcDbLine
 10
157.1098965092
 20
74.112575158
 30
0.0
 11
151.7985117121
 21
74.112575158
 31
0.0
  0
SPLINE
  5
25A
330
1F
100
AcDbEntity
  8
0
  6
Continuous
 62
     7
370
    15
100
AcDbSpline
210
0.0
220
0.0
230
1.0
 70
     8
 71
     3
 72
    16
 73
    12
 74
     0
 42
0.00000001
 43
0.00000001
 40
0.0
 40
0.0
 40
0.0
 40
0.0
 40
0.1207062709178884
 40
0.2414151184482352
 40
0.3621170844830289
 40
0.4828249342779559
 40
0.6035306676709027
 40
0.7242349590584071
 40
0.8449397172148535
 40
0.9656486670073579
 40
1.0
 40
1.0
 40
1.0
 40
1.0
 10
183.3530094904925
 20
439.1602088059331
 30
0.0
 10
183.3724104245793
 20
439.1628790978394
 30
0.0
 10
183.4112127068881
 20
439.1682197386523
 30
0.0
 10
183.4161351647432
 20
439.4591515835875
 30
0.0
 10
183.3789223865756
 20
439.91252172846
 30
0.0
 10
183.3020089208731
 20
440.4800333032636
 30
0.0
 10
183.1981948912804
 20
441.0683668474683
 30
0.0
 10
183.0820848359166
 20
441.5950522149278
 30
0.0
 10
182.9750876624753
 20
441.958345749933
 30
0.0
 10
182.9025131238652
 20
442.1288216612522
 30
0.0
 10
182.8829622364446
 20
442.0956626711134
 30
0.0
 10
182.8786310238863
 20
442.0883167828466
 30
0.0
  0
SPLINE
  5
25B
330
1F
100
AcDbEntity
  8
0
  6
Continuous
 62
     7
370
    15
100
AcDbSpline
210
0.0
220
0.0
230
1.0
 70
     8
 71
     3
 72
    16
 73
    12
 74
     0
 42
0.00000001
 43
0.00000001
 40
0.0
 40
0.0
 40
0.0
 40
0.0
 40
0.1205771721646178
 40
0.241162861995646
 40
0.3617415985973432
 40
0.4823236103265828
 40
0.6029062069691787
 40
0.723489741724215
 40
0.8440713641251881
 40
0.9646562878770487
 40
0.9999999999999999
 40
0.9999999999999999
 40
0.9999999999999999
 40
0.9999999999999999
 10
183.523590533259
 20
465.0362242306615
 30
0.0
 10
183.5429957559401
 20
465.0335525200591
 30
0.0
 10
183.5818075721026
 20
465.0282089101228
 30
0.0
 10
183.5867092502846
 20
464.7372818763697
 30
0.0
 10
183.5495178086876
 20
464.2839130514263
 30
0.0
 10
183.4725864146392
 20
463.7164139081683
 30
0.0
 10
183.3687709014556
 20
463.1280671830096
 30
0.0
 10
183.2526844856569
 20
462.601425490598
 30
0.0
 10
183.1456486465775
 20
462.2379255268405
 30
0.0
 10
183.072901789954
 20
462.0674032945383
 30
0.0
 10
183.0532493688142
 20
462.1009819525453
 30
0.0
 10
183.0487948341395
 20
462.1085930909063
 30
0.0
  0
SPLINE
  5
25C
330
1F
100
AcDbEntity
  8
0
  6
Continuous
 62
     7
370
    15
100
AcDbSpline
210
0.0
220
0.0
230
1.0
 70
     8
 71
     3
 72
    16
 73
    12
 74
     0
 42
0.00000001
 43
0.00000001
 40
0.0
 40
0.0
 40
0.0
 40
0.0
 40
0.1205177355296194
 40
0.2410326040483349
 40
0.3615500049054653
 40
0.4820672367073249
 40
0.6025847013116677
 40
0.7231001654014779
 40
0.8436166698879849
 40
0.9641308291627243
 40
1.0
 40
1.0
 40
1.0
 40
1.0
 10
198.8939743919398
 20
441.7766291941549
 30
0.0
 10
198.9133753401179
 20
441.7792971752702
 30
0.0
 10
198.9521767749426
 20
441.7846330740322
 30
0.0
 10
198.9571002037241
 20
442.0755920074744
 30
0.0
 10
198.9198851799223
 20
442.528924822219
 30
0.0
 10
198.8429873272788
 20
443.0964585797839
 30
0.0
 10
198.7391499270442
 20
443.6848008266691
 30
0.0
 10
198.6230760308014
 20
444.2114119531421
 30
0.0
 10
198.5160028313844
 20
444.5749927176382
 30
0.0
 10
198.443193143994
 20
444.7455945488063
 30
0.0
 10
198.4234773315869
 20
444.7117782560023
 30
0.0
 10
198.4189551754023
 20
444.704021915331
 30
0.0
  0
SPLINE
  5
25D
330
1F
100
AcDbEntity
  8
0
  6
Continuous
 62
     7
370
    15
100
AcDbSpline
210
0.0
220
0.0
230
1.0
 70
     8
 71
     3
 72
    16
 73
    12
 74
     0
 42
0.00000001
 43
0.00000001
 40
0.0
 40
0.0
 40
0.0
 40
0.0
 40
0.1205178925769872
 40
0.2410326289024424
 40
0.3615498975635347
 40
0.4820644954546702
 40
0.6025812963622609
 40
0.7230965255657268
 40
0.8436175433764338
 40
0.9641311271844549
 40
0.9999999999999999
 40
0.9999999999999999
 40
0.9999999999999999
 40
0.9999999999999999
 10
199.0645628852869
 20
462.419818743601
 30
0.0
 10
199.0839640023729
 20
462.41714451287
 30
0.0
 10
199.1227657284476
 20
462.4117961214437
 30
0.0
 10
199.1276866797338
 20
462.1208423299956
 30
0.0
 10
199.090481536155
 20
461.6675102216125
 30
0.0
 10
199.0135487314807
 20
461.0999867575247
 30
0.0
 10
198.9097464690275
 20
460.5116515904239
 30
0.0
 10
198.7936564153086
 20
459.9850059173327
 30
0.0
 10
198.6866068238739
 20
459.6214451769129
 30
0.0
 10
198.6137502662486
 20
459.4508541651714
 30
0.0
 10
198.5940599619242
 20
459.4846698437555
 30
0.0
 10
198.5895436687495
 20
459.4924260224248
 30
0.0
  0
SPLINE
  5
25E
330
1F
100
AcDbEntity
  8
0
  6
Continuous
 62
     7
370
    15
100
AcDbSpline
210
0.0
220
0.0
230
1.0
 70
    24
 71
     3
 72
    16
 73
    12
 74
     0
 42
0.00000001
 43
0.00000001
 40
0.0
 40
0.0
 40
0.0
 40
0.0
 40
0.0611043000645534
 40
0.186466054610903
 40
0.3118335123995281
 40
0.4371966130506533
 40
0.5625587550673226
 40
0.6879258783844973
 40
0.8132865543788016
 40
0.9386467122227417
 40
1.0
 40
1.0
 40
1.0
 40
1.0
 10
201.9709002656962
 20
445.2463496769811
 30
0.0
 10
201.9766669170801
 20
445.2463496769811
 30
0.0
 10
201.9942644467261
 20
445.2463496769811
 30
0.0
 10
201.7758585500529
 20
445.2463496769811
 30
0.0
 10
201.3631089649221
 20
445.2463496769811
 30
0.0
 10
200.8066438640776
 20
445.2463496769811
 30
0.0
 10
200.2075337120694
 20
445.2463496769811
 30
0.0
 10
199.6488399899851
 20
445.2463496769811
 30
0.0
 10
199.2318925788036
 20
445.246349676981
 30
0.0
 10
199.0089009614639
 20
445.2463496769811
 30
0.0
 10
199.0236990781706
 20
445.2463496769811
 30
0.0
 10
199.0285616798426
 20
445.2463496769811
 30
0.0
  0
SPLINE
  5
25F
330
1F
100
AcDbEntity
  8
0
  6
Continuous
 62
     7
370
    15
100
AcDbSpline
210
0.0
220
0.0
230
1.0
 70
    24
 71
     3
 72
    16
 73
    12
 74
     0
 42
0.00000001
 43
0.00000001
 40
0.0
 40
0.0
 40
0.0
 40
0.0
 40
0.0610065499222275
 40
0.1861677600005743
 40
0.3113346641975711
 40
0.4364972182272945
 40
0.5616588151561146
 40
0.6868253854167237
 40
0.8119855186684131
 40
0.9371451345986368
 40
1.0
 40
1.0
 40
1.0
 40
1.0
 10
201.9709002656962
 20
458.8049758519078
 30
0.0
 10
201.9766669108596
 20
458.8049758519078
 30
0.0
 10
201.9942644215231
 20
458.8049758519077
 30
0.0
 10
201.7758587837233
 20
458.8049758519079
 30
0.0
 10
201.3631081087592
 20
458.8049758519078
 30
0.0
 10
200.806647054912
 20
458.8049758519078
 30
0.0
 10
200.2075218047462
 20
458.8049758519078
 30
0.0
 10
199.6488844294281
 20
458.8049758519078
 30
0.0
 10
199.2317267386271
 20
458.8049758519078
 30
0.0
 10
199.0082447539446
 20
458.8049758519079
 30
0.0
 10
199.0234489750519
 20
458.8049758519078
 30
0.0
 10
199.0285318775202
 20
458.8049758519078
 30
0.0
  0
SPLINE
  5
260
330
1F
100
AcDbEntity
  8
0
  6
Continuous
 62
     7
370
    15
100
AcDbSpline
210
0.0
220
0.0
230
1.0
 70
     8
 71
     3
 72
    19
 73
    15
 74
     0
 42
0.00000001
 43
0.00000001
 40
0.0
 40
0.0
 40
0.0
 40
0.0
 40
0.0039548928158107
 40
0.1157771803511018
 40
0.2280452444557253
 40
0.3355262288927045
 40
0.4377147670967206
 40
0.5348896873029939
 40
0.6283060379467074
 40
0.7303035747518893
 40
0.8413391369656924
 40
0.96411177442581
 40
0.99376588021027
 40
1.0
 40
1.0
 40
1.0
 40
1.0
 10
188.2989805622126
 20
457.7125717247869
 30
0.0
 10
188.2993753527419
 20
457.7125697500941
 30
0.0
 10
188.3109326152097
 20
457.712511942114
 30
0.0
 10
188.3341538381993
 20
457.6972446888182
 30
0.0
 10
188.377666307299
 20
457.6303824704627
 30
0.0
 10
188.4156347732392
 20
457.5256852368157
 30
0.0
 10
188.4391328616119
 20
457.4006056888131
 30
0.0
 10
188.450457119933
 20
457.2721669745803
 30
0.0
 10
188.4510667815631
 20
457.1510027116344
 30
0.0
 10
188.4352795958563
 20
457.0417666807283
 30
0.0
 10
188.3949131712441
 20
456.9523716862432
 30
0.0
 10
188.3430210733479
 20
456.9172630583488
 30
0.0
 10
188.3083358301896
 20
456.9127125750604
 30
0.0
 10
188.3003651446884
 20
456.9125937285253
 30
0.0
 10
188.2989805622126
 20
456.9125730837728
 30
0.0
  0
SPLINE
  5
261
330
1F
100
AcDbEntity
  8
0
  6
Continuous
 62
     7
370
    15
100
AcDbSpline
210
0.0
220
0.0
230
1.0
 70
     8
 71
     3
 72
    30
 73
    26
 74
     0
 42
0.00000001
 43
0.00000001
 40
0.0
 40
0.0
 40
0.0
 40
0.0
 40
0.124720975155802
 40
0.2494226390421973
 40
0.3741292985379406
 40
0.4367888390803792
 40
0.4681559115136746
 40
0.4838449259879865
 40
0.4916902847016362
 40
0.4956152929436367
 40
0.4975761238434012
 40
0.498555074352714
 40
0.4990432084277902
 40
0.4992886509096197
 40
0.4994129501623328
 40
0.4994795050997722
 40
0.4995092693726427
 40
0.4995261065879897
 40
0.499543965151712
 40
0.5609261660260535
 40
0.6646280353358924
 40
0.7325848670715057
 40
0.8111568261873138
 40
0.9002862149857809
 40
0.9999999999999999
 40
0.9999999999999999
 40
0.9999999999999999
 40
0.9999999999999999
 10
188.3706849498774
 20
457.7724743927861
 30
0.0
 10
188.3764483703359
 20
457.7706836662685
 30
0.0
 10
188.3879743188691
 20
457.7671024905019
 30
0.0
 10
188.4778198577387
 20
457.7452398330975
 30
0.0
 10
188.5853077139009
 20
457.7195948586181
 30
0.0
 10
188.6708458524915
 20
457.6991406828546
 30
0.0
 10
188.7149578240204
 20
457.6886349718829
 30
0.0
 10
188.7371768742151
 20
457.6833041691006
 30
0.0
 10
188.7483139091916
 20
457.6806466345819
 30
0.0
 10
188.7538847913258
 20
457.6793145349185
 30
0.0
 10
188.7566666147686
 20
457.6786344873879
 30
0.0
 10
188.7580559897171
 20
457.6782955714507
 30
0.0
 10
188.7587547598577
 20
457.6781454081074
 30
0.0
 10
188.7591020612715
 20
457.6780599175457
 30
0.0
 10
188.7592777990298
 20
457.6780107864253
 30
0.0
 10
188.7593631885172
 20
457.6779770773176
 30
0.0
 10
188.7594175937131
 20
457.6779958930994
 30
0.0
 10
188.7594322542593
 20
457.6779662173074
 30
0.0
 10
188.7874696943624
 20
457.6838243787041
 30
0.0
 10
188.8492273447724
 20
457.6476912676739
 30
0.0
 10
188.9431530621973
 20
457.6398247958887
 30
0.0
 10
189.0260615294661
 20
457.6200657937401
 30
0.0
 10
189.0897631224512
 20
457.6078882559761
 30
0.0
 10
189.1402373821375
 20
457.598029006121
 30
0.0
 10
189.1474704787883
 20
457.5975982809533
 30
0.0
 10
189.1512897295977
 20
457.5973708475972
 30
0.0
  0
ELLIPSE
  5
262
330
1F
100
AcDbEntity
  8
0
  6
Continuous
 62
     7
370
    15
100
AcDbEllipse
 10
189.0278161078
 20
458.8945540323
 30
0.0
 11
0.3906095144045878
 21
-0.08616383961157226
 31
0.0
210
0.0
220
0.0
230
1.0
 40
0.0142285888
 41
0.0
 42
6.283185307179586
  0
LINE
  5
263
330
1F
100
AcDbEntity
  8
0
  6
Continuous
 62
     7
370
    15
100
AcDbLine
 10
188.4116333408
 20
447.4125761832
 30
0.0
 11
188.4116333408
 21
456.01257275
 31
0.0
  0
LINE
  5
264
330
1F
100
AcDbEntity
  8
0
  6
Continuous
 62
     7
370
    15
100
AcDbLine
 10
182.8973394318
 20
447.4125761832
 30
0.0
 11
182.8973394318
 21
456.01257275
 31
0.0
  0
LINE
  5
265
330
1F
100
AcDbEntity
  8
0
  6
Continuous
 62
     7
370
    15
100
AcDbLine
 10
188.4116333408
 20
456.01257275
 30
0.0
 11
182.8973394318
 21
456.01257275
 31
0.0
  0
LINE
  5
266
330
1F
100
AcDbEntity
  8
0
  6
Continuous
 62
     7
370
    15
100
AcDbLine
 10
188.4116333408
 20
447.4125761832
 30
0.0
 11
182.8973394318
 21
447.4125761832
 31
0.0
  0
LINE
  5
267
330
1F
100
AcDbEntity
  8
0
  6
Continuous
 62
     7
370
    15
100
AcDbLine
 10
181.7830827518
 20
459.312583908
 30
0.0
 11
156.9709729834
 21
459.312583908
 31
0.0
  0
LINE
  5
268
330
1F
100
AcDbEntity
  8
0
  6
Continuous
 62
     7
370
    15
100
AcDbLine
 10
181.7830827518
 20
456.01257275
 30
0.0
 11
181.7830827518
 21
459.312583908
 31
0.0
  0
LINE
  5
269
330
1F
100
AcDbEntity
  8
0
  6
Continuous
 62
     7
370
    15
100
AcDbLine
 10
181.7830827518
 20
444.9125785674
 30
0.0
 11
181.7830827518
 21
447.4125761832
 31
0.0
  0
LINE
  5
26A
330
1F
100
AcDbEntity
  8
0
  6
Continuous
 62
     7
370
    15
100
AcDbLine
 10
156.9709729834
 20
444.9125785674
 30
0.0
 11
181.7830827518
 21
444.9125785674
 31
0.0
  0
LINE
  5
26B
330
1F
100
AcDbEntity
  8
0
  6
Continuous
 62
     7
370
    15
100
AcDbLine
 10
156.9709729834
 20
444.9125785674
 30
0.0
 11
156.9709729834
 21
459.312583908
 31
0.0
  0
LINE
  5
26C
330
1F
100
AcDbEntity
  8
0
  6
Continuous
 62
     7
370
    15
100
AcDbLine
 10
181.7830827518
 20
456.01257275
 30
0.0
 11
182.8973394318
 21
456.01257275
 31
0.0
  0
LINE
  5
26D
330
1F
100
AcDbEntity
  8
0
  6
Continuous
 62
     7
370
    15
100
AcDbLine
 10
181.7830827518
 20
447.4125761832
 30
0.0
 11
182.8973394318
 21
447.4125761832
 31
0.0
  0
LINE
  5
26E
330
1F
100
AcDbEntity
  8
0
  6
Continuous
 62
     7
370
    15
100
AcDbLine
 10
183.8029426022
 20
460.1099301423
 30
0.0
 11
181.9107111974
 21
460.1099301423
 31
0.0
  0
ARC
  5
26F
330
1F
100
AcDbEntity
  8
0
  6
Continuous
 62
     7
370
    15
100
AcDbCircle
 10
183.2573442896
 20
459.4854916165
 30
0.0
 40
1.484366584631168
100
AcDbArc
 50
155.1226784356
 51
186.689334224
  0
ARC
  5
270
330
1F
100
AcDbEntity
  8
0
  6
Continuous
 62
     7
370
    15
100
AcDbCircle
 10
158.2269482197
 20
459.5065395845
 30
0.0
 40
1.270862934734452
100
AcDbArc
 50
151.5184881633
 51
188.7786338264
  0
LINE
  5
271
330
1F
100
AcDbEntity
  8
0
  6
Continuous
 62
     7
370
    15
100
AcDbLine
 10
157.1098965092
 20
460.112582549
 30
0.0
 11
184.4756927772
 21
460.112582549
 31
0.0
  0
LINE
  5
272
330
1F
100
AcDbEntity
  8
0
  6
Continuous
 62
     7
370
    15
100
AcDbLine
 10
184.4756927772
 20
460.112582549
 30
0.0
 11
183.8029426022
 21
460.1099301423
 31
0.0
  0
LINE
  5
273
330
1F
100
AcDbEntity
  8
0
  6
Continuous
 62
     7
370
    15
100
AcDbLine
 10
181.9107111974
 20
444.1152323331
 30
0.0
 11
183.8029426022
 21
444.1152323331
 31
0.0
  0
LINE
  5
274
330
1F
100
AcDbEntity
  8
0
  6
Continuous
 62
     7
370
    15
100
AcDbLine
 10
183.8029426022
 20
444.1152323331
 30
0.0
 11
184.4756927772
 21
444.1125799264
 31
0.0
  0
LINE
  5
275
330
1F
100
AcDbEntity
  8
0
  6
Continuous
 62
     7
370
    15
100
AcDbLine
 10
184.4756927772
 20
444.1125799264
 30
0.0
 11
157.1098965092
 21
444.1125799264
 31
0.0
  0
ARC
  5
276
330
1F
100
AcDbEntity
  8
0
  6
Continuous
 62
     7
370
    15
100
AcDbCircle
 10
158.2269482197
 20
444.7186228909
 30
0.0
 40
1.270862934734452
100
AcDbArc
 50
171.2213661736
 51
208.4815118367
  0
ARC
  5
277
330
1F
100
AcDbEntity
  8
0
  6
Continuous
 62
     7
370
    15
100
AcDbCircle
 10
183.2573157471
 20
444.7396662902
 30
0.0
 40
1.48433876868323
100
AcDbArc
 50
173.3103622863
 51
204.8776250541
  0
LINE
  5
278
330
1F
100
AcDbEntity
  8
0
  6
Continuous
 62
     7
370
    15
100
AcDbLine
 10
181.9107111974
 20
459.312583908
 30
0.0
 11
181.9107111974
 21
460.1099301423
 31
0.0
  0
LINE
  5
279
330
1F
100
AcDbEntity
  8
0
  6
Continuous
 62
     7
370
    15
100
AcDbLine
 10
181.9220062776
 20
459.312583908
 30
0.0
 11
181.9220062776
 21
456.01257275
 31
0.0
  0
LINE
  5
27A
330
1F
100
AcDbEntity
  8
0
  6
Continuous
 62
     7
370
    15
100
AcDbLine
 10
181.9107111974
 20
444.1152323331
 30
0.0
 11
181.9107111974
 21
444.9125785674
 31
0.0
  0
LINE
  5
27B
330
1F
100
AcDbEntity
  8
0
  6
Continuous
 62
     7
370
    15
100
AcDbLine
 10
181.9220062776
 20
447.4125761832
 30
0.0
 11
181.9220062776
 21
444.9125785674
 31
0.0
  0
LINE
  5
27C
330
1F
100
AcDbEntity
  8
0
  6
Continuous
 62
     7
370
    15
100
AcDbLine
 10
183.8029426022
 20
459.312583908
 30
0.0
 11
183.8029426022
 21
460.1099301423
 31
0.0
  0
LINE
  5
27D
330
1F
100
AcDbEntity
  8
0
  6
Continuous
 62
     7
370
    15
100
AcDbLine
 10
187.9107084556
 20
460.112582549
 30
0.0
 11
184.4756927772
 21
460.112582549
 31
0.0
  0
LINE
  5
27E
330
1F
100
AcDbEntity
  8
0
  6
Continuous
 62
     7
370
    15
100
AcDbLine
 10
187.9107084556
 20
459.312583908
 30
0.0
 11
183.8029426022
 21
459.312583908
 31
0.0
  0
LINE
  5
27F
330
1F
100
AcDbEntity
  8
0
  6
Continuous
 62
     7
370
    15
100
AcDbLine
 10
187.9107084556
 20
444.1125799264
 30
0.0
 11
184.4756927772
 21
444.1125799264
 31
0.0
  0
LINE
  5
280
330
1F
100
AcDbEntity
  8
0
  6
Continuous
 62
     7
370
    15
100
AcDbLine
 10
183.8029426022
 20
444.1152323331
 30
0.0
 11
183.8029426022
 21
444.9125785674
 31
0.0
  0
LINE
  5
281
330
1F
100
AcDbEntity
  8
0
  6
Continuous
 62
     7
370
    15
100
AcDbLine
 10
187.9107084556
 20
444.9125785674
 30
0.0
 11
183.8029426022
 21
444.9125785674
 31
0.0
  0
LINE
  5
282
330
1F
100
AcDbEntity
  8
0
  6
Continuous
 62
     7
370
    15
100
AcDbLine
 10
181.9107111974
 20
444.9125785674
 30
0.0
 11
183.8029426022
 21
444.9125785674
 31
0.0
  0
LINE
  5
283
330
1F
100
AcDbEntity
  8
0
  6
Continuous
 62
     7
370
    15
100
AcDbLine
 10
181.9107111974
 20
459.312583908
 30
0.0
 11
183.8029426022
 21
459.312583908
 31
0.0
  0
LINE
  5
284
330
1F
100
AcDbEntity
  8
0
  6
Continuous
 62
     7
370
    15
100
AcDbLine
 10
182.9807114286
 20
460.4125727261
 30
0.0
 11
187.3807114048
 21
460.4125727261
 31
0.0
  0
LINE
  5
285
330
1F
100
AcDbEntity
  8
0
  6
Continuous
 62
     7
370
    15
100
AcDbLine
 10
183.0807056708
 20
443.7125731553
 30
0.0
 11
187.280709712
 21
443.7125731553
 31
0.0
  0
LINE
  5
286
330
1F
100
AcDbEntity
  8
0
  6
Continuous
 62
     7
370
    15
100
AcDbLine
 10
183.0807056708
 20
443.3125812854
 30
0.0
 11
187.280709712
 21
443.3125812854
 31
0.0
  0
ARC
  5
287
330
1F
100
AcDbEntity
  8
0
  6
Continuous
 62
     7
370
    15
100
AcDbCircle
 10
165.3766248739
 20
452.1125812377
 30
0.0
 40
16.90401408232909
100
AcDbArc
 50
154.7901718738
 51
205.2098281262
  0
SPLINE
  5
288
330
1F
100
AcDbEntity
  8
0
  6
Continuous
 62
     7
370
    15
100
AcDbSpline
210
0.0
220
0.0
230
1.0
 70
     8
 71
     3
 72
    12
 73
     8
 74
     0
 42
0.00000001
 43
0.00000001
 40
0.0
 40
0.0
 40
0.0
 40
0.0
 40
0.1818835694295244
 40
0.3633451673468943
 40
0.5550758196191257
 40
0.7712681106804287
 40
0.9999999999999999
 40
0.9999999999999999
 40
0.9999999999999999
 40
0.9999999999999999
 10
150.2150249166514
 20
444.112579926386
 30
0.0
 10
150.2388861421257
 20
444.1199019653754
 30
0.0
 10
150.2865532348171
 20
444.1345290561582
 30
0.0
 10
150.3012866525465
 20
444.2465283993452
 30
0.0
 10
150.2740668549754
 20
444.4159074136792
 30
0.0
 10
150.2023911790636
 20
444.6443284768011
 30
0.0
 10
150.1233069881753
 20
444.8214974463466
 30
0.0
 10
150.0826504511858
 20
444.9125785674001
 30
0.0
  0
LINE
  5
289
330
1F
100
AcDbEntity
  8
0
  6
Continuous
 62
     7
370
    15
100
AcDbLine
 10
149.8306643648
 20
444.8670853223
 30
0.0
 11
150.185103385
 21
444.1125799264
 31
0.0
  0
ARC
  5
28A
330
1F
100
AcDbEntity
  8
0
  6
Continuous
 62
     7
370
    15
100
AcDbCircle
 10
165.1012930579
 20
452.1125812377
 30
0.0
 40
16.90234633834256
100
AcDbArc
 50
154.616938827
 51
205.383061173
  0
LINE
  5
28B
330
1F
100
AcDbEntity
  8
0
  6
Continuous
 62
     7
370
    15
100
AcDbLine
 10
150.185103385
 20
460.112582549
 30
0.0
 11
149.8306643648
 21
459.3580771531
 31
0.0
  0
SPLINE
  5
28C
330
1F
100
AcDbEntity
  8
0
  6
Continuous
 62
     7
370
    15
100
AcDbSpline
210
0.0
220
0.0
230
1.0
 70
     8
 71
     3
 72
    12
 73
     8
 74
     0
 42
0.00000001
 43
0.00000001
 40
0.0
 40
0.0
 40
0.0
 40
0.0
 40
0.2510129476244693
 40
0.5023997049789553
 40
0.7402755902731164
 40
0.9473068909495996
 40
0.9999999999999999
 40
0.9999999999999999
 40
0.9999999999999999
 40
0.9999999999999999
 10
150.0826504511858
 20
459.3125839079763
 30
0.0
 10
150.1269687169041
 20
459.4124632595418
 30
0.0
 10
150.2156712473224
 20
459.6123707034998
 30
0.0
 10
150.2906566033767
 20
459.871099176508
 30
0.0
 10
150.3021534588916
 20
460.0483279183449
 30
0.0
 10
150.2605069412583
 20
460.1087649719797
 30
0.0
 10
150.2226960270674
 20
460.1119386670387
 30
0.0
 10
150.2150249166514
 20
460.1125825489904
 30
0.0
  0
LINE
  5
28D
330
1F
100
AcDbEntity
  8
0
  6
Continuous
 62
     7
370
    15
100
AcDbLine
 10
150.2150249167
 20
460.112582549
 30
0.0
 11
150.185103385
 21
460.112582549
 31
0.0
  0
LINE
  5
28E
330
1F
100
AcDbEntity
  8
0
  6
Continuous
 62
     7
370
    15
100
AcDbLine
 10
150.2150249167
 20
444.1125799264
 30
0.0
 11
150.185103385
 21
444.1125799264
 31
0.0
  0
LINE
  5
28F
330
1F
100
AcDbEntity
  8
0
  6
Continuous
 62
     7
370
    15
100
AcDbLine
 10
152.0721268339
 20
459.312583908
 30
0.0
 11
150.0826504512
 21
459.312583908
 31
0.0
  0
LINE
  5
290
330
1F
100
AcDbEntity
  8
0
  6
Continuous
 62
     7
370
    15
100
AcDbLine
 10
152.0721268339
 20
444.9125785674
 30
0.0
 11
152.0721268339
 21
459.312583908
 31
0.0
  0
LINE
  5
291
330
1F
100
AcDbEntity
  8
0
  6
Continuous
 62
     7
370
    15
100
AcDbLine
 10
150.0826504512
 20
444.9125785674
 30
0.0
 11
152.0721268339
 21
444.9125785674
 31
0.0
  0
LWPOLYLINE
  5
292
330
1F
100
AcDbEntity
  8
0
  6
Continuous
 62
     7
370
    15
100
AcDbPolyline
 90
        9
 70
   128
 43
0.0
 10
152.0721268339
 20
459.312583908
 10
152.066866724
 20
459.4686437692
 10
152.0512950106
 20
459.6187282647
 10
152.0260151906
 20
459.7570408429
 10
151.991988389
 20
459.8782617892
 10
151.950525908
 20
459.9777568425
 10
151.9032147212
 20
460.0516815032
 10
151.8518876715
 20
460.0972045506
 10
151.7985117121
 20
460.112582549
  0
LINE
  5
293
330
1F
100
AcDbEntity
  8
0
  6
Continuous
 62
     7
370
    15
100
AcDbLine
 10
150.2150249167
 20
460.112582549
 30
0.0
 11
151.7985117121
 21
460.112582549
 31
0.0
  0
LWPOLYLINE
  5
294
330
1F
100
AcDbEntity
  8
0
  6
Continuous
 62
     7
370
    15
100
AcDbPolyline
 90
        9
 70
   128
 43
0.0
 10
152.0721268339
 20
444.9125785674
 10
152.066866724
 20
444.7565038051
 10
152.0512950106
 20
444.6064342107
 10
152.0260151906
 20
444.4681216325
 10
151.991988389
 20
444.3469006862
 10
151.950525908
 20
444.2474056329
 10
151.9032147212
 20
444.1734809722
 10
151.8518876715
 20
444.1279579247
 10
151.7985117121
 20
444.1125799264
  0
LINE
  5
295
330
1F
100
AcDbEntity
  8
0
  6
Continuous
 62
     7
370
    15
100
AcDbLine
 10
151.7985117121
 20
444.1125799264
 30
0.0
 11
150.2150249167
 21
444.1125799264
 31
0.0
  0
LINE
  5
296
330
1F
100
AcDbEntity
  8
0
  6
Continuous
 62
     7
370
    15
100
AcDbLine
 10
152.0721268339
 20
444.9125785674
 30
0.0
 11
156.9709729834
 21
444.9125785674
 31
0.0
  0
LINE
  5
297
330
1F
100
AcDbEntity
  8
0
  6
Continuous
 62
     7
370
    15
100
AcDbLine
 10
157.1098965092
 20
444.1125799264
 30
0.0
 11
151.7985117121
 21
444.1125799264
 31
0.0
  0
LINE
  5
298
330
1F
100
AcDbEntity
  8
0
  6
Continuous
 62
     7
370
    15
100
AcDbLine
 10
156.9709729834
 20
459.312583908
 30
0.0
 11
152.0721268339
 21
459.312583908
 31
0.0
  0
LINE
  5
299
330
1F
100
AcDbEntity
  8
0
  6
Continuous
 62
     7
370
    15
100
AcDbLine
 10
151.7985117121
 20
460.112582549
 30
0.0
 11
157.1098965092
 21
460.112582549
 31
0.0
  0
LINE
  5
29A
330
1F
100
AcDbEntity
  8
0
  6
Continuous
 62
     7
370
    15
100
AcDbLine
 10
188.2007074041
 20
458.8625837411
 30
0.0
 11
188.2007074041
 21
457.8625817145
 31
0.0
  0
LINE
  5
29B
330
1F
100
AcDbEntity
  8
0
  6
Continuous
 62
     7
370
    15
100
AcDbLine
 10
188.2007074041
 20
457.8625817145
 30
0.0
 11
182.0007067604
 21
457.8625817145
 31
0.0
  0
LINE
  5
29C
330
1F
100
AcDbEntity
  8
0
  6
Continuous
 62
     7
370
    15
100
AcDbLine
 10
182.0007067604
 20
458.8625837411
 30
0.0
 11
182.0007067604
 21
457.8625817145
 31
0.0
  0
LINE
  5
29D
330
1F
100
AcDbEntity
  8
0
  6
Continuous
 62
     7
370
    15
100
AcDbLine
 10
188.2007074041
 20
458.8625837411
 30
0.0
 11
182.0007067604
 21
458.8625837411
 31
0.0
  0
LINE
  5
29E
330
1F
100
AcDbEntity
  8
0
  6
Continuous
 62
     7
370
    15
100
AcDbLine
 10
188.2007074041
 20
88.8625789727
 30
0.0
 11
188.2007074041
 21
87.8625769462
 31
0.0
  0
LINE
  5
29F
330
1F
100
AcDbEntity
  8
0
  6
Continuous
 62
     7
370
    15
100
AcDbLine
 10
188.2007074041
 20
87.8625769462
 30
0.0
 11
182.0007067604
 21
87.8625769462
 31
0.0
  0
LINE
  5
2A0
330
1F
100
AcDbEntity
  8
0
  6
Continuous
 62
     7
370
    15
100
AcDbLine
 10
182.0007067604
 20
88.8625789727
 30
0.0
 11
182.0007067604
 21
87.8625769462
 31
0.0
  0
LINE
  5
2A1
330
1F
100
AcDbEntity
  8
0
  6
Continuous
 62
     7
370
    15
100
AcDbLine
 10
188.2007074041
 20
88.8625789727
 30
0.0
 11
182.0007067604
 21
88.8625789727
 31
0.0
  0
LINE
  5
2A2
330
1F
100
AcDbEntity
  8
0
  6
Continuous
 62
     7
370
    15
100
AcDbLine
 10
188.2007074041
 20
446.3625807609
 30
0.0
 11
188.2007074041
 21
445.3625787343
 31
0.0
  0
LINE
  5
2A3
330
1F
100
AcDbEntity
  8
0
  6
Continuous
 62
     7
370
    15
100
AcDbLine
 10
182.0007067604
 20
446.3625807609
 30
0.0
 11
182.0007067604
 21
445.3625787343
 31
0.0
  0
LINE
  5
2A4
330
1F
100
AcDbEntity
  8
0
  6
Continuous
 62
     7
370
    15
100
AcDbLine
 10
188.2007074041
 20
446.3625807609
 30
0.0
 11
182.0007067604
 21
446.3625807609
 31
0.0
  0
LINE
  5
2A5
330
1F
100
AcDbEntity
  8
0
  6
Continuous
 62
     7
370
    15
100
AcDbLine
 10
188.2007074041
 20
445.3625787343
 30
0.0
 11
182.0007067604
 21
445.3625787343
 31
0.0
  0
LINE
  5
2A6
330
1F
100
AcDbEntity
  8
0
  6
Continuous
 62
     7
370
    15
100
AcDbLine
 10
188.2007074041
 20
76.3625759925
 30
0.0
 11
188.2007074041
 21
75.3625739659
 31
0.0
  0
LINE
  5
2A7
330
1F
100
AcDbEntity
  8
0
  6
Continuous
 62
     7
370
    15
100
AcDbLine
 10
182.0007067604
 20
76.3625759925
 30
0.0
 11
182.0007067604
 21
75.3625739659
 31
0.0
  0
LINE
  5
2A8
330
1F
100
AcDbEntity
  8
0
  6
Continuous
 62
     7
370
    15
100
AcDbLine
 10
188.2007074041
 20
76.3625759925
 30
0.0
 11
182.0007067604
 21
76.3625759925
 31
0.0
  0
LINE
  5
2A9
330
1F
100
AcDbEntity
  8
0
  6
Continuous
 62
     7
370
    15
100
AcDbLine
 10
188.2007074041
 20
75.3625739659
 30
0.0
 11
182.0007067604
 21
75.3625739659
 31
0.0
  0
LWPOLYLINE
  5
2AA
330
1F
100
AcDbEntity
  8
0
  6
Continuous
 62
     7
370
    15
100
AcDbPolyline
 90
        3
 70
   128
 43
0.0
 10
181.9220062776
 20
75.7514346684
 10
181.9245841785
 20
75.7452655877
 10
182.0007067604
 20
75.3625739659
  0
LWPOLYLINE
  5
2AB
330
1F
100
AcDbEntity
  8
0
  6
Continuous
 62
     7
370
    15
100
AcDbPolyline
 90
        3
 70
   128
 43
0.0
 10
182.0007067604
 20
88.8625789727
 10
181.9245841785
 20
88.4799022521
 10
181.9220062776
 20
88.4737182702
  0
LINE
  5
2AC
330
1F
100
AcDbEntity
  8
0
  6
Continuous
 62
     7
370
    15
100
AcDbLine
 10
188.2007074041
 20
87.8625769462
 30
0.0
 11
188.2007074041
 21
87.7125818576
 31
0.0
  0
LINE
  5
2AD
330
1F
100
AcDbEntity
  8
0
  6
Continuous
 62
     7
370
    15
100
AcDbLine
 10
188.2007074041
 20
86.9125832166
 30
0.0
 11
188.2007074041
 21
86.0125828828
 31
0.0
  0
LINE
  5
2AE
330
1F
100
AcDbEntity
  8
0
  6
Continuous
 62
     7
370
    15
100
AcDbLine
 10
188.2007074041
 20
77.4125714148
 30
0.0
 11
188.2007074041
 21
76.3625759925
 31
0.0
  0
LWPOLYLINE
  5
2AF
330
1F
100
AcDbEntity
  8
0
  6
Continuous
 62
     7
370
    15
100
AcDbPolyline
 90
        3
 70
   128
 43
0.0
 10
181.9220062776
 20
445.7514394368
 10
181.9245841785
 20
445.7452554549
 10
182.0007067604
 20
445.3625787343
  0
LWPOLYLINE
  5
2B0
330
1F
100
AcDbEntity
  8
0
  6
Continuous
 62
     7
370
    15
100
AcDbPolyline
 90
        3
 70
   128
 43
0.0
 10
182.0007067604
 20
458.8625837411
 10
181.9245841785
 20
458.4798921193
 10
181.9220062776
 20
458.4737230386
  0
LINE
  5
2B1
330
1F
100
AcDbEntity
  8
0
  6
Continuous
 62
     7
370
    15
100
AcDbLine
 10
188.2007074041
 20
457.8625817145
 30
0.0
 11
188.2007074041
 21
457.7125717248
 31
0.0
  0
LINE
  5
2B2
330
1F
100
AcDbEntity
  8
0
  6
Continuous
 62
     7
370
    15
100
AcDbLine
 10
188.2007074041
 20
456.9125730838
 30
0.0
 11
188.2007074041
 21
456.01257275
 31
0.0
  0
LINE
  5
2B3
330
1F
100
AcDbEntity
  8
0
  6
Continuous
 62
     7
370
    15
100
AcDbLine
 10
188.2007074041
 20
447.4125761832
 30
0.0
 11
188.2007074041
 21
446.3625807609
 31
0.0
  0
LINE
  5
2B4
330
1F
100
AcDbEntity
  8
0
  6
Continuous
 62
     7
370
    15
100
AcDbLine
 10
201.2007039471
 20
517.1125788535
 30
0.0
 11
80.2007073967
 21
517.1125788535
 31
0.0
  0
LINE
  5
2B5
330
1F
100
AcDbEntity
  8
0
  6
Continuous
 62
     7
370
    15
100
AcDbLine
 10
201.2007039471
 20
517.1125788535
 30
0.0
 11
201.2007039471
 21
502.1125782575
 31
0.0
  0
LINE
  5
2B6
330
1F
100
AcDbEntity
  8
0
  6
Continuous
 62
     7
370
    15
100
AcDbLine
 10
201.2007039471
 20
502.1125782575
 30
0.0
 11
80.2007073967
 21
502.1125782575
 31
0.0
  0
LINE
  5
2B7
330
1F
100
AcDbEntity
  8
0
  6
Continuous
 62
     7
370
    15
100
AcDbLine
 10
80.2007073967
 20
517.1125788535
 30
0.0
 11
80.2007073967
 21
502.1125782575
 31
0.0
  0
LINE
  5
2B8
330
1F
100
AcDbEntity
  8
0
  6
Continuous
 62
     7
370
    15
100
AcDbLine
 10
65.200707732
 20
502.1125782575
 30
0.0
 11
80.2007073967
 21
502.1125782575
 31
0.0
  0
LINE
  5
2B9
330
1F
100
AcDbEntity
  8
0
  6
Continuous
 62
     7
370
    15
100
AcDbLine
 10
80.2007073967
 20
502.1125782575
 30
0.0
 11
80.2007073967
 21
32.1125794495
 31
0.0
  0
LINE
  5
2BA
330
1F
100
AcDbEntity
  8
0
  6
Continuous
 62
     7
370
    15
100
AcDbLine
 10
80.2007073967
 20
32.1125794495
 30
0.0
 11
65.200707732
 21
32.1125794495
 31
0.0
  0
LINE
  5
2BB
330
1F
100
AcDbEntity
  8
0
  6
Continuous
 62
     7
370
    15
100
AcDbLine
 10
65.200707732
 20
502.1125782575
 30
0.0
 11
65.200707732
 21
32.1125794495
 31
0.0
  0
LINE
  5
2BC
330
1F
100
AcDbEntity
  8
0
  6
Continuous
 62
     7
370
    15
100
AcDbLine
 10
80.2007073967
 20
32.1125794495
 30
0.0
 11
80.2007073967
 21
17.1125788535
 31
0.0
  0
ARC
  5
2BD
330
1F
100
AcDbEntity
  8
0
  6
Continuous
 62
     7
370
    15
100
AcDbCircle
 10
80.2007077141
 20
32.1125788535
 30
0.0
 40
15.00000000000001
100
AcDbArc
 50
180.0
 51
270.0
  0
LINE
  5
2BE
330
1F
100
AcDbEntity
  8
0
  6
Continuous
 62
     7
370
    15
100
AcDbLine
 10
201.2007039471
 20
32.1125794495
 30
0.0
 11
80.2007073967
 21
32.1125794495
 31
0.0
  0
LINE
  5
2BF
330
1F
100
AcDbEntity
  8
0
  6
Continuous
 62
     7
370
    15
100
AcDbLine
 10
201.2007039471
 20
32.1125794495
 30
0.0
 11
201.2007039471
 21
17.1125788535
 31
0.0
  0
LINE
  5
2C0
330
1F
100
AcDbEntity
  8
0
  6
Continuous
 62
     7
370
    15
100
AcDbLine
 10
201.2007039471
 20
17.1125788535
 30
0.0
 11
80.2007073967
 21
17.1125788535
 31
0.0
  0
ARC
  5
2C1
330
1F
100
AcDbEntity
  8
0
  6
Continuous
 62
     7
370
    15
100
AcDbCircle
 10
80.2007077141
 20
502.1125788535
 30
0.0
 40
15.0
100
AcDbArc
 50
90.0
 51
180.0
  0
LINE
  5
2C2
330
1F
100
AcDbEntity
  8
0
  6
Continuous
 62
     7
370
    15
100
AcDbLine
 10
181.2007081194
 20
37.1125746812
 30
0.0
 11
181.2007081194
 21
69.3000365342
 31
0.0
  0
LINE
  5
2C3
330
1F
100
AcDbEntity
  8
0
  6
Continuous
 62
     7
370
    15
100
AcDbLine
 10
181.2007081194
 20
72.6398188914
 30
0.0
 11
181.2007081194
 21
74.112575158
 31
0.0
  0
LINE
  5
2C4
330
1F
100
AcDbEntity
  8
0
  6
Continuous
 62
     7
370
    15
100
AcDbLine
 10
181.2007081194
 20
90.1125777806
 30
0.0
 11
181.2007081194
 21
91.5719826068
 31
0.0
  0
LINE
  5
2C5
330
1F
100
AcDbEntity
  8
0
  6
Continuous
 62
     7
370
    15
100
AcDbLine
 10
181.2007081194
 20
94.9147004928
 30
0.0
 11
181.2007081194
 21
439.3000264014
 31
0.0
  0
LINE
  5
2C6
330
1F
100
AcDbEntity
  8
0
  6
Continuous
 62
     7
370
    15
100
AcDbLine
 10
181.2007081194
 20
442.6398236598
 30
0.0
 11
181.2007081194
 21
444.1125799264
 31
0.0
  0
LINE
  5
2C7
330
1F
100
AcDbEntity
  8
0
  6
Continuous
 62
     7
370
    15
100
AcDbLine
 10
181.2007081194
 20
460.112582549
 30
0.0
 11
181.2007081194
 21
461.5719873752
 31
0.0
  0
LINE
  5
2C8
330
1F
100
AcDbEntity
  8
0
  6
Continuous
 62
     7
370
    15
100
AcDbLine
 10
181.2007081194
 20
464.91469036
 30
0.0
 11
181.2007081194
 21
497.1125830258
 31
0.0
  0
LINE
  5
2C9
330
1F
100
AcDbEntity
  8
0
  6
Continuous
 62
     7
370
    15
100
AcDbLine
 10
181.2007081194
 20
497.1125830258
 30
0.0
 11
85.2007072849
 21
497.1125830258
 31
0.0
  0
LINE
  5
2CA
330
1F
100
AcDbEntity
  8
0
  6
Continuous
 62
     7
370
    15
100
AcDbLine
 10
85.2007072849
 20
497.1125830258
 30
0.0
 11
85.2007072849
 21
37.1125746812
 31
0.0
  0
LINE
  5
2CB
330
1F
100
AcDbEntity
  8
0
  6
Continuous
 62
     7
370
    15
100
AcDbLine
 10
181.2007081194
 20
37.1125746812
 30
0.0
 11
85.2007072849
 21
37.1125746812
 31
0.0
  0
LINE
  5
2CC
330
1F
100
AcDbEntity
  8
0
  6
Continuous
 62
     7
370
    15
100
AcDbLine
 10
201.2007039471
 20
32.1125794495
 30
0.0
 11
201.2007039471
 21
73.104675516
 31
0.0
  0
LINE
  5
2CD
330
1F
100
AcDbEntity
  8
0
  6
Continuous
 62
     7
370
    15
100
AcDbLine
 10
201.2007039471
 20
91.0885144318
 30
0.0
 11
201.2007039471
 21
443.1046653832
 31
0.0
  0
LINE
  5
2CE
330
1F
100
AcDbEntity
  8
0
  6
Continuous
 62
     7
370
    15
100
AcDbLine
 10
201.2007039471
 20
461.0885042991
 30
0.0
 11
201.2007039471
 21
502.1125782575
 31
0.0
  0
LINE
  5
2CF
330
1F
100
AcDbEntity
  8
0
  6
Continuous
 62
     7
370
    15
100
AcDbLine
 10
205.2007120533
 20
497.1125830258
 30
0.0
 11
201.2007039471
 21
497.1125830258
 31
0.0
  0
LINE
  5
2D0
330
1F
100
AcDbEntity
  8
0
  6
Continuous
 62
     7
370
    15
100
AcDbLine
 10
205.2007120533
 20
37.1125746812
 30
0.0
 11
201.2007039471
 21
37.1125746812
 31
0.0
  0
LINE
  5
2D1
330
1F
100
AcDbEntity
  8
0
  6
Continuous
 62
     7
370
    15
100
AcDbLine
 10
205.2007120533
 20
22.1125740851
 30
0.0
 11
201.2007039471
 21
22.1125740851
 31
0.0
  0
LINE
  5
2D2
330
1F
100
AcDbEntity
  8
0
  6
Continuous
 62
     7
370
    15
100
AcDbLine
 10
205.2007120533
 20
512.1125836219
 30
0.0
 11
201.2007039471
 21
512.1125836219
 31
0.0
  0
LINE
  5
2D3
330
1F
100
AcDbEntity
  8
0
  6
Continuous
 62
     7
370
    15
100
AcDbLine
 10
305.0788304267
 20
645.3463756488
 30
0.0
 11
306.2788209376
 21
645.3463756488
 31
0.0
  0
LINE
  5
2D4
330
1F
100
AcDbEntity
  8
0
  6
Continuous
 62
     7
370
    15
100
AcDbLine
 10
304.9788138327
 20
647.8463732646
 30
0.0
 11
305.0788304267
 21
647.8463732646
 31
0.0
  0
LINE
  5
2D5
330
1F
100
AcDbEntity
  8
0
  6
Continuous
 62
     7
370
    15
100
AcDbLine
 10
305.0788304267
 20
653.8463705228
 30
0.0
 11
304.9788138327
 21
653.8463705228
 31
0.0
  0
SPLINE
  5
2D6
330
1F
100
AcDbEntity
  8
0
  6
Continuous
 62
     7
370
    15
100
AcDbSpline
210
0.0
220
0.0
230
1.0
 70
     8
 71
     3
 72
    15
 73
    11
 74
     0
 42
0.00000001
 43
0.00000001
 40
0.0
 40
0.0
 40
0.0
 40
0.0
 40
0.1250758502442964
 40
0.2501515181520967
 40
0.3752915865228048
 40
0.5003052766261131
 40
0.625289326162837
 40
0.7502628591728802
 40
0.875079163494045
 40
1.0
 40
1.0
 40
1.0
 40
1.0
 10
303.8932642397561
 20
675.9042018101619
 30
0.0
 10
303.8671312943184
 20
676.1629655207362
 30
0.0
 10
303.8148654415394
 20
676.680492564657
 30
0.0
 10
303.736029082532
 20
677.46160941125
 30
0.0
 10
303.6615847403813
 20
678.1987884621524
 30
0.0
 10
303.5946084807454
 20
678.862363638206
 30
0.0
 10
303.5384593696978
 20
679.4181294997514
 30
0.0
 10
303.4959813926512
 20
679.8392274135126
 30
0.0
 10
303.4671196928279
 20
680.1248339284797
 30
0.0
 10
303.4627699200568
 20
680.167869165025
 30
0.0
 10
303.4605941233316
 20
680.189395789902
 30
0.0
  0
SPLINE
  5
2D7
330
1F
100
AcDbEntity
  8
0
  6
Continuous
 62
     7
370
    15
100
AcDbSpline
210
0.0
220
0.0
230
1.0
 70
     8
 71
     3
 72
    15
 73
    11
 74
     0
 42
0.00000001
 43
0.00000001
 40
0.0
 40
0.0
 40
0.0
 40
0.0
 40
0.1249400656609977
 40
0.249767920150836
 40
0.3747499640727444
 40
0.4997367305381343
 40
0.6247475330371232
 40
0.749879426605655
 40
0.874942639496871
 40
1.0
 40
1.0
 40
1.0
 40
1.0
 10
300.476368373362
 20
679.8880123541759
 30
0.0
 10
300.4785451625678
 20
679.8664346462649
 30
0.0
 10
300.4828967859613
 20
679.8232986098143
 30
0.0
 10
300.5117415080018
 20
679.537585078292
 30
0.0
 10
300.5542841096379
 20
679.116401168547
 30
0.0
 10
300.6103672219484
 20
678.5606268601553
 30
0.0
 10
300.6773622799591
 20
677.8970992543283
 30
0.0
 10
300.7517968777283
 20
677.1600570985895
 30
0.0
 10
300.8306537683132
 20
676.3791456781934
 30
0.0
 10
300.8828709201293
 20
675.8617887894192
 30
0.0
 10
300.9089788851419
 20
675.6031163976596
 30
0.0
  0
LINE
  5
2D8
330
1F
100
AcDbEntity
  8
0
  6
Continuous
 62
     7
370
    15
100
AcDbLine
 10
300.9087106642
 20
675.6029822872
 30
0.0
 11
302.4777731356
 21
660.0620024846
 31
0.0
  0
LINE
  5
2D9
330
1F
100
AcDbEntity
  8
0
  6
Continuous
 62
     7
370
    15
100
AcDbLine
 10
305.4626247344
 20
660.3633635686
 30
0.0
 11
303.8935324607
 21
675.9043359206
 31
0.0
  0
SPLINE
  5
2DA
330
1F
100
AcDbEntity
  8
0
  6
Continuous
 62
     7
370
    15
100
AcDbSpline
210
0.0
220
0.0
230
1.0
 70
     8
 71
     3
 72
     9
 73
     5
 74
     0
 42
0.00000001
 43
0.00000001
 40
0.0
 40
0.0
 40
0.0
 40
0.0
 40
0.4837423281541608
 40
1.0
 40
1.0
 40
1.0
 40
1.0
 10
302.6478549894968
 20
658.3806299612926
 30
0.0
 10
302.6573216685528
 20
658.3164052483992
 30
0.0
 10
302.6768913413001
 20
658.1836388784634
 30
0.0
 10
302.7107317038628
 20
658.1474816729939
 30
0.0
 10
302.728202050654
 20
658.1288152382778
 30
0.0
  0
SPLINE
  5
2DB
330
1F
100
AcDbEntity
  8
0
  6
Continuous
 62
     7
370
    15
100
AcDbSpline
210
0.0
220
0.0
230
1.0
 70
     8
 71
     3
 72
    11
 73
     7
 74
     0
 42
0.00000001
 43
0.00000001
 40
0.0
 40
0.0
 40
0.0
 40
0.0
 40
0.24843859520607
 40
0.4978874476122649
 40
0.7483874041745817
 40
1.0
 40
1.0
 40
1.0
 40
1.0
 10
302.478071158854
 20
660.0621663973735
 30
0.0
 10
302.4960856244417
 20
659.8836947095948
 30
0.0
 10
302.5321878101108
 20
659.5260255920996
 30
0.0
 10
302.5791861414131
 20
659.0611886506362
 30
0.0
 10
302.6179902769678
 20
658.678301852838
 30
0.0
 10
302.6330212701908
 20
658.5310140958261
 30
0.0
 10
302.6405534205118
 20
658.4572070286678
 30
0.0
  0
SPLINE
  5
2DC
330
1F
100
AcDbEntity
  8
0
  6
Continuous
 62
     7
370
    15
100
AcDbSpline
210
0.0
220
0.0
230
1.0
 70
     8
 71
     3
 72
    19
 73
    15
 74
     0
 42
0.00000001
 43
0.00000001
 40
0.0
 40
0.0
 40
0.0
 40
0.0
 40
0.0802801529479596
 40
0.1534412922591482
 40
0.2193398889295901
 40
0.2779506360393799
 40
0.3728460648198181
 40
0.4421518861814596
 40
0.5315384986156683
 40
0.6554822832505874
 40
0.7303552552707726
 40
0.8130764939023809
 40
0.9031425884064256
 40
1.0
 40
1.0
 40
1.0
 40
1.0
 10
302.6635012087503
 20
658.2979881213115
 30
0.0
 10
302.6988618153786
 20
658.1751142006549
 30
0.0
 10
302.7664473514903
 20
657.9402624660959
 30
0.0
 10
302.9636714117504
 20
657.6458519751067
 30
0.0
 10
303.1885257709396
 20
657.421721209454
 30
0.0
 10
303.4842093286699
 20
657.2287044870459
 30
0.0
 10
303.8261454763898
 20
657.1107670305697
 30
0.0
 10
304.2359025128753
 20
657.0809985569015
 30
0.0
 10
304.6749865415822
 20
657.1832899015914
 30
0.0
 10
305.0615215183834
 20
657.4345327311102
 30
0.0
 10
305.3543586487631
 20
657.7752390105669
 30
0.0
 10
305.5351291718962
 20
658.1307082655223
 30
0.0
 10
305.6410481665553
 20
658.5576491942571
 30
0.0
 10
305.6087776869128
 20
658.8527192064603
 30
0.0
 10
305.5920562204996
 20
659.0056144640849
 30
0.0
  0
SPLINE
  5
2DD
330
1F
100
AcDbEntity
  8
0
  6
Continuous
 62
     7
370
    15
100
AcDbSpline
210
0.0
220
0.0
230
1.0
 70
     8
 71
     3
 72
    11
 73
     7
 74
     0
 42
0.00000001
 43
0.00000001
 40
0.0
 40
0.0
 40
0.0
 40
0.0
 40
0.2477441740661877
 40
0.4969485595492578
 40
0.747676767748903
 40
1.0
 40
1.0
 40
1.0
 40
1.0
 10
305.6158384737649
 20
658.8379316971705
 30
0.0
 10
305.6093942689582
 20
658.9025568729606
 30
0.0
 10
305.5964678770131
 20
659.0321881272196
 30
0.0
 10
305.5605470066205
 20
659.39006702379
 30
0.0
 10
305.5155299165623
 20
659.8363840743
 30
0.0
 10
305.4800985603248
 20
660.1872435071223
 30
0.0
 10
305.4623267111459
 20
660.363229458134
 30
0.0
  0
LINE
  5
2DE
330
1F
100
AcDbEntity
  8
0
  6
Continuous
 62
     7
370
    15
100
AcDbLine
 10
305.7461342272
 20
670.0180419729
 30
0.0
 11
305.7461342272
 21
670.3178607867
 31
0.0
  0
LINE
  5
2DF
330
1F
100
AcDbEntity
  8
0
  6
Continuous
 62
     7
370
    15
100
AcDbLine
 10
304.9461206851
 20
670.3178607867
 30
0.0
 11
304.9461206851
 21
670.0204932139
 31
0.0
  0
SPLINE
  5
2E0
330
1F
100
AcDbEntity
  8
0
  6
Continuous
 62
     7
370
    15
100
AcDbSpline
210
0.0
220
0.0
230
1.0
 70
    24
 71
     3
 72
    11
 73
     7
 74
     0
 42
0.00000001
 43
0.00000001
 40
0.0
 40
0.0
 40
0.0
 40
0.0
 40
0.0207851580527776
 40
0.3465582713038245
 40
0.6711422062876115
 40
0.9999999999999999
 40
0.9999999999999999
 40
0.9999999999999999
 40
0.9999999999999999
 10
304.9461206850686
 20
670.604179148476
 30
0.0
 10
304.9461206850686
 20
670.6008574441148
 30
0.0
 10
304.9461206850684
 20
670.545473495711
 30
0.0
 10
304.9461206850687
 20
670.4522358374502
 30
0.0
 10
304.9461206850687
 20
670.3395221216789
 30
0.0
 10
304.9461206850686
 20
670.3050001916305
 30
0.0
 10
304.9461206850686
 20
670.2876263306545
 30
0.0
  0
SPLINE
  5
2E1
330
1F
100
AcDbEntity
  8
0
  6
Continuous
 62
     7
370
    15
100
AcDbSpline
210
0.0
220
0.0
230
1.0
 70
    24
 71
     3
 72
    11
 73
     7
 74
     0
 42
0.00000001
 43
0.00000001
 40
0.0
 40
0.0
 40
0.0
 40
0.0
 40
0.2504858112135913
 40
0.4977299750592455
 40
0.74586599487306
 40
1.0
 40
1.0
 40
1.0
 40
1.0
 10
305.7461342272439
 20
670.2851750896381
 30
0.0
 10
305.7461342272439
 20
670.3013917867613
 30
0.0
 10
305.7461342272439
 20
670.3336153135776
 30
0.0
 10
305.746134227244
 20
670.4423993214739
 30
0.0
 10
305.7461342272439
 20
670.5812291104808
 30
0.0
 10
305.7461342272439
 20
670.6882568506891
 30
0.0
 10
305.7461342272439
 20
670.7424097702907
 30
0.0
  0
LINE
  5
2E2
330
1F
100
AcDbEntity
  8
0
  6
Continuous
 62
     7
370
    15
100
AcDbLine
 10
304.7393819747
 20
670.8463751719
 30
0.0
 11
304.9482962546
 21
670.5991500066
 31
0.0
  0
LINE
  5
2E3
330
1F
100
AcDbEntity
  8
0
  6
Continuous
 62
     7
370
    15
100
AcDbLine
 10
305.7461342272
 20
670.7424097703
 30
0.0
 11
305.7461342272
 21
670.8463751719
 31
0.0
  0
LINE
  5
2E4
330
1F
100
AcDbEntity
  8
0
  6
Continuous
 62
     7
370
    15
100
AcDbLine
 10
300.4697522578
 20
679.9843930648
 30
0.0
 11
300.4541358409
 21
680.443624501
 31
0.0
  0
SPLINE
  5
2E5
330
1F
100
AcDbEntity
  8
0
  6
Continuous
 62
     7
370
    15
100
AcDbSpline
210
0.0
220
0.0
230
1.0
 70
     8
 71
     3
 72
    11
 73
     7
 74
     0
 42
0.00000001
 43
0.00000001
 40
0.0
 40
0.0
 40
0.0
 40
0.0
 40
0.1207592406345323
 40
0.413392642697813
 40
0.7063557390918365
 40
1.0
 40
1.0
 40
1.0
 40
1.0
 10
302.5024196562448
 20
659.8209613011287
 30
0.0
 10
302.5123433427428
 20
659.7226607398268
 30
0.0
 10
302.5463148961013
 20
659.3861504355078
 30
0.0
 10
302.5936490778395
 20
658.9172401651506
 30
0.0
 10
302.6365473954324
 20
658.4925017715251
 30
0.0
 10
302.6440828747594
 20
658.4179494212658
 30
0.0
 10
302.6478549894968
 20
658.3806299612926
 30
0.0
  0
LINE
  5
2E6
330
1F
100
AcDbEntity
  8
0
  6
Continuous
 62
     7
370
    15
100
AcDbLine
 10
300.8305689749
 20
710.8463742779
 30
0.0
 11
300.078835195
 21
710.572759156
 31
0.0
  0
LINE
  5
2E7
330
1F
100
AcDbEntity
  8
0
  6
Continuous
 62
     7
370
    15
100
AcDbLine
 10
306.2788209376
 20
709.8463722513
 30
0.0
 11
305.9788307604
 21
709.8463722513
 31
0.0
  0
LINE
  5
2E8
330
1F
100
AcDbEntity
  8
0
  6
Continuous
 62
     7
370
    15
100
AcDbLine
 10
305.9788307604
 20
708.8463776753
 30
0.0
 11
305.8788141665
 21
708.8463776753
 31
0.0
  0
LINE
  5
2E9
330
1F
100
AcDbEntity
  8
0
  6
Continuous
 62
     7
370
    15
100
AcDbLine
 10
305.8788141665
 20
702.8463729666
 30
0.0
 11
305.9788307604
 21
702.8463729666
 31
0.0
  0
LINE
  5
2EA
330
1F
100
AcDbEntity
  8
0
  6
Continuous
 62
     7
370
    15
100
AcDbLine
 10
305.9788307604
 20
685.846375768
 30
0.0
 11
305.8788141665
 21
685.846375768
 31
0.0
  0
LINE
  5
2EB
330
1F
100
AcDbEntity
  8
0
  6
Continuous
 62
     7
370
    15
100
AcDbLine
 10
305.8788141665
 20
679.8463785098
 30
0.0
 11
305.9788307604
 21
679.8463785098
 31
0.0
  0
ARC
  5
2EC
330
1F
100
AcDbEntity
  8
0
  6
Continuous
 62
     7
370
    15
100
AcDbCircle
 10
321.2788209376
 20
648.846374862
 30
0.0
 40
15.00000000000011
100
AcDbArc
 50
180.0
 51
270.0
  0
LINE
  5
2ED
330
1F
100
AcDbEntity
  8
0
  6
Continuous
 62
     7
370
    15
100
AcDbLine
 10
306.2788209376
 20
648.8463752911
 30
0.0
 11
321.2788215336
 21
648.8463752911
 31
0.0
  0
LINE
  5
2EE
330
1F
100
AcDbEntity
  8
0
  6
Continuous
 62
     7
370
    15
100
AcDbLine
 10
321.2788215336
 20
633.8463746951
 30
0.0
 11
321.2788215336
 21
648.8463752911
 31
0.0
  0
LINE
  5
2EF
330
1F
100
AcDbEntity
  8
0
  6
Continuous
 62
     7
370
    15
100
AcDbLine
 10
306.2788209376
 20
653.8463705228
 30
0.0
 11
306.2788209376
 21
648.8463752911
 31
0.0
  0
LINE
  5
2F0
330
1F
100
AcDbEntity
  8
0
  6
Continuous
 62
     7
370
    15
100
AcDbLine
 10
306.2788209376
 20
653.8463705228
 30
0.0
 11
321.2788215336
 21
653.8463705228
 31
0.0
  0
LINE
  5
2F1
330
1F
100
AcDbEntity
  8
0
  6
Continuous
 62
     7
370
    15
100
AcDbLine
 10
321.2788215336
 20
653.8463705228
 30
0.0
 11
321.2788215336
 21
648.8463752911
 31
0.0
  0
LINE
  5
2F2
330
1F
100
AcDbEntity
  8
0
  6
Continuous
 62
     7
370
    15
100
AcDbLine
 10
321.2788215336
 20
648.8463752911
 30
0.0
 11
791.2788203416
 21
648.8463752911
 31
0.0
  0
LINE
  5
2F3
330
1F
100
AcDbEntity
  8
0
  6
Continuous
 62
     7
370
    15
100
AcDbLine
 10
791.2788203416
 20
648.8463752911
 30
0.0
 11
791.2788203416
 21
633.8463746951
 31
0.0
  0
LINE
  5
2F4
330
1F
100
AcDbEntity
  8
0
  6
Continuous
 62
     7
370
    15
100
AcDbLine
 10
321.2788215336
 20
633.8463746951
 30
0.0
 11
791.2788203416
 21
633.8463746951
 31
0.0
  0
LINE
  5
2F5
330
1F
100
AcDbEntity
  8
0
  6
Continuous
 62
     7
370
    15
100
AcDbLine
 10
791.2788203416
 20
653.8463705228
 30
0.0
 11
791.2788203416
 21
648.8463752911
 31
0.0
  0
LINE
  5
2F6
330
1F
100
AcDbEntity
  8
0
  6
Continuous
 62
     7
370
    15
100
AcDbLine
 10
321.2788215336
 20
653.8463705228
 30
0.0
 11
791.2788203416
 21
653.8463705228
 31
0.0
  0
LINE
  5
2F7
330
1F
100
AcDbEntity
  8
0
  6
Continuous
 62
     7
370
    15
100
AcDbLine
 10
806.2788209376
 20
653.8463705228
 30
0.0
 11
806.2788209376
 21
648.8463752911
 31
0.0
  0
LINE
  5
2F8
330
1F
100
AcDbEntity
  8
0
  6
Continuous
 62
     7
370
    15
100
AcDbLine
 10
806.2788209376
 20
648.8463752911
 30
0.0
 11
791.2788203416
 21
648.8463752911
 31
0.0
  0
LINE
  5
2F9
330
1F
100
AcDbEntity
  8
0
  6
Continuous
 62
     7
370
    15
100
AcDbLine
 10
806.2788209376
 20
653.8463705228
 30
0.0
 11
791.2788203416
 21
653.8463705228
 31
0.0
  0
ARC
  5
2FA
330
1F
100
AcDbEntity
  8
0
  6
Continuous
 62
     7
370
    15
100
AcDbCircle
 10
791.2788209376
 20
648.846374862
 30
0.0
 40
15.0
100
AcDbArc
 50
270.0
 51
0.0
  0
LINE
  5
2FB
330
1F
100
AcDbEntity
  8
0
  6
Continuous
 62
     7
370
    15
100
AcDbLine
 10
305.0788304267
 20
649.7601741002
 30
0.0
 11
305.0788304267
 21
651.864143555
 31
0.0
  0
LINE
  5
2FC
330
1F
100
AcDbEntity
  8
0
  6
Continuous
 62
     7
370
    15
100
AcDbLine
 10
305.0788304267
 20
651.864143555
 30
0.0
 11
306.2788209376
 21
651.864143555
 31
0.0
  0
LINE
  5
2FD
330
1F
100
AcDbEntity
  8
0
  6
Continuous
 62
     7
370
    15
100
AcDbLine
 10
305.0788304267
 20
649.7601741002
 30
0.0
 11
306.2788209376
 21
649.7601741002
 31
0.0
  0
LINE
  5
2FE
330
1F
100
AcDbEntity
  8
0
  6
Continuous
 62
     7
370
    15
100
AcDbLine
 10
305.0788304267
 20
656.8463766025
 30
0.0
 11
306.2788209376
 21
656.8463766025
 31
0.0
  0
LINE
  5
2FF
330
1F
100
AcDbEntity
  8
0
  6
Continuous
 62
     7
370
    15
100
AcDbLine
 10
306.2788209376
 20
653.8463705228
 30
0.0
 11
306.2788209376
 21
656.8463766025
 31
0.0
  0
LINE
  5
300
330
1F
100
AcDbEntity
  8
0
  6
Continuous
 62
     7
370
    15
100
AcDbLine
 10
305.0788304267
 20
656.8463766025
 30
0.0
 11
305.0788304267
 21
651.864143555
 31
0.0
  0
LINE
  5
301
330
1F
100
AcDbEntity
  8
0
  6
Continuous
 62
     7
370
    15
100
AcDbLine
 10
306.2788209376
 20
648.8463752911
 30
0.0
 11
306.2788209376
 21
645.3463756488
 31
0.0
  0
LINE
  5
302
330
1F
100
AcDbEntity
  8
0
  6
Continuous
 62
     7
370
    15
100
AcDbLine
 10
305.0788304267
 20
645.3463756488
 30
0.0
 11
305.0788304267
 21
649.7601741002
 31
0.0
  0
LINE
  5
303
330
1F
100
AcDbEntity
  8
0
  6
Continuous
 62
     7
370
    15
100
AcDbLine
 10
304.9788138327
 20
647.8463732646
 30
0.0
 11
304.9788138327
 21
653.8463705228
 31
0.0
  0
LINE
  5
304
330
1F
100
AcDbEntity
  8
0
  6
Continuous
 62
     7
370
    15
100
AcDbLine
 10
298.2308527884
 20
658.0487811015
 30
0.0
 11
298.9613673148
 21
657.096760814
 31
0.0
  0
LWPOLYLINE
  5
305
330
1F
100
AcDbEntity
  8
0
  6
Continuous
 62
     7
370
    15
100
AcDbPolyline
 90
        9
 70
   128
 43
0.0
 10
298.9613673148
 20
657.096760814
 10
298.7756392417
 20
656.9542461083
 10
298.5970339236
 20
656.8172001288
 10
298.432435697
 20
656.6909127877
 10
298.2881626544
 20
656.5802120612
 10
298.1697878298
 20
656.4893596814
 10
298.0818113742
 20
656.4218574212
 10
298.0276307521
 20
656.3802831815
 10
298.0093321261
 20
656.3662462876
  0
LINE
  5
306
330
1F
100
AcDbEntity
  8
0
  6
Continuous
 62
     7
370
    15
100
AcDbLine
 10
298.0093321261
 20
656.3662462876
 30
0.0
 11
297.2788175997
 21
657.3182665751
 31
0.0
  0
LWPOLYLINE
  5
307
330
1F
100
AcDbEntity
  8
0
  6
Continuous
 62
     7
370
    15
100
AcDbPolyline
 90
        9
 70
   128
 43
0.0
 10
297.2788175997
 20
657.3182665751
 10
297.2971162257
 20
657.332303469
 10
297.3512968478
 20
657.3738777087
 10
297.4392733035
 20
657.4413799689
 10
297.557648128
 20
657.5322323487
 10
297.7019211707
 20
657.6429330752
 10
297.8665193972
 20
657.7692353175
 10
298.0451247153
 20
657.9062663958
 10
298.2308527884
 20
658.0487811015
  0
LINE
  5
308
330
1F
100
AcDbEntity
  8
0
  6
Continuous
 62
     7
370
    15
100
AcDbLine
 10
298.9613673148
 20
657.096760814
 30
0.0
 11
302.504803842
 21
659.8157458947
 31
0.0
  0
LINE
  5
309
330
1F
100
AcDbEntity
  8
0
  6
Continuous
 62
     7
370
    15
100
AcDbLine
 10
301.7742893157
 20
660.7677661822
 30
0.0
 11
298.2308527884
 21
658.0487811015
 31
0.0
  0
ARC
  5
30A
330
1F
100
AcDbEntity
  8
0
  6
Continuous
 62
     7
370
    15
100
AcDbCircle
 10
303.4788209376
 20
658.546374862
 30
0.0
 40
2.800000000000011
100
AcDbArc
 50
0.0
 51
45.4024529621
  0
LINE
  5
30B
330
1F
100
AcDbEntity
  8
0
  6
Continuous
 62
     7
370
    15
100
AcDbLine
 10
302.3711702284
 20
661.1179732726
 30
0.0
 11
301.7742893157
 21
660.7677661822
 31
0.0
  0
LINE
  5
30C
330
1F
100
AcDbEntity
  8
0
  6
Continuous
 62
     7
370
    15
100
AcDbLine
 10
306.2788209376
 20
656.8463766025
 30
0.0
 11
306.2788209376
 21
657.846378629
 31
0.0
  0
LINE
  5
30D
330
1F
100
AcDbEntity
  8
0
  6
Continuous
 62
     7
370
    15
100
AcDbLine
 10
305.0788304267
 20
657.4873202489
 30
0.0
 11
305.0788304267
 21
656.8463766025
 31
0.0
  0
SPLINE
  5
30E
330
1F
100
AcDbEntity
  8
0
  6
Continuous
 62
     7
370
    15
100
AcDbSpline
210
0.0
220
0.0
230
1.0
 70
     8
 71
     3
 72
    12
 73
     8
 74
     0
 42
0.00000001
 43
0.00000001
 40
0.0
 40
0.0
 40
0.0
 40
0.0
 40
0.234046876581693
 40
0.4681102864190871
 40
0.7021601996585941
 40
0.9362164700995343
 40
1.0
 40
1.0
 40
1.0
 40
1.0
 10
302.5757929739633
 20
675.5234920428203
 30
0.0
 10
302.3794064547656
 20
675.504109199679
 30
0.0
 10
301.9866195434719
 20
675.465342144177
 30
0.0
 10
301.4491087345128
 20
675.4601047493124
 30
0.0
 10
301.0756602000437
 20
675.4985718735282
 30
0.0
 10
300.8963975824896
 20
675.5532364101539
 30
0.0
 10
300.9251445514906
 20
675.5971903626984
 30
0.0
 10
300.9313008246103
 20
675.606603269379
 30
0.0
  0
SPLINE
  5
30F
330
1F
100
AcDbEntity
  8
0
  6
Continuous
 62
     7
370
    15
100
AcDbSpline
210
0.0
220
0.0
230
1.0
 70
     8
 71
     3
 72
    11
 73
     7
 74
     0
 42
0.00000001
 43
0.00000001
 40
0.0
 40
0.0
 40
0.0
 40
0.0
 40
0.198685414473905
 40
0.4657910986118576
 40
0.732891892888696
 40
1.0
 40
1.0
 40
1.0
 40
1.0
 10
303.8717171606698
 20
675.9023764179157
 30
0.0
 10
303.8705341899935
 20
675.8778864843624
 30
0.0
 10
303.8677608751411
 20
675.820473145367
 30
0.0
 10
303.5982237472908
 20
675.713381921173
 30
0.0
 10
303.151170854554
 20
675.602573787972
 30
0.0
 10
302.7675873511301
 20
675.5498528651048
 30
0.0
 10
302.5757929739633
 20
675.5234920428203
 30
0.0
  0
SPLINE
  5
310
330
1F
100
AcDbEntity
  8
0
  6
Continuous
 62
     7
370
    15
100
AcDbSpline
210
0.0
220
0.0
230
1.0
 70
     8
 71
     3
 72
    12
 73
     8
 74
     0
 42
0.00000001
 43
0.00000001
 40
0.0
 40
0.0
 40
0.0
 40
0.0
 40
0.2339756308627727
 40
0.4679329027377401
 40
0.7019009134061414
 40
0.9358671996917016
 40
1.0
 40
1.0
 40
1.0
 40
1.0
 10
301.9688388762154
 20
681.5353655264781
 30
0.0
 10
301.7727471206501
 20
681.5128623377966
 30
0.0
 10
301.3805789959344
 20
681.4678577261551
 30
0.0
 10
300.8776565928692
 20
681.120348518786
 30
0.0
 10
300.5578098490687
 20
680.6268763094347
 30
0.0
 10
300.4299288650361
 20
680.173286707542
 30
0.0
 10
300.487693406759
 20
679.9302914758275
 30
0.0
 10
300.5001208243051
 20
679.8780136750148
 30
0.0
  0
SPLINE
  5
311
330
1F
100
AcDbEntity
  8
0
  6
Continuous
 62
     7
370
    15
100
AcDbSpline
210
0.0
220
0.0
230
1.0
 70
     8
 71
     3
 72
    11
 73
     7
 74
     0
 42
0.00000001
 43
0.00000001
 40
0.0
 40
0.0
 40
0.0
 40
0.0
 40
0.1976900086147052
 40
0.4651323128312848
 40
0.7325623418327518
 40
1.0
 40
1.0
 40
1.0
 40
1.0
 10
303.4390470442453
 20
680.1850744531558
 30
0.0
 10
303.4207675781196
 20
680.3298260101434
 30
0.0
 10
303.3777589788688
 20
680.6704027897152
 30
0.0
 10
303.0522821464055
 20
681.1201611013012
 30
0.0
 10
302.5590047280207
 20
681.4678985358926
 30
0.0
 10
302.1655626974571
 20
681.5128763157671
 30
0.0
 10
301.9688388762155
 20
681.5353655264781
 30
0.0
  0
SPLINE
  5
312
330
1F
100
AcDbEntity
  8
0
  6
Continuous
 62
     7
370
    15
100
AcDbSpline
210
0.0
220
0.0
230
1.0
 70
     8
 71
     3
 72
    12
 73
     8
 74
     0
 42
0.00000001
 43
0.00000001
 40
0.0
 40
0.0
 40
0.0
 40
0.0
 40
0.2350193850730122
 40
0.4700326152068836
 40
0.7050507835947478
 40
0.9400637437707898
 40
1.0
 40
1.0
 40
1.0
 40
1.0
 10
304.1448852476754
 20
659.9825196907923
 30
0.0
 10
303.9484940284523
 20
659.9631417293675
 30
0.0
 10
303.5557167333096
 20
659.9243863140088
 30
0.0
 10
303.0181157126543
 20
659.9191180368941
 30
0.0
 10
302.6450286167978
 20
659.9576430284752
 30
0.0
 10
302.4660548083796
 20
660.0117642395835
 30
0.0
 10
302.4939002054655
 20
660.0550658619757
 30
0.0
 10
302.4995586332956
 20
660.0638651297496
 30
0.0
  0
SPLINE
  5
313
330
1F
100
AcDbEntity
  8
0
  6
Continuous
 62
     7
370
    15
100
AcDbSpline
210
0.0
220
0.0
230
1.0
 70
     8
 71
     3
 72
    11
 73
     7
 74
     0
 42
0.00000001
 43
0.00000001
 40
0.0
 40
0.0
 40
0.0
 40
0.0
 40
0.1989201846168
 40
0.4659430756912897
 40
0.7329787924530475
 40
1.0
 40
1.0
 40
1.0
 40
1.0
 10
305.4408392367044
 20
660.3615158245967
 30
0.0
 10
305.4396570055191
 20
660.3369896295827
 30
0.0
 10
305.4368877921497
 20
660.2795404030911
 30
0.0
 10
305.1673322847898
 20
660.1724178991366
 30
0.0
 10
304.7202362555003
 20
660.0616032666916
 30
0.0
 10
304.3366654433436
 20
660.008880405302
 30
0.0
 10
304.1448852476755
 20
659.9825196907924
 30
0.0
  0
ARC
  5
314
330
1F
100
AcDbEntity
  8
0
  6
Continuous
 62
     7
370
    15
100
AcDbCircle
 10
305.3461205627
 20
670.2841508804
 30
0.0
 40
0.4000149757733549
100
AcDbArc
 50
0.1467018328
 51
179.5021907974
  0
ELLIPSE
  5
315
330
1F
100
AcDbEntity
  8
0
  6
Continuous
 62
     7
370
    15
100
AcDbEllipse
 10
305.3461203379
 20
670.0192664683
 30
0.0
 11
0.3991830274374024
 21
-0.02624604221148274
 31
0.0
210
0.0
220
0.0
230
1.0
 40
0.9763157485
 41
0.0
 42
6.283185307179586
  0
SPLINE
  5
316
330
1F
100
AcDbEntity
  8
0
  6
Continuous
 62
     7
370
    15
100
AcDbSpline
210
0.0
220
0.0
230
1.0
 70
     8
 71
     3
 72
    13
 73
     9
 74
     0
 42
0.00000001
 43
0.00000001
 40
0.0
 40
0.0
 40
0.0
 40
0.0
 40
0.0081700813214444
 40
0.2391743651950643
 40
0.4710995414903649
 40
0.6931354914530248
 40
0.9042382206872192
 40
1.0
 40
1.0
 40
1.0
 40
1.0
 10
305.3461274561563
 20
670.7481020138667
 30
0.0
 10
305.3444685560199
 20
670.7477072163997
 30
0.0
 10
305.2959052221391
 20
670.7361497508363
 30
0.0
 10
305.1997652879219
 20
670.7129632602207
 30
0.0
 10
305.0769445889162
 20
670.6692965576221
 30
0.0
 10
304.9912779674847
 20
670.6318627630122
 30
0.0
 10
304.9472508457947
 20
670.6107125439203
 30
0.0
 10
304.9505007293741
 20
670.6057330697959
 30
0.0
 10
304.9515149054208
 20
670.604179148476
 30
0.0
  0
SPLINE
  5
317
330
1F
100
AcDbEntity
  8
0
  6
Continuous
 62
     7
370
    15
100
AcDbSpline
210
0.0
220
0.0
230
1.0
 70
     8
 71
     3
 72
    13
 73
     9
 74
     0
 42
0.00000001
 43
0.00000001
 40
0.0
 40
0.0
 40
0.0
 40
0.0
 40
0.1252375801846441
 40
0.2499791709688103
 40
0.4999837225977353
 40
0.7499971849147907
 40
0.8747791277768512
 40
1.0
 40
1.0
 40
1.0
 40
1.0
 10
305.7461342272439
 20
670.7424097702907
 30
0.0
 10
305.7444122783697
 20
670.7424326086983
 30
0.0
 10
305.7409752002068
 20
670.7424781950648
 30
0.0
 10
305.7066322084541
 20
670.7429733409092
 30
0.0
 10
305.6313263702862
 20
670.7440414388944
 30
0.0
 10
305.5226889356226
 20
670.7455938572788
 30
0.0
 10
305.4239733710859
 20
670.7469898277961
 30
0.0
 10
305.3721064486779
 20
670.7477308515053
 30
0.0
 10
305.3461274561563
 20
670.7481020138667
 30
0.0
  0
SPLINE
  5
318
330
1F
100
AcDbEntity
  8
0
  6
Continuous
 62
     7
370
    15
100
AcDbSpline
210
0.0
220
0.0
230
1.0
 70
     8
 71
     3
 72
    10
 73
     6
 74
     0
 42
0.00000001
 43
0.00000001
 40
0.0
 40
0.0
 40
0.0
 40
0.0
 40
0.0189614195973397
 40
0.5252897390997647
 40
1.0
 40
1.0
 40
1.0
 40
1.0
 10
305.3461274561563
 20
670.7481020138667
 30
0.0
 10
305.3476468219467
 20
670.7488397501336
 30
0.0
 10
305.3897379351968
 20
670.7692773175419
 30
0.0
 10
305.472289572091
 20
670.807620058957
 30
0.0
 10
305.542436920235
 20
670.8337373808092
 30
0.0
 10
305.5763801989236
 20
670.8463751719402
 30
0.0
  0
LINE
  5
319
330
1F
100
AcDbEntity
  8
0
  6
Continuous
 62
     7
370
    15
100
AcDbLine
 10
300.4696032462
 20
679.9873360441
 30
0.0
 11
300.4820606169
 21
679.8365660952
 31
0.0
  0
LINE
  5
31A
330
1F
100
AcDbEntity
  8
0
  6
Continuous
 62
     7
370
    15
100
AcDbLine
 10
303.4618160185
 20
680.1800751136
 30
0.0
 11
303.4262320456
 21
680.3902336405
 31
0.0
  0
ARC
  5
31B
330
1F
100
AcDbEntity
  8
0
  6
Continuous
 62
     7
370
    15
100
AcDbCircle
 10
301.3788209376
 20
673.866374862
 30
0.0
 40
2.200000000000036
100
AcDbArc
 50
103.5934783352
 51
268.1042765976
  0
LINE
  5
31C
330
1F
100
AcDbEntity
  8
0
  6
Continuous
 62
     7
370
    15
100
AcDbLine
 10
297.8320083079
 20
675.2441399739
 30
0.0
 11
298.165645307
 21
677.1363713787
 31
0.0
  0
LWPOLYLINE
  5
31D
330
1F
100
AcDbEntity
  8
0
  6
Continuous
 62
     7
370
    15
100
AcDbPolyline
 90
        9
 70
   128
 43
0.0
 10
298.165645307
 20
677.1363713787
 10
298.0214020667
 20
677.1618076609
 10
297.8843709883
 20
677.1859698937
 10
297.759260839
 20
677.2080310629
 10
297.6504227576
 20
677.2272237585
 10
297.5615820346
 20
677.2428848789
 10
297.4958381114
 20
677.2544779823
 10
297.4554857669
 20
677.2615932868
 10
297.4418661055
 20
677.2639998243
  0
LINE
  5
31E
330
1F
100
AcDbEntity
  8
0
  6
Continuous
 62
     7
370
    15
100
AcDbLine
 10
297.4418661055
 20
677.2639998243
 30
0.0
 11
301.8169066367
 21
702.0761095927
 31
0.0
  0
LWPOLYLINE
  5
31F
330
1F
100
AcDbEntity
  8
0
  6
Continuous
 62
     7
370
    15
100
AcDbPolyline
 90
        9
 70
   128
 43
0.0
 10
301.8169066367
 20
702.0761095927
 10
301.8320462165
 20
702.0734348343
 10
301.8768689093
 20
702.0655297683
 10
301.9496759829
 20
702.0526924179
 10
302.0476660189
 20
702.0354219721
 10
302.1670541224
 20
702.0143666313
 10
302.3032507357
 20
701.99035341
 10
302.4510404524
 20
701.9642912791
 10
302.6047608313
 20
701.9371860669
  0
LINE
  5
320
330
1F
100
AcDbEntity
  8
0
  6
Continuous
 62
     7
370
    15
100
AcDbLine
 10
302.6047608313
 20
701.9371860669
 30
0.0
 11
297.7794370112
 21
674.5713897989
 31
0.0
  0
LINE
  5
321
330
1F
100
AcDbEntity
  8
0
  6
Continuous
 62
     7
370
    15
100
AcDbLine
 10
297.7794370112
 20
674.5713897989
 30
0.0
 11
297.8320083079
 21
675.2441399739
 31
0.0
  0
LWPOLYLINE
  5
322
330
1F
100
AcDbEntity
  8
0
  6
Continuous
 62
     7
370
    15
100
AcDbPolyline
 90
        5
 70
   128
 43
0.0
 10
300.6642124114
 20
708.9644321249
 10
300.4107436595
 20
709.6608378933
 10
300.2271911559
 20
710.1651527927
 10
300.1160284934
 20
710.4705073879
 10
300.078835195
 20
710.572759156
  0
LWPOLYLINE
  5
323
330
1F
100
AcDbEntity
  8
0
  6
Continuous
 62
     7
370
    15
100
AcDbPolyline
 90
        5
 70
   128
 43
0.0
 10
301.4238438067
 20
709.2164182113
 10
301.1669775901
 20
709.9220925019
 10
300.9809514937
 20
710.4332097814
 10
300.8682987151
 20
710.7427292512
 10
300.8305689749
 20
710.8463742779
  0
LINE
  5
324
330
1F
100
AcDbEntity
  8
0
  6
Continuous
 62
     7
370
    15
100
AcDbLine
 10
301.6459307131
 20
708.8619791911
 30
0.0
 11
301.4238438067
 21
709.2164182113
 31
0.0
  0
LINE
  5
325
330
1F
100
AcDbEntity
  8
0
  6
Continuous
 62
     7
370
    15
100
AcDbLine
 10
301.563735908
 20
708.8320576594
 30
0.0
 11
301.6459307131
 21
708.8619791911
 31
0.0
  0
SPLINE
  5
326
330
1F
100
AcDbEntity
  8
0
  6
Continuous
 62
     7
370
    15
100
AcDbSpline
210
0.0
220
0.0
230
1.0
 70
     8
 71
     3
 72
    12
 73
     8
 74
     0
 42
0.00000001
 43
0.00000001
 40
0.0
 40
0.0
 40
0.0
 40
0.0
 40
0.2510129476244693
 40
0.5023997049789553
 40
0.7402755902731164
 40
0.9473068909495996
 40
0.9999999999999999
 40
0.9999999999999999
 40
0.9999999999999999
 40
0.9999999999999999
 10
300.6642124113718
 20
708.9644321248935
 30
0.0
 10
300.6919152497841
 20
708.9201138591751
 30
0.0
 10
300.7473621818136
 20
708.8314113287569
 30
0.0
 10
300.9543729174014
 20
708.7564259727025
 30
0.0
 10
301.2157660509824
 20
708.7449291171877
 30
0.0
 10
301.432347528762
 20
708.786575634821
 30
0.0
 10
301.5415756199907
 20
708.8243865490118
 30
0.0
 10
301.5637359079995
 20
708.832057659428
 30
0.0
  0
LINE
  5
327
330
1F
100
AcDbEntity
  8
0
  6
Continuous
 62
     7
370
    15
100
AcDbLine
 10
301.563735908
 20
708.8320576594
 30
0.0
 11
302.1400532183
 21
707.248570864
 31
0.0
  0
LWPOLYLINE
  5
328
330
1F
100
AcDbEntity
  8
0
  6
Continuous
 62
     7
370
    15
100
AcDbPolyline
 90
        9
 70
   128
 43
0.0
 10
301.3883194384
 20
706.9749557422
 10
301.4027437625
 20
706.9802158521
 10
301.4455398974
 20
706.9957875655
 10
301.5150091109
 20
707.0210673855
 10
301.6084989962
 20
707.0550941871
 10
301.7224034724
 20
707.0965566681
 10
301.8523714003
 20
707.1438678549
 10
301.9933959899
 20
707.1951949046
 10
302.1400532183
 20
707.248570864
  0
LINE
  5
329
330
1F
100
AcDbEntity
  8
0
  6
Continuous
 62
     7
370
    15
100
AcDbLine
 10
301.3883194384
 20
706.9749557422
 30
0.0
 11
300.6642124114
 21
708.9644321249
 31
0.0
  0
ARC
  5
32A
330
1F
100
AcDbEntity
  8
0
  6
Continuous
 62
     7
370
    15
100
AcDbCircle
 10
301.9688264438
 20
680.0353657805
 30
0.0
 40
1.600000000000028
100
AcDbArc
 50
347.034367059
 51
204.5705045338
  0
ARC
  5
32B
330
1F
100
AcDbEntity
  8
0
  6
Continuous
 62
     7
370
    15
100
AcDbCircle
 10
302.481535409
 20
708.0584397163
 30
0.0
 40
0.5000000000001137
100
AcDbArc
 50
36.8410865503
 51
90.0
  0
LINE
  5
32C
330
1F
100
AcDbEntity
  8
0
  6
Continuous
 62
     7
370
    15
100
AcDbLine
 10
304.7788104472
 20
702.6620605038
 30
0.0
 11
304.7788104472
 21
674.6363737629
 31
0.0
  0
ARC
  5
32D
330
1F
100
AcDbEntity
  8
0
  6
Continuous
 62
     7
370
    15
100
AcDbCircle
 10
292.4612338971
 20
703.7257653303
 30
0.0
 40
10.30000000000016
100
AcDbArc
 50
350.0
 51
20.0
  0
LINE
  5
32E
330
1F
100
AcDbEntity
  8
0
  6
Continuous
 62
     7
370
    15
100
AcDbLine
 10
302.3635110316
 20
708.5584425376
 30
0.0
 11
302.4815282283
 21
708.5584425376
 31
0.0
  0
ARC
  5
32F
330
1F
100
AcDbEntity
  8
0
  6
Continuous
 62
     7
370
    15
100
AcDbCircle
 10
295.2788209376
 20
702.662060908
 30
0.0
 40
9.5
100
AcDbArc
 50
0.0
 51
36.8410865502
  0
ARC
  5
330
330
1F
100
AcDbEntity
  8
0
  6
Continuous
 62
     7
370
    15
100
AcDbCircle
 10
302.3635228634
 20
709.5584397163
 30
0.0
 40
1.0
100
AcDbArc
 50
224.1440002858
 51
270.0
  0
LWPOLYLINE
  5
331
330
1F
100
AcDbEntity
  8
0
  6
Continuous
 62
     7
370
    15
100
AcDbPolyline
 90
        3
 70
   128
 43
0.0
 10
304.7788104472
 20
674.6363737629
 10
304.5701941905
 20
673.4460913585
 10
304.2140266356
 20
672.7299341009
  0
ARC
  5
332
330
1F
100
AcDbEntity
  8
0
  6
Continuous
 62
     7
370
    15
100
AcDbCircle
 10
301.2788209376
 20
674.636374862
 30
0.0
 40
3.500000000000111
100
AcDbArc
 50
181.0639402281
 51
271.3221928089
  0
ARC
  5
333
330
1F
100
AcDbEntity
  8
0
  6
Continuous
 62
     7
370
    15
100
AcDbCircle
 10
292.4612338971
 20
703.7257653303
 30
0.0
 40
9.500000000000039
100
AcDbArc
 50
350.0
 51
20.0
  0
ARC
  5
334
330
1F
100
AcDbEntity
  8
0
  6
Continuous
 62
     7
370
    15
100
AcDbCircle
 10
301.872438731
 20
675.3338703888
 30
0.0
 40
4.698428302688335
100
AcDbArc
 50
170.0
 51
264.3261771657
  0
LINE
  5
335
330
1F
100
AcDbEntity
  8
0
  6
Continuous
 62
     7
370
    15
100
AcDbLine
 10
297.4418661055
 20
677.2639998243
 30
0.0
 11
297.245379394
 21
676.1497431443
 31
0.0
  0
LINE
  5
336
330
1F
100
AcDbEntity
  8
0
  6
Continuous
 62
     7
370
    15
100
AcDbLine
 10
791.2788203416
 20
778.8463751794
 30
0.0
 11
806.2788209376
 21
778.8463751794
 31
0.0
  0
LINE
  5
337
330
1F
100
AcDbEntity
  8
0
  6
Continuous
 62
     7
370
    15
100
AcDbLine
 10
791.2788203416
 20
778.8463751794
 30
0.0
 11
791.2788203416
 21
793.8463748441
 31
0.0
  0
ARC
  5
338
330
1F
100
AcDbEntity
  8
0
  6
Continuous
 62
     7
370
    15
100
AcDbCircle
 10
791.2788209376
 20
778.846374862
 30
0.0
 40
15.0
100
AcDbArc
 50
0.0
 51
90.0
  0
LINE
  5
339
330
1F
100
AcDbEntity
  8
0
  6
Continuous
 62
     7
370
    15
100
AcDbLine
 10
321.2788215336
 20
778.8463751794
 30
0.0
 11
791.2788203416
 21
778.8463751794
 31
0.0
  0
LINE
  5
33A
330
1F
100
AcDbEntity
  8
0
  6
Continuous
 62
     7
370
    15
100
AcDbLine
 10
321.2788215336
 20
778.8463751794
 30
0.0
 11
321.2788215336
 21
793.8463748441
 31
0.0
  0
LINE
  5
33B
330
1F
100
AcDbEntity
  8
0
  6
Continuous
 62
     7
370
    15
100
AcDbLine
 10
321.2788215336
 20
793.8463748441
 30
0.0
 11
791.2788203416
 21
793.8463748441
 31
0.0
  0
LINE
  5
33C
330
1F
100
AcDbEntity
  8
0
  6
Continuous
 62
     7
370
    15
100
AcDbLine
 10
326.2788167653
 20
677.8463744567
 30
0.0
 11
786.2788251099
 21
677.8463744567
 31
0.0
  0
LINE
  5
33D
330
1F
100
AcDbEntity
  8
0
  6
Continuous
 62
     7
370
    15
100
AcDbLine
 10
786.2788251099
 20
773.8463752911
 30
0.0
 11
786.2788251099
 21
677.8463744567
 31
0.0
  0
LINE
  5
33E
330
1F
100
AcDbEntity
  8
0
  6
Continuous
 62
     7
370
    15
100
AcDbLine
 10
786.2788251099
 20
773.8463752911
 30
0.0
 11
326.2788167653
 21
773.8463752911
 31
0.0
  0
LINE
  5
33F
330
1F
100
AcDbEntity
  8
0
  6
Continuous
 62
     7
370
    15
100
AcDbLine
 10
326.2788167653
 20
677.8463744567
 30
0.0
 11
326.2788167653
 21
773.8463752911
 31
0.0
  0
LINE
  5
340
330
1F
100
AcDbEntity
  8
0
  6
Continuous
 62
     7
370
    15
100
AcDbLine
 10
791.2788203416
 20
778.8463751794
 30
0.0
 11
791.2788203416
 21
657.846378629
 31
0.0
  0
LINE
  5
341
330
1F
100
AcDbEntity
  8
0
  6
Continuous
 62
     7
370
    15
100
AcDbLine
 10
321.2788215336
 20
657.846378629
 30
0.0
 11
791.2788203416
 21
657.846378629
 31
0.0
  0
LINE
  5
342
330
1F
100
AcDbEntity
  8
0
  6
Continuous
 62
     7
370
    15
100
AcDbLine
 10
321.2788215336
 20
657.846378629
 30
0.0
 11
321.2788215336
 21
778.8463751794
 31
0.0
  0
LINE
  5
343
330
1F
100
AcDbEntity
  8
0
  6
Continuous
 62
     7
370
    15
100
AcDbLine
 10
806.2788209376
 20
778.8463751794
 30
0.0
 11
806.2788209376
 21
657.846378629
 31
0.0
  0
LINE
  5
344
330
1F
100
AcDbEntity
  8
0
  6
Continuous
 62
     7
370
    15
100
AcDbLine
 10
806.2788209376
 20
657.846378629
 30
0.0
 11
791.2788203416
 21
657.846378629
 31
0.0
  0
LINE
  5
345
330
1F
100
AcDbEntity
  8
0
  6
Continuous
 62
     7
370
    15
100
AcDbLine
 10
321.2788215336
 20
778.8463751794
 30
0.0
 11
306.2788209376
 21
778.8463751794
 31
0.0
  0
ARC
  5
346
330
1F
100
AcDbEntity
  8
0
  6
Continuous
 62
     7
370
    15
100
AcDbCircle
 10
321.2788209376
 20
778.846374862
 30
0.0
 40
15.0
100
AcDbArc
 50
90.0
 51
180.0
  0
LINE
  5
347
330
1F
100
AcDbEntity
  8
0
  6
Continuous
 62
     7
370
    15
100
AcDbLine
 10
321.2788215336
 20
657.846378629
 30
0.0
 11
306.2788209376
 21
657.846378629
 31
0.0
  0
LINE
  5
348
330
1F
100
AcDbEntity
  8
0
  6
Continuous
 62
     7
370
    15
100
AcDbLine
 10
306.2788209376
 20
657.846378629
 30
0.0
 11
306.2788209376
 21
778.8463751794
 31
0.0
  0
LINE
  5
349
330
1F
100
AcDbEntity
  8
0
  6
Continuous
 62
     7
370
    15
100
AcDbLine
 10
786.2788251099
 20
653.8463705228
 30
0.0
 11
786.2788251099
 21
657.846378629
 31
0.0
  0
LINE
  5
34A
330
1F
100
AcDbEntity
  8
0
  6
Continuous
 62
     7
370
    15
100
AcDbLine
 10
326.2788167653
 20
653.8463705228
 30
0.0
 11
326.2788167653
 21
657.846378629
 31
0.0
  0
LINE
  5
34B
330
1F
100
AcDbEntity
  8
0
  6
Continuous
 62
     7
370
    15
100
AcDbLine
 10
801.278825706
 20
653.8463705228
 30
0.0
 11
801.278825706
 21
657.846378629
 31
0.0
  0
LINE
  5
34C
330
1F
100
AcDbEntity
  8
0
  6
Continuous
 62
     7
370
    15
100
AcDbLine
 10
311.2788161692
 20
653.8463705228
 30
0.0
 11
311.2788161692
 21
657.846378629
 31
0.0
  0
LINE
  5
34D
330
1F
100
AcDbEntity
  8
0
  6
Continuous
 62
     7
370
    15
100
AcDbLine
 10
806.2788209376
 20
657.846378629
 30
0.0
 11
806.9461247382
 21
657.846378629
 31
0.0
  0
ARC
  5
34E
330
1F
100
AcDbEntity
  8
0
  6
Continuous
 62
     7
370
    15
100
AcDbCircle
 10
806.9461386857
 20
658.346374862
 30
0.0
 40
0.5000000000000051
100
AcDbArc
 50
270.0
 51
332.720387264
  0
ARC
  5
34F
330
1F
100
AcDbEntity
  8
0
  6
Continuous
 62
     7
370
    15
100
AcDbCircle
 10
812.2788209376
 20
655.596374862
 30
0.0
 40
5.500000000000063
100
AcDbArc
 50
202.024312837
 51
152.720387264
  0
ARC
  5
350
330
1F
100
AcDbEntity
  8
0
  6
Continuous
 62
     7
370
    15
100
AcDbCircle
 10
806.7166720723
 20
653.346374862
 30
0.0
 40
0.5000000000001137
100
AcDbArc
 50
22.024312837
 51
90.0
  0
LINE
  5
351
330
1F
100
AcDbEntity
  8
0
  6
Continuous
 62
     7
370
    15
100
AcDbLine
 10
806.7166766581
 20
653.8463705228
 30
0.0
 11
806.2788209376
 21
653.8463705228
 31
0.0
  0
LINE
  5
352
330
1F
100
AcDbEntity
  8
0
  6
Continuous
 62
     7
370
    15
100
AcDbLine
 10
305.9788307604
 20
677.0463758157
 30
0.0
 11
306.2788209376
 21
677.0474337981
 31
0.0
  0
LINE
  5
353
330
1F
100
AcDbEntity
  8
0
  6
Continuous
 62
     7
370
    15
100
AcDbLine
 10
306.2788209376
 20
679.0463724182
 30
0.0
 11
305.9788307604
 21
679.0463724182
 31
0.0
  0
LINE
  5
354
330
1F
100
AcDbEntity
  8
0
  6
Continuous
 62
     7
370
    15
100
AcDbLine
 10
305.9788307604
 20
677.0463758157
 30
0.0
 11
305.9788307604
 21
679.0463724182
 31
0.0
  0
ARC
  5
355
330
1F
100
AcDbEntity
  8
0
  6
Continuous
 62
     7
370
    15
100
AcDbCircle
 10
301.0788209376
 20
673.946374862
 30
0.0
 40
3.100000000000023
100
AcDbArc
 50
192.3149201505
 51
270.0
  0
LINE
  5
356
330
1F
100
AcDbEntity
  8
0
  6
Continuous
 62
     7
370
    15
100
AcDbLine
 10
305.9788307604
 20
670.8463751719
 30
0.0
 11
305.9788307604
 21
677.0463758157
 31
0.0
  0
LINE
  5
357
330
1F
100
AcDbEntity
  8
0
  6
Continuous
 62
     7
370
    15
100
AcDbLine
 10
301.0788223204
 20
670.8463751719
 30
0.0
 11
301.3889452872
 21
670.8463751719
 31
0.0
  0
LINE
  5
358
330
1F
100
AcDbEntity
  8
0
  6
Continuous
 62
     7
370
    15
100
AcDbLine
 10
304.4041952548
 20
670.8463751719
 30
0.0
 11
305.9788307604
 21
670.8463751719
 31
0.0
  0
LINE
  5
359
330
1F
100
AcDbEntity
  8
0
  6
Continuous
 62
     7
370
    15
100
AcDbLine
 10
305.9788307604
 20
677.0463758157
 30
0.0
 11
304.7788104472
 21
677.0463758157
 31
0.0
  0
LINE
  5
35A
330
1F
100
AcDbEntity
  8
0
  6
Continuous
 62
     7
370
    15
100
AcDbLine
 10
306.2788209376
 20
670.8463751719
 30
0.0
 11
305.9788307604
 21
670.8463751719
 31
0.0
  0
LINE
  5
35B
330
1F
100
AcDbEntity
  8
0
  6
Continuous
 62
     7
370
    15
100
AcDbLine
 10
305.9788307604
 20
709.8463722513
 30
0.0
 11
305.9788307604
 21
703.0963771985
 31
0.0
  0
LINE
  5
35C
330
1F
100
AcDbEntity
  8
0
  6
Continuous
 62
     7
370
    15
100
AcDbLine
 10
305.9788307604
 20
679.0463724182
 30
0.0
 11
305.9788307604
 21
703.0963771985
 31
0.0
  0
LINE
  5
35D
330
1F
100
AcDbEntity
  8
0
  6
Continuous
 62
     7
370
    15
100
AcDbLine
 10
305.8788141665
 20
702.8463729666
 30
0.0
 11
305.8788141665
 21
708.8463776753
 31
0.0
  0
LINE
  5
35E
330
1F
100
AcDbEntity
  8
0
  6
Continuous
 62
     7
370
    15
100
AcDbLine
 10
305.8788141665
 20
679.8463785098
 30
0.0
 11
305.8788141665
 21
685.846375768
 31
0.0
  0
LINE
  5
35F
330
1F
100
AcDbEntity
  8
0
  6
Continuous
 62
     7
370
    15
100
AcDbLine
 10
304.7788104472
 20
695.2031874106
 30
0.0
 11
305.9788307604
 21
694.8816501544
 31
0.0
  0
LINE
  5
360
330
1F
100
AcDbEntity
  8
0
  6
Continuous
 62
     7
370
    15
100
AcDbLine
 10
305.9788307604
 20
693.8463770793
 30
0.0
 11
304.7788104472
 21
694.1679143355
 31
0.0
  0
LINE
  5
361
330
1F
100
AcDbEntity
  8
0
  6
Continuous
 62
     8
370
    15
100
AcDbLine
 10
306.2788209376
 20
703.0963771985
 30
0.0
 11
305.9788307604
 21
703.0963771985
 31
0.0
  0
ENDSEC
  0
SECTION
  2
OBJECTS
  0
DICTIONARY
  5
C
330
0
100
AcDbDictionary
281
     1
  3
ACAD_GROUP
350
D
  3
ACAD_LAYOUT
350
1A
  3
ACAD_MLINESTYLE
350
17
  3
ACAD_PLOTSETTINGS
350
19
  3
ACAD_PLOTSTYLENAME
350
E
  0
DICTIONARY
  5
D
102
{ACAD_REACTORS
330
C
102
}
330
C
100
AcDbDictionary
281
     1
  0
DICTIONARY
  5
1A
102
{ACAD_REACTORS
330
C
102
}
330
C
100
AcDbDictionary
281
     1
  3
Layout1
350
1E
  3
Layout2
350
26
  3
Model
350
22
  0
DICTIONARY
  5
17
102
{ACAD_REACTORS
330
C
102
}
330
C
100
AcDbDictionary
281
     1
  3
Standard
350
18
  0
DICTIONARY
  5
19
102
{ACAD_REACTORS
330
C
102
}
330
C
100
AcDbDictionary
281
     1
  0
ACDBDICTIONARYWDFLT
  5
E
102
{ACAD_REACTORS
330
C
102
}
330
C
100
AcDbDictionary
281
     1
  3
Normal
350
F
100
AcDbDictionaryWithDefault
340
F
  0
LAYOUT
  5
1E
102
{ACAD_REACTORS
330
1A
102
}
330
1A
100
AcDbPlotSettings
  1

  2
none_device
  4

  6

 40
0.0
 41
0.0
 42
0.0
 43
0.0
 44
0.0
 45
0.0
 46
0.0
 47
0.0
 48
0.0
 49
0.0
140
0.0
141
0.0
142
1.0
143
1.0
 70
   688
 72
     0
 73
     0
 74
     5
  7

 75
    16
147
1.0
148
0.0
149
0.0
100
AcDbLayout
  1
Layout1
 70
     1
 71
     1
 10
0.0
 20
0.0
 11
420.0
 21
297.0
 12
0.0
 22
0.0
 32
0.0
 14
1.0000000000E+20
 24
1.0000000000E+20
 34
1.0000000000E+20
 15
-1.0000000000E+20
 25
-1.0000000000E+20
 35
-1.0000000000E+20
146
0.0
 13
0.0
 23
0.0
 33
0.0
 16
1.0
 26
0.0
 36
0.0
 17
0.0
 27
1.0
 37
0.0
 76
     0
330
1B
  0
LAYOUT
  5
26
102
{ACAD_REACTORS
330
1A
102
}
330
1A
100
AcDbPlotSettings
  1

  2
none_device
  4

  6

 40
0.0
 41
0.0
 42
0.0
 43
0.0
 44
0.0
 45
0.0
 46
0.0
 47
0.0
 48
0.0
 49
0.0
140
0.0
141
0.0
142
1.0
143
1.0
 70
   688
 72
     0
 73
     0
 74
     5
  7

 75
    16
147
1.0
148
0.0
149
0.0
100
AcDbLayout
  1
Layout2
 70
     1
 71
     2
 10
0.0
 20
0.0
 11
0.0
 21
0.0
 12
0.0
 22
0.0
 32
0.0
 14
0.0
 24
0.0
 34
0.0
 15
0.0
 25
0.0
 35
0.0
146
0.0
 13
0.0
 23
0.0
 33
0.0
 16
1.0
 26
0.0
 36
0.0
 17
0.0
 27
1.0
 37
0.0
 76
     0
330
23
  0
LAYOUT
  5
22
102
{ACAD_REACTORS
330
1A
102
}
330
1A
100
AcDbPlotSettings
  1

  2
none_device
  4

  6

 40
0.0
 41
0.0
 42
0.0
 43
0.0
 44
0.0
 45
0.0
 46
0.0
 47
0.0
 48
0.0
 49
0.0
140
0.0
141
0.0
142
1.0
143
1.0
 70
  1712
 72
     0
 73
     0
 74
     0
  7

 75
     0
147
1.0
148
0.0
149
0.0
100
AcDbLayout
  1
Model
 70
     1
 71
     0
 10
0.0
 20
0.0
 11
840.0
 21
594.0
 12
0.0
 22
0.0
 32
0.0
 14
0.0
 24
0.0
 34
0.0
 15
840.0
 25
594.0
 35
0.0
146
0.0
 13
0.0
 23
0.0
 33
0.0
 16
1.0
 26
0.0
 36
0.0
 17
0.0
 27
1.0
 37
0.0
 76
     0
330
1F
331
29
  0
MLINESTYLE
  5
18
102
{ACAD_REACTORS
330
17
102
}
330
17
100
AcDbMlineStyle
  2
Standard
 70
     0
  3

 62
   256
 51
90.0
 52
90.0
 71
     2
 49
0.5
 62
   256
  6
BYLAYER
 49
-0.5
 62
   256
  6
BYLAYER
  0
ACDBPLACEHOLDER
  5
F
102
{ACAD_REACTORS
330
E
102
}
330
E
  0
ENDSEC
  0
EOF
