  0
SECTION
  2
HEADER
  9
$ACADVER
  1
AC1015
  9
$ACADMAINTVER
 70
     6
  9
$DWGCODEPAGE
  3
DOS932
  9
$INSBASE
 10
0.0
 20
0.0
 30
0.0
  9
$EXTMIN
 10
0.0
 20
0.0
 30
0.0
  9
$EXTMAX
 10
840.0
 20
594.0
 30
0.0
  9
$LIMMIN
 10
0.0
 20
0.0
  9
$LIMMAX
 10
840.0
 20
594.0
  9
$ORTHOMODE
 70
     0
  9
$REGENMODE
 70
     1
  9
$FILLMODE
 70
     1
  9
$QTEXTMODE
 70
     0
  9
$MIRRTEXT
 70
     1
  9
$LTSCALE
 40
2.0
  9
$ATTMODE
 70
     1
  9
$TEXTSIZE
 40
7.0
  9
$TRACEWID
 40
1.0
  9
$TEXTSTYLE
  7
Standard
  9
$CLAYER
  8
0
  9
$CELTYPE
  6
ByLayer
  9
$CECOLOR
 62
   256
  9
$CELTSCALE
 40
1.0
  9
$DISPSILH
 70
     0
  9
$DIMSCALE
 40
1.0
  9
$DIMASZ
 40
6.0
  9
$DIMEXO
 40
2.0
  9
$DIMDLI
 40
3.75
  9
$DIMRND
 40
0.0
  9
$DIMDLE
 40
0.0
  9
$DIMEXE
 40
2.0
  9
$DIMTP
 40
0.0
  9
$DIMTM
 40
0.0
  9
$DIMTXT
 40
7.0
  9
$DIMCEN
 40
2.5
  9
$DIMTSZ
 40
0.0
  9
$DIMTOL
 70
     0
  9
$DIMLIM
 70
     0
  9
$DIMTIH
 70
     1
  9
$DIMTOH
 70
     1
  9
$DIMSE1
 70
     0
  9
$DIMSE2
 70
     0
  9
$DIMTAD
 70
     1
  9
$DIMZIN
 70
     0
  9
$DIMBLK
  1

  9
$DIMASO
 70
     1
  9
$DIMSHO
 70
     1
  9
$DIMPOST
  1

  9
$DIMAPOST
  1

  9
$DIMALT
 70
     0
  9
$DIMALTD
 70
     3
  9
$DIMALTF
 40
0.0393700787
  9
$DIMLFAC
 40
1.0
  9
$DIMTOFL
 70
     1
  9
$DIMTVP
 40
0.0
  9
$DIMTIX
 70
     0
  9
$DIMSOXD
 70
     0
  9
$DIMSAH
 70
     0
  9
$DIMBLK1
  1

  9
$DIMBLK2
  1

  9
$DIMSTYLE
  2
ISO-25
  9
$DIMCLRD
 70
     0
  9
$DIMCLRE
 70
     0
  9
$DIMCLRT
 70
     0
  9
$DIMTFAC
 40
1.0
  9
$DIMGAP
 40
3.048
  9
$DIMJUST
 70
     0
  9
$DIMSD1
 70
     0
  9
$DIMSD2
 70
     0
  9
$DIMTOLJ
 70
     0
  9
$DIMTZIN
 70
     0
  9
$DIMALTZ
 70
     0
  9
$DIMALTTZ
 70
     0
  9
$DIMUPT
 70
     0
  9
$DIMDEC
 70
     1
  9
$DIMTDEC
 70
     1
  9
$DIMALTU
 70
     2
  9
$DIMALTTD
 70
     3
  9
$DIMTXSTY
  7
Standard
  9
$DIMAUNIT
 70
     0
  9
$DIMADEC
 70
     2
  9
$DIMALTRND
 40
0.0
  9
$DIMAZIN
 70
     0
  9
$DIMDSEP
 70
    44
  9
$DIMATFIT
 70
     3
  9
$DIMFRAC
 70
     0
  9
$DIMLDRBLK
  1

  9
$DIMLUNIT
 70
     2
  9
$DIMLWD
 70
    -2
  9
$DIMLWE
 70
    -2
  9
$DIMTMOVE
 70
     0
  9
$LUNITS
 70
     2
  9
$LUPREC
 70
     1
  9
$SKETCHINC
 40
1.0
  9
$FILLETRAD
 40
10.0
  9
$AUNITS
 70
     0
  9
$AUPREC
 70
     2
  9
$MENU
  1
.
  9
$ELEVATION
 40
0.0
  9
$PELEVATION
 40
0.0
  9
$THICKNESS
 40
0.0
  9
$LIMCHECK
 70
     0
  9
$CHAMFERA
 40
10.0
  9
$CHAMFERB
 40
10.0
  9
$CHAMFERC
 40
20.0
  9
$CHAMFERD
 40
0.0
  9
$SKPOLY
 70
     0
  9
$TDCREATE
 40
2460445.621364676
  9
$TDUCREATE
 40
2460445.246364676
  9
$TDUPDATE
 40
2460445.621364688
  9
$TDUUPDATE
 40
2460445.246364688
  9
$TDINDWG
 40
0.0000000116
  9
$TDUSRTIMER
 40
0.0000000116
  9
$USRTIMER
 70
     1
  9
$ANGBASE
 50
0.0
  9
$ANGDIR
 70
     0
  9
$PDMODE
 70
     0
  9
$PDSIZE
 40
-1.0
  9
$PLINEWID
 40
0.0
  9
$SPLFRAME
 70
     0
  9
$SPLINETYPE
 70
     6
  9
$SPLINESEGS
 70
     8
  9
$HANDSEED
  5
363
  9
$SURFTAB1
 70
     6
  9
$SURFTAB2
 70
     6
  9
$SURFTYPE
 70
     6
  9
$SURFU
 70
     6
  9
$SURFV
 70
     6
  9
$UCSBASE
  2

  9
$UCSNAME
  2

  9
$UCSORG
 10
0.0
 20
0.0
 30
0.0
  9
$UCSXDIR
 10
1.0
 20
0.0
 30
0.0
  9
$UCSYDIR
 10
0.0
 20
1.0
 30
0.0
  9
$UCSORTHOREF
  2

  9
$UCSORTHOVIEW
 70
     0
  9
$UCSORGTOP
 10
0.0
 20
0.0
 30
0.0
  9
$UCSORGBOTTOM
 10
0.0
 20
0.0
 30
0.0
  9
$UCSORGLEFT
 10
0.0
 20
0.0
 30
0.0
  9
$UCSORGRIGHT
 10
0.0
 20
0.0
 30
0.0
  9
$UCSORGFRONT
 10
0.0
 20
0.0
 30
0.0
  9
$UCSORGBACK
 10
0.0
 20
0.0
 30
0.0
  9
$PUCSBASE
  2

  9
$PUCSNAME
  2

  9
$PUCSORG
 10
0.0
 20
0.0
 30
0.0
  9
$PUCSXDIR
 10
1.0
 20
0.0
 30
0.0
  9
$PUCSYDIR
 10
0.0
 20
1.0
 30
0.0
  9
$PUCSORTHOREF
  2

  9
$PUCSORTHOVIEW
 70
     0
  9
$PUCSORGTOP
 10
0.0
 20
0.0
 30
0.0
  9
$PUCSORGBOTTOM
 10
0.0
 20
0.0
 30
0.0
  9
$PUCSORGLEFT
 10
0.0
 20
0.0
 30
0.0
  9
$PUCSORGRIGHT
 10
0.0
 20
0.0
 30
0.0
  9
$PUCSORGFRONT
 10
0.0
 20
0.0
 30
0.0
  9
$PUCSORGBACK
 10
0.0
 20
0.0
 30
0.0
  9
$USERI1
 70
     0
  9
$USERI2
 70
     0
  9
$USERI3
 70
     0
  9
$USERI4
 70
     0
  9
$USERI5
 70
     0
  9
$USERR1
 40
0.0
  9
$USERR2
 40
0.0
  9
$USERR3
 40
0.0
  9
$USERR4
 40
0.0
  9
$USERR5
 40
0.0
  9
$WORLDVIEW
 70
     1
  9
$SHADEDGE
 70
     3
  9
$SHADEDIF
 70
    70
  9
$TILEMODE
 70
     1
  9
$MAXACTVP
 70
    64
  9
$PINSBASE
 10
0.0
 20
0.0
 30
0.0
  9
$PLIMCHECK
 70
     0
  9
$PEXTMIN
 10
1.0000000000E+20
 20
1.0000000000E+20
 30
1.0000000000E+20
  9
$PEXTMAX
 10
-1.0000000000E+20
 20
-1.0000000000E+20
 30
-1.0000000000E+20
  9
$PLIMMIN
 10
0.0
 20
0.0
  9
$PLIMMAX
 10
420.0
 20
297.0
  9
$UNITMODE
 70
     0
  9
$VISRETAIN
 70
     1
  9
$PLINEGEN
 70
     0
  9
$PSLTSCALE
 70
     1
  9
$TREEDEPTH
 70
  3020
  9
$CMLSTYLE
  2
Standard
  9
$CMLJUST
 70
     0
  9
$CMLSCALE
 40
20.0
  9
$PROXYGRAPHICS
 70
     1
  9
$MEASUREMENT
 70
     1
  9
$CELWEIGHT
370
    -1
  9
$ENDCAPS
280
     0
  9
$JOINSTYLE
280
     0
  9
$LWDISPLAY
290
     1
  9
$INSUNITS
 70
     4
  9
$HYPERLINKBASE
  1

  9
$STYLESHEET
  1

  9
$XEDIT
290
     1
  9
$CEPSNTYPE
380
     0
  9
$PSTYLEMODE
290
     1
  9
$FINGERPRINTGUID
  2
{422D1C94-2391-49B8-97F3-CCFBBB85D6B0}
  9
$VERSIONGUID
  2
{FAEB1C32-E019-11D5-929B-00C0DF256EC4}
  9
$EXTNAMES
290
     1
  9
$PSVPSCALE
 40
0.0
  9
$OLESTARTUP
290
     0
  0
ENDSEC
  0
SECTION
  2
CLASSES
  0
CLASS
  1
ACDBDICTIONARYWDFLT
  2
AcDbDictionaryWithDefault
  3
ObjectDBX Classes
 90
        0
280
     0
281
     0
  0
CLASS
  1
VISUALSTYLE
  2
AcDbVisualStyle
  3
ObjectDBX Classes
 90
     4095
280
     0
281
     0
  0
CLASS
  1
MATERIAL
  2
AcDbMaterial
  3
ObjectDBX Classes
 90
     1153
280
     0
281
     0
  0
CLASS
  1
ACDBPLACEHOLDER
  2
AcDbPlaceHolder
  3
ObjectDBX Classes
 90
        0
280
     0
281
     0
  0
CLASS
  1
LAYOUT
  2
AcDbLayout
  3
ObjectDBX Classes
 90
        0
280
     0
281
     0
  0
ENDSEC
  0
SECTION
  2
TABLES
  0
TABLE
  2
VPORT
  5
8
330
0
100
AcDbSymbolTable
 70
     1
  0
VPORT
  5
29
330
8
100
AcDbSymbolTableRecord
100
AcDbViewportTableRecord
  2
*Active
 70
     0
 10
0.0
 20
0.0
 11
1.0
 21
1.0
 12
420.0
 22
297.0
 13
0.0
 23
0.0
 14
10.0
 24
10.0
 15
10.0
 25
10.0
 16
0.0
 26
0.0
 36
1.0
 17
0.0
 27
0.0
 37
0.0
 40
594.0
 41
1.4141414141
 42
50.0
 43
0.0
 44
0.0
 50
0.0
 51
0.0
 71
     0
 72
  2000
 73
     1
 74
     3
 75
     0
 76
     0
 77
     0
 78
     0
281
     0
 65
     1
110
0.0
120
0.0
130
0.0
111
1.0
121
0.0
131
0.0
112
0.0
122
1.0
132
0.0
 79
     0
146
0.0
  0
ENDTAB
  0
TABLE
  2
LTYPE
  5
5
330
0
100
AcDbSymbolTable
 70
     6
  0
LTYPE
  5
14
330
5
100
AcDbSymbolTableRecord
100
AcDbLinetypeTableRecord
  2
ByBlock
 70
     0
  3

 72
    65
 73
     0
 40
0.0
  0
LTYPE
  5
15
330
5
100
AcDbSymbolTableRecord
100
AcDbLinetypeTableRecord
  2
ByLayer
 70
     0
  3

 72
    65
 73
     0
 40
0.0
  0
LTYPE
  5
16
330
5
100
AcDbSymbolTableRecord
100
AcDbLinetypeTableRecord
  2
Continuous
 70
     0
  3
Solid line
 72
    65
 73
     0
 40
0.0
  0
LTYPE
  5
3F
330
5
100
AcDbSymbolTableRecord
100
AcDbLinetypeTableRecord
  2
HIDDEN
 70
     0
  3
Hidden __ __ __ __ __ __ __ __ __ __ __ __ __ __
 72
    65
 73
     2
 40
1.905
 49
1.27
 74
     0
 49
-0.635
 74
     0
  0
LTYPE
  5
40
330
5
100
AcDbSymbolTableRecord
100
AcDbLinetypeTableRecord
  2
PHANTOM
 70
     0
  3
Phantom ______  __  __  ______  __  __  ______
 72
    65
 73
     6
 40
12.7
 49
6.35
 74
     0
 49
-1.27
 74
     0
 49
1.27
 74
     0
 49
-1.27
 74
     0
 49
1.27
 74
     0
 49
-1.27
 74
     0
  0
LTYPE
  5
41
330
5
100
AcDbSymbolTableRecord
100
AcDbLinetypeTableRecord
  2
CENTER
 70
     0
  3
Center ____ _ ____ _ ____ _ ____ _ ____ _ ____
 72
    65
 73
     4
 40
10.16
 49
6.35
 74
     0
 49
-1.27
 74
     0
 49
1.27
 74
     0
 49
-1.27
 74
     0
  0
LTYPE
  5
42
330
5
100
AcDbSymbolTableRecord
100
AcDbLinetypeTableRecord
  2
CENTERX2
 70
     0
  3
Center (2x) ________  __  ________  __  _____
 72
    65
 73
     4
 40
20.32
 49
12.7
 74
     0
 49
-2.54
 74
     0
 49
2.54
 74
     0
 49
-2.54
 74
     0
  0
LTYPE
  5
43
330
5
100
AcDbSymbolTableRecord
100
AcDbLinetypeTableRecord
  2
DOT2
 70
     0
  3
Dot (.5x) ........................................
 72
    65
 73
     2
 40
0.635
 49
0.0
 74
     0
 49
-0.635
 74
     0
  0
ENDTAB
  0
TABLE
  2
LAYER
  5
2
330
0
100
AcDbSymbolTable
 70
     1
  0
LAYER
  5
10
330
2
100
AcDbSymbolTableRecord
100
AcDbLayerTableRecord
  2
0
 70
     0
 62
     7
  6
Continuous
370
    -3
390
F
  0
ENDTAB
  0
TABLE
  2
STYLE
  5
3
330
0
100
AcDbSymbolTable
 70
     2
  0
STYLE
  5
11
330
3
100
AcDbSymbolTableRecord
100
AcDbTextStyleTableRecord
  2
Standard
 70
     0
 40
0.0
 41
1.0
 50
0.0
 71
     0
 42
2.5
  3
txt
  4
bigfont
  0
STYLE
  5
44
330
3
100
AcDbSymbolTableRecord
100
AcDbTextStyleTableRecord
  2
SLDTEXTSTYLE0
 70
     0
 40
0.0
 41
0.7
 50
0.0
 71
     0
 42
0.2
  3
TXT
  4
bigfont
  0
ENDTAB
  0
TABLE
  2
VIEW
  5
6
330
0
100
AcDbSymbolTable
 70
     0
  0
ENDTAB
  0
TABLE
  2
UCS
  5
7
330
0
100
AcDbSymbolTable
 70
     0
  0
ENDTAB
  0
TABLE
  2
APPID
  5
9
330
0
100
AcDbSymbolTable
 70
     1
  0
APPID
  5
12
330
9
100
AcDbSymbolTableRecord
100
AcDbRegAppTableRecord
  2
ACAD
 70
     0
  0
ENDTAB
  0
TABLE
  2
DIMSTYLE
  5
A
330
0
100
AcDbSymbolTable
 70
     1
100
AcDbDimStyleTable
  0
DIMSTYLE
105
27
330
A
100
AcDbSymbolTableRecord
100
AcDbDimStyleTableRecord
  2
ISO-25
 70
     0
 41
2.5
 42
0.625
 43
3.75
 44
1.25
 73
     0
 74
     0
 77
     1
 78
     8
140
2.5
141
2.5
143
0.0393700787
147
0.625
171
     3
172
     1
178
     0
271
     2
272
     2
274
     3
278
    44
283
     0
284
     8
340
11
  0
ENDTAB
  0
TABLE
  2
BLOCK_RECORD
  5
1
330
0
100
AcDbSymbolTable
 70
     1
  0
BLOCK_RECORD
  5
1F
330
1
100
AcDbSymbolTableRecord
100
AcDbBlockTableRecord
  2
*Model_Space
340
22
  0
BLOCK_RECORD
  5
1B
330
1
100
AcDbSymbolTableRecord
100
AcDbBlockTableRecord
  2
*Paper_Space
340
1E
  0
BLOCK_RECORD
  5
23
330
1
100
AcDbSymbolTableRecord
100
AcDbBlockTableRecord
  2
*Paper_Space0
340
26
  0
ENDTAB
  0
ENDSEC
  0
SECTION
  2
BLOCKS
  0
BLOCK
  5
20
330
1F
100
AcDbEntity
  8
0
100
AcDbBlockBegin
  2
*Model_Space
 70
     0
 10
0.0
 20
0.0
 30
0.0
  3
*Model_Space
  1

  0
ENDBLK
  5
21
330
1F
100
AcDbEntity
  8
0
100
AcDbBlockEnd
  0
BLOCK
  5
1C
330
1B
100
AcDbEntity
 67
     1
  8
0
100
AcDbBlockBegin
  2
*Paper_Space
 70
     0
 10
0.0
 20
0.0
 30
0.0
  3
*Paper_Space
  1

  0
ENDBLK
  5
1D
330
1B
100
AcDbEntity
 67
     1
  8
0
100
AcDbBlockEnd
  0
BLOCK
  5
24
330
23
100
AcDbEntity
  8
0
100
AcDbBlockBegin
  2
*Paper_Space0
 70
     0
 10
0.0
 20
0.0
 30
0.0
  3
*Paper_Space0
  1

  0
ENDBLK
  5
25
330
23
100
AcDbEntity
  8
0
100
AcDbBlockEnd
  0
ENDSEC
  0
SECTION
  2
ENTITIES
  0
MTEXT
  5
45
330
1F
100
AcDbEntity
  8
0
  6
Continuous
 62
     7
370
     0
100
AcDbMText
 10
190.8814731776
 20
557.1979046734
 30
0.0
 40
7.0
 41
0.0
 71
     1
 72
     1
  1
CHB-507P
  7
SLDTEXTSTYLE0
 73
     1
 44
1.0
  0
LINE
  5
46
330
1F
100
AcDbEntity
  8
0
  6
Continuous
 62
     7
370
    15
100
AcDbLine
 10
384.2989609554
 20
77.391925802
 30
0.0
 11
384.3989626481
 21
77.391925802
 31
0.0
  0
LINE
  5
47
330
1F
100
AcDbEntity
  8
0
  6
Continuous
 62
     7
370
    15
100
AcDbLine
 10
384.3989626481
 20
83.3919230602
 30
0.0
 11
384.2989609554
 21
83.3919230602
 31
0.0
  0
LINE
  5
48
330
1F
100
AcDbEntity
  8
0
  6
Continuous
 62
     7
370
    15
100
AcDbLine
 10
384.2989609554
 20
67.3919204376
 30
0.0
 11
384.3989626481
 21
67.3919204376
 31
0.0
  0
LINE
  5
49
330
1F
100
AcDbEntity
  8
0
  6
Continuous
 62
     7
370
    15
100
AcDbLine
 10
384.3989626481
 20
73.3919176957
 30
0.0
 11
384.2989609554
 21
73.3919176957
 31
0.0
  0
LINE
  5
4A
330
1F
100
AcDbEntity
  8
0
  6
Continuous
 62
     7
370
    15
100
AcDbLine
 10
384.2989609554
 20
437.3919252059
 30
0.0
 11
384.3989626481
 21
437.3919252059
 31
0.0
  0
LINE
  5
4B
330
1F
100
AcDbEntity
  8
0
  6
Continuous
 62
     7
370
    15
100
AcDbLine
 10
384.3989626481
 20
443.3919224641
 30
0.0
 11
384.2989609554
 21
443.3919224641
 31
0.0
  0
LINE
  5
4C
330
1F
100
AcDbEntity
  8
0
  6
Continuous
 62
     7
370
    15
100
AcDbLine
 10
384.2989609554
 20
447.3919305704
 30
0.0
 11
384.3989626481
 21
447.3919305704
 31
0.0
  0
LINE
  5
4D
330
1F
100
AcDbEntity
  8
0
  6
Continuous
 62
     7
370
    15
100
AcDbLine
 10
384.3989626481
 20
453.3919278285
 30
0.0
 11
384.2989609554
 21
453.3919278285
 31
0.0
  0
LINE
  5
4E
330
1F
100
AcDbEntity
  8
0
  6
Continuous
 62
     7
370
    15
100
AcDbLine
 10
385.5989531591
 20
86.8919227025
 30
0.0
 11
384.3989626481
 21
86.8919227025
 31
0.0
  0
LINE
  5
4F
330
1F
100
AcDbEntity
  8
0
  6
Continuous
 62
     7
370
    15
100
AcDbLine
 10
385.5989531591
 20
456.8919274709
 30
0.0
 11
384.3989626481
 21
456.8919274709
 31
0.0
  0
LINE
  5
50
330
1F
100
AcDbEntity
  8
0
  6
Continuous
 62
     7
370
    15
100
AcDbLine
 10
384.3989626481
 20
63.8919207952
 30
0.0
 11
385.5989531591
 21
63.8919207952
 31
0.0
  0
LINE
  5
51
330
1F
100
AcDbEntity
  8
0
  6
Continuous
 62
     7
370
    15
100
AcDbLine
 10
384.3989626481
 20
433.8919255636
 30
0.0
 11
385.5989531591
 21
433.8919255636
 31
0.0
  0
LINE
  5
52
330
1F
100
AcDbEntity
  8
0
  6
Continuous
 62
     7
370
    15
100
AcDbLine
 10
797.0989600732
 20
66.391918411
 30
0.0
 11
797.0989600732
 21
101.3919297359
 31
0.0
  0
LINE
  5
53
330
1F
100
AcDbEntity
  8
0
  6
Continuous
 62
     7
370
    15
100
AcDbLine
 10
797.0989600732
 20
419.3919185302
 30
0.0
 11
797.0989600732
 21
454.3919298551
 31
0.0
  0
SPLINE
  5
54
330
1F
100
AcDbEntity
  8
0
  6
Continuous
 62
     7
370
    15
100
AcDbSpline
210
0.0
220
0.0
230
1.0
 70
     8
 71
     3
 72
    11
 73
     7
 74
     0
 42
0.00000001
 43
0.00000001
 40
0.0
 40
0.0
 40
0.0
 40
0.0
 40
0.2262211504017919
 40
0.4679429769805621
 40
0.7254872984947677
 40
1.0
 40
1.0
 40
1.0
 40
1.0
 10
381.9194690301162
 20
453.62235938524
 30
0.0
 10
381.9222883548314
 20
453.5994596554251
 30
0.0
 10
381.9281201844282
 20
453.5520911060095
 30
0.0
 10
381.9449110478765
 20
453.2273087346673
 30
0.0
 10
381.9585033276376
 20
452.7268221125047
 30
0.0
 10
381.9590385759262
 20
452.302993708252
 30
0.0
 10
381.9593147351486
 20
452.0843211314559
 30
0.0
  0
SPLINE
  5
55
330
1F
100
AcDbEntity
  8
0
  6
Continuous
 62
     7
370
    15
100
AcDbSpline
210
0.0
220
0.0
230
1.0
 70
     8
 71
     3
 72
    12
 73
     8
 74
     0
 42
0.00000001
 43
0.00000001
 40
0.0
 40
0.0
 40
0.0
 40
0.0
 40
0.2489457273592936
 40
0.482287834435525
 40
0.6998120397765791
 40
0.9035374370595866
 40
1.0
 40
1.0
 40
1.0
 40
1.0
 10
381.9593147351486
 20
438.5256949565291
 30
0.0
 10
381.9578888924291
 20
438.3883603346313
 30
0.0
 10
381.9551265771058
 20
438.1222990605911
 30
0.0
 10
381.9442253521416
 20
437.7864793563218
 30
0.0
 10
381.9417152205435
 20
437.553316786368
 30
0.0
 10
381.9465042246875
 20
437.4331976349299
 30
0.0
 10
381.9729348324421
 20
437.4318585019737
 30
0.0
 10
381.9814280583602
 20
437.4314281842589
 30
0.0
  0
LINE
  5
56
330
1F
100
AcDbEntity
  8
0
  6
Continuous
 62
     7
370
    15
100
AcDbLine
 10
381.958465369
 20
452.1343145273
 30
0.0
 11
381.958465369
 21
438.4756866596
 31
0.0
  0
LINE
  5
57
330
1F
100
AcDbEntity
  8
0
  6
Continuous
 62
     7
370
    15
100
AcDbLine
 10
380.4348514392
 20
456.0722145936
 30
0.0
 11
381.9222108438
 21
453.5920653245
 31
0.0
  0
LINE
  5
58
330
1F
100
AcDbEntity
  8
0
  6
Continuous
 62
     7
370
    15
100
AcDbLine
 10
384.3989626481
 20
455.2951637409
 30
0.0
 11
383.0076710298
 21
457.6151404283
 31
0.0
  0
LINE
  5
59
330
1F
100
AcDbEntity
  8
0
  6
Continuous
 62
     7
370
    15
100
AcDbLine
 10
381.9867030694
 20
437.2993442914
 30
0.0
 11
380.4176256969
 21
434.6829239032
 31
0.0
  0
LINE
  5
5A
330
1F
100
AcDbEntity
  8
0
  6
Continuous
 62
     7
370
    15
100
AcDbLine
 10
382.9904452874
 20
433.1399980686
 30
0.0
 11
384.3989626481
 21
435.4886743924
 31
0.0
  0
LINE
  5
5B
330
1F
100
AcDbEntity
  8
0
  6
Continuous
 62
     7
370
    15
100
AcDbLine
 10
383.02756408
 20
457.5796309612
 30
0.0
 11
382.9376057698
 21
457.693416228
 31
0.0
  0
SPLINE
  5
5C
330
1F
100
AcDbEntity
  8
0
  6
Continuous
 62
     7
370
    15
100
AcDbSpline
210
0.0
220
0.0
230
1.0
 70
     8
 71
     3
 72
    20
 73
    16
 74
     0
 42
0.00000001
 43
0.00000001
 40
0.0
 40
0.0
 40
0.0
 40
0.0
 40
0.033780068479791
 40
0.110105986013786
 40
0.1739281404893355
 40
0.2252737905477479
 40
0.2665364857156544
 40
0.3037740476462926
 40
0.3388581556633125
 40
0.3726394867339178
 40
0.4139169595853429
 40
0.6259822912302183
 40
0.8390274019070427
 40
0.9659457709793139
 40
1.0
 40
1.0
 40
1.0
 40
1.0
 10
382.825295717929
 20
457.8354838988661
 30
0.0
 10
382.7846349357982
 20
457.8916672647831
 30
0.0
 10
382.6521012936214
 20
458.074796701171
 30
0.0
 10
382.3422372815473
 20
458.2519883358814
 30
0.0
 10
381.9549786629967
 20
458.374927948735
 30
0.0
 10
381.5851276003682
 20
458.3897429328502
 30
0.0
 10
381.2508154692701
 20
458.3391188440851
 30
0.0
 10
380.9763245985584
 20
458.2380984223016
 30
0.0
 10
380.7488238981527
 20
458.1033689283715
 30
0.0
 10
380.542790690563
 20
457.927198218471
 30
0.0
 10
380.1982649189322
 20
457.4847025970742
 30
0.0
 10
380.0171793294454
 20
456.7980334574392
 30
0.0
 10
379.8673785165931
 20
455.6171927514401
 30
0.0
 10
379.812258221134
 20
454.7125500410341
 30
0.0
 10
379.8056968753852
 20
454.2979621845369
 30
0.0
 10
379.8043088032943
 20
454.2102548978209
 30
0.0
  0
SPLINE
  5
5D
330
1F
100
AcDbEntity
  8
0
  6
Continuous
 62
     7
370
    15
100
AcDbSpline
210
0.0
220
0.0
230
1.0
 70
     8
 71
     3
 72
    19
 73
    15
 74
     0
 42
0.00000001
 43
0.00000001
 40
0.0
 40
0.0
 40
0.0
 40
0.0
 40
0.0102731297860708
 40
0.1295972284339339
 40
0.3268127850416322
 40
0.5525098613894223
 40
0.5858536681612825
 40
0.6186024253114806
 40
0.6529064828717096
 40
0.6960070751547265
 40
0.7523132251411347
 40
0.8223155209209223
 40
0.905460875958155
 40
1.0
 40
1.0
 40
1.0
 40
1.0
 10
379.8014626815063
 20
436.5919265649199
 30
0.0
 10
379.8017858908432
 20
436.5647291549268
 30
0.0
 10
379.8058632299941
 20
436.2216293373361
 30
0.0
 10
379.8456234492831
 20
435.4016355932534
 30
0.0
 10
379.9806362207349
 20
434.1792091151718
 30
0.0
 10
380.0710116584629
 20
433.5358260294313
 30
0.0
 10
380.421932165501
 20
432.9957511512457
 30
0.0
 10
380.5911399106196
 20
432.8078952518184
 30
0.0
 10
380.8278538983956
 20
432.631414867954
 30
0.0
 10
381.1414856677153
 20
432.4779587855433
 30
0.0
 10
381.5449666895802
 20
432.376150439415
 30
0.0
 10
382.0308309394675
 20
432.3993147925735
 30
0.0
 10
382.5605840688164
 20
432.6096441071566
 30
0.0
 10
382.8258033208691
 20
432.9314597501564
 30
0.0
 10
382.9669163539153
 20
433.1026855609297
 30
0.0
  0
LINE
  5
5E
330
1F
100
AcDbEntity
  8
0
  6
Continuous
 62
     7
370
    15
100
AcDbLine
 10
376.4941499545
 20
79.2919281623
 30
0.0
 11
376.4941499545
 21
70.6919166944
 31
0.0
  0
LINE
  5
5F
330
1F
100
AcDbEntity
  8
0
  6
Continuous
 62
     7
370
    15
100
AcDbLine
 10
377.0989582851
 20
83.3916697404
 30
0.0
 11
377.0989582851
 21
82.5919244192
 31
0.0
  0
LINE
  5
60
330
1F
100
AcDbEntity
  8
0
  6
Continuous
 62
     7
370
    15
100
AcDbLine
 10
377.0989582851
 20
68.1919190786
 30
0.0
 11
377.0989582851
 21
67.3921737573
 31
0.0
  0
LINE
  5
61
330
1F
100
AcDbEntity
  8
0
  6
Continuous
 62
     7
370
    15
100
AcDbLine
 10
378.4989521816
 20
83.6919281385
 30
0.0
 11
378.4989521816
 21
83.3919230602
 31
0.0
  0
ARC
  5
62
330
1F
100
AcDbEntity
  8
0
  6
Continuous
 62
     7
370
    15
100
AcDbCircle
 10
380.6989561393
 20
80.5847812759
 30
0.0
 40
3.807142857143177
100
AcDbArc
 50
77.9663271603
 51
90.0
  0
ARC
  5
63
330
1F
100
AcDbEntity
  8
0
  6
Continuous
 62
     7
370
    15
100
AcDbCircle
 10
380.6989561393
 20
80.5847812759
 30
0.0
 40
3.807142857143277
100
AcDbArc
 50
90.0
 51
125.3002484399
  0
LINE
  5
64
330
1F
100
AcDbEntity
  8
0
  6
Continuous
 62
     7
370
    15
100
AcDbLine
 10
378.5989538743
 20
66.9919285676
 30
0.0
 11
378.5989538743
 21
66.5919217965
 31
0.0
  0
ARC
  5
65
330
1F
100
AcDbEntity
  8
0
  6
Continuous
 62
     7
370
    15
100
AcDbCircle
 10
378.7989561393
 20
67.3919241331
 30
0.0
 40
0.4000000000008299
100
AcDbArc
 50
270.0
 51
0.0
  0
LINE
  5
66
330
1F
100
AcDbEntity
  8
0
  6
Continuous
 62
     7
370
    15
100
AcDbLine
 10
379.1989491298
 20
82.5919244192
 30
0.0
 11
379.1989491298
 21
82.1419242523
 31
0.0
  0
LINE
  5
67
330
1F
100
AcDbEntity
  8
0
  6
Continuous
 62
     7
370
    15
100
AcDbLine
 10
379.1989491298
 20
68.6419192455
 30
0.0
 11
379.1989491298
 21
68.1919190786
 31
0.0
  0
SPLINE
  5
68
330
1F
100
AcDbEntity
  8
0
  6
Continuous
 62
     7
370
    15
100
AcDbSpline
210
0.0
220
0.0
230
1.0
 70
     8
 71
     3
 72
    11
 73
     7
 74
     0
 42
0.00000001
 43
0.00000001
 40
0.0
 40
0.0
 40
0.0
 40
0.0
 40
0.2262211504017919
 40
0.4679429769805621
 40
0.7254872984947677
 40
1.0
 40
1.0
 40
1.0
 40
1.0
 10
381.9194690301162
 20
83.62235461686845
 30
0.0
 10
381.9222883548314
 20
83.59945488705353
 30
0.0
 10
381.9281201844282
 20
83.55208633763803
 30
0.0
 10
381.9449110478765
 20
83.22730396629565
 30
0.0
 10
381.9585033276376
 20
82.72681734413315
 30
0.0
 10
381.9590385759262
 20
82.30298893988028
 30
0.0
 10
381.9593147351486
 20
82.08431636308427
 30
0.0
  0
SPLINE
  5
69
330
1F
100
AcDbEntity
  8
0
  6
Continuous
 62
     7
370
    15
100
AcDbSpline
210
0.0
220
0.0
230
1.0
 70
     8
 71
     3
 72
    12
 73
     8
 74
     0
 42
0.00000001
 43
0.00000001
 40
0.0
 40
0.0
 40
0.0
 40
0.0
 40
0.2489464093299705
 40
0.4822891556317727
 40
0.6998139568662817
 40
0.9035367122982499
 40
1.0
 40
1.0
 40
1.0
 40
1.0
 10
381.9593147351485
 20
68.52569018815748
 30
0.0
 10
381.9578888879842
 20
68.38835531498846
 30
0.0
 10
381.9551265640495
 20
68.122293554155
 30
0.0
 10
381.9442253992121
 20
67.78647724881348
 30
0.0
 10
381.9417150736191
 20
67.55330415861874
 30
0.0
 10
381.9465045916054
 20
67.43321854298054
 30
0.0
 10
381.9729348323311
 20
67.4318599825163
 30
0.0
 10
381.9814280583602
 20
67.43142341588731
 30
0.0
  0
LINE
  5
6A
330
1F
100
AcDbEntity
  8
0
  6
Continuous
 62
     7
370
    15
100
AcDbLine
 10
381.958465369
 20
82.1343246601
 30
0.0
 11
381.958465369
 21
68.4756818912
 31
0.0
  0
LINE
  5
6B
330
1F
100
AcDbEntity
  8
0
  6
Continuous
 62
     7
370
    15
100
AcDbLine
 10
380.4348514392
 20
86.0722098253
 30
0.0
 11
381.9222108438
 21
83.5920605562
 31
0.0
  0
LINE
  5
6C
330
1F
100
AcDbEntity
  8
0
  6
Continuous
 62
     7
370
    15
100
AcDbLine
 10
384.3989626481
 20
85.2951738737
 30
0.0
 11
383.0076710298
 21
87.6151356599
 31
0.0
  0
LINE
  5
6D
330
1F
100
AcDbEntity
  8
0
  6
Continuous
 62
     7
370
    15
100
AcDbLine
 10
381.9867030694
 20
67.2993395231
 30
0.0
 11
380.4176256969
 21
64.6829191348
 31
0.0
  0
LINE
  5
6E
330
1F
100
AcDbEntity
  8
0
  6
Continuous
 62
     7
370
    15
100
AcDbLine
 10
382.9904452874
 20
63.1399933002
 30
0.0
 11
384.3989626481
 21
65.4886845252
 31
0.0
  0
LINE
  5
6F
330
1F
100
AcDbEntity
  8
0
  6
Continuous
 62
     7
370
    15
100
AcDbLine
 10
383.02756408
 20
87.5796261928
 30
0.0
 11
382.9376057698
 21
87.6934114597
 31
0.0
  0
SPLINE
  5
70
330
1F
100
AcDbEntity
  8
0
  6
Continuous
 62
     7
370
    15
100
AcDbSpline
210
0.0
220
0.0
230
1.0
 70
     8
 71
     3
 72
    20
 73
    16
 74
     0
 42
0.00000001
 43
0.00000001
 40
0.0
 40
0.0
 40
0.0
 40
0.0
 40
0.0337801128724901
 40
0.1101061307115954
 40
0.1739283690602047
 40
0.2252740865954488
 40
0.2665365324536546
 40
0.3037747990749472
 40
0.3388589531983939
 40
0.3726403286633576
 40
0.4139178557603339
 40
0.6259834660947706
 40
0.8390272946900029
 40
0.9659476464661463
 40
1.0
 40
1.0
 40
1.0
 40
1.0
 10
382.825295717929
 20
87.83547913049455
 30
0.0
 10
382.7846349300635
 20
87.89166252457977
 30
0.0
 10
382.6521012691946
 20
88.07479205278213
 30
0.0
 10
382.3422375163212
 20
88.25198241431329
 30
0.0
 10
381.9549780157539
 20
88.37492635958522
 30
0.0
 10
381.5851300671347
 20
88.38972954418173
 30
0.0
 10
381.2508104253964
 20
88.33913840156326
 30
0.0
 10
380.9763278233987
 20
88.23808883185824
 30
0.0
 10
380.7488234468134
 20
88.10336556334936
 30
0.0
 10
380.5427908356697
 20
87.92719299846772
 30
0.0
 10
380.1982646451327
 20
87.48469868634942
 30
0.0
 10
380.017180689359
 20
86.7980285046449
 30
0.0
 10
379.8673768660982
 20
85.61719757940226
 30
0.0
 10
379.8122588793813
 20
84.71255438878458
 30
0.0
 10
379.8056969264572
 20
84.29796727206725
 30
0.0
 10
379.8043088032943
 20
84.21026503061051
 30
0.0
  0
SPLINE
  5
71
330
1F
100
AcDbEntity
  8
0
  6
Continuous
 62
     7
370
    15
100
AcDbSpline
210
0.0
220
0.0
230
1.0
 70
     8
 71
     3
 72
    19
 73
    15
 74
     0
 42
0.00000001
 43
0.00000001
 40
0.0
 40
0.0
 40
0.0
 40
0.0
 40
0.0102731348290125
 40
0.1295972920514754
 40
0.3268129454696458
 40
0.5525089390040305
 40
0.585854059748205
 40
0.6186015434807276
 40
0.652906735548141
 40
0.6960073489886607
 40
0.7523131035550185
 40
0.8223154336979943
 40
0.9054608295501668
 40
1.0
 40
1.0
 40
1.0
 40
1.0
 10
379.8014626815063
 20
66.59192179654832
 30
0.0
 10
379.801785889706
 20
66.56472438463263
 30
0.0
 10
379.8058632145106
 20
66.22162454278794
 30
0.0
 10
379.845624766807
 20
65.40163305224061
 30
0.0
 10
379.980627400119
 20
64.17919262829946
 30
0.0
 10
380.0710343645318
 20
63.53586146092474
 30
0.0
 10
380.4219241435918
 20
62.99574533972022
 30
0.0
 10
380.5911496009612
 20
62.80790787864041
 30
0.0
 10
380.8278473524015
 20
62.63140656497035
 30
0.0
 10
381.1414854613615
 20
62.47795280639487
 30
0.0
 10
381.5449685094791
 20
62.37616644634733
 30
0.0
 10
382.0308306457055
 20
62.39932288388769
 30
0.0
 10
382.5605841600367
 20
62.6096548738744
 30
0.0
 10
382.8258033525485
 20
62.9314701030996
 30
0.0
 10
382.9669163539153
 20
63.10269569371932
 30
0.0
  0
LINE
  5
72
330
1F
100
AcDbEntity
  8
0
  6
Continuous
 62
     7
370
    15
100
AcDbLine
 10
376.4941499545
 20
449.2919180295
 30
0.0
 11
376.4941499545
 21
440.6919214628
 31
0.0
  0
LINE
  5
73
330
1F
100
AcDbEntity
  8
0
  6
Continuous
 62
     7
370
    15
100
AcDbLine
 10
377.0989582851
 20
438.1919238469
 30
0.0
 11
377.0989582851
 21
437.3921785257
 31
0.0
  0
LINE
  5
74
330
1F
100
AcDbEntity
  8
0
  6
Continuous
 62
     7
370
    15
100
AcDbLine
 10
377.0989582851
 20
453.3916745088
 30
0.0
 11
377.0989582851
 21
452.5919291875
 31
0.0
  0
LINE
  5
75
330
1F
100
AcDbEntity
  8
0
  6
Continuous
 62
     7
370
    15
100
AcDbLine
 10
378.4989521816
 20
453.6919180057
 30
0.0
 11
378.4989521816
 21
453.3919278285
 31
0.0
  0
ARC
  5
76
330
1F
100
AcDbEntity
  8
0
  6
Continuous
 62
     7
370
    15
100
AcDbCircle
 10
380.6989561393
 20
450.5847812759
 30
0.0
 40
3.807142857143235
100
AcDbArc
 50
77.9663271603
 51
90.0
  0
ARC
  5
77
330
1F
100
AcDbEntity
  8
0
  6
Continuous
 62
     7
370
    15
100
AcDbCircle
 10
380.6989561393
 20
450.5847812759
 30
0.0
 40
3.807142857143289
100
AcDbArc
 50
90.0
 51
125.3002484399
  0
LINE
  5
78
330
1F
100
AcDbEntity
  8
0
  6
Continuous
 62
     7
370
    15
100
AcDbLine
 10
378.5989538743
 20
436.9919184348
 30
0.0
 11
378.5989538743
 21
436.5919265649
 31
0.0
  0
ARC
  5
79
330
1F
100
AcDbEntity
  8
0
  6
Continuous
 62
     7
370
    15
100
AcDbCircle
 10
378.7989561393
 20
437.3919241331
 30
0.0
 40
0.4000000000008299
100
AcDbArc
 50
270.0
 51
0.0
  0
LINE
  5
7A
330
1F
100
AcDbEntity
  8
0
  6
Continuous
 62
     7
370
    15
100
AcDbLine
 10
379.1989491298
 20
452.5919291875
 30
0.0
 11
379.1989491298
 21
452.1419290206
 31
0.0
  0
LINE
  5
7B
330
1F
100
AcDbEntity
  8
0
  6
Continuous
 62
     7
370
    15
100
AcDbLine
 10
379.1989491298
 20
438.6419240138
 30
0.0
 11
379.1989491298
 21
438.1919238469
 31
0.0
  0
LINE
  5
7C
330
1F
100
AcDbEntity
  8
0
  6
Continuous
 62
     7
370
    15
100
AcDbLine
 10
797.0989600732
 20
30.3919199607
 30
0.0
 11
797.0989600732
 21
65.3919312856
 31
0.0
  0
LINE
  5
7D
330
1F
100
AcDbEntity
  8
0
  6
Continuous
 62
     7
370
    15
100
AcDbLine
 10
797.0989600732
 20
455.3919169805
 30
0.0
 11
797.0989600732
 21
490.3919283054
 31
0.0
  0
LINE
  5
7E
330
1F
100
AcDbEntity
  8
0
  6
Continuous
 62
     7
370
    15
100
AcDbLine
 10
794.0989539935
 20
65.3919312856
 30
0.0
 11
794.0989539935
 21
66.391918411
 31
0.0
  0
LINE
  5
7F
330
1F
100
AcDbEntity
  8
0
  6
Continuous
 62
     7
370
    15
100
AcDbLine
 10
794.0989539935
 20
101.3919297359
 30
0.0
 11
794.0989539935
 21
102.3919168613
 31
0.0
  0
LINE
  5
80
330
1F
100
AcDbEntity
  8
0
  6
Continuous
 62
     7
370
    15
100
AcDbLine
 10
789.0989587619
 20
102.3919168613
 30
0.0
 11
789.0989587619
 21
101.3919297359
 31
0.0
  0
LINE
  5
81
330
1F
100
AcDbEntity
  8
0
  6
Continuous
 62
     7
370
    15
100
AcDbLine
 10
789.0989587619
 20
66.391918411
 30
0.0
 11
789.0989587619
 21
65.3919312856
 31
0.0
  0
LINE
  5
82
330
1F
100
AcDbEntity
  8
0
  6
Continuous
 62
     7
370
    15
100
AcDbLine
 10
789.0989587619
 20
455.3919169805
 30
0.0
 11
789.0989587619
 21
454.3919298551
 31
0.0
  0
LINE
  5
83
330
1F
100
AcDbEntity
  8
0
  6
Continuous
 62
     7
370
    15
100
AcDbLine
 10
789.0989587619
 20
419.3919185302
 30
0.0
 11
789.0989587619
 21
418.3919314048
 31
0.0
  0
LINE
  5
84
330
1F
100
AcDbEntity
  8
0
  6
Continuous
 62
     7
370
    15
100
AcDbLine
 10
794.0989539935
 20
418.3919314048
 30
0.0
 11
794.0989539935
 21
419.3919185302
 31
0.0
  0
LINE
  5
85
330
1F
100
AcDbEntity
  8
0
  6
Continuous
 62
     7
370
    15
100
AcDbLine
 10
794.0989539935
 20
454.3919298551
 30
0.0
 11
794.0989539935
 21
455.3919169805
 31
0.0
  0
LINE
  5
86
330
1F
100
AcDbEntity
  8
0
  6
Continuous
 62
     7
370
    15
100
AcDbLine
 10
377.2989616706
 20
68.9347419641
 30
0.0
 11
377.2989616706
 21
68.6419192455
 31
0.0
  0
LINE
  5
87
330
1F
100
AcDbEntity
  8
0
  6
Continuous
 62
     7
370
    15
100
AcDbLine
 10
377.2989616706
 20
82.1419242523
 30
0.0
 11
377.2989616706
 21
81.8491164348
 31
0.0
  0
LINE
  5
88
330
1F
100
AcDbEntity
  8
0
  6
Continuous
 62
     7
370
    15
100
AcDbLine
 10
377.2989616706
 20
438.9347318313
 30
0.0
 11
377.2989616706
 21
438.6419240138
 31
0.0
  0
LINE
  5
89
330
1F
100
AcDbEntity
  8
0
  6
Continuous
 62
     7
370
    15
100
AcDbLine
 10
377.2989616706
 20
452.1419290206
 30
0.0
 11
377.2989616706
 21
451.849106302
 31
0.0
  0
LINE
  5
8A
330
1F
100
AcDbEntity
  8
0
  6
Continuous
 62
     7
370
    15
100
AcDbLine
 10
770.5989585235
 20
25.3919247291
 30
0.0
 11
770.5989585235
 21
10.3919241331
 31
0.0
  0
LINE
  5
8B
330
1F
100
AcDbEntity
  8
0
  6
Continuous
 62
     7
370
    15
100
AcDbLine
 10
770.5989585235
 20
10.3919241331
 30
0.0
 11
400.5989537551
 21
10.3919241331
 31
0.0
  0
LINE
  5
8C
330
1F
100
AcDbEntity
  8
0
  6
Continuous
 62
     7
370
    15
100
AcDbLine
 10
400.5989537551
 20
10.3919241331
 30
0.0
 11
400.5989537551
 21
25.3919247291
 31
0.0
  0
LINE
  5
8D
330
1F
100
AcDbEntity
  8
0
  6
Continuous
 62
     7
370
    15
100
AcDbLine
 10
770.5989585235
 20
25.3919247291
 30
0.0
 11
400.5989537551
 21
25.3919247291
 31
0.0
  0
ARC
  5
8E
330
1F
100
AcDbEntity
  8
0
  6
Continuous
 62
     7
370
    15
100
AcDbCircle
 10
400.5989561393
 20
25.3919241331
 30
0.0
 40
15.00000000000001
100
AcDbArc
 50
180.0
 51
270.0
  0
LINE
  5
8F
330
1F
100
AcDbEntity
  8
0
  6
Continuous
 62
     7
370
    15
100
AcDbLine
 10
385.5989531591
 20
25.3919247291
 30
0.0
 11
400.5989537551
 21
25.3919247291
 31
0.0
  0
LINE
  5
90
330
1F
100
AcDbEntity
  8
0
  6
Continuous
 62
     7
370
    15
100
AcDbLine
 10
385.5989531591
 20
25.3919247291
 30
0.0
 11
385.5989531591
 21
65.4044333598
 31
0.0
  0
LINE
  5
91
330
1F
100
AcDbEntity
  8
0
  6
Continuous
 62
     7
370
    15
100
AcDbLine
 10
385.5989531591
 20
85.3794101379
 30
0.0
 11
385.5989531591
 21
435.4044381282
 31
0.0
  0
LINE
  5
92
330
1F
100
AcDbEntity
  8
0
  6
Continuous
 62
     7
370
    15
100
AcDbLine
 10
385.5989531591
 20
455.3794149063
 30
0.0
 11
385.5989531591
 21
495.391923537
 31
0.0
  0
LINE
  5
93
330
1F
100
AcDbEntity
  8
0
  6
Continuous
 62
     7
370
    15
100
AcDbLine
 10
385.5989531591
 20
495.391923537
 30
0.0
 11
400.5989537551
 21
495.391923537
 31
0.0
  0
LINE
  5
94
330
1F
100
AcDbEntity
  8
0
  6
Continuous
 62
     7
370
    15
100
AcDbLine
 10
400.5989537551
 20
25.3919247291
 30
0.0
 11
400.5989537551
 21
495.391923537
 31
0.0
  0
LINE
  5
95
330
1F
100
AcDbEntity
  8
0
  6
Continuous
 62
     7
370
    15
100
AcDbLine
 10
405.5989489867
 20
30.3919199607
 30
0.0
 11
405.5989489867
 21
490.3919283054
 31
0.0
  0
LINE
  5
96
330
1F
100
AcDbEntity
  8
0
  6
Continuous
 62
     7
370
    15
100
AcDbLine
 10
765.5989632919
 20
30.3919199607
 30
0.0
 11
405.5989489867
 21
30.3919199607
 31
0.0
  0
LINE
  5
97
330
1F
100
AcDbEntity
  8
0
  6
Continuous
 62
     7
370
    15
100
AcDbLine
 10
765.5989632919
 20
30.3919199607
 30
0.0
 11
765.5989632919
 21
490.3919283054
 31
0.0
  0
LINE
  5
98
330
1F
100
AcDbEntity
  8
0
  6
Continuous
 62
     7
370
    15
100
AcDbLine
 10
405.5989489867
 20
490.3919283054
 30
0.0
 11
765.5989632919
 21
490.3919283054
 31
0.0
  0
LINE
  5
99
330
1F
100
AcDbEntity
  8
0
  6
Continuous
 62
     7
370
    15
100
AcDbLine
 10
770.5989585235
 20
25.3919247291
 30
0.0
 11
770.5989585235
 21
495.391923537
 31
0.0
  0
LINE
  5
9A
330
1F
100
AcDbEntity
  8
0
  6
Continuous
 62
     7
370
    15
100
AcDbLine
 10
400.5989537551
 20
495.391923537
 30
0.0
 11
770.5989585235
 21
495.391923537
 31
0.0
  0
LINE
  5
9B
330
1F
100
AcDbEntity
  8
0
  6
Continuous
 62
     7
370
    15
100
AcDbLine
 10
770.5989585235
 20
25.3919247291
 30
0.0
 11
785.5989591195
 21
25.3919247291
 31
0.0
  0
ARC
  5
9C
330
1F
100
AcDbEntity
  8
0
  6
Continuous
 62
     7
370
    15
100
AcDbCircle
 10
770.5989561393
 20
25.3919241331
 30
0.0
 40
15.00000000000004
100
AcDbArc
 50
270.0
 51
0.0
  0
LINE
  5
9D
330
1F
100
AcDbEntity
  8
0
  6
Continuous
 62
     7
370
    15
100
AcDbLine
 10
785.5989591195
 20
495.391923537
 30
0.0
 11
770.5989585235
 21
495.391923537
 31
0.0
  0
LINE
  5
9E
330
1F
100
AcDbEntity
  8
0
  6
Continuous
 62
     7
370
    15
100
AcDbLine
 10
785.5989591195
 20
25.3919247291
 30
0.0
 11
785.5989591195
 21
495.391923537
 31
0.0
  0
ARC
  5
9F
330
1F
100
AcDbEntity
  8
0
  6
Continuous
 62
     7
370
    15
100
AcDbCircle
 10
400.5989561393
 20
495.3919241331
 30
0.0
 40
15.0
100
AcDbArc
 50
90.0
 51
180.0
  0
LINE
  5
A0
330
1F
100
AcDbEntity
  8
0
  6
Continuous
 62
     7
370
    15
100
AcDbLine
 10
400.5989537551
 20
495.391923537
 30
0.0
 11
400.5989537551
 21
510.3919241331
 31
0.0
  0
LINE
  5
A1
330
1F
100
AcDbEntity
  8
0
  6
Continuous
 62
     7
370
    15
100
AcDbLine
 10
400.5989537551
 20
510.3919241331
 30
0.0
 11
770.5989585235
 21
510.3919241331
 31
0.0
  0
LINE
  5
A2
330
1F
100
AcDbEntity
  8
0
  6
Continuous
 62
     7
370
    15
100
AcDbLine
 10
770.5989585235
 20
510.3919241331
 30
0.0
 11
770.5989585235
 21
495.391923537
 31
0.0
  0
ARC
  5
A3
330
1F
100
AcDbEntity
  8
0
  6
Continuous
 62
     7
370
    15
100
AcDbCircle
 10
770.5989561393
 20
495.3919241331
 30
0.0
 40
15.0
100
AcDbArc
 50
0.0
 51
90.0
  0
LINE
  5
A4
330
1F
100
AcDbEntity
  8
0
  6
Continuous
 62
     7
370
    15
100
AcDbLine
 10
384.3989626481
 20
86.4264104268
 30
0.0
 11
385.5989531591
 21
86.4264104268
 31
0.0
  0
LINE
  5
A5
330
1F
100
AcDbEntity
  8
0
  6
Continuous
 62
     7
370
    15
100
AcDbLine
 10
385.5989531591
 20
85.3794101379
 30
0.0
 11
385.5989531591
 21
65.4044333598
 31
0.0
  0
LINE
  5
A6
330
1F
100
AcDbEntity
  8
0
  6
Continuous
 62
     7
370
    15
100
AcDbLine
 10
384.3989626481
 20
64.357447972
 30
0.0
 11
385.5989531591
 21
64.357447972
 31
0.0
  0
LINE
  5
A7
330
1F
100
AcDbEntity
  8
0
  6
Continuous
 62
     7
370
    15
100
AcDbLine
 10
384.3989626481
 20
64.357447972
 30
0.0
 11
384.3989626481
 21
86.4264104268
 31
0.0
  0
LINE
  5
A8
330
1F
100
AcDbEntity
  8
0
  6
Continuous
 62
     7
370
    15
100
AcDbLine
 10
384.3989626481
 20
456.4264002941
 30
0.0
 11
385.5989531591
 21
456.4264002941
 31
0.0
  0
LINE
  5
A9
330
1F
100
AcDbEntity
  8
0
  6
Continuous
 62
     7
370
    15
100
AcDbLine
 10
385.5989531591
 20
455.3794149063
 30
0.0
 11
385.5989531591
 21
435.4044381282
 31
0.0
  0
LINE
  5
AA
330
1F
100
AcDbEntity
  8
0
  6
Continuous
 62
     7
370
    15
100
AcDbLine
 10
384.3989626481
 20
434.3574378393
 30
0.0
 11
385.5989531591
 21
434.3574378393
 31
0.0
  0
LINE
  5
AB
330
1F
100
AcDbEntity
  8
0
  6
Continuous
 62
     7
370
    15
100
AcDbLine
 10
384.3989626481
 20
434.3574378393
 30
0.0
 11
384.3989626481
 21
456.4264002941
 31
0.0
  0
LINE
  5
AC
330
1F
100
AcDbEntity
  8
0
  6
Continuous
 62
     7
370
    15
100
AcDbLine
 10
384.2989609554
 20
80.3919169805
 30
0.0
 11
384.2989609554
 21
83.3919230602
 31
0.0
  0
LINE
  5
AD
330
1F
100
AcDbEntity
  8
0
  6
Continuous
 62
     7
370
    15
100
AcDbLine
 10
384.2989609554
 20
77.391925802
 30
0.0
 11
384.2989609554
 21
80.3919169805
 31
0.0
  0
LINE
  5
AE
330
1F
100
AcDbEntity
  8
0
  6
Continuous
 62
     7
370
    15
100
AcDbLine
 10
384.2989609554
 20
67.3919204376
 30
0.0
 11
384.2989609554
 21
73.3919176957
 31
0.0
  0
LINE
  5
AF
330
1F
100
AcDbEntity
  8
0
  6
Continuous
 62
     7
370
    15
100
AcDbLine
 10
384.2989609554
 20
437.3919252059
 30
0.0
 11
384.2989609554
 21
443.3919224641
 31
0.0
  0
LINE
  5
B0
330
1F
100
AcDbEntity
  8
0
  6
Continuous
 62
     7
370
    15
100
AcDbLine
 10
384.2989609554
 20
450.3919217489
 30
0.0
 11
384.2989609554
 21
453.3919278285
 31
0.0
  0
LINE
  5
B1
330
1F
100
AcDbEntity
  8
0
  6
Continuous
 62
     7
370
    15
100
AcDbLine
 10
384.2989609554
 20
447.3919305704
 30
0.0
 11
384.2989609554
 21
450.3919217489
 31
0.0
  0
LINE
  5
B2
330
1F
100
AcDbEntity
  8
0
  6
Continuous
 62
     7
370
    15
100
AcDbLine
 10
384.3989626481
 20
86.4264104268
 30
0.0
 11
384.3989626481
 21
86.8919227025
 31
0.0
  0
LINE
  5
B3
330
1F
100
AcDbEntity
  8
0
  6
Continuous
 62
     7
370
    15
100
AcDbLine
 10
384.3989626481
 20
456.4264002941
 30
0.0
 11
384.3989626481
 21
456.8919274709
 31
0.0
  0
LINE
  5
B4
330
1F
100
AcDbEntity
  8
0
  6
Continuous
 62
     7
370
    15
100
AcDbLine
 10
384.3989626481
 20
63.8919207952
 30
0.0
 11
384.3989626481
 21
64.357447972
 31
0.0
  0
LINE
  5
B5
330
1F
100
AcDbEntity
  8
0
  6
Continuous
 62
     7
370
    15
100
AcDbLine
 10
384.3989626481
 20
433.8919255636
 30
0.0
 11
384.3989626481
 21
434.3574378393
 31
0.0
  0
LINE
  5
B6
330
1F
100
AcDbEntity
  8
0
  6
Continuous
 62
     7
370
    15
100
AcDbLine
 10
786.500315459
 20
101.3919297359
 30
0.0
 11
786.500315459
 21
66.391918411
 31
0.0
  0
LINE
  5
B7
330
1F
100
AcDbEntity
  8
0
  6
Continuous
 62
     7
370
    15
100
AcDbLine
 10
786.500315459
 20
101.3919297359
 30
0.0
 11
797.0989600732
 21
101.3919297359
 31
0.0
  0
LINE
  5
B8
330
1F
100
AcDbEntity
  8
0
  6
Continuous
 62
     7
370
    15
100
AcDbLine
 10
786.500315459
 20
66.391918411
 30
0.0
 11
797.0989600732
 21
66.391918411
 31
0.0
  0
LINE
  5
B9
330
1F
100
AcDbEntity
  8
0
  6
Continuous
 62
     7
370
    15
100
AcDbLine
 10
786.500315459
 20
454.3919298551
 30
0.0
 11
786.500315459
 21
419.3919185302
 31
0.0
  0
LINE
  5
BA
330
1F
100
AcDbEntity
  8
0
  6
Continuous
 62
     7
370
    15
100
AcDbLine
 10
786.500315459
 20
454.3919298551
 30
0.0
 11
797.0989600732
 21
454.3919298551
 31
0.0
  0
LINE
  5
BB
330
1F
100
AcDbEntity
  8
0
  6
Continuous
 62
     7
370
    15
100
AcDbLine
 10
786.500315459
 20
419.3919185302
 30
0.0
 11
797.0989600732
 21
419.3919185302
 31
0.0
  0
LINE
  5
BC
330
1F
100
AcDbEntity
  8
0
  6
Continuous
 62
     7
370
    15
100
AcDbLine
 10
786.0367999389
 20
101.3919297359
 30
0.0
 11
786.0367999389
 21
66.391918411
 31
0.0
  0
LINE
  5
BD
330
1F
100
AcDbEntity
  8
0
  6
Continuous
 62
     7
370
    15
100
AcDbLine
 10
786.0367999389
 20
101.3919297359
 30
0.0
 11
786.500315459
 21
101.3919297359
 31
0.0
  0
LINE
  5
BE
330
1F
100
AcDbEntity
  8
0
  6
Continuous
 62
     7
370
    15
100
AcDbLine
 10
786.0367999389
 20
66.391918411
 30
0.0
 11
786.500315459
 21
66.391918411
 31
0.0
  0
LINE
  5
BF
330
1F
100
AcDbEntity
  8
0
  6
Continuous
 62
     7
370
    15
100
AcDbLine
 10
786.0367999389
 20
454.3919298551
 30
0.0
 11
786.0367999389
 21
419.3919185302
 31
0.0
  0
LINE
  5
C0
330
1F
100
AcDbEntity
  8
0
  6
Continuous
 62
     7
370
    15
100
AcDbLine
 10
786.0367999389
 20
454.3919298551
 30
0.0
 11
786.500315459
 21
454.3919298551
 31
0.0
  0
LINE
  5
C1
330
1F
100
AcDbEntity
  8
0
  6
Continuous
 62
     7
370
    15
100
AcDbLine
 10
786.0367999389
 20
419.3919185302
 30
0.0
 11
786.500315459
 21
419.3919185302
 31
0.0
  0
LINE
  5
C2
330
1F
100
AcDbEntity
  8
0
  6
Continuous
 62
     7
370
    15
100
AcDbLine
 10
785.5989591195
 20
101.3919297359
 30
0.0
 11
786.0367999389
 21
101.3919297359
 31
0.0
  0
LINE
  5
C3
330
1F
100
AcDbEntity
  8
0
  6
Continuous
 62
     7
370
    15
100
AcDbLine
 10
785.5989591195
 20
66.391918411
 30
0.0
 11
786.0367999389
 21
66.391918411
 31
0.0
  0
LINE
  5
C4
330
1F
100
AcDbEntity
  8
0
  6
Continuous
 62
     7
370
    15
100
AcDbLine
 10
785.5989591195
 20
454.3919298551
 30
0.0
 11
786.0367999389
 21
454.3919298551
 31
0.0
  0
LINE
  5
C5
330
1F
100
AcDbEntity
  8
0
  6
Continuous
 62
     7
370
    15
100
AcDbLine
 10
785.5989591195
 20
419.3919185302
 30
0.0
 11
786.0367999389
 21
419.3919185302
 31
0.0
  0
ARC
  5
C6
330
1F
100
AcDbEntity
  8
0
  6
Continuous
 62
     7
370
    15
100
AcDbCircle
 10
378.4216401414
 20
80.8030900631
 30
0.0
 40
1.097818878412346
100
AcDbArc
 50
97.334027639
 51
185.8118817724
  0
LINE
  5
C7
330
1F
100
AcDbEntity
  8
0
  6
Continuous
 62
     7
370
    15
100
AcDbLine
 10
378.2814995363
 20
81.8919274709
 30
0.0
 11
381.8249360635
 21
81.8919274709
 31
0.0
  0
LINE
  5
C8
330
1F
100
AcDbEntity
  8
0
  6
Continuous
 62
     7
370
    15
100
AcDbLine
 10
381.8249360635
 20
81.8919274709
 30
0.0
 11
381.8249360635
 21
68.891930928
 31
0.0
  0
LINE
  5
C9
330
1F
100
AcDbEntity
  8
0
  6
Continuous
 62
     7
370
    15
100
AcDbLine
 10
381.8249360635
 20
68.891930928
 30
0.0
 11
378.2814995363
 21
68.891930928
 31
0.0
  0
ARC
  5
CA
330
1F
100
AcDbEntity
  8
0
  6
Continuous
 62
     7
370
    15
100
AcDbCircle
 10
378.4216227384
 20
69.9807531484
 30
0.0
 40
1.097801593831417
100
AcDbArc
 50
174.1880113907
 51
262.6667720331
  0
LINE
  5
CB
330
1F
100
AcDbEntity
  8
0
  6
Continuous
 62
     7
370
    15
100
AcDbLine
 10
377.3294643476
 20
80.6919220588
 30
0.0
 11
377.3294643476
 21
70.0919214389
 31
0.0
  0
LINE
  5
CC
330
1F
100
AcDbEntity
  8
0
  6
Continuous
 62
     7
370
    15
100
AcDbLine
 10
377.5509850099
 20
81.8919274709
 30
0.0
 11
378.2814995363
 21
81.8919274709
 31
0.0
  0
LINE
  5
CD
330
1F
100
AcDbEntity
  8
0
  6
Continuous
 62
     7
370
    15
100
AcDbLine
 10
377.3294643476
 20
80.6919220588
 30
0.0
 11
376.5989498212
 21
80.6919220588
 31
0.0
  0
ARC
  5
CE
330
1F
100
AcDbEntity
  8
0
  6
Continuous
 62
     7
370
    15
100
AcDbCircle
 10
377.691125615
 20
80.8030900631
 30
0.0
 40
1.097818878412346
100
AcDbArc
 50
97.334027639
 51
185.8118817724
  0
LINE
  5
CF
330
1F
100
AcDbEntity
  8
0
  6
Continuous
 62
     7
370
    15
100
AcDbLine
 10
376.5989498212
 20
70.0919214389
 30
0.0
 11
377.3294643476
 21
70.0919214389
 31
0.0
  0
LINE
  5
D0
330
1F
100
AcDbEntity
  8
0
  6
Continuous
 62
     7
370
    15
100
AcDbLine
 10
376.5989498212
 20
80.6919220588
 30
0.0
 11
376.5989498212
 21
70.0919214389
 31
0.0
  0
LINE
  5
D1
330
1F
100
AcDbEntity
  8
0
  6
Continuous
 62
     7
370
    15
100
AcDbLine
 10
378.2814995363
 20
68.891930928
 30
0.0
 11
377.5509850099
 21
68.891930928
 31
0.0
  0
ARC
  5
D2
330
1F
100
AcDbEntity
  8
0
  6
Continuous
 62
     7
370
    15
100
AcDbCircle
 10
377.691108212
 20
69.9807531484
 30
0.0
 40
1.097801593831411
100
AcDbArc
 50
174.1880113907
 51
262.6667720331
  0
ARC
  5
D3
330
1F
100
AcDbEntity
  8
0
  6
Continuous
 62
     7
370
    15
100
AcDbCircle
 10
378.4216227384
 20
450.8030951177
 30
0.0
 40
1.097801593831411
100
AcDbArc
 50
97.3332279669
 51
185.8119886093
  0
LINE
  5
D4
330
1F
100
AcDbEntity
  8
0
  6
Continuous
 62
     7
370
    15
100
AcDbLine
 10
378.2814995363
 20
451.8919173381
 30
0.0
 11
381.8249360635
 21
451.8919173381
 31
0.0
  0
LINE
  5
D5
330
1F
100
AcDbEntity
  8
0
  6
Continuous
 62
     7
370
    15
100
AcDbLine
 10
381.8249360635
 20
451.8919173381
 30
0.0
 11
381.8249360635
 21
438.8919207952
 31
0.0
  0
LINE
  5
D6
330
1F
100
AcDbEntity
  8
0
  6
Continuous
 62
     7
370
    15
100
AcDbLine
 10
381.8249360635
 20
438.8919207952
 30
0.0
 11
378.2814995363
 21
438.8919207952
 31
0.0
  0
ARC
  5
D7
330
1F
100
AcDbEntity
  8
0
  6
Continuous
 62
     7
370
    15
100
AcDbCircle
 10
378.4216401414
 20
439.980758203
 30
0.0
 40
1.09781887841235
100
AcDbArc
 50
174.1881182276
 51
262.665972361
  0
LINE
  5
D8
330
1F
100
AcDbEntity
  8
0
  6
Continuous
 62
     7
370
    15
100
AcDbLine
 10
377.3294643476
 20
450.6919268272
 30
0.0
 11
377.3294643476
 21
440.0919262073
 31
0.0
  0
LINE
  5
D9
330
1F
100
AcDbEntity
  8
0
  6
Continuous
 62
     7
370
    15
100
AcDbLine
 10
377.3294643476
 20
450.6919268272
 30
0.0
 11
376.5989498212
 21
450.6919268272
 31
0.0
  0
LINE
  5
DA
330
1F
100
AcDbEntity
  8
0
  6
Continuous
 62
     7
370
    15
100
AcDbLine
 10
376.5989498212
 20
440.0919262073
 30
0.0
 11
377.3294643476
 21
440.0919262073
 31
0.0
  0
LINE
  5
DB
330
1F
100
AcDbEntity
  8
0
  6
Continuous
 62
     7
370
    15
100
AcDbLine
 10
376.5989498212
 20
450.6919268272
 30
0.0
 11
376.5989498212
 21
440.0919262073
 31
0.0
  0
LINE
  5
DC
330
1F
100
AcDbEntity
  8
0
  6
Continuous
 62
     7
370
    15
100
AcDbLine
 10
377.5509850099
 20
451.8919173381
 30
0.0
 11
378.2814995363
 21
451.8919173381
 31
0.0
  0
ARC
  5
DD
330
1F
100
AcDbEntity
  8
0
  6
Continuous
 62
     7
370
    15
100
AcDbCircle
 10
377.691108212
 20
450.8030951177
 30
0.0
 40
1.097801593831411
100
AcDbArc
 50
97.3332279669
 51
185.8119886093
  0
LINE
  5
DE
330
1F
100
AcDbEntity
  8
0
  6
Continuous
 62
     7
370
    15
100
AcDbLine
 10
378.2814995363
 20
438.8919207952
 30
0.0
 11
377.5509850099
 21
438.8919207952
 31
0.0
  0
ARC
  5
DF
330
1F
100
AcDbEntity
  8
0
  6
Continuous
 62
     7
370
    15
100
AcDbCircle
 10
377.691125615
 20
439.980758203
 30
0.0
 40
1.09781887841235
100
AcDbArc
 50
174.1881182276
 51
262.665972361
  0
LINE
  5
E0
330
1F
100
AcDbEntity
  8
0
  6
Continuous
 62
     7
370
    15
100
AcDbLine
 10
381.9064752176
 20
81.8919274709
 30
0.0
 11
381.8249360635
 21
81.8919274709
 31
0.0
  0
LINE
  5
E1
330
1F
100
AcDbEntity
  8
0
  6
Continuous
 62
     7
370
    15
100
AcDbLine
 10
381.8249360635
 20
68.891930928
 30
0.0
 11
381.958465369
 21
68.891930928
 31
0.0
  0
LINE
  5
E2
330
1F
100
AcDbEntity
  8
0
  6
Continuous
 62
     7
370
    15
100
AcDbLine
 10
381.9248930528
 20
451.8919173381
 30
0.0
 11
381.8249360635
 21
451.8919173381
 31
0.0
  0
LINE
  5
E3
330
1F
100
AcDbEntity
  8
0
  6
Continuous
 62
     7
370
    15
100
AcDbLine
 10
381.8249360635
 20
438.8919207952
 30
0.0
 11
381.958465369
 21
438.8919207952
 31
0.0
  0
SPLINE
  5
E4
330
1F
100
AcDbEntity
  8
0
  6
Continuous
 62
     7
370
    15
100
AcDbSpline
210
0.0
220
0.0
230
1.0
 70
    24
 71
     3
 72
    12
 73
     8
 74
     0
 42
0.00000001
 43
0.00000001
 40
0.0
 40
0.0
 40
0.0
 40
0.0
 40
0.2185042665755995
 40
0.4370130079610726
 40
0.6555186338092558
 40
0.8740245712698237
 40
1.0
 40
1.0
 40
1.0
 40
1.0
 10
383.7583021237594
 20
452.0843211314559
 30
0.0
 10
383.5615832354408
 20
452.0843211314559
 30
0.0
 10
383.1681414301427
 20
452.0843211314559
 30
0.0
 10
382.607372022767
 20
452.0843211314558
 30
0.0
 10
382.1897206952241
 20
452.0843211314559
 30
0.0
 10
381.9631523329436
 20
452.0843211314558
 30
0.0
 10
381.9806805150162
 20
452.0843211314559
 30
0.0
 10
381.9870904996139
 20
452.0843211314559
 30
0.0
  0
SPLINE
  5
E5
330
1F
100
AcDbEntity
  8
0
  6
Continuous
 62
     7
370
    15
100
AcDbSpline
210
0.0
220
0.0
230
1.0
 70
    24
 71
     3
 72
     9
 73
     5
 74
     0
 42
0.00000001
 43
0.00000001
 40
0.0
 40
0.0
 40
0.0
 40
0.0
 40
0.0025141086251864
 40
1.0
 40
1.0
 40
1.0
 40
1.0
 10
384.2989609553558
 20
452.0843211314559
 30
0.0
 10
384.2986133944194
 20
452.0843211314559
 30
0.0
 10
384.1603691941144
 20
452.0843211314606
 30
0.0
 10
383.9590826307943
 20
452.0843211314582
 30
0.0
 10
383.7583021237594
 20
452.0843211314559
 30
0.0
  0
SPLINE
  5
E6
330
1F
100
AcDbEntity
  8
0
  6
Continuous
 62
     7
370
    15
100
AcDbSpline
210
0.0
220
0.0
230
1.0
 70
     8
 71
     3
 72
    13
 73
     9
 74
     0
 42
0.00000001
 43
0.00000001
 40
0.0
 40
0.0
 40
0.0
 40
0.0
 40
0.1877392486070275
 40
0.3754735804977203
 40
0.5632118571868127
 40
0.7509474409195469
 40
0.9386853645699014
 40
1.0
 40
1.0
 40
1.0
 40
1.0
 10
383.4650174691421
 20
455.699164023149
 30
0.0
 10
383.2683204943272
 20
455.6964623118276
 30
0.0
 10
382.8749316960084
 20
455.6910589599403
 30
0.0
 10
382.3419168892112
 20
455.4005173665611
 30
0.0
 10
381.9514010330455
 20
454.9456177085382
 30
0.0
 10
381.7784254172227
 20
454.3839451826248
 30
0.0
 10
381.7817230541572
 20
453.9107472954458
 30
0.0
 10
381.9090566952001
 20
453.6893162957597
 30
0.0
 10
381.9404051615936
 20
453.6348018548369
 30
0.0
  0
SPLINE
  5
E7
330
1F
100
AcDbEntity
  8
0
  6
Continuous
 62
     7
370
    15
100
AcDbSpline
210
0.0
220
0.0
230
1.0
 70
     8
 71
     3
 72
    10
 73
     6
 74
     0
 42
0.00000001
 43
0.00000001
 40
0.0
 40
0.0
 40
0.0
 40
0.0
 40
0.2093378553024356
 40
0.6046672852002561
 40
1.0
 40
1.0
 40
1.0
 40
1.0
 10
384.6021846844894
 20
454.8930410048842
 30
0.0
 10
384.5604820498367
 20
454.9861040260551
 30
0.0
 10
384.4400250075846
 20
455.2549142910817
 30
0.0
 10
384.0333229539692
 20
455.5715722591369
 30
0.0
 10
383.6544531554379
 20
455.6566333173462
 30
0.0
 10
383.465017469142
 20
455.699164023149
 30
0.0
  0
SPLINE
  5
E8
330
1F
100
AcDbEntity
  8
0
  6
Continuous
 62
     7
370
    15
100
AcDbSpline
210
0.0
220
0.0
230
1.0
 70
     8
 71
     3
 72
    13
 73
     9
 74
     0
 42
0.00000001
 43
0.00000001
 40
0.0
 40
0.0
 40
0.0
 40
0.0
 40
0.1768609182002661
 40
0.353726087215156
 40
0.5305909811345675
 40
0.7074556269575023
 40
0.8843206144289144
 40
1.0
 40
1.0
 40
1.0
 40
1.0
 10
383.4477917268019
 20
435.0559744737029
 30
0.0
 10
383.2511244881411
 20
435.0586620261353
 30
0.0
 10
382.8577852839639
 20
435.0640371955947
 30
0.0
 10
382.3244014268907
 20
435.3547164045947
 30
0.0
 10
381.9352685426582
 20
435.8090798271391
 30
0.0
 10
381.7571114262998
 20
436.3727824316207
 30
0.0
 10
381.7780703705118
 20
436.9059315072319
 30
0.0
 10
381.9441661384639
 20
437.179201598699
 30
0.0
 10
382.0098445727569
 20
437.2872594497084
 30
0.0
  0
SPLINE
  5
E9
330
1F
100
AcDbEntity
  8
0
  6
Continuous
 62
     7
370
    15
100
AcDbSpline
210
0.0
220
0.0
230
1.0
 70
     8
 71
     3
 72
    10
 73
     6
 74
     0
 42
0.00000001
 43
0.00000001
 40
0.0
 40
0.0
 40
0.0
 40
0.0
 40
0.0588282059342046
 40
0.5294127859980802
 40
1.0
 40
1.0
 40
1.0
 40
1.0
 10
384.4779090001327
 20
435.655880322206
 30
0.0
 10
384.4672693385038
 20
435.6343994533452
 30
0.0
 10
384.3715198112901
 20
435.4410866291871
 30
0.0
 10
384.0106846112959
 20
435.1868853825584
 30
0.0
 10
383.6354230383655
 20
435.0996115247355
 30
0.0
 10
383.447791726802
 20
435.0559744737029
 30
0.0
  0
SPLINE
  5
EA
330
1F
100
AcDbEntity
  8
0
  6
Continuous
 62
     7
370
    15
100
AcDbSpline
210
0.0
220
0.0
230
1.0
 70
    24
 71
     3
 72
    12
 73
     8
 74
     0
 42
0.00000001
 43
0.00000001
 40
0.0
 40
0.0
 40
0.0
 40
0.0
 40
0.2193536141895231
 40
0.4387117205829468
 40
0.6580666993286801
 40
0.8774219908980663
 40
1.0
 40
1.0
 40
1.0
 40
1.0
 10
383.7583021237593
 20
438.5256949565292
 30
0.0
 10
383.5615878635761
 20
438.5256949565292
 30
0.0
 10
383.1681553146431
 20
438.5256949565292
 30
0.0
 10
382.6073164837684
 20
438.5256949565292
 30
0.0
 10
382.1899289631357
 20
438.525694956529
 30
0.0
 10
381.9640780392215
 20
438.5256949565292
 30
0.0
 10
381.9810507414622
 20
438.5256949565291
 30
0.0
 10
381.9871352030975
 20
438.5256949565291
 30
0.0
  0
SPLINE
  5
EB
330
1F
100
AcDbEntity
  8
0
  6
Continuous
 62
     7
370
    15
100
AcDbSpline
210
0.0
220
0.0
230
1.0
 70
    24
 71
     3
 72
     9
 73
     5
 74
     0
 42
0.00000001
 43
0.00000001
 40
0.0
 40
0.0
 40
0.0
 40
0.0
 40
0.0025141086251864
 40
1.0
 40
1.0
 40
1.0
 40
1.0
 10
384.2989609553558
 20
438.5256949565291
 30
0.0
 10
384.2986133944194
 20
438.5256949565291
 30
0.0
 10
384.1603691941144
 20
438.5256949565329
 30
0.0
 10
383.9590826307943
 20
438.525694956531
 30
0.0
 10
383.7583021237594
 20
438.5256949565291
 30
0.0
  0
SPLINE
  5
EC
330
1F
100
AcDbEntity
  8
0
  6
Continuous
 62
     7
370
    15
100
AcDbSpline
210
0.0
220
0.0
230
1.0
 70
     8
 71
     3
 72
    13
 73
     9
 74
     0
 42
0.00000001
 43
0.00000001
 40
0.0
 40
0.0
 40
0.0
 40
0.0
 40
0.17686105216455
 40
0.3537261393151788
 40
0.5305908358634142
 40
0.7074517545042305
 40
0.8843162961641043
 40
0.9999999999999999
 40
0.9999999999999999
 40
0.9999999999999999
 40
0.9999999999999999
 10
381.8959400965911
 20
458.3155695102095
 30
0.0
 10
381.6992729363003
 20
458.3128819576956
 30
0.0
 10
381.3059341288672
 20
458.3075067913529
 30
0.0
 10
380.7725496117081
 20
458.0168280557803
 30
0.0
 10
380.3834206857918
 20
457.5624659564975
 30
0.0
 10
380.2052570794568
 20
456.9987741942751
 30
0.0
 10
380.2262229819236
 20
456.4656228797164
 30
0.0
 10
380.3923145762971
 20
456.1923471988135
 30
0.0
 10
380.457992942546
 20
456.084284534204
 30
0.0
  0
SPLINE
  5
ED
330
1F
100
AcDbEntity
  8
0
  6
Continuous
 62
     7
370
    15
100
AcDbSpline
210
0.0
220
0.0
230
1.0
 70
     8
 71
     3
 72
    10
 73
     6
 74
     0
 42
0.00000001
 43
0.00000001
 40
0.0
 40
0.0
 40
0.0
 40
0.0
 40
0.1474593491810479
 40
0.5737289756543786
 40
1.0
 40
1.0
 40
1.0
 40
1.0
 10
382.9845295264465
 20
457.6030555865645
 30
0.0
 10
382.9564672292104
 20
457.6633472592769
 30
0.0
 10
382.8472835583401
 20
457.8979277034324
 30
0.0
 10
382.4622350529618
 20
458.1867554835544
 30
0.0
 10
382.0847052883875
 20
458.2726314543888
 30
0.0
 10
381.8959400965911
 20
458.3155695102095
 30
0.0
  0
SPLINE
  5
EE
330
1F
100
AcDbEntity
  8
0
  6
Continuous
 62
     7
370
    15
100
AcDbSpline
210
0.0
220
0.0
230
1.0
 70
     8
 71
     3
 72
    13
 73
     9
 74
     0
 42
0.00000001
 43
0.00000001
 40
0.0
 40
0.0
 40
0.0
 40
0.0
 40
0.1768607831717197
 40
0.3537258171548177
 40
0.5305905760426474
 40
0.7074553744980192
 40
0.8843198369227832
 40
1.0
 40
1.0
 40
1.0
 40
1.0
 10
381.878714354251
 20
432.4395540854811
 30
0.0
 10
381.6820471158624
 20
432.4422416503562
 30
0.0
 10
381.28870791223
 20
432.4476168447013
 30
0.0
 10
380.7553240510717
 20
432.7382958670551
 30
0.0
 10
380.3661909713924
 20
433.1926602451929
 30
0.0
 10
380.1880340029645
 20
433.7563601794707
 30
0.0
 10
380.2089939265791
 20
434.2895138063916
 30
0.0
 10
380.37508875333
 20
434.5627815183659
 30
0.0
 10
380.4407672002059
 20
434.6708390614867
 30
0.0
  0
SPLINE
  5
EF
330
1F
100
AcDbEntity
  8
0
  6
Continuous
 62
     7
370
    15
100
AcDbSpline
210
0.0
220
0.0
230
1.0
 70
     8
 71
     3
 72
    10
 73
     6
 74
     0
 42
0.00000001
 43
0.00000001
 40
0.0
 40
0.0
 40
0.0
 40
0.0
 40
0.1474620117724973
 40
0.5737344147275663
 40
1.0
 40
1.0
 40
1.0
 40
1.0
 10
382.9673037841064
 20
433.1520829102873
 30
0.0
 10
382.9392475149954
 20
433.0917856259279
 30
0.0
 10
382.8300882342809
 20
432.8571853601659
 30
0.0
 10
382.445005242812
 20
432.5683747328338
 30
0.0
 10
382.0674769774162
 20
432.4824940723383
 30
0.0
 10
381.878714354251
 20
432.4395540854811
 30
0.0
  0
LINE
  5
F0
330
1F
100
AcDbEntity
  8
0
  6
Continuous
 62
     7
370
    15
100
AcDbLine
 10
376.5989498212
 20
70.6919166944
 30
0.0
 11
376.4941499545
 21
70.6919166944
 31
0.0
  0
LINE
  5
F1
330
1F
100
AcDbEntity
  8
0
  6
Continuous
 62
     7
370
    15
100
AcDbLine
 10
376.5989498212
 20
79.2919281623
 30
0.0
 11
376.4941499545
 21
79.2919281623
 31
0.0
  0
LINE
  5
F2
330
1F
100
AcDbEntity
  8
0
  6
Continuous
 62
     7
370
    15
100
AcDbLine
 10
381.9274262502
 20
83.3919230602
 30
0.0
 11
377.0995543315
 21
83.3919230602
 31
0.0
  0
LINE
  5
F3
330
1F
100
AcDbEntity
  8
0
  6
Continuous
 62
     7
370
    15
100
AcDbLine
 10
381.9671080425
 20
82.5919244192
 30
0.0
 11
377.0989582851
 21
82.5919244192
 31
0.0
  0
LINE
  5
F4
330
1F
100
AcDbEntity
  8
0
  6
Continuous
 62
     7
370
    15
100
AcDbLine
 10
381.9731132104
 20
67.3919204376
 30
0.0
 11
377.0995543315
 21
67.3919204376
 31
0.0
  0
LINE
  5
F5
330
1F
100
AcDbEntity
  8
0
  6
Continuous
 62
     7
370
    15
100
AcDbLine
 10
381.964843066
 20
68.1919190786
 30
0.0
 11
377.0989582851
 21
68.1919190786
 31
0.0
  0
LINE
  5
F6
330
1F
100
AcDbEntity
  8
0
  6
Continuous
 62
     7
370
    15
100
AcDbLine
 10
380.6989596202
 20
83.6919281385
 30
0.0
 11
381.8623081758
 21
83.6919281385
 31
0.0
  0
LINE
  5
F7
330
1F
100
AcDbEntity
  8
0
  6
Continuous
 62
     7
370
    15
100
AcDbLine
 10
382.0254609897
 20
83.6919281385
 30
0.0
 11
382.0878074481
 21
83.6919281385
 31
0.0
  0
LINE
  5
F8
330
1F
100
AcDbEntity
  8
0
  6
Continuous
 62
     7
370
    15
100
AcDbLine
 10
378.4989521816
 20
83.6919281385
 30
0.0
 11
380.6989596202
 21
83.6919281385
 31
0.0
  0
LINE
  5
F9
330
1F
100
AcDbEntity
  8
0
  6
Continuous
 62
     7
370
    15
100
AcDbLine
 10
380.6989596202
 20
66.9919285676
 30
0.0
 11
381.8023459031
 21
66.9919285676
 31
0.0
  0
LINE
  5
FA
330
1F
100
AcDbEntity
  8
0
  6
Continuous
 62
     7
370
    15
100
AcDbLine
 10
378.5989538743
 20
66.9919285676
 30
0.0
 11
380.6989596202
 21
66.9919285676
 31
0.0
  0
LINE
  5
FB
330
1F
100
AcDbEntity
  8
0
  6
Continuous
 62
     7
370
    15
100
AcDbLine
 10
380.6989596202
 20
66.5919217965
 30
0.0
 11
381.5624670102
 21
66.5919217965
 31
0.0
  0
LINE
  5
FC
330
1F
100
AcDbEntity
  8
0
  6
Continuous
 62
     7
370
    15
100
AcDbLine
 10
378.5989538743
 20
66.5919217965
 30
0.0
 11
380.6989596202
 21
66.5919217965
 31
0.0
  0
ARC
  5
FD
330
1F
100
AcDbEntity
  8
0
  6
Continuous
 62
     7
370
    15
100
AcDbCircle
 10
377.564702901
 20
82.5941879733
 30
0.0
 40
0.8027077655065239
100
AcDbArc
 50
125.4658000801
 51
180.1615684768
  0
ARC
  5
FE
330
1F
100
AcDbEntity
  8
0
  6
Continuous
 62
     7
370
    15
100
AcDbCircle
 10
377.5646910555
 20
68.18966429
 30
0.0
 40
0.8026958953761579
100
AcDbArc
 50
179.8390548171
 51
234.5346344588
  0
LINE
  5
FF
330
1F
100
AcDbEntity
  8
0
  6
Continuous
 62
     7
370
    15
100
AcDbLine
 10
377.5498376205
 20
68.6419192455
 30
0.0
 11
377.5498376205
 21
68.1919190786
 31
0.0
  0
LINE
  5
100
330
1F
100
AcDbEntity
  8
0
  6
Continuous
 62
     7
370
    15
100
AcDbLine
 10
377.5498376205
 20
82.5919244192
 30
0.0
 11
377.5498376205
 21
82.1419242523
 31
0.0
  0
LINE
  5
101
330
1F
100
AcDbEntity
  8
0
  6
Continuous
 62
     7
370
    15
100
AcDbLine
 10
376.761998327
 20
68.1919190786
 30
0.0
 11
376.761998327
 21
69.4203708074
 31
0.0
  0
LINE
  5
102
330
1F
100
AcDbEntity
  8
0
  6
Continuous
 62
     7
370
    15
100
AcDbLine
 10
376.761998327
 20
81.3634875915
 30
0.0
 11
376.761998327
 21
82.5919244192
 31
0.0
  0
SPLINE
  5
103
330
1F
100
AcDbEntity
  8
0
  6
Continuous
 62
     7
370
    15
100
AcDbSpline
210
0.0
220
0.0
230
1.0
 70
    24
 71
     3
 72
    12
 73
     8
 74
     0
 42
0.00000001
 43
0.00000001
 40
0.0
 40
0.0
 40
0.0
 40
0.0
 40
0.2185042665755995
 40
0.4370130079610726
 40
0.6555186338092558
 40
0.8740245712698237
 40
1.0
 40
1.0
 40
1.0
 40
1.0
 10
383.7583021237594
 20
82.08431636308427
 30
0.0
 10
383.5615832354408
 20
82.0843163630843
 30
0.0
 10
383.1681414301427
 20
82.08431636308424
 30
0.0
 10
382.607372022767
 20
82.0843163630843
 30
0.0
 10
382.1897206952241
 20
82.08431636308427
 30
0.0
 10
381.9631523329436
 20
82.0843163630843
 30
0.0
 10
381.9806805150162
 20
82.08431636308427
 30
0.0
 10
381.9870904996139
 20
82.08431636308427
 30
0.0
  0
SPLINE
  5
104
330
1F
100
AcDbEntity
  8
0
  6
Continuous
 62
     7
370
    15
100
AcDbSpline
210
0.0
220
0.0
230
1.0
 70
    24
 71
     3
 72
     9
 73
     5
 74
     0
 42
0.00000001
 43
0.00000001
 40
0.0
 40
0.0
 40
0.0
 40
0.0
 40
0.1970130322720919
 40
1.0
 40
1.0
 40
1.0
 40
1.0
 10
384.3989626481277
 20
82.08431636308427
 30
0.0
 10
384.3663104522031
 20
82.08431636308427
 30
0.0
 10
384.2005742288275
 20
82.0843163630843
 30
0.0
 10
383.9552745605634
 20
82.08431636308421
 30
0.0
 10
383.7583021237594
 20
82.08431636308427
 30
0.0
  0
SPLINE
  5
105
330
1F
100
AcDbEntity
  8
0
  6
Continuous
 62
     7
370
    15
100
AcDbSpline
210
0.0
220
0.0
230
1.0
 70
     8
 71
     3
 72
    13
 73
     9
 74
     0
 42
0.00000001
 43
0.00000001
 40
0.0
 40
0.0
 40
0.0
 40
0.0
 40
0.1877388176084382
 40
0.375470506460641
 40
0.5632083521533752
 40
0.7509480126769308
 40
0.9386855053317378
 40
1.0
 40
1.0
 40
1.0
 40
1.0
 10
383.465017469142
 20
85.69915925477736
 30
0.0
 10
383.2683211340034
 20
85.69645632463238
 30
0.0
 10
382.8749359326142
 20
85.69105056697713
 30
0.0
 10
382.3419132882666
 20
85.40053006033077
 30
0.0
 10
381.9513974725055
 20
84.94562337643596
 30
0.0
 10
381.7784273259048
 20
84.38394484533008
 30
0.0
 10
381.7817229223766
 20
83.91074255776707
 30
0.0
 10
381.9090566691661
 20
83.68931153345166
 30
0.0
 10
381.9404051615936
 20
83.63479708646531
 30
0.0
  0
SPLINE
  5
106
330
1F
100
AcDbEntity
  8
0
  6
Continuous
 62
     7
370
    15
100
AcDbSpline
210
0.0
220
0.0
230
1.0
 70
     8
 71
     3
 72
    10
 73
     6
 74
     0
 42
0.00000001
 43
0.00000001
 40
0.0
 40
0.0
 40
0.0
 40
0.0
 40
0.209346108695261
 40
0.6046682537540696
 40
1.0
 40
1.0
 40
1.0
 40
1.0
 10
384.6021846844894
 20
84.89303623651261
 30
0.0
 10
384.5604831074363
 20
84.98610507829557
 30
0.0
 10
384.4400336759534
 20
85.25492198819929
 30
0.0
 10
384.0333167805191
 20
85.57156478344733
 30
0.0
 10
383.6544521064966
 20
85.65662742001889
 30
0.0
 10
383.4650174691421
 20
85.69915925477738
 30
0.0
  0
SPLINE
  5
107
330
1F
100
AcDbEntity
  8
0
  6
Continuous
 62
     7
370
    15
100
AcDbSpline
210
0.0
220
0.0
230
1.0
 70
     8
 71
     3
 72
    13
 73
     9
 74
     0
 42
0.00000001
 43
0.00000001
 40
0.0
 40
0.0
 40
0.0
 40
0.0
 40
0.1768620187040493
 40
0.3537278637474645
 40
0.53059343369435
 40
0.7074545087704549
 40
0.8843201722696985
 40
1.0
 40
1.0
 40
1.0
 40
1.0
 10
383.447791726802
 20
65.05596970533128
 30
0.0
 10
383.2511246249647
 20
65.05866349684625
 30
0.0
 10
382.8577861664756
 20
65.06405113815525
 30
0.0
 10
382.3244010425032
 20
65.35472536330114
 30
0.0
 10
381.9352727389306
 20
65.8090869772711
 30
0.0
 10
381.7571094913528
 20
66.3727816615879
 30
0.0
 10
381.7780706936914
 20
66.90592686436744
 30
0.0
 10
381.9441662300441
 20
67.17919686589272
 30
0.0
 10
382.0098445727569
 20
67.28725468133683
 30
0.0
  0
SPLINE
  5
108
330
1F
100
AcDbEntity
  8
0
  6
Continuous
 62
     7
370
    15
100
AcDbSpline
210
0.0
220
0.0
230
1.0
 70
     8
 71
     3
 72
    10
 73
     6
 74
     0
 42
0.00000001
 43
0.00000001
 40
0.0
 40
0.0
 40
0.0
 40
0.0
 40
0.0588284448308799
 40
0.5294074171160597
 40
1.0
 40
1.0
 40
1.0
 40
1.0
 10
384.4779090001326
 20
65.65587555383436
 30
0.0
 10
384.4672693699546
 20
65.6343946421356
 30
0.0
 10
384.3715214856135
 20
65.44108417791291
 30
0.0
 10
384.0106764081639
 20
65.18690131890978
 30
0.0
 10
383.6354217628172
 20
65.09961399728792
 30
0.0
 10
383.447791726802
 20
65.05596970533128
 30
0.0
  0
SPLINE
  5
109
330
1F
100
AcDbEntity
  8
0
  6
Continuous
 62
     7
370
    15
100
AcDbSpline
210
0.0
220
0.0
230
1.0
 70
    24
 71
     3
 72
    12
 73
     8
 74
     0
 42
0.00000001
 43
0.00000001
 40
0.0
 40
0.0
 40
0.0
 40
0.0
 40
0.2193536141895231
 40
0.4387117205829468
 40
0.6580666993286801
 40
0.8774219908980663
 40
1.0
 40
1.0
 40
1.0
 40
1.0
 10
383.7583021237593
 20
68.52569018815748
 30
0.0
 10
383.5615878635761
 20
68.52569018815748
 30
0.0
 10
383.1681553146431
 20
68.52569018815748
 30
0.0
 10
382.6073164837684
 20
68.52569018815745
 30
0.0
 10
382.1899289631357
 20
68.52569018815757
 30
0.0
 10
381.9640780392215
 20
68.52569018815748
 30
0.0
 10
381.9810507414622
 20
68.52569018815751
 30
0.0
 10
381.9871352030975
 20
68.52569018815751
 30
0.0
  0
SPLINE
  5
10A
330
1F
100
AcDbEntity
  8
0
  6
Continuous
 62
     7
370
    15
100
AcDbSpline
210
0.0
220
0.0
230
1.0
 70
    24
 71
     3
 72
     9
 73
     5
 74
     0
 42
0.00000001
 43
0.00000001
 40
0.0
 40
0.0
 40
0.0
 40
0.0
 40
0.1970130322720919
 40
1.0
 40
1.0
 40
1.0
 40
1.0
 10
384.3989626481277
 20
68.52569018815751
 30
0.0
 10
384.3663104522031
 20
68.52569018815751
 30
0.0
 10
384.2005742288275
 20
68.52569018815751
 30
0.0
 10
383.9552745605634
 20
68.52569018815748
 30
0.0
 10
383.7583021237594
 20
68.52569018815751
 30
0.0
  0
SPLINE
  5
10B
330
1F
100
AcDbEntity
  8
0
  6
Continuous
 62
     7
370
    15
100
AcDbSpline
210
0.0
220
0.0
230
1.0
 70
     8
 71
     3
 72
    13
 73
     9
 74
     0
 42
0.00000001
 43
0.00000001
 40
0.0
 40
0.0
 40
0.0
 40
0.0
 40
0.1768620952074781
 40
0.3537278009243687
 40
0.5305931160374997
 40
0.707454653229999
 40
0.8843198134542269
 40
1.0
 40
1.0
 40
1.0
 40
1.0
 10
381.8959400965911
 20
88.31557964299913
 30
0.0
 10
381.699273043693
 20
88.31288585613167
 30
0.0
 10
381.3059349230836
 20
88.30749822740493
 30
0.0
 10
380.772549580504
 20
88.0168244047285
 30
0.0
 10
380.3834204431163
 20
87.56246074701183
 30
0.0
 10
380.2052580813457
 20
86.99877007306031
 30
0.0
 10
380.2262195914711
 20
86.46562074048187
 30
0.0
 10
380.3923145802178
 20
86.19235226681488
 30
0.0
 10
380.457992942546
 20
86.08429466699354
 30
0.0
  0
SPLINE
  5
10C
330
1F
100
AcDbEntity
  8
0
  6
Continuous
 62
     7
370
    15
100
AcDbSpline
210
0.0
220
0.0
230
1.0
 70
     8
 71
     3
 72
    10
 73
     6
 74
     0
 42
0.00000001
 43
0.00000001
 40
0.0
 40
0.0
 40
0.0
 40
0.0
 40
0.1474588873077304
 40
0.5737271786160301
 40
1.0
 40
1.0
 40
1.0
 40
1.0
 10
382.9845295264464
 20
87.60305081819288
 30
0.0
 10
382.9564672465732
 20
87.66334254909661
 30
0.0
 10
382.8472836432571
 20
87.89792321966067
 30
0.0
 10
382.4622326751983
 20
88.18674769288018
 30
0.0
 10
382.0847049581392
 20
88.27263550750116
 30
0.0
 10
381.8959400965911
 20
88.31557964299913
 30
0.0
  0
SPLINE
  5
10D
330
1F
100
AcDbEntity
  8
0
  6
Continuous
 62
     7
370
    15
100
AcDbSpline
210
0.0
220
0.0
230
1.0
 70
     8
 71
     3
 72
    13
 73
     9
 74
     0
 42
0.00000001
 43
0.00000001
 40
0.0
 40
0.0
 40
0.0
 40
0.0
 40
0.1768618836729249
 40
0.3537275936822943
 40
0.5305930285953441
 40
0.7074542563128813
 40
0.884319394761732
 40
1.0
 40
1.0
 40
1.0
 40
1.0
 10
381.878714354251
 20
62.43954931710955
 30
0.0
 10
381.6820472526858
 20
62.44224312106766
 30
0.0
 10
381.2887087947411
 20
62.44763078726317
 30
0.0
 10
380.7553236666861
 20
62.73830482575671
 30
0.0
 10
380.3661951676532
 20
63.19266739534418
 30
0.0
 10
380.1880320680379
 20
63.75635940943905
 30
0.0
 10
380.2089942497599
 20
64.28950916353216
 30
0.0
 10
380.375088844911
 20
64.56277678556118
 30
0.0
 10
380.4407672002059
 20
64.67083429311509
 30
0.0
  0
SPLINE
  5
10E
330
1F
100
AcDbEntity
  8
0
  6
Continuous
 62
     7
370
    15
100
AcDbSpline
210
0.0
220
0.0
230
1.0
 70
     8
 71
     3
 72
    10
 73
     6
 74
     0
 42
0.00000001
 43
0.00000001
 40
0.0
 40
0.0
 40
0.0
 40
0.0
 40
0.1474534914513864
 40
0.5737285884898559
 40
1.0
 40
1.0
 40
1.0
 40
1.0
 10
382.9673037841064
 20
63.15207814191576
 30
0.0
 10
382.939246984414
 20
63.09178610325619
 30
0.0
 10
382.8300804402612
 20
62.85719507460819
 30
0.0
 10
382.4450043217339
 20
62.56838699587225
 30
0.0
 10
382.067477132733
 20
62.48249508626122
 30
0.0
 10
381.878714354251
 20
62.43954931710955
 30
0.0
  0
LINE
  5
10F
330
1F
100
AcDbEntity
  8
0
  6
Continuous
 62
     7
370
    15
100
AcDbLine
 10
376.5989498212
 20
440.6919214628
 30
0.0
 11
376.4941499545
 21
440.6919214628
 31
0.0
  0
LINE
  5
110
330
1F
100
AcDbEntity
  8
0
  6
Continuous
 62
     7
370
    15
100
AcDbLine
 10
376.5989498212
 20
449.2919180295
 30
0.0
 11
376.4941499545
 21
449.2919180295
 31
0.0
  0
LINE
  5
111
330
1F
100
AcDbEntity
  8
0
  6
Continuous
 62
     7
370
    15
100
AcDbLine
 10
381.9248930528
 20
438.1919238469
 30
0.0
 11
377.0989582851
 21
438.1919238469
 31
0.0
  0
LINE
  5
112
330
1F
100
AcDbEntity
  8
0
  6
Continuous
 62
     7
370
    15
100
AcDbLine
 10
381.9808171108
 20
437.3919252059
 30
0.0
 11
377.0995543315
 21
437.3919252059
 31
0.0
  0
LINE
  5
113
330
1F
100
AcDbEntity
  8
0
  6
Continuous
 62
     7
370
    15
100
AcDbLine
 10
381.9248930528
 20
452.5919291875
 30
0.0
 11
377.0989582851
 21
452.5919291875
 31
0.0
  0
LINE
  5
114
330
1F
100
AcDbEntity
  8
0
  6
Continuous
 62
     7
370
    15
100
AcDbLine
 10
382.0290223672
 20
453.3919278285
 30
0.0
 11
377.0995543315
 21
453.3919278285
 31
0.0
  0
LINE
  5
115
330
1F
100
AcDbEntity
  8
0
  6
Continuous
 62
     7
370
    15
100
AcDbLine
 10
380.6989596202
 20
453.6919180057
 30
0.0
 11
381.8623081758
 21
453.6919180057
 31
0.0
  0
LINE
  5
116
330
1F
100
AcDbEntity
  8
0
  6
Continuous
 62
     7
370
    15
100
AcDbLine
 10
378.4989521816
 20
453.6919180057
 30
0.0
 11
380.6989596202
 21
453.6919180057
 31
0.0
  0
LINE
  5
117
330
1F
100
AcDbEntity
  8
0
  6
Continuous
 62
     7
370
    15
100
AcDbLine
 10
380.6989596202
 20
436.9919184348
 30
0.0
 11
381.8023459031
 21
436.9919184348
 31
0.0
  0
LINE
  5
118
330
1F
100
AcDbEntity
  8
0
  6
Continuous
 62
     7
370
    15
100
AcDbLine
 10
378.5989538743
 20
436.9919184348
 30
0.0
 11
380.6989596202
 21
436.9919184348
 31
0.0
  0
LINE
  5
119
330
1F
100
AcDbEntity
  8
0
  6
Continuous
 62
     7
370
    15
100
AcDbLine
 10
380.6989596202
 20
436.5919265649
 30
0.0
 11
381.5624670102
 21
436.5919265649
 31
0.0
  0
LINE
  5
11A
330
1F
100
AcDbEntity
  8
0
  6
Continuous
 62
     7
370
    15
100
AcDbLine
 10
378.5989538743
 20
436.5919265649
 30
0.0
 11
380.6989596202
 21
436.5919265649
 31
0.0
  0
ARC
  5
11B
330
1F
100
AcDbEntity
  8
0
  6
Continuous
 62
     7
370
    15
100
AcDbCircle
 10
377.564702901
 20
438.1896602928
 30
0.0
 40
0.8027077655065239
100
AcDbArc
 50
179.8384315232
 51
234.5341999199
  0
ARC
  5
11C
330
1F
100
AcDbEntity
  8
0
  6
Continuous
 62
     7
370
    15
100
AcDbCircle
 10
377.5646910555
 20
452.5941839761
 30
0.0
 40
0.802695895376158
100
AcDbArc
 50
125.4653655412
 51
180.1609451829
  0
LINE
  5
11D
330
1F
100
AcDbEntity
  8
0
  6
Continuous
 62
     7
370
    15
100
AcDbLine
 10
377.5498376205
 20
438.6419240138
 30
0.0
 11
377.5498376205
 21
438.1919238469
 31
0.0
  0
LINE
  5
11E
330
1F
100
AcDbEntity
  8
0
  6
Continuous
 62
     7
370
    15
100
AcDbLine
 10
377.5498376205
 20
452.5919291875
 30
0.0
 11
377.5498376205
 21
452.1419290206
 31
0.0
  0
LINE
  5
11F
330
1F
100
AcDbEntity
  8
0
  6
Continuous
 62
     7
370
    15
100
AcDbLine
 10
376.761998327
 20
438.1919238469
 30
0.0
 11
376.761998327
 21
439.4203606746
 31
0.0
  0
LINE
  5
120
330
1F
100
AcDbEntity
  8
0
  6
Continuous
 62
     7
370
    15
100
AcDbLine
 10
376.761998327
 20
451.3634774587
 30
0.0
 11
376.761998327
 21
452.5919291875
 31
0.0
  0
LINE
  5
121
330
1F
100
AcDbEntity
  8
0
  6
Continuous
 62
     7
370
    15
100
AcDbLine
 10
786.500315459
 20
65.3919312856
 30
0.0
 11
786.500315459
 21
30.3919199607
 31
0.0
  0
LINE
  5
122
330
1F
100
AcDbEntity
  8
0
  6
Continuous
 62
     7
370
    15
100
AcDbLine
 10
797.0989600732
 20
65.3919312856
 30
0.0
 11
786.500315459
 21
65.3919312856
 31
0.0
  0
LINE
  5
123
330
1F
100
AcDbEntity
  8
0
  6
Continuous
 62
     7
370
    15
100
AcDbLine
 10
797.0989600732
 20
30.3919199607
 30
0.0
 11
786.500315459
 21
30.3919199607
 31
0.0
  0
LINE
  5
124
330
1F
100
AcDbEntity
  8
0
  6
Continuous
 62
     7
370
    15
100
AcDbLine
 10
786.500315459
 20
490.3919283054
 30
0.0
 11
786.500315459
 21
455.3919169805
 31
0.0
  0
LINE
  5
125
330
1F
100
AcDbEntity
  8
0
  6
Continuous
 62
     7
370
    15
100
AcDbLine
 10
797.0989600732
 20
455.3919169805
 30
0.0
 11
786.500315459
 21
455.3919169805
 31
0.0
  0
LINE
  5
126
330
1F
100
AcDbEntity
  8
0
  6
Continuous
 62
     7
370
    15
100
AcDbLine
 10
797.0989600732
 20
490.3919283054
 30
0.0
 11
786.500315459
 21
490.3919283054
 31
0.0
  0
LINE
  5
127
330
1F
100
AcDbEntity
  8
0
  6
Continuous
 62
     7
370
    15
100
AcDbLine
 10
794.0989539935
 20
102.3919168613
 30
0.0
 11
789.0989587619
 21
102.3919168613
 31
0.0
  0
LINE
  5
128
330
1F
100
AcDbEntity
  8
0
  6
Continuous
 62
     7
370
    15
100
AcDbLine
 10
789.0989587619
 20
418.3919314048
 30
0.0
 11
794.0989539935
 21
418.3919314048
 31
0.0
  0
LINE
  5
129
330
1F
100
AcDbEntity
  8
0
  6
Continuous
 62
     7
370
    15
100
AcDbLine
 10
786.0367999389
 20
30.3919199607
 30
0.0
 11
786.0367999389
 21
65.3919312856
 31
0.0
  0
LINE
  5
12A
330
1F
100
AcDbEntity
  8
0
  6
Continuous
 62
     7
370
    15
100
AcDbLine
 10
786.0367999389
 20
65.3919312856
 30
0.0
 11
786.500315459
 21
65.3919312856
 31
0.0
  0
LINE
  5
12B
330
1F
100
AcDbEntity
  8
0
  6
Continuous
 62
     7
370
    15
100
AcDbLine
 10
786.500315459
 20
30.3919199607
 30
0.0
 11
786.0367999389
 21
30.3919199607
 31
0.0
  0
LINE
  5
12C
330
1F
100
AcDbEntity
  8
0
  6
Continuous
 62
     7
370
    15
100
AcDbLine
 10
786.0367999389
 20
455.3919169805
 30
0.0
 11
786.0367999389
 21
490.3919283054
 31
0.0
  0
LINE
  5
12D
330
1F
100
AcDbEntity
  8
0
  6
Continuous
 62
     7
370
    15
100
AcDbLine
 10
786.500315459
 20
455.3919169805
 30
0.0
 11
786.0367999389
 21
455.3919169805
 31
0.0
  0
LINE
  5
12E
330
1F
100
AcDbEntity
  8
0
  6
Continuous
 62
     7
370
    15
100
AcDbLine
 10
786.0367999389
 20
490.3919283054
 30
0.0
 11
786.500315459
 21
490.3919283054
 31
0.0
  0
LINE
  5
12F
330
1F
100
AcDbEntity
  8
0
  6
Continuous
 62
     7
370
    15
100
AcDbLine
 10
786.0367999389
 20
455.3919169805
 30
0.0
 11
785.5989591195
 21
455.3919169805
 31
0.0
  0
LINE
  5
130
330
1F
100
AcDbEntity
  8
0
  6
Continuous
 62
     7
370
    15
100
AcDbLine
 10
786.0367999389
 20
490.3919283054
 30
0.0
 11
785.5989591195
 21
490.3919283054
 31
0.0
  0
LINE
  5
131
330
1F
100
AcDbEntity
  8
0
  6
Continuous
 62
     7
370
    15
100
AcDbLine
 10
786.0367999389
 20
65.3919312856
 30
0.0
 11
785.5989591195
 21
65.3919312856
 31
0.0
  0
LINE
  5
132
330
1F
100
AcDbEntity
  8
0
  6
Continuous
 62
     7
370
    15
100
AcDbLine
 10
786.0367999389
 20
30.3919199607
 30
0.0
 11
785.5989591195
 21
30.3919199607
 31
0.0
  0
LINE
  5
133
330
1F
100
AcDbEntity
  8
0
  6
Continuous
 62
     7
370
    15
100
AcDbLine
 10
380.3989545419
 20
68.6419192455
 30
0.0
 11
377.2989616706
 21
68.6419192455
 31
0.0
  0
LINE
  5
134
330
1F
100
AcDbEntity
  8
0
  6
Continuous
 62
     7
370
    15
100
AcDbLine
 10
380.3989545419
 20
68.6419192455
 30
0.0
 11
381.958465369
 21
68.6419192455
 31
0.0
  0
LINE
  5
135
330
1F
100
AcDbEntity
  8
0
  6
Continuous
 62
     7
370
    15
100
AcDbLine
 10
380.3989545419
 20
82.1419242523
 30
0.0
 11
381.9590316131
 21
82.1419242523
 31
0.0
  0
LINE
  5
136
330
1F
100
AcDbEntity
  8
0
  6
Continuous
 62
     7
370
    15
100
AcDbLine
 10
380.3989545419
 20
82.1419242523
 30
0.0
 11
377.2989616706
 21
82.1419242523
 31
0.0
  0
LINE
  5
137
330
1F
100
AcDbEntity
  8
0
  6
Continuous
 62
     7
370
    15
100
AcDbLine
 10
380.3989545419
 20
452.1419290206
 30
0.0
 11
381.9590316131
 21
452.1419290206
 31
0.0
  0
LINE
  5
138
330
1F
100
AcDbEntity
  8
0
  6
Continuous
 62
     7
370
    15
100
AcDbLine
 10
380.3989545419
 20
438.6419240138
 30
0.0
 11
381.958465369
 21
438.6419240138
 31
0.0
  0
LINE
  5
139
330
1F
100
AcDbEntity
  8
0
  6
Continuous
 62
     7
370
    15
100
AcDbLine
 10
380.3989545419
 20
438.6419240138
 30
0.0
 11
377.2989616706
 21
438.6419240138
 31
0.0
  0
LINE
  5
13A
330
1F
100
AcDbEntity
  8
0
  6
Continuous
 62
     7
370
    15
100
AcDbLine
 10
380.3989545419
 20
452.1419290206
 30
0.0
 11
377.2989616706
 21
452.1419290206
 31
0.0
  0
LINE
  5
13B
330
1F
100
AcDbEntity
  8
0
  6
Continuous
 62
     8
370
    15
100
AcDbLine
 10
380.3989545419
 20
68.891930928
 30
0.0
 11
380.3989545419
 21
68.6419192455
 31
0.0
  0
LINE
  5
13C
330
1F
100
AcDbEntity
  8
0
  6
Continuous
 62
     8
370
    15
100
AcDbLine
 10
380.3989545419
 20
82.1419242523
 30
0.0
 11
380.3989545419
 21
81.8919274709
 31
0.0
  0
LINE
  5
13D
330
1F
100
AcDbEntity
  8
0
  6
Continuous
 62
     8
370
    15
100
AcDbLine
 10
380.3989545419
 20
438.8919207952
 30
0.0
 11
380.3989545419
 21
438.6419240138
 31
0.0
  0
LINE
  5
13E
330
1F
100
AcDbEntity
  8
0
  6
Continuous
 62
     8
370
    15
100
AcDbLine
 10
380.3989545419
 20
452.1419290206
 30
0.0
 11
380.3989545419
 21
451.8919173381
 31
0.0
  0
LINE
  5
13F
330
1F
100
AcDbEntity
  8
0
  6
Continuous
 62
     7
370
    15
100
AcDbLine
 10
259.1113505892
 20
81.8919274709
 30
0.0
 11
259.1113505892
 21
68.891930928
 31
0.0
  0
LINE
  5
140
330
1F
100
AcDbEntity
  8
0
  6
Continuous
 62
     7
370
    15
100
AcDbLine
 10
259.1113505892
 20
451.8919173381
 30
0.0
 11
259.1113505892
 21
438.8919207952
 31
0.0
  0
SPLINE
  5
141
330
1F
100
AcDbEntity
  8
0
  6
Continuous
 62
     7
370
    15
100
AcDbSpline
210
0.0
220
0.0
230
1.0
 70
     8
 71
     3
 72
    15
 73
    11
 74
     0
 42
0.00000001
 43
0.00000001
 40
0.0
 40
0.0
 40
0.0
 40
0.0
 40
0.1356021169510905
 40
0.2953302188250078
 40
0.4038072894230465
 40
0.5319608740480305
 40
0.6738402491577277
 40
0.826108247121691
 40
0.912614345383376
 40
1.0
 40
1.0
 40
1.0
 40
1.0
 10
248.091353290481
 20
439.9579647681593
 30
0.0
 10
248.1357348225881
 20
439.9506443989881
 30
0.0
 10
248.2323941364961
 20
439.9347012391184
 30
0.0
 10
248.4392443501101
 20
439.9823673800868
 30
0.0
 10
248.6325059662858
 20
440.0700941050131
 30
0.0
 10
248.7790924661455
 20
440.1897554297241
 30
0.0
 10
248.877799024158
 20
440.3406423338818
 30
0.0
 10
248.9074645925276
 20
440.4624786485564
 30
0.0
 10
248.8862730742315
 20
440.5917541279754
 30
0.0
 10
248.8400217191145
 20
440.6584199510722
 30
0.0
 10
248.8167790703005
 20
440.6919214627623
 30
0.0
  0
SPLINE
  5
142
330
1F
100
AcDbEntity
  8
0
  6
Continuous
 62
     7
370
    15
100
AcDbSpline
210
0.0
220
0.0
230
1.0
 70
     8
 71
     3
 72
    20
 73
    16
 74
     0
 42
0.00000001
 43
0.00000001
 40
0.0
 40
0.0
 40
0.0
 40
0.0
 40
0.0607081471894335
 40
0.2265337074238974
 40
0.3908030833954561
 40
0.4705945151732304
 40
0.5476201727987644
 40
0.6228556359003089
 40
0.7003369654355592
 40
0.7786471557389032
 40
0.8566577310177214
 40
0.9330986509214964
 40
0.9703708665110311
 40
0.9892324730265014
 40
1.0
 40
1.0
 40
1.0
 40
1.0
 10
244.3551553420252
 20
440.6919214627623
 30
0.0
 10
244.4014299797817
 20
440.6385900239565
 30
0.0
 10
244.5741047480952
 20
440.4395826565064
 30
0.0
 10
244.9910765239281
 20
440.4216521379988
 30
0.0
 10
245.556031191502
 20
440.3466289805577
 30
0.0
 10
246.0756442604865
 20
440.3036908552001
 30
0.0
 10
246.4695345754426
 20
440.2731305199653
 30
0.0
 10
246.8624457900037
 20
440.2454579641471
 30
0.0
 10
247.2436075798863
 20
440.2141480611195
 30
0.0
 10
247.5993337662449
 20
440.181674750856
 30
0.0
 10
247.9019574076511
 20
440.150837446934
 30
0.0
 10
248.0944663035313
 20
440.1279377552369
 30
0.0
 10
248.1825940120283
 20
440.1199173983431
 30
0.0
 10
248.2280183764813
 20
440.1121354575397
 30
0.0
 10
248.2274616508708
 20
440.1160785436596
 30
0.0
 10
248.2272593311495
 20
440.1175115010619
 30
0.0
  0
SPLINE
  5
143
330
1F
100
AcDbEntity
  8
0
  6
Continuous
 62
     7
370
    15
100
AcDbSpline
210
0.0
220
0.0
230
1.0
 70
     8
 71
     3
 72
    18
 73
    14
 74
     0
 42
0.00000001
 43
0.00000001
 40
0.0
 40
0.0
 40
0.0
 40
0.0
 40
0.0057533567917031
 40
0.1156375215450627
 40
0.2383930484367299
 40
0.3593083462105054
 40
0.4757045897176554
 40
0.5872129732179507
 40
0.7047314906629496
 40
0.8264986562017488
 40
0.8891456339577294
 40
0.9517930023982276
 40
1.0
 40
1.0
 40
1.0
 40
1.0
 10
248.5979704193301
 20
449.338752379167
 30
0.0
 10
248.5933232497445
 20
449.341704578459
 30
0.0
 10
248.4999191393231
 20
449.4010412442685
 30
0.0
 10
248.2775629059559
 20
449.4072568066483
 30
0.0
 10
247.8861786308351
 20
449.4664428795643
 30
0.0
 10
247.3742970252233
 20
449.5119837694569
 30
0.0
 10
246.8232673785657
 20
449.5581506813876
 30
0.0
 10
246.2611501509959
 20
449.5970290719603
 30
0.0
 10
245.7268794762289
 20
449.6417825225917
 30
0.0
 10
245.3292253421502
 20
449.6828254270937
 30
0.0
 10
245.1145126672711
 20
449.703970140072
 30
0.0
 10
245.018440581436
 20
449.7062448125479
 30
0.0
 10
245.0030050985142
 20
449.6901687719087
 30
0.0
 10
244.9962927035517
 20
449.6831778190016
 30
0.0
  0
SPLINE
  5
144
330
1F
100
AcDbEntity
  8
0
  6
Continuous
 62
     7
370
    15
100
AcDbSpline
210
0.0
220
0.0
230
1.0
 70
     8
 71
     3
 72
    12
 73
     8
 74
     0
 42
0.00000001
 43
0.00000001
 40
0.0
 40
0.0
 40
0.0
 40
0.0
 40
0.2236735693670915
 40
0.4523088700424478
 40
0.6822378332721339
 40
0.9102273307596506
 40
1.0
 40
1.0
 40
1.0
 40
1.0
 10
244.2970557145304
 20
450.4937711856246
 30
0.0
 10
244.2843200969224
 20
450.4512201512366
 30
0.0
 10
244.2585663486102
 20
450.3651741765711
 30
0.0
 10
244.3796914649498
 20
450.2735898904601
 30
0.0
 10
244.6113693804641
 20
450.1772497224902
 30
0.0
 10
244.8562281062946
 20
450.1147920187274
 30
0.0
 10
245.0395604671324
 20
450.1199955859243
 30
0.0
 10
245.0913546613879
 20
450.1214656731963
 30
0.0
  0
SPLINE
  5
145
330
1F
100
AcDbEntity
  8
0
  6
Continuous
 62
     7
370
    15
100
AcDbSpline
210
0.0
220
0.0
230
1.0
 70
     8
 71
     3
 72
    19
 73
    15
 74
     0
 42
0.00000001
 43
0.00000001
 40
0.0
 40
0.0
 40
0.0
 40
0.0
 40
0.0979034708198992
 40
0.1753768054955316
 40
0.288482163629521
 40
0.3734523911956805
 40
0.4570020127384862
 40
0.6168864240043902
 40
0.6796655723623525
 40
0.7634254151544344
 40
0.8137532723829093
 40
0.8702968900146344
 40
0.9323984214262235
 40
1.0
 40
1.0
 40
1.0
 40
1.0
 10
244.4732917479701
 20
449.9986503026366
 30
0.0
 10
244.5237987722625
 20
449.9722687443871
 30
0.0
 10
244.6142732008124
 20
449.9250108344168
 30
0.0
 10
244.988917043596
 20
449.8643670020866
 30
0.0
 10
245.4754289139553
 20
449.8104736043144
 30
0.0
 10
246.0667574271036
 20
449.7572509356642
 30
0.0
 10
246.820860333512
 20
449.7057022979765
 30
0.0
 10
247.4619490486679
 20
449.6387499030296
 30
0.0
 10
248.1112287933337
 20
449.6032249479881
 30
0.0
 10
248.4895467531307
 20
449.6814364705608
 30
0.0
 10
248.7414196862921
 20
449.7896113225989
 30
0.0
 10
248.875002754683
 20
449.8779608346188
 30
0.0
 10
248.9367649648643
 20
449.9517939289797
 30
0.0
 10
248.8653290670948
 20
450.0323188242384
 30
0.0
 10
248.8280965022273
 20
450.0742885968565
 30
0.0
  0
SPLINE
  5
146
330
1F
100
AcDbEntity
  8
0
  6
Continuous
 62
     7
370
    15
100
AcDbSpline
210
0.0
220
0.0
230
1.0
 70
     8
 71
     3
 72
    25
 73
    21
 74
     0
 42
0.00000001
 43
0.00000001
 40
0.0
 40
0.0
 40
0.0
 40
0.0
 40
0.0176266731541836
 40
0.034498059170967
 40
0.0503150666076174
 40
0.0649732272677631
 40
0.0909453215100789
 40
0.1134395180991458
 40
0.1538405363989821
 40
0.1912342907497932
 40
0.2995716654021844
 40
0.3999644146135897
 40
0.5012964853073313
 40
0.5949069059212274
 40
0.678488065886439
 40
0.7336301365176005
 40
0.8075208615896503
 40
0.8952852370088895
 40
0.9453086755490474
 40
1.0
 40
1.0
 40
1.0
 40
1.0
 10
248.4707741073794
 20
449.4487080476164
 30
0.0
 10
248.510485041348
 20
449.4530979883895
 30
0.0
 10
248.5882053313767
 20
449.4616897649102
 30
0.0
 10
248.690082472214
 20
449.5077020153095
 30
0.0
 10
248.7710973456171
 20
449.5666590326917
 30
0.0
 10
248.8473026408361
 20
449.650227850826
 30
0.0
 10
248.9003498384567
 20
449.7538757527129
 30
0.0
 10
248.9245102155415
 20
449.8862163071864
 30
0.0
 10
248.9016196508772
 20
450.0180841875566
 30
0.0
 10
248.7303811758852
 20
450.263281930987
 30
0.0
 10
248.387589582365
 20
450.3503774811884
 30
0.0
 10
247.8924766572348
 20
450.4089352013671
 30
0.0
 10
247.2792631730095
 20
450.4672793608956
 30
0.0
 10
246.6297954766021
 20
450.5169022942364
 30
0.0
 10
246.0900944038853
 20
450.5563905627622
 30
0.0
 10
245.644085390027
 20
450.5955663420767
 30
0.0
 10
245.2553772471444
 20
450.6337959911161
 30
0.0
 10
244.9952293229386
 20
450.6616226357536
 30
0.0
 10
244.8647830007892
 20
450.6841410319345
 30
0.0
 10
244.8561197136713
 20
450.6965970579731
 30
0.0
 10
244.8515949777789
 20
450.7031026980758
 30
0.0
  0
SPLINE
  5
147
330
1F
100
AcDbEntity
  8
0
  6
Continuous
 62
     7
370
    15
100
AcDbSpline
210
0.0
220
0.0
230
1.0
 70
     8
 71
     3
 72
    12
 73
     8
 74
     0
 42
0.00000001
 43
0.00000001
 40
0.0
 40
0.0
 40
0.0
 40
0.0
 40
0.1756480782096992
 40
0.5723179574994552
 40
0.7586182139746307
 40
0.9207542195155713
 40
1.0
 40
1.0
 40
1.0
 40
1.0
 10
244.9399216107554
 20
449.8846117160201
 30
0.0
 10
244.8743576345798
 20
449.8754411599244
 30
0.0
 10
244.6607291035258
 20
449.8455605373337
 30
0.0
 10
244.4448256377573
 20
449.7716208108397
 30
0.0
 10
244.2836628735023
 20
449.5566944812373
 30
0.0
 10
244.252451189777
 20
449.396471968796
 30
0.0
 10
244.2834287079376
 20
449.3178154997816
 30
0.0
 10
244.2935986451334
 20
449.2919925353407
 30
0.0
  0
LINE
  5
148
330
1F
100
AcDbEntity
  8
0
  6
Continuous
 62
     7
370
    15
100
AcDbLine
 10
244.4511113695
 20
440.5941847465
 30
0.0
 11
243.3326525621
 21
440.5941847465
 31
0.0
  0
LINE
  5
149
330
1F
100
AcDbEntity
  8
0
  6
Continuous
 62
     7
370
    15
100
AcDbLine
 10
243.3326525621
 20
439.7941861055
 30
0.0
 11
245.0913546614
 21
439.7941861055
 31
0.0
  0
LINE
  5
14A
330
1F
100
AcDbEntity
  8
0
  6
Continuous
 62
     7
370
    15
100
AcDbLine
 10
241.9223619632
 20
453.3919278285
 30
0.0
 11
241.9223619632
 21
453.4453931949
 31
0.0
  0
LINE
  5
14B
330
1F
100
AcDbEntity
  8
0
  6
Continuous
 62
     7
370
    15
100
AcDbLine
 10
238.9223633341
 20
453.4453931949
 30
0.0
 11
238.9223633341
 21
453.3919278285
 31
0.0
  0
SPLINE
  5
14C
330
1F
100
AcDbEntity
  8
0
  6
Continuous
 62
     7
370
    15
100
AcDbSpline
210
0.0
220
0.0
230
1.0
 70
     8
 71
     3
 72
    15
 73
    11
 74
     0
 42
0.00000001
 43
0.00000001
 40
0.0
 40
0.0
 40
0.0
 40
0.0
 40
0.1077555227458458
 40
0.2352508777805143
 40
0.3627904281004047
 40
0.4902568001611004
 40
0.6176623048215986
 40
0.745096844097433
 40
0.8724965313269203
 40
1.0
 40
1.0
 40
1.0
 40
1.0
 10
238.9384193352885
 20
437.391925205934
 30
0.0
 10
238.9549591661549
 20
437.0794032229071
 30
0.0
 10
238.9910687745583
 20
436.3971080703312
 30
0.0
 10
239.3272681593396
 20
435.3879548069082
 30
0.0
 10
239.8853607995007
 20
434.4244813177727
 30
0.0
 10
240.640182482724
 20
433.6035556160086
 30
0.0
 10
241.5553433156218
 20
432.9682809259259
 30
0.0
 10
242.5826028398665
 20
432.5481340654222
 30
0.0
 10
243.6785812156441
 20
432.3343007019391
 30
0.0
 10
244.4143416415172
 20
432.3998413695731
 30
0.0
 10
244.7823716334528
 20
432.432625045526
 30
0.0
  0
SPLINE
  5
14D
330
1F
100
AcDbEntity
  8
0
  6
Continuous
 62
     7
370
    15
100
AcDbSpline
210
0.0
220
0.0
230
1.0
 70
     8
 71
     3
 72
    15
 73
    11
 74
     0
 42
0.00000001
 43
0.00000001
 40
0.0
 40
0.0
 40
0.0
 40
0.0
 40
0.131651489175434
 40
0.2633123921046122
 40
0.3951886973848729
 40
0.5266702317687209
 40
0.6575475107725832
 40
0.7882108782408901
 40
0.9184604455980022
 40
1.0
 40
1.0
 40
1.0
 40
1.0
 10
244.2846803001589
 20
435.3903118274092
 30
0.0
 10
244.1324963058392
 20
435.37849645814
 30
0.0
 10
243.8281174352671
 20
435.3548648747424
 30
0.0
 10
243.3772605384987
 20
435.4563433453834
 30
0.0
 10
242.9582242755815
 20
435.6431868294841
 30
0.0
 10
242.5878399196228
 20
435.9157996350177
 30
0.0
 10
242.2855774569364
 20
436.2617056514124
 30
0.0
 10
242.0664126474037
 20
436.6634105860447
 30
0.0
 10
241.9490458903772
 20
437.0497249152492
 30
0.0
 10
241.93887086489
 20
437.2968003119624
 30
0.0
 10
241.9349534444041
 20
437.3919252059341
 30
0.0
  0
SPLINE
  5
14E
330
1F
100
AcDbEntity
  8
0
  6
Continuous
 62
     7
370
    15
100
AcDbSpline
210
0.0
220
0.0
230
1.0
 70
     8
 71
     3
 72
    15
 73
    11
 74
     0
 42
0.00000001
 43
0.00000001
 40
0.0
 40
0.0
 40
0.0
 40
0.0
 40
0.1249271931084942
 40
0.2499164504218588
 40
0.3749675049727881
 40
0.4999572042926771
 40
0.6249205140385532
 40
0.7499165908916061
 40
0.8748745978506454
 40
1.0
 40
1.0
 40
1.0
 40
1.0
 10
244.9532432488627
 20
458.3224389455199
 30
0.0
 10
244.5868668913896
 20
458.3657692508402
 30
0.0
 10
243.8539321595682
 20
458.4524513881065
 30
0.0
 10
242.7499007657567
 20
458.2872850223633
 30
0.0
 10
241.7091100518767
 20
457.8983304579607
 30
0.0
 10
240.7739149431419
 20
457.2933297068773
 30
0.0
 10
239.9932732184324
 20
456.4971358414093
 30
0.0
 10
239.4053083537844
 20
455.5527733761513
 30
0.0
 10
239.0094761683001
 20
454.504329854854
 30
0.0
 10
238.9514139003051
 20
453.765208063239
 30
0.0
 10
238.9223633341021
 20
453.3953997990965
 30
0.0
  0
SPLINE
  5
14F
330
1F
100
AcDbEntity
  8
0
  6
Continuous
 62
     7
370
    15
100
AcDbSpline
210
0.0
220
0.0
230
1.0
 70
     8
 71
     3
 72
    15
 73
    11
 74
     0
 42
0.00000001
 43
0.00000001
 40
0.0
 40
0.0
 40
0.0
 40
0.0
 40
0.1242509509540391
 40
0.2486323689554776
 40
0.3735414777960868
 40
0.4985832299017895
 40
0.6236641560063036
 40
0.7490695536708376
 40
0.8744383430307837
 40
0.9999999999999999
 40
0.9999999999999999
 40
0.9999999999999999
 40
0.9999999999999999
 10
241.9223619631953
 20
453.3953997990965
 30
0.0
 10
241.9359229971384
 20
453.5473524706895
 30
0.0
 10
241.9630593044976
 20
453.8514173685211
 30
0.0
 10
242.1375136188009
 20
454.2787370554033
 30
0.0
 10
242.3908450875333
 20
454.6603802208428
 30
0.0
 10
242.7206722535898
 20
454.9803071746065
 30
0.0
 10
243.1115939766428
 20
455.2208897187429
 30
0.0
 10
243.5442974027257
 20
455.3724965590445
 30
0.0
 10
244.0018258964161
 20
455.4259587894689
 30
0.0
 10
244.3037457850535
 20
455.3852740709877
 30
0.0
 10
244.4548217586703
 20
455.3649160764098
 30
0.0
  0
LINE
  5
150
330
1F
100
AcDbEntity
  8
0
  6
Continuous
 62
     7
370
    15
100
AcDbLine
 10
259.8254291348
 20
438.0070600412
 30
0.0
 11
244.2844567827
 21
435.390639653
 31
0.0
  0
LINE
  5
151
330
1F
100
AcDbEntity
  8
0
  6
Continuous
 62
     7
370
    15
100
AcDbLine
 10
244.7825131945
 20
432.4322823188
 30
0.0
 11
260.3234855465
 21
435.0486878059
 31
0.0
  0
LINE
  5
152
330
1F
100
AcDbEntity
  8
0
  6
Continuous
 62
     7
370
    15
100
AcDbLine
 10
244.4550378255
 20
455.3644839427
 30
0.0
 11
259.996002727
 21
452.7480635545
 31
0.0
  0
LINE
  5
153
330
1F
100
AcDbEntity
  8
0
  6
Continuous
 62
     7
370
    15
100
AcDbLine
 10
260.4940740399
 20
455.7064357898
 30
0.0
 11
244.9531016878
 21
458.322856178
 31
0.0
  0
SPLINE
  5
154
330
1F
100
AcDbEntity
  8
0
  6
Continuous
 62
     7
370
    15
100
AcDbSpline
210
0.0
220
0.0
230
1.0
 70
     8
 71
     3
 72
    12
 73
     8
 74
     0
 42
0.00000001
 43
0.00000001
 40
0.0
 40
0.0
 40
0.0
 40
0.0
 40
0.1526137558693945
 40
0.2973909068950319
 40
0.5623713122191962
 40
0.7966013227185454
 40
1.0
 40
1.0
 40
1.0
 40
1.0
 10
260.3231428198046
 20
435.0490007302641
 30
0.0
 10
260.5743626193132
 20
435.1017384199123
 30
0.0
 10
261.0639022652007
 20
435.2045057573824
 30
0.0
 10
261.9134219844395
 20
435.6337590306919
 30
0.0
 10
262.7254158987183
 20
436.3781482984139
 30
0.0
 10
263.2898447694121
 20
437.449195630656
 30
0.0
 10
263.3715340362182
 20
438.1841205543884
 30
0.0
 10
263.4095011285967
 20
438.5256949565291
 30
0.0
  0
SPLINE
  5
155
330
1F
100
AcDbEntity
  8
0
  6
Continuous
 62
     7
370
    15
100
AcDbSpline
210
0.0
220
0.0
230
1.0
 70
     8
 71
     3
 72
    11
 73
     7
 74
     0
 42
0.00000001
 43
0.00000001
 40
0.0
 40
0.0
 40
0.0
 40
0.0
 40
0.2003577666578269
 40
0.4327989616762116
 40
0.6990217085458137
 40
1.0
 40
1.0
 40
1.0
 40
1.0
 10
260.4111937812991
 20
438.5256949565291
 30
0.0
 10
260.3979666589284
 20
438.4692663183784
 30
0.0
 10
260.3693943458931
 20
438.3473730850499
 30
0.0
 10
260.2535043825765
 20
438.1816742318704
 30
0.0
 10
260.0687497868824
 20
438.0427624801072
 30
0.0
 10
259.9111264109683
 20
438.0193691287408
 30
0.0
 10
259.8274854950137
 20
438.0069557330489
 30
0.0
  0
SPLINE
  5
156
330
1F
100
AcDbEntity
  8
0
  6
Continuous
 62
     7
370
    15
100
AcDbSpline
210
0.0
220
0.0
230
1.0
 70
     8
 71
     3
 72
    12
 73
     8
 74
     0
 42
0.00000001
 43
0.00000001
 40
0.0
 40
0.0
 40
0.0
 40
0.0
 40
0.2034074300668868
 40
0.4376408138569703
 40
0.7026169111361644
 40
0.8473902619935163
 40
1.0
 40
1.0
 40
1.0
 40
1.0
 10
263.4095011285967
 20
452.0843211314559
 30
0.0
 10
263.3880676194044
 20
452.4273323174134
 30
0.0
 10
263.3419523993081
 20
453.1653372886927
 30
0.0
 10
262.8298250437906
 20
454.2624382389649
 30
0.0
 10
262.054632573171
 20
455.0452033894595
 30
0.0
 10
261.2267745845779
 20
455.5149228811852
 30
0.0
 10
260.7427872472942
 20
455.6411811790477
 30
0.0
 10
260.4944167665667
 20
455.7059738538146
 30
0.0
  0
SPLINE
  5
157
330
1F
100
AcDbEntity
  8
0
  6
Continuous
 62
     7
370
    15
100
AcDbSpline
210
0.0
220
0.0
230
1.0
 70
     8
 71
     3
 72
    12
 73
     8
 74
     0
 42
0.00000001
 43
0.00000001
 40
0.0
 40
0.0
 40
0.0
 40
0.0
 40
0.1555474100898919
 40
0.3021951733596975
 40
0.5679595087532391
 40
0.7999507504784817
 40
1.0
 40
1.0
 40
1.0
 40
1.0
 10
259.9940953783221
 20
452.7489874265074
 30
0.0
 10
260.0346368188576
 20
452.7332369423023
 30
0.0
 10
260.113400120952
 20
452.7026371380233
 30
0.0
 10
260.2430312525533
 20
452.6075999265063
 30
0.0
 10
260.3574605623047
 20
452.4614228587656
 30
0.0
 10
260.421614550038
 20
452.2671714778867
 30
0.0
 10
260.4144918366719
 20
452.142191196763
 30
0.0
 10
260.4111937812991
 20
452.0843211314559
 30
0.0
  0
LINE
  5
158
330
1F
100
AcDbEntity
  8
0
  6
Continuous
 62
     7
370
    15
100
AcDbLine
 10
260.4103444151
 20
452.1343145273
 30
0.0
 11
260.4103444151
 21
451.8919173381
 31
0.0
  0
LINE
  5
159
330
1F
100
AcDbEntity
  8
0
  6
Continuous
 62
     7
370
    15
100
AcDbLine
 10
260.4103444151
 20
438.8919207952
 30
0.0
 11
260.4103444151
 21
438.4756866596
 31
0.0
  0
LINE
  5
15A
330
1F
100
AcDbEntity
  8
0
  6
Continuous
 62
     7
370
    15
100
AcDbLine
 10
263.4103504948
 20
438.4756866596
 30
0.0
 11
263.4103504948
 21
438.8946626088
 31
0.0
  0
LINE
  5
15B
330
1F
100
AcDbEntity
  8
0
  6
Continuous
 62
     7
370
    15
100
AcDbLine
 10
263.4103504948
 20
451.8891755245
 30
0.0
 11
263.4103504948
 21
452.1343145273
 31
0.0
  0
LINE
  5
15C
330
1F
100
AcDbEntity
  8
0
  6
Continuous
 62
     7
370
    15
100
AcDbLine
 10
249.7096268467
 20
450.9919170043
 30
0.0
 11
248.0913532905
 21
450.9919170043
 31
0.0
  0
LINE
  5
15D
330
1F
100
AcDbEntity
  8
0
  6
Continuous
 62
     7
370
    15
100
AcDbLine
 10
248.7182749442
 20
450.1919183633
 30
0.0
 11
249.7096268467
 21
450.1919183633
 31
0.0
  0
LINE
  5
15E
330
1F
100
AcDbEntity
  8
0
  6
Continuous
 62
     7
370
    15
100
AcDbLine
 10
250.0478534035
 20
452.2600654266
 30
0.0
 11
249.7813312344
 21
451.0518196723
 31
0.0
  0
LINE
  5
15F
330
1F
100
AcDbEntity
  8
0
  6
Continuous
 62
     7
370
    15
100
AcDbLine
 10
250.5494860939
 20
450.8202705285
 30
0.0
 11
250.8290691308
 21
452.0877334974
 31
0.0
  0
SPLINE
  5
160
330
1F
100
AcDbEntity
  8
0
  6
Continuous
 62
     7
370
    15
100
AcDbSpline
210
0.0
220
0.0
230
1.0
 70
     8
 71
     3
 72
    11
 73
     7
 74
     0
 42
0.00000001
 43
0.00000001
 40
0.0
 40
0.0
 40
0.0
 40
0.0
 40
0.2541316261173311
 40
0.502266394026237
 40
0.7495055111375698
 40
1.0
 40
1.0
 40
1.0
 40
1.0
 10
249.7096268467135
 20
450.1919183633208
 30
0.0
 10
249.8097152618308
 20
450.2021694988502
 30
0.0
 10
250.0075302607462
 20
450.2224298692564
 30
0.0
 10
250.265677521324
 20
450.3764516089969
 30
0.0
 10
250.4691312203987
 20
450.5955248423349
 30
0.0
 10
250.5308664919538
 20
450.7825778989134
 30
0.0
 10
250.5619360140986
 20
450.8767161271452
 30
0.0
  0
LINE
  5
161
330
1F
100
AcDbEntity
  8
0
  6
Continuous
 62
     7
370
    15
100
AcDbLine
 10
249.3213547401
 20
82.5919244192
 30
0.0
 11
249.3213547401
 21
83.3919230602
 31
0.0
  0
LINE
  5
162
330
1F
100
AcDbEntity
  8
0
  6
Continuous
 62
     7
370
    15
100
AcDbLine
 10
249.3213547401
 20
67.3919204376
 30
0.0
 11
249.3213547401
 21
68.1919190786
 31
0.0
  0
LINE
  5
163
330
1F
100
AcDbEntity
  8
0
  6
Continuous
 62
     7
370
    15
100
AcDbLine
 10
244.3913577131
 20
83.6919281385
 30
0.0
 11
244.3913577131
 21
83.3919230602
 31
0.0
  0
LINE
  5
164
330
1F
100
AcDbEntity
  8
0
  6
Continuous
 62
     7
370
    15
100
AcDbLine
 10
248.7913576893
 20
83.3919230602
 30
0.0
 11
248.7913576893
 21
83.6919281385
 31
0.0
  0
ARC
  5
165
330
1F
100
AcDbEntity
  8
0
  6
Continuous
 62
     7
370
    15
100
AcDbCircle
 10
246.5913539986
 20
80.5847812759
 30
0.0
 40
3.80714285714331
100
AcDbArc
 50
54.6997515601
 51
125.3002484399
  0
LINE
  5
166
330
1F
100
AcDbEntity
  8
0
  6
Continuous
 62
     7
370
    15
100
AcDbLine
 10
244.4913519553
 20
66.9919285676
 30
0.0
 11
244.4913519553
 21
66.5919217965
 31
0.0
  0
LINE
  5
167
330
1F
100
AcDbEntity
  8
0
  6
Continuous
 62
     7
370
    15
100
AcDbLine
 10
248.6913559965
 20
66.5919217965
 30
0.0
 11
248.6913559965
 21
66.9919285676
 31
0.0
  0
ARC
  5
168
330
1F
100
AcDbEntity
  8
0
  6
Continuous
 62
     7
370
    15
100
AcDbCircle
 10
244.6913539986
 20
67.3919241331
 30
0.0
 40
0.4000000000008015
100
AcDbArc
 50
270.0
 51
0.0
  0
ARC
  5
169
330
1F
100
AcDbEntity
  8
0
  6
Continuous
 62
     7
370
    15
100
AcDbCircle
 10
248.4913539986
 20
67.3919241331
 30
0.0
 40
0.4000000000008015
100
AcDbArc
 50
180.0
 51
270.0
  0
LINE
  5
16A
330
1F
100
AcDbEntity
  8
0
  6
Continuous
 62
     7
370
    15
100
AcDbLine
 10
245.0913546614
 20
82.5919244192
 30
0.0
 11
245.0913546614
 21
82.1419242523
 31
0.0
  0
LINE
  5
16B
330
1F
100
AcDbEntity
  8
0
  6
Continuous
 62
     7
370
    15
100
AcDbLine
 10
245.0913546614
 20
81.1419222257
 30
0.0
 11
245.0913546614
 21
80.6532237432
 31
0.0
  0
LINE
  5
16C
330
1F
100
AcDbEntity
  8
0
  6
Continuous
 62
     7
370
    15
100
AcDbLine
 10
245.0913546614
 20
79.8570994041
 30
0.0
 11
245.0913546614
 21
79.7014120719
 31
0.0
  0
LINE
  5
16D
330
1F
100
AcDbEntity
  8
0
  6
Continuous
 62
     7
370
    15
100
AcDbLine
 10
245.0913546614
 20
70.4022977254
 30
0.0
 11
245.0913546614
 21
69.641921272
 31
0.0
  0
LINE
  5
16E
330
1F
100
AcDbEntity
  8
0
  6
Continuous
 62
     7
370
    15
100
AcDbLine
 10
245.0913546614
 20
68.6419192455
 30
0.0
 11
245.0913546614
 21
68.1919190786
 31
0.0
  0
LINE
  5
16F
330
1F
100
AcDbEntity
  8
0
  6
Continuous
 62
     7
370
    15
100
AcDbLine
 10
248.0913532905
 20
68.1919190786
 30
0.0
 11
248.0913532905
 21
68.6419192455
 31
0.0
  0
LINE
  5
170
330
1F
100
AcDbEntity
  8
0
  6
Continuous
 62
     7
370
    15
100
AcDbLine
 10
248.0913532905
 20
69.641921272
 30
0.0
 11
248.0913532905
 21
70.1290700338
 31
0.0
  0
LINE
  5
171
330
1F
100
AcDbEntity
  8
0
  6
Continuous
 62
     7
370
    15
100
AcDbLine
 10
248.0913532905
 20
79.4369909665
 30
0.0
 11
248.0913532905
 21
79.6249244115
 31
0.0
  0
LINE
  5
172
330
1F
100
AcDbEntity
  8
0
  6
Continuous
 62
     7
370
    15
100
AcDbLine
 10
248.0913532905
 20
80.3799960515
 30
0.0
 11
248.0913532905
 21
81.1419222257
 31
0.0
  0
LINE
  5
173
330
1F
100
AcDbEntity
  8
0
  6
Continuous
 62
     7
370
    15
100
AcDbLine
 10
248.0913532905
 20
82.1419242523
 30
0.0
 11
248.0913532905
 21
82.5919244192
 31
0.0
  0
SPLINE
  5
174
330
1F
100
AcDbEntity
  8
0
  6
Continuous
 62
     7
370
    15
100
AcDbSpline
210
0.0
220
0.0
230
1.0
 70
     8
 71
     3
 72
    15
 73
    11
 74
     0
 42
0.00000001
 43
0.00000001
 40
0.0
 40
0.0
 40
0.0
 40
0.0
 40
0.1356024681815957
 40
0.295330595159587
 40
0.4038076828067009
 40
0.5319612875732694
 40
0.6738447874455711
 40
0.8261128093411221
 40
0.912614331649187
 40
1.0
 40
1.0
 40
1.0
 40
1.0
 10
248.091353290481
 20
69.95797490094895
 30
0.0
 10
248.1357347740743
 20
69.95064832642039
 30
0.0
 10
248.2323938551323
 20
69.93469167279143
 30
0.0
 10
248.4392444356563
 20
69.9823632598216
 30
0.0
 10
248.6325057849832
 20
70.0700897321746
 30
0.0
 10
248.7790948979531
 20
70.18974900653957
 30
0.0
 10
248.877796976872
 20
70.34065355892832
 30
0.0
 10
248.9074655180869
 20
70.46249291107462
 30
0.0
 10
248.8862717162721
 20
70.59174817115819
 30
0.0
 10
248.8400216732127
 20
70.65841419672003
 30
0.0
 10
248.8167790703005
 20
70.69191669439073
 30
0.0
  0
SPLINE
  5
175
330
1F
100
AcDbEntity
  8
0
  6
Continuous
 62
     7
370
    15
100
AcDbSpline
210
0.0
220
0.0
230
1.0
 70
     8
 71
     3
 72
    20
 73
    16
 74
     0
 42
0.00000001
 43
0.00000001
 40
0.0
 40
0.0
 40
0.0
 40
0.0
 40
0.0607081418949688
 40
0.226533687667493
 40
0.3908030493128294
 40
0.4705944741318522
 40
0.5476201250398426
 40
0.6228555815799696
 40
0.7003369043579364
 40
0.7786470878317104
 40
0.8566574323358913
 40
0.9330983455731189
 40
0.9703706932585184
 40
0.9892322981290348
 40
1.0
 40
1.0
 40
1.0
 40
1.0
 10
244.3551553420252
 20
70.69191669439073
 30
0.0
 10
244.4014299797868
 20
70.63858525566846
 30
0.0
 10
244.5741047481194
 20
70.43957788853025
 30
0.0
 10
244.9910765236166
 20
70.42164736453749
 30
0.0
 10
245.5560311923778
 20
70.3466242264943
 30
0.0
 10
246.0756442590383
 20
70.30368606317006
 30
0.0
 10
246.4695345807068
 20
70.27312583758966
 30
0.0
 10
246.8624457705703
 20
70.24545287831205
 30
0.0
 10
247.2436076552428
 20
70.21414452376823
 30
0.0
 10
247.5993331416118
 20
70.1816653763952
 30
0.0
 10
247.9019578949804
 20
70.15084981607428
 30
0.0
 10
248.0944666136244
 20
70.1279562926292
 30
0.0
 10
248.1825938946169
 20
70.11991522355548
 30
0.0
 10
248.2280184730434
 20
70.1121236001048
 30
0.0
 10
248.2274616781517
 20
70.11608280409482
 30
0.0
 10
248.2272593311495
 20
70.11752163385148
 30
0.0
  0
SPLINE
  5
176
330
1F
100
AcDbEntity
  8
0
  6
Continuous
 62
     7
370
    15
100
AcDbSpline
210
0.0
220
0.0
230
1.0
 70
     8
 71
     3
 72
    18
 73
    14
 74
     0
 42
0.00000001
 43
0.00000001
 40
0.0
 40
0.0
 40
0.0
 40
0.0
 40
0.0449148570493094
 40
0.1504709166282667
 40
0.2683913625752061
 40
0.3845440621426458
 40
0.4963557034467848
 40
0.6034720072265842
 40
0.7163617184684015
 40
0.8333327325287444
 40
0.8935121781412635
 40
0.9536919990500623
 40
0.9999999999999999
 40
0.9999999999999999
 40
0.9999999999999999
 40
0.9999999999999999
 10
248.6975995830721
 20
79.27659486745591
 30
0.0
 10
248.6602912380755
 20
79.30240683768567
 30
0.0
 10
248.5353031775913
 20
79.38888046969983
 30
0.0
 10
248.278704770345
 20
79.41167729682788
 30
0.0
 10
247.8858633604117
 20
79.46521629228171
 30
0.0
 10
247.3743775825531
 20
79.51229119293171
 30
0.0
 10
246.8232471694092
 20
79.55806761243609
 30
0.0
 10
246.2611557901199
 20
79.5970460872999
 30
0.0
 10
245.7268778351035
 20
79.64177167790218
 30
0.0
 10
245.3292255588627
 20
79.68282062511858
 30
0.0
 10
245.1145126204482
 20
79.70396675013602
 30
0.0
 10
245.0184407384927
 20
79.70623477598076
 30
0.0
 10
245.0030051332781
 20
79.69017277858065
 30
0.0
 10
244.9962927035517
 20
79.68318795179124
 30
0.0
  0
SPLINE
  5
177
330
1F
100
AcDbEntity
  8
0
  6
Continuous
 62
     7
370
    15
100
AcDbSpline
210
0.0
220
0.0
230
1.0
 70
     8
 71
     3
 72
    12
 73
     8
 74
     0
 42
0.00000001
 43
0.00000001
 40
0.0
 40
0.0
 40
0.0
 40
0.0
 40
0.2236732915419057
 40
0.4523100852040887
 40
0.6822371062107185
 40
0.9102273916452944
 40
1.0
 40
1.0
 40
1.0
 40
1.0
 10
244.2970557145304
 20
80.49378131841416
 30
0.0
 10
244.2843202977768
 20
80.45123247315098
 30
0.0
 10
244.2585668544524
 20
80.36519058726607
 30
0.0
 10
244.3796895166667
 20
80.27357260477636
 30
0.0
 10
244.611371699467
 20
80.17727621894377
 30
0.0
 10
244.8562273717645
 20
80.11477379254211
 30
0.0
 10
245.0395604251218
 20
80.11999947515116
 30
0.0
 10
245.0913546613879
 20
80.12147580598588
 30
0.0
  0
SPLINE
  5
178
330
1F
100
AcDbEntity
  8
0
  6
Continuous
 62
     7
370
    15
100
AcDbSpline
210
0.0
220
0.0
230
1.0
 70
     8
 71
     3
 72
    19
 73
    15
 74
     0
 42
0.00000001
 43
0.00000001
 40
0.0
 40
0.0
 40
0.0
 40
0.0
 40
0.0979032791062705
 40
0.175376661531972
 40
0.2884820893775424
 40
0.3734525493481057
 40
0.4570022223860511
 40
0.6168865560951647
 40
0.6796657431465519
 40
0.7634253109011393
 40
0.813753725090831
 40
0.8702973775727617
 40
0.9323989472601321
 40
1.0
 40
1.0
 40
1.0
 40
1.0
 10
244.4732917479701
 20
79.998645534265
 30
0.0
 10
244.523798883912
 20
79.97227052572156
 30
0.0
 10
244.6142736153603
 20
79.9250242946612
 30
0.0
 10
244.9889169131867
 20
79.86437461674679
 30
0.0
 10
245.4754297993559
 20
79.81049120689792
 30
0.0
 10
246.0667567039024
 20
79.75724156186378
 30
0.0
 10
246.8208598209011
 20
79.7056980769886
 30
0.0
 10
247.4619500563409
 20
79.63875778087032
 30
0.0
 10
248.1112273325819
 20
79.60324070508551
 30
0.0
 10
248.4895497830607
 20
79.68142013482878
 30
0.0
 10
248.7414182828408
 20
79.78962753320157
 30
0.0
 10
248.8750029966905
 20
79.87796826870408
 30
0.0
 10
248.9367649809685
 20
79.9518077556183
 30
0.0
 10
248.8653289742343
 20
80.03232053786598
 30
0.0
 10
248.8280965022273
 20
80.07428382848497
 30
0.0
  0
SPLINE
  5
179
330
1F
100
AcDbEntity
  8
0
  6
Continuous
 62
     7
370
    15
100
AcDbSpline
210
0.0
220
0.0
230
1.0
 70
     8
 71
     3
 72
    25
 73
    21
 74
     0
 42
0.00000001
 43
0.00000001
 40
0.0
 40
0.0
 40
0.0
 40
0.0
 40
0.0176266621558083
 40
0.034498037645487
 40
0.0503150352129249
 40
0.0649745343870752
 40
0.0909466124237896
 40
0.113439419943851
 40
0.1538404130349847
 40
0.1912352818617078
 40
0.2995720690815307
 40
0.3999647556516694
 40
0.5012969407700583
 40
0.5949073029746037
 40
0.6784882503403717
 40
0.7336302865649732
 40
0.8075209655320142
 40
0.8952854120234525
 40
0.9453087096743586
 40
1.0
 40
1.0
 40
1.0
 40
1.0
 10
248.4707741073794
 20
79.44870327924485
 30
0.0
 10
248.5104850903084
 20
79.453093136716
 30
0.0
 10
248.5882054761598
 20
79.46168475020238
 30
0.0
 10
248.6900819361795
 20
79.50769815895481
 30
0.0
 10
248.771101467121
 20
79.56665285351347
 30
0.0
 10
248.8472976041368
 20
79.65024139794188
 30
0.0
 10
248.9003494931898
 20
79.75388539427769
 30
0.0
 10
248.9245107342329
 20
79.88620893094209
 30
0.0
 10
248.9016178885945
 20
80.01807828117468
 30
0.0
 10
248.7303865790736
 20
80.26330304671609
 30
0.0
 10
248.3875870725589
 20
80.35036538599638
 30
0.0
 10
247.892476462266
 20
80.40892792959484
 30
0.0
 10
247.2792636762028
 20
80.46729186616783
 30
0.0
 10
246.6297962728064
 20
80.51691797458122
 30
0.0
 10
246.0900938096223
 20
80.55638213062635
 30
0.0
 10
245.6440854938892
 20
80.59556387873317
 30
0.0
 10
245.2553768318325
 20
80.63378332638413
 30
0.0
 10
244.9952297652361
 20
80.66164551176195
 30
0.0
 10
244.864782873199
 20
80.68413043219158
 30
0.0
 10
244.856119673009
 20
80.69659028441362
 30
0.0
 10
244.8515949777789
 20
80.70309792970414
 30
0.0
  0
SPLINE
  5
17A
330
1F
100
AcDbEntity
  8
0
  6
Continuous
 62
     7
370
    15
100
AcDbSpline
210
0.0
220
0.0
230
1.0
 70
     8
 71
     3
 72
    12
 73
     8
 74
     0
 42
0.00000001
 43
0.00000001
 40
0.0
 40
0.0
 40
0.0
 40
0.0
 40
0.1756484819836304
 40
0.5723147944529376
 40
0.7586193425867653
 40
0.9207487476514701
 40
1.0
 40
1.0
 40
1.0
 40
1.0
 10
244.9399216107554
 20
79.88462184880967
 30
0.0
 10
244.8743578019941
 20
79.87544461256516
 30
0.0
 10
244.6607314881711
 20
79.84554245790015
 30
0.0
 10
244.4448213263889
 20
79.77164653112482
 30
0.0
 10
244.2836651582837
 20
79.55668352784495
 30
0.0
 10
244.2524526339913
 20
79.39648513768225
 30
0.0
 10
244.2834285004508
 20
79.31781659823642
 30
0.0
 10
244.2935986451334
 20
79.29198776696916
 30
0.0
  0
LINE
  5
17B
330
1F
100
AcDbEntity
  8
0
  6
Continuous
 62
     7
370
    15
100
AcDbLine
 10
244.4511113695
 20
70.5941799781
 30
0.0
 11
243.3326525621
 21
70.5941799781
 31
0.0
  0
LINE
  5
17C
330
1F
100
AcDbEntity
  8
0
  6
Continuous
 62
     7
370
    15
100
AcDbLine
 10
243.3326525621
 20
69.7941813371
 30
0.0
 11
245.0913546614
 21
69.7941813371
 31
0.0
  0
LINE
  5
17D
330
1F
100
AcDbEntity
  8
0
  6
Continuous
 62
     7
370
    15
100
AcDbLine
 10
241.9223619632
 20
83.3919230602
 30
0.0
 11
241.9223619632
 21
83.4453884265
 31
0.0
  0
LINE
  5
17E
330
1F
100
AcDbEntity
  8
0
  6
Continuous
 62
     7
370
    15
100
AcDbLine
 10
238.9223633341
 20
83.4453884265
 30
0.0
 11
238.9223633341
 21
83.3919230602
 31
0.0
  0
SPLINE
  5
17F
330
1F
100
AcDbEntity
  8
0
  6
Continuous
 62
     7
370
    15
100
AcDbSpline
210
0.0
220
0.0
230
1.0
 70
     8
 71
     3
 72
    15
 73
    11
 74
     0
 42
0.00000001
 43
0.00000001
 40
0.0
 40
0.0
 40
0.0
 40
0.0
 40
0.1077555632443117
 40
0.235250966196397
 40
0.3627905644503143
 40
0.4902569844175339
 40
0.6176625369616796
 40
0.7450971241320742
 40
0.8724965551005236
 40
1.0
 40
1.0
 40
1.0
 40
1.0
 10
238.9384193352885
 20
67.39192043756242
 30
0.0
 10
238.9549591664547
 20
67.0793984566358
 30
0.0
 10
238.9910687755126
 20
66.39710330864504
 30
0.0
 10
239.327268154692
 20
65.3879500059806
 30
0.0
 10
239.8853608168343
 20
64.42447667082065
 30
0.0
 10
240.6401824180931
 20
63.60355039490572
 30
0.0
 10
241.5553435567261
 20
62.96827784645884
 30
0.0
 10
242.5826011225392
 20
62.54812332730675
 30
0.0
 10
243.6785825979997
 20
62.33431975947709
 30
0.0
 10
244.4143418786619
 20
62.39984452539876
 30
0.0
 10
244.7823716334528
 20
62.43262027715441
 30
0.0
  0
SPLINE
  5
180
330
1F
100
AcDbEntity
  8
0
  6
Continuous
 62
     7
370
    15
100
AcDbSpline
210
0.0
220
0.0
230
1.0
 70
     8
 71
     3
 72
    15
 73
    11
 74
     0
 42
0.00000001
 43
0.00000001
 40
0.0
 40
0.0
 40
0.0
 40
0.0
 40
0.1316516399477192
 40
0.2633126936599635
 40
0.3951908777586238
 40
0.5266700567956787
 40
0.6575474856851714
 40
0.7882147191251545
 40
0.9184603522158077
 40
0.9999999999999999
 40
0.9999999999999999
 40
0.9999999999999999
 40
0.9999999999999999
 10
244.2846803001589
 20
65.39030705903764
 30
0.0
 10
244.1324965181763
 20
65.37849213051864
 30
0.0
 10
243.8281180722933
 20
65.35486142865291
 30
0.0
 10
243.3772560172594
 20
65.45633372747677
 30
0.0
 10
242.9582329053108
 20
65.64320255729461
 30
0.0
 10
242.5878354064875
 20
65.91579246549661
 30
0.0
 10
242.285573098396
 20
66.26170423643535
 30
0.0
 10
242.0664197161025
 20
66.66341376840887
 30
0.0
 10
241.9490443468662
 20
67.04972447378817
 30
0.0
 10
241.9388704903537
 20
67.29679542215072
 30
0.0
 10
241.9349534444041
 20
67.39192043756242
 30
0.0
  0
SPLINE
  5
181
330
1F
100
AcDbEntity
  8
0
  6
Continuous
 62
     7
370
    15
100
AcDbSpline
210
0.0
220
0.0
230
1.0
 70
     8
 71
     3
 72
    15
 73
    11
 74
     0
 42
0.00000001
 43
0.00000001
 40
0.0
 40
0.0
 40
0.0
 40
0.0
 40
0.1249271235195466
 40
0.2499165441323651
 40
0.3749669398554883
 40
0.4999574828345304
 40
0.6249207229713406
 40
0.7499167301970753
 40
0.8748746675500025
 40
1.0
 40
1.0
 40
1.0
 40
1.0
 10
244.9532432488627
 20
88.32244907830949
 30
0.0
 10
244.5868664638589
 20
88.36578148927337
 30
0.0
 10
243.853930193665
 20
88.45246791966512
 30
0.0
 10
242.74990626276
 20
88.28726982594651
 30
0.0
 10
241.709101631115
 20
87.8983486826835
 30
0.0
 10
240.7739199767022
 20
87.29332119203012
 30
0.0
 10
239.9932723793011
 20
86.49713259633643
 30
0.0
 10
239.4053085774915
 20
85.55276820167803
 30
0.0
 10
239.009476112293
 20
84.5043251881537
 30
0.0
 10
238.9514138816278
 20
83.76520332877286
 30
0.0
 10
238.9223633341021
 20
83.39539503072496
 30
0.0
  0
SPLINE
  5
182
330
1F
100
AcDbEntity
  8
0
  6
Continuous
 62
     7
370
    15
100
AcDbSpline
210
0.0
220
0.0
230
1.0
 70
     8
 71
     3
 72
    15
 73
    11
 74
     0
 42
0.00000001
 43
0.00000001
 40
0.0
 40
0.0
 40
0.0
 40
0.0
 40
0.1242547216221721
 40
0.2486321305662306
 40
0.3735409974541627
 40
0.4985825073502546
 40
0.6236631911692765
 40
0.7490696703026413
 40
0.8744382168194955
 40
1.0
 40
1.0
 40
1.0
 40
1.0
 10
241.9223619631953
 20
83.39539503072496
 30
0.0
 10
241.9359217827776
 20
83.54735303474342
 30
0.0
 10
241.9630548107127
 20
83.85141908392407
 30
0.0
 10
242.1375176859498
 20
84.2787356142875
 30
0.0
 10
242.3908447944466
 20
84.66037527998816
 30
0.0
 10
242.7206719040022
 20
84.98030361340034
 30
0.0
 10
243.1115970492328
 20
85.22088113641901
 30
0.0
 10
243.5442940817061
 20
85.37251019081226
 30
0.0
 10
244.0018271061759
 20
85.42597171105271
 30
0.0
 10
244.3037460405001
 20
85.38527522223977
 30
0.0
 10
244.4548217586703
 20
85.36491130803819
 30
0.0
  0
LINE
  5
183
330
1F
100
AcDbEntity
  8
0
  6
Continuous
 62
     7
370
    15
100
AcDbLine
 10
259.8254291348
 20
68.0070552728
 30
0.0
 11
244.2844567827
 21
65.3906497857
 31
0.0
  0
LINE
  5
184
330
1F
100
AcDbEntity
  8
0
  6
Continuous
 62
     7
370
    15
100
AcDbLine
 10
244.7825131945
 20
62.4322775504
 30
0.0
 11
260.3234855465
 21
65.0486979387
 31
0.0
  0
LINE
  5
185
330
1F
100
AcDbEntity
  8
0
  6
Continuous
 62
     7
370
    15
100
AcDbLine
 10
244.4550378255
 20
85.3644940755
 30
0.0
 11
259.996002727
 21
82.7480736873
 31
0.0
  0
LINE
  5
186
330
1F
100
AcDbEntity
  8
0
  6
Continuous
 62
     7
370
    15
100
AcDbLine
 10
260.4940740399
 20
85.7064310214
 30
0.0
 11
244.9531016878
 21
88.3228514097
 31
0.0
  0
SPLINE
  5
187
330
1F
100
AcDbEntity
  8
0
  6
Continuous
 62
     7
370
    15
100
AcDbSpline
210
0.0
220
0.0
230
1.0
 70
     8
 71
     3
 72
    12
 73
     8
 74
     0
 42
0.00000001
 43
0.00000001
 40
0.0
 40
0.0
 40
0.0
 40
0.0
 40
0.1526145777739737
 40
0.2973905050304727
 40
0.5623710619129286
 40
0.796601206382562
 40
1.0
 40
1.0
 40
1.0
 40
1.0
 10
260.3231428198046
 20
65.04899596189256
 30
0.0
 10
260.5743616784108
 20
65.10174109714038
 30
0.0
 10
261.0638961928966
 20
65.20452225106446
 30
0.0
 10
261.9134282738033
 20
65.63374548335318
 30
0.0
 10
262.7254145536515
 20
66.37814651150514
 30
0.0
 10
263.2898450395728
 20
67.44919026344843
 30
0.0
 10
263.3715341219406
 20
68.18411559600546
 30
0.0
 10
263.4095011285967
 20
68.52569018815748
 30
0.0
  0
SPLINE
  5
188
330
1F
100
AcDbEntity
  8
0
  6
Continuous
 62
     7
370
    15
100
AcDbSpline
210
0.0
220
0.0
230
1.0
 70
     8
 71
     3
 72
    11
 73
     7
 74
     0
 42
0.00000001
 43
0.00000001
 40
0.0
 40
0.0
 40
0.0
 40
0.0
 40
0.2003585325715143
 40
0.4328006161498773
 40
0.6990243807172165
 40
1.0
 40
1.0
 40
1.0
 40
1.0
 10
260.4111937812991
 20
68.52569018815751
 30
0.0
 10
260.3979666694686
 20
68.4692615028078
 30
0.0
 10
260.3693943792013
 20
68.34736816752316
 30
0.0
 10
260.2535042143537
 20
68.18167021680644
 30
0.0
 10
260.0687514410047
 20
68.04275492370313
 30
0.0
 10
259.9111266586552
 20
68.01937308076114
 30
0.0
 10
259.8274854950137
 20
68.00696586583848
 30
0.0
  0
SPLINE
  5
189
330
1F
100
AcDbEntity
  8
0
  6
Continuous
 62
     7
370
    15
100
AcDbSpline
210
0.0
220
0.0
230
1.0
 70
     8
 71
     3
 72
    12
 73
     8
 74
     0
 42
0.00000001
 43
0.00000001
 40
0.0
 40
0.0
 40
0.0
 40
0.0
 40
0.2034072527575092
 40
0.4376404323673645
 40
0.7026162986680399
 40
0.8473895233270877
 40
0.9999999999999999
 40
0.9999999999999999
 40
0.9999999999999999
 40
0.9999999999999999
 10
263.4095011285967
 20
82.08431636308424
 30
0.0
 10
263.3880676295711
 20
82.42732758188748
 30
0.0
 10
263.3419524313488
 20
83.16533262383585
 30
0.0
 10
262.829824884275
 20
84.26243295524175
 30
0.0
 10
262.054633123653
 20
85.04520039954552
 30
0.0
 10
261.2267722302999
 20
85.51491538067404
 30
0.0
 10
260.7427869052868
 20
85.64118521263447
 30
0.0
 10
260.4944167665667
 20
85.70598398660417
 30
0.0
  0
SPLINE
  5
18A
330
1F
100
AcDbEntity
  8
0
  6
Continuous
 62
     7
370
    15
100
AcDbSpline
210
0.0
220
0.0
230
1.0
 70
     8
 71
     3
 72
    12
 73
     8
 74
     0
 42
0.00000001
 43
0.00000001
 40
0.0
 40
0.0
 40
0.0
 40
0.0
 40
0.1555472679745845
 40
0.3021948972602116
 40
0.5679589898391656
 40
0.7999337333052727
 40
1.0
 40
1.0
 40
1.0
 40
1.0
 10
259.9940953783221
 20
82.74898265813582
 30
0.0
 10
260.0346368080116
 20
82.7332321696621
 30
0.0
 10
260.1134000890343
 20
82.70263235709014
 30
0.0
 10
260.2430314118527
 20
82.60759522082873
 30
0.0
 10
260.3574565735716
 20
82.46142135317818
 30
0.0
 10
260.4216169573361
 20
82.26717260923117
 30
0.0
 10
260.4144927876437
 20
82.142191612821
 30
0.0
 10
260.4111937812991
 20
82.08431636308424
 30
0.0
  0
LINE
  5
18B
330
1F
100
AcDbEntity
  8
0
  6
Continuous
 62
     7
370
    15
100
AcDbLine
 10
260.4103444151
 20
82.1343246601
 30
0.0
 11
260.4103444151
 21
81.8919274709
 31
0.0
  0
LINE
  5
18C
330
1F
100
AcDbEntity
  8
0
  6
Continuous
 62
     7
370
    15
100
AcDbLine
 10
260.4103444151
 20
68.891930928
 30
0.0
 11
260.4103444151
 21
68.4756818912
 31
0.0
  0
LINE
  5
18D
330
1F
100
AcDbEntity
  8
0
  6
Continuous
 62
     7
370
    15
100
AcDbLine
 10
263.4103504948
 20
68.4756818912
 30
0.0
 11
263.4103504948
 21
68.8946727416
 31
0.0
  0
LINE
  5
18E
330
1F
100
AcDbEntity
  8
0
  6
Continuous
 62
     7
370
    15
100
AcDbLine
 10
263.4103504948
 20
81.8891856573
 30
0.0
 11
263.4103504948
 21
82.1343246601
 31
0.0
  0
LINE
  5
18F
330
1F
100
AcDbEntity
  8
0
  6
Continuous
 62
     7
370
    15
100
AcDbLine
 10
249.7096268467
 20
80.9919271371
 30
0.0
 11
248.0913532905
 21
80.9919271371
 31
0.0
  0
LINE
  5
190
330
1F
100
AcDbEntity
  8
0
  6
Continuous
 62
     7
370
    15
100
AcDbLine
 10
248.7182749442
 20
80.1919284961
 30
0.0
 11
249.7096268467
 21
80.1919284961
 31
0.0
  0
LINE
  5
191
330
1F
100
AcDbEntity
  8
0
  6
Continuous
 62
     7
370
    15
100
AcDbLine
 10
250.0478534035
 20
82.2600606582
 30
0.0
 11
249.7813312344
 21
81.051814904
 31
0.0
  0
LINE
  5
192
330
1F
100
AcDbEntity
  8
0
  6
Continuous
 62
     7
370
    15
100
AcDbLine
 10
250.5494860939
 20
80.8202657602
 30
0.0
 11
250.8290691308
 21
82.087728729
 31
0.0
  0
SPLINE
  5
193
330
1F
100
AcDbEntity
  8
0
  6
Continuous
 62
     7
370
    15
100
AcDbSpline
210
0.0
220
0.0
230
1.0
 70
     8
 71
     3
 72
    11
 73
     7
 74
     0
 42
0.00000001
 43
0.00000001
 40
0.0
 40
0.0
 40
0.0
 40
0.0
 40
0.2541305495495546
 40
0.5022664238365682
 40
0.7495161270384285
 40
1.0
 40
1.0
 40
1.0
 40
1.0
 10
249.7096268467135
 20
80.19192849611039
 30
0.0
 10
249.8097152391113
 20
80.20217363750137
 30
0.0
 10
250.0075310428635
 20
80.22242224805706
 30
0.0
 10
250.2656832245819
 20
80.37644763580009
 30
0.0
 10
250.4691230502612
 20
80.5955305190798
 30
0.0
 10
250.5308646314809
 20
80.78257927750305
 30
0.0
 10
250.5619360140986
 20
80.87671135877366
 30
0.0
  0
LINE
  5
194
330
1F
100
AcDbEntity
  8
0
  6
Continuous
 62
     7
370
    15
100
AcDbLine
 10
249.3213547401
 20
437.3919252059
 30
0.0
 11
249.3213547401
 21
438.1919238469
 31
0.0
  0
LINE
  5
195
330
1F
100
AcDbEntity
  8
0
  6
Continuous
 62
     7
370
    15
100
AcDbLine
 10
249.3213547401
 20
452.5919291875
 30
0.0
 11
249.3213547401
 21
453.3919278285
 31
0.0
  0
ARC
  5
196
330
1F
100
AcDbEntity
  8
0
  6
Continuous
 62
     7
370
    15
100
AcDbCircle
 10
246.5913539986
 20
450.5847812759
 30
0.0
 40
3.807142857143322
100
AcDbArc
 50
54.6997515601
 51
125.3002484399
  0
LINE
  5
197
330
1F
100
AcDbEntity
  8
0
  6
Continuous
 62
     7
370
    15
100
AcDbLine
 10
244.3913577131
 20
453.6919180057
 30
0.0
 11
244.3913577131
 21
453.3919278285
 31
0.0
  0
LINE
  5
198
330
1F
100
AcDbEntity
  8
0
  6
Continuous
 62
     7
370
    15
100
AcDbLine
 10
248.7913576893
 20
453.3919278285
 30
0.0
 11
248.7913576893
 21
453.6919180057
 31
0.0
  0
LINE
  5
199
330
1F
100
AcDbEntity
  8
0
  6
Continuous
 62
     7
370
    15
100
AcDbLine
 10
244.4913519553
 20
436.9919184348
 30
0.0
 11
244.4913519553
 21
436.5919265649
 31
0.0
  0
LINE
  5
19A
330
1F
100
AcDbEntity
  8
0
  6
Continuous
 62
     7
370
    15
100
AcDbLine
 10
248.6913559965
 20
436.5919265649
 30
0.0
 11
248.6913559965
 21
436.9919184348
 31
0.0
  0
ARC
  5
19B
330
1F
100
AcDbEntity
  8
0
  6
Continuous
 62
     7
370
    15
100
AcDbCircle
 10
244.6913539986
 20
437.3919241331
 30
0.0
 40
0.4000000000008015
100
AcDbArc
 50
270.0
 51
0.0
  0
ARC
  5
19C
330
1F
100
AcDbEntity
  8
0
  6
Continuous
 62
     7
370
    15
100
AcDbCircle
 10
248.4913539986
 20
437.3919241331
 30
0.0
 40
0.4000000000007731
100
AcDbArc
 50
180.0
 51
270.0
  0
LINE
  5
19D
330
1F
100
AcDbEntity
  8
0
  6
Continuous
 62
     7
370
    15
100
AcDbLine
 10
245.0913546614
 20
452.5919291875
 30
0.0
 11
245.0913546614
 21
452.1419290206
 31
0.0
  0
LINE
  5
19E
330
1F
100
AcDbEntity
  8
0
  6
Continuous
 62
     7
370
    15
100
AcDbLine
 10
245.0913546614
 20
451.1419269941
 30
0.0
 11
245.0913546614
 21
450.6532136104
 31
0.0
  0
LINE
  5
19F
330
1F
100
AcDbEntity
  8
0
  6
Continuous
 62
     7
370
    15
100
AcDbLine
 10
245.0913546614
 20
449.8571041725
 30
0.0
 11
245.0913546614
 21
449.7014019391
 31
0.0
  0
LINE
  5
1A0
330
1F
100
AcDbEntity
  8
0
  6
Continuous
 62
     7
370
    15
100
AcDbLine
 10
245.0913546614
 20
440.4023024938
 30
0.0
 11
245.0913546614
 21
439.6419260404
 31
0.0
  0
LINE
  5
1A1
330
1F
100
AcDbEntity
  8
0
  6
Continuous
 62
     7
370
    15
100
AcDbLine
 10
245.0913546614
 20
438.6419240138
 30
0.0
 11
245.0913546614
 21
438.1919238469
 31
0.0
  0
LINE
  5
1A2
330
1F
100
AcDbEntity
  8
0
  6
Continuous
 62
     7
370
    15
100
AcDbLine
 10
248.0913532905
 20
438.1919238469
 30
0.0
 11
248.0913532905
 21
438.6419240138
 31
0.0
  0
LINE
  5
1A3
330
1F
100
AcDbEntity
  8
0
  6
Continuous
 62
     7
370
    15
100
AcDbLine
 10
248.0913532905
 20
439.6419260404
 30
0.0
 11
248.0913532905
 21
440.129059901
 31
0.0
  0
LINE
  5
1A4
330
1F
100
AcDbEntity
  8
0
  6
Continuous
 62
     7
370
    15
100
AcDbLine
 10
248.0913532905
 20
449.4369808338
 30
0.0
 11
248.0913532905
 21
449.6249291799
 31
0.0
  0
LINE
  5
1A5
330
1F
100
AcDbEntity
  8
0
  6
Continuous
 62
     7
370
    15
100
AcDbLine
 10
248.0913532905
 20
450.3800008199
 30
0.0
 11
248.0913532905
 21
451.1419269941
 31
0.0
  0
LINE
  5
1A6
330
1F
100
AcDbEntity
  8
0
  6
Continuous
 62
     7
370
    15
100
AcDbLine
 10
248.0913532905
 20
452.1419290206
 30
0.0
 11
248.0913532905
 21
452.5919291875
 31
0.0
  0
LINE
  5
1A7
330
1F
100
AcDbEntity
  8
0
  6
Continuous
 62
     7
370
    15
100
AcDbLine
 10
259.6899626784
 20
81.8919274709
 30
0.0
 11
259.6899626784
 21
68.891930928
 31
0.0
  0
LINE
  5
1A8
330
1F
100
AcDbEntity
  8
0
  6
Continuous
 62
     7
370
    15
100
AcDbLine
 10
259.6899626784
 20
81.8919274709
 30
0.0
 11
262.4089477591
 21
81.8919274709
 31
0.0
  0
LWPOLYLINE
  5
1A9
330
1F
100
AcDbEntity
  8
0
  6
Continuous
 62
     7
370
    15
100
AcDbPolyline
 90
        9
 70
   128
 43
0.0
 10
263.1394622854
 20
80.6919220588
 10
263.1254253916
 20
80.9260342023
 10
263.0838511519
 20
81.1511460445
 10
263.0163488917
 20
81.3586149118
 10
262.9254965119
 20
81.5404537818
 10
262.8147957854
 20
81.6896889112
 10
262.6884935431
 20
81.8005833528
 10
262.5514624647
 20
81.8688604734
 10
262.4089477591
 20
81.8919274709
  0
LINE
  5
1AA
330
1F
100
AcDbEntity
  8
0
  6
Continuous
 62
     7
370
    15
100
AcDbLine
 10
263.1394622854
 20
80.6919220588
 30
0.0
 11
263.1394622854
 21
70.0919214389
 31
0.0
  0
LWPOLYLINE
  5
1AB
330
1F
100
AcDbEntity
  8
0
  6
Continuous
 62
     7
370
    15
100
AcDbPolyline
 90
        9
 70
   128
 43
0.0
 10
262.4089477591
 20
68.891930928
 10
262.5514624647
 20
68.9149830243
 10
262.6884935431
 20
68.9832750461
 10
262.8147957854
 20
69.0941545865
 10
262.9254965119
 20
69.2433897159
 10
263.0163488917
 20
69.4252434871
 10
263.0838511519
 20
69.6326974532
 10
263.1254253916
 20
69.8578092954
 10
263.1394622854
 20
70.0919214389
  0
LINE
  5
1AC
330
1F
100
AcDbEntity
  8
0
  6
Continuous
 62
     7
370
    15
100
AcDbLine
 10
262.4089477591
 20
68.891930928
 30
0.0
 11
259.6899626784
 21
68.891930928
 31
0.0
  0
LINE
  5
1AD
330
1F
100
AcDbEntity
  8
0
  6
Continuous
 62
     7
370
    15
100
AcDbLine
 10
262.4089477591
 20
81.8919274709
 30
0.0
 11
263.3609680466
 21
81.8919274709
 31
0.0
  0
LWPOLYLINE
  5
1AE
330
1F
100
AcDbEntity
  8
0
  6
Continuous
 62
     7
370
    15
100
AcDbPolyline
 90
        9
 70
   128
 43
0.0
 10
263.3609680466
 20
81.8919274709
 10
263.5034827522
 20
81.8688604734
 10
263.6405287317
 20
81.8005833528
 10
263.7668160729
 20
81.6896889112
 10
263.8775167994
 20
81.5404537818
 10
263.9683691792
 20
81.3586149118
 10
264.0358714394
 20
81.1511460445
 10
264.0774456791
 20
80.9260342023
 10
264.091482573
 20
80.6919220588
  0
LINE
  5
1AF
330
1F
100
AcDbEntity
  8
0
  6
Continuous
 62
     7
370
    15
100
AcDbLine
 10
264.091482573
 20
80.6919220588
 30
0.0
 11
263.1394622854
 21
80.6919220588
 31
0.0
  0
LINE
  5
1B0
330
1F
100
AcDbEntity
  8
0
  6
Continuous
 62
     7
370
    15
100
AcDbLine
 10
263.3609680466
 20
68.891930928
 30
0.0
 11
262.4089477591
 21
68.891930928
 31
0.0
  0
LINE
  5
1B1
330
1F
100
AcDbEntity
  8
0
  6
Continuous
 62
     7
370
    15
100
AcDbLine
 10
263.1394622854
 20
70.0919214389
 30
0.0
 11
264.091482573
 21
70.0919214389
 31
0.0
  0
LWPOLYLINE
  5
1B2
330
1F
100
AcDbEntity
  8
0
  6
Continuous
 62
     7
370
    15
100
AcDbPolyline
 90
        9
 70
   128
 43
0.0
 10
264.091482573
 20
70.0919214389
 10
264.0774456791
 20
69.8578092954
 10
264.0358714394
 20
69.6326974532
 10
263.9683691792
 20
69.4252434871
 10
263.8775167994
 20
69.2433897159
 10
263.7668160729
 20
69.0941545865
 10
263.6405287317
 20
68.9832750461
 10
263.5034827522
 20
68.9149830243
 10
263.3609680466
 20
68.891930928
  0
LINE
  5
1B3
330
1F
100
AcDbEntity
  8
0
  6
Continuous
 62
     7
370
    15
100
AcDbLine
 10
264.091482573
 20
80.6919220588
 30
0.0
 11
264.091482573
 21
70.0919214389
 31
0.0
  0
LINE
  5
1B4
330
1F
100
AcDbEntity
  8
0
  6
Continuous
 62
     7
370
    15
100
AcDbLine
 10
259.6899626784
 20
451.8919173381
 30
0.0
 11
259.6899626784
 21
438.8919207952
 31
0.0
  0
LINE
  5
1B5
330
1F
100
AcDbEntity
  8
0
  6
Continuous
 62
     7
370
    15
100
AcDbLine
 10
259.6899626784
 20
451.8919173381
 30
0.0
 11
262.4089477591
 21
451.8919173381
 31
0.0
  0
LWPOLYLINE
  5
1B6
330
1F
100
AcDbEntity
  8
0
  6
Continuous
 62
     7
370
    15
100
AcDbPolyline
 90
        9
 70
   128
 43
0.0
 10
263.1394622854
 20
450.6919268272
 10
263.1254253916
 20
450.9260389707
 10
263.0838511519
 20
451.1511508129
 10
263.0163488917
 20
451.358604779
 10
262.9254965119
 20
451.5404585502
 10
262.8147957854
 20
451.6896936796
 10
262.6884935431
 20
451.80057322
 10
262.5514624647
 20
451.8688652418
 10
262.4089477591
 20
451.8919173381
  0
LINE
  5
1B7
330
1F
100
AcDbEntity
  8
0
  6
Continuous
 62
     7
370
    15
100
AcDbLine
 10
263.1394622854
 20
450.6919268272
 30
0.0
 11
263.1394622854
 21
440.0919262073
 31
0.0
  0
LWPOLYLINE
  5
1B8
330
1F
100
AcDbEntity
  8
0
  6
Continuous
 62
     7
370
    15
100
AcDbPolyline
 90
        9
 70
   128
 43
0.0
 10
262.4089477591
 20
438.8919207952
 10
262.5514624647
 20
438.9149877927
 10
262.6884935431
 20
438.9832649133
 10
262.8147957854
 20
439.0941593549
 10
262.9254965119
 20
439.2433944843
 10
263.0163488917
 20
439.4252333543
 10
263.0838511519
 20
439.6327022216
 10
263.1254253916
 20
439.8578140638
 10
263.1394622854
 20
440.0919262073
  0
LINE
  5
1B9
330
1F
100
AcDbEntity
  8
0
  6
Continuous
 62
     7
370
    15
100
AcDbLine
 10
262.4089477591
 20
438.8919207952
 30
0.0
 11
259.6899626784
 21
438.8919207952
 31
0.0
  0
LINE
  5
1BA
330
1F
100
AcDbEntity
  8
0
  6
Continuous
 62
     7
370
    15
100
AcDbLine
 10
262.4089477591
 20
451.8919173381
 30
0.0
 11
263.3609680466
 21
451.8919173381
 31
0.0
  0
LWPOLYLINE
  5
1BB
330
1F
100
AcDbEntity
  8
0
  6
Continuous
 62
     7
370
    15
100
AcDbPolyline
 90
        9
 70
   128
 43
0.0
 10
263.3609680466
 20
451.8919173381
 10
263.5034827522
 20
451.8688652418
 10
263.6405287317
 20
451.80057322
 10
263.7668160729
 20
451.6896936796
 10
263.8775167994
 20
451.5404585502
 10
263.9683691792
 20
451.358604779
 10
264.0358714394
 20
451.1511508129
 10
264.0774456791
 20
450.9260389707
 10
264.091482573
 20
450.6919268272
  0
LINE
  5
1BC
330
1F
100
AcDbEntity
  8
0
  6
Continuous
 62
     7
370
    15
100
AcDbLine
 10
264.091482573
 20
450.6919268272
 30
0.0
 11
263.1394622854
 21
450.6919268272
 31
0.0
  0
LINE
  5
1BD
330
1F
100
AcDbEntity
  8
0
  6
Continuous
 62
     7
370
    15
100
AcDbLine
 10
264.091482573
 20
450.6919268272
 30
0.0
 11
264.091482573
 21
440.0919262073
 31
0.0
  0
LINE
  5
1BE
330
1F
100
AcDbEntity
  8
0
  6
Continuous
 62
     7
370
    15
100
AcDbLine
 10
263.1394622854
 20
440.0919262073
 30
0.0
 11
264.091482573
 21
440.0919262073
 31
0.0
  0
LINE
  5
1BF
330
1F
100
AcDbEntity
  8
0
  6
Continuous
 62
     7
370
    15
100
AcDbLine
 10
263.3609680466
 20
438.8919207952
 30
0.0
 11
262.4089477591
 21
438.8919207952
 31
0.0
  0
LWPOLYLINE
  5
1C0
330
1F
100
AcDbEntity
  8
0
  6
Continuous
 62
     7
370
    15
100
AcDbPolyline
 90
        9
 70
   128
 43
0.0
 10
264.091482573
 20
440.0919262073
 10
264.0774456791
 20
439.8578140638
 10
264.0358714394
 20
439.6327022216
 10
263.9683691792
 20
439.4252333543
 10
263.8775167994
 20
439.2433944843
 10
263.7668160729
 20
439.0941593549
 10
263.6405287317
 20
438.9832649133
 10
263.5034827522
 20
438.9149877927
 10
263.3609680466
 20
438.8919207952
  0
LINE
  5
1C1
330
1F
100
AcDbEntity
  8
0
  6
Continuous
 62
     7
370
    15
100
AcDbLine
 10
259.1113505892
 20
81.8919274709
 30
0.0
 11
259.6899626784
 21
81.8919274709
 31
0.0
  0
LINE
  5
1C2
330
1F
100
AcDbEntity
  8
0
  6
Continuous
 62
     7
370
    15
100
AcDbLine
 10
259.6899626784
 20
68.891930928
 30
0.0
 11
259.1113505892
 21
68.891930928
 31
0.0
  0
LINE
  5
1C3
330
1F
100
AcDbEntity
  8
0
  6
Continuous
 62
     7
370
    15
100
AcDbLine
 10
259.1113505892
 20
451.8919173381
 30
0.0
 11
259.6899626784
 21
451.8919173381
 31
0.0
  0
LINE
  5
1C4
330
1F
100
AcDbEntity
  8
0
  6
Continuous
 62
     7
370
    15
100
AcDbLine
 10
259.6899626784
 20
438.8919207952
 30
0.0
 11
259.1113505892
 21
438.8919207952
 31
0.0
  0
LINE
  5
1C5
330
1F
100
AcDbEntity
  8
0
  6
Continuous
 62
     7
370
    15
100
AcDbLine
 10
269.2113576464
 20
68.4919241569
 30
0.0
 11
270.0113562874
 21
68.4919241569
 31
0.0
  0
LINE
  5
1C6
330
1F
100
AcDbEntity
  8
0
  6
Continuous
 62
     7
370
    15
100
AcDbLine
 10
270.0113562874
 20
68.4919241569
 30
0.0
 11
270.0113562874
 21
69.9919197461
 31
0.0
  0
LINE
  5
1C7
330
1F
100
AcDbEntity
  8
0
  6
Continuous
 62
     7
370
    15
100
AcDbLine
 10
270.0113562874
 20
69.9919197461
 30
0.0
 11
271.5113518767
 21
69.9919197461
 31
0.0
  0
LINE
  5
1C8
330
1F
100
AcDbEntity
  8
0
  6
Continuous
 62
     7
370
    15
100
AcDbLine
 10
271.5113518767
 20
69.9919197461
 30
0.0
 11
271.5113518767
 21
70.7919183872
 31
0.0
  0
LINE
  5
1C9
330
1F
100
AcDbEntity
  8
0
  6
Continuous
 62
     7
370
    15
100
AcDbLine
 10
271.5113518767
 20
70.7919183872
 30
0.0
 11
270.0113562874
 21
70.7919183872
 31
0.0
  0
LINE
  5
1CA
330
1F
100
AcDbEntity
  8
0
  6
Continuous
 62
     7
370
    15
100
AcDbLine
 10
270.0113562874
 20
70.7919183872
 30
0.0
 11
270.0113562874
 21
72.2919288776
 31
0.0
  0
LINE
  5
1CB
330
1F
100
AcDbEntity
  8
0
  6
Continuous
 62
     7
370
    15
100
AcDbLine
 10
270.0113562874
 20
72.2919288776
 30
0.0
 11
269.2113576464
 21
72.2919288776
 31
0.0
  0
LINE
  5
1CC
330
1F
100
AcDbEntity
  8
0
  6
Continuous
 62
     7
370
    15
100
AcDbLine
 10
269.2113576464
 20
72.2919288776
 30
0.0
 11
269.2113576464
 21
70.7919183872
 31
0.0
  0
LINE
  5
1CD
330
1F
100
AcDbEntity
  8
0
  6
Continuous
 62
     7
370
    15
100
AcDbLine
 10
269.2113576464
 20
70.7919183872
 30
0.0
 11
267.711347156
 21
70.7919183872
 31
0.0
  0
LINE
  5
1CE
330
1F
100
AcDbEntity
  8
0
  6
Continuous
 62
     7
370
    15
100
AcDbLine
 10
267.711347156
 20
70.7919183872
 30
0.0
 11
267.711347156
 21
69.9919197461
 31
0.0
  0
LINE
  5
1CF
330
1F
100
AcDbEntity
  8
0
  6
Continuous
 62
     7
370
    15
100
AcDbLine
 10
267.711347156
 20
69.9919197461
 30
0.0
 11
269.2113576464
 21
69.9919197461
 31
0.0
  0
LINE
  5
1D0
330
1F
100
AcDbEntity
  8
0
  6
Continuous
 62
     7
370
    15
100
AcDbLine
 10
269.2113576464
 20
69.9919197461
 30
0.0
 11
269.2113576464
 21
68.4919241569
 31
0.0
  0
CIRCLE
  5
1D1
330
1F
100
AcDbEntity
  8
0
  6
Continuous
 62
     7
370
    15
100
AcDbCircle
 10
269.6113539986
 20
70.391924133
 30
0.0
 40
3.0
  0
CIRCLE
  5
1D2
330
1F
100
AcDbEntity
  8
0
  6
Continuous
 62
     7
370
    15
100
AcDbCircle
 10
269.6113539986
 20
80.3919241331
 30
0.0
 40
3.0
  0
LINE
  5
1D3
330
1F
100
AcDbEntity
  8
0
  6
Continuous
 62
     7
370
    15
100
AcDbLine
 10
269.2113576464
 20
80.7919237516
 30
0.0
 11
267.711347156
 21
80.7919237516
 31
0.0
  0
LINE
  5
1D4
330
1F
100
AcDbEntity
  8
0
  6
Continuous
 62
     7
370
    15
100
AcDbLine
 10
267.711347156
 20
79.9919251106
 30
0.0
 11
269.2113576464
 21
79.9919251106
 31
0.0
  0
LINE
  5
1D5
330
1F
100
AcDbEntity
  8
0
  6
Continuous
 62
     7
370
    15
100
AcDbLine
 10
269.2113576464
 20
79.9919251106
 30
0.0
 11
269.2113576464
 21
78.4919295213
 31
0.0
  0
LINE
  5
1D6
330
1F
100
AcDbEntity
  8
0
  6
Continuous
 62
     7
370
    15
100
AcDbLine
 10
269.2113576464
 20
78.4919295213
 30
0.0
 11
270.0113562874
 21
78.4919295213
 31
0.0
  0
LINE
  5
1D7
330
1F
100
AcDbEntity
  8
0
  6
Continuous
 62
     7
370
    15
100
AcDbLine
 10
270.0113562874
 20
78.4919295213
 30
0.0
 11
270.0113562874
 21
79.9919251106
 31
0.0
  0
LINE
  5
1D8
330
1F
100
AcDbEntity
  8
0
  6
Continuous
 62
     7
370
    15
100
AcDbLine
 10
270.0113562874
 20
79.9919251106
 30
0.0
 11
271.5113518767
 21
79.9919251106
 31
0.0
  0
LINE
  5
1D9
330
1F
100
AcDbEntity
  8
0
  6
Continuous
 62
     7
370
    15
100
AcDbLine
 10
271.5113518767
 20
79.9919251106
 30
0.0
 11
271.5113518767
 21
80.7919237516
 31
0.0
  0
LINE
  5
1DA
330
1F
100
AcDbEntity
  8
0
  6
Continuous
 62
     7
370
    15
100
AcDbLine
 10
271.5113518767
 20
80.7919237516
 30
0.0
 11
270.0113562874
 21
80.7919237516
 31
0.0
  0
LINE
  5
1DB
330
1F
100
AcDbEntity
  8
0
  6
Continuous
 62
     7
370
    15
100
AcDbLine
 10
270.0113562874
 20
80.7919237516
 30
0.0
 11
270.0113562874
 21
82.2919193408
 31
0.0
  0
LINE
  5
1DC
330
1F
100
AcDbEntity
  8
0
  6
Continuous
 62
     7
370
    15
100
AcDbLine
 10
270.0113562874
 20
82.2919193408
 30
0.0
 11
269.2113576464
 21
82.2919193408
 31
0.0
  0
LINE
  5
1DD
330
1F
100
AcDbEntity
  8
0
  6
Continuous
 62
     7
370
    15
100
AcDbLine
 10
269.2113576464
 20
82.2919193408
 30
0.0
 11
269.2113576464
 21
80.7919237516
 31
0.0
  0
LINE
  5
1DE
330
1F
100
AcDbEntity
  8
0
  6
Continuous
 62
     7
370
    15
100
AcDbLine
 10
267.711347156
 20
80.7919237516
 30
0.0
 11
267.711347156
 21
79.9919251106
 31
0.0
  0
LINE
  5
1DF
330
1F
100
AcDbEntity
  8
0
  6
Continuous
 62
     7
370
    15
100
AcDbLine
 10
269.2113576464
 20
438.4919289253
 30
0.0
 11
270.0113562874
 21
438.4919289253
 31
0.0
  0
LINE
  5
1E0
330
1F
100
AcDbEntity
  8
0
  6
Continuous
 62
     7
370
    15
100
AcDbLine
 10
270.0113562874
 20
438.4919289253
 30
0.0
 11
270.0113562874
 21
439.9919245145
 31
0.0
  0
LINE
  5
1E1
330
1F
100
AcDbEntity
  8
0
  6
Continuous
 62
     7
370
    15
100
AcDbLine
 10
270.0113562874
 20
439.9919245145
 30
0.0
 11
271.5113518767
 21
439.9919245145
 31
0.0
  0
LINE
  5
1E2
330
1F
100
AcDbEntity
  8
0
  6
Continuous
 62
     7
370
    15
100
AcDbLine
 10
271.5113518767
 20
439.9919245145
 30
0.0
 11
271.5113518767
 21
440.7919231555
 31
0.0
  0
LINE
  5
1E3
330
1F
100
AcDbEntity
  8
0
  6
Continuous
 62
     7
370
    15
100
AcDbLine
 10
271.5113518767
 20
440.7919231555
 30
0.0
 11
270.0113562874
 21
440.7919231555
 31
0.0
  0
LINE
  5
1E4
330
1F
100
AcDbEntity
  8
0
  6
Continuous
 62
     7
370
    15
100
AcDbLine
 10
270.0113562874
 20
440.7919231555
 30
0.0
 11
270.0113562874
 21
442.2919187448
 31
0.0
  0
LINE
  5
1E5
330
1F
100
AcDbEntity
  8
0
  6
Continuous
 62
     7
370
    15
100
AcDbLine
 10
270.0113562874
 20
442.2919187448
 30
0.0
 11
269.2113576464
 21
442.2919187448
 31
0.0
  0
LINE
  5
1E6
330
1F
100
AcDbEntity
  8
0
  6
Continuous
 62
     7
370
    15
100
AcDbLine
 10
269.2113576464
 20
442.2919187448
 30
0.0
 11
269.2113576464
 21
440.7919231555
 31
0.0
  0
LINE
  5
1E7
330
1F
100
AcDbEntity
  8
0
  6
Continuous
 62
     7
370
    15
100
AcDbLine
 10
267.711347156
 20
440.7919231555
 30
0.0
 11
267.711347156
 21
439.9919245145
 31
0.0
  0
LINE
  5
1E8
330
1F
100
AcDbEntity
  8
0
  6
Continuous
 62
     7
370
    15
100
AcDbLine
 10
267.711347156
 20
439.9919245145
 30
0.0
 11
269.2113576464
 21
439.9919245145
 31
0.0
  0
LINE
  5
1E9
330
1F
100
AcDbEntity
  8
0
  6
Continuous
 62
     7
370
    15
100
AcDbLine
 10
269.2113576464
 20
439.9919245145
 30
0.0
 11
269.2113576464
 21
438.4919289253
 31
0.0
  0
CIRCLE
  5
1EA
330
1F
100
AcDbEntity
  8
0
  6
Continuous
 62
     7
370
    15
100
AcDbCircle
 10
269.6113539986
 20
440.391924133
 30
0.0
 40
3.0
  0
LINE
  5
1EB
330
1F
100
AcDbEntity
  8
0
  6
Continuous
 62
     7
370
    15
100
AcDbLine
 10
269.2113576464
 20
440.7919231555
 30
0.0
 11
267.711347156
 21
440.7919231555
 31
0.0
  0
LINE
  5
1EC
330
1F
100
AcDbEntity
  8
0
  6
Continuous
 62
     7
370
    15
100
AcDbLine
 10
267.711347156
 20
450.79192852
 30
0.0
 11
267.711347156
 21
449.9919298789
 31
0.0
  0
LINE
  5
1ED
330
1F
100
AcDbEntity
  8
0
  6
Continuous
 62
     7
370
    15
100
AcDbLine
 10
267.711347156
 20
449.9919298789
 30
0.0
 11
269.2113576464
 21
449.9919298789
 31
0.0
  0
LINE
  5
1EE
330
1F
100
AcDbEntity
  8
0
  6
Continuous
 62
     7
370
    15
100
AcDbLine
 10
269.2113576464
 20
449.9919298789
 30
0.0
 11
269.2113576464
 21
448.4919193885
 31
0.0
  0
LINE
  5
1EF
330
1F
100
AcDbEntity
  8
0
  6
Continuous
 62
     7
370
    15
100
AcDbLine
 10
269.2113576464
 20
448.4919193885
 30
0.0
 11
270.0113562874
 21
448.4919193885
 31
0.0
  0
LINE
  5
1F0
330
1F
100
AcDbEntity
  8
0
  6
Continuous
 62
     7
370
    15
100
AcDbLine
 10
270.0113562874
 20
448.4919193885
 30
0.0
 11
270.0113562874
 21
449.9919298789
 31
0.0
  0
LINE
  5
1F1
330
1F
100
AcDbEntity
  8
0
  6
Continuous
 62
     7
370
    15
100
AcDbLine
 10
270.0113562874
 20
449.9919298789
 30
0.0
 11
271.5113518767
 21
449.9919298789
 31
0.0
  0
LINE
  5
1F2
330
1F
100
AcDbEntity
  8
0
  6
Continuous
 62
     7
370
    15
100
AcDbLine
 10
271.5113518767
 20
449.9919298789
 30
0.0
 11
271.5113518767
 21
450.79192852
 31
0.0
  0
LINE
  5
1F3
330
1F
100
AcDbEntity
  8
0
  6
Continuous
 62
     7
370
    15
100
AcDbLine
 10
271.5113518767
 20
450.79192852
 30
0.0
 11
270.0113562874
 21
450.79192852
 31
0.0
  0
LINE
  5
1F4
330
1F
100
AcDbEntity
  8
0
  6
Continuous
 62
     7
370
    15
100
AcDbLine
 10
270.0113562874
 20
450.79192852
 30
0.0
 11
270.0113562874
 21
452.2919241092
 31
0.0
  0
LINE
  5
1F5
330
1F
100
AcDbEntity
  8
0
  6
Continuous
 62
     7
370
    15
100
AcDbLine
 10
270.0113562874
 20
452.2919241092
 30
0.0
 11
269.2113576464
 21
452.2919241092
 31
0.0
  0
LINE
  5
1F6
330
1F
100
AcDbEntity
  8
0
  6
Continuous
 62
     7
370
    15
100
AcDbLine
 10
269.2113576464
 20
452.2919241092
 30
0.0
 11
269.2113576464
 21
450.79192852
 31
0.0
  0
CIRCLE
  5
1F7
330
1F
100
AcDbEntity
  8
0
  6
Continuous
 62
     7
370
    15
100
AcDbCircle
 10
269.6113539986
 20
450.3919241331
 30
0.0
 40
3.0
  0
LINE
  5
1F8
330
1F
100
AcDbEntity
  8
0
  6
Continuous
 62
     7
370
    15
100
AcDbLine
 10
269.2113576464
 20
450.79192852
 30
0.0
 11
267.711347156
 21
450.79192852
 31
0.0
  0
LINE
  5
1F9
330
1F
100
AcDbEntity
  8
0
  6
Continuous
 62
     7
370
    15
100
AcDbLine
 10
268.5935853056
 20
64.2900351188
 30
0.0
 11
263.6113522581
 21
68.891930928
 31
0.0
  0
LINE
  5
1FA
330
1F
100
AcDbEntity
  8
0
  6
Continuous
 62
     7
370
    15
100
AcDbLine
 10
263.6113522581
 20
81.8919274709
 30
0.0
 11
268.5935853056
 21
86.4938083789
 31
0.0
  0
ARC
  5
1FB
330
1F
100
AcDbEntity
  8
0
  6
Continuous
 62
     7
370
    15
100
AcDbCircle
 10
259.1113539986
 20
75.3919241331
 30
0.0
 40
16.00000000000014
100
AcDbArc
 50
316.3971810272
 51
43.6028189726
  0
ARC
  5
1FC
330
1F
100
AcDbEntity
  8
0
  6
Continuous
 62
     7
370
    15
100
AcDbCircle
 10
269.6113539986
 20
65.391924133
 30
0.0
 40
1.500000000000157
100
AcDbArc
 50
227.2726046868
 51
316.3971810272
  0
ARC
  5
1FD
330
1F
100
AcDbEntity
  8
0
  6
Continuous
 62
     7
370
    15
100
AcDbCircle
 10
269.6113539986
 20
85.391924133
 30
0.0
 40
1.499999999999978
100
AcDbArc
 50
43.6028189726
 51
132.7273953127
  0
LINE
  5
1FE
330
1F
100
AcDbEntity
  8
0
  6
Continuous
 62
     7
370
    15
100
AcDbLine
 10
263.4103504948
 20
81.8919274709
 30
0.0
 11
263.6113522581
 21
81.8919274709
 31
0.0
  0
LINE
  5
1FF
330
1F
100
AcDbEntity
  8
0
  6
Continuous
 62
     7
370
    15
100
AcDbLine
 10
263.6113522581
 20
68.891930928
 30
0.0
 11
263.4103504948
 21
68.891930928
 31
0.0
  0
ARC
  5
200
330
1F
100
AcDbEntity
  8
0
  6
Continuous
 62
     7
370
    15
100
AcDbCircle
 10
269.6113539986
 20
455.391924133
 30
0.0
 40
1.499999999999988
100
AcDbArc
 50
43.6028189726
 51
132.7273953127
  0
ARC
  5
201
330
1F
100
AcDbEntity
  8
0
  6
Continuous
 62
     7
370
    15
100
AcDbCircle
 10
259.1113539986
 20
445.3919241331
 30
0.0
 40
16.0000000000001
100
AcDbArc
 50
316.3971810272
 51
43.6028189726
  0
ARC
  5
202
330
1F
100
AcDbEntity
  8
0
  6
Continuous
 62
     7
370
    15
100
AcDbCircle
 10
269.6113539986
 20
435.391924133
 30
0.0
 40
1.500000000000261
100
AcDbArc
 50
227.2726046868
 51
316.3971810272
  0
LINE
  5
203
330
1F
100
AcDbEntity
  8
0
  6
Continuous
 62
     7
370
    15
100
AcDbLine
 10
268.5935853056
 20
434.2900398872
 30
0.0
 11
263.6113522581
 21
438.8919207952
 31
0.0
  0
LINE
  5
204
330
1F
100
AcDbEntity
  8
0
  6
Continuous
 62
     7
370
    15
100
AcDbLine
 10
263.6113522581
 20
451.8919173381
 30
0.0
 11
268.5935853056
 21
456.4938131473
 31
0.0
  0
LINE
  5
205
330
1F
100
AcDbEntity
  8
0
  6
Continuous
 62
     7
370
    15
100
AcDbLine
 10
263.4103504948
 20
451.8919173381
 30
0.0
 11
263.6113522581
 21
451.8919173381
 31
0.0
  0
LINE
  5
206
330
1F
100
AcDbEntity
  8
0
  6
Continuous
 62
     7
370
    15
100
AcDbLine
 10
263.6113522581
 20
438.8919207952
 30
0.0
 11
263.4103504948
 21
438.8919207952
 31
0.0
  0
LINE
  5
207
330
1F
100
AcDbEntity
  8
0
  6
Continuous
 62
     7
370
    15
100
AcDbLine
 10
271.6113535694
 20
25.3919247291
 30
0.0
 11
271.6113535694
 21
65.4044333598
 31
0.0
  0
LINE
  5
208
330
1F
100
AcDbEntity
  8
0
  6
Continuous
 62
     7
370
    15
100
AcDbLine
 10
266.6113583378
 20
25.3919247291
 30
0.0
 11
271.6113535694
 21
25.3919247291
 31
0.0
  0
LINE
  5
209
330
1F
100
AcDbEntity
  8
0
  6
Continuous
 62
     7
370
    15
100
AcDbLine
 10
266.6113583378
 20
25.3919247291
 30
0.0
 11
266.6113583378
 21
66.1209407947
 31
0.0
  0
LINE
  5
20A
330
1F
100
AcDbEntity
  8
0
  6
Continuous
 62
     7
370
    15
100
AcDbLine
 10
266.6113583378
 20
10.3919241331
 30
0.0
 11
271.6113535694
 21
10.3919241331
 31
0.0
  0
LINE
  5
20B
330
1F
100
AcDbEntity
  8
0
  6
Continuous
 62
     7
370
    15
100
AcDbLine
 10
266.6113583378
 20
25.3919247291
 30
0.0
 11
266.6113583378
 21
10.3919241331
 31
0.0
  0
LINE
  5
20C
330
1F
100
AcDbEntity
  8
0
  6
Continuous
 62
     7
370
    15
100
AcDbLine
 10
271.6113535694
 20
25.3919247291
 30
0.0
 11
271.6113535694
 21
10.3919241331
 31
0.0
  0
LINE
  5
20D
330
1F
100
AcDbEntity
  8
0
  6
Continuous
 62
     7
370
    15
100
AcDbLine
 10
271.6113535694
 20
85.3794101379
 30
0.0
 11
271.6113535694
 21
435.4044381282
 31
0.0
  0
LINE
  5
20E
330
1F
100
AcDbEntity
  8
0
  6
Continuous
 62
     7
370
    15
100
AcDbLine
 10
266.6113583378
 20
84.662902703
 30
0.0
 11
266.6113583378
 21
436.1209455631
 31
0.0
  0
LINE
  5
20F
330
1F
100
AcDbEntity
  8
0
  6
Continuous
 62
     7
370
    15
100
AcDbLine
 10
271.6113535694
 20
25.3919247291
 30
0.0
 11
286.6113541655
 21
25.3919247291
 31
0.0
  0
ARC
  5
210
330
1F
100
AcDbEntity
  8
0
  6
Continuous
 62
     7
370
    15
100
AcDbCircle
 10
271.6113539986
 20
25.3919241331
 30
0.0
 40
15.00000000000001
100
AcDbArc
 50
270.0
 51
0.0
  0
LINE
  5
211
330
1F
100
AcDbEntity
  8
0
  6
Continuous
 62
     7
370
    15
100
AcDbLine
 10
271.6113535694
 20
455.3794149063
 30
0.0
 11
271.6113535694
 21
495.391923537
 31
0.0
  0
LINE
  5
212
330
1F
100
AcDbEntity
  8
0
  6
Continuous
 62
     7
370
    15
100
AcDbLine
 10
271.6113535694
 20
495.391923537
 30
0.0
 11
286.6113541655
 21
495.391923537
 31
0.0
  0
LINE
  5
213
330
1F
100
AcDbEntity
  8
0
  6
Continuous
 62
     7
370
    15
100
AcDbLine
 10
286.6113541655
 20
25.3919247291
 30
0.0
 11
286.6113541655
 21
495.391923537
 31
0.0
  0
LINE
  5
214
330
1F
100
AcDbEntity
  8
0
  6
Continuous
 62
     7
370
    15
100
AcDbLine
 10
266.6113583378
 20
495.391923537
 30
0.0
 11
271.6113535694
 21
495.391923537
 31
0.0
  0
LINE
  5
215
330
1F
100
AcDbEntity
  8
0
  6
Continuous
 62
     7
370
    15
100
AcDbLine
 10
266.6113583378
 20
454.6629074714
 30
0.0
 11
266.6113583378
 21
495.391923537
 31
0.0
  0
LINE
  5
216
330
1F
100
AcDbEntity
  8
0
  6
Continuous
 62
     7
370
    15
100
AcDbLine
 10
266.6113583378
 20
510.3919241331
 30
0.0
 11
271.6113535694
 21
510.3919241331
 31
0.0
  0
LINE
  5
217
330
1F
100
AcDbEntity
  8
0
  6
Continuous
 62
     7
370
    15
100
AcDbLine
 10
271.6113535694
 20
495.391923537
 30
0.0
 11
271.6113535694
 21
510.3919241331
 31
0.0
  0
LINE
  5
218
330
1F
100
AcDbEntity
  8
0
  6
Continuous
 62
     7
370
    15
100
AcDbLine
 10
266.6113583378
 20
495.391923537
 30
0.0
 11
266.6113583378
 21
510.3919241331
 31
0.0
  0
ARC
  5
219
330
1F
100
AcDbEntity
  8
0
  6
Continuous
 62
     7
370
    15
100
AcDbCircle
 10
271.6113539986
 20
495.3919241331
 30
0.0
 40
15.00000000000006
100
AcDbArc
 50
0.0
 51
90.0
  0
SPLINE
  5
21A
330
1F
100
AcDbEntity
  8
0
  6
Continuous
 62
     7
370
    15
100
AcDbSpline
210
0.0
220
0.0
230
1.0
 70
     8
 71
     3
 72
    16
 73
    12
 74
     0
 42
0.00000001
 43
0.00000001
 40
0.0
 40
0.0
 40
0.0
 40
0.0
 40
0.1207042738131959
 40
0.2414114487279889
 40
0.3621184358952553
 40
0.482825450066651
 40
0.6035322349032569
 40
0.7242361879552779
 40
0.8449443239516976
 40
0.9656514163186455
 40
1.0
 40
1.0
 40
1.0
 40
1.0
 10
244.7636557749934
 20
432.4395540854811
 30
0.0
 10
244.7830567918452
 20
432.4422236344691
 30
0.0
 10
244.8218592918481
 20
432.4475627966071
 30
0.0
 10
244.8267805363807
 20
432.7385120653544
 30
0.0
 10
244.7895705392021
 20
433.1918495035515
 30
0.0
 10
244.7126540174644
 20
433.7593869465729
 30
0.0
 10
244.608842405348
 20
434.3477058215263
 30
0.0
 10
244.4927286116589
 20
434.8744078461124
 30
0.0
 10
244.3857367314551
 20
435.237680620922
 30
0.0
 10
244.3131607160798
 20
435.4081678938173
 30
0.0
 10
244.2936085796527
 20
435.3750078208384
 30
0.0
 10
244.2892773083872
 20
435.3676620623946
 30
0.0
  0
SPLINE
  5
21B
330
1F
100
AcDbEntity
  8
0
  6
Continuous
 62
     7
370
    15
100
AcDbSpline
210
0.0
220
0.0
230
1.0
 70
     8
 71
     3
 72
    16
 73
    12
 74
     0
 42
0.00000001
 43
0.00000001
 40
0.0
 40
0.0
 40
0.0
 40
0.0
 40
0.1205801483811449
 40
0.2411630477309974
 40
0.3617456807763471
 40
0.4823257381238166
 40
0.6029082655695367
 40
0.7234903428186109
 40
0.8440742200332403
 40
0.9646532627467798
 40
1.0
 40
1.0
 40
1.0
 40
1.0
 10
244.9342368177599
 20
458.3155695102096
 30
0.0
 10
244.953642119853
 20
458.3128999536946
 30
0.0
 10
244.9924531667603
 20
458.3075607797601
 30
0.0
 10
244.9973548629402
 20
458.016612096602
 30
0.0
 10
244.960165904667
 20
457.5632757934987
 30
0.0
 10
244.8832314969964
 20
456.9957508484819
 30
0.0
 10
244.7794185289807
 20
456.4074187111271
 30
0.0
 10
244.6633278216642
 20
455.8807606213439
 30
0.0
 10
244.5563002207721
 20
455.517283377509
 30
0.0
 10
244.4835449746501
 20
455.346749189236
 30
0.0
 10
244.4638954578081
 20
455.3803267010552
 30
0.0
 10
244.4594411186404
 20
455.3879383704543
 30
0.0
  0
SPLINE
  5
21C
330
1F
100
AcDbEntity
  8
0
  6
Continuous
 62
     7
370
    15
100
AcDbSpline
210
0.0
220
0.0
230
1.0
 70
     8
 71
     3
 72
    16
 73
    12
 74
     0
 42
0.00000001
 43
0.00000001
 40
0.0
 40
0.0
 40
0.0
 40
0.0
 40
0.1205146181080734
 40
0.2410321327594094
 40
0.3615494599582157
 40
0.4820666181018546
 40
0.6025840090478344
 40
0.7230980118941867
 40
0.843616765466996
 40
0.9641308510853926
 40
1.0
 40
1.0
 40
1.0
 40
1.0
 10
260.3046206764407
 20
435.0559744737029
 30
0.0
 10
260.3240216072713
 20
435.0586440384761
 30
0.0
 10
260.36282393523
 20
435.0639832321847
 30
0.0
 10
260.3677464701176
 20
435.3549322641469
 30
0.0
 10
260.3305315897489
 20
435.8082703563523
 30
0.0
 10
260.2536334085372
 20
436.375804453622
 30
0.0
 10
260.1497972976985
 20
436.9641412165065
 30
0.0
 10
260.0337199367614
 20
437.4907666246215
 30
0.0
 10
259.9266506622317
 20
437.8543329364125
 30
0.0
 10
259.8538393714402
 20
438.0249400497025
 30
0.0
 10
259.8341236054429
 20
437.991123576848
 30
0.0
 10
259.8296014599032
 20
437.983367194879
 30
0.0
  0
SPLINE
  5
21D
330
1F
100
AcDbEntity
  8
0
  6
Continuous
 62
     7
370
    15
100
AcDbSpline
210
0.0
220
0.0
230
1.0
 70
     8
 71
     3
 72
    16
 73
    12
 74
     0
 42
0.00000001
 43
0.00000001
 40
0.0
 40
0.0
 40
0.0
 40
0.0
 40
0.1205177926098628
 40
0.2410324289708117
 40
0.3615495976652971
 40
0.482065037636789
 40
0.6025819797007232
 40
0.7230984964308508
 40
0.8436147687564395
 40
0.9641311569369505
 40
0.9999999999999999
 40
0.9999999999999999
 40
0.9999999999999999
 40
0.9999999999999999
 10
260.4752091697878
 20
455.699164023149
 30
0.0
 10
260.4946102804177
 20
455.6964897527355
 30
0.0
 10
260.5334119935805
 20
455.6911412819452
 30
0.0
 10
260.5383330417053
 20
455.4001880857196
 30
0.0
 10
260.5011274331942
 20
454.9468525342667
 30
0.0
 10
260.4241955966024
 20
454.3793352188625
 30
0.0
 10
260.3203915152707
 20
453.7909916084527
 30
0.0
 10
260.2043067703088
 20
453.264366616003
 30
0.0
 10
260.0972484930882
 20
452.9007767702337
 30
0.0
 10
260.0243972352766
 20
452.7301998086077
 30
0.0
 10
260.0047063059109
 20
452.7640153083649
 30
0.0
 10
260.0001899532504
 20
452.7717713019729
 30
0.0
  0
SPLINE
  5
21E
330
1F
100
AcDbEntity
  8
0
  6
Continuous
 62
     7
370
    15
100
AcDbSpline
210
0.0
220
0.0
230
1.0
 70
    24
 71
     3
 72
    16
 73
    12
 74
     0
 42
0.00000001
 43
0.00000001
 40
0.0
 40
0.0
 40
0.0
 40
0.0
 40
0.0611071491295778
 40
0.1864711554396543
 40
0.3118333742869777
 40
0.4371957719142286
 40
0.5625572265557508
 40
0.6879224398113394
 40
0.8132846586586627
 40
0.9386470562859137
 40
1.0
 40
1.0
 40
1.0
 40
1.0
 10
263.3815465501971
 20
438.5256949565292
 30
0.0
 10
263.3873132079495
 20
438.5256949565291
 30
0.0
 10
263.4049104179231
 20
438.5256949565291
 30
0.0
 10
263.186519311514
 20
438.525694956529
 30
0.0
 10
262.7737432584778
 20
438.5256949565292
 30
0.0
 10
262.2172909203791
 20
438.525694956529
 30
0.0
 10
261.6181839683988
 20
438.525694956529
 30
0.0
 10
261.0594776348061
 20
438.5256949565291
 30
0.0
 10
260.6425391427809
 20
438.5256949565291
 30
0.0
 10
260.4195477820838
 20
438.5256949565291
 30
0.0
 10
260.4343455529501
 20
438.5256949565291
 30
0.0
 10
260.4392079643435
 20
438.5256949565292
 30
0.0
  0
SPLINE
  5
21F
330
1F
100
AcDbEntity
  8
0
  6
Continuous
 62
     7
370
    15
100
AcDbSpline
210
0.0
220
0.0
230
1.0
 70
    24
 71
     3
 72
    16
 73
    12
 74
     0
 42
0.00000001
 43
0.00000001
 40
0.0
 40
0.0
 40
0.0
 40
0.0
 40
0.0610095893915384
 40
0.1861734476045528
 40
0.3113355212085618
 40
0.43649777330707
 40
0.5616590839253597
 40
0.6868241471569546
 40
0.8119862207609637
 40
0.9371484728594719
 40
1.0
 40
1.0
 40
1.0
 40
1.0
 10
263.3815465501971
 20
452.0843211314559
 30
0.0
 10
263.3873132017407
 20
452.0843211314559
 30
0.0
 10
263.4049103927676
 20
452.0843211314559
 30
0.0
 10
263.1865195447323
 20
452.0843211314559
 30
0.0
 10
262.7737424040137
 20
452.0843211314559
 30
0.0
 10
262.2172941050176
 20
452.0843211314559
 30
0.0
 10
261.6181720842572
 20
452.0843211314559
 30
0.0
 10
261.0595219877643
 20
452.0843211314559
 30
0.0
 10
260.6423736198333
 20
452.0843211314558
 30
0.0
 10
260.4188929334719
 20
452.0843211314559
 30
0.0
 10
260.4340959224276
 20
452.0843211314559
 30
0.0
 10
260.4391781620211
 20
452.0843211314559
 30
0.0
  0
SPLINE
  5
220
330
1F
100
AcDbEntity
  8
0
  6
Continuous
 62
     7
370
    15
100
AcDbSpline
210
0.0
220
0.0
230
1.0
 70
     8
 71
     3
 72
    19
 73
    15
 74
     0
 42
0.00000001
 43
0.00000001
 40
0.0
 40
0.0
 40
0.0
 40
0.0
 40
0.003954928517458
 40
0.1157672088822367
 40
0.2280459358041809
 40
0.3355207575953006
 40
0.4377102182766925
 40
0.5348860157013597
 40
0.6282995569216387
 40
0.7302915180829189
 40
0.8413280826380396
 40
0.9641213567352973
 40
0.9937658239335627
 40
1.0
 40
1.0
 40
1.0
 40
1.0
 10
249.7096268467135
 20
450.9919170043349
 30
0.0
 10
249.7100216358412
 20
450.9919150313731
 30
0.0
 10
249.7215777575798
 20
450.9918572795644
 30
0.0
 10
249.7448058136197
 20
450.9765828943717
 30
0.0
 10
249.7883079355173
 20
450.9097370899703
 30
0.0
 10
249.8262829432946
 20
450.8050250732084
 30
0.0
 10
249.849778797312
 20
450.679951300006
 30
0.0
 10
249.8611034074076
 20
450.5515148083793
 30
0.0
 10
249.8617128565595
 20
450.4303495622949
 30
0.0
 10
249.8459269203769
 20
450.3211084376541
 30
0.0
 10
249.8055481838445
 20
450.2317098962095
 30
0.0
 10
249.7536867867275
 20
450.196612186423
 30
0.0
 10
249.7189795931935
 20
450.1920577435667
 30
0.0
 10
249.7110113816173
 20
450.1919389964916
 30
0.0
 10
249.7096268467135
 20
450.1919183633208
 30
0.0
  0
SPLINE
  5
221
330
1F
100
AcDbEntity
  8
0
  6
Continuous
 62
     7
370
    15
100
AcDbSpline
210
0.0
220
0.0
230
1.0
 70
     8
 71
     3
 72
    30
 73
    26
 74
     0
 42
0.00000001
 43
0.00000001
 40
0.0
 40
0.0
 40
0.0
 40
0.0
 40
0.1247086616182521
 40
0.2494195867643993
 40
0.3741256091584044
 40
0.4367848295856032
 40
0.4681534882833752
 40
0.4838406697802528
 40
0.4916864310521751
 40
0.4956114192420822
 40
0.4975721316888587
 40
0.4985511495907321
 40
0.4990392811720276
 40
0.4992847223999398
 40
0.4994090210176326
 40
0.4994755756150559
 40
0.4995053397358666
 40
0.4995221768651956
 40
0.499540035337682
 40
0.5609207783918303
 40
0.6646221179092631
 40
0.7325855655939886
 40
0.8111481432910701
 40
0.9002984832037224
 40
1.0
 40
1.0
 40
1.0
 40
1.0
 10
249.7813312343783
 20
451.0518196723341
 30
0.0
 10
249.7870963210861
 20
451.0500285426886
 30
0.0
 10
249.7986265991409
 20
451.0464462508874
 30
0.0
 10
249.8884614058687
 20
451.0245862708001
 30
0.0
 10
249.995952008878
 20
450.9989406100427
 30
0.0
 10
250.0814959562261
 20
450.9784850499206
 30
0.0
 10
250.1256003513338
 20
450.9679811499546
 30
0.0
 10
250.1478247845439
 20
450.9626490602844
 30
0.0
 10
250.1589600075169
 20
450.9599919583387
 30
0.0
 10
250.1645308822885
 20
450.9586598611658
 30
0.0
 10
250.1673130655594
 20
450.9579797269332
 30
0.0
 10
250.1687022287381
 20
450.9576408612868
 30
0.0
 10
250.1694010457756
 20
450.9574906873051
 30
0.0
 10
250.1697483456451
 20
450.9574051971254
 30
0.0
 10
250.169924083543
 20
450.9573560659702
 30
0.0
 10
250.1700094730172
 20
450.9573223568658
 30
0.0
 10
250.1700638782141
 20
450.9573411726475
 30
0.0
 10
250.1700785387602
 20
450.9573114968554
 30
0.0
 10
250.1981154564493
 20
450.9631695491029
 30
0.0
 10
250.2598742678197
 20
450.9270364056198
 30
0.0
 10
250.3538067877158
 20
450.9191687958266
 30
0.0
 10
250.4366974022959
 20
450.8994132321873
 30
0.0
 10
250.5004241008972
 20
450.887230684864
 30
0.0
 10
250.5508738208297
 20
450.8773760576995
 30
0.0
 10
250.5581137837964
 20
450.87694414762
 30
0.0
 10
250.5619360140986
 20
450.8767161271452
 30
0.0
  0
ELLIPSE
  5
222
330
1F
100
AcDbEntity
  8
0
  6
Continuous
 62
     7
370
    15
100
AcDbEllipse
 10
250.4384623923
 20
452.1738993118
 30
0.0
 11
0.3906095144045594
 21
-0.0861638396116291
 31
0.0
210
0.0
220
0.0
230
1.0
 40
0.0142285888
 41
0.0
 42
6.283185307179586
  0
LINE
  5
223
330
1F
100
AcDbEntity
  8
0
  6
Continuous
 62
     7
370
    15
100
AcDbLine
 10
249.8222796253
 20
70.6919166944
 30
0.0
 11
249.8222796253
 21
79.2919281623
 31
0.0
  0
LINE
  5
224
330
1F
100
AcDbEntity
  8
0
  6
Continuous
 62
     7
370
    15
100
AcDbLine
 10
249.8222796253
 20
70.6919166944
 30
0.0
 11
244.3079857163
 21
70.6919166944
 31
0.0
  0
LINE
  5
225
330
1F
100
AcDbEntity
  8
0
  6
Continuous
 62
     7
370
    15
100
AcDbLine
 10
244.3079857163
 20
70.6919166944
 30
0.0
 11
244.3079857163
 21
79.2919281623
 31
0.0
  0
LINE
  5
226
330
1F
100
AcDbEntity
  8
0
  6
Continuous
 62
     7
370
    15
100
AcDbLine
 10
249.8222796253
 20
79.2919281623
 30
0.0
 11
244.3079857163
 21
79.2919281623
 31
0.0
  0
LINE
  5
227
330
1F
100
AcDbEntity
  8
0
  6
Continuous
 62
     7
370
    15
100
AcDbLine
 10
243.1937290363
 20
82.5919244192
 30
0.0
 11
218.3816192679
 21
82.5919244192
 31
0.0
  0
LINE
  5
228
330
1F
100
AcDbEntity
  8
0
  6
Continuous
 62
     7
370
    15
100
AcDbLine
 10
243.1937290363
 20
79.2919281623
 30
0.0
 11
243.1937290363
 21
82.5919244192
 31
0.0
  0
LINE
  5
229
330
1F
100
AcDbEntity
  8
0
  6
Continuous
 62
     7
370
    15
100
AcDbLine
 10
243.1937290363
 20
68.1919190786
 30
0.0
 11
243.1937290363
 21
70.6919166944
 31
0.0
  0
LINE
  5
22A
330
1F
100
AcDbEntity
  8
0
  6
Continuous
 62
     7
370
    15
100
AcDbLine
 10
218.3816192679
 20
68.1919190786
 30
0.0
 11
243.1937290363
 21
68.1919190786
 31
0.0
  0
LINE
  5
22B
330
1F
100
AcDbEntity
  8
0
  6
Continuous
 62
     7
370
    15
100
AcDbLine
 10
218.3816192679
 20
68.1919190786
 30
0.0
 11
218.3816192679
 21
82.5919244192
 31
0.0
  0
LINE
  5
22C
330
1F
100
AcDbEntity
  8
0
  6
Continuous
 62
     7
370
    15
100
AcDbLine
 10
243.1937290363
 20
70.6919166944
 30
0.0
 11
244.3079857163
 21
70.6919166944
 31
0.0
  0
LINE
  5
22D
330
1F
100
AcDbEntity
  8
0
  6
Continuous
 62
     7
370
    15
100
AcDbLine
 10
243.1937290363
 20
79.2919281623
 30
0.0
 11
244.3079857163
 21
79.2919281623
 31
0.0
  0
LINE
  5
22E
330
1F
100
AcDbEntity
  8
0
  6
Continuous
 62
     7
370
    15
100
AcDbLine
 10
243.3213574819
 20
67.3945728443
 30
0.0
 11
245.2135888867
 21
67.3945728443
 31
0.0
  0
LINE
  5
22F
330
1F
100
AcDbEntity
  8
0
  6
Continuous
 62
     7
370
    15
100
AcDbLine
 10
245.2135888867
 20
67.3945728443
 30
0.0
 11
245.8863390617
 21
67.3919204376
 31
0.0
  0
LINE
  5
230
330
1F
100
AcDbEntity
  8
0
  6
Continuous
 62
     7
370
    15
100
AcDbLine
 10
245.8863390617
 20
67.3919204376
 30
0.0
 11
218.5205427937
 21
67.3919204376
 31
0.0
  0
ARC
  5
231
330
1F
100
AcDbEntity
  8
0
  6
Continuous
 62
     7
370
    15
100
AcDbCircle
 10
219.6375945043
 20
67.997963402
 30
0.0
 40
1.270862934734449
100
AcDbArc
 50
171.2213661736
 51
208.4815118367
  0
ARC
  5
232
330
1F
100
AcDbEntity
  8
0
  6
Continuous
 62
     7
370
    15
100
AcDbCircle
 10
244.6679905741
 20
68.0190113701
 30
0.0
 40
1.484366584631168
100
AcDbArc
 50
173.310665776
 51
204.8773215644
  0
LINE
  5
233
330
1F
100
AcDbEntity
  8
0
  6
Continuous
 62
     7
370
    15
100
AcDbLine
 10
245.2135888867
 20
83.3892706535
 30
0.0
 11
243.3213574819
 21
83.3892706535
 31
0.0
  0
ARC
  5
234
330
1F
100
AcDbEntity
  8
0
  6
Continuous
 62
     7
370
    15
100
AcDbCircle
 10
244.6679620316
 20
82.7648366963
 30
0.0
 40
1.484338768683216
100
AcDbArc
 50
155.122374946
 51
186.6896377137
  0
ARC
  5
235
330
1F
100
AcDbEntity
  8
0
  6
Continuous
 62
     7
370
    15
100
AcDbCircle
 10
219.6375945043
 20
82.7858800957
 30
0.0
 40
1.270862934734449
100
AcDbArc
 50
151.5184881633
 51
188.7786338264
  0
LINE
  5
236
330
1F
100
AcDbEntity
  8
0
  6
Continuous
 62
     7
370
    15
100
AcDbLine
 10
218.5205427937
 20
83.3919230602
 30
0.0
 11
245.8863390617
 21
83.3919230602
 31
0.0
  0
LINE
  5
237
330
1F
100
AcDbEntity
  8
0
  6
Continuous
 62
     7
370
    15
100
AcDbLine
 10
245.8863390617
 20
83.3919230602
 30
0.0
 11
245.2135888867
 21
83.3892706535
 31
0.0
  0
LINE
  5
238
330
1F
100
AcDbEntity
  8
0
  6
Continuous
 62
     7
370
    15
100
AcDbLine
 10
243.3213574819
 20
67.3945728443
 30
0.0
 11
243.3213574819
 21
68.1919190786
 31
0.0
  0
LINE
  5
239
330
1F
100
AcDbEntity
  8
0
  6
Continuous
 62
     7
370
    15
100
AcDbLine
 10
243.3326525621
 20
70.6919166944
 30
0.0
 11
243.3326525621
 21
68.1919190786
 31
0.0
  0
LINE
  5
23A
330
1F
100
AcDbEntity
  8
0
  6
Continuous
 62
     7
370
    15
100
AcDbLine
 10
243.3213574819
 20
82.5919244192
 30
0.0
 11
243.3213574819
 21
83.3892706535
 31
0.0
  0
LINE
  5
23B
330
1F
100
AcDbEntity
  8
0
  6
Continuous
 62
     7
370
    15
100
AcDbLine
 10
243.3326525621
 20
82.5919244192
 30
0.0
 11
243.3326525621
 21
79.2919281623
 31
0.0
  0
LINE
  5
23C
330
1F
100
AcDbEntity
  8
0
  6
Continuous
 62
     7
370
    15
100
AcDbLine
 10
245.2135888867
 20
82.5919244192
 30
0.0
 11
245.2135888867
 21
83.3892706535
 31
0.0
  0
LINE
  5
23D
330
1F
100
AcDbEntity
  8
0
  6
Continuous
 62
     7
370
    15
100
AcDbLine
 10
249.3213547401
 20
83.3919230602
 30
0.0
 11
245.8863390617
 21
83.3919230602
 31
0.0
  0
LINE
  5
23E
330
1F
100
AcDbEntity
  8
0
  6
Continuous
 62
     7
370
    15
100
AcDbLine
 10
249.3213547401
 20
82.5919244192
 30
0.0
 11
245.2135888867
 21
82.5919244192
 31
0.0
  0
LINE
  5
23F
330
1F
100
AcDbEntity
  8
0
  6
Continuous
 62
     7
370
    15
100
AcDbLine
 10
249.3213547401
 20
67.3919204376
 30
0.0
 11
245.8863390617
 21
67.3919204376
 31
0.0
  0
LINE
  5
240
330
1F
100
AcDbEntity
  8
0
  6
Continuous
 62
     7
370
    15
100
AcDbLine
 10
245.2135888867
 20
67.3945728443
 30
0.0
 11
245.2135888867
 21
68.1919190786
 31
0.0
  0
LINE
  5
241
330
1F
100
AcDbEntity
  8
0
  6
Continuous
 62
     7
370
    15
100
AcDbLine
 10
249.3213547401
 20
68.1919190786
 30
0.0
 11
245.2135888867
 21
68.1919190786
 31
0.0
  0
LINE
  5
242
330
1F
100
AcDbEntity
  8
0
  6
Continuous
 62
     7
370
    15
100
AcDbLine
 10
243.3213574819
 20
68.1919190786
 30
0.0
 11
245.2135888867
 21
68.1919190786
 31
0.0
  0
LINE
  5
243
330
1F
100
AcDbEntity
  8
0
  6
Continuous
 62
     7
370
    15
100
AcDbLine
 10
243.3213574819
 20
82.5919244192
 30
0.0
 11
245.2135888867
 21
82.5919244192
 31
0.0
  0
LINE
  5
244
330
1F
100
AcDbEntity
  8
0
  6
Continuous
 62
     7
370
    15
100
AcDbLine
 10
244.3913577131
 20
83.6919281385
 30
0.0
 11
248.7913576893
 21
83.6919281385
 31
0.0
  0
LINE
  5
245
330
1F
100
AcDbEntity
  8
0
  6
Continuous
 62
     7
370
    15
100
AcDbLine
 10
244.4913519553
 20
66.9919285676
 30
0.0
 11
248.6913559965
 21
66.9919285676
 31
0.0
  0
LINE
  5
246
330
1F
100
AcDbEntity
  8
0
  6
Continuous
 62
     7
370
    15
100
AcDbLine
 10
244.4913519553
 20
66.5919217965
 30
0.0
 11
248.6913559965
 21
66.5919217965
 31
0.0
  0
ARC
  5
247
330
1F
100
AcDbEntity
  8
0
  6
Continuous
 62
     7
370
    15
100
AcDbCircle
 10
226.7872711584
 20
75.3919217489
 30
0.0
 40
16.90401408232909
100
AcDbArc
 50
154.7901718738
 51
205.2098281262
  0
SPLINE
  5
248
330
1F
100
AcDbEntity
  8
0
  6
Continuous
 62
     7
370
    15
100
AcDbSpline
210
0.0
220
0.0
230
1.0
 70
     8
 71
     3
 72
    12
 73
     8
 74
     0
 42
0.00000001
 43
0.00000001
 40
0.0
 40
0.0
 40
0.0
 40
0.0
 40
0.1818733417761793
 40
0.3633454216084013
 40
0.5550836161874682
 40
0.771267585233913
 40
1.0
 40
1.0
 40
1.0
 40
1.0
 10
211.6256712011523
 20
67.39192043756242
 30
0.0
 10
211.6495325505511
 20
67.39924413427151
 30
0.0
 10
211.6972026047371
 20
67.41387536962745
 30
0.0
 10
211.7119318619586
 20
67.52586242551543
 30
0.0
 10
211.6847159807858
 20
67.6952637610016
 30
0.0
 10
211.6130348372791
 20
67.92366908039271
 30
0.0
 10
211.5339529131705
 20
68.10083679656987
 30
0.0
 10
211.4932967356867
 20
68.19191907857652
 30
0.0
  0
LINE
  5
249
330
1F
100
AcDbEntity
  8
0
  6
Continuous
 62
     7
370
    15
100
AcDbLine
 10
211.2413106493
 20
68.1464258335
 30
0.0
 11
211.5957496695
 21
67.3919204376
 31
0.0
  0
ARC
  5
24A
330
1F
100
AcDbEntity
  8
0
  6
Continuous
 62
     7
370
    15
100
AcDbCircle
 10
226.5119393424
 20
75.3919217489
 30
0.0
 40
16.90234633834251
100
AcDbArc
 50
154.616938827
 51
205.383061173
  0
LINE
  5
24B
330
1F
100
AcDbEntity
  8
0
  6
Continuous
 62
     7
370
    15
100
AcDbLine
 10
211.5957496695
 20
83.3919230602
 30
0.0
 11
211.2413106493
 21
82.6374176643
 31
0.0
  0
SPLINE
  5
24C
330
1F
100
AcDbEntity
  8
0
  6
Continuous
 62
     7
370
    15
100
AcDbSpline
210
0.0
220
0.0
230
1.0
 70
     8
 71
     3
 72
    12
 73
     8
 74
     0
 42
0.00000001
 43
0.00000001
 40
0.0
 40
0.0
 40
0.0
 40
0.0
 40
0.2510252792808068
 40
0.502395842462116
 40
0.7402770312516813
 40
0.9473075742685327
 40
1.0
 40
1.0
 40
1.0
 40
1.0
 10
211.4932967356867
 20
82.59192441915269
 30
0.0
 10
211.5376142610757
 20
82.6918090040957
 30
0.0
 10
211.6263102703677
 20
82.89171556468273
 30
0.0
 10
211.7013061791647
 20
83.15044458449059
 30
0.0
 10
211.7127993118324
 20
83.32767745664863
 30
0.0
 10
211.6711535705769
 20
83.38813804165294
 30
0.0
 10
211.6333423224073
 20
83.39128467354934
 30
0.0
 10
211.6256712011523
 20
83.39192306016679
 30
0.0
  0
LINE
  5
24D
330
1F
100
AcDbEntity
  8
0
  6
Continuous
 62
     7
370
    15
100
AcDbLine
 10
211.6256712012
 20
67.3919204376
 30
0.0
 11
211.5957496695
 21
67.3919204376
 31
0.0
  0
LINE
  5
24E
330
1F
100
AcDbEntity
  8
0
  6
Continuous
 62
     7
370
    15
100
AcDbLine
 10
211.6256712012
 20
83.3919230602
 30
0.0
 11
211.5957496695
 21
83.3919230602
 31
0.0
  0
LINE
  5
24F
330
1F
100
AcDbEntity
  8
0
  6
Continuous
 62
     7
370
    15
100
AcDbLine
 10
213.4827731184
 20
82.5919244192
 30
0.0
 11
211.4932967357
 21
82.5919244192
 31
0.0
  0
LINE
  5
250
330
1F
100
AcDbEntity
  8
0
  6
Continuous
 62
     7
370
    15
100
AcDbLine
 10
213.4827731184
 20
68.1919190786
 30
0.0
 11
213.4827731184
 21
82.5919244192
 31
0.0
  0
LINE
  5
251
330
1F
100
AcDbEntity
  8
0
  6
Continuous
 62
     7
370
    15
100
AcDbLine
 10
211.4932967357
 20
68.1919190786
 30
0.0
 11
213.4827731184
 21
68.1919190786
 31
0.0
  0
LWPOLYLINE
  5
252
330
1F
100
AcDbEntity
  8
0
  6
Continuous
 62
     7
370
    15
100
AcDbPolyline
 90
        9
 70
   128
 43
0.0
 10
213.4827731184
 20
82.5919244192
 10
213.4775130085
 20
82.7479991815
 10
213.4619412951
 20
82.8980687759
 10
213.4366614751
 20
83.0363813541
 10
213.4026346735
 20
83.1576023004
 10
213.3611721925
 20
83.2570973537
 10
213.3138610057
 20
83.3310220144
 10
213.262533956
 20
83.3765450618
 10
213.2091579966
 20
83.3919230602
  0
LINE
  5
253
330
1F
100
AcDbEntity
  8
0
  6
Continuous
 62
     7
370
    15
100
AcDbLine
 10
211.6256712012
 20
83.3919230602
 30
0.0
 11
213.2091579966
 21
83.3919230602
 31
0.0
  0
LWPOLYLINE
  5
254
330
1F
100
AcDbEntity
  8
0
  6
Continuous
 62
     7
370
    15
100
AcDbPolyline
 90
        9
 70
   128
 43
0.0
 10
213.4827731184
 20
68.1919190786
 10
213.4775130085
 20
68.0358592174
 10
213.4619412951
 20
67.8857747218
 10
213.4366614751
 20
67.7474621436
 10
213.4026346735
 20
67.6262411973
 10
213.3611721925
 20
67.526746144
 10
213.3138610057
 20
67.4528214834
 10
213.262533956
 20
67.4072984359
 10
213.2091579966
 20
67.3919204376
  0
LINE
  5
255
330
1F
100
AcDbEntity
  8
0
  6
Continuous
 62
     7
370
    15
100
AcDbLine
 10
213.2091579966
 20
67.3919204376
 30
0.0
 11
211.6256712012
 21
67.3919204376
 31
0.0
  0
LINE
  5
256
330
1F
100
AcDbEntity
  8
0
  6
Continuous
 62
     7
370
    15
100
AcDbLine
 10
218.3816192679
 20
82.5919244192
 30
0.0
 11
213.4827731184
 21
82.5919244192
 31
0.0
  0
LINE
  5
257
330
1F
100
AcDbEntity
  8
0
  6
Continuous
 62
     7
370
    15
100
AcDbLine
 10
213.2091579966
 20
83.3919230602
 30
0.0
 11
218.5205427937
 21
83.3919230602
 31
0.0
  0
LINE
  5
258
330
1F
100
AcDbEntity
  8
0
  6
Continuous
 62
     7
370
    15
100
AcDbLine
 10
213.4827731184
 20
68.1919190786
 30
0.0
 11
218.3816192679
 21
68.1919190786
 31
0.0
  0
LINE
  5
259
330
1F
100
AcDbEntity
  8
0
  6
Continuous
 62
     7
370
    15
100
AcDbLine
 10
218.5205427937
 20
67.3919204376
 30
0.0
 11
213.2091579966
 21
67.3919204376
 31
0.0
  0
SPLINE
  5
25A
330
1F
100
AcDbEntity
  8
0
  6
Continuous
 62
     7
370
    15
100
AcDbSpline
210
0.0
220
0.0
230
1.0
 70
     8
 71
     3
 72
    16
 73
    12
 74
     0
 42
0.00000001
 43
0.00000001
 40
0.0
 40
0.0
 40
0.0
 40
0.0
 40
0.1207046623740796
 40
0.2414119361454772
 40
0.3621190221691944
 40
0.4828232368669746
 40
0.6035301205598657
 40
0.7242368490543083
 40
0.8449450839081195
 40
0.9656513881878872
 40
1.0
 40
1.0
 40
1.0
 40
1.0
 10
244.7636557749934
 20
62.43954931710955
 30
0.0
 10
244.7830568068999
 20
62.44222510332034
 30
0.0
 10
244.8218592904466
 20
62.44757673363149
 30
0.0
 10
244.8267803652207
 20
62.73852104560085
 30
0.0
 10
244.7895715191171
 20
63.1918565810651
 30
0.0
 10
244.7126528504239
 20
63.75938639752432
 30
0.0
 10
244.6088408790478
 20
64.34770451534844
 30
0.0
 10
244.4927302217658
 20
64.8744146711011
 30
0.0
 10
244.3857369929491
 20
65.23769540355381
 30
0.0
 10
244.3131605565595
 20
65.40816189993198
 30
0.0
 10
244.2936085710061
 20
65.37500286461695
 30
0.0
 10
244.2892773083872
 20
65.36765729402299
 30
0.0
  0
SPLINE
  5
25B
330
1F
100
AcDbEntity
  8
0
  6
Continuous
 62
     7
370
    15
100
AcDbSpline
210
0.0
220
0.0
230
1.0
 70
     8
 71
     3
 72
    16
 73
    12
 74
     0
 42
0.00000001
 43
0.00000001
 40
0.0
 40
0.0
 40
0.0
 40
0.0
 40
0.1205804028921054
 40
0.2411632673443268
 40
0.3617458654921225
 40
0.4823258879427835
 40
0.6029083804909801
 40
0.7234904228426613
 40
0.8440742651593766
 40
0.9646532729764011
 40
1.0
 40
1.0
 40
1.0
 40
1.0
 10
244.9342368177599
 20
88.31557964299913
 30
0.0
 10
244.9536421196863
 20
88.31290385558574
 30
0.0
 10
244.9924531196839
 20
88.30755222613467
 30
0.0
 10
244.9973548745035
 20
88.01660840486366
 30
0.0
 10
244.9601659015686
 20
87.56327073665116
 30
0.0
 10
244.8832314978265
 20
86.99574615740929
 30
0.0
 10
244.7794185287582
 20
86.40741392203974
 30
0.0
 10
244.663327821724
 20
85.8807558585363
 30
0.0
 10
244.5563002207556
 20
85.5172786075975
 30
0.0
 10
244.4835449746511
 20
85.34674442095674
 30
0.0
 10
244.4638954578083
 20
85.38032193270072
 30
0.0
 10
244.4594411186404
 20
85.38793360208268
 30
0.0
  0
SPLINE
  5
25C
330
1F
100
AcDbEntity
  8
0
  6
Continuous
 62
     7
370
    15
100
AcDbSpline
210
0.0
220
0.0
230
1.0
 70
     8
 71
     3
 72
    16
 73
    12
 74
     0
 42
0.00000001
 43
0.00000001
 40
0.0
 40
0.0
 40
0.0
 40
0.0
 40
0.1205151312322554
 40
0.2410328697613979
 40
0.3615504208376626
 40
0.4820649090746249
 40
0.6025825238981815
 40
0.7230994230080197
 40
0.8436164749636975
 40
0.9641307844535307
 40
1.0
 40
1.0
 40
1.0
 40
1.0
 10
260.3046206764407
 20
65.05596970533128
 30
0.0
 10
260.3240216220341
 20
65.05864550512375
 30
0.0
 10
260.3628239329529
 20
65.06399716259844
 30
0.0
 10
260.3677463024572
 20
65.35494127083783
 30
0.0
 10
260.3305325565792
 20
65.80827733468655
 30
0.0
 10
260.2536322901102
 20
66.37580427484211
 30
0.0
 10
260.1497955895011
 20
66.96413852901306
 30
0.0
 10
260.0337228438202
 20
67.49077579915361
 30
0.0
 10
259.9266492463095
 20
67.85432592878729
 30
0.0
 10
259.8538394269112
 20
68.0249354902347
 30
0.0
 10
259.8341236157923
 20
67.99111884745227
 30
0.0
 10
259.8296014599032
 20
67.98336242650743
 30
0.0
  0
SPLINE
  5
25D
330
1F
100
AcDbEntity
  8
0
  6
Continuous
 62
     7
370
    15
100
AcDbSpline
210
0.0
220
0.0
230
1.0
 70
     8
 71
     3
 72
    16
 73
    12
 74
     0
 42
0.00000001
 43
0.00000001
 40
0.0
 40
0.0
 40
0.0
 40
0.0
 40
0.12051774033532
 40
0.2410309044108987
 40
0.3615480208311119
 40
0.4820663022704323
 40
0.6025831920601926
 40
0.7230996565163307
 40
0.8436139510406299
 40
0.9641311724950465
 40
1.0
 40
1.0
 40
1.0
 40
1.0
 10
260.4752091697878
 20
85.69915925477738
 30
0.0
 10
260.4946102740099
 20
85.69648376764589
 30
0.0
 10
260.5334117457618
 20
85.69113289497557
 30
0.0
 10
260.5383331845736
 20
85.40020075842583
 30
0.0
 10
260.5011263485956
 20
84.94685831040746
 30
0.0
 10
260.4241970643969
 20
84.37933440266623
 30
0.0
 10
260.3203911758985
 20
83.79098832380285
 30
0.0
 10
260.204308109061
 20
83.2643594742467
 30
0.0
 10
260.0972468045102
 20
82.90079377833973
 30
0.0
 10
260.0243974529825
 20
82.73019354961455
 30
0.0
 10
260.0047063257252
 20
82.76401029761435
 30
0.0
 10
260.0001899532504
 20
82.77176653360124
 30
0.0
  0
SPLINE
  5
25E
330
1F
100
AcDbEntity
  8
0
  6
Continuous
 62
     7
370
    15
100
AcDbSpline
210
0.0
220
0.0
230
1.0
 70
    24
 71
     3
 72
    16
 73
    12
 74
     0
 42
0.00000001
 43
0.00000001
 40
0.0
 40
0.0
 40
0.0
 40
0.0
 40
0.0611071491295778
 40
0.1864711554396543
 40
0.3118333742869777
 40
0.4371957719142286
 40
0.5625572265557508
 40
0.6879224398113394
 40
0.8132846586586627
 40
0.9386470562859137
 40
1.0
 40
1.0
 40
1.0
 40
1.0
 10
263.3815465501971
 20
68.52569018815748
 30
0.0
 10
263.3873132079495
 20
68.52569018815751
 30
0.0
 10
263.4049104179231
 20
68.52569018815748
 30
0.0
 10
263.186519311514
 20
68.5256901881576
 30
0.0
 10
262.7737432584778
 20
68.52569018815741
 30
0.0
 10
262.2172909203791
 20
68.52569018815754
 30
0.0
 10
261.6181839683988
 20
68.52569018815754
 30
0.0
 10
261.0594776348061
 20
68.52569018815748
 30
0.0
 10
260.6425391427809
 20
68.52569018815751
 30
0.0
 10
260.4195477820838
 20
68.52569018815751
 30
0.0
 10
260.4343455529501
 20
68.52569018815751
 30
0.0
 10
260.4392079643435
 20
68.52569018815748
 30
0.0
  0
SPLINE
  5
25F
330
1F
100
AcDbEntity
  8
0
  6
Continuous
 62
     7
370
    15
100
AcDbSpline
210
0.0
220
0.0
230
1.0
 70
    24
 71
     3
 72
    16
 73
    12
 74
     0
 42
0.00000001
 43
0.00000001
 40
0.0
 40
0.0
 40
0.0
 40
0.0
 40
0.0610095893915384
 40
0.1861734476045528
 40
0.3113355212085618
 40
0.43649777330707
 40
0.5616590839253597
 40
0.6868241471569546
 40
0.8119862207609637
 40
0.9371484728594719
 40
1.0
 40
1.0
 40
1.0
 40
1.0
 10
263.3815465501971
 20
82.08431636308427
 30
0.0
 10
263.3873132017407
 20
82.08431636308424
 30
0.0
 10
263.4049103927676
 20
82.08431636308427
 30
0.0
 10
263.1865195447323
 20
82.08431636308421
 30
0.0
 10
262.7737424040137
 20
82.0843163630843
 30
0.0
 10
262.2172941050176
 20
82.08431636308424
 30
0.0
 10
261.6181720842572
 20
82.08431636308424
 30
0.0
 10
261.0595219877643
 20
82.08431636308433
 30
0.0
 10
260.6423736198333
 20
82.08431636308421
 30
0.0
 10
260.4188929334719
 20
82.08431636308433
 30
0.0
 10
260.4340959224276
 20
82.08431636308427
 30
0.0
 10
260.4391781620211
 20
82.08431636308427
 30
0.0
  0
SPLINE
  5
260
330
1F
100
AcDbEntity
  8
0
  6
Continuous
 62
     7
370
    15
100
AcDbSpline
210
0.0
220
0.0
230
1.0
 70
     8
 71
     3
 72
    19
 73
    15
 74
     0
 42
0.00000001
 43
0.00000001
 40
0.0
 40
0.0
 40
0.0
 40
0.0
 40
0.0039549877534883
 40
0.1157675200006728
 40
0.2280464998557988
 40
0.3355215637582196
 40
0.4377005810613949
 40
0.5348765973964855
 40
0.6283012741179353
 40
0.7302840589171755
 40
0.8413278422611192
 40
0.9641213929779504
 40
0.993765926957071
 40
1.0
 40
1.0
 40
1.0
 40
1.0
 10
249.7096268467135
 20
80.99192713712449
 30
0.0
 10
249.7100216357545
 20
80.99192009974158
 30
0.0
 10
249.7215776129285
 20
80.99171410659584
 30
0.0
 10
249.7448058068802
 20
80.97664109080696
 30
0.0
 10
249.7883081635084
 20
80.9097163108258
 30
0.0
 10
249.826280841654
 20
80.80502735591041
 30
0.0
 10
249.8497802951563
 20
80.67995616187524
 30
0.0
 10
249.8611031985714
 20
80.55152176205068
 30
0.0
 10
249.8617141805304
 20
80.43034880434591
 30
0.0
 10
249.8459240556227
 20
80.32112207155589
 30
0.0
 10
249.8055506476221
 20
80.23168782029933
 30
0.0
 10
249.7536865176447
 20
80.19664669367604
 30
0.0
 10
249.7189797335895
 20
80.19203126902352
 30
0.0
 10
249.7110113840988
 20
80.19194370990934
 30
0.0
 10
249.7096268467135
 20
80.19192849611039
 30
0.0
  0
SPLINE
  5
261
330
1F
100
AcDbEntity
  8
0
  6
Continuous
 62
     7
370
    15
100
AcDbSpline
210
0.0
220
0.0
230
1.0
 70
     8
 71
     3
 72
    30
 73
    26
 74
     0
 42
0.00000001
 43
0.00000001
 40
0.0
 40
0.0
 40
0.0
 40
0.0
 40
0.1247090451119846
 40
0.249420353758825
 40
0.3741267596384465
 40
0.4367835271034138
 40
0.468155018204278
 40
0.4838422479410749
 40
0.4916880333396316
 40
0.4956130335993368
 40
0.4975709668342042
 40
0.4985499877466723
 40
0.4990408717120179
 40
0.4992863136946907
 40
0.4994077283343087
 40
0.4994742831363951
 40
0.499506340174155
 40
0.4995182458590905
 40
0.4995397091378428
 40
0.5609180394937028
 40
0.6646196979048935
 40
0.7325853181538022
 40
0.8111465902982206
 40
0.9002981766098876
 40
1.0
 40
1.0
 40
1.0
 40
1.0
 10
249.7813312343783
 20
81.05181490396257
 30
0.0
 10
249.7870962003077
 20
81.05002324105584
 30
0.0
 10
249.7986262368036
 20
81.04643988272284
 30
0.0
 10
249.8884628552245
 20
81.02458790163148
 30
0.0
 10
249.9959468045453
 20
80.9989171042686
 30
0.0
 10
250.0815009404738
 20
80.97850703563597
 30
0.0
 10
250.1255991838165
 20
80.96797635805581
 30
0.0
 10
250.1478241099923
 20
80.96264141130673
 30
0.0
 10
250.1589610272947
 20
80.95999154895922
 30
0.0
 10
250.1645283069854
 20
80.95864918465493
 30
0.0
 10
250.1673128434806
 20
80.95798421201872
 30
0.0
 10
250.1687059751195
 20
80.95766131750992
 30
0.0
 10
250.1693995019776
 20
80.95748507473586
 30
0.0
 10
250.1697470709765
 20
80.9573992906959
 30
0.0
 10
250.1699219762662
 20
80.95735425257006
 30
0.0
 10
250.1700162469208
 20
80.9573535281595
 30
0.0
 10
250.1700562087766
 20
80.95732395327204
 30
0.0
 10
250.1700848530112
 20
80.9573290605697
 30
0.0
 10
250.1898816717566
 20
80.93792664347384
 30
0.0
 10
250.2665376341007
 20
80.94747671910483
 30
0.0
 10
250.3524586921061
 20
80.91504897060217
 30
0.0
 10
250.4370423661817
 20
80.90046223251596
 30
0.0
 10
250.5003130333773
 20
80.88690808337523
 30
0.0
 10
250.5509070017617
 20
80.87746647436146
 30
0.0
 10
250.5581252613758
 20
80.87697226688532
 30
0.0
 10
250.5619360140986
 20
80.87671135877366
 30
0.0
  0
ELLIPSE
  5
262
330
1F
100
AcDbEntity
  8
0
  6
Continuous
 62
     7
370
    15
100
AcDbEllipse
 10
250.4384623923
 20
82.1738993118
 30
0.0
 11
0.3906095144045594
 21
-0.08616383961160068
 31
0.0
210
0.0
220
0.0
230
1.0
 40
0.0142285888
 41
0.0
 42
6.283185307179586
  0
LINE
  5
263
330
1F
100
AcDbEntity
  8
0
  6
Continuous
 62
     7
370
    15
100
AcDbLine
 10
249.8222796253
 20
440.6919214628
 30
0.0
 11
249.8222796253
 21
449.2919180295
 31
0.0
  0
LINE
  5
264
330
1F
100
AcDbEntity
  8
0
  6
Continuous
 62
     7
370
    15
100
AcDbLine
 10
249.8222796253
 20
440.6919214628
 30
0.0
 11
244.3079857163
 21
440.6919214628
 31
0.0
  0
LINE
  5
265
330
1F
100
AcDbEntity
  8
0
  6
Continuous
 62
     7
370
    15
100
AcDbLine
 10
244.3079857163
 20
440.6919214628
 30
0.0
 11
244.3079857163
 21
449.2919180295
 31
0.0
  0
LINE
  5
266
330
1F
100
AcDbEntity
  8
0
  6
Continuous
 62
     7
370
    15
100
AcDbLine
 10
249.8222796253
 20
449.2919180295
 30
0.0
 11
244.3079857163
 21
449.2919180295
 31
0.0
  0
LINE
  5
267
330
1F
100
AcDbEntity
  8
0
  6
Continuous
 62
     7
370
    15
100
AcDbLine
 10
243.1937290363
 20
452.5919291875
 30
0.0
 11
218.3816192679
 21
452.5919291875
 31
0.0
  0
LINE
  5
268
330
1F
100
AcDbEntity
  8
0
  6
Continuous
 62
     7
370
    15
100
AcDbLine
 10
243.1937290363
 20
449.2919180295
 30
0.0
 11
243.1937290363
 21
452.5919291875
 31
0.0
  0
LINE
  5
269
330
1F
100
AcDbEntity
  8
0
  6
Continuous
 62
     7
370
    15
100
AcDbLine
 10
243.1937290363
 20
438.1919238469
 30
0.0
 11
243.1937290363
 21
440.6919214628
 31
0.0
  0
LINE
  5
26A
330
1F
100
AcDbEntity
  8
0
  6
Continuous
 62
     7
370
    15
100
AcDbLine
 10
218.3816192679
 20
438.1919238469
 30
0.0
 11
243.1937290363
 21
438.1919238469
 31
0.0
  0
LINE
  5
26B
330
1F
100
AcDbEntity
  8
0
  6
Continuous
 62
     7
370
    15
100
AcDbLine
 10
218.3816192679
 20
438.1919238469
 30
0.0
 11
218.3816192679
 21
452.5919291875
 31
0.0
  0
LINE
  5
26C
330
1F
100
AcDbEntity
  8
0
  6
Continuous
 62
     7
370
    15
100
AcDbLine
 10
243.1937290363
 20
440.6919214628
 30
0.0
 11
244.3079857163
 21
440.6919214628
 31
0.0
  0
LINE
  5
26D
330
1F
100
AcDbEntity
  8
0
  6
Continuous
 62
     7
370
    15
100
AcDbLine
 10
243.1937290363
 20
449.2919180295
 30
0.0
 11
244.3079857163
 21
449.2919180295
 31
0.0
  0
LINE
  5
26E
330
1F
100
AcDbEntity
  8
0
  6
Continuous
 62
     7
370
    15
100
AcDbLine
 10
245.2135888867
 20
453.3892754218
 30
0.0
 11
243.3213574819
 21
453.3892754218
 31
0.0
  0
ARC
  5
26F
330
1F
100
AcDbEntity
  8
0
  6
Continuous
 62
     7
370
    15
100
AcDbCircle
 10
244.6679905741
 20
452.764836896
 30
0.0
 40
1.484366584631168
100
AcDbArc
 50
155.1226784356
 51
186.689334224
  0
ARC
  5
270
330
1F
100
AcDbEntity
  8
0
  6
Continuous
 62
     7
370
    15
100
AcDbCircle
 10
219.6375945043
 20
452.7858848641
 30
0.0
 40
1.27086293473446
100
AcDbArc
 50
151.5184881633
 51
188.7786338264
  0
LINE
  5
271
330
1F
100
AcDbEntity
  8
0
  6
Continuous
 62
     7
370
    15
100
AcDbLine
 10
218.5205427937
 20
453.3919278285
 30
0.0
 11
245.8863390617
 21
453.3919278285
 31
0.0
  0
LINE
  5
272
330
1F
100
AcDbEntity
  8
0
  6
Continuous
 62
     7
370
    15
100
AcDbLine
 10
245.8863390617
 20
453.3919278285
 30
0.0
 11
245.2135888867
 21
453.3892754218
 31
0.0
  0
LINE
  5
273
330
1F
100
AcDbEntity
  8
0
  6
Continuous
 62
     7
370
    15
100
AcDbLine
 10
243.3213574819
 20
437.3945776126
 30
0.0
 11
245.2135888867
 21
437.3945776126
 31
0.0
  0
LINE
  5
274
330
1F
100
AcDbEntity
  8
0
  6
Continuous
 62
     7
370
    15
100
AcDbLine
 10
245.2135888867
 20
437.3945776126
 30
0.0
 11
245.8863390617
 21
437.3919252059
 31
0.0
  0
LINE
  5
275
330
1F
100
AcDbEntity
  8
0
  6
Continuous
 62
     7
370
    15
100
AcDbLine
 10
245.8863390617
 20
437.3919252059
 30
0.0
 11
218.5205427937
 21
437.3919252059
 31
0.0
  0
ARC
  5
276
330
1F
100
AcDbEntity
  8
0
  6
Continuous
 62
     7
370
    15
100
AcDbCircle
 10
219.6375945043
 20
437.9979681704
 30
0.0
 40
1.270862934734468
100
AcDbArc
 50
171.2213661736
 51
208.4815118367
  0
ARC
  5
277
330
1F
100
AcDbEntity
  8
0
  6
Continuous
 62
     7
370
    15
100
AcDbCircle
 10
244.6679620316
 20
438.0190115698
 30
0.0
 40
1.48433876868323
100
AcDbArc
 50
173.3103622863
 51
204.8776250541
  0
LINE
  5
278
330
1F
100
AcDbEntity
  8
0
  6
Continuous
 62
     7
370
    15
100
AcDbLine
 10
243.3213574819
 20
437.3945776126
 30
0.0
 11
243.3213574819
 21
438.1919238469
 31
0.0
  0
LINE
  5
279
330
1F
100
AcDbEntity
  8
0
  6
Continuous
 62
     7
370
    15
100
AcDbLine
 10
243.3326525621
 20
440.6919214628
 30
0.0
 11
243.3326525621
 21
438.1919238469
 31
0.0
  0
LINE
  5
27A
330
1F
100
AcDbEntity
  8
0
  6
Continuous
 62
     7
370
    15
100
AcDbLine
 10
243.3213574819
 20
452.5919291875
 30
0.0
 11
243.3213574819
 21
453.3892754218
 31
0.0
  0
LINE
  5
27B
330
1F
100
AcDbEntity
  8
0
  6
Continuous
 62
     7
370
    15
100
AcDbLine
 10
243.3326525621
 20
452.5919291875
 30
0.0
 11
243.3326525621
 21
449.2919180295
 31
0.0
  0
LINE
  5
27C
330
1F
100
AcDbEntity
  8
0
  6
Continuous
 62
     7
370
    15
100
AcDbLine
 10
249.3213547401
 20
437.3919252059
 30
0.0
 11
245.8863390617
 21
437.3919252059
 31
0.0
  0
LINE
  5
27D
330
1F
100
AcDbEntity
  8
0
  6
Continuous
 62
     7
370
    15
100
AcDbLine
 10
245.2135888867
 20
437.3945776126
 30
0.0
 11
245.2135888867
 21
438.1919238469
 31
0.0
  0
LINE
  5
27E
330
1F
100
AcDbEntity
  8
0
  6
Continuous
 62
     7
370
    15
100
AcDbLine
 10
249.3213547401
 20
438.1919238469
 30
0.0
 11
245.2135888867
 21
438.1919238469
 31
0.0
  0
LINE
  5
27F
330
1F
100
AcDbEntity
  8
0
  6
Continuous
 62
     7
370
    15
100
AcDbLine
 10
245.2135888867
 20
452.5919291875
 30
0.0
 11
245.2135888867
 21
453.3892754218
 31
0.0
  0
LINE
  5
280
330
1F
100
AcDbEntity
  8
0
  6
Continuous
 62
     7
370
    15
100
AcDbLine
 10
249.3213547401
 20
453.3919278285
 30
0.0
 11
245.8863390617
 21
453.3919278285
 31
0.0
  0
LINE
  5
281
330
1F
100
AcDbEntity
  8
0
  6
Continuous
 62
     7
370
    15
100
AcDbLine
 10
249.3213547401
 20
452.5919291875
 30
0.0
 11
245.2135888867
 21
452.5919291875
 31
0.0
  0
LINE
  5
282
330
1F
100
AcDbEntity
  8
0
  6
Continuous
 62
     7
370
    15
100
AcDbLine
 10
243.3213574819
 20
452.5919291875
 30
0.0
 11
245.2135888867
 21
452.5919291875
 31
0.0
  0
LINE
  5
283
330
1F
100
AcDbEntity
  8
0
  6
Continuous
 62
     7
370
    15
100
AcDbLine
 10
243.3213574819
 20
438.1919238469
 30
0.0
 11
245.2135888867
 21
438.1919238469
 31
0.0
  0
LINE
  5
284
330
1F
100
AcDbEntity
  8
0
  6
Continuous
 62
     7
370
    15
100
AcDbLine
 10
244.3913577131
 20
453.6919180057
 30
0.0
 11
248.7913576893
 21
453.6919180057
 31
0.0
  0
LINE
  5
285
330
1F
100
AcDbEntity
  8
0
  6
Continuous
 62
     7
370
    15
100
AcDbLine
 10
244.4913519553
 20
436.9919184348
 30
0.0
 11
248.6913559965
 21
436.9919184348
 31
0.0
  0
LINE
  5
286
330
1F
100
AcDbEntity
  8
0
  6
Continuous
 62
     7
370
    15
100
AcDbLine
 10
244.4913519553
 20
436.5919265649
 30
0.0
 11
248.6913559965
 21
436.5919265649
 31
0.0
  0
LINE
  5
287
330
1F
100
AcDbEntity
  8
0
  6
Continuous
 62
     7
370
    15
100
AcDbLine
 10
213.4827731184
 20
452.5919291875
 30
0.0
 11
211.4932967357
 21
452.5919291875
 31
0.0
  0
LINE
  5
288
330
1F
100
AcDbEntity
  8
0
  6
Continuous
 62
     7
370
    15
100
AcDbLine
 10
213.4827731184
 20
438.1919238469
 30
0.0
 11
213.4827731184
 21
452.5919291875
 31
0.0
  0
LINE
  5
289
330
1F
100
AcDbEntity
  8
0
  6
Continuous
 62
     7
370
    15
100
AcDbLine
 10
211.4932967357
 20
438.1919238469
 30
0.0
 11
213.4827731184
 21
438.1919238469
 31
0.0
  0
ARC
  5
28A
330
1F
100
AcDbEntity
  8
0
  6
Continuous
 62
     7
370
    15
100
AcDbCircle
 10
226.7872711584
 20
445.3919265172
 30
0.0
 40
16.90401408232909
100
AcDbArc
 50
154.7901718738
 51
205.2098281262
  0
SPLINE
  5
28B
330
1F
100
AcDbEntity
  8
0
  6
Continuous
 62
     7
370
    15
100
AcDbSpline
210
0.0
220
0.0
230
1.0
 70
     8
 71
     3
 72
    12
 73
     8
 74
     0
 42
0.00000001
 43
0.00000001
 40
0.0
 40
0.0
 40
0.0
 40
0.0
 40
0.18187302953746
 40
0.3633447978198461
 40
0.5550755613763376
 40
0.7712679779199193
 40
1.0
 40
1.0
 40
1.0
 40
1.0
 10
211.6256712011523
 20
437.3919252059341
 30
0.0
 10
211.6495324907212
 20
437.3992486430204
 30
0.0
 10
211.6972024253795
 20
437.4138793597036
 30
0.0
 10
211.7119324059454
 20
437.5258689393971
 30
0.0
 10
211.6847134495494
 20
437.69525326826
 30
0.0
 10
211.6130373767078
 20
437.9236735952728
 30
0.0
 10
211.5339532431851
 20
438.100842671203
 30
0.0
 10
211.4932967356867
 20
438.1919238469481
 30
0.0
  0
LINE
  5
28C
330
1F
100
AcDbEntity
  8
0
  6
Continuous
 62
     7
370
    15
100
AcDbLine
 10
211.2413106493
 20
438.1464306018
 30
0.0
 11
211.5957496695
 21
437.3919252059
 31
0.0
  0
ARC
  5
28D
330
1F
100
AcDbEntity
  8
0
  6
Continuous
 62
     7
370
    15
100
AcDbCircle
 10
226.5119393424
 20
445.3919265172
 30
0.0
 40
16.90234633834256
100
AcDbArc
 50
154.616938827
 51
205.383061173
  0
LINE
  5
28E
330
1F
100
AcDbEntity
  8
0
  6
Continuous
 62
     7
370
    15
100
AcDbLine
 10
211.5957496695
 20
453.3919278285
 30
0.0
 11
211.2413106493
 21
452.6374224326
 31
0.0
  0
SPLINE
  5
28F
330
1F
100
AcDbEntity
  8
0
  6
Continuous
 62
     7
370
    15
100
AcDbSpline
210
0.0
220
0.0
230
1.0
 70
     8
 71
     3
 72
    12
 73
     8
 74
     0
 42
0.00000001
 43
0.00000001
 40
0.0
 40
0.0
 40
0.0
 40
0.0
 40
0.2510172357647315
 40
0.5023980923729131
 40
0.7402747485671194
 40
0.9473067201835714
 40
1.0
 40
1.0
 40
1.0
 40
1.0
 10
211.4932967356867
 20
452.5919291875243
 30
0.0
 10
211.5376147345306
 20
452.6918074703323
 30
0.0
 10
211.6263149307904
 20
452.8917087185448
 30
0.0
 10
211.7013039898376
 20
453.1504489776628
 30
0.0
 10
211.7127995124811
 20
453.3276725426495
 30
0.0
 10
211.6711532367764
 20
453.3881102827907
 30
0.0
 10
211.6333423134265
 20
453.3912839518596
 30
0.0
 10
211.6256712011523
 20
453.3919278285384
 30
0.0
  0
LINE
  5
290
330
1F
100
AcDbEntity
  8
0
  6
Continuous
 62
     7
370
    15
100
AcDbLine
 10
211.6256712012
 20
437.3919252059
 30
0.0
 11
211.5957496695
 21
437.3919252059
 31
0.0
  0
LINE
  5
291
330
1F
100
AcDbEntity
  8
0
  6
Continuous
 62
     7
370
    15
100
AcDbLine
 10
211.6256712012
 20
453.3919278285
 30
0.0
 11
211.5957496695
 21
453.3919278285
 31
0.0
  0
LWPOLYLINE
  5
292
330
1F
100
AcDbEntity
  8
0
  6
Continuous
 62
     7
370
    15
100
AcDbPolyline
 90
        9
 70
   128
 43
0.0
 10
213.4827731184
 20
452.5919291875
 10
213.4775130085
 20
452.7479890487
 10
213.4619412951
 20
452.8980735443
 10
213.4366614751
 20
453.0363861225
 10
213.4026346735
 20
453.1576070688
 10
213.3611721925
 20
453.2571021221
 10
213.3138610057
 20
453.3310267827
 10
213.262533956
 20
453.3765498302
 10
213.2091579966
 20
453.3919278285
  0
LINE
  5
293
330
1F
100
AcDbEntity
  8
0
  6
Continuous
 62
     7
370
    15
100
AcDbLine
 10
211.6256712012
 20
453.3919278285
 30
0.0
 11
213.2091579966
 21
453.3919278285
 31
0.0
  0
LWPOLYLINE
  5
294
330
1F
100
AcDbEntity
  8
0
  6
Continuous
 62
     7
370
    15
100
AcDbPolyline
 90
        9
 70
   128
 43
0.0
 10
213.4827731184
 20
438.1919238469
 10
213.4775130085
 20
438.0358490846
 10
213.4619412951
 20
437.8857794902
 10
213.4366614751
 20
437.747466912
 10
213.4026346735
 20
437.6262459657
 10
213.3611721925
 20
437.5267509124
 10
213.3138610057
 20
437.4528262517
 10
213.262533956
 20
437.4073032043
 10
213.2091579966
 20
437.3919252059
  0
LINE
  5
295
330
1F
100
AcDbEntity
  8
0
  6
Continuous
 62
     7
370
    15
100
AcDbLine
 10
213.2091579966
 20
437.3919252059
 30
0.0
 11
211.6256712012
 21
437.3919252059
 31
0.0
  0
LINE
  5
296
330
1F
100
AcDbEntity
  8
0
  6
Continuous
 62
     7
370
    15
100
AcDbLine
 10
218.3816192679
 20
452.5919291875
 30
0.0
 11
213.4827731184
 21
452.5919291875
 31
0.0
  0
LINE
  5
297
330
1F
100
AcDbEntity
  8
0
  6
Continuous
 62
     7
370
    15
100
AcDbLine
 10
213.2091579966
 20
453.3919278285
 30
0.0
 11
218.5205427937
 21
453.3919278285
 31
0.0
  0
LINE
  5
298
330
1F
100
AcDbEntity
  8
0
  6
Continuous
 62
     7
370
    15
100
AcDbLine
 10
213.4827731184
 20
438.1919238469
 30
0.0
 11
218.3816192679
 21
438.1919238469
 31
0.0
  0
LINE
  5
299
330
1F
100
AcDbEntity
  8
0
  6
Continuous
 62
     7
370
    15
100
AcDbLine
 10
218.5205427937
 20
437.3919252059
 30
0.0
 11
213.2091579966
 21
437.3919252059
 31
0.0
  0
LINE
  5
29A
330
1F
100
AcDbEntity
  8
0
  6
Continuous
 62
     7
370
    15
100
AcDbLine
 10
249.6113536886
 20
69.641921272
 30
0.0
 11
249.6113536886
 21
68.6419192455
 31
0.0
  0
LINE
  5
29B
330
1F
100
AcDbEntity
  8
0
  6
Continuous
 62
     7
370
    15
100
AcDbLine
 10
249.6113536886
 20
68.6419192455
 30
0.0
 11
243.4113530449
 21
68.6419192455
 31
0.0
  0
LINE
  5
29C
330
1F
100
AcDbEntity
  8
0
  6
Continuous
 62
     7
370
    15
100
AcDbLine
 10
243.4113530449
 20
69.641921272
 30
0.0
 11
243.4113530449
 21
68.6419192455
 31
0.0
  0
LINE
  5
29D
330
1F
100
AcDbEntity
  8
0
  6
Continuous
 62
     7
370
    15
100
AcDbLine
 10
249.6113536886
 20
69.641921272
 30
0.0
 11
243.4113530449
 21
69.641921272
 31
0.0
  0
LINE
  5
29E
330
1F
100
AcDbEntity
  8
0
  6
Continuous
 62
     7
370
    15
100
AcDbLine
 10
249.6113536886
 20
82.1419242523
 30
0.0
 11
243.4113530449
 21
82.1419242523
 31
0.0
  0
LINE
  5
29F
330
1F
100
AcDbEntity
  8
0
  6
Continuous
 62
     7
370
    15
100
AcDbLine
 10
249.6113536886
 20
82.1419242523
 30
0.0
 11
249.6113536886
 21
81.1419222257
 31
0.0
  0
LINE
  5
2A0
330
1F
100
AcDbEntity
  8
0
  6
Continuous
 62
     7
370
    15
100
AcDbLine
 10
249.6113536886
 20
81.1419222257
 30
0.0
 11
243.4113530449
 21
81.1419222257
 31
0.0
  0
LINE
  5
2A1
330
1F
100
AcDbEntity
  8
0
  6
Continuous
 62
     7
370
    15
100
AcDbLine
 10
243.4113530449
 20
82.1419242523
 30
0.0
 11
243.4113530449
 21
81.1419222257
 31
0.0
  0
LINE
  5
2A2
330
1F
100
AcDbEntity
  8
0
  6
Continuous
 62
     7
370
    15
100
AcDbLine
 10
249.6113536886
 20
452.1419290206
 30
0.0
 11
249.6113536886
 21
451.1419269941
 31
0.0
  0
LINE
  5
2A3
330
1F
100
AcDbEntity
  8
0
  6
Continuous
 62
     7
370
    15
100
AcDbLine
 10
243.4113530449
 20
452.1419290206
 30
0.0
 11
243.4113530449
 21
451.1419269941
 31
0.0
  0
LINE
  5
2A4
330
1F
100
AcDbEntity
  8
0
  6
Continuous
 62
     7
370
    15
100
AcDbLine
 10
249.6113536886
 20
452.1419290206
 30
0.0
 11
243.4113530449
 21
452.1419290206
 31
0.0
  0
LINE
  5
2A5
330
1F
100
AcDbEntity
  8
0
  6
Continuous
 62
     7
370
    15
100
AcDbLine
 10
249.6113536886
 20
451.1419269941
 30
0.0
 11
243.4113530449
 21
451.1419269941
 31
0.0
  0
LINE
  5
2A6
330
1F
100
AcDbEntity
  8
0
  6
Continuous
 62
     7
370
    15
100
AcDbLine
 10
249.6113536886
 20
439.6419260404
 30
0.0
 11
249.6113536886
 21
438.6419240138
 31
0.0
  0
LINE
  5
2A7
330
1F
100
AcDbEntity
  8
0
  6
Continuous
 62
     7
370
    15
100
AcDbLine
 10
243.4113530449
 20
439.6419260404
 30
0.0
 11
243.4113530449
 21
438.6419240138
 31
0.0
  0
LINE
  5
2A8
330
1F
100
AcDbEntity
  8
0
  6
Continuous
 62
     7
370
    15
100
AcDbLine
 10
249.6113536886
 20
438.6419240138
 30
0.0
 11
243.4113530449
 21
438.6419240138
 31
0.0
  0
LINE
  5
2A9
330
1F
100
AcDbEntity
  8
0
  6
Continuous
 62
     7
370
    15
100
AcDbLine
 10
249.6113536886
 20
439.6419260404
 30
0.0
 11
243.4113530449
 21
439.6419260404
 31
0.0
  0
LWPOLYLINE
  5
2AA
330
1F
100
AcDbEntity
  8
0
  6
Continuous
 62
     7
370
    15
100
AcDbPolyline
 90
        3
 70
   128
 43
0.0
 10
243.3326525621
 20
439.0307847164
 10
243.335230463
 20
439.0246007345
 10
243.4113530449
 20
438.6419240138
  0
LWPOLYLINE
  5
2AB
330
1F
100
AcDbEntity
  8
0
  6
Continuous
 62
     7
370
    15
100
AcDbPolyline
 90
        3
 70
   128
 43
0.0
 10
243.4113530449
 20
452.1419290206
 10
243.335230463
 20
451.7592373989
 10
243.3326525621
 20
451.7530683181
  0
LINE
  5
2AC
330
1F
100
AcDbEntity
  8
0
  6
Continuous
 62
     7
370
    15
100
AcDbLine
 10
249.6113536886
 20
451.1419269941
 30
0.0
 11
249.6113536886
 21
450.9919170043
 31
0.0
  0
LINE
  5
2AD
330
1F
100
AcDbEntity
  8
0
  6
Continuous
 62
     7
370
    15
100
AcDbLine
 10
249.6113536886
 20
450.1919183633
 30
0.0
 11
249.6113536886
 21
449.2919180295
 31
0.0
  0
LINE
  5
2AE
330
1F
100
AcDbEntity
  8
0
  6
Continuous
 62
     7
370
    15
100
AcDbLine
 10
249.6113536886
 20
440.6919214628
 30
0.0
 11
249.6113536886
 21
439.6419260404
 31
0.0
  0
LWPOLYLINE
  5
2AF
330
1F
100
AcDbEntity
  8
0
  6
Continuous
 62
     7
370
    15
100
AcDbPolyline
 90
        3
 70
   128
 43
0.0
 10
243.3326525621
 20
69.030779948
 10
243.335230463
 20
69.0246108672
 10
243.4113530449
 20
68.6419192455
  0
LWPOLYLINE
  5
2B0
330
1F
100
AcDbEntity
  8
0
  6
Continuous
 62
     7
370
    15
100
AcDbPolyline
 90
        3
 70
   128
 43
0.0
 10
243.4113530449
 20
82.1419242523
 10
243.335230463
 20
81.7592475316
 10
243.3326525621
 20
81.7530635497
  0
LINE
  5
2B1
330
1F
100
AcDbEntity
  8
0
  6
Continuous
 62
     7
370
    15
100
AcDbLine
 10
249.6113536886
 20
81.1419222257
 30
0.0
 11
249.6113536886
 21
80.9919271371
 31
0.0
  0
LINE
  5
2B2
330
1F
100
AcDbEntity
  8
0
  6
Continuous
 62
     7
370
    15
100
AcDbLine
 10
249.6113536886
 20
80.1919284961
 30
0.0
 11
249.6113536886
 21
79.2919281623
 31
0.0
  0
LINE
  5
2B3
330
1F
100
AcDbEntity
  8
0
  6
Continuous
 62
     7
370
    15
100
AcDbLine
 10
249.6113536886
 20
70.6919166944
 30
0.0
 11
249.6113536886
 21
69.641921272
 31
0.0
  0
ARC
  5
2B4
330
1F
100
AcDbEntity
  8
0
  6
Continuous
 62
     7
370
    15
100
AcDbCircle
 10
141.6113539986
 20
495.3919241331
 30
0.0
 40
14.99999999999996
100
AcDbArc
 50
90.0
 51
180.0
  0
LINE
  5
2B5
330
1F
100
AcDbEntity
  8
0
  6
Continuous
 62
     7
370
    15
100
AcDbLine
 10
141.6113536812
 20
510.3919241331
 30
0.0
 11
141.6113536812
 21
495.391923537
 31
0.0
  0
LINE
  5
2B6
330
1F
100
AcDbEntity
  8
0
  6
Continuous
 62
     7
370
    15
100
AcDbLine
 10
126.6113540165
 20
495.391923537
 30
0.0
 11
141.6113536812
 21
495.391923537
 31
0.0
  0
LINE
  5
2B7
330
1F
100
AcDbEntity
  8
0
  6
Continuous
 62
     7
370
    15
100
AcDbLine
 10
141.6113536812
 20
25.3919247291
 30
0.0
 11
126.6113540165
 21
25.3919247291
 31
0.0
  0
LINE
  5
2B8
330
1F
100
AcDbEntity
  8
0
  6
Continuous
 62
     7
370
    15
100
AcDbLine
 10
141.6113536812
 20
25.3919247291
 30
0.0
 11
141.6113536812
 21
10.3919241331
 31
0.0
  0
ARC
  5
2B9
330
1F
100
AcDbEntity
  8
0
  6
Continuous
 62
     7
370
    15
100
AcDbCircle
 10
141.6113539986
 20
25.3919241331
 30
0.0
 40
15.00000000000001
100
AcDbArc
 50
180.0
 51
270.0
  0
LINE
  5
2BA
330
1F
100
AcDbEntity
  8
0
  6
Continuous
 62
     7
370
    15
100
AcDbLine
 10
141.6113536812
 20
495.391923537
 30
0.0
 11
141.6113536812
 21
25.3919247291
 31
0.0
  0
LINE
  5
2BB
330
1F
100
AcDbEntity
  8
0
  6
Continuous
 62
     7
370
    15
100
AcDbLine
 10
126.6113540165
 20
495.391923537
 30
0.0
 11
126.6113540165
 21
25.3919247291
 31
0.0
  0
LINE
  5
2BC
330
1F
100
AcDbEntity
  8
0
  6
Continuous
 62
     7
370
    15
100
AcDbLine
 10
262.6113502316
 20
25.3919247291
 30
0.0
 11
262.6113502316
 21
66.3840207956
 31
0.0
  0
LINE
  5
2BD
330
1F
100
AcDbEntity
  8
0
  6
Continuous
 62
     7
370
    15
100
AcDbLine
 10
262.6113502316
 20
84.3678597114
 30
0.0
 11
262.6113502316
 21
436.3840106628
 31
0.0
  0
LINE
  5
2BE
330
1F
100
AcDbEntity
  8
0
  6
Continuous
 62
     7
370
    15
100
AcDbLine
 10
262.6113502316
 20
454.3678495786
 30
0.0
 11
262.6113502316
 21
495.391923537
 31
0.0
  0
LINE
  5
2BF
330
1F
100
AcDbEntity
  8
0
  6
Continuous
 62
     7
370
    15
100
AcDbLine
 10
262.6113502316
 20
25.3919247291
 30
0.0
 11
141.6113536812
 21
25.3919247291
 31
0.0
  0
LINE
  5
2C0
330
1F
100
AcDbEntity
  8
0
  6
Continuous
 62
     7
370
    15
100
AcDbLine
 10
262.6113502316
 20
495.391923537
 30
0.0
 11
141.6113536812
 21
495.391923537
 31
0.0
  0
LINE
  5
2C1
330
1F
100
AcDbEntity
  8
0
  6
Continuous
 62
     7
370
    15
100
AcDbLine
 10
242.6113544039
 20
30.3919199607
 30
0.0
 11
146.6113535694
 21
30.3919199607
 31
0.0
  0
LINE
  5
2C2
330
1F
100
AcDbEntity
  8
0
  6
Continuous
 62
     7
370
    15
100
AcDbLine
 10
242.6113544039
 20
30.3919199607
 30
0.0
 11
242.6113544039
 21
62.5793818138
 31
0.0
  0
LINE
  5
2C3
330
1F
100
AcDbEntity
  8
0
  6
Continuous
 62
     7
370
    15
100
AcDbLine
 10
242.6113544039
 20
65.919164171
 30
0.0
 11
242.6113544039
 21
67.3919204376
 31
0.0
  0
LINE
  5
2C4
330
1F
100
AcDbEntity
  8
0
  6
Continuous
 62
     7
370
    15
100
AcDbLine
 10
242.6113544039
 20
83.3919230602
 30
0.0
 11
242.6113544039
 21
84.8513278863
 31
0.0
  0
LINE
  5
2C5
330
1F
100
AcDbEntity
  8
0
  6
Continuous
 62
     7
370
    15
100
AcDbLine
 10
242.6113544039
 20
88.1940457723
 30
0.0
 11
242.6113544039
 21
432.579371681
 31
0.0
  0
LINE
  5
2C6
330
1F
100
AcDbEntity
  8
0
  6
Continuous
 62
     7
370
    15
100
AcDbLine
 10
242.6113544039
 20
435.9191689393
 30
0.0
 11
242.6113544039
 21
437.3919252059
 31
0.0
  0
LINE
  5
2C7
330
1F
100
AcDbEntity
  8
0
  6
Continuous
 62
     7
370
    15
100
AcDbLine
 10
242.6113544039
 20
453.3919278285
 30
0.0
 11
242.6113544039
 21
454.8513326547
 31
0.0
  0
LINE
  5
2C8
330
1F
100
AcDbEntity
  8
0
  6
Continuous
 62
     7
370
    15
100
AcDbLine
 10
242.6113544039
 20
458.1940356395
 30
0.0
 11
242.6113544039
 21
490.3919283054
 31
0.0
  0
LINE
  5
2C9
330
1F
100
AcDbEntity
  8
0
  6
Continuous
 62
     7
370
    15
100
AcDbLine
 10
242.6113544039
 20
490.3919283054
 30
0.0
 11
146.6113535694
 21
490.3919283054
 31
0.0
  0
LINE
  5
2CA
330
1F
100
AcDbEntity
  8
0
  6
Continuous
 62
     7
370
    15
100
AcDbLine
 10
146.6113535694
 20
490.3919283054
 30
0.0
 11
146.6113535694
 21
30.3919199607
 31
0.0
  0
LINE
  5
2CB
330
1F
100
AcDbEntity
  8
0
  6
Continuous
 62
     7
370
    15
100
AcDbLine
 10
262.6113502316
 20
510.3919241331
 30
0.0
 11
141.6113536812
 21
510.3919241331
 31
0.0
  0
LINE
  5
2CC
330
1F
100
AcDbEntity
  8
0
  6
Continuous
 62
     7
370
    15
100
AcDbLine
 10
262.6113502316
 20
510.3919241331
 30
0.0
 11
262.6113502316
 21
495.391923537
 31
0.0
  0
LINE
  5
2CD
330
1F
100
AcDbEntity
  8
0
  6
Continuous
 62
     7
370
    15
100
AcDbLine
 10
262.6113502316
 20
10.3919241331
 30
0.0
 11
141.6113536812
 21
10.3919241331
 31
0.0
  0
LINE
  5
2CE
330
1F
100
AcDbEntity
  8
0
  6
Continuous
 62
     7
370
    15
100
AcDbLine
 10
262.6113502316
 20
25.3919247291
 30
0.0
 11
262.6113502316
 21
10.3919241331
 31
0.0
  0
LINE
  5
2CF
330
1F
100
AcDbEntity
  8
0
  6
Continuous
 62
     7
370
    15
100
AcDbLine
 10
266.6113583378
 20
490.3919283054
 30
0.0
 11
262.6113502316
 21
490.3919283054
 31
0.0
  0
LINE
  5
2D0
330
1F
100
AcDbEntity
  8
0
  6
Continuous
 62
     7
370
    15
100
AcDbLine
 10
266.6113583378
 20
30.3919199607
 30
0.0
 11
262.6113502316
 21
30.3919199607
 31
0.0
  0
LINE
  5
2D1
330
1F
100
AcDbEntity
  8
0
  6
Continuous
 62
     7
370
    15
100
AcDbLine
 10
266.6113583378
 20
505.3919289014
 30
0.0
 11
262.6113502316
 21
505.3919289014
 31
0.0
  0
LINE
  5
2D2
330
1F
100
AcDbEntity
  8
0
  6
Continuous
 62
     7
370
    15
100
AcDbLine
 10
266.6113583378
 20
15.3919193647
 30
0.0
 11
262.6113502316
 21
15.3919193647
 31
0.0
  0
LINE
  5
2D3
330
1F
100
AcDbEntity
  8
0
  6
Continuous
 62
     7
370
    15
100
AcDbLine
 10
384.3989626481
 20
551.0435059531
 30
0.0
 11
385.5989531591
 21
551.0435059531
 31
0.0
  0
LINE
  5
2D4
330
1F
100
AcDbEntity
  8
0
  6
Continuous
 62
     7
370
    15
100
AcDbLine
 10
384.2989609554
 20
553.5435035689
 30
0.0
 11
384.3989626481
 21
553.5435035689
 31
0.0
  0
LINE
  5
2D5
330
1F
100
AcDbEntity
  8
0
  6
Continuous
 62
     7
370
    15
100
AcDbLine
 10
384.3989626481
 20
559.5435008271
 30
0.0
 11
384.2989609554
 21
559.5435008271
 31
0.0
  0
SPLINE
  5
2D6
330
1F
100
AcDbEntity
  8
0
  6
Continuous
 62
     7
370
    15
100
AcDbSpline
210
0.0
220
0.0
230
1.0
 70
     8
 71
     3
 72
    15
 73
    11
 74
     0
 42
0.00000001
 43
0.00000001
 40
0.0
 40
0.0
 40
0.0
 40
0.0
 40
0.1250756062547273
 40
0.2501515053337112
 40
0.3752915679483704
 40
0.5003054540347794
 40
0.6252893286866023
 40
0.7502629851145114
 40
0.8750792003843805
 40
1.0
 40
1.0
 40
1.0
 40
1.0
 10
383.2133964612227
 20
581.6013321144796
 30
0.0
 10
383.1872716343173
 20
581.8600961335416
 30
0.0
 10
383.1350219193437
 20
582.3776247774782
 30
0.0
 10
383.0561530329712
 20
583.1587384899585
 30
0.0
 10
382.9817259735568
 20
583.8959197891193
 30
0.0
 10
382.9147128024269
 20
584.5594925937442
 30
0.0
 10
382.858605127062
 20
585.1152607564252
 30
0.0
 10
382.8160871885896
 20
585.5363571896435
 30
0.0
 10
382.7872548021801
 20
585.8219643670868
 30
0.0
 10
382.7829130374446
 20
585.8649995111194
 30
0.0
 10
382.7807412459593
 20
585.8865260942198
 30
0.0
  0
SPLINE
  5
2D7
330
1F
100
AcDbEntity
  8
0
  6
Continuous
 62
     7
370
    15
100
AcDbSpline
210
0.0
220
0.0
230
1.0
 70
     8
 71
     3
 72
    15
 73
    11
 74
     0
 42
0.00000001
 43
0.00000001
 40
0.0
 40
0.0
 40
0.0
 40
0.0
 40
0.1249400649682093
 40
0.2497678875974486
 40
0.3747497703685242
 40
0.4997368432771674
 40
0.6247476138688625
 40
0.7498792509438331
 40
0.8749421949232868
 40
1.0
 40
1.0
 40
1.0
 40
1.0
 10
379.7964856936674
 20
585.5851426584936
 30
0.0
 10
379.7986680947557
 20
585.5635649304294
 30
0.0
 10
379.8030309363298
 20
585.5204288590728
 30
0.0
 10
379.831880873794
 20
585.2347158033076
 30
0.0
 10
379.874385740536
 20
584.8135301949603
 30
0.0
 10
379.9305256086404
 20
584.2577582369584
 30
0.0
 10
379.9975094865373
 20
583.5942301009605
 30
0.0
 10
380.0719320166735
 20
582.8571877165849
 30
0.0
 10
380.150759445457
 20
582.0762733201808
 30
0.0
 10
380.2030041781334
 20
581.558918698243
 30
0.0
 10
380.2291260077696
 20
581.3002467019774
 30
0.0
  0
LINE
  5
2D8
330
1F
100
AcDbEntity
  8
0
  6
Continuous
 62
     7
370
    15
100
AcDbLine
 10
380.2288428857
 20
581.3001125915
 30
0.0
 11
381.7979202583
 21
565.7591327889
 31
0.0
  0
LINE
  5
2D9
330
1F
100
AcDbEntity
  8
0
  6
Continuous
 62
     7
370
    15
100
AcDbLine
 10
384.7827420547
 20
566.0604938729
 30
0.0
 11
383.2136646821
 21
581.6014662249
 31
0.0
  0
SPLINE
  5
2DA
330
1F
100
AcDbEntity
  8
0
  6
Continuous
 62
     7
370
    15
100
AcDbSpline
210
0.0
220
0.0
230
1.0
 70
     8
 71
     3
 72
     9
 73
     5
 74
     0
 42
0.00000001
 43
0.00000001
 40
0.0
 40
0.0
 40
0.0
 40
0.0
 40
0.4837417203017415
 40
0.9999999999999999
 40
0.9999999999999999
 40
0.9999999999999999
 40
0.9999999999999999
 10
381.9680021121245
 20
564.0777602656103
 30
0.0
 10
381.9774626330776
 20
564.0135355471546
 30
0.0
 10
381.9970196002695
 20
563.8807689988906
 30
0.0
 10
382.0308625626052
 20
563.8446119291954
 30
0.0
 10
382.0483342721205
 20
563.8259455425955
 30
0.0
  0
SPLINE
  5
2DB
330
1F
100
AcDbEntity
  8
0
  6
Continuous
 62
     7
370
    15
100
AcDbSpline
210
0.0
220
0.0
230
1.0
 70
     8
 71
     3
 72
    11
 73
     7
 74
     0
 42
0.00000001
 43
0.00000001
 40
0.0
 40
0.0
 40
0.0
 40
0.0
 40
0.2484383806842924
 40
0.4978875796835376
 40
0.7483873199441324
 40
1.0
 40
1.0
 40
1.0
 40
1.0
 10
381.7981884791594
 20
565.7592967016913
 30
0.0
 10
381.8162011949042
 20
565.5808249008496
 30
0.0
 10
381.8522999145185
 20
565.223155153051
 30
0.0
 10
381.8993246930832
 20
564.7583196517771
 30
0.0
 10
381.938117211703
 20
564.3754318423305
 30
0.0
 10
381.9531616505849
 20
564.2281443244397
 30
0.0
 10
381.9607005431395
 20
564.1543373329855
 30
0.0
  0
SPLINE
  5
2DC
330
1F
100
AcDbEntity
  8
0
  6
Continuous
 62
     7
370
    15
100
AcDbSpline
210
0.0
220
0.0
230
1.0
 70
     8
 71
     3
 72
    19
 73
    15
 74
     0
 42
0.00000001
 43
0.00000001
 40
0.0
 40
0.0
 40
0.0
 40
0.0
 40
0.0802802792806688
 40
0.1534415337217443
 40
0.2193402340933869
 40
0.277945875717397
 40
0.372844389173099
 40
0.4421534172425104
 40
0.5315371887576311
 40
0.65548116843645
 40
0.7303542582803444
 40
0.8130770453257533
 40
0.9031425815135538
 40
1.0
 40
1.0
 40
1.0
 40
1.0
 10
381.983648331378
 20
563.9951184256292
 30
0.0
 10
382.0190090368881
 20
563.8722446623167
 30
0.0
 10
382.0865947619949
 20
563.6373932284928
 30
0.0
 10
382.2838175433115
 20
563.3429807024072
 30
0.0
 10
382.5086701443844
 20
563.1188624408315
 30
0.0
 10
382.8043324772398
 20
562.9258195215538
 30
0.0
 10
383.146279392879
 20
562.8079000755541
 30
0.0
 10
383.5560399156234
 20
562.778126751966
 30
0.0
 10
383.9951220454367
 20
562.8804241599105
 30
0.0
 10
384.3816561048258
 20
563.1316618215532
 30
0.0
 10
384.6744871915967
 20
563.4723733246008
 30
0.0
 10
384.855285356139
 20
563.8278319108249
 30
0.0
 10
384.961170088929
 20
564.2547820813982
 30
0.0
 10
384.9289162416875
 20
564.5498500880615
 30
0.0
 10
384.9122033431273
 20
564.7027447684027
 30
0.0
  0
SPLINE
  5
2DD
330
1F
100
AcDbEntity
  8
0
  6
Continuous
 62
     7
370
    15
100
AcDbSpline
210
0.0
220
0.0
230
1.0
 70
     8
 71
     3
 72
    11
 73
     7
 74
     0
 42
0.00000001
 43
0.00000001
 40
0.0
 40
0.0
 40
0.0
 40
0.0
 40
0.2477440274521925
 40
0.496949406743769
 40
0.7476766356534901
 40
1.0
 40
1.0
 40
1.0
 40
1.0
 10
384.9359706952314
 20
564.5350620014883
 30
0.0
 10
384.9295369684075
 20
564.5996874250784
 30
0.0
 10
384.9166315645469
 20
564.7293194741087
 30
0.0
 10
384.8806421791027
 20
565.0871951407682
 30
0.0
 10
384.8356900591181
 20
565.5335158944108
 30
0.0
 10
384.8002500582272
 20
565.8843740590376
 30
0.0
 10
384.7824738337736
 20
566.0603597624518
 30
0.0
  0
LINE
  5
2DE
330
1F
100
AcDbEntity
  8
0
  6
Continuous
 62
     7
370
    15
100
AcDbLine
 10
385.0662664487
 20
575.7151722772
 30
0.0
 11
385.0662515475
 21
576.014991091
 31
0.0
  0
LINE
  5
2DF
330
1F
100
AcDbEntity
  8
0
  6
Continuous
 62
     7
370
    15
100
AcDbLine
 10
384.2662529065
 20
576.014991091
 30
0.0
 11
384.2662529065
 21
575.7176235183
 31
0.0
  0
SPLINE
  5
2E0
330
1F
100
AcDbEntity
  8
0
  6
Continuous
 62
     7
370
    15
100
AcDbSpline
210
0.0
220
0.0
230
1.0
 70
    24
 71
     3
 72
    11
 73
     7
 74
     0
 42
0.00000001
 43
0.00000001
 40
0.0
 40
0.0
 40
0.0
 40
0.0
 40
0.0207851580527776
 40
0.3465582713038245
 40
0.6711422062876115
 40
0.9999999999999999
 40
0.9999999999999999
 40
0.9999999999999999
 40
0.9999999999999999
 10
384.2662529065352
 20
576.3013094527937
 30
0.0
 10
384.2662529065352
 20
576.2979877484327
 30
0.0
 10
384.2662529065349
 20
576.2426038000289
 30
0.0
 10
384.2662529065352
 20
576.149366141768
 30
0.0
 10
384.2662529065352
 20
576.0366524259967
 30
0.0
 10
384.2662529065351
 20
576.0021304959484
 30
0.0
 10
384.2662529065352
 20
575.9847566349722
 30
0.0
  0
SPLINE
  5
2E1
330
1F
100
AcDbEntity
  8
0
  6
Continuous
 62
     7
370
    15
100
AcDbSpline
210
0.0
220
0.0
230
1.0
 70
    24
 71
     3
 72
    11
 73
     7
 74
     0
 42
0.00000001
 43
0.00000001
 40
0.0
 40
0.0
 40
0.0
 40
0.0
 40
0.2504858112135913
 40
0.4977299750592455
 40
0.74586599487306
 40
1.0
 40
1.0
 40
1.0
 40
1.0
 10
385.0662664487105
 20
575.9823053939558
 30
0.0
 10
385.0662664487104
 20
575.9985220910792
 30
0.0
 10
385.0662664487105
 20
576.0307456178955
 30
0.0
 10
385.0662664487105
 20
576.1395296257916
 30
0.0
 10
385.0662664487104
 20
576.2783594147986
 30
0.0
 10
385.0662664487105
 20
576.3853871550069
 30
0.0
 10
385.0662664487105
 20
576.4395400746084
 30
0.0
  0
LINE
  5
2E2
330
1F
100
AcDbEntity
  8
0
  6
Continuous
 62
     7
370
    15
100
AcDbLine
 10
385.0662664487
 20
576.4395400746
 30
0.0
 11
385.0662664487
 21
576.5435054763
 31
0.0
  0
LINE
  5
2E3
330
1F
100
AcDbEntity
  8
0
  6
Continuous
 62
     7
370
    15
100
AcDbLine
 10
384.0595141961
 20
576.5435054763
 30
0.0
 11
384.2684284761
 21
576.2962803109
 31
0.0
  0
LINE
  5
2E4
330
1F
100
AcDbEntity
  8
0
  6
Continuous
 62
     7
370
    15
100
AcDbLine
 10
379.7898695781
 20
585.6815233691
 30
0.0
 11
379.7742531612
 21
586.1407548053
 31
0.0
  0
SPLINE
  5
2E5
330
1F
100
AcDbEntity
  8
0
  6
Continuous
 62
     7
370
    15
100
AcDbSpline
210
0.0
220
0.0
230
1.0
 70
     8
 71
     3
 72
    11
 73
     7
 74
     0
 42
0.00000001
 43
0.00000001
 40
0.0
 40
0.0
 40
0.0
 40
0.0
 40
0.1207591671560694
 40
0.4133928668901501
 40
0.7063557850247055
 40
1.0
 40
1.0
 40
1.0
 40
1.0
 10
381.8225369765501
 20
565.5180916054464
 30
0.0
 10
381.8324602249403
 20
565.4197910196627
 30
0.0
 10
381.8664303176258
 20
565.0832802442817
 30
0.0
 10
381.9137882740296
 20
564.614371107641
 30
0.0
 10
381.9566741534456
 20
564.1896319025825
 30
0.0
 10
381.9642232033607
 20
564.1150796734001
 30
0.0
 10
381.9680021121245
 20
564.0777602656103
 30
0.0
  0
LINE
  5
2E6
330
1F
100
AcDbEntity
  8
0
  6
Continuous
 62
     7
370
    15
100
AcDbLine
 10
380.1507160976
 20
616.5435045822
 30
0.0
 11
379.3989525153
 21
616.2698894603
 31
0.0
  0
LINE
  5
2E7
330
1F
100
AcDbEntity
  8
0
  6
Continuous
 62
     7
370
    15
100
AcDbLine
 10
385.5989531591
 20
615.5435025556
 30
0.0
 11
385.2989629819
 21
615.5435025556
 31
0.0
  0
LINE
  5
2E8
330
1F
100
AcDbEntity
  8
0
  6
Continuous
 62
     7
370
    15
100
AcDbLine
 10
385.2989629819
 20
614.5435079797
 30
0.0
 11
385.1989612891
 21
614.5435079797
 31
0.0
  0
LINE
  5
2E9
330
1F
100
AcDbEntity
  8
0
  6
Continuous
 62
     7
370
    15
100
AcDbLine
 10
385.1989612891
 20
608.5435032709
 30
0.0
 11
385.2989629819
 21
608.5435032709
 31
0.0
  0
LINE
  5
2EA
330
1F
100
AcDbEntity
  8
0
  6
Continuous
 62
     7
370
    15
100
AcDbLine
 10
385.2989629819
 20
591.5435060723
 30
0.0
 11
385.1989612891
 21
591.5435060723
 31
0.0
  0
LINE
  5
2EB
330
1F
100
AcDbEntity
  8
0
  6
Continuous
 62
     7
370
    15
100
AcDbLine
 10
385.1989612891
 20
585.5435088141
 30
0.0
 11
385.2989629819
 21
585.5435088141
 31
0.0
  0
LINE
  5
2EC
330
1F
100
AcDbEntity
  8
0
  6
Continuous
 62
     7
370
    15
100
AcDbLine
 10
385.5989531591
 20
559.5435008271
 30
0.0
 11
385.5989531591
 21
554.5435055955
 31
0.0
  0
LINE
  5
2ED
330
1F
100
AcDbEntity
  8
0
  6
Continuous
 62
     7
370
    15
100
AcDbLine
 10
385.5989531591
 20
559.5435008271
 30
0.0
 11
400.5989537551
 21
559.5435008271
 31
0.0
  0
LINE
  5
2EE
330
1F
100
AcDbEntity
  8
0
  6
Continuous
 62
     7
370
    15
100
AcDbLine
 10
400.5989537551
 20
559.5435008271
 30
0.0
 11
400.5989537551
 21
554.5435055955
 31
0.0
  0
LINE
  5
2EF
330
1F
100
AcDbEntity
  8
0
  6
Continuous
 62
     7
370
    15
100
AcDbLine
 10
385.5989531591
 20
554.5435055955
 30
0.0
 11
400.5989537551
 21
554.5435055955
 31
0.0
  0
LINE
  5
2F0
330
1F
100
AcDbEntity
  8
0
  6
Continuous
 62
     7
370
    15
100
AcDbLine
 10
400.5989537551
 20
559.5435008271
 30
0.0
 11
770.5989585235
 21
559.5435008271
 31
0.0
  0
LINE
  5
2F1
330
1F
100
AcDbEntity
  8
0
  6
Continuous
 62
     7
370
    15
100
AcDbLine
 10
770.5989585235
 20
559.5435008271
 30
0.0
 11
770.5989585235
 21
554.5435055955
 31
0.0
  0
LINE
  5
2F2
330
1F
100
AcDbEntity
  8
0
  6
Continuous
 62
     7
370
    15
100
AcDbLine
 10
400.5989537551
 20
554.5435055955
 30
0.0
 11
770.5989585235
 21
554.5435055955
 31
0.0
  0
LINE
  5
2F3
330
1F
100
AcDbEntity
  8
0
  6
Continuous
 62
     7
370
    15
100
AcDbLine
 10
400.5989537551
 20
539.5435049994
 30
0.0
 11
400.5989537551
 21
554.5435055955
 31
0.0
  0
LINE
  5
2F4
330
1F
100
AcDbEntity
  8
0
  6
Continuous
 62
     7
370
    15
100
AcDbLine
 10
770.5989585235
 20
554.5435055955
 30
0.0
 11
770.5989585235
 21
539.5435049994
 31
0.0
  0
LINE
  5
2F5
330
1F
100
AcDbEntity
  8
0
  6
Continuous
 62
     7
370
    15
100
AcDbLine
 10
400.5989537551
 20
539.5435049994
 30
0.0
 11
770.5989585235
 21
539.5435049994
 31
0.0
  0
ARC
  5
2F6
330
1F
100
AcDbEntity
  8
0
  6
Continuous
 62
     7
370
    15
100
AcDbCircle
 10
400.5989561393
 20
554.5435051663
 30
0.0
 40
15.0
100
AcDbArc
 50
180.0
 51
270.0
  0
LINE
  5
2F7
330
1F
100
AcDbEntity
  8
0
  6
Continuous
 62
     7
370
    15
100
AcDbLine
 10
785.5989591195
 20
559.5435008271
 30
0.0
 11
785.5989591195
 21
554.5435055955
 31
0.0
  0
LINE
  5
2F8
330
1F
100
AcDbEntity
  8
0
  6
Continuous
 62
     7
370
    15
100
AcDbLine
 10
785.5989591195
 20
554.5435055955
 30
0.0
 11
770.5989585235
 21
554.5435055955
 31
0.0
  0
LINE
  5
2F9
330
1F
100
AcDbEntity
  8
0
  6
Continuous
 62
     7
370
    15
100
AcDbLine
 10
785.5989591195
 20
559.5435008271
 30
0.0
 11
770.5989585235
 21
559.5435008271
 31
0.0
  0
ARC
  5
2FA
330
1F
100
AcDbEntity
  8
0
  6
Continuous
 62
     7
370
    15
100
AcDbCircle
 10
770.5989561393
 20
554.5435051663
 30
0.0
 40
15.00000000000011
100
AcDbArc
 50
270.0
 51
0.0
  0
LINE
  5
2FB
330
1F
100
AcDbEntity
  8
0
  6
Continuous
 62
     7
370
    15
100
AcDbLine
 10
384.3989626481
 20
555.4573044045
 30
0.0
 11
384.3989626481
 21
557.5612738593
 31
0.0
  0
LINE
  5
2FC
330
1F
100
AcDbEntity
  8
0
  6
Continuous
 62
     7
370
    15
100
AcDbLine
 10
384.3989626481
 20
557.5612738593
 30
0.0
 11
385.5989531591
 21
557.5612738593
 31
0.0
  0
LINE
  5
2FD
330
1F
100
AcDbEntity
  8
0
  6
Continuous
 62
     7
370
    15
100
AcDbLine
 10
384.3989626481
 20
555.4573044045
 30
0.0
 11
385.5989531591
 21
555.4573044045
 31
0.0
  0
LINE
  5
2FE
330
1F
100
AcDbEntity
  8
0
  6
Continuous
 62
     7
370
    15
100
AcDbLine
 10
384.3989626481
 20
562.5435069068
 30
0.0
 11
385.5989531591
 21
562.5435069068
 31
0.0
  0
LINE
  5
2FF
330
1F
100
AcDbEntity
  8
0
  6
Continuous
 62
     7
370
    15
100
AcDbLine
 10
385.5989531591
 20
559.5435008271
 30
0.0
 11
385.5989531591
 21
562.5435069068
 31
0.0
  0
LINE
  5
300
330
1F
100
AcDbEntity
  8
0
  6
Continuous
 62
     7
370
    15
100
AcDbLine
 10
384.3989626481
 20
562.5435069068
 30
0.0
 11
384.3989626481
 21
557.5612738593
 31
0.0
  0
LINE
  5
301
330
1F
100
AcDbEntity
  8
0
  6
Continuous
 62
     7
370
    15
100
AcDbLine
 10
385.5989531591
 20
554.5435055955
 30
0.0
 11
385.5989531591
 21
551.0435059531
 31
0.0
  0
LINE
  5
302
330
1F
100
AcDbEntity
  8
0
  6
Continuous
 62
     7
370
    15
100
AcDbLine
 10
384.3989626481
 20
551.0435059531
 30
0.0
 11
384.3989626481
 21
555.4573044045
 31
0.0
  0
LINE
  5
303
330
1F
100
AcDbEntity
  8
0
  6
Continuous
 62
     7
370
    15
100
AcDbLine
 10
384.2989609554
 20
553.5435035689
 30
0.0
 11
384.2989609554
 21
559.5435008271
 31
0.0
  0
LINE
  5
304
330
1F
100
AcDbEntity
  8
0
  6
Continuous
 62
     7
370
    15
100
AcDbLine
 10
377.5509850099
 20
563.7459114058
 30
0.0
 11
378.2814995363
 21
562.7938911183
 31
0.0
  0
LINE
  5
305
330
1F
100
AcDbEntity
  8
0
  6
Continuous
 62
     7
370
    15
100
AcDbLine
 10
381.0944215371
 20
566.4648964865
 30
0.0
 11
377.5509850099
 21
563.7459114058
 31
0.0
  0
LINE
  5
306
330
1F
100
AcDbEntity
  8
0
  6
Continuous
 62
     7
370
    15
100
AcDbLine
 10
378.2814995363
 20
562.7938911183
 30
0.0
 11
381.8249360635
 21
565.512876199
 31
0.0
  0
ARC
  5
307
330
1F
100
AcDbEntity
  8
0
  6
Continuous
 62
     7
370
    15
100
AcDbCircle
 10
382.7989561393
 20
564.2435051663
 30
0.0
 40
2.800000000000011
100
AcDbArc
 50
0.0
 51
45.7322600129
  0
LINE
  5
308
330
1F
100
AcDbEntity
  8
0
  6
Continuous
 62
     7
370
    15
100
AcDbLine
 10
381.6913024499
 20
566.8151035769
 30
0.0
 11
381.0944215371
 21
566.4648964865
 31
0.0
  0
LINE
  5
309
330
1F
100
AcDbEntity
  8
0
  6
Continuous
 62
     7
370
    15
100
AcDbLine
 10
385.5989531591
 20
562.5435069068
 30
0.0
 11
385.5989531591
 21
563.5435089333
 31
0.0
  0
LINE
  5
30A
330
1F
100
AcDbEntity
  8
0
  6
Continuous
 62
     7
370
    15
100
AcDbLine
 10
384.3989626481
 20
563.1844505532
 30
0.0
 11
384.3989626481
 21
562.5435069068
 31
0.0
  0
LINE
  5
30B
330
1F
100
AcDbEntity
  8
0
  6
Continuous
 62
     7
370
    15
100
AcDbLine
 10
377.3294643476
 20
562.0633765919
 30
0.0
 11
376.5989498212
 21
563.0153968795
 31
0.0
  0
LWPOLYLINE
  5
30C
330
1F
100
AcDbEntity
  8
0
  6
Continuous
 62
     7
370
    15
100
AcDbPolyline
 90
        9
 70
   128
 43
0.0
 10
376.5989498212
 20
563.0153968795
 10
376.6172484472
 20
563.0294337733
 10
376.6714290693
 20
563.071008013
 10
376.7594055249
 20
563.1385102732
 10
376.8777952506
 20
563.229362653
 10
377.0220682933
 20
563.3400633795
 10
377.1866516187
 20
563.4663656218
 10
377.3652420356
 20
563.6033967002
 10
377.5509850099
 20
563.7459114058
  0
LWPOLYLINE
  5
30D
330
1F
100
AcDbEntity
  8
0
  6
Continuous
 62
     7
370
    15
100
AcDbPolyline
 90
        9
 70
   128
 43
0.0
 10
378.2814995363
 20
562.7938911183
 10
378.095756562
 20
562.6513764127
 10
377.9171661451
 20
562.5143304332
 10
377.7525828197
 20
562.388043092
 10
377.608309777
 20
562.2773423655
 10
377.4899200513
 20
562.1864899857
 10
377.4019435956
 20
562.1189877255
 10
377.3477629735
 20
562.0774134858
 10
377.3294643476
 20
562.0633765919
  0
SPLINE
  5
30E
330
1F
100
AcDbEntity
  8
0
  6
Continuous
 62
     7
370
    15
100
AcDbSpline
210
0.0
220
0.0
230
1.0
 70
     8
 71
     3
 72
    12
 73
     8
 74
     0
 42
0.00000001
 43
0.00000001
 40
0.0
 40
0.0
 40
0.0
 40
0.0
 40
0.2340518051280206
 40
0.4681089500171918
 40
0.7021655779966526
 40
0.936217206423978
 40
1.0
 40
1.0
 40
1.0
 40
1.0
 10
381.895940096591
 20
581.220622347138
 30
0.0
 10
381.6995470909731
 20
581.201239427457
 30
0.0
 10
381.3067565991405
 20
581.1624731458846
 30
0.0
 10
380.7692596460756
 20
581.1572357040681
 30
0.0
 10
380.3957579058371
 20
581.1957004899833
 30
0.0
 10
380.2165639589197
 20
581.2503670587105
 30
0.0
 10
380.2452827642525
 20
581.2943206772344
 30
0.0
 10
380.2514330460768
 20
581.3037335736967
 30
0.0
  0
SPLINE
  5
30F
330
1F
100
AcDbEntity
  8
0
  6
Continuous
 62
     7
370
    15
100
AcDbSpline
210
0.0
220
0.0
230
1.0
 70
     8
 71
     3
 72
    11
 73
     7
 74
     0
 42
0.00000001
 43
0.00000001
 40
0.0
 40
0.0
 40
0.0
 40
0.0
 40
0.1986866934056226
 40
0.4657940968944007
 40
0.7328966104905887
 40
1.0
 40
1.0
 40
1.0
 40
1.0
 10
383.1918493821363
 20
581.5995067222334
 30
0.0
 10
383.1906664094755
 20
581.575016795469
 30
0.0
 10
383.1878930899707
 20
581.5176034723888
 30
0.0
 10
382.918356006284
 20
581.410512097117
 30
0.0
 10
382.4713065278336
 20
581.2997054590855
 30
0.0
 10
382.08772911665
 20
581.2469834132692
 30
0.0
 10
381.895940096591
 20
581.220622347138
 30
0.0
  0
SPLINE
  5
310
330
1F
100
AcDbEntity
  8
0
  6
Continuous
 62
     7
370
    15
100
AcDbSpline
210
0.0
220
0.0
230
1.0
 70
     8
 71
     3
 72
    12
 73
     8
 74
     0
 42
0.00000001
 43
0.00000001
 40
0.0
 40
0.0
 40
0.0
 40
0.0
 40
0.2339657516696391
 40
0.4679297819275171
 40
0.7018962886551927
 40
0.935865542599682
 40
1.0
 40
1.0
 40
1.0
 40
1.0
 10
381.2889561965208
 20
587.2324958307959
 30
0.0
 10
381.0928760239951
 20
587.209989813006
 30
0.0
 10
380.7007171216109
 20
587.1649779430152
 30
0.0
 10
380.1977848990367
 20
586.817488832345
 30
0.0
 10
379.8779717673929
 20
586.3239999316324
 30
0.0
 10
379.750043622055
 20
585.8704142205357
 30
0.0
 10
379.8078346934522
 20
585.6274217301053
 30
0.0
 10
379.8202679469328
 20
585.5751439793326
 30
0.0
  0
SPLINE
  5
311
330
1F
100
AcDbEntity
  8
0
  6
Continuous
 62
     7
370
    15
100
AcDbSpline
210
0.0
220
0.0
230
1.0
 70
     8
 71
     3
 72
    11
 73
     7
 74
     0
 42
0.00000001
 43
0.00000001
 40
0.0
 40
0.0
 40
0.0
 40
0.0
 40
0.197688317045171
 40
0.4651245499065082
 40
0.732557952030392
 40
1.0
 40
1.0
 40
1.0
 40
1.0
 10
382.7591792657118
 20
585.8822047574736
 30
0.0
 10
382.7408990708583
 20
586.0269557471615
 30
0.0
 10
382.6978891068376
 20
586.367528422034
 30
0.0
 10
382.3724298961634
 20
586.8173013276111
 30
0.0
 10
381.8791341395444
 20
587.1650278433495
 30
0.0
 10
381.4856842974655
 20
587.2100062593001
 30
0.0
 10
381.2889561965208
 20
587.2324958307959
 30
0.0
  0
SPLINE
  5
312
330
1F
100
AcDbEntity
  8
0
  6
Continuous
 62
     7
370
    15
100
AcDbSpline
210
0.0
220
0.0
230
1.0
 70
     8
 71
     3
 72
    12
 73
     8
 74
     0
 42
0.00000001
 43
0.00000001
 40
0.0
 40
0.0
 40
0.0
 40
0.0
 40
0.2350187323561774
 40
0.4700313097903079
 40
0.7050488254647164
 40
0.9400629699996629
 40
1.0
 40
1.0
 40
1.0
 40
1.0
 10
383.465017469142
 20
565.6796499951101
 30
0.0
 10
383.2686266850116
 20
565.6602720352876
 30
0.0
 10
382.8758502600428
 20
565.6215166231331
 30
0.0
 10
382.3382427131677
 20
565.6162483219861
 30
0.0
 10
381.9651794450806
 20
565.6547735052723
 30
0.0
 10
381.7861354353593
 20
565.7088948418296
 30
0.0
 10
381.8140360681595
 20
565.7521961707499
 30
0.0
 10
381.8197057559233
 20
565.7609954340674
 30
0.0
  0
SPLINE
  5
313
330
1F
100
AcDbEntity
  8
0
  6
Continuous
 62
     7
370
    15
100
AcDbSpline
210
0.0
220
0.0
230
1.0
 70
     8
 71
     3
 72
    11
 73
     7
 74
     0
 42
0.00000001
 43
0.00000001
 40
0.0
 40
0.0
 40
0.0
 40
0.0
 40
0.1989193009382574
 40
0.4659478716240108
 40
0.7329728264197857
 40
1.0
 40
1.0
 40
1.0
 40
1.0
 10
384.7609714581708
 20
566.0586461289145
 30
0.0
 10
384.7597970864153
 20
566.0341196371186
 30
0.0
 10
384.757046242141
 20
565.9766688689084
 30
0.0
 10
384.4874418897151
 20
565.8695531053788
 30
0.0
 10
384.0403800951676
 20
565.7587294443855
 30
0.0
 10
383.6568055423528
 20
565.7060098845452
 30
0.0
 10
383.465017469142
 20
565.6796499951101
 30
0.0
  0
LINE
  5
314
330
1F
100
AcDbEntity
  8
0
  6
Continuous
 62
     7
370
    15
100
AcDbLine
 10
381.9880888774
 20
564.0772238238
 30
0.0
 11
381.9870904996
 21
564.2807587846
 31
0.0
  0
ARC
  5
315
330
1F
100
AcDbEntity
  8
0
  6
Continuous
 62
     7
370
    15
100
AcDbCircle
 10
384.6662453323
 20
575.9812808077
 30
0.0
 40
0.400007527466603
100
AcDbArc
 50
0.1467585748
 51
179.5021275155
  0
ELLIPSE
  5
316
330
1F
100
AcDbEntity
  8
0
  6
Continuous
 62
     7
370
    15
100
AcDbEllipse
 10
384.6662555396
 20
575.7163967726
 30
0.0
 11
0.3991830274372887
 21
-0.02624604221148274
 31
0.0
210
0.0
220
0.0
230
0.9999999999999998
 40
0.9763157485
 41
0.0
 42
6.283185307179586
  0
SPLINE
  5
317
330
1F
100
AcDbEntity
  8
0
  6
Continuous
 62
     7
370
    15
100
AcDbSpline
210
0.0
220
0.0
230
1.0
 70
     8
 71
     3
 72
    13
 73
     9
 74
     0
 42
0.00000001
 43
0.00000001
 40
0.0
 40
0.0
 40
0.0
 40
0.0
 40
0.0081702255363152
 40
0.2391558285067378
 40
0.4711050326031623
 40
0.6931301664665489
 40
0.9042366219981457
 40
1.0
 40
1.0
 40
1.0
 40
1.0
 10
384.6662596776228
 20
576.4452323181845
 30
0.0
 10
384.6646007765391
 20
576.4448375221193
 30
0.0
 10
384.6160420358645
 20
576.4332811973084
 30
0.0
 10
384.5199074659881
 20
576.410087869448
 30
0.0
 10
384.3970777822217
 20
576.3664315165602
 30
0.0
 10
384.311423741285
 20
576.3289911263457
 30
0.0
 10
384.2674072067158
 20
576.3078429852973
 30
0.0
 10
384.2706386927432
 20
576.3028634059324
 30
0.0
 10
384.2716471268873
 20
576.3013094527937
 30
0.0
  0
SPLINE
  5
318
330
1F
100
AcDbEntity
  8
0
  6
Continuous
 62
     7
370
    15
100
AcDbSpline
210
0.0
220
0.0
230
1.0
 70
     8
 71
     3
 72
    13
 73
     9
 74
     0
 42
0.00000001
 43
0.00000001
 40
0.0
 40
0.0
 40
0.0
 40
0.0
 40
0.1252341766304182
 40
0.2499825864961038
 40
0.4999856401740236
 40
0.7499976044866836
 40
0.8747560402315016
 40
0.9999999999999999
 40
0.9999999999999999
 40
0.9999999999999999
 40
0.9999999999999999
 10
385.0662664487105
 20
576.4395400746084
 30
0.0
 10
385.0645520752001
 20
576.4395629170141
 30
0.0
 10
385.061129978007
 20
576.4396085132225
 30
0.0
 10
385.0267526838076
 20
576.4401036113019
 30
0.0
 10
384.9514632922512
 20
576.4411718103134
 30
0.0
 10
384.8428236809855
 20
576.4427239248595
 30
0.0
 10
384.7441116935822
 20
576.4441203799731
 30
0.0
 10
384.6922439266833
 20
576.4448611925422
 30
0.0
 10
384.6662596776228
 20
576.4452323181845
 30
0.0
  0
SPLINE
  5
319
330
1F
100
AcDbEntity
  8
0
  6
Continuous
 62
     7
370
    15
100
AcDbSpline
210
0.0
220
0.0
230
1.0
 70
     8
 71
     3
 72
    10
 73
     6
 74
     0
 42
0.00000001
 43
0.00000001
 40
0.0
 40
0.0
 40
0.0
 40
0.0
 40
0.0190106334334019
 40
0.525313552957266
 40
1.0
 40
1.0
 40
1.0
 40
1.0
 10
384.6662596776227
 20
576.4452323181845
 30
0.0
 10
384.6677840271415
 20
576.4459700147924
 30
0.0
 10
384.7099057935979
 20
576.4663545026344
 30
0.0
 10
384.7924270227704
 20
576.5047702675273
 30
0.0
 10
384.8625808889031
 20
576.5308741757748
 30
0.0
 10
384.8965273215513
 20
576.5435054762579
 30
0.0
  0
LINE
  5
31A
330
1F
100
AcDbEntity
  8
0
  6
Continuous
 62
     7
370
    15
100
AcDbLine
 10
379.78976527
 20
585.6833562119
 30
0.0
 11
379.8021928384
 21
585.5336963995
 31
0.0
  0
LINE
  5
31B
330
1F
100
AcDbEntity
  8
0
  6
Continuous
 62
     7
370
    15
100
AcDbLine
 10
382.7819631412
 20
585.8772054179
 30
0.0
 11
382.7463791682
 21
586.0873639448
 31
0.0
  0
ARC
  5
31C
330
1F
100
AcDbEntity
  8
0
  6
Continuous
 62
     7
370
    15
100
AcDbCircle
 10
380.6989561393
 20
579.5635051663
 30
0.0
 40
2.200000000000032
100
AcDbArc
 50
103.5934749692
 51
268.1042765976
  0
LINE
  5
31D
330
1F
100
AcDbEntity
  8
0
  6
Continuous
 62
     7
370
    15
100
AcDbLine
 10
377.1521256282
 20
580.9412702782
 30
0.0
 11
377.4857775285
 21
582.833501683
 31
0.0
  0
LWPOLYLINE
  5
31E
330
1F
100
AcDbEntity
  8
0
  6
Continuous
 62
     7
370
    15
100
AcDbPolyline
 90
        9
 70
   128
 43
0.0
 10
377.4857775285
 20
582.833501683
 10
377.3415342881
 20
582.8589379652
 10
377.2045032098
 20
582.8831001981
 10
377.0793930604
 20
582.9051613672
 10
376.9705400779
 20
582.9243540628
 10
376.881714256
 20
582.9400151832
 10
376.815985234
 20
582.9516082866
 10
376.7756179883
 20
582.9587235911
 10
376.761998327
 20
582.9611301286
  0
LINE
  5
31F
330
1F
100
AcDbEntity
  8
0
  6
Continuous
 62
     7
370
    15
100
AcDbLine
 10
376.761998327
 20
582.9611301286
 30
0.0
 11
381.1370388581
 21
607.773239897
 31
0.0
  0
LWPOLYLINE
  5
320
330
1F
100
AcDbEntity
  8
0
  6
Continuous
 62
     7
370
    15
100
AcDbPolyline
 90
        9
 70
   128
 43
0.0
 10
381.1370388581
 20
607.773239897
 10
381.1521784379
 20
607.7705651386
 10
381.197016032
 20
607.7626600726
 10
381.2698231055
 20
607.7498227222
 10
381.3677982404
 20
607.7325522764
 10
381.4871863439
 20
607.7114969356
 10
381.6233978584
 20
607.6874837144
 10
381.7711875751
 20
607.6614215834
 10
381.9248930528
 20
607.6343163712
  0
LINE
  5
321
330
1F
100
AcDbEntity
  8
0
  6
Continuous
 62
     7
370
    15
100
AcDbLine
 10
381.9248930528
 20
607.6343163712
 30
0.0
 11
377.0995543315
 21
580.2685201032
 31
0.0
  0
LINE
  5
322
330
1F
100
AcDbEntity
  8
0
  6
Continuous
 62
     7
370
    15
100
AcDbLine
 10
377.0995543315
 20
580.2685201032
 30
0.0
 11
377.1521256282
 21
580.9412702782
 31
0.0
  0
LWPOLYLINE
  5
323
330
1F
100
AcDbEntity
  8
0
  6
Continuous
 62
     7
370
    15
100
AcDbPolyline
 90
        5
 70
   128
 43
0.0
 10
379.9843446328
 20
614.6615624292
 10
379.7308609798
 20
615.3579681976
 10
379.5473084762
 20
615.8622830971
 10
379.436175616
 20
616.1676376922
 10
379.3989525153
 20
616.2698894603
  0
LWPOLYLINE
  5
324
330
1F
100
AcDbEntity
  8
0
  6
Continuous
 62
     7
370
    15
100
AcDbPolyline
 90
        5
 70
   128
 43
0.0
 10
380.743961127
 20
614.9135485156
 10
380.4871247127
 20
615.6192228062
 10
380.3010837152
 20
616.1303400858
 10
380.1884309365
 20
616.4398595555
 10
380.1507160976
 20
616.5435045822
  0
LINE
  5
325
330
1F
100
AcDbEntity
  8
0
  6
Continuous
 62
     7
370
    15
100
AcDbLine
 10
380.9660629346
 20
614.5591094954
 30
0.0
 11
380.743961127
 21
614.9135485156
 31
0.0
  0
LINE
  5
326
330
1F
100
AcDbEntity
  8
0
  6
Continuous
 62
     7
370
    15
100
AcDbLine
 10
380.8838681295
 20
614.5291879637
 30
0.0
 11
380.9660629346
 21
614.5591094954
 31
0.0
  0
SPLINE
  5
327
330
1F
100
AcDbEntity
  8
0
  6
Continuous
 62
     7
370
    15
100
AcDbSpline
210
0.0
220
0.0
230
1.0
 70
     8
 71
     3
 72
    12
 73
     8
 74
     0
 42
0.00000001
 43
0.00000001
 40
0.0
 40
0.0
 40
0.0
 40
0.0
 40
0.2510172357647315
 40
0.5023980923729131
 40
0.7402747485671194
 40
0.9473067201835714
 40
1.0
 40
1.0
 40
1.0
 40
1.0
 10
379.9843446328383
 20
614.6615624292112
 30
0.0
 10
380.0120544823957
 20
614.6172444303674
 30
0.0
 10
380.0675143216981
 20
614.5285442341076
 30
0.0
 10
380.2745032236736
 20
614.4535551750603
 30
0.0
 10
380.5358993060399
 20
614.4420596524169
 30
0.0
 10
380.7524797009138
 20
614.4837059281215
 30
0.0
 10
380.8617078331397
 20
614.5215168514715
 30
0.0
 10
380.8838681294661
 20
614.5291879637457
 30
0.0
  0
LINE
  5
328
330
1F
100
AcDbEntity
  8
0
  6
Continuous
 62
     7
370
    15
100
AcDbLine
 10
380.8838681295
 20
614.5291879637
 30
0.0
 11
381.460200341
 21
612.9457011683
 31
0.0
  0
LWPOLYLINE
  5
329
330
1F
100
AcDbEntity
  8
0
  6
Continuous
 62
     7
370
    15
100
AcDbPolyline
 90
        9
 70
   128
 43
0.0
 10
380.7084516599
 20
612.6720860465
 10
380.7228908851
 20
612.6773461564
 10
380.7656721189
 20
612.6929178698
 10
380.8351413324
 20
612.7181976898
 10
380.9286312177
 20
612.7522244914
 10
381.042550595
 20
612.7936869724
 10
381.172518523
 20
612.8409981592
 10
381.3135431125
 20
612.8923252089
 10
381.460200341
 20
612.9457011683
  0
LINE
  5
32A
330
1F
100
AcDbEntity
  8
0
  6
Continuous
 62
     7
370
    15
100
AcDbLine
 10
380.7084516599
 20
612.6720860465
 30
0.0
 11
379.9843446328
 21
614.6615624292
 31
0.0
  0
ARC
  5
32B
330
1F
100
AcDbEntity
  8
0
  6
Continuous
 62
     7
370
    15
100
AcDbCircle
 10
381.2889616455
 20
585.7324960848
 30
0.0
 40
1.600000000000062
100
AcDbArc
 50
347.034367059
 51
204.5950707184
  0
LINE
  5
32C
330
1F
100
AcDbEntity
  8
0
  6
Continuous
 62
     7
370
    15
100
AcDbLine
 10
384.0989575698
 20
608.3591908081
 30
0.0
 11
384.0989575698
 21
580.3335040672
 31
0.0
  0
ARC
  5
32D
330
1F
100
AcDbEntity
  8
0
  6
Continuous
 62
     7
370
    15
100
AcDbCircle
 10
371.7813690988
 20
609.4228956346
 30
0.0
 40
10.30000000000011
100
AcDbArc
 50
350.0
 51
20.0
  0
ARC
  5
32E
330
1F
100
AcDbEntity
  8
0
  6
Continuous
 62
     7
370
    15
100
AcDbCircle
 10
381.6836580651
 20
615.2555700207
 30
0.0
 40
1.0
100
AcDbArc
 50
224.1440002858
 51
270.0
  0
LINE
  5
32F
330
1F
100
AcDbEntity
  8
0
  6
Continuous
 62
     7
370
    15
100
AcDbLine
 10
381.6836581542
 20
614.2555728419
 30
0.0
 11
381.8016753509
 21
614.2555728419
 31
0.0
  0
ARC
  5
330
330
1F
100
AcDbEntity
  8
0
  6
Continuous
 62
     7
370
    15
100
AcDbCircle
 10
374.5989561393
 20
608.3591912123
 30
0.0
 40
9.5
100
AcDbArc
 50
0.0
 51
36.8410865502
  0
ARC
  5
331
330
1F
100
AcDbEntity
  8
0
  6
Continuous
 62
     7
370
    15
100
AcDbCircle
 10
381.8016706107
 20
613.7555700207
 30
0.0
 40
0.5
100
AcDbArc
 50
36.8410865503
 51
90.0
  0
LWPOLYLINE
  5
332
330
1F
100
AcDbEntity
  8
0
  6
Continuous
 62
     7
370
    15
100
AcDbPolyline
 90
        3
 70
   128
 43
0.0
 10
384.0989575698
 20
580.3335040672
 10
383.8903413131
 20
579.1432216628
 10
383.5341737582
 20
578.4270644052
  0
ARC
  5
333
330
1F
100
AcDbEntity
  8
0
  6
Continuous
 62
     7
370
    15
100
AcDbCircle
 10
380.5989561393
 20
580.3335051663
 30
0.0
 40
3.500000000000063
100
AcDbArc
 50
181.0639402281
 51
271.3221928089
  0
ARC
  5
334
330
1F
100
AcDbEntity
  8
0
  6
Continuous
 62
     7
370
    15
100
AcDbCircle
 10
371.7813690988
 20
609.4228956346
 30
0.0
 40
9.500000000000039
100
AcDbArc
 50
350.0
 51
20.0
  0
ARC
  5
335
330
1F
100
AcDbEntity
  8
0
  6
Continuous
 62
     7
370
    15
100
AcDbCircle
 10
381.1925739327
 20
581.0310006931
 30
0.0
 40
4.698428302688391
100
AcDbArc
 50
170.0
 51
264.3261771657
  0
LINE
  5
336
330
1F
100
AcDbEntity
  8
0
  6
Continuous
 62
     7
370
    15
100
AcDbLine
 10
376.761998327
 20
582.9611301286
 30
0.0
 11
376.5655265167
 21
581.8468734486
 31
0.0
  0
LINE
  5
337
330
1F
100
AcDbEntity
  8
0
  6
Continuous
 62
     7
370
    15
100
AcDbLine
 10
400.5989537551
 20
563.5435089333
 30
0.0
 11
770.5989585235
 21
563.5435089333
 31
0.0
  0
LINE
  5
338
330
1F
100
AcDbEntity
  8
0
  6
Continuous
 62
     7
370
    15
100
AcDbLine
 10
400.5989537551
 20
563.5435089333
 30
0.0
 11
400.5989537551
 21
684.5435054837
 31
0.0
  0
LINE
  5
339
330
1F
100
AcDbEntity
  8
0
  6
Continuous
 62
     7
370
    15
100
AcDbLine
 10
770.5989585235
 20
684.5435054837
 30
0.0
 11
400.5989537551
 21
684.5435054837
 31
0.0
  0
LINE
  5
33A
330
1F
100
AcDbEntity
  8
0
  6
Continuous
 62
     7
370
    15
100
AcDbLine
 10
770.5989585235
 20
563.5435089333
 30
0.0
 11
770.5989585235
 21
684.5435054837
 31
0.0
  0
LINE
  5
33B
330
1F
100
AcDbEntity
  8
0
  6
Continuous
 62
     7
370
    15
100
AcDbLine
 10
405.5989489867
 20
583.543504761
 30
0.0
 11
405.5989489867
 21
679.5435055955
 31
0.0
  0
LINE
  5
33C
330
1F
100
AcDbEntity
  8
0
  6
Continuous
 62
     7
370
    15
100
AcDbLine
 10
405.5989489867
 20
583.543504761
 30
0.0
 11
765.5989632919
 21
583.543504761
 31
0.0
  0
LINE
  5
33D
330
1F
100
AcDbEntity
  8
0
  6
Continuous
 62
     7
370
    15
100
AcDbLine
 10
765.5989632919
 20
679.5435055955
 30
0.0
 11
765.5989632919
 21
583.543504761
 31
0.0
  0
LINE
  5
33E
330
1F
100
AcDbEntity
  8
0
  6
Continuous
 62
     7
370
    15
100
AcDbLine
 10
765.5989632919
 20
679.5435055955
 30
0.0
 11
405.5989489867
 21
679.5435055955
 31
0.0
  0
LINE
  5
33F
330
1F
100
AcDbEntity
  8
0
  6
Continuous
 62
     7
370
    15
100
AcDbLine
 10
400.5989537551
 20
684.5435054837
 30
0.0
 11
400.5989537551
 21
699.5435051484
 31
0.0
  0
LINE
  5
340
330
1F
100
AcDbEntity
  8
0
  6
Continuous
 62
     7
370
    15
100
AcDbLine
 10
400.5989537551
 20
684.5435054837
 30
0.0
 11
385.5989531591
 21
684.5435054837
 31
0.0
  0
ARC
  5
341
330
1F
100
AcDbEntity
  8
0
  6
Continuous
 62
     7
370
    15
100
AcDbCircle
 10
400.5989561393
 20
684.5435051663
 30
0.0
 40
15.0
100
AcDbArc
 50
90.0
 51
180.0
  0
LINE
  5
342
330
1F
100
AcDbEntity
  8
0
  6
Continuous
 62
     7
370
    15
100
AcDbLine
 10
770.5989585235
 20
684.5435054837
 30
0.0
 11
785.5989591195
 21
684.5435054837
 31
0.0
  0
LINE
  5
343
330
1F
100
AcDbEntity
  8
0
  6
Continuous
 62
     7
370
    15
100
AcDbLine
 10
770.5989585235
 20
684.5435054837
 30
0.0
 11
770.5989585235
 21
699.5435051484
 31
0.0
  0
ARC
  5
344
330
1F
100
AcDbEntity
  8
0
  6
Continuous
 62
     7
370
    15
100
AcDbCircle
 10
770.5989561393
 20
684.5435051663
 30
0.0
 40
15.0
100
AcDbArc
 50
0.0
 51
90.0
  0
LINE
  5
345
330
1F
100
AcDbEntity
  8
0
  6
Continuous
 62
     7
370
    15
100
AcDbLine
 10
385.5989531591
 20
563.5435089333
 30
0.0
 11
385.5989531591
 21
684.5435054837
 31
0.0
  0
LINE
  5
346
330
1F
100
AcDbEntity
  8
0
  6
Continuous
 62
     7
370
    15
100
AcDbLine
 10
400.5989537551
 20
563.5435089333
 30
0.0
 11
385.5989531591
 21
563.5435089333
 31
0.0
  0
LINE
  5
347
330
1F
100
AcDbEntity
  8
0
  6
Continuous
 62
     7
370
    15
100
AcDbLine
 10
770.5989585235
 20
699.5435051484
 30
0.0
 11
400.5989537551
 21
699.5435051484
 31
0.0
  0
LINE
  5
348
330
1F
100
AcDbEntity
  8
0
  6
Continuous
 62
     7
370
    15
100
AcDbLine
 10
785.5989591195
 20
563.5435089333
 30
0.0
 11
785.5989591195
 21
684.5435054837
 31
0.0
  0
LINE
  5
349
330
1F
100
AcDbEntity
  8
0
  6
Continuous
 62
     7
370
    15
100
AcDbLine
 10
785.5989591195
 20
563.5435089333
 30
0.0
 11
770.5989585235
 21
563.5435089333
 31
0.0
  0
LINE
  5
34A
330
1F
100
AcDbEntity
  8
0
  6
Continuous
 62
     7
370
    15
100
AcDbLine
 10
405.5989489867
 20
559.5435008271
 30
0.0
 11
405.5989489867
 21
563.5435089333
 31
0.0
  0
LINE
  5
34B
330
1F
100
AcDbEntity
  8
0
  6
Continuous
 62
     7
370
    15
100
AcDbLine
 10
390.5989632919
 20
559.5435008271
 30
0.0
 11
390.5989632919
 21
563.5435089333
 31
0.0
  0
LINE
  5
34C
330
1F
100
AcDbEntity
  8
0
  6
Continuous
 62
     7
370
    15
100
AcDbLine
 10
765.5989632919
 20
559.5435008271
 30
0.0
 11
765.5989632919
 21
563.5435089333
 31
0.0
  0
LINE
  5
34D
330
1F
100
AcDbEntity
  8
0
  6
Continuous
 62
     7
370
    15
100
AcDbLine
 10
780.5989489867
 20
563.5435089333
 30
0.0
 11
780.5989489867
 21
559.5435008271
 31
0.0
  0
LINE
  5
34E
330
1F
100
AcDbEntity
  8
0
  6
Continuous
 62
     7
370
    15
100
AcDbLine
 10
785.5989591195
 20
563.5435089333
 30
0.0
 11
786.2662778213
 21
563.5435089333
 31
0.0
  0
ARC
  5
34F
330
1F
100
AcDbEntity
  8
0
  6
Continuous
 62
     7
370
    15
100
AcDbCircle
 10
786.2662738874
 20
564.0435051663
 30
0.0
 40
0.499999999999953
100
AcDbArc
 50
270.0
 51
332.720387264
  0
ARC
  5
350
330
1F
100
AcDbEntity
  8
0
  6
Continuous
 62
     7
370
    15
100
AcDbCircle
 10
791.5989561393
 20
561.2935051663
 30
0.0
 40
5.500000000000259
100
AcDbArc
 50
202.024312837
 51
152.720387264
  0
ARC
  5
351
330
1F
100
AcDbEntity
  8
0
  6
Continuous
 62
     7
370
    15
100
AcDbCircle
 10
786.036807274
 20
559.0435051663
 30
0.0
 40
0.5
100
AcDbArc
 50
22.0243128371
 51
90.0
  0
LINE
  5
352
330
1F
100
AcDbEntity
  8
0
  6
Continuous
 62
     7
370
    15
100
AcDbLine
 10
786.0367999389
 20
559.5435008271
 30
0.0
 11
785.5989591195
 21
559.5435008271
 31
0.0
  0
LINE
  5
353
330
1F
100
AcDbEntity
  8
0
  6
Continuous
 62
     7
370
    15
100
AcDbLine
 10
385.2989629819
 20
582.74350612
 30
0.0
 11
385.5989531591
 21
582.7445641024
 31
0.0
  0
LINE
  5
354
330
1F
100
AcDbEntity
  8
0
  6
Continuous
 62
     7
370
    15
100
AcDbLine
 10
385.5989531591
 20
584.7435027225
 30
0.0
 11
385.2989629819
 21
584.7435027225
 31
0.0
  0
LINE
  5
355
330
1F
100
AcDbEntity
  8
0
  6
Continuous
 62
     7
370
    15
100
AcDbLine
 10
385.2989629819
 20
582.74350612
 30
0.0
 11
385.2989629819
 21
584.7435027225
 31
0.0
  0
LINE
  5
356
330
1F
100
AcDbEntity
  8
0
  6
Continuous
 62
     7
370
    15
100
AcDbLine
 10
385.5989531591
 20
576.5435054763
 30
0.0
 11
385.2989629819
 21
576.5435054763
 31
0.0
  0
LINE
  5
357
330
1F
100
AcDbEntity
  8
0
  6
Continuous
 62
     7
370
    15
100
AcDbLine
 10
385.2989629819
 20
576.5435054763
 30
0.0
 11
385.2989629819
 21
582.74350612
 31
0.0
  0
ARC
  5
358
330
1F
100
AcDbEntity
  8
0
  6
Continuous
 62
     7
370
    15
100
AcDbCircle
 10
380.3989561393
 20
579.6435051663
 30
0.0
 40
3.100000000000023
100
AcDbArc
 50
192.3149213774
 51
270.0
  0
LINE
  5
359
330
1F
100
AcDbEntity
  8
0
  6
Continuous
 62
     7
370
    15
100
AcDbLine
 10
385.2989629819
 20
582.74350612
 30
0.0
 11
384.0989575698
 21
582.74350612
 31
0.0
  0
LINE
  5
35A
330
1F
100
AcDbEntity
  8
0
  6
Continuous
 62
     7
370
    15
100
AcDbLine
 10
380.3989545419
 20
576.5435054763
 30
0.0
 11
380.7090924098
 21
576.5435054763
 31
0.0
  0
LINE
  5
35B
330
1F
100
AcDbEntity
  8
0
  6
Continuous
 62
     7
370
    15
100
AcDbLine
 10
383.7243423774
 20
576.5435054763
 30
0.0
 11
385.2989629819
 21
576.5435054763
 31
0.0
  0
LINE
  5
35C
330
1F
100
AcDbEntity
  8
0
  6
Continuous
 62
     7
370
    15
100
AcDbLine
 10
385.2989629819
 20
615.5435025556
 30
0.0
 11
385.2989629819
 21
608.7935075028
 31
0.0
  0
LINE
  5
35D
330
1F
100
AcDbEntity
  8
0
  6
Continuous
 62
     7
370
    15
100
AcDbLine
 10
385.2989629819
 20
584.7435027225
 30
0.0
 11
385.2989629819
 21
608.7935075028
 31
0.0
  0
LINE
  5
35E
330
1F
100
AcDbEntity
  8
0
  6
Continuous
 62
     7
370
    15
100
AcDbLine
 10
385.1989612891
 20
608.5435032709
 30
0.0
 11
385.1989612891
 21
614.5435079797
 31
0.0
  0
LINE
  5
35F
330
1F
100
AcDbEntity
  8
0
  6
Continuous
 62
     7
370
    15
100
AcDbLine
 10
385.1989612891
 20
585.5435088141
 30
0.0
 11
385.1989612891
 21
591.5435060723
 31
0.0
  0
LINE
  5
360
330
1F
100
AcDbEntity
  8
0
  6
Continuous
 62
     7
370
    15
100
AcDbLine
 10
385.2989629819
 20
599.5435073836
 30
0.0
 11
384.0989575698
 21
599.8650446398
 31
0.0
  0
LINE
  5
361
330
1F
100
AcDbEntity
  8
0
  6
Continuous
 62
     7
370
    15
100
AcDbLine
 10
384.0989575698
 20
600.900317715
 30
0.0
 11
385.2989629819
 21
600.5787804587
 31
0.0
  0
LINE
  5
362
330
1F
100
AcDbEntity
  8
0
  6
Continuous
 62
     8
370
    15
100
AcDbLine
 10
385.5989531591
 20
608.7935075028
 30
0.0
 11
385.2989629819
 21
608.7935075028
 31
0.0
  0
ENDSEC
  0
SECTION
  2
OBJECTS
  0
DICTIONARY
  5
C
330
0
100
AcDbDictionary
281
     1
  3
ACAD_GROUP
350
D
  3
ACAD_LAYOUT
350
1A
  3
ACAD_MLINESTYLE
350
17
  3
ACAD_PLOTSETTINGS
350
19
  3
ACAD_PLOTSTYLENAME
350
E
  0
DICTIONARY
  5
D
102
{ACAD_REACTORS
330
C
102
}
330
C
100
AcDbDictionary
281
     1
  0
DICTIONARY
  5
1A
102
{ACAD_REACTORS
330
C
102
}
330
C
100
AcDbDictionary
281
     1
  3
Layout1
350
1E
  3
Layout2
350
26
  3
Model
350
22
  0
DICTIONARY
  5
17
102
{ACAD_REACTORS
330
C
102
}
330
C
100
AcDbDictionary
281
     1
  3
Standard
350
18
  0
DICTIONARY
  5
19
102
{ACAD_REACTORS
330
C
102
}
330
C
100
AcDbDictionary
281
     1
  0
ACDBDICTIONARYWDFLT
  5
E
102
{ACAD_REACTORS
330
C
102
}
330
C
100
AcDbDictionary
281
     1
  3
Normal
350
F
100
AcDbDictionaryWithDefault
340
F
  0
LAYOUT
  5
1E
102
{ACAD_REACTORS
330
1A
102
}
330
1A
100
AcDbPlotSettings
  1

  2
none_device
  4

  6

 40
0.0
 41
0.0
 42
0.0
 43
0.0
 44
0.0
 45
0.0
 46
0.0
 47
0.0
 48
0.0
 49
0.0
140
0.0
141
0.0
142
1.0
143
1.0
 70
   688
 72
     0
 73
     0
 74
     5
  7

 75
    16
147
1.0
148
0.0
149
0.0
100
AcDbLayout
  1
Layout1
 70
     1
 71
     1
 10
0.0
 20
0.0
 11
420.0
 21
297.0
 12
0.0
 22
0.0
 32
0.0
 14
1.0000000000E+20
 24
1.0000000000E+20
 34
1.0000000000E+20
 15
-1.0000000000E+20
 25
-1.0000000000E+20
 35
-1.0000000000E+20
146
0.0
 13
0.0
 23
0.0
 33
0.0
 16
1.0
 26
0.0
 36
0.0
 17
0.0
 27
1.0
 37
0.0
 76
     0
330
1B
  0
LAYOUT
  5
26
102
{ACAD_REACTORS
330
1A
102
}
330
1A
100
AcDbPlotSettings
  1

  2
none_device
  4

  6

 40
0.0
 41
0.0
 42
0.0
 43
0.0
 44
0.0
 45
0.0
 46
0.0
 47
0.0
 48
0.0
 49
0.0
140
0.0
141
0.0
142
1.0
143
1.0
 70
   688
 72
     0
 73
     0
 74
     5
  7

 75
    16
147
1.0
148
0.0
149
0.0
100
AcDbLayout
  1
Layout2
 70
     1
 71
     2
 10
0.0
 20
0.0
 11
0.0
 21
0.0
 12
0.0
 22
0.0
 32
0.0
 14
0.0
 24
0.0
 34
0.0
 15
0.0
 25
0.0
 35
0.0
146
0.0
 13
0.0
 23
0.0
 33
0.0
 16
1.0
 26
0.0
 36
0.0
 17
0.0
 27
1.0
 37
0.0
 76
     0
330
23
  0
LAYOUT
  5
22
102
{ACAD_REACTORS
330
1A
102
}
330
1A
100
AcDbPlotSettings
  1

  2
none_device
  4

  6

 40
0.0
 41
0.0
 42
0.0
 43
0.0
 44
0.0
 45
0.0
 46
0.0
 47
0.0
 48
0.0
 49
0.0
140
0.0
141
0.0
142
1.0
143
1.0
 70
  1712
 72
     0
 73
     0
 74
     0
  7

 75
     0
147
1.0
148
0.0
149
0.0
100
AcDbLayout
  1
Model
 70
     1
 71
     0
 10
0.0
 20
0.0
 11
840.0
 21
594.0
 12
0.0
 22
0.0
 32
0.0
 14
0.0
 24
0.0
 34
0.0
 15
840.0
 25
594.0
 35
0.0
146
0.0
 13
0.0
 23
0.0
 33
0.0
 16
1.0
 26
0.0
 36
0.0
 17
0.0
 27
1.0
 37
0.0
 76
     0
330
1F
331
29
  0
MLINESTYLE
  5
18
102
{ACAD_REACTORS
330
17
102
}
330
17
100
AcDbMlineStyle
  2
Standard
 70
     0
  3

 62
   256
 51
90.0
 52
90.0
 71
     2
 49
0.5
 62
   256
  6
BYLAYER
 49
-0.5
 62
   256
  6
BYLAYER
  0
ACDBPLACEHOLDER
  5
F
102
{ACAD_REACTORS
330
E
102
}
330
E
  0
ENDSEC
  0
EOF
