  0
SECTION
  2
HEADER
  9
$ACADVER
  1
AC1015
  9
$ACADMAINTVER
 70
     6
  9
$DWGCODEPAGE
  3
DOS932
  9
$INSBASE
 10
0.0
 20
0.0
 30
0.0
  9
$EXTMIN
 10
0.0
 20
0.0
 30
0.0
  9
$EXTMAX
 10
840.0
 20
594.0
 30
0.0
  9
$LIMMIN
 10
0.0
 20
0.0
  9
$LIMMAX
 10
840.0
 20
594.0
  9
$ORTHOMODE
 70
     0
  9
$REGENMODE
 70
     1
  9
$FILLMODE
 70
     1
  9
$QTEXTMODE
 70
     0
  9
$MIRRTEXT
 70
     1
  9
$LTSCALE
 40
2.0
  9
$ATTMODE
 70
     1
  9
$TEXTSIZE
 40
7.0
  9
$TRACEWID
 40
1.0
  9
$TEXTSTYLE
  7
Standard
  9
$CLAYER
  8
0
  9
$CELTYPE
  6
ByLayer
  9
$CECOLOR
 62
   256
  9
$CELTSCALE
 40
1.0
  9
$DISPSILH
 70
     0
  9
$DIMSCALE
 40
1.0
  9
$DIMASZ
 40
6.0
  9
$DIMEXO
 40
2.0
  9
$DIMDLI
 40
3.75
  9
$DIMRND
 40
0.0
  9
$DIMDLE
 40
0.0
  9
$DIMEXE
 40
2.0
  9
$DIMTP
 40
0.0
  9
$DIMTM
 40
0.0
  9
$DIMTXT
 40
7.0
  9
$DIMCEN
 40
2.5
  9
$DIMTSZ
 40
0.0
  9
$DIMTOL
 70
     0
  9
$DIMLIM
 70
     0
  9
$DIMTIH
 70
     1
  9
$DIMTOH
 70
     1
  9
$DIMSE1
 70
     0
  9
$DIMSE2
 70
     0
  9
$DIMTAD
 70
     1
  9
$DIMZIN
 70
     0
  9
$DIMBLK
  1

  9
$DIMASO
 70
     1
  9
$DIMSHO
 70
     1
  9
$DIMPOST
  1

  9
$DIMAPOST
  1

  9
$DIMALT
 70
     0
  9
$DIMALTD
 70
     3
  9
$DIMALTF
 40
0.0393700787
  9
$DIMLFAC
 40
1.0
  9
$DIMTOFL
 70
     1
  9
$DIMTVP
 40
0.0
  9
$DIMTIX
 70
     0
  9
$DIMSOXD
 70
     0
  9
$DIMSAH
 70
     0
  9
$DIMBLK1
  1

  9
$DIMBLK2
  1

  9
$DIMSTYLE
  2
ISO-25
  9
$DIMCLRD
 70
     0
  9
$DIMCLRE
 70
     0
  9
$DIMCLRT
 70
     0
  9
$DIMTFAC
 40
1.0
  9
$DIMGAP
 40
3.048
  9
$DIMJUST
 70
     0
  9
$DIMSD1
 70
     0
  9
$DIMSD2
 70
     0
  9
$DIMTOLJ
 70
     0
  9
$DIMTZIN
 70
     0
  9
$DIMALTZ
 70
     0
  9
$DIMALTTZ
 70
     0
  9
$DIMUPT
 70
     0
  9
$DIMDEC
 70
     1
  9
$DIMTDEC
 70
     1
  9
$DIMALTU
 70
     2
  9
$DIMALTTD
 70
     3
  9
$DIMTXSTY
  7
Standard
  9
$DIMAUNIT
 70
     0
  9
$DIMADEC
 70
     2
  9
$DIMALTRND
 40
0.0
  9
$DIMAZIN
 70
     0
  9
$DIMDSEP
 70
    44
  9
$DIMATFIT
 70
     3
  9
$DIMFRAC
 70
     0
  9
$DIMLDRBLK
  1

  9
$DIMLUNIT
 70
     2
  9
$DIMLWD
 70
    -2
  9
$DIMLWE
 70
    -2
  9
$DIMTMOVE
 70
     0
  9
$LUNITS
 70
     2
  9
$LUPREC
 70
     1
  9
$SKETCHINC
 40
1.0
  9
$FILLETRAD
 40
10.0
  9
$AUNITS
 70
     0
  9
$AUPREC
 70
     2
  9
$MENU
  1
.
  9
$ELEVATION
 40
0.0
  9
$PELEVATION
 40
0.0
  9
$THICKNESS
 40
0.0
  9
$LIMCHECK
 70
     0
  9
$CHAMFERA
 40
10.0
  9
$CHAMFERB
 40
10.0
  9
$CHAMFERC
 40
20.0
  9
$CHAMFERD
 40
0.0
  9
$SKPOLY
 70
     0
  9
$TDCREATE
 40
2460445.612891736
  9
$TDUCREATE
 40
2460445.237891736
  9
$TDUPDATE
 40
2460445.612891748
  9
$TDUUPDATE
 40
2460445.237891748
  9
$TDINDWG
 40
0.0000000116
  9
$TDUSRTIMER
 40
0.0000000116
  9
$USRTIMER
 70
     1
  9
$ANGBASE
 50
0.0
  9
$ANGDIR
 70
     0
  9
$PDMODE
 70
     0
  9
$PDSIZE
 40
-1.0
  9
$PLINEWID
 40
0.0
  9
$SPLFRAME
 70
     0
  9
$SPLINETYPE
 70
     6
  9
$SPLINESEGS
 70
     8
  9
$HANDSEED
  5
333
  9
$SURFTAB1
 70
     6
  9
$SURFTAB2
 70
     6
  9
$SURFTYPE
 70
     6
  9
$SURFU
 70
     6
  9
$SURFV
 70
     6
  9
$UCSBASE
  2

  9
$UCSNAME
  2

  9
$UCSORG
 10
0.0
 20
0.0
 30
0.0
  9
$UCSXDIR
 10
1.0
 20
0.0
 30
0.0
  9
$UCSYDIR
 10
0.0
 20
1.0
 30
0.0
  9
$UCSORTHOREF
  2

  9
$UCSORTHOVIEW
 70
     0
  9
$UCSORGTOP
 10
0.0
 20
0.0
 30
0.0
  9
$UCSORGBOTTOM
 10
0.0
 20
0.0
 30
0.0
  9
$UCSORGLEFT
 10
0.0
 20
0.0
 30
0.0
  9
$UCSORGRIGHT
 10
0.0
 20
0.0
 30
0.0
  9
$UCSORGFRONT
 10
0.0
 20
0.0
 30
0.0
  9
$UCSORGBACK
 10
0.0
 20
0.0
 30
0.0
  9
$PUCSBASE
  2

  9
$PUCSNAME
  2

  9
$PUCSORG
 10
0.0
 20
0.0
 30
0.0
  9
$PUCSXDIR
 10
1.0
 20
0.0
 30
0.0
  9
$PUCSYDIR
 10
0.0
 20
1.0
 30
0.0
  9
$PUCSORTHOREF
  2

  9
$PUCSORTHOVIEW
 70
     0
  9
$PUCSORGTOP
 10
0.0
 20
0.0
 30
0.0
  9
$PUCSORGBOTTOM
 10
0.0
 20
0.0
 30
0.0
  9
$PUCSORGLEFT
 10
0.0
 20
0.0
 30
0.0
  9
$PUCSORGRIGHT
 10
0.0
 20
0.0
 30
0.0
  9
$PUCSORGFRONT
 10
0.0
 20
0.0
 30
0.0
  9
$PUCSORGBACK
 10
0.0
 20
0.0
 30
0.0
  9
$USERI1
 70
     0
  9
$USERI2
 70
     0
  9
$USERI3
 70
     0
  9
$USERI4
 70
     0
  9
$USERI5
 70
     0
  9
$USERR1
 40
0.0
  9
$USERR2
 40
0.0
  9
$USERR3
 40
0.0
  9
$USERR4
 40
0.0
  9
$USERR5
 40
0.0
  9
$WORLDVIEW
 70
     1
  9
$SHADEDGE
 70
     3
  9
$SHADEDIF
 70
    70
  9
$TILEMODE
 70
     1
  9
$MAXACTVP
 70
    64
  9
$PINSBASE
 10
0.0
 20
0.0
 30
0.0
  9
$PLIMCHECK
 70
     0
  9
$PEXTMIN
 10
1.0000000000E+20
 20
1.0000000000E+20
 30
1.0000000000E+20
  9
$PEXTMAX
 10
-1.0000000000E+20
 20
-1.0000000000E+20
 30
-1.0000000000E+20
  9
$PLIMMIN
 10
0.0
 20
0.0
  9
$PLIMMAX
 10
420.0
 20
297.0
  9
$UNITMODE
 70
     0
  9
$VISRETAIN
 70
     1
  9
$PLINEGEN
 70
     0
  9
$PSLTSCALE
 70
     1
  9
$TREEDEPTH
 70
  3020
  9
$CMLSTYLE
  2
Standard
  9
$CMLJUST
 70
     0
  9
$CMLSCALE
 40
20.0
  9
$PROXYGRAPHICS
 70
     1
  9
$MEASUREMENT
 70
     1
  9
$CELWEIGHT
370
    -1
  9
$ENDCAPS
280
     0
  9
$JOINSTYLE
280
     0
  9
$LWDISPLAY
290
     1
  9
$INSUNITS
 70
     4
  9
$HYPERLINKBASE
  1

  9
$STYLESHEET
  1

  9
$XEDIT
290
     1
  9
$CEPSNTYPE
380
     0
  9
$PSTYLEMODE
290
     1
  9
$FINGERPRINTGUID
  2
{0B6ACBBD-D6F0-4E93-84EC-9C684769F7DD}
  9
$VERSIONGUID
  2
{FAEB1C32-E019-11D5-929B-00C0DF256EC4}
  9
$EXTNAMES
290
     1
  9
$PSVPSCALE
 40
0.0
  9
$OLESTARTUP
290
     0
  0
ENDSEC
  0
SECTION
  2
CLASSES
  0
CLASS
  1
ACDBDICTIONARYWDFLT
  2
AcDbDictionaryWithDefault
  3
ObjectDBX Classes
 90
        0
280
     0
281
     0
  0
CLASS
  1
VISUALSTYLE
  2
AcDbVisualStyle
  3
ObjectDBX Classes
 90
     4095
280
     0
281
     0
  0
CLASS
  1
MATERIAL
  2
AcDbMaterial
  3
ObjectDBX Classes
 90
     1153
280
     0
281
     0
  0
CLASS
  1
ACDBPLACEHOLDER
  2
AcDbPlaceHolder
  3
ObjectDBX Classes
 90
        0
280
     0
281
     0
  0
CLASS
  1
LAYOUT
  2
AcDbLayout
  3
ObjectDBX Classes
 90
        0
280
     0
281
     0
  0
ENDSEC
  0
SECTION
  2
TABLES
  0
TABLE
  2
VPORT
  5
8
330
0
100
AcDbSymbolTable
 70
     1
  0
VPORT
  5
29
330
8
100
AcDbSymbolTableRecord
100
AcDbViewportTableRecord
  2
*Active
 70
     0
 10
0.0
 20
0.0
 11
1.0
 21
1.0
 12
420.0
 22
297.0
 13
0.0
 23
0.0
 14
10.0
 24
10.0
 15
10.0
 25
10.0
 16
0.0
 26
0.0
 36
1.0
 17
0.0
 27
0.0
 37
0.0
 40
594.0
 41
1.4141414141
 42
50.0
 43
0.0
 44
0.0
 50
0.0
 51
0.0
 71
     0
 72
  2000
 73
     1
 74
     3
 75
     0
 76
     0
 77
     0
 78
     0
281
     0
 65
     1
110
0.0
120
0.0
130
0.0
111
1.0
121
0.0
131
0.0
112
0.0
122
1.0
132
0.0
 79
     0
146
0.0
  0
ENDTAB
  0
TABLE
  2
LTYPE
  5
5
330
0
100
AcDbSymbolTable
 70
     6
  0
LTYPE
  5
14
330
5
100
AcDbSymbolTableRecord
100
AcDbLinetypeTableRecord
  2
ByBlock
 70
     0
  3

 72
    65
 73
     0
 40
0.0
  0
LTYPE
  5
15
330
5
100
AcDbSymbolTableRecord
100
AcDbLinetypeTableRecord
  2
ByLayer
 70
     0
  3

 72
    65
 73
     0
 40
0.0
  0
LTYPE
  5
16
330
5
100
AcDbSymbolTableRecord
100
AcDbLinetypeTableRecord
  2
Continuous
 70
     0
  3
Solid line
 72
    65
 73
     0
 40
0.0
  0
LTYPE
  5
3F
330
5
100
AcDbSymbolTableRecord
100
AcDbLinetypeTableRecord
  2
HIDDEN
 70
     0
  3
Hidden __ __ __ __ __ __ __ __ __ __ __ __ __ __
 72
    65
 73
     2
 40
1.905
 49
1.27
 74
     0
 49
-0.635
 74
     0
  0
LTYPE
  5
40
330
5
100
AcDbSymbolTableRecord
100
AcDbLinetypeTableRecord
  2
PHANTOM
 70
     0
  3
Phantom ______  __  __  ______  __  __  ______
 72
    65
 73
     6
 40
12.7
 49
6.35
 74
     0
 49
-1.27
 74
     0
 49
1.27
 74
     0
 49
-1.27
 74
     0
 49
1.27
 74
     0
 49
-1.27
 74
     0
  0
LTYPE
  5
41
330
5
100
AcDbSymbolTableRecord
100
AcDbLinetypeTableRecord
  2
CENTER
 70
     0
  3
Center ____ _ ____ _ ____ _ ____ _ ____ _ ____
 72
    65
 73
     4
 40
10.16
 49
6.35
 74
     0
 49
-1.27
 74
     0
 49
1.27
 74
     0
 49
-1.27
 74
     0
  0
LTYPE
  5
42
330
5
100
AcDbSymbolTableRecord
100
AcDbLinetypeTableRecord
  2
CENTERX2
 70
     0
  3
Center (2x) ________  __  ________  __  _____
 72
    65
 73
     4
 40
20.32
 49
12.7
 74
     0
 49
-2.54
 74
     0
 49
2.54
 74
     0
 49
-2.54
 74
     0
  0
LTYPE
  5
43
330
5
100
AcDbSymbolTableRecord
100
AcDbLinetypeTableRecord
  2
DOT2
 70
     0
  3
Dot (.5x) ........................................
 72
    65
 73
     2
 40
0.635
 49
0.0
 74
     0
 49
-0.635
 74
     0
  0
ENDTAB
  0
TABLE
  2
LAYER
  5
2
330
0
100
AcDbSymbolTable
 70
     1
  0
LAYER
  5
10
330
2
100
AcDbSymbolTableRecord
100
AcDbLayerTableRecord
  2
0
 70
     0
 62
     7
  6
Continuous
370
    -3
390
F
  0
ENDTAB
  0
TABLE
  2
STYLE
  5
3
330
0
100
AcDbSymbolTable
 70
     2
  0
STYLE
  5
11
330
3
100
AcDbSymbolTableRecord
100
AcDbTextStyleTableRecord
  2
Standard
 70
     0
 40
0.0
 41
1.0
 50
0.0
 71
     0
 42
2.5
  3
txt
  4
bigfont
  0
STYLE
  5
44
330
3
100
AcDbSymbolTableRecord
100
AcDbTextStyleTableRecord
  2
SLDTEXTSTYLE0
 70
     0
 40
0.0
 41
0.7
 50
0.0
 71
     0
 42
0.2
  3
TXT
  4
bigfont
  0
ENDTAB
  0
TABLE
  2
VIEW
  5
6
330
0
100
AcDbSymbolTable
 70
     0
  0
ENDTAB
  0
TABLE
  2
UCS
  5
7
330
0
100
AcDbSymbolTable
 70
     0
  0
ENDTAB
  0
TABLE
  2
APPID
  5
9
330
0
100
AcDbSymbolTable
 70
     1
  0
APPID
  5
12
330
9
100
AcDbSymbolTableRecord
100
AcDbRegAppTableRecord
  2
ACAD
 70
     0
  0
ENDTAB
  0
TABLE
  2
DIMSTYLE
  5
A
330
0
100
AcDbSymbolTable
 70
     1
100
AcDbDimStyleTable
  0
DIMSTYLE
105
27
330
A
100
AcDbSymbolTableRecord
100
AcDbDimStyleTableRecord
  2
ISO-25
 70
     0
 41
2.5
 42
0.625
 43
3.75
 44
1.25
 73
     0
 74
     0
 77
     1
 78
     8
140
2.5
141
2.5
143
0.0393700787
147
0.625
171
     3
172
     1
178
     0
271
     2
272
     2
274
     3
278
    44
283
     0
284
     8
340
11
  0
ENDTAB
  0
TABLE
  2
BLOCK_RECORD
  5
1
330
0
100
AcDbSymbolTable
 70
     1
  0
BLOCK_RECORD
  5
1F
330
1
100
AcDbSymbolTableRecord
100
AcDbBlockTableRecord
  2
*Model_Space
340
22
  0
BLOCK_RECORD
  5
1B
330
1
100
AcDbSymbolTableRecord
100
AcDbBlockTableRecord
  2
*Paper_Space
340
1E
  0
BLOCK_RECORD
  5
23
330
1
100
AcDbSymbolTableRecord
100
AcDbBlockTableRecord
  2
*Paper_Space0
340
26
  0
ENDTAB
  0
ENDSEC
  0
SECTION
  2
BLOCKS
  0
BLOCK
  5
20
330
1F
100
AcDbEntity
  8
0
100
AcDbBlockBegin
  2
*Model_Space
 70
     0
 10
0.0
 20
0.0
 30
0.0
  3
*Model_Space
  1

  0
ENDBLK
  5
21
330
1F
100
AcDbEntity
  8
0
100
AcDbBlockEnd
  0
BLOCK
  5
1C
330
1B
100
AcDbEntity
 67
     1
  8
0
100
AcDbBlockBegin
  2
*Paper_Space
 70
     0
 10
0.0
 20
0.0
 30
0.0
  3
*Paper_Space
  1

  0
ENDBLK
  5
1D
330
1B
100
AcDbEntity
 67
     1
  8
0
100
AcDbBlockEnd
  0
BLOCK
  5
24
330
23
100
AcDbEntity
  8
0
100
AcDbBlockBegin
  2
*Paper_Space0
 70
     0
 10
0.0
 20
0.0
 30
0.0
  3
*Paper_Space0
  1

  0
ENDBLK
  5
25
330
23
100
AcDbEntity
  8
0
100
AcDbBlockEnd
  0
ENDSEC
  0
SECTION
  2
ENTITIES
  0
MTEXT
  5
45
330
1F
100
AcDbEntity
  8
0
  6
Continuous
 62
     7
370
     0
100
AcDbMText
 10
164.3045152159
 20
569.7869900237
 30
0.0
 40
7.0
 41
0.0
 71
     1
 72
     1
  1
CHB-507N
  7
SLDTEXTSTYLE0
 73
     1
 44
1.0
  0
LINE
  5
46
330
1F
100
AcDbEntity
  8
0
  6
Continuous
 62
     7
370
    15
100
AcDbLine
 10
812.0517368602
 20
86.8103269036
 30
0.0
 11
812.0517368602
 21
121.8103382285
 31
0.0
  0
LINE
  5
47
330
1F
100
AcDbEntity
  8
0
  6
Continuous
 62
     7
370
    15
100
AcDbLine
 10
812.0517368602
 20
439.8103270228
 30
0.0
 11
812.0517368602
 21
474.8103383477
 31
0.0
  0
SPLINE
  5
48
330
1F
100
AcDbEntity
  8
0
  6
Continuous
 62
     7
370
    15
100
AcDbSpline
210
0.0
220
0.0
230
1.0
 70
     8
 71
     3
 72
    11
 73
     7
 74
     0
 42
0.00000001
 43
0.00000001
 40
0.0
 40
0.0
 40
0.0
 40
0.0
 40
0.230568106593302
 40
0.4743070015135999
 40
0.7308077299475525
 40
0.9999999999999999
 40
0.9999999999999999
 40
0.9999999999999999
 40
0.9999999999999999
 10
399.9103988694241
 20
472.5027296240245
 30
0.0
 10
399.9069436175496
 20
472.7806800375855
 30
0.0
 10
399.8998357387531
 20
473.3524582820854
 30
0.0
 10
399.8328846857173
 20
474.1960609619412
 30
0.0
 10
399.7264262308516
 20
474.9255403683865
 30
0.0
 10
399.6290528620826
 20
475.1898749383166
 30
0.0
 10
399.5791907595684
 20
475.3252330715571
 30
0.0
  0
SPLINE
  5
49
330
1F
100
AcDbEntity
  8
0
  6
Continuous
 62
     7
370
    15
100
AcDbSpline
210
0.0
220
0.0
230
1.0
 70
     8
 71
     3
 72
    11
 73
     7
 74
     0
 42
0.00000001
 43
0.00000001
 40
0.0
 40
0.0
 40
0.0
 40
0.0
 40
0.2262211504017919
 40
0.4679429769805621
 40
0.7254872984947677
 40
1.0
 40
1.0
 40
1.0
 40
1.0
 10
396.872245817094
 20
474.0407678778087
 30
0.0
 10
396.8750651418093
 20
474.0178681479937
 30
0.0
 10
396.8808969714061
 20
473.9704995985782
 30
0.0
 10
396.8976878348544
 20
473.6457172272359
 30
0.0
 10
396.9112801146155
 20
473.1452306050733
 30
0.0
 10
396.9118153629041
 20
472.7214022008206
 30
0.0
 10
396.9120915221264
 20
472.5027296240245
 30
0.0
  0
SPLINE
  5
4A
330
1F
100
AcDbEntity
  8
0
  6
Continuous
 62
     7
370
    15
100
AcDbSpline
210
0.0
220
0.0
230
1.0
 70
     8
 71
     3
 72
    11
 73
     7
 74
     0
 42
0.00000001
 43
0.00000001
 40
0.0
 40
0.0
 40
0.0
 40
0.0
 40
0.2397038309070422
 40
0.4840842498051656
 40
0.7357003027837264
 40
0.9999999999999999
 40
0.9999999999999999
 40
0.9999999999999999
 40
0.9999999999999999
 10
399.441712646394
 20
456.0682687456523
 30
0.0
 10
399.5242432752757
 20
456.2169038837576
 30
0.0
 10
399.6909146939885
 20
456.5170740105851
 30
0.0
 10
399.818180388643
 20
457.1824460913154
 30
0.0
 10
399.8949092086627
 20
458.0030118462998
 30
0.0
 10
399.9051517128049
 20
458.6253066007431
 30
0.0
 10
399.9103988694241
 20
458.9441034490977
 30
0.0
  0
SPLINE
  5
4B
330
1F
100
AcDbEntity
  8
0
  6
Continuous
 62
     7
370
    15
100
AcDbSpline
210
0.0
220
0.0
230
1.0
 70
     8
 71
     3
 72
    12
 73
     8
 74
     0
 42
0.00000001
 43
0.00000001
 40
0.0
 40
0.0
 40
0.0
 40
0.0
 40
0.2489457273592936
 40
0.482287834435525
 40
0.6998120397765791
 40
0.9035374370595866
 40
1.0
 40
1.0
 40
1.0
 40
1.0
 10
396.9120915221264
 20
458.9441034490977
 30
0.0
 10
396.910665679407
 20
458.8067688272
 30
0.0
 10
396.9079033640837
 20
458.5407075531598
 30
0.0
 10
396.8970021391194
 20
458.2048878488905
 30
0.0
 10
396.8944920075214
 20
457.9717252789367
 30
0.0
 10
396.8992810116654
 20
457.8516061274986
 30
0.0
 10
396.92571161942
 20
457.8502669945424
 30
0.0
 10
396.9342048453381
 20
457.8498366768275
 30
0.0
  0
LINE
  5
4C
330
1F
100
AcDbEntity
  8
0
  6
Continuous
 62
     7
370
    15
100
AcDbLine
 10
396.9112421559
 20
472.5527230198
 30
0.0
 11
396.9112421559
 21
458.8940951521
 31
0.0
  0
LINE
  5
4D
330
1F
100
AcDbEntity
  8
0
  6
Continuous
 62
     7
370
    15
100
AcDbLine
 10
399.9112482356
 20
458.8940951521
 30
0.0
 11
399.9112482356
 21
472.5527230198
 31
0.0
  0
LINE
  5
4E
330
1F
100
AcDbEntity
  8
0
  6
Continuous
 62
     7
370
    15
100
AcDbLine
 10
395.3876282262
 20
476.4906230862
 30
0.0
 11
396.8749876308
 21
474.0104738171
 31
0.0
  0
LINE
  5
4F
330
1F
100
AcDbEntity
  8
0
  6
Continuous
 62
     7
370
    15
100
AcDbLine
 10
399.5295251893
 20
475.4171285326
 30
0.0
 11
397.9604478168
 21
478.0335489209
 31
0.0
  0
LINE
  5
50
330
1F
100
AcDbEntity
  8
0
  6
Continuous
 62
     7
370
    15
100
AcDbLine
 10
396.9394798564
 20
457.717752784
 30
0.0
 11
395.3704024838
 21
455.1013323958
 31
0.0
  0
LINE
  5
51
330
1F
100
AcDbEntity
  8
0
  6
Continuous
 62
     7
370
    15
100
AcDbLine
 10
397.9432220744
 20
453.5584065611
 30
0.0
 11
399.512299447
 21
456.1748269493
 31
0.0
  0
LINE
  5
52
330
1F
100
AcDbEntity
  8
0
  6
Continuous
 62
     7
370
    15
100
AcDbLine
 10
400.0190283345
 20
471.2386790211
 30
0.0
 11
400.0190432357
 21
472.5978586371
 31
0.0
  0
SPLINE
  5
53
330
1F
100
AcDbEntity
  8
0
  6
Continuous
 62
     7
370
    15
100
AcDbSpline
210
0.0
220
0.0
230
1.0
 70
    24
 71
     3
 72
    10
 73
     6
 74
     0
 42
0.00000001
 43
0.00000001
 40
0.0
 40
0.0
 40
0.0
 40
0.0
 40
0.3533733964705026
 40
0.6984065928917413
 40
1.0
 40
1.0
 40
1.0
 40
1.0
 10
400.0190432356884
 20
471.0103336269771
 30
0.0
 10
400.0190432356884
 20
471.0167024245255
 30
0.0
 10
400.0190432356884
 20
471.0292897054048
 30
0.0
 10
400.0190432356884
 20
471.1086344634438
 30
0.0
 10
400.0190432356885
 20
471.1874090829667
 30
0.0
 10
400.0190432356884
 20
471.2241503889476
 30
0.0
  0
SPLINE
  5
54
330
1F
100
AcDbEntity
  8
0
  6
Continuous
 62
     7
370
    15
100
AcDbSpline
210
0.0
220
0.0
230
1.0
 70
     8
 71
     3
 72
     9
 73
     5
 74
     0
 42
0.00000001
 43
0.00000001
 40
0.0
 40
0.0
 40
0.0
 40
0.0
 40
0.6850658672632338
 40
1.0
 40
1.0
 40
1.0
 40
1.0
 10
396.8776698397686
 20
461.1424270565425
 30
0.0
 10
396.7245726924325
 20
461.1568129353487
 30
0.0
 10
396.5010946961521
 20
461.1778121990599
 30
0.0
 10
396.2354047900448
 20
461.1991207176122
 30
0.0
 10
396.1517299698879
 20
461.2058314974223
 30
0.0
  0
SPLINE
  5
55
330
1F
100
AcDbEntity
  8
0
  6
Continuous
 62
     7
370
    15
100
AcDbSpline
210
0.0
220
0.0
230
1.0
 70
     8
 71
     3
 72
    11
 73
     7
 74
     0
 42
0.00000001
 43
0.00000001
 40
0.0
 40
0.0
 40
0.0
 40
0.0
 40
0.020237912448812
 40
0.647449837756794
 40
0.8780950375086966
 40
1.0
 40
1.0
 40
1.0
 40
1.0
 10
394.1517259167721
 20
471.0399720365916
 30
0.0
 10
394.1444235103897
 20
471.0392234174481
 30
0.0
 10
393.9108054512432
 20
471.0152736477133
 30
0.0
 10
393.6388194450352
 20
470.9562531930932
 30
0.0
 10
393.4012084496806
 20
470.7207755357506
 30
0.0
 10
393.3781374970941
 20
470.6379854690012
 30
0.0
 10
393.3701600121548
 20
470.6093582804118
 30
0.0
  0
SPLINE
  5
56
330
1F
100
AcDbEntity
  8
0
  6
Continuous
 62
     7
370
    15
100
AcDbSpline
210
0.0
220
0.0
230
1.0
 70
     8
 71
     3
 72
    12
 73
     8
 74
     0
 42
0.00000001
 43
0.00000001
 40
0.0
 40
0.0
 40
0.0
 40
0.0
 40
0.0328888681810785
 40
0.3170862717282217
 40
0.6411543905064643
 40
0.8177353062155109
 40
1.0
 40
1.0
 40
1.0
 40
1.0
 10
393.3462883519222
 20
470.433494776002
 30
0.0
 10
393.3465840358
 20
470.4290566273231
 30
0.0
 10
393.3494347662633
 20
470.386267802538
 30
0.0
 10
393.4013287955747
 20
470.2871935570408
 30
0.0
 10
393.5087028856603
 20
470.1857896850127
 30
0.0
 10
393.6376155834129
 20
470.1277305937293
 30
0.0
 10
393.7141151959035
 20
470.1187033178618
 30
0.0
 10
393.7529708432247
 20
470.1141181881343
 30
0.0
  0
SPLINE
  5
57
330
1F
100
AcDbEntity
  8
0
  6
Continuous
 62
     7
370
    15
100
AcDbSpline
210
0.0
220
0.0
230
1.0
 70
     8
 71
     3
 72
    10
 73
     6
 74
     0
 42
0.00000001
 43
0.00000001
 40
0.0
 40
0.0
 40
0.0
 40
0.0
 40
0.081032838207419
 40
0.9137176320129301
 40
1.0
 40
1.0
 40
1.0
 40
1.0
 10
396.8776698397686
 20
465.8702674801265
 30
0.0
 10
396.8615902041881
 20
465.8723753848123
 30
0.0
 10
396.6802779501523
 20
465.8961438929947
 30
0.0
 10
396.4201739728948
 20
465.9110069458615
 30
0.0
 10
396.1747709995678
 20
465.931208903209
 30
0.0
 10
396.1517299698879
 20
465.9331056768809
 30
0.0
  0
SPLINE
  5
58
330
1F
100
AcDbEntity
  8
0
  6
Continuous
 62
     7
370
    15
100
AcDbSpline
210
0.0
220
0.0
230
1.0
 70
     8
 71
     3
 72
    10
 73
     6
 74
     0
 42
0.00000001
 43
0.00000001
 40
0.0
 40
0.0
 40
0.0
 40
0.0
 40
0.1672704722762098
 40
0.6271951967284675
 40
0.9999999999999999
 40
0.9999999999999999
 40
0.9999999999999999
 40
0.9999999999999999
 10
396.1517299698879
 20
464.18753895115
 30
0.0
 10
396.1982291849713
 20
464.183727650609
 30
0.0
 10
396.3725820396924
 20
464.1694368474555
 30
0.0
 10
396.6293498580429
 20
464.1497634560391
 30
0.0
 10
396.8008782631578
 20
464.1333364589653
 30
0.0
 10
396.8776698397686
 20
464.1259822542582
 30
0.0
  0
SPLINE
  5
59
330
1F
100
AcDbEntity
  8
0
  6
Continuous
 62
     7
370
    15
100
AcDbSpline
210
0.0
220
0.0
230
1.0
 70
     8
 71
     3
 72
    10
 73
     6
 74
     0
 42
0.00000001
 43
0.00000001
 40
0.0
 40
0.0
 40
0.0
 40
0.0
 40
0.2128194486056263
 40
0.6586883487291475
 40
0.9999999999999999
 40
0.9999999999999999
 40
0.9999999999999999
 40
0.9999999999999999
 10
396.1517299698879
 20
463.2420751745616
 30
0.0
 10
396.2100740180016
 20
463.2372767530953
 30
0.0
 10
396.3906521792645
 20
463.222425364593
 30
0.0
 10
396.6441677469021
 20
463.2029231827678
 30
0.0
 10
396.8070473005049
 20
463.1867022885393
 30
0.0
 10
396.8776698397686
 20
463.1796691114818
 30
0.0
  0
SPLINE
  5
5A
330
1F
100
AcDbEntity
  8
0
  6
Continuous
 62
     7
370
    15
100
AcDbSpline
210
0.0
220
0.0
230
1.0
 70
     8
 71
     3
 72
     9
 73
     5
 74
     0
 42
0.00000001
 43
0.00000001
 40
0.0
 40
0.0
 40
0.0
 40
0.0
 40
0.6099730154675129
 40
1.0
 40
1.0
 40
1.0
 40
1.0
 10
396.1517299698879
 20
462.2965517933284
 30
0.0
 10
396.3344094912275
 20
462.2787930514072
 30
0.0
 10
396.633897364801
 20
462.2496790718197
 30
0.0
 10
396.9218411048276
 20
462.2440464896317
 30
0.0
 10
397.0341469334652
 20
462.2418496305858
 30
0.0
  0
SPLINE
  5
5B
330
1F
100
AcDbEntity
  8
0
  6
Continuous
 62
     7
370
    15
100
AcDbSpline
210
0.0
220
0.0
230
1.0
 70
     8
 71
     3
 72
     9
 73
     5
 74
     0
 42
0.00000001
 43
0.00000001
 40
0.0
 40
0.0
 40
0.0
 40
0.0
 40
0.8101017435147684
 40
1.0
 40
1.0
 40
1.0
 40
1.0
 10
396.8776698397686
 20
463.0351576502238
 30
0.0
 10
396.6944756234764
 20
463.0512169467243
 30
0.0
 10
396.4683383292924
 20
463.0710407486467
 30
0.0
 10
396.2022581348902
 20
463.0926546150528
 30
0.0
 10
396.1517299698879
 20
463.0967590505992
 30
0.0
  0
SPLINE
  5
5C
330
1F
100
AcDbEntity
  8
0
  6
Continuous
 62
     7
370
    15
100
AcDbSpline
210
0.0
220
0.0
230
1.0
 70
     8
 71
     3
 72
     9
 73
     5
 74
     0
 42
0.00000001
 43
0.00000001
 40
0.0
 40
0.0
 40
0.0
 40
0.0
 40
0.5230734708611717
 40
1.0
 40
1.0
 40
1.0
 40
1.0
 10
396.1517299698879
 20
461.3512072260295
 30
0.0
 10
396.2973645816865
 20
461.339729494629
 30
0.0
 10
396.5757855300072
 20
461.3177866280148
 30
0.0
 10
396.7801858869684
 20
461.2982821702354
 30
0.0
 10
396.8776698397686
 20
461.288979976884
 30
0.0
  0
SPLINE
  5
5D
330
1F
100
AcDbEntity
  8
0
  6
Continuous
 62
     7
370
    15
100
AcDbSpline
210
0.0
220
0.0
230
1.0
 70
     8
 71
     3
 72
    12
 73
     8
 74
     0
 42
0.00000001
 43
0.00000001
 40
0.0
 40
0.0
 40
0.0
 40
0.0
 40
0.1665581808730444
 40
0.360661473111918
 40
0.5182527777259056
 40
0.7748157806139341
 40
1.0
 40
1.0
 40
1.0
 40
1.0
 10
397.005924134164
 20
463.8521585161601
 30
0.0
 10
396.9977691866677
 20
463.8864765775658
 30
0.0
 10
396.9801106401963
 20
463.9607881635595
 30
0.0
 10
396.8910638882989
 20
463.9784020149532
 30
0.0
 10
396.7208252758093
 20
463.9969313039934
 30
0.0
 10
396.4579613651685
 20
464.0170100952971
 30
0.0
 10
396.2492761725802
 20
464.0341814704062
 30
0.0
 10
396.1517299698879
 20
464.0422079260264
 30
0.0
  0
SPLINE
  5
5E
330
1F
100
AcDbEntity
  8
0
  6
Continuous
 62
     7
370
    15
100
AcDbSpline
210
0.0
220
0.0
230
1.0
 70
     8
 71
     3
 72
     9
 73
     5
 74
     0
 42
0.00000001
 43
0.00000001
 40
0.0
 40
0.0
 40
0.0
 40
0.0
 40
0.3306134446794392
 40
1.0
 40
1.0
 40
1.0
 40
1.0
 10
397.0341469334652
 20
464.903197019807
 30
0.0
 10
396.9522811913108
 20
464.914353530286
 30
0.0
 10
396.7046634870948
 20
464.9480984086586
 30
0.0
 10
396.3734439050006
 20
464.9717412166722
 30
0.0
 10
396.1517299698879
 20
464.9875673944865
 30
0.0
  0
SPLINE
  5
5F
330
1F
100
AcDbEntity
  8
0
  6
Continuous
 62
     7
370
    15
100
AcDbSpline
210
0.0
220
0.0
230
1.0
 70
     8
 71
     3
 72
    10
 73
     6
 74
     0
 42
0.00000001
 43
0.00000001
 40
0.0
 40
0.0
 40
0.0
 40
0.0
 40
0.1854027775819871
 40
0.7328139007160975
 40
1.0
 40
1.0
 40
1.0
 40
1.0
 10
397.0341469334652
 20
462.0712611372386
 30
0.0
 10
396.9906792830679
 20
462.0768649793698
 30
0.0
 10
396.8188711858109
 20
462.0990144501852
 30
0.0
 10
396.5095119475784
 20
462.1218688773079
 30
0.0
 10
396.2400973620407
 20
462.1440161244458
 30
0.0
 10
396.1517299698879
 20
462.1512803728496
 30
0.0
  0
SPLINE
  5
60
330
1F
100
AcDbEntity
  8
0
  6
Continuous
 62
     7
370
    15
100
AcDbSpline
210
0.0
220
0.0
230
1.0
 70
     8
 71
     3
 72
    17
 73
    13
 74
     0
 42
0.00000001
 43
0.00000001
 40
0.0
 40
0.0
 40
0.0
 40
0.0
 40
0.0004607343284999
 40
0.0563026551847166
 40
0.1102213109659891
 40
0.2001867819740996
 40
0.2816755205691207
 40
0.4346087994122639
 40
0.5765582769755505
 40
0.7180179281863237
 40
0.8472698748014156
 40
1.0
 40
1.0
 40
1.0
 40
1.0
 10
393.3279450224926
 20
461.1103299553309
 30
0.0
 10
393.3278500458303
 20
461.1098379994309
 30
0.0
 10
393.3162437079976
 20
461.0497200058348
 30
0.0
 10
393.3463759459791
 20
460.9511120567896
 30
0.0
 10
393.4649660223356
 20
460.7683864903199
 30
0.0
 10
393.6556324474957
 20
460.6764305602643
 30
0.0
 10
393.9572012708958
 20
460.6002492949405
 30
0.0
 10
394.3830501022692
 20
460.5494672135902
 30
0.0
 10
394.9962013857753
 20
460.5006206831582
 30
0.0
 10
395.6437978803089
 20
460.4469505012601
 30
0.0
 10
396.3066984122342
 20
460.3937724784412
 30
0.0
 10
396.6770669162448
 20
460.3610183958644
 30
0.0
 10
396.8776698397686
 20
460.3432777817164
 30
0.0
  0
SPLINE
  5
61
330
1F
100
AcDbEntity
  8
0
  6
Continuous
 62
     7
370
    15
100
AcDbSpline
210
0.0
220
0.0
230
1.0
 70
     8
 71
     3
 72
    19
 73
    15
 74
     0
 42
0.00000001
 43
0.00000001
 40
0.0
 40
0.0
 40
0.0
 40
0.0
 40
0.0060183486597796
 40
0.1129986763738744
 40
0.1565052482250404
 40
0.1931419068713148
 40
0.3246327686673391
 40
0.4633479435883355
 40
0.6042772579306843
 40
0.7430779886056056
 40
0.8186186605518727
 40
0.8996739854942449
 40
0.9839695071628417
 40
1.0
 40
1.0
 40
1.0
 40
1.0
 10
396.9389285134365
 20
469.5332709247981
 30
0.0
 10
396.9369672905735
 20
469.5375953409705
 30
0.0
 10
396.9001439690737
 20
469.6187892583052
 30
0.0
 10
396.8407492629117
 20
469.6467022923862
 30
0.0
 10
396.6953531417306
 20
469.6717546227086
 30
0.0
 10
396.4747370066707
 20
469.6877764810674
 30
0.0
 10
396.0613139968865
 20
469.7225838074106
 30
0.0
 10
395.5109631160396
 20
469.7669644928093
 30
0.0
 10
394.9594570653435
 20
469.8128709597025
 30
0.0
 10
394.5451485708368
 20
469.8457093982744
 30
0.0
 10
394.2824782094192
 20
469.872435966348
 30
0.0
 10
394.1410977735652
 20
469.8790122877494
 30
0.0
 10
394.0633922277748
 20
469.8869315690175
 30
0.0
 10
394.0650878527376
 20
469.8641932491703
 30
0.0
 10
394.0653587864925
 20
469.8605600292598
 30
0.0
  0
SPLINE
  5
62
330
1F
100
AcDbEntity
  8
0
  6
Continuous
 62
     7
370
    15
100
AcDbSpline
210
0.0
220
0.0
230
1.0
 70
     8
 71
     3
 72
    17
 73
    13
 74
     0
 42
0.00000001
 43
0.00000001
 40
0.0
 40
0.0
 40
0.0
 40
0.0
 40
0.0145499669909052
 40
0.1671112982450231
 40
0.319126715600446
 40
0.4740051144396207
 40
0.6252887488663618
 40
0.7705176953360341
 40
0.9224017477684336
 40
0.9610974481389134
 40
0.9999642440553163
 40
1.0
 40
1.0
 40
1.0
 40
1.0
 10
397.0341469334652
 20
470.5808672602092
 30
0.0
 10
397.0218606871668
 20
470.5826796031362
 30
0.0
 10
396.8807489876853
 20
470.6034949754038
 30
0.0
 10
396.5269940315548
 20
470.628707770194
 30
0.0
 10
395.9916182341753
 20
470.6736604227173
 30
0.0
 10
395.4239144978329
 20
470.7195356963337
 30
0.0
 10
394.8906990121004
 20
470.7642133145889
 30
0.0
 10
394.4290895007254
 20
470.7999932708333
 30
0.0
 10
394.1726024424808
 20
470.8352015283691
 30
0.0
 10
394.0555314963618
 20
470.8454038547524
 30
0.0
 10
394.0174142197636
 20
470.861238381934
 30
0.0
 10
394.0228258984866
 20
470.8504243044327
 30
0.0
 10
394.0228308724453
 20
470.8504143650447
 30
0.0
  0
SPLINE
  5
63
330
1F
100
AcDbEntity
  8
0
  6
Continuous
 62
     7
370
    15
100
AcDbSpline
210
0.0
220
0.0
230
1.0
 70
     8
 71
     3
 72
    10
 73
     6
 74
     0
 42
0.00000001
 43
0.00000001
 40
0.0
 40
0.0
 40
0.0
 40
0.0
 40
0.0560209526471244
 40
0.7384703474685301
 40
0.9999999999999999
 40
0.9999999999999999
 40
0.9999999999999999
 40
0.9999999999999999
 10
396.8776698397686
 20
468.7082532341395
 30
0.0
 10
396.8671572511471
 20
468.709262151038
 30
0.0
 10
396.728579904541
 20
468.7225617323092
 30
0.0
 10
396.4689181636901
 20
468.7436506191373
 30
0.0
 10
396.2205425119461
 20
468.7638664130944
 30
0.0
 10
396.1517299698879
 20
468.7694672043239
 30
0.0
  0
SPLINE
  5
64
330
1F
100
AcDbEntity
  8
0
  6
Continuous
 62
     7
370
    15
100
AcDbSpline
210
0.0
220
0.0
230
1.0
 70
     8
 71
     3
 72
    12
 73
     8
 74
     0
 42
0.00000001
 43
0.00000001
 40
0.0
 40
0.0
 40
0.0
 40
0.0
 40
0.3235760253669345
 40
0.4628561771277647
 40
0.5802446553101723
 40
0.9928787444292136
 40
1.0
 40
1.0
 40
1.0
 40
1.0
 10
396.9744379805614
 20
466.7068782741939
 30
0.0
 10
396.944518490133
 20
466.7493933632138
 30
0.0
 10
396.901720446163
 20
466.8102086586354
 30
0.0
 10
396.7683574229279
 20
466.828218194228
 30
0.0
 10
396.5573207123099
 20
466.8458799695215
 30
0.0
 10
396.3312696672443
 20
466.8639338645246
 30
0.0
 10
396.1547250932309
 20
466.8782813414122
 30
0.0
 10
396.1517299698879
 20
466.8785247499858
 30
0.0
  0
SPLINE
  5
65
330
1F
100
AcDbEntity
  8
0
  6
Continuous
 62
     7
370
    15
100
AcDbSpline
210
0.0
220
0.0
230
1.0
 70
     8
 71
     3
 72
     9
 73
     5
 74
     0
 42
0.00000001
 43
0.00000001
 40
0.0
 40
0.0
 40
0.0
 40
0.0
 40
0.4291631731439426
 40
1.0
 40
1.0
 40
1.0
 40
1.0
 10
396.8776698397686
 20
467.7603605682765
 30
0.0
 10
396.7841306399659
 20
467.7697949045119
 30
0.0
 10
396.5661734487244
 20
467.791778002843
 30
0.0
 10
396.3023373380916
 20
467.8122738443077
 30
0.0
 10
396.1517299698879
 20
467.823973625413
 30
0.0
  0
SPLINE
  5
66
330
1F
100
AcDbEntity
  8
0
  6
Continuous
 62
     7
370
    15
100
AcDbSpline
210
0.0
220
0.0
230
1.0
 70
     8
 71
     3
 72
    15
 73
    11
 74
     0
 42
0.00000001
 43
0.00000001
 40
0.0
 40
0.0
 40
0.0
 40
0.0
 40
0.1433404455258959
 40
0.2654134516697177
 40
0.4370082060175863
 40
0.5592363491643693
 40
0.688369368780649
 40
0.8200503541917957
 40
0.9497020242920953
 40
1.0
 40
1.0
 40
1.0
 40
1.0
 10
393.5783143328716
 20
470.1568845207606
 30
0.0
 10
393.6302370004766
 20
470.136157203674
 30
0.0
 10
393.7263785631624
 20
470.0977778840644
 30
0.0
 10
394.0886317010258
 20
470.0376105531358
 30
0.0
 10
394.5644334961249
 20
469.9887502473654
 30
0.0
 10
395.1333120652108
 20
469.9439352946063
 30
0.0
 10
395.6887554680557
 20
469.8980371551431
 30
0.0
 10
396.2411896816852
 20
469.8527477384175
 30
0.0
 10
396.6553378735028
 20
469.8198264753734
 30
0.0
 10
396.8291010521099
 20
469.8040646055974
 30
0.0
 10
396.8776698397686
 20
469.7996589834605
 30
0.0
  0
SPLINE
  5
67
330
1F
100
AcDbEntity
  8
0
  6
Continuous
 62
     7
370
    15
100
AcDbSpline
210
0.0
220
0.0
230
1.0
 70
     8
 71
     3
 72
    22
 73
    18
 74
     0
 42
0.00000001
 43
0.00000001
 40
0.0
 40
0.0
 40
0.0
 40
0.0
 40
0.2563133951954596
 40
0.3877566390482216
 40
0.449115863377452
 40
0.4776102891364863
 40
0.5044860897120297
 40
0.5307617683938642
 40
0.5575693322640428
 40
0.5861428707041032
 40
0.6177279637657459
 40
0.6939450229936036
 40
0.740210219270767
 40
0.7916779975077212
 40
0.8472016214890316
 40
0.9037984386065341
 40
0.9999999999999999
 40
0.9999999999999999
 40
0.9999999999999999
 40
0.9999999999999999
 10
394.0001811074306
 20
470.0729164774333
 30
0.0
 10
393.9009657287821
 20
470.0571101629616
 30
0.0
 10
393.7508704841019
 20
470.0331980167759
 30
0.0
 10
393.6072292098122
 20
469.9823247201853
 30
0.0
 10
393.5363707628626
 20
469.9437990471258
 30
0.0
 10
393.5075453083613
 20
469.926337093122
 30
0.0
 10
393.4966802698262
 20
469.9210118641135
 30
0.0
 10
393.4950465362865
 20
469.9225277836719
 30
0.0
 10
393.5036014913974
 20
469.9308202953482
 30
0.0
 10
393.5234293302357
 20
469.9448399014188
 30
0.0
 10
393.5699972760793
 20
469.9700670626872
 30
0.0
 10
393.6471449681592
 20
469.9936469460662
 30
0.0
 10
393.745198375238
 20
469.9963894742605
 30
0.0
 10
393.8342364084903
 20
469.9804688128381
 30
0.0
 10
393.9245992553748
 20
469.9412020187867
 30
0.0
 10
394.0280431421159
 20
469.8644318591902
 30
0.0
 10
394.0728510176081
 20
469.7853920215716
 30
0.0
 10
394.101061968713
 20
469.7356286938106
 30
0.0
  0
SPLINE
  5
68
330
1F
100
AcDbEntity
  8
0
  6
Continuous
 62
     7
370
    15
100
AcDbSpline
210
0.0
220
0.0
230
1.0
 70
     8
 71
     3
 72
    10
 73
     6
 74
     0
 42
0.00000001
 43
0.00000001
 40
0.0
 40
0.0
 40
0.0
 40
0.0
 40
0.2083101269803555
 40
0.8258284662318393
 40
1.0
 40
1.0
 40
1.0
 40
1.0
 10
396.1517299698879
 20
468.9147982294475
 30
0.0
 10
396.2098149352048
 20
468.9100168468995
 30
0.0
 10
396.440088030969
 20
468.8910614467306
 30
0.0
 10
396.7024651250624
 20
468.8716869903763
 30
0.0
 10
396.8460755823841
 20
468.8553585660374
 30
0.0
 10
396.8776698397686
 20
468.8517663175975
 30
0.0
  0
SPLINE
  5
69
330
1F
100
AcDbEntity
  8
0
  6
Continuous
 62
     7
370
    15
100
AcDbSpline
210
0.0
220
0.0
230
1.0
 70
     8
 71
     3
 72
    10
 73
     6
 74
     0
 42
0.00000001
 43
0.00000001
 40
0.0
 40
0.0
 40
0.0
 40
0.0
 40
0.4245833165420185
 40
0.8184071923686934
 40
1.0
 40
1.0
 40
1.0
 40
1.0
 10
393.3660919951488
 20
470.6743124420558
 30
0.0
 10
393.3468722094919
 20
470.6252401742349
 30
0.0
 10
393.3098250382901
 20
470.5306507370956
 30
0.0
 10
393.3879807755285
 20
470.4222138169795
 30
0.0
 10
393.5037625064709
 20
470.3670536552399
 30
0.0
 10
393.5403014706661
 20
470.3496459419642
 30
0.0
  0
SPLINE
  5
6A
330
1F
100
AcDbEntity
  8
0
  6
Continuous
 62
     7
370
    15
100
AcDbSpline
210
0.0
220
0.0
230
1.0
 70
     8
 71
     3
 72
    10
 73
     6
 74
     0
 42
0.00000001
 43
0.00000001
 40
0.0
 40
0.0
 40
0.0
 40
0.0
 40
0.449954591809291
 40
0.8878161444337863
 40
0.9999999999999999
 40
0.9999999999999999
 40
0.9999999999999999
 40
0.9999999999999999
 10
396.1517299698879
 20
467.9696026737605
 30
0.0
 10
396.2864109073408
 20
467.9584143769965
 30
0.0
 10
396.5521530795392
 20
467.9363384816135
 30
0.0
 10
396.8602398832322
 20
467.9137275674519
 30
0.0
 10
397.004686496615
 20
467.9344676472016
 30
0.0
 10
397.0341469334652
 20
467.9386976654445
 30
0.0
  0
SPLINE
  5
6B
330
1F
100
AcDbEntity
  8
0
  6
Continuous
 62
     7
370
    15
100
AcDbSpline
210
0.0
220
0.0
230
1.0
 70
     8
 71
     3
 72
    10
 73
     6
 74
     0
 42
0.00000001
 43
0.00000001
 40
0.0
 40
0.0
 40
0.0
 40
0.0
 40
0.2070639779534452
 40
0.8571598474787924
 40
1.0
 40
1.0
 40
1.0
 40
1.0
 10
396.1517299698879
 20
467.0239302809154
 30
0.0
 10
396.2094720594652
 20
467.0192102649724
 30
0.0
 10
396.448500601196
 20
466.9996713370246
 30
0.0
 10
396.705907396058
 20
466.9790405457784
 30
0.0
 10
396.8514514188216
 20
466.9653596182878
 30
0.0
 10
396.8776698397686
 20
466.9628951246654
 30
0.0
  0
SPLINE
  5
6C
330
1F
100
AcDbEntity
  8
0
  6
Continuous
 62
     7
370
    15
100
AcDbSpline
210
0.0
220
0.0
230
1.0
 70
     8
 71
     3
 72
    10
 73
     6
 74
     0
 42
0.00000001
 43
0.00000001
 40
0.0
 40
0.0
 40
0.0
 40
0.0
 40
0.3003512241404438
 40
0.9261714604059281
 40
1.0
 40
1.0
 40
1.0
 40
1.0
 10
396.1517299698879
 20
466.0784516031657
 30
0.0
 10
396.2336042847793
 20
466.0717017549786
 30
0.0
 10
396.4860742189695
 20
466.0508877337573
 30
0.0
 10
396.745286706776
 20
466.0314626399347
 30
0.0
 10
396.865033847503
 20
466.0175171048544
 30
0.0
 10
396.8776698397686
 20
466.0160455400859
 30
0.0
  0
SPLINE
  5
6D
330
1F
100
AcDbEntity
  8
0
  6
Continuous
 62
     7
370
    15
100
AcDbSpline
210
0.0
220
0.0
230
1.0
 70
     8
 71
     3
 72
    10
 73
     6
 74
     0
 42
0.00000001
 43
0.00000001
 40
0.0
 40
0.0
 40
0.0
 40
0.0
 40
0.5309053096936429
 40
0.9707291830227538
 40
1.0
 40
1.0
 40
1.0
 40
1.0
 10
396.1517299698879
 20
465.1331070358668
 30
0.0
 10
396.3089793160766
 20
465.1207415638556
 30
0.0
 10
396.5965005116071
 20
465.0981320244066
 30
0.0
 10
396.9051890886183
 20
465.069118498547
 30
0.0
 10
397.0265727706889
 20
465.0855035998161
 30
0.0
 10
397.0341469334652
 20
465.0865260059749
 30
0.0
  0
LINE
  5
6E
330
1F
100
AcDbEntity
  8
0
  6
Continuous
 62
     7
370
    15
100
AcDbLine
 10
397.980340867
 20
477.9980394537
 30
0.0
 11
397.8903825568
 21
478.1118247206
 31
0.0
  0
SPLINE
  5
6F
330
1F
100
AcDbEntity
  8
0
  6
Continuous
 62
     7
370
    15
100
AcDbSpline
210
0.0
220
0.0
230
1.0
 70
     8
 71
     3
 72
    20
 73
    16
 74
     0
 42
0.00000001
 43
0.00000001
 40
0.0
 40
0.0
 40
0.0
 40
0.0
 40
0.033780068479791
 40
0.110105986013786
 40
0.1739281404893355
 40
0.2252737905477479
 40
0.2665364857156544
 40
0.3037740476462926
 40
0.3388581556633125
 40
0.3726394867339178
 40
0.4139169595853429
 40
0.6259822912302183
 40
0.8390274019070427
 40
0.9659457709793139
 40
1.0
 40
1.0
 40
1.0
 40
1.0
 10
397.7780725049068
 20
478.2538923914348
 30
0.0
 10
397.737411722776
 20
478.3100757573517
 30
0.0
 10
397.6048780805992
 20
478.4932051937396
 30
0.0
 10
397.2950140685252
 20
478.6703968284501
 30
0.0
 10
396.9077554499746
 20
478.7933364413037
 30
0.0
 10
396.537904387346
 20
478.8081514254188
 30
0.0
 10
396.203592256248
 20
478.7575273366537
 30
0.0
 10
395.9291013855363
 20
478.6565069148702
 30
0.0
 10
395.7016006851305
 20
478.5217774209402
 30
0.0
 10
395.4955674775409
 20
478.3456067110396
 30
0.0
 10
395.15104170591
 20
477.9031110896428
 30
0.0
 10
394.9699561164232
 20
477.2164419500078
 30
0.0
 10
394.820155303571
 20
476.0356012440087
 30
0.0
 10
394.7650350081119
 20
475.1309585336028
 30
0.0
 10
394.758473662363
 20
474.7163706771055
 30
0.0
 10
394.7570855902721
 20
474.6286633903895
 30
0.0
  0
SPLINE
  5
70
330
1F
100
AcDbEntity
  8
0
  6
Continuous
 62
     7
370
    15
100
AcDbSpline
210
0.0
220
0.0
230
1.0
 70
     8
 71
     3
 72
    19
 73
    15
 74
     0
 42
0.00000001
 43
0.00000001
 40
0.0
 40
0.0
 40
0.0
 40
0.0
 40
0.0102731297860708
 40
0.1295972284339339
 40
0.3268127850416322
 40
0.5525098613894223
 40
0.5858536681612825
 40
0.6186024253114806
 40
0.6529064828717096
 40
0.6960070751547265
 40
0.7523132251411347
 40
0.8223155209209223
 40
0.905460875958155
 40
1.0
 40
1.0
 40
1.0
 40
1.0
 10
394.7542394684841
 20
457.0103350574885
 30
0.0
 10
394.7545626778212
 20
456.9831376474954
 30
0.0
 10
394.758640016972
 20
456.6400378299047
 30
0.0
 10
394.7984002362609
 20
455.8200440858221
 30
0.0
 10
394.9334130077127
 20
454.5976176077404
 30
0.0
 10
395.0237884454407
 20
453.954234522
 30
0.0
 10
395.374708952479
 20
453.4141596438144
 30
0.0
 10
395.5439166975974
 20
453.226303744387
 30
0.0
 10
395.7806306853734
 20
453.0498233605227
 30
0.0
 10
396.0942624546931
 20
452.8963672781119
 30
0.0
 10
396.4977434765581
 20
452.7945589319836
 30
0.0
 10
396.9836077264454
 20
452.8177232851422
 30
0.0
 10
397.5133608557942
 20
453.0280525997252
 30
0.0
 10
397.7785801078469
 20
453.349868242725
 30
0.0
 10
397.9196931408932
 20
453.5210940534984
 30
0.0
  0
LINE
  5
71
330
1F
100
AcDbEntity
  8
0
  6
Continuous
 62
     7
370
    15
100
AcDbLine
 10
391.4469267415
 20
99.7103366549
 30
0.0
 11
391.4469267415
 21
91.110325187
 31
0.0
  0
LINE
  5
72
330
1F
100
AcDbEntity
  8
0
  6
Continuous
 62
     7
370
    15
100
AcDbLine
 10
392.051735072
 20
88.6103275711
 30
0.0
 11
392.051735072
 21
87.8105822499
 31
0.0
  0
LINE
  5
73
330
1F
100
AcDbEntity
  8
0
  6
Continuous
 62
     7
370
    15
100
AcDbLine
 10
392.051735072
 20
103.810078233
 30
0.0
 11
392.051735072
 21
103.0103329117
 31
0.0
  0
ARC
  5
74
330
1F
100
AcDbEntity
  8
0
  6
Continuous
 62
     7
370
    15
100
AcDbCircle
 10
395.6517329263
 20
101.0031897685
 30
0.0
 40
3.807142857143182
100
AcDbArc
 50
77.9663271603
 51
90.0
  0
ARC
  5
75
330
1F
100
AcDbEntity
  8
0
  6
Continuous
 62
     7
370
    15
100
AcDbCircle
 10
395.6517329263
 20
101.0031897685
 30
0.0
 40
3.80714285714331
100
AcDbArc
 50
90.0
 51
125.3002484399
  0
LINE
  5
76
330
1F
100
AcDbEntity
  8
0
  6
Continuous
 62
     7
370
    15
100
AcDbLine
 10
393.4517289685
 20
104.1103366311
 30
0.0
 11
393.4517289685
 21
103.8103315527
 31
0.0
  0
LINE
  5
77
330
1F
100
AcDbEntity
  8
0
  6
Continuous
 62
     7
370
    15
100
AcDbLine
 10
393.5517306613
 20
87.4103370602
 30
0.0
 11
393.5517306613
 21
87.0103302891
 31
0.0
  0
ARC
  5
78
330
1F
100
AcDbEntity
  8
0
  6
Continuous
 62
     7
370
    15
100
AcDbCircle
 10
393.7517329263
 20
87.8103326257
 30
0.0
 40
0.4000000000007162
100
AcDbArc
 50
270.0
 51
0.0
  0
LINE
  5
79
330
1F
100
AcDbEntity
  8
0
  6
Continuous
 62
     7
370
    15
100
AcDbLine
 10
394.1517259168
 20
103.0103329117
 30
0.0
 11
394.1517259168
 21
102.5603327448
 31
0.0
  0
LINE
  5
7A
330
1F
100
AcDbEntity
  8
0
  6
Continuous
 62
     7
370
    15
100
AcDbLine
 10
394.1517259168
 20
101.5603307183
 30
0.0
 11
394.1517259168
 21
100.8357915575
 31
0.0
  0
LINE
  5
7B
330
1F
100
AcDbEntity
  8
0
  6
Continuous
 62
     7
370
    15
100
AcDbLine
 10
394.1517259168
 20
100.0360909398
 30
0.0
 11
394.1517259168
 21
99.8642954523
 31
0.0
  0
LINE
  5
7C
330
1F
100
AcDbEntity
  8
0
  6
Continuous
 62
     7
370
    15
100
AcDbLine
 10
394.1517259168
 20
90.5855211909
 30
0.0
 11
394.1517259168
 21
90.0603297646
 31
0.0
  0
LINE
  5
7D
330
1F
100
AcDbEntity
  8
0
  6
Continuous
 62
     7
370
    15
100
AcDbLine
 10
394.1517259168
 20
89.060327738
 30
0.0
 11
394.1517259168
 21
88.6103275711
 31
0.0
  0
SPLINE
  5
7E
330
1F
100
AcDbEntity
  8
0
  6
Continuous
 62
     7
370
    15
100
AcDbSpline
210
0.0
220
0.0
230
1.0
 70
     8
 71
     3
 72
    11
 73
     7
 74
     0
 42
0.00000001
 43
0.00000001
 40
0.0
 40
0.0
 40
0.0
 40
0.0
 40
0.230568106593302
 40
0.4743070015135999
 40
0.7308077299475525
 40
0.9999999999999999
 40
0.9999999999999999
 40
0.9999999999999999
 40
0.9999999999999999
 10
399.9103988694241
 20
102.5027248556529
 30
0.0
 10
399.9069436175496
 20
102.7806752692139
 30
0.0
 10
399.8998357387531
 20
103.3524535137138
 30
0.0
 10
399.8328846857173
 20
104.1960561935696
 30
0.0
 10
399.7264262308516
 20
104.9255356000148
 30
0.0
 10
399.6290528620826
 20
105.1898701699449
 30
0.0
 10
399.5791907595684
 20
105.3252283031856
 30
0.0
  0
SPLINE
  5
7F
330
1F
100
AcDbEntity
  8
0
  6
Continuous
 62
     7
370
    15
100
AcDbSpline
210
0.0
220
0.0
230
1.0
 70
     8
 71
     3
 72
    11
 73
     7
 74
     0
 42
0.00000001
 43
0.00000001
 40
0.0
 40
0.0
 40
0.0
 40
0.0
 40
0.2262211504017919
 40
0.4679429769805621
 40
0.7254872984947677
 40
1.0
 40
1.0
 40
1.0
 40
1.0
 10
396.872245817094
 20
104.0407631094371
 30
0.0
 10
396.8750651418093
 20
104.0178633796222
 30
0.0
 10
396.8808969714061
 20
103.9704948302067
 30
0.0
 10
396.8976878348544
 20
103.6457124588643
 30
0.0
 10
396.9112801146155
 20
103.1452258367018
 30
0.0
 10
396.9118153629041
 20
102.7213974324489
 30
0.0
 10
396.9120915221264
 20
102.5027248556529
 30
0.0
  0
SPLINE
  5
80
330
1F
100
AcDbEntity
  8
0
  6
Continuous
 62
     7
370
    15
100
AcDbSpline
210
0.0
220
0.0
230
1.0
 70
     8
 71
     3
 72
    11
 73
     7
 74
     0
 42
0.00000001
 43
0.00000001
 40
0.0
 40
0.0
 40
0.0
 40
0.0
 40
0.2397039253097583
 40
0.4840844404523815
 40
0.735704284259953
 40
0.9999999999999999
 40
0.9999999999999999
 40
0.9999999999999999
 40
0.9999999999999999
 10
399.441712646394
 20
86.06826397728074
 30
0.0
 10
399.5242432513542
 20
86.21689918311884
 30
0.0
 10
399.6909146217573
 20
86.51706944673337
 30
0.0
 10
399.8181813264281
 20
87.18244381468865
 30
0.0
 10
399.8949082167125
 20
88.0030143308892
 30
0.0
 10
399.905151427769
 20
88.62530738702151
 30
0.0
 10
399.9103988694241
 20
88.94409868072617
 30
0.0
  0
SPLINE
  5
81
330
1F
100
AcDbEntity
  8
0
  6
Continuous
 62
     7
370
    15
100
AcDbSpline
210
0.0
220
0.0
230
1.0
 70
     8
 71
     3
 72
    12
 73
     8
 74
     0
 42
0.00000001
 43
0.00000001
 40
0.0
 40
0.0
 40
0.0
 40
0.0
 40
0.2489464093299705
 40
0.4822891556317727
 40
0.6998139568662817
 40
0.9035367122982499
 40
1.0
 40
1.0
 40
1.0
 40
1.0
 10
396.9120915221264
 20
88.94409868072614
 30
0.0
 10
396.910665674962
 20
88.80676380755712
 30
0.0
 10
396.9079033510274
 20
88.54070204672365
 30
0.0
 10
396.89700218619
 20
88.20488574138213
 30
0.0
 10
396.8944918605969
 20
87.97171265118739
 30
0.0
 10
396.8992813785833
 20
87.85162703554919
 30
0.0
 10
396.925711619309
 20
87.85026847508496
 30
0.0
 10
396.9342048453381
 20
87.84983190845597
 30
0.0
  0
LINE
  5
82
330
1F
100
AcDbEntity
  8
0
  6
Continuous
 62
     7
370
    15
100
AcDbLine
 10
396.9112421559
 20
102.5527331526
 30
0.0
 11
396.9112421559
 21
88.8940903838
 31
0.0
  0
LINE
  5
83
330
1F
100
AcDbEntity
  8
0
  6
Continuous
 62
     7
370
    15
100
AcDbLine
 10
399.9112482356
 20
88.8940903838
 30
0.0
 11
399.9112482356
 21
102.5527331526
 31
0.0
  0
LINE
  5
84
330
1F
100
AcDbEntity
  8
0
  6
Continuous
 62
     7
370
    15
100
AcDbLine
 10
395.3876282262
 20
106.4906183178
 30
0.0
 11
396.8749876308
 21
104.0104690487
 31
0.0
  0
LINE
  5
85
330
1F
100
AcDbEntity
  8
0
  6
Continuous
 62
     7
370
    15
100
AcDbLine
 10
399.5295251893
 20
105.4171237643
 30
0.0
 11
397.9604478168
 21
108.0335441525
 31
0.0
  0
LINE
  5
86
330
1F
100
AcDbEntity
  8
0
  6
Continuous
 62
     7
370
    15
100
AcDbLine
 10
396.9394798564
 20
87.7177480156
 30
0.0
 11
395.3704024838
 21
85.1013276274
 31
0.0
  0
LINE
  5
87
330
1F
100
AcDbEntity
  8
0
  6
Continuous
 62
     7
370
    15
100
AcDbLine
 10
397.9432220744
 20
83.5584017928
 30
0.0
 11
399.512299447
 21
86.174822181
 31
0.0
  0
LINE
  5
88
330
1F
100
AcDbEntity
  8
0
  6
Continuous
 62
     7
370
    15
100
AcDbLine
 10
400.0190283345
 20
101.2386742527
 30
0.0
 11
400.0190432357
 21
102.5978687699
 31
0.0
  0
SPLINE
  5
89
330
1F
100
AcDbEntity
  8
0
  6
Continuous
 62
     7
370
    15
100
AcDbSpline
210
0.0
220
0.0
230
1.0
 70
    24
 71
     3
 72
    10
 73
     6
 74
     0
 42
0.00000001
 43
0.00000001
 40
0.0
 40
0.0
 40
0.0
 40
0.0
 40
0.353364703481291
 40
0.6983894120823257
 40
1.0
 40
1.0
 40
1.0
 40
1.0
 10
400.0190432356884
 20
101.0103288586055
 30
0.0
 10
400.0190432356884
 20
101.0166978091729
 30
0.0
 10
400.0190432356883
 20
101.0292853924784
 30
0.0
 10
400.0190432356885
 20
101.1086299679386
 30
0.0
 10
400.0190432356884
 20
101.187413472448
 30
0.0
 10
400.0190432356884
 20
101.2241605217372
 30
0.0
  0
SPLINE
  5
8A
330
1F
100
AcDbEntity
  8
0
  6
Continuous
 62
     7
370
    15
100
AcDbSpline
210
0.0
220
0.0
230
1.0
 70
     8
 71
     3
 72
     9
 73
     5
 74
     0
 42
0.00000001
 43
0.00000001
 40
0.0
 40
0.0
 40
0.0
 40
0.0
 40
0.6994922530608902
 40
1.0
 40
1.0
 40
1.0
 40
1.0
 10
396.9112421559383
 20
91.13939735244858
 30
0.0
 10
396.7475659406902
 20
91.15478594925375
 30
0.0
 10
396.5135730486577
 20
91.17678561649501
 30
0.0
 10
396.2353408892404
 20
91.19911621208287
 30
0.0
 10
396.1517299698879
 20
91.20582672905076
 30
0.0
  0
SPLINE
  5
8B
330
1F
100
AcDbEntity
  8
0
  6
Continuous
 62
     7
370
    15
100
AcDbSpline
210
0.0
220
0.0
230
1.0
 70
     8
 71
     3
 72
    11
 73
     7
 74
     0
 42
0.00000001
 43
0.00000001
 40
0.0
 40
0.0
 40
0.0
 40
0.0
 40
0.0202379684787594
 40
0.6474491552836745
 40
0.8781005482069436
 40
1.0
 40
1.0
 40
1.0
 40
1.0
 10
394.1517259167721
 20
101.0399672682201
 30
0.0
 10
394.1444235120161
 20
101.0392186405539
 30
0.0
 10
393.9108063979419
 20
101.0152686897194
 30
0.0
 10
393.6388125640246
 20
100.9562832496976
 30
0.0
 10
393.4012113468837
 20
100.7207659036469
 30
0.0
 10
393.3781379620238
 20
100.6379895208629
 30
0.0
 10
393.3701600121548
 20
100.6093684132015
 30
0.0
  0
SPLINE
  5
8C
330
1F
100
AcDbEntity
  8
0
  6
Continuous
 62
     7
370
    15
100
AcDbSpline
210
0.0
220
0.0
230
1.0
 70
     8
 71
     3
 72
    12
 73
     8
 74
     0
 42
0.00000001
 43
0.00000001
 40
0.0
 40
0.0
 40
0.0
 40
0.0
 40
0.0328765803488465
 40
0.3170742783530845
 40
0.64115401870632
 40
0.8177351173709559
 40
1.0
 40
1.0
 40
1.0
 40
1.0
 10
393.3462883519222
 20
100.4334900076305
 30
0.0
 10
393.3465840982572
 20
100.42905699593
 30
0.0
 10
393.3494363886949
 20
100.3863033405638
 30
0.0
 10
393.4013312618285
 20
100.2871922046419
 30
0.0
 10
393.5087000078071
 20
100.1857858451173
 30
0.0
 10
393.6376157273653
 20
100.127725831329
 30
0.0
 10
393.7141152443917
 20
100.1186985515017
 30
0.0
 10
393.7529708432247
 20
100.1141134197627
 30
0.0
  0
SPLINE
  5
8D
330
1F
100
AcDbEntity
  8
0
  6
Continuous
 62
     7
370
    15
100
AcDbSpline
210
0.0
220
0.0
230
1.0
 70
     8
 71
     3
 72
    10
 73
     6
 74
     0
 42
0.00000001
 43
0.00000001
 40
0.0
 40
0.0
 40
0.0
 40
0.0
 40
0.1296779203875922
 40
0.9182848229230641
 40
0.9999999999999999
 40
0.9999999999999999
 40
0.9999999999999999
 40
0.9999999999999999
 10
396.9112421559383
 20
95.8659413750087
 30
0.0
 10
396.8842158371127
 20
95.86953975820958
 30
0.0
 10
396.6928350814453
 20
95.89502089386109
 30
0.0
 10
396.4202364375836
 20
95.91101133292776
 30
0.0
 10
396.1747763931238
 20
95.93120491802426
 30
0.0
 10
396.1517299698879
 20
95.93310090850937
 30
0.0
  0
SPLINE
  5
8E
330
1F
100
AcDbEntity
  8
0
  6
Continuous
 62
     7
370
    15
100
AcDbSpline
210
0.0
220
0.0
230
1.0
 70
     8
 71
     3
 72
    10
 73
     6
 74
     0
 42
0.00000001
 43
0.00000001
 40
0.0
 40
0.0
 40
0.0
 40
0.0
 40
0.1589420360720408
 40
0.595963460254243
 40
0.9999999999999999
 40
0.9999999999999999
 40
0.9999999999999999
 40
0.9999999999999999
 10
396.1517299698879
 20
94.18754908393967
 30
0.0
 10
396.1982427631395
 20
94.18373210605554
 30
0.0
 10
396.372645494458
 20
94.16942010022142
 30
0.0
 10
396.6419923449603
 20
94.14873036852903
 30
0.0
 10
396.8238698628041
 20
94.13126719359278
 30
0.0
 10
396.9112421559383
 20
94.12287804435834
 30
0.0
  0
SPLINE
  5
8F
330
1F
100
AcDbEntity
  8
0
  6
Continuous
 62
     7
370
    15
100
AcDbSpline
210
0.0
220
0.0
230
1.0
 70
     8
 71
     3
 72
    10
 73
     6
 74
     0
 42
0.00000001
 43
0.00000001
 40
0.0
 40
0.0
 40
0.0
 40
0.0
 40
0.2022265294046439
 40
0.6259026587819557
 40
1.0
 40
1.0
 40
1.0
 40
1.0
 10
396.1517299698879
 20
93.24207040619004
 30
0.0
 10
396.2100947408471
 20
93.23727242881999
 30
0.0
 10
396.3907370405001
 20
93.22242241482054
 30
0.0
 10
396.6566831117235
 20
93.2018804858876
 30
0.0
 10
396.8299790502583
 20
93.18456526363286
 30
0.0
 10
396.9112421559383
 20
93.17644569229233
 30
0.0
  0
SPLINE
  5
90
330
1F
100
AcDbEntity
  8
0
  6
Continuous
 62
     7
370
    15
100
AcDbSpline
210
0.0
220
0.0
230
1.0
 70
     8
 71
     3
 72
     9
 73
     5
 74
     0
 42
0.00000001
 43
0.00000001
 40
0.0
 40
0.0
 40
0.0
 40
0.0
 40
0.6099732864909534
 40
1.0
 40
1.0
 40
1.0
 40
1.0
 10
396.1517299698879
 20
92.29654702495682
 30
0.0
 10
396.3344094305216
 20
92.2787859144128
 30
0.0
 10
396.6338970715043
 20
92.24966806460294
 30
0.0
 10
396.9218410786741
 20
92.24405068966213
 30
0.0
 10
397.0341469334652
 20
92.2418597633754
 30
0.0
  0
SPLINE
  5
91
330
1F
100
AcDbEntity
  8
0
  6
Continuous
 62
     7
370
    15
100
AcDbSpline
210
0.0
220
0.0
230
1.0
 70
     8
 71
     3
 72
    10
 73
     6
 74
     0
 42
0.00000001
 43
0.00000001
 40
0.0
 40
0.0
 40
0.0
 40
0.0
 40
0.0209078267089109
 40
0.8193900404951407
 40
1.0
 40
1.0
 40
1.0
 40
1.0
 10
396.9112421559383
 20
93.03163620781052
 30
0.0
 10
396.9070371080069
 20
93.0322095678031
 30
0.0
 10
396.7422388033908
 20
93.0546798835406
 30
0.0
 10
396.4737442116558
 20
93.07001960300046
 30
0.0
 10
396.2018798984954
 20
93.09259067055866
 30
0.0
 10
396.1517299698879
 20
93.09675428222764
 30
0.0
  0
SPLINE
  5
92
330
1F
100
AcDbEntity
  8
0
  6
Continuous
 62
     7
370
    15
100
AcDbSpline
210
0.0
220
0.0
230
1.0
 70
     8
 71
     3
 72
     9
 73
     5
 74
     0
 42
0.00000001
 43
0.00000001
 40
0.0
 40
0.0
 40
0.0
 40
0.0
 40
0.4973255832365202
 40
1.0
 40
1.0
 40
1.0
 40
1.0
 10
396.1517299698879
 20
91.35121735881913
 30
0.0
 10
396.2970324792245
 20
91.33974395686606
 30
0.0
 10
396.5892002546907
 20
91.31667375428684
 30
0.0
 10
396.8035127482389
 20
91.2961882214274
 30
0.0
 10
396.9112421559383
 20
91.2858906681453
 30
0.0
  0
SPLINE
  5
93
330
1F
100
AcDbEntity
  8
0
  6
Continuous
 62
     7
370
    15
100
AcDbSpline
210
0.0
220
0.0
230
1.0
 70
     8
 71
     3
 72
    12
 73
     8
 74
     0
 42
0.00000001
 43
0.00000001
 40
0.0
 40
0.0
 40
0.0
 40
0.0
 40
0.1665621482341035
 40
0.3606647020422605
 40
0.5182546104457034
 40
0.7748166372863919
 40
1.0
 40
1.0
 40
1.0
 40
1.0
 10
397.005924134164
 20
93.85215374778855
 30
0.0
 10
396.997769372307
 20
93.88647753876869
 30
0.0
 10
396.9801114903299
 20
93.96080042652005
 30
0.0
 10
396.8910643165384
 20
93.97841766141075
 30
0.0
 10
396.7208246009602
 20
93.99691798894091
 30
0.0
 10
396.4579614542179
 20
94.01700752480224
 30
0.0
 10
396.2492762009459
 20
94.03417740214093
 30
0.0
 10
396.1517299698879
 20
94.04220315765488
 30
0.0
  0
SPLINE
  5
94
330
1F
100
AcDbEntity
  8
0
  6
Continuous
 62
     7
370
    15
100
AcDbSpline
210
0.0
220
0.0
230
1.0
 70
     8
 71
     3
 72
     9
 73
     5
 74
     0
 42
0.00000001
 43
0.00000001
 40
0.0
 40
0.0
 40
0.0
 40
0.0
 40
0.3306121295095548
 40
1.0
 40
1.0
 40
1.0
 40
1.0
 10
397.0341469334652
 20
94.9032071525966
 30
0.0
 10
396.9522810776778
 20
94.91435747634924
 30
0.0
 10
396.7046620447379
 20
94.9480837760141
 30
0.0
 10
396.3734435875872
 20
94.97174140044056
 30
0.0
 10
396.1517299698879
 20
94.98757752727616
 30
0.0
  0
SPLINE
  5
95
330
1F
100
AcDbEntity
  8
0
  6
Continuous
 62
     7
370
    15
100
AcDbSpline
210
0.0
220
0.0
230
1.0
 70
     8
 71
     3
 72
    10
 73
     6
 74
     0
 42
0.00000001
 43
0.00000001
 40
0.0
 40
0.0
 40
0.0
 40
0.0
 40
0.1854025711446615
 40
0.7328141982153286
 40
1.0
 40
1.0
 40
1.0
 40
1.0
 10
397.0341469334652
 20
92.07125636886704
 30
0.0
 10
396.9906792597534
 20
92.07685988760359
 30
0.0
 10
396.8188708092948
 20
92.09900811383767
 30
0.0
 10
396.5095124781515
 20
92.12188149406303
 30
0.0
 10
396.2400974021306
 20
92.14402687821816
 30
0.0
 10
396.1517299698879
 20
92.1512905056392
 30
0.0
  0
SPLINE
  5
96
330
1F
100
AcDbEntity
  8
0
  6
Continuous
 62
     7
370
    15
100
AcDbSpline
210
0.0
220
0.0
230
1.0
 70
     8
 71
     3
 72
    18
 73
    14
 74
     0
 42
0.00000001
 43
0.00000001
 40
0.0
 40
0.0
 40
0.0
 40
0.0
 40
0.0004429352154305
 40
0.0541256970848911
 40
0.105961364489926
 40
0.1924512846398542
 40
0.270791945953864
 40
0.4178170982394304
 40
0.5542830084658482
 40
0.6902777829116294
 40
0.814536216957935
 40
0.9935156448557174
 40
1.0
 40
1.0
 40
1.0
 40
1.0
 10
393.3279450224926
 20
91.11032518695939
 30
0.0
 10
393.3278500457861
 20
91.10983323089847
 30
0.0
 10
393.3162441037313
 20
91.04971729564836
 30
0.0
 10
393.3463778474192
 20
90.95112448870252
 30
0.0
 10
393.4649639091767
 20
90.76839472965872
 30
0.0
 10
393.655644922906
 20
90.67644115480486
 30
0.0
 10
393.9571452471077
 20
90.60025949770528
 30
0.0
 10
394.3834588000203
 20
90.54947485295867
 30
0.0
 10
394.9948275030397
 20
90.50063931381503
 30
0.0
 10
395.648721521024
 20
90.4468438467813
 30
0.0
 10
396.3393607973165
 20
90.38998023669691
 30
0.0
 10
396.8366478172649
 20
90.35125328306948
 30
0.0
 10
397.0274750562476
 20
90.32996550131897
 30
0.0
 10
397.0341469334652
 20
90.32922121833909
 30
0.0
  0
SPLINE
  5
97
330
1F
100
AcDbEntity
  8
0
  6
Continuous
 62
     7
370
    15
100
AcDbSpline
210
0.0
220
0.0
230
1.0
 70
     8
 71
     3
 72
    19
 73
    15
 74
     0
 42
0.00000001
 43
0.00000001
 40
0.0
 40
0.0
 40
0.0
 40
0.0
 40
0.0060183500717861
 40
0.1129987028852768
 40
0.1565049333817185
 40
0.1931416006235733
 40
0.3246324932695798
 40
0.4633480016283237
 40
0.6042770555882995
 40
0.7430778188282219
 40
0.8186187305418252
 40
0.8996739619560635
 40
0.9839695034018168
 40
1.0
 40
1.0
 40
1.0
 40
1.0
 10
396.9389285134365
 20
99.53328105758774
 30
0.0
 10
396.9369672899346
 20
99.53760546330074
 30
0.0
 10
396.9001439564386
 20
99.61879918425298
 30
0.0
 10
396.8407503029662
 20
99.64672720419316
 30
0.0
 10
396.6953525797504
 20
99.67174596503631
 30
0.0
 10
396.4747372337825
 20
99.68777603913631
 30
0.0
 10
396.061312982394
 20
99.72257105092342
 30
0.0
 10
395.5109647621874
 20
99.76698486546482
 30
0.0
 10
394.9594562975184
 20
99.8128634703641
 30
0.0
 10
394.5451479810661
 20
99.84569271226374
 30
0.0
 10
394.2824787176332
 20
99.8724562606658
 30
0.0
 10
394.1410975698249
 20
99.87900000140837
 30
0.0
 10
394.0633922335978
 20
99.88692708230765
 30
0.0
 10
394.0650878535399
 20
99.86418851960336
 30
0.0
 10
394.0653587864925
 20
99.86055526088822
 30
0.0
  0
SPLINE
  5
98
330
1F
100
AcDbEntity
  8
0
  6
Continuous
 62
     7
370
    15
100
AcDbSpline
210
0.0
220
0.0
230
1.0
 70
     8
 71
     3
 72
    17
 73
    13
 74
     0
 42
0.00000001
 43
0.00000001
 40
0.0
 40
0.0
 40
0.0
 40
0.0
 40
0.0145495723007486
 40
0.1671110647174099
 40
0.3191269595264043
 40
0.4740051903412129
 40
0.6252893041845894
 40
0.77051840407103
 40
0.9224026169505101
 40
0.9610981082088484
 40
0.9999649451833073
 40
0.9999999999999999
 40
0.9999999999999999
 40
0.9999999999999999
 40
0.9999999999999999
 10
397.0341469334652
 20
100.5808773929988
 30
0.0
 10
397.0218606645128
 20
100.5826845263481
 30
0.0
 10
396.8807450740626
 20
100.6034405988881
 30
0.0
 10
396.5269947068318
 20
100.6287227494148
 30
0.0
 10
395.9916191395205
 20
100.6736559795414
 30
0.0
 10
395.4239144776155
 20
100.7195994816119
 30
0.0
 10
394.8906940693361
 20
100.7639466161045
 30
0.0
 10
394.4291104023935
 20
100.8010320875392
 30
0.0
 10
394.1725460989512
 20
100.8324434825336
 30
0.0
 10
394.0555789331794
 20
100.8477245725749
 30
0.0
 10
394.0173063167215
 20
100.855944522678
 30
0.0
 10
394.0228258987043
 20
100.8504294674962
 30
0.0
 10
394.0228308724453
 20
100.8504244978343
 30
0.0
  0
SPLINE
  5
99
330
1F
100
AcDbEntity
  8
0
  6
Continuous
 62
     7
370
    15
100
AcDbSpline
210
0.0
220
0.0
230
1.0
 70
     8
 71
     3
 72
    10
 73
     6
 74
     0
 42
0.00000001
 43
0.00000001
 40
0.0
 40
0.0
 40
0.0
 40
0.0
 40
0.1086695348939155
 40
0.753055646280009
 40
1.0
 40
1.0
 40
1.0
 40
1.0
 10
396.9112421559383
 20
98.7050447161113
 30
0.0
 10
396.8898296820508
 20
98.70710914153862
 30
0.0
 10
396.7414460124453
 20
98.72141514943564
 30
0.0
 10
396.4692405996711
 20
98.74362067651174
 30
0.0
 10
396.2206126825459
 20
98.76386783382304
 30
0.0
 10
396.1517299698879
 20
98.7694773371135
 30
0.0
  0
SPLINE
  5
9A
330
1F
100
AcDbEntity
  8
0
  6
Continuous
 62
     7
370
    15
100
AcDbSpline
210
0.0
220
0.0
230
1.0
 70
     8
 71
     3
 72
    12
 73
     8
 74
     0
 42
0.00000001
 43
0.00000001
 40
0.0
 40
0.0
 40
0.0
 40
0.0
 40
0.3235736966287269
 40
0.4628541313422515
 40
0.5802428480036224
 40
0.9928777754038246
 40
1.0
 40
1.0
 40
1.0
 40
1.0
 10
396.9744379805614
 20
96.7068884069835
 30
0.0
 10
396.9445183585595
 20
96.74939828764518
 30
0.0
 10
396.9017200075313
 20
96.81020630168375
 30
0.0
 10
396.7683569950918
 20
96.82820826621877
 30
0.0
 10
396.5573235196967
 20
96.84590960544386
 30
0.0
 10
396.3312461530301
 20
96.86364505886877
 30
0.0
 10
396.1547250889897
 20
96.87828645505586
 30
0.0
 10
396.1517299698879
 20
96.87853488277543
 30
0.0
  0
SPLINE
  5
9B
330
1F
100
AcDbEntity
  8
0
  6
Continuous
 62
     7
370
    15
100
AcDbSpline
210
0.0
220
0.0
230
1.0
 70
     8
 71
     3
 72
     9
 73
     5
 74
     0
 42
0.00000001
 43
0.00000001
 40
0.0
 40
0.0
 40
0.0
 40
0.0
 40
0.4562664019439664
 40
1.0
 40
1.0
 40
1.0
 40
1.0
 10
396.9112421559383
 20
97.75710734676468
 30
0.0
 10
396.8070380597293
 20
97.76764805532986
 30
0.0
 10
396.5786537303878
 20
97.79075014770461
 30
0.0
 10
396.3021009877141
 20
97.81226856861522
 30
0.0
 10
396.1517299698879
 20
97.82396885704148
 30
0.0
  0
SPLINE
  5
9C
330
1F
100
AcDbEntity
  8
0
  6
Continuous
 62
     7
370
    15
100
AcDbSpline
210
0.0
220
0.0
230
1.0
 70
     8
 71
     3
 72
    15
 73
    11
 74
     0
 42
0.00000001
 43
0.00000001
 40
0.0
 40
0.0
 40
0.0
 40
0.0
 40
0.1404150971059904
 40
0.2599964694215395
 40
0.4280895306022324
 40
0.5478229353087023
 40
0.6743205572637972
 40
0.8033141451215821
 40
0.9303200750946122
 40
1.0
 40
1.0
 40
1.0
 40
1.0
 10
393.5783143328716
 20
100.1568797523891
 30
0.0
 10
393.6302363451492
 20
100.1361499344187
 30
0.0
 10
393.7263765761904
 20
100.0977660312977
 30
0.0
 10
394.0886385302594
 20
100.0376334311204
 30
0.0
 10
394.5644054910114
 20
99.98873335343234
 30
0.0
 10
395.1333815615448
 20
99.94394929145564
 30
0.0
 10
395.6884776430308
 20
99.89805731174029
 30
0.0
 10
396.2422411714988
 20
99.85271314519156
 30
0.0
 10
396.6799070325126
 20
99.81776974855197
 30
0.0
 10
396.8720610701176
 20
99.80027798890312
 30
0.0
 10
396.9401355074932
 20
99.79408118080246
 30
0.0
  0
SPLINE
  5
9D
330
1F
100
AcDbEntity
  8
0
  6
Continuous
 62
     7
370
    15
100
AcDbSpline
210
0.0
220
0.0
230
1.0
 70
     8
 71
     3
 72
    22
 73
    18
 74
     0
 42
0.00000001
 43
0.00000001
 40
0.0
 40
0.0
 40
0.0
 40
0.0
 40
0.2563145066060825
 40
0.3877578471299606
 40
0.4491171165863846
 40
0.4776115633019006
 40
0.5044873836434933
 40
0.5307630816500122
 40
0.5575718953621411
 40
0.5861435011928046
 40
0.6177308635224356
 40
0.6939479788048151
 40
0.7402130307403552
 40
0.7916808468297497
 40
0.8472015091120895
 40
0.9037983678542303
 40
1.0
 40
1.0
 40
1.0
 40
1.0
 10
394.0001811074306
 20
100.0729266102229
 30
0.0
 10
393.9009658283746
 20
100.0571136836242
 30
0.0
 10
393.7508709175613
 20
100.0331915636633
 30
0.0
 10
393.6072292109499
 20
99.98231987034342
 30
0.0
 10
393.5363707464644
 20
99.94379458185051
 30
0.0
 10
393.5075453356511
 20
99.9263318272143
 30
0.0
 10
393.4966801723537
 20
99.92100887024938
 30
0.0
 10
393.4950468704096
 20
99.92251649894138
 30
0.0
 10
393.50360021661
 20
99.93084131353142
 30
0.0
 10
393.523431731997
 20
99.9448246744308
 30
0.0
 10
393.569993835564
 20
99.97009432407586
 30
0.0
 10
393.6471450065422
 20
99.99366217989159
 30
0.0
 10
393.7451988453186
 20
99.99638079563061
 30
0.0
 10
393.8342330406068
 20
99.98046166955781
 30
0.0
 10
393.9246026149697
 20
99.94121546996784
 30
0.0
 10
394.0280422729042
 20
99.86443993374367
 30
0.0
 10
394.0728506817867
 20
99.78540135915814
 30
0.0
 10
394.101061968713
 20
99.7356388266002
 30
0.0
  0
SPLINE
  5
9E
330
1F
100
AcDbEntity
  8
0
  6
Continuous
 62
     7
370
    15
100
AcDbSpline
210
0.0
220
0.0
230
1.0
 70
     8
 71
     3
 72
    10
 73
     6
 74
     0
 42
0.00000001
 43
0.00000001
 40
0.0
 40
0.0
 40
0.0
 40
0.0
 40
0.1965674398783027
 40
0.7792705457395278
 40
1.0
 40
1.0
 40
1.0
 40
1.0
 10
396.1517299698879
 20
98.9148083622371
 30
0.0
 10
396.2098596867318
 20
98.91002164875351
 30
0.0
 10
396.440308718355
 20
98.8910452362259
 30
0.0
 10
396.7158800003742
 20
98.87050824662371
 30
0.0
 10
396.869137311807
 20
98.85292622538039
 30
0.0
 10
396.9112421559383
 20
98.84809586357224
 30
0.0
  0
SPLINE
  5
9F
330
1F
100
AcDbEntity
  8
0
  6
Continuous
 62
     7
370
    15
100
AcDbSpline
210
0.0
220
0.0
230
1.0
 70
     8
 71
     3
 72
    10
 73
     6
 74
     0
 42
0.00000001
 43
0.00000001
 40
0.0
 40
0.0
 40
0.0
 40
0.0
 40
0.4499537232935692
 40
0.8878160417747142
 40
0.9999999999999999
 40
0.9999999999999999
 40
0.9999999999999999
 40
0.9999999999999999
 10
396.1517299698879
 20
97.96959790538892
 30
0.0
 10
396.2864110616828
 20
97.95841796765653
 30
0.0
 10
396.5521540206341
 20
97.93635852564944
 30
0.0
 10
396.8602397474779
 20
97.91372152618347
 30
0.0
 10
397.004686489863
 20
97.9344626655297
 30
0.0
 10
397.0341469334652
 20
97.93869289707291
 30
0.0
  0
SPLINE
  5
A0
330
1F
100
AcDbEntity
  8
0
  6
Continuous
 62
     7
370
    15
100
AcDbSpline
210
0.0
220
0.0
230
1.0
 70
     8
 71
     3
 72
    10
 73
     6
 74
     0
 42
0.00000001
 43
0.00000001
 40
0.0
 40
0.0
 40
0.0
 40
0.0
 40
0.1814666387859012
 40
0.7511984472092381
 40
1.0
 40
1.0
 40
1.0
 40
1.0
 10
396.1517299698879
 20
97.02394041370496
 30
0.0
 10
396.2095598162892
 20
97.01921662997704
 30
0.0
 10
396.4489519773484
 20
96.99966207700176
 30
0.0
 10
396.7371459534353
 20
96.97635823690132
 30
0.0
 10
396.9059135946061
 20
96.96036169284864
 30
0.0
 10
396.9572122382214
 20
96.95549938034165
 30
0.0
  0
SPLINE
  5
A1
330
1F
100
AcDbEntity
  8
0
  6
Continuous
 62
     7
370
    15
100
AcDbSpline
210
0.0
220
0.0
230
1.0
 70
     8
 71
     3
 72
    10
 73
     6
 74
     0
 42
0.00000001
 43
0.00000001
 40
0.0
 40
0.0
 40
0.0
 40
0.0
 40
0.2822204399874073
 40
0.870262865775162
 40
1.0
 40
1.0
 40
1.0
 40
1.0
 10
396.1517299698879
 20
96.07844683479416
 30
0.0
 10
396.2337284788638
 20
96.07169818024717
 30
0.0
 10
396.4865813814168
 20
96.05088783976834
 30
0.0
 10
396.7588156569526
 20
96.03017991621829
 30
0.0
 10
396.8879088372051
 20
96.01496181316196
 30
0.0
 10
396.9112421559383
 20
96.01221117328751
 30
0.0
  0
SPLINE
  5
A2
330
1F
100
AcDbEntity
  8
0
  6
Continuous
 62
     7
370
    15
100
AcDbSpline
210
0.0
220
0.0
230
1.0
 70
     8
 71
     3
 72
    10
 73
     6
 74
     0
 42
0.00000001
 43
0.00000001
 40
0.0
 40
0.0
 40
0.0
 40
0.0
 40
0.530906235462646
 40
0.970730875737013
 40
1.0
 40
1.0
 40
1.0
 40
1.0
 10
396.1517299698879
 20
95.13311716865647
 30
0.0
 10
396.3089804852716
 20
95.12073893861317
 30
0.0
 10
396.5965038186064
 20
95.0981060718519
 30
0.0
 10
396.9051819794801
 20
95.06920038191701
 30
0.0
 10
397.026572751381
 20
95.08550397430216
 30
0.0
 10
397.0341469334652
 20
95.0865212376033
 30
0.0
  0
LINE
  5
A3
330
1F
100
AcDbEntity
  8
0
  6
Continuous
 62
     7
370
    15
100
AcDbLine
 10
397.980340867
 20
107.9980346854
 30
0.0
 11
397.8903825568
 21
108.1118199522
 31
0.0
  0
SPLINE
  5
A4
330
1F
100
AcDbEntity
  8
0
  6
Continuous
 62
     7
370
    15
100
AcDbSpline
210
0.0
220
0.0
230
1.0
 70
     8
 71
     3
 72
    20
 73
    16
 74
     0
 42
0.00000001
 43
0.00000001
 40
0.0
 40
0.0
 40
0.0
 40
0.0
 40
0.0337801128724901
 40
0.1101061307115954
 40
0.1739283690602047
 40
0.2252740865954488
 40
0.2665365324536546
 40
0.3037747990749472
 40
0.3388589531983939
 40
0.3726403286633576
 40
0.4139178557603339
 40
0.6259834660947706
 40
0.8390272946900029
 40
0.9659476464661463
 40
1.0
 40
1.0
 40
1.0
 40
1.0
 10
397.7780725049068
 20
108.2538876230632
 30
0.0
 10
397.7374117170414
 20
108.3100710171484
 30
0.0
 10
397.6048780561725
 20
108.4932005453508
 30
0.0
 10
397.2950143032991
 20
108.6703909068819
 30
0.0
 10
396.9077548027317
 20
108.7933348521539
 30
0.0
 10
396.5379068541126
 20
108.8081380367504
 30
0.0
 10
396.2035872123743
 20
108.7575468941319
 30
0.0
 10
395.9291046103766
 20
108.6564973244269
 30
0.0
 10
395.7016002337912
 20
108.521774055918
 30
0.0
 10
395.4955676226475
 20
108.3456014910364
 30
0.0
 10
395.1510414321106
 20
107.9031071789181
 30
0.0
 10
394.9699574763368
 20
107.2164369972136
 30
0.0
 10
394.820153653076
 20
106.0356060719709
 30
0.0
 10
394.7650356663591
 20
105.1309628813532
 30
0.0
 10
394.7584737134351
 20
104.7163757646359
 30
0.0
 10
394.7570855902721
 20
104.6286735231792
 30
0.0
  0
SPLINE
  5
A5
330
1F
100
AcDbEntity
  8
0
  6
Continuous
 62
     7
370
    15
100
AcDbSpline
210
0.0
220
0.0
230
1.0
 70
     8
 71
     3
 72
    19
 73
    15
 74
     0
 42
0.00000001
 43
0.00000001
 40
0.0
 40
0.0
 40
0.0
 40
0.0
 40
0.0102731348290125
 40
0.1295972920514754
 40
0.3268129454696458
 40
0.5525089390040305
 40
0.585854059748205
 40
0.6186015434807276
 40
0.652906735548141
 40
0.6960073489886607
 40
0.7523131035550185
 40
0.8223154336979943
 40
0.9054608295501668
 40
1.0
 40
1.0
 40
1.0
 40
1.0
 10
394.7542394684841
 20
87.01033028911698
 30
0.0
 10
394.7545626766839
 20
86.98313287720127
 30
0.0
 10
394.7586400014885
 20
86.64003303535658
 30
0.0
 10
394.7984015537849
 20
85.82004154480927
 30
0.0
 10
394.9334041870968
 20
84.59760112086812
 30
0.0
 10
395.0238111515096
 20
83.9542699534934
 30
0.0
 10
395.3747009305697
 20
83.41415383228886
 30
0.0
 10
395.5439263879391
 20
83.22631637120905
 30
0.0
 10
395.7806241393794
 20
83.049815057539
 30
0.0
 10
396.0942622483394
 20
82.89636129896353
 30
0.0
 10
396.4977452964569
 20
82.79457493891599
 30
0.0
 10
396.9836074326834
 20
82.81773137645635
 30
0.0
 10
397.5133609470146
 20
83.02806336644305
 30
0.0
 10
397.7785801395264
 20
83.34987859566826
 30
0.0
 10
397.9196931408932
 20
83.52110418628797
 30
0.0
  0
LINE
  5
A6
330
1F
100
AcDbEntity
  8
0
  6
Continuous
 62
     7
370
    15
100
AcDbLine
 10
391.4469267415
 20
469.7103265221
 30
0.0
 11
391.4469267415
 21
461.1103299553
 31
0.0
  0
LINE
  5
A7
330
1F
100
AcDbEntity
  8
0
  6
Continuous
 62
     7
370
    15
100
AcDbLine
 10
392.051735072
 20
473.8100830014
 30
0.0
 11
392.051735072
 21
473.0103376801
 31
0.0
  0
LINE
  5
A8
330
1F
100
AcDbEntity
  8
0
  6
Continuous
 62
     7
370
    15
100
AcDbLine
 10
392.051735072
 20
458.6103323395
 30
0.0
 11
392.051735072
 21
457.8105870182
 31
0.0
  0
LINE
  5
A9
330
1F
100
AcDbEntity
  8
0
  6
Continuous
 62
     7
370
    15
100
AcDbLine
 10
393.4517289685
 20
474.1103264983
 30
0.0
 11
393.4517289685
 21
473.8103363211
 31
0.0
  0
ARC
  5
AA
330
1F
100
AcDbEntity
  8
0
  6
Continuous
 62
     7
370
    15
100
AcDbCircle
 10
395.6517329263
 20
471.0031897685
 30
0.0
 40
3.807142857143168
100
AcDbArc
 50
77.9663271603
 51
90.0
  0
ARC
  5
AB
330
1F
100
AcDbEntity
  8
0
  6
Continuous
 62
     7
370
    15
100
AcDbCircle
 10
395.6517329263
 20
471.0031897685
 30
0.0
 40
3.807142857143322
100
AcDbArc
 50
90.0
 51
125.3002484399
  0
LINE
  5
AC
330
1F
100
AcDbEntity
  8
0
  6
Continuous
 62
     7
370
    15
100
AcDbLine
 10
393.5517306613
 20
457.4103269274
 30
0.0
 11
393.5517306613
 21
457.0103350575
 31
0.0
  0
ARC
  5
AD
330
1F
100
AcDbEntity
  8
0
  6
Continuous
 62
     7
370
    15
100
AcDbCircle
 10
393.7517329263
 20
457.8103326257
 30
0.0
 40
0.4000000000007162
100
AcDbArc
 50
270.0
 51
0.0
  0
LINE
  5
AE
330
1F
100
AcDbEntity
  8
0
  6
Continuous
 62
     7
370
    15
100
AcDbLine
 10
394.1517259168
 20
473.0103376801
 30
0.0
 11
394.1517259168
 21
472.5603375132
 31
0.0
  0
LINE
  5
AF
330
1F
100
AcDbEntity
  8
0
  6
Continuous
 62
     7
370
    15
100
AcDbLine
 10
394.1517259168
 20
471.5603354866
 30
0.0
 11
394.1517259168
 21
470.8357963259
 31
0.0
  0
LINE
  5
B0
330
1F
100
AcDbEntity
  8
0
  6
Continuous
 62
     7
370
    15
100
AcDbLine
 10
394.1517259168
 20
470.0360957081
 30
0.0
 11
394.1517259168
 21
469.8643002207
 31
0.0
  0
LINE
  5
B1
330
1F
100
AcDbEntity
  8
0
  6
Continuous
 62
     7
370
    15
100
AcDbLine
 10
394.1517259168
 20
460.5855259592
 30
0.0
 11
394.1517259168
 21
460.060334533
 31
0.0
  0
LINE
  5
B2
330
1F
100
AcDbEntity
  8
0
  6
Continuous
 62
     7
370
    15
100
AcDbLine
 10
394.1517259168
 20
459.0603325064
 30
0.0
 11
394.1517259168
 21
458.6103323395
 31
0.0
  0
LINE
  5
B3
330
1F
100
AcDbEntity
  8
0
  6
Continuous
 62
     7
370
    15
100
AcDbLine
 10
812.0517368602
 20
50.8103284533
 30
0.0
 11
812.0517368602
 21
85.8103397782
 31
0.0
  0
LINE
  5
B4
330
1F
100
AcDbEntity
  8
0
  6
Continuous
 62
     7
370
    15
100
AcDbLine
 10
812.0517368602
 20
475.8103254731
 30
0.0
 11
812.0517368602
 21
510.8103367979
 31
0.0
  0
LINE
  5
B5
330
1F
100
AcDbEntity
  8
0
  6
Continuous
 62
     7
370
    15
100
AcDbLine
 10
809.0517307805
 20
85.8103397782
 30
0.0
 11
809.0517307805
 21
86.8103269036
 31
0.0
  0
LINE
  5
B6
330
1F
100
AcDbEntity
  8
0
  6
Continuous
 62
     7
370
    15
100
AcDbLine
 10
809.0517307805
 20
121.8103382285
 30
0.0
 11
809.0517307805
 21
122.8103253539
 31
0.0
  0
LINE
  5
B7
330
1F
100
AcDbEntity
  8
0
  6
Continuous
 62
     7
370
    15
100
AcDbLine
 10
804.0517355489
 20
122.8103253539
 30
0.0
 11
804.0517355489
 21
121.8103382285
 31
0.0
  0
LINE
  5
B8
330
1F
100
AcDbEntity
  8
0
  6
Continuous
 62
     7
370
    15
100
AcDbLine
 10
804.0517355489
 20
86.8103269036
 30
0.0
 11
804.0517355489
 21
85.8103397782
 31
0.0
  0
LINE
  5
B9
330
1F
100
AcDbEntity
  8
0
  6
Continuous
 62
     7
370
    15
100
AcDbLine
 10
804.0517355489
 20
475.8103254731
 30
0.0
 11
804.0517355489
 21
474.8103383477
 31
0.0
  0
LINE
  5
BA
330
1F
100
AcDbEntity
  8
0
  6
Continuous
 62
     7
370
    15
100
AcDbLine
 10
804.0517355489
 20
439.8103270228
 30
0.0
 11
804.0517355489
 21
438.8103398974
 31
0.0
  0
LINE
  5
BB
330
1F
100
AcDbEntity
  8
0
  6
Continuous
 62
     7
370
    15
100
AcDbLine
 10
809.0517307805
 20
438.8103398974
 30
0.0
 11
809.0517307805
 21
439.8103270228
 31
0.0
  0
LINE
  5
BC
330
1F
100
AcDbEntity
  8
0
  6
Continuous
 62
     7
370
    15
100
AcDbLine
 10
809.0517307805
 20
474.8103383477
 30
0.0
 11
809.0517307805
 21
475.8103254731
 31
0.0
  0
LINE
  5
BD
330
1F
100
AcDbEntity
  8
0
  6
Continuous
 62
     7
370
    15
100
AcDbLine
 10
392.2517384576
 20
102.5603327448
 30
0.0
 11
392.2517384576
 21
101.5603307183
 31
0.0
  0
LINE
  5
BE
330
1F
100
AcDbEntity
  8
0
  6
Continuous
 62
     7
370
    15
100
AcDbLine
 10
392.2517384576
 20
90.0603297646
 30
0.0
 11
392.2517384576
 21
89.060327738
 31
0.0
  0
LINE
  5
BF
330
1F
100
AcDbEntity
  8
0
  6
Continuous
 62
     7
370
    15
100
AcDbLine
 10
392.2517384576
 20
460.060334533
 30
0.0
 11
392.2517384576
 21
459.0603325064
 31
0.0
  0
LINE
  5
C0
330
1F
100
AcDbEntity
  8
0
  6
Continuous
 62
     7
370
    15
100
AcDbLine
 10
392.2517384576
 20
472.5603375132
 30
0.0
 11
392.2517384576
 21
471.5603354866
 31
0.0
  0
LINE
  5
C1
330
1F
100
AcDbEntity
  8
0
  6
Continuous
 62
     7
370
    15
100
AcDbLine
 10
400.2517397689
 20
98.8103363211
 30
0.0
 11
400.1517380761
 21
98.8103363211
 31
0.0
  0
LINE
  5
C2
330
1F
100
AcDbEntity
  8
0
  6
Continuous
 62
     7
370
    15
100
AcDbLine
 10
400.1517380761
 20
92.8103390629
 30
0.0
 11
400.2517397689
 21
92.8103390629
 31
0.0
  0
LINE
  5
C3
330
1F
100
AcDbEntity
  8
0
  6
Continuous
 62
     7
370
    15
100
AcDbLine
 10
400.2517397689
 20
468.8103261883
 30
0.0
 11
400.1517380761
 21
468.8103261883
 31
0.0
  0
LINE
  5
C4
330
1F
100
AcDbEntity
  8
0
  6
Continuous
 62
     7
370
    15
100
AcDbLine
 10
400.1517380761
 20
462.8103289301
 30
0.0
 11
400.2517397689
 21
462.8103289301
 31
0.0
  0
LINE
  5
C5
330
1F
100
AcDbEntity
  8
0
  6
Continuous
 62
     7
370
    15
100
AcDbLine
 10
780.5517400788
 20
50.8103284533
 30
0.0
 11
420.5517257737
 21
50.8103284533
 31
0.0
  0
LINE
  5
C6
330
1F
100
AcDbEntity
  8
0
  6
Continuous
 62
     7
370
    15
100
AcDbLine
 10
780.5517400788
 20
50.8103284533
 30
0.0
 11
780.5517400788
 21
510.8103367979
 31
0.0
  0
LINE
  5
C7
330
1F
100
AcDbEntity
  8
0
  6
Continuous
 62
     7
370
    15
100
AcDbLine
 10
420.5517257737
 20
510.8103367979
 30
0.0
 11
780.5517400788
 21
510.8103367979
 31
0.0
  0
LINE
  5
C8
330
1F
100
AcDbEntity
  8
0
  6
Continuous
 62
     7
370
    15
100
AcDbLine
 10
420.5517257737
 20
50.8103284533
 30
0.0
 11
420.5517257737
 21
510.8103367979
 31
0.0
  0
LINE
  5
C9
330
1F
100
AcDbEntity
  8
0
  6
Continuous
 62
     7
370
    15
100
AcDbLine
 10
415.5517305421
 20
45.8103332217
 30
0.0
 11
415.5517305421
 21
515.8103320296
 31
0.0
  0
LINE
  5
CA
330
1F
100
AcDbEntity
  8
0
  6
Continuous
 62
     7
370
    15
100
AcDbLine
 10
415.5517305421
 20
515.8103320296
 30
0.0
 11
785.5517353105
 21
515.8103320296
 31
0.0
  0
LINE
  5
CB
330
1F
100
AcDbEntity
  8
0
  6
Continuous
 62
     7
370
    15
100
AcDbLine
 10
785.5517353105
 20
45.8103332217
 30
0.0
 11
785.5517353105
 21
515.8103320296
 31
0.0
  0
LINE
  5
CC
330
1F
100
AcDbEntity
  8
0
  6
Continuous
 62
     7
370
    15
100
AcDbLine
 10
415.5517305421
 20
45.8103332217
 30
0.0
 11
785.5517353105
 21
45.8103332217
 31
0.0
  0
ARC
  5
CD
330
1F
100
AcDbEntity
  8
0
  6
Continuous
 62
     7
370
    15
100
AcDbCircle
 10
415.5517329263
 20
45.8103326256
 30
0.0
 40
15.00000000000006
100
AcDbArc
 50
180.0
 51
270.0
  0
LINE
  5
CE
330
1F
100
AcDbEntity
  8
0
  6
Continuous
 62
     7
370
    15
100
AcDbLine
 10
400.551729946
 20
45.8103332217
 30
0.0
 11
415.5517305421
 21
45.8103332217
 31
0.0
  0
LINE
  5
CF
330
1F
100
AcDbEntity
  8
0
  6
Continuous
 62
     7
370
    15
100
AcDbLine
 10
415.5517305421
 20
30.8103326256
 30
0.0
 11
415.5517305421
 21
45.8103332217
 31
0.0
  0
LINE
  5
D0
330
1F
100
AcDbEntity
  8
0
  6
Continuous
 62
     7
370
    15
100
AcDbLine
 10
400.551729946
 20
105.7978186304
 30
0.0
 11
400.551729946
 21
455.8228466208
 31
0.0
  0
SPLINE
  5
D1
330
1F
100
AcDbEntity
  8
0
  6
Continuous
 62
     7
370
    15
100
AcDbSpline
210
0.0
220
0.0
230
1.0
 70
     8
 71
     3
 72
    15
 73
    11
 74
     0
 42
0.00000001
 43
0.00000001
 40
0.0
 40
0.0
 40
0.0
 40
0.0
 40
0.1223591992949308
 40
0.2483642535872579
 40
0.3706789337635667
 40
0.4965638635783843
 40
0.618163140577759
 40
0.743323983410104
 40
0.8697086680611829
 40
1.0
 40
1.0
 40
1.0
 40
1.0
 10
400.5517299460461
 20
455.8228466207896
 30
0.0
 10
400.5691389063361
 20
456.5370520186333
 30
0.0
 10
400.6044755500302
 20
457.9867435135562
 30
0.0
 10
400.7807413566081
 20
460.4380468473652
 30
0.0
 10
400.9242828473793
 20
463.0434279343286
 30
0.0
 10
400.9845262859768
 20
465.7048126318556
 30
0.0
 10
400.9318632331431
 20
468.3883835918026
 30
0.0
 10
400.793381320144
 20
470.9960601773099
 30
0.0
 10
400.6100634916411
 20
473.533631028641
 30
0.0
 10
400.5713707642732
 20
475.0354731881421
 30
0.0
 10
400.5517299460461
 20
475.79782339882
 30
0.0
  0
LINE
  5
D2
330
1F
100
AcDbEntity
  8
0
  6
Continuous
 62
     7
370
    15
100
AcDbLine
 10
400.551729946
 20
475.7978233988
 30
0.0
 11
400.551729946
 21
515.8103320296
 31
0.0
  0
LINE
  5
D3
330
1F
100
AcDbEntity
  8
0
  6
Continuous
 62
     7
370
    15
100
AcDbLine
 10
400.551729946
 20
515.8103320296
 30
0.0
 11
415.5517305421
 21
515.8103320296
 31
0.0
  0
LINE
  5
D4
330
1F
100
AcDbEntity
  8
0
  6
Continuous
 62
     7
370
    15
100
AcDbLine
 10
400.551729946
 20
85.8228418524
 30
0.0
 11
400.551729946
 21
45.8103332217
 31
0.0
  0
SPLINE
  5
D5
330
1F
100
AcDbEntity
  8
0
  6
Continuous
 62
     7
370
    15
100
AcDbSpline
210
0.0
220
0.0
230
1.0
 70
     8
 71
     3
 72
    15
 73
    11
 74
     0
 42
0.00000001
 43
0.00000001
 40
0.0
 40
0.0
 40
0.0
 40
0.0
 40
0.1223592018168122
 40
0.2483642587061635
 40
0.3706796088641477
 40
0.4965638532023258
 40
0.6181631327079196
 40
0.743323978119889
 40
0.8697086653758166
 40
1.0
 40
1.0
 40
1.0
 40
1.0
 10
400.5517299460461
 20
85.82284185241807
 30
0.0
 10
400.5691388851519
 20
86.53704727492905
 30
0.0
 10
400.6044754858464
 20
87.98673881992167
 30
0.0
 10
400.7807419364335
 20
90.43804618733358
 30
0.0
 10
400.9242821016211
 20
93.0434289089396
 30
0.0
 10
400.9845264402065
 20
95.70481265062169
 30
0.0
 10
400.9318631646294
 20
98.38837886918867
 30
0.0
 10
400.7933813388195
 20
100.9960553964656
 30
0.0
 10
400.6100634867839
 20
103.5336262635133
 30
0.0
 10
400.5713707626378
 20
105.0354684208628
 30
0.0
 10
400.5517299460461
 20
105.7978186304485
 30
0.0
  0
LINE
  5
D6
330
1F
100
AcDbEntity
  8
0
  6
Continuous
 62
     7
370
    15
100
AcDbLine
 10
785.5517353105
 20
45.8103332217
 30
0.0
 11
785.5517353105
 21
30.8103326256
 31
0.0
  0
LINE
  5
D7
330
1F
100
AcDbEntity
  8
0
  6
Continuous
 62
     7
370
    15
100
AcDbLine
 10
415.5517305421
 20
30.8103326256
 30
0.0
 11
785.5517353105
 21
30.8103326256
 31
0.0
  0
LINE
  5
D8
330
1F
100
AcDbEntity
  8
0
  6
Continuous
 62
     7
370
    15
100
AcDbLine
 10
800.5517359065
 20
515.8103320296
 30
0.0
 11
785.5517353105
 21
515.8103320296
 31
0.0
  0
LINE
  5
D9
330
1F
100
AcDbEntity
  8
0
  6
Continuous
 62
     7
370
    15
100
AcDbLine
 10
800.5517359065
 20
45.8103332217
 30
0.0
 11
800.5517359065
 21
515.8103320296
 31
0.0
  0
LINE
  5
DA
330
1F
100
AcDbEntity
  8
0
  6
Continuous
 62
     7
370
    15
100
AcDbLine
 10
785.5517353105
 20
45.8103332217
 30
0.0
 11
800.5517359065
 21
45.8103332217
 31
0.0
  0
ARC
  5
DB
330
1F
100
AcDbEntity
  8
0
  6
Continuous
 62
     7
370
    15
100
AcDbCircle
 10
785.5517329263
 20
45.8103326256
 30
0.0
 40
15.00000000000004
100
AcDbArc
 50
270.0
 51
0.0
  0
ARC
  5
DC
330
1F
100
AcDbEntity
  8
0
  6
Continuous
 62
     7
370
    15
100
AcDbCircle
 10
415.5517329263
 20
515.8103326256
 30
0.0
 40
15.0
100
AcDbArc
 50
90.0
 51
180.0
  0
LINE
  5
DD
330
1F
100
AcDbEntity
  8
0
  6
Continuous
 62
     7
370
    15
100
AcDbLine
 10
415.5517305421
 20
515.8103320296
 30
0.0
 11
415.5517305421
 21
530.8103326256
 31
0.0
  0
LINE
  5
DE
330
1F
100
AcDbEntity
  8
0
  6
Continuous
 62
     7
370
    15
100
AcDbLine
 10
415.5517305421
 20
530.8103326256
 30
0.0
 11
785.5517353105
 21
530.8103326256
 31
0.0
  0
LINE
  5
DF
330
1F
100
AcDbEntity
  8
0
  6
Continuous
 62
     7
370
    15
100
AcDbLine
 10
785.5517353105
 20
530.8103326256
 30
0.0
 11
785.5517353105
 21
515.8103320296
 31
0.0
  0
ARC
  5
E0
330
1F
100
AcDbEntity
  8
0
  6
Continuous
 62
     7
370
    15
100
AcDbCircle
 10
785.5517329263
 20
515.8103326256
 30
0.0
 40
15.0
100
AcDbArc
 50
0.0
 51
90.0
  0
LINE
  5
E1
330
1F
100
AcDbEntity
  8
0
  6
Continuous
 62
     7
370
    15
100
AcDbLine
 10
400.551729946
 20
85.8228418524
 30
0.0
 11
400.551729946
 21
105.7978186304
 31
0.0
  0
LINE
  5
E2
330
1F
100
AcDbEntity
  8
0
  6
Continuous
 62
     7
370
    15
100
AcDbLine
 10
400.551729946
 20
455.8228466208
 30
0.0
 11
400.551729946
 21
475.7978233988
 31
0.0
  0
LINE
  5
E3
330
1F
100
AcDbEntity
  8
0
  6
Continuous
 62
     7
370
    15
100
AcDbLine
 10
801.453092246
 20
86.8103269036
 30
0.0
 11
812.0517368602
 21
86.8103269036
 31
0.0
  0
LINE
  5
E4
330
1F
100
AcDbEntity
  8
0
  6
Continuous
 62
     7
370
    15
100
AcDbLine
 10
801.453092246
 20
121.8103382285
 30
0.0
 11
801.453092246
 21
86.8103269036
 31
0.0
  0
LINE
  5
E5
330
1F
100
AcDbEntity
  8
0
  6
Continuous
 62
     7
370
    15
100
AcDbLine
 10
801.453092246
 20
121.8103382285
 30
0.0
 11
812.0517368602
 21
121.8103382285
 31
0.0
  0
LINE
  5
E6
330
1F
100
AcDbEntity
  8
0
  6
Continuous
 62
     7
370
    15
100
AcDbLine
 10
801.453092246
 20
439.8103270228
 30
0.0
 11
812.0517368602
 21
439.8103270228
 31
0.0
  0
LINE
  5
E7
330
1F
100
AcDbEntity
  8
0
  6
Continuous
 62
     7
370
    15
100
AcDbLine
 10
801.453092246
 20
474.8103383477
 30
0.0
 11
801.453092246
 21
439.8103270228
 31
0.0
  0
LINE
  5
E8
330
1F
100
AcDbEntity
  8
0
  6
Continuous
 62
     7
370
    15
100
AcDbLine
 10
801.453092246
 20
474.8103383477
 30
0.0
 11
812.0517368602
 21
474.8103383477
 31
0.0
  0
LINE
  5
E9
330
1F
100
AcDbEntity
  8
0
  6
Continuous
 62
     7
370
    15
100
AcDbLine
 10
800.9895767259
 20
121.8103382285
 30
0.0
 11
800.9895767259
 21
86.8103269036
 31
0.0
  0
LINE
  5
EA
330
1F
100
AcDbEntity
  8
0
  6
Continuous
 62
     7
370
    15
100
AcDbLine
 10
800.9895767259
 20
121.8103382285
 30
0.0
 11
801.453092246
 21
121.8103382285
 31
0.0
  0
LINE
  5
EB
330
1F
100
AcDbEntity
  8
0
  6
Continuous
 62
     7
370
    15
100
AcDbLine
 10
800.9895767259
 20
86.8103269036
 30
0.0
 11
801.453092246
 21
86.8103269036
 31
0.0
  0
LINE
  5
EC
330
1F
100
AcDbEntity
  8
0
  6
Continuous
 62
     7
370
    15
100
AcDbLine
 10
800.9895767259
 20
474.8103383477
 30
0.0
 11
800.9895767259
 21
439.8103270228
 31
0.0
  0
LINE
  5
ED
330
1F
100
AcDbEntity
  8
0
  6
Continuous
 62
     7
370
    15
100
AcDbLine
 10
800.9895767259
 20
474.8103383477
 30
0.0
 11
801.453092246
 21
474.8103383477
 31
0.0
  0
LINE
  5
EE
330
1F
100
AcDbEntity
  8
0
  6
Continuous
 62
     7
370
    15
100
AcDbLine
 10
800.9895767259
 20
439.8103270228
 30
0.0
 11
801.453092246
 21
439.8103270228
 31
0.0
  0
LINE
  5
EF
330
1F
100
AcDbEntity
  8
0
  6
Continuous
 62
     7
370
    15
100
AcDbLine
 10
800.5517359065
 20
121.8103382285
 30
0.0
 11
800.9895767259
 21
121.8103382285
 31
0.0
  0
LINE
  5
F0
330
1F
100
AcDbEntity
  8
0
  6
Continuous
 62
     7
370
    15
100
AcDbLine
 10
800.5517359065
 20
86.8103269036
 30
0.0
 11
800.9895767259
 21
86.8103269036
 31
0.0
  0
LINE
  5
F1
330
1F
100
AcDbEntity
  8
0
  6
Continuous
 62
     7
370
    15
100
AcDbLine
 10
800.5517359065
 20
474.8103383477
 30
0.0
 11
800.9895767259
 21
474.8103383477
 31
0.0
  0
LINE
  5
F2
330
1F
100
AcDbEntity
  8
0
  6
Continuous
 62
     7
370
    15
100
AcDbLine
 10
800.5517359065
 20
439.8103270228
 30
0.0
 11
800.9895767259
 21
439.8103270228
 31
0.0
  0
SPLINE
  5
F3
330
1F
100
AcDbEntity
  8
0
  6
Continuous
 62
     7
370
    15
100
AcDbSpline
210
0.0
220
0.0
230
1.0
 70
    24
 71
     3
 72
    12
 73
     8
 74
     0
 42
0.00000001
 43
0.00000001
 40
0.0
 40
0.0
 40
0.0
 40
0.0
 40
0.2185042665755995
 40
0.4370130079610726
 40
0.6555186338092558
 40
0.8740245712698237
 40
1.0
 40
1.0
 40
1.0
 40
1.0
 10
398.7110789107372
 20
472.5027296240245
 30
0.0
 10
398.5143600224187
 20
472.5027296240245
 30
0.0
 10
398.1209182171206
 20
472.5027296240245
 30
0.0
 10
397.5601488097448
 20
472.5027296240245
 30
0.0
 10
397.142497482202
 20
472.5027296240245
 30
0.0
 10
396.9159291199215
 20
472.5027296240244
 30
0.0
 10
396.9334573019941
 20
472.5027296240245
 30
0.0
 10
396.9398672865917
 20
472.5027296240245
 30
0.0
  0
SPLINE
  5
F4
330
1F
100
AcDbEntity
  8
0
  6
Continuous
 62
     7
370
    15
100
AcDbSpline
210
0.0
220
0.0
230
1.0
 70
    24
 71
     3
 72
    11
 73
     7
 74
     0
 42
0.00000001
 43
0.00000001
 40
0.0
 40
0.0
 40
0.0
 40
0.0
 40
0.1398584535568318
 40
0.4265704975747582
 40
0.7132876377976632
 40
1.0
 40
1.0
 40
1.0
 40
1.0
 10
399.8824442910244
 20
472.5027296240245
 30
0.0
 10
399.888237789616
 20
472.5027296240245
 30
0.0
 10
399.9059080520427
 20
472.5027296240245
 30
0.0
 10
399.6868850990394
 20
472.5027296240245
 30
0.0
 10
399.2765551243099
 20
472.5027296240245
 30
0.0
 10
398.8995699348695
 20
472.5027296240245
 30
0.0
 10
398.7110789107372
 20
472.5027296240245
 30
0.0
  0
SPLINE
  5
F5
330
1F
100
AcDbEntity
  8
0
  6
Continuous
 62
     7
370
    15
100
AcDbSpline
210
0.0
220
0.0
230
1.0
 70
     8
 71
     3
 72
    13
 73
     9
 74
     0
 42
0.00000001
 43
0.00000001
 40
0.0
 40
0.0
 40
0.0
 40
0.0
 40
0.1877392486070275
 40
0.3754735804977203
 40
0.5632118571868127
 40
0.7509474409195469
 40
0.9386853645699014
 40
1.0
 40
1.0
 40
1.0
 40
1.0
 10
398.4177942561199
 20
476.1175725157176
 30
0.0
 10
398.221097281305
 20
476.1148708043963
 30
0.0
 10
397.8277084829863
 20
476.109467452509
 30
0.0
 10
397.294693676189
 20
475.8189258591297
 30
0.0
 10
396.9041778200233
 20
475.3640262011069
 30
0.0
 10
396.7312022042006
 20
474.8023536751934
 30
0.0
 10
396.7344998411351
 20
474.3291557880144
 30
0.0
 10
396.861833482178
 20
474.1077247883284
 30
0.0
 10
396.8931819485714
 20
474.0532103474055
 30
0.0
  0
SPLINE
  5
F6
330
1F
100
AcDbEntity
  8
0
  6
Continuous
 62
     7
370
    15
100
AcDbSpline
210
0.0
220
0.0
230
1.0
 70
     8
 71
     3
 72
    10
 73
     6
 74
     0
 42
0.00000001
 43
0.00000001
 40
0.0
 40
0.0
 40
0.0
 40
0.0
 40
0.2093378553024356
 40
0.6046672852002561
 40
1.0
 40
1.0
 40
1.0
 40
1.0
 10
399.5549614714672
 20
475.3114494974528
 30
0.0
 10
399.5132588368145
 20
475.4045125186238
 30
0.0
 10
399.3928017945625
 20
475.6733227836503
 30
0.0
 10
398.986099740947
 20
475.9899807517055
 30
0.0
 10
398.6072299424158
 20
476.0750418099148
 30
0.0
 10
398.4177942561199
 20
476.1175725157176
 30
0.0
  0
SPLINE
  5
F7
330
1F
100
AcDbEntity
  8
0
  6
Continuous
 62
     7
370
    15
100
AcDbSpline
210
0.0
220
0.0
230
1.0
 70
     8
 71
     3
 72
    13
 73
     9
 74
     0
 42
0.00000001
 43
0.00000001
 40
0.0
 40
0.0
 40
0.0
 40
0.0
 40
0.1768609182002661
 40
0.353726087215156
 40
0.5305909811345675
 40
0.7074556269575023
 40
0.8843206144289144
 40
1.0
 40
1.0
 40
1.0
 40
1.0
 10
398.4005685137798
 20
455.4743829662715
 30
0.0
 10
398.2039012751189
 20
455.4770705187039
 30
0.0
 10
397.8105620709418
 20
455.4824456881633
 30
0.0
 10
397.2771782138685
 20
455.7731248971634
 30
0.0
 10
396.888045329636
 20
456.2274883197077
 30
0.0
 10
396.7098882132778
 20
456.7911909241893
 30
0.0
 10
396.7308471574897
 20
457.3243399998005
 30
0.0
 10
396.8969429254417
 20
457.5976100912677
 30
0.0
 10
396.9626213597347
 20
457.705667942277
 30
0.0
  0
SPLINE
  5
F8
330
1F
100
AcDbEntity
  8
0
  6
Continuous
 62
     7
370
    15
100
AcDbSpline
210
0.0
220
0.0
230
1.0
 70
     8
 71
     3
 72
    10
 73
     6
 74
     0
 42
0.00000001
 43
0.00000001
 40
0.0
 40
0.0
 40
0.0
 40
0.0
 40
0.0588282059342046
 40
0.5294127859980802
 40
1.0
 40
1.0
 40
1.0
 40
1.0
 10
399.4306857871105
 20
456.0742888147746
 30
0.0
 10
399.4200461254816
 20
456.0528079459137
 30
0.0
 10
399.3242965982681
 20
455.8594951217557
 30
0.0
 10
398.9634613982738
 20
455.6052938751271
 30
0.0
 10
398.5881998253435
 20
455.5180200173041
 30
0.0
 10
398.4005685137798
 20
455.4743829662715
 30
0.0
  0
SPLINE
  5
F9
330
1F
100
AcDbEntity
  8
0
  6
Continuous
 62
     7
370
    15
100
AcDbSpline
210
0.0
220
0.0
230
1.0
 70
    24
 71
     3
 72
    12
 73
     8
 74
     0
 42
0.00000001
 43
0.00000001
 40
0.0
 40
0.0
 40
0.0
 40
0.0
 40
0.2193536141895231
 40
0.4387117205829468
 40
0.6580666993286801
 40
0.8774219908980663
 40
1.0
 40
1.0
 40
1.0
 40
1.0
 10
398.7110789107372
 20
458.9441034490977
 30
0.0
 10
398.5143646505539
 20
458.9441034490977
 30
0.0
 10
398.120932101621
 20
458.9441034490977
 30
0.0
 10
397.5600932707463
 20
458.9441034490978
 30
0.0
 10
397.1427057501136
 20
458.9441034490977
 30
0.0
 10
396.9168548261994
 20
458.9441034490977
 30
0.0
 10
396.9338275284401
 20
458.9441034490977
 30
0.0
 10
396.9399119900753
 20
458.9441034490977
 30
0.0
  0
SPLINE
  5
FA
330
1F
100
AcDbEntity
  8
0
  6
Continuous
 62
     7
370
    15
100
AcDbSpline
210
0.0
220
0.0
230
1.0
 70
    24
 71
     3
 72
    11
 73
     7
 74
     0
 42
0.00000001
 43
0.00000001
 40
0.0
 40
0.0
 40
0.0
 40
0.0
 40
0.1399149588765384
 40
0.4266081679064586
 40
0.7133064728065721
 40
1.0
 40
1.0
 40
1.0
 40
1.0
 10
399.8824442910244
 20
458.9441034490977
 30
0.0
 10
399.8882418537205
 20
458.9441034490977
 30
0.0
 10
399.9059189314253
 20
458.9441034490977
 30
0.0
 10
399.6868882609
 20
458.9441034490977
 30
0.0
 10
399.2765543338543
 20
458.9441034490977
 30
0.0
 10
398.8995696713857
 20
458.9441034490977
 30
0.0
 10
398.7110789107372
 20
458.9441034490977
 30
0.0
  0
SPLINE
  5
FB
330
1F
100
AcDbEntity
  8
0
  6
Continuous
 62
     7
370
    15
100
AcDbSpline
210
0.0
220
0.0
230
1.0
 70
     8
 71
     3
 72
    13
 73
     9
 74
     0
 42
0.00000001
 43
0.00000001
 40
0.0
 40
0.0
 40
0.0
 40
0.0
 40
0.17686105216455
 40
0.3537261393151788
 40
0.5305908358634142
 40
0.7074517545042305
 40
0.8843162961641043
 40
0.9999999999999999
 40
0.9999999999999999
 40
0.9999999999999999
 40
0.9999999999999999
 10
396.848716883569
 20
478.7339780027781
 30
0.0
 10
396.6520497232781
 20
478.7312904502643
 30
0.0
 10
396.2587109158451
 20
478.7259152839216
 30
0.0
 10
395.725326398686
 20
478.4352365483488
 30
0.0
 10
395.3361974727696
 20
477.9808744490661
 30
0.0
 10
395.1580338664348
 20
477.4171826868437
 30
0.0
 10
395.1789997689015
 20
476.8840313722851
 30
0.0
 10
395.345091363275
 20
476.6107556913822
 30
0.0
 10
395.4107697295238
 20
476.5026930267726
 30
0.0
  0
SPLINE
  5
FC
330
1F
100
AcDbEntity
  8
0
  6
Continuous
 62
     7
370
    15
100
AcDbSpline
210
0.0
220
0.0
230
1.0
 70
     8
 71
     3
 72
    10
 73
     6
 74
     0
 42
0.00000001
 43
0.00000001
 40
0.0
 40
0.0
 40
0.0
 40
0.0
 40
0.1474593491810479
 40
0.5737289756543786
 40
1.0
 40
1.0
 40
1.0
 40
1.0
 10
397.9373063134243
 20
478.0214640791331
 30
0.0
 10
397.9092440161882
 20
478.0817557518456
 30
0.0
 10
397.8000603453179
 20
478.3163361960011
 30
0.0
 10
397.4150118399397
 20
478.605163976123
 30
0.0
 10
397.0374820753654
 20
478.6910399469575
 30
0.0
 10
396.848716883569
 20
478.7339780027781
 30
0.0
  0
SPLINE
  5
FD
330
1F
100
AcDbEntity
  8
0
  6
Continuous
 62
     7
370
    15
100
AcDbSpline
210
0.0
220
0.0
230
1.0
 70
     8
 71
     3
 72
    13
 73
     9
 74
     0
 42
0.00000001
 43
0.00000001
 40
0.0
 40
0.0
 40
0.0
 40
0.0
 40
0.1768607831717197
 40
0.3537258171548177
 40
0.5305905760426474
 40
0.7074553744980192
 40
0.8843198369227832
 40
1.0
 40
1.0
 40
1.0
 40
1.0
 10
396.8314911412289
 20
452.8579625780498
 30
0.0
 10
396.6348239028403
 20
452.8606501429249
 30
0.0
 10
396.2414846992079
 20
452.8660253372701
 30
0.0
 10
395.7081008380496
 20
453.1567043596237
 30
0.0
 10
395.3189677583703
 20
453.6110687377616
 30
0.0
 10
395.1408107899423
 20
454.1747686720394
 30
0.0
 10
395.161770713557
 20
454.7079222989603
 30
0.0
 10
395.327865540308
 20
454.9811900109346
 30
0.0
 10
395.3935439871838
 20
455.0892475540553
 30
0.0
  0
SPLINE
  5
FE
330
1F
100
AcDbEntity
  8
0
  6
Continuous
 62
     7
370
    15
100
AcDbSpline
210
0.0
220
0.0
230
1.0
 70
     8
 71
     3
 72
    10
 73
     6
 74
     0
 42
0.00000001
 43
0.00000001
 40
0.0
 40
0.0
 40
0.0
 40
0.0
 40
0.1474620117724973
 40
0.5737344147275663
 40
1.0
 40
1.0
 40
1.0
 40
1.0
 10
397.9200805710842
 20
453.570491402856
 30
0.0
 10
397.8920243019733
 20
453.5101941184965
 30
0.0
 10
397.7828650212588
 20
453.2755938527345
 30
0.0
 10
397.3977820297899
 20
452.9867832254024
 30
0.0
 10
397.0202537643941
 20
452.900902564907
 30
0.0
 10
396.8314911412289
 20
452.8579625780498
 30
0.0
  0
ELLIPSE
  5
FF
330
1F
100
AcDbEntity
  8
0
  6
Continuous
 62
     7
370
    15
100
AcDbEllipse
 10
399.6190323266
 20
472.5923078044
 30
0.0
 11
0.4000026563078904
 21
0.005828168379650833
 31
0.0
210
0.0
220
0.0
230
1.0
 40
0.2153635086
 41
5.528340926811943
 42
6.280047401339936
  0
SPLINE
  5
100
330
1F
100
AcDbEntity
  8
0
  6
Continuous
 62
     7
370
    15
100
AcDbSpline
210
0.0
220
0.0
230
1.0
 70
     8
 71
     3
 72
    10
 73
     6
 74
     0
 42
0.00000001
 43
0.00000001
 40
0.0
 40
0.0
 40
0.0
 40
0.0
 40
0.4581369130583282
 40
0.7285419817007347
 40
1.0
 40
1.0
 40
1.0
 40
1.0
 10
399.9112482356121
 20
470.7515302593623
 30
0.0
 10
399.9390859955349
 20
470.7858440375591
 30
0.0
 10
399.9833543707786
 20
470.8404107560542
 30
0.0
 10
400.0136792923161
 20
470.9326739472169
 30
0.0
 10
400.0172529397909
 20
470.9844135535478
 30
0.0
 10
400.0190432356884
 20
471.0103336269771
 30
0.0
  0
SPLINE
  5
101
330
1F
100
AcDbEntity
  8
0
  6
Continuous
 62
     7
370
    15
100
AcDbSpline
210
0.0
220
0.0
230
1.0
 70
     8
 71
     3
 72
    11
 73
     7
 74
     0
 42
0.00000001
 43
0.00000001
 40
0.0
 40
0.0
 40
0.0
 40
0.0
 40
0.2506255608638071
 40
0.4999873113322995
 40
0.7506171366161707
 40
1.0
 40
1.0
 40
1.0
 40
1.0
 10
393.7973316000988
 20
460.6125864679728
 30
0.0
 10
393.802732106647
 20
460.5597351219229
 30
0.0
 10
393.813505887021
 20
460.4542989392739
 30
0.0
 10
393.908717167475
 20
460.3236444322493
 30
0.0
 10
394.0392226033885
 20
460.2286511737526
 30
0.0
 10
394.1445915636865
 20
460.2179378841319
 30
0.0
 10
394.1971446560909
 20
460.2125945980464
 30
0.0
  0
LINE
  5
102
330
1F
100
AcDbEntity
  8
0
  6
Continuous
 62
     7
370
    15
100
AcDbLine
 10
396.1517299699
 20
91.110325187
 30
0.0
 11
396.1517299699
 21
99.7103366549
 31
0.0
  0
LINE
  5
103
330
1F
100
AcDbEntity
  8
0
  6
Continuous
 62
     7
370
    15
100
AcDbLine
 10
396.1517299699
 20
99.7103366549
 30
0.0
 11
391.4469267415
 21
99.7103366549
 31
0.0
  0
LINE
  5
104
330
1F
100
AcDbEntity
  8
0
  6
Continuous
 62
     7
370
    15
100
AcDbLine
 10
396.1517299699
 20
91.110325187
 30
0.0
 11
391.4469267415
 21
91.110325187
 31
0.0
  0
LINE
  5
105
330
1F
100
AcDbEntity
  8
0
  6
Continuous
 62
     7
370
    15
100
AcDbLine
 10
396.9176198529
 20
88.6103275711
 30
0.0
 11
392.051735072
 21
88.6103275711
 31
0.0
  0
LINE
  5
106
330
1F
100
AcDbEntity
  8
0
  6
Continuous
 62
     7
370
    15
100
AcDbLine
 10
396.9258899974
 20
87.8103289301
 30
0.0
 11
392.0523311185
 21
87.8103289301
 31
0.0
  0
LINE
  5
107
330
1F
100
AcDbEntity
  8
0
  6
Continuous
 62
     7
370
    15
100
AcDbLine
 10
396.8776698398
 20
103.0103329117
 30
0.0
 11
392.051735072
 21
103.0103329117
 31
0.0
  0
LINE
  5
108
330
1F
100
AcDbEntity
  8
0
  6
Continuous
 62
     7
370
    15
100
AcDbLine
 10
396.8802030372
 20
103.8103315527
 30
0.0
 11
392.0523311185
 21
103.8103315527
 31
0.0
  0
LINE
  5
109
330
1F
100
AcDbEntity
  8
0
  6
Continuous
 62
     7
370
    15
100
AcDbLine
 10
395.6517364072
 20
104.1103366311
 30
0.0
 11
396.8150849628
 21
104.1103366311
 31
0.0
  0
LINE
  5
10A
330
1F
100
AcDbEntity
  8
0
  6
Continuous
 62
     7
370
    15
100
AcDbLine
 10
396.9782377767
 20
104.1103366311
 30
0.0
 11
397.0405842351
 21
104.1103366311
 31
0.0
  0
LINE
  5
10B
330
1F
100
AcDbEntity
  8
0
  6
Continuous
 62
     7
370
    15
100
AcDbLine
 10
393.4517289685
 20
104.1103366311
 30
0.0
 11
395.6517364072
 21
104.1103366311
 31
0.0
  0
LINE
  5
10C
330
1F
100
AcDbEntity
  8
0
  6
Continuous
 62
     7
370
    15
100
AcDbLine
 10
395.6517364072
 20
87.0103302891
 30
0.0
 11
396.5152437972
 21
87.0103302891
 31
0.0
  0
LINE
  5
10D
330
1F
100
AcDbEntity
  8
0
  6
Continuous
 62
     7
370
    15
100
AcDbLine
 10
393.5517306613
 20
87.0103302891
 30
0.0
 11
395.6517364072
 21
87.0103302891
 31
0.0
  0
LINE
  5
10E
330
1F
100
AcDbEntity
  8
0
  6
Continuous
 62
     7
370
    15
100
AcDbLine
 10
395.6517364072
 20
87.4103370602
 30
0.0
 11
396.7551226901
 21
87.4103370602
 31
0.0
  0
LINE
  5
10F
330
1F
100
AcDbEntity
  8
0
  6
Continuous
 62
     7
370
    15
100
AcDbLine
 10
393.5517306613
 20
87.4103370602
 30
0.0
 11
395.6517364072
 21
87.4103370602
 31
0.0
  0
ARC
  5
110
330
1F
100
AcDbEntity
  8
0
  6
Continuous
 62
     7
370
    15
100
AcDbCircle
 10
392.517479688
 20
103.0125964659
 30
0.0
 40
0.8027077655064766
100
AcDbArc
 50
125.4658000801
 51
180.1615684768
  0
ARC
  5
111
330
1F
100
AcDbEntity
  8
0
  6
Continuous
 62
     7
370
    15
100
AcDbCircle
 10
392.5174678425
 20
88.6080727826
 30
0.0
 40
0.8026958953760565
100
AcDbArc
 50
179.8390548171
 51
234.5346344588
  0
LINE
  5
112
330
1F
100
AcDbEntity
  8
0
  6
Continuous
 62
     7
370
    15
100
AcDbLine
 10
392.5026144074
 20
91.110325187
 30
0.0
 11
392.5026144074
 21
90.0603297646
 31
0.0
  0
LINE
  5
113
330
1F
100
AcDbEntity
  8
0
  6
Continuous
 62
     7
370
    15
100
AcDbLine
 10
392.5026144074
 20
89.060327738
 30
0.0
 11
392.5026144074
 21
88.6103275711
 31
0.0
  0
LINE
  5
114
330
1F
100
AcDbEntity
  8
0
  6
Continuous
 62
     7
370
    15
100
AcDbLine
 10
392.5026144074
 20
103.0103329117
 30
0.0
 11
392.5026144074
 21
102.5603327448
 31
0.0
  0
LINE
  5
115
330
1F
100
AcDbEntity
  8
0
  6
Continuous
 62
     7
370
    15
100
AcDbLine
 10
392.5026144074
 20
101.5603307183
 30
0.0
 11
392.5026144074
 21
99.7103366549
 31
0.0
  0
LINE
  5
116
330
1F
100
AcDbEntity
  8
0
  6
Continuous
 62
     7
370
    15
100
AcDbLine
 10
391.714775114
 20
88.6103275711
 30
0.0
 11
391.714775114
 21
91.110325187
 31
0.0
  0
LINE
  5
117
330
1F
100
AcDbEntity
  8
0
  6
Continuous
 62
     7
370
    15
100
AcDbLine
 10
391.714775114
 20
99.7103366549
 30
0.0
 11
391.714775114
 21
103.0103329117
 31
0.0
  0
SPLINE
  5
118
330
1F
100
AcDbEntity
  8
0
  6
Continuous
 62
     7
370
    15
100
AcDbSpline
210
0.0
220
0.0
230
1.0
 70
    24
 71
     3
 72
    12
 73
     8
 74
     0
 42
0.00000001
 43
0.00000001
 40
0.0
 40
0.0
 40
0.0
 40
0.0
 40
0.2185042665755995
 40
0.4370130079610726
 40
0.6555186338092558
 40
0.8740245712698237
 40
1.0
 40
1.0
 40
1.0
 40
1.0
 10
398.7110789107372
 20
102.5027248556529
 30
0.0
 10
398.5143600224187
 20
102.502724855653
 30
0.0
 10
398.1209182171206
 20
102.5027248556529
 30
0.0
 10
397.5601488097448
 20
102.502724855653
 30
0.0
 10
397.142497482202
 20
102.5027248556529
 30
0.0
 10
396.9159291199215
 20
102.502724855653
 30
0.0
 10
396.9334573019941
 20
102.5027248556529
 30
0.0
 10
396.9398672865917
 20
102.5027248556529
 30
0.0
  0
SPLINE
  5
119
330
1F
100
AcDbEntity
  8
0
  6
Continuous
 62
     7
370
    15
100
AcDbSpline
210
0.0
220
0.0
230
1.0
 70
    24
 71
     3
 72
    11
 73
     7
 74
     0
 42
0.00000001
 43
0.00000001
 40
0.0
 40
0.0
 40
0.0
 40
0.0
 40
0.1398584535568318
 40
0.4265704975747582
 40
0.7132876377976632
 40
1.0
 40
1.0
 40
1.0
 40
1.0
 10
399.8824442910244
 20
102.5027248556529
 30
0.0
 10
399.888237789616
 20
102.5027248556529
 30
0.0
 10
399.9059080520427
 20
102.5027248556529
 30
0.0
 10
399.6868850990394
 20
102.502724855653
 30
0.0
 10
399.2765551243099
 20
102.5027248556529
 30
0.0
 10
398.8995699348695
 20
102.5027248556529
 30
0.0
 10
398.7110789107372
 20
102.5027248556529
 30
0.0
  0
SPLINE
  5
11A
330
1F
100
AcDbEntity
  8
0
  6
Continuous
 62
     7
370
    15
100
AcDbSpline
210
0.0
220
0.0
230
1.0
 70
     8
 71
     3
 72
    13
 73
     9
 74
     0
 42
0.00000001
 43
0.00000001
 40
0.0
 40
0.0
 40
0.0
 40
0.0
 40
0.1877388176084382
 40
0.375470506460641
 40
0.5632083521533752
 40
0.7509480126769308
 40
0.9386855053317378
 40
1.0
 40
1.0
 40
1.0
 40
1.0
 10
398.4177942561199
 20
106.117567747346
 30
0.0
 10
398.2210979209813
 20
106.114864817201
 30
0.0
 10
397.8277127195921
 20
106.1094590595458
 30
0.0
 10
397.2946900752445
 20
105.8189385528994
 30
0.0
 10
396.9041742594834
 20
105.3640318690046
 30
0.0
 10
396.7312041128827
 20
104.8023533378987
 30
0.0
 10
396.7344997093544
 20
104.3291510503357
 30
0.0
 10
396.861833456144
 20
104.1077200260203
 30
0.0
 10
396.8931819485714
 20
104.053205579034
 30
0.0
  0
SPLINE
  5
11B
330
1F
100
AcDbEntity
  8
0
  6
Continuous
 62
     7
370
    15
100
AcDbSpline
210
0.0
220
0.0
230
1.0
 70
     8
 71
     3
 72
    10
 73
     6
 74
     0
 42
0.00000001
 43
0.00000001
 40
0.0
 40
0.0
 40
0.0
 40
0.0
 40
0.209346108695261
 40
0.6046682537540696
 40
1.0
 40
1.0
 40
1.0
 40
1.0
 10
399.5549614714672
 20
105.3114447290813
 30
0.0
 10
399.5132598944141
 20
105.4045135708642
 30
0.0
 10
399.3928104629312
 20
105.6733304807679
 30
0.0
 10
398.9860935674971
 20
105.989973276016
 30
0.0
 10
398.6072288934744
 20
106.0750359125876
 30
0.0
 10
398.4177942561199
 20
106.117567747346
 30
0.0
  0
SPLINE
  5
11C
330
1F
100
AcDbEntity
  8
0
  6
Continuous
 62
     7
370
    15
100
AcDbSpline
210
0.0
220
0.0
230
1.0
 70
     8
 71
     3
 72
    13
 73
     9
 74
     0
 42
0.00000001
 43
0.00000001
 40
0.0
 40
0.0
 40
0.0
 40
0.0
 40
0.1768620187040493
 40
0.3537278637474645
 40
0.53059343369435
 40
0.7074545087704549
 40
0.8843201722696985
 40
1.0
 40
1.0
 40
1.0
 40
1.0
 10
398.4005685137798
 20
85.47437819789994
 30
0.0
 10
398.2039014119425
 20
85.4770719894149
 30
0.0
 10
397.8105629534535
 20
85.4824596307239
 30
0.0
 10
397.2771778294811
 20
85.77313385586979
 30
0.0
 10
396.8880495259085
 20
86.22749546983974
 30
0.0
 10
396.7098862783306
 20
86.79119015415654
 30
0.0
 10
396.7308474806694
 20
87.32433535693609
 30
0.0
 10
396.896943017022
 20
87.59760535846137
 30
0.0
 10
396.9626213597347
 20
87.70566317390549
 30
0.0
  0
SPLINE
  5
11D
330
1F
100
AcDbEntity
  8
0
  6
Continuous
 62
     7
370
    15
100
AcDbSpline
210
0.0
220
0.0
230
1.0
 70
     8
 71
     3
 72
    10
 73
     6
 74
     0
 42
0.00000001
 43
0.00000001
 40
0.0
 40
0.0
 40
0.0
 40
0.0
 40
0.0588284448308799
 40
0.5294074171160597
 40
1.0
 40
1.0
 40
1.0
 40
1.0
 10
399.4306857871105
 20
86.07428404640302
 30
0.0
 10
399.4200461569325
 20
86.05280313470426
 30
0.0
 10
399.3242982725914
 20
85.85949267048157
 30
0.0
 10
398.9634531951417
 20
85.60530981147843
 30
0.0
 10
398.588198549795
 20
85.51802248985658
 30
0.0
 10
398.4005685137798
 20
85.47437819789994
 30
0.0
  0
SPLINE
  5
11E
330
1F
100
AcDbEntity
  8
0
  6
Continuous
 62
     7
370
    15
100
AcDbSpline
210
0.0
220
0.0
230
1.0
 70
    24
 71
     3
 72
    12
 73
     8
 74
     0
 42
0.00000001
 43
0.00000001
 40
0.0
 40
0.0
 40
0.0
 40
0.0
 40
0.2193536141895231
 40
0.4387117205829468
 40
0.6580666993286801
 40
0.8774219908980663
 40
1.0
 40
1.0
 40
1.0
 40
1.0
 10
398.7110789107372
 20
88.94409868072614
 30
0.0
 10
398.5143646505539
 20
88.94409868072614
 30
0.0
 10
398.120932101621
 20
88.94409868072614
 30
0.0
 10
397.5600932707463
 20
88.94409868072611
 30
0.0
 10
397.1427057501136
 20
88.94409868072623
 30
0.0
 10
396.9168548261994
 20
88.94409868072614
 30
0.0
 10
396.9338275284401
 20
88.94409868072617
 30
0.0
 10
396.9399119900753
 20
88.94409868072617
 30
0.0
  0
SPLINE
  5
11F
330
1F
100
AcDbEntity
  8
0
  6
Continuous
 62
     7
370
    15
100
AcDbSpline
210
0.0
220
0.0
230
1.0
 70
    24
 71
     3
 72
    11
 73
     7
 74
     0
 42
0.00000001
 43
0.00000001
 40
0.0
 40
0.0
 40
0.0
 40
0.0
 40
0.1399149588765384
 40
0.4266081679064586
 40
0.7133064728065721
 40
1.0
 40
1.0
 40
1.0
 40
1.0
 10
399.8824442910244
 20
88.94409868072617
 30
0.0
 10
399.8882418537205
 20
88.94409868072614
 30
0.0
 10
399.9059189314253
 20
88.94409868072617
 30
0.0
 10
399.6868882609
 20
88.9440986807262
 30
0.0
 10
399.2765543338543
 20
88.94409868072614
 30
0.0
 10
398.8995696713857
 20
88.9440986807262
 30
0.0
 10
398.7110789107372
 20
88.94409868072617
 30
0.0
  0
SPLINE
  5
120
330
1F
100
AcDbEntity
  8
0
  6
Continuous
 62
     7
370
    15
100
AcDbSpline
210
0.0
220
0.0
230
1.0
 70
     8
 71
     3
 72
    13
 73
     9
 74
     0
 42
0.00000001
 43
0.00000001
 40
0.0
 40
0.0
 40
0.0
 40
0.0
 40
0.1768620952074781
 40
0.3537278009243687
 40
0.5305931160374997
 40
0.707454653229999
 40
0.8843198134542269
 40
1.0
 40
1.0
 40
1.0
 40
1.0
 10
396.848716883569
 20
108.7339881355678
 30
0.0
 10
396.6520498306709
 20
108.7312943487003
 30
0.0
 10
396.2587117100616
 20
108.7259067199736
 30
0.0
 10
395.7253263674819
 20
108.4352328972971
 30
0.0
 10
395.3361972300942
 20
107.9808692395805
 30
0.0
 10
395.1580348683236
 20
107.417178565629
 30
0.0
 10
395.178996378449
 20
106.8840292330505
 30
0.0
 10
395.3450913671957
 20
106.6107607593835
 30
0.0
 10
395.4107697295238
 20
106.5027031595622
 30
0.0
  0
SPLINE
  5
121
330
1F
100
AcDbEntity
  8
0
  6
Continuous
 62
     7
370
    15
100
AcDbSpline
210
0.0
220
0.0
230
1.0
 70
     8
 71
     3
 72
    10
 73
     6
 74
     0
 42
0.00000001
 43
0.00000001
 40
0.0
 40
0.0
 40
0.0
 40
0.0
 40
0.1474588873077304
 40
0.5737271786160301
 40
1.0
 40
1.0
 40
1.0
 40
1.0
 10
397.9373063134243
 20
108.0214593107615
 30
0.0
 10
397.909244033551
 20
108.0817510416653
 30
0.0
 10
397.800060430235
 20
108.3163317122293
 30
0.0
 10
397.4150094621761
 20
108.6051561854488
 30
0.0
 10
397.0374817451171
 20
108.6910440000698
 30
0.0
 10
396.848716883569
 20
108.7339881355678
 30
0.0
  0
SPLINE
  5
122
330
1F
100
AcDbEntity
  8
0
  6
Continuous
 62
     7
370
    15
100
AcDbSpline
210
0.0
220
0.0
230
1.0
 70
     8
 71
     3
 72
    13
 73
     9
 74
     0
 42
0.00000001
 43
0.00000001
 40
0.0
 40
0.0
 40
0.0
 40
0.0
 40
0.1768618836729249
 40
0.3537275936822943
 40
0.5305930285953441
 40
0.7074542563128813
 40
0.884319394761732
 40
1.0
 40
1.0
 40
1.0
 40
1.0
 10
396.8314911412289
 20
82.8579578096782
 30
0.0
 10
396.6348240396637
 20
82.86065161363632
 30
0.0
 10
396.2414855817189
 20
82.86603927983182
 30
0.0
 10
395.708100453664
 20
83.15671331832536
 30
0.0
 10
395.3189719546311
 20
83.61107588791283
 30
0.0
 10
395.1408088550158
 20
84.1747679020077
 30
0.0
 10
395.1617710367378
 20
84.7079176561008
 30
0.0
 10
395.3278656318889
 20
84.98118527812984
 30
0.0
 10
395.3935439871838
 20
85.08924278568375
 30
0.0
  0
SPLINE
  5
123
330
1F
100
AcDbEntity
  8
0
  6
Continuous
 62
     7
370
    15
100
AcDbSpline
210
0.0
220
0.0
230
1.0
 70
     8
 71
     3
 72
    10
 73
     6
 74
     0
 42
0.00000001
 43
0.00000001
 40
0.0
 40
0.0
 40
0.0
 40
0.0
 40
0.1474534914513864
 40
0.5737285884898559
 40
1.0
 40
1.0
 40
1.0
 40
1.0
 10
397.9200805710842
 20
83.57048663448441
 30
0.0
 10
397.8920237713919
 20
83.51019459582484
 30
0.0
 10
397.782857227239
 20
83.27560356717683
 30
0.0
 10
397.3977811087117
 20
82.9867954884409
 30
0.0
 10
397.0202539197109
 20
82.90090357882987
 30
0.0
 10
396.8314911412289
 20
82.8579578096782
 30
0.0
  0
ELLIPSE
  5
124
330
1F
100
AcDbEntity
  8
0
  6
Continuous
 62
     7
370
    15
100
AcDbEllipse
 10
399.6190323266
 20
102.5923078044
 30
0.0
 11
0.4000026563078336
 21
0.005828168379665044
 31
0.0
210
0.0
220
0.0
230
0.9999999999999999
 40
0.2153635086
 41
5.52834092681421
 42
6.280047401339607
  0
SPLINE
  5
125
330
1F
100
AcDbEntity
  8
0
  6
Continuous
 62
     7
370
    15
100
AcDbSpline
210
0.0
220
0.0
230
1.0
 70
     8
 71
     3
 72
    10
 73
     6
 74
     0
 42
0.00000001
 43
0.00000001
 40
0.0
 40
0.0
 40
0.0
 40
0.0
 40
0.4581137507650853
 40
0.7285303780496013
 40
1.0
 40
1.0
 40
1.0
 40
1.0
 10
399.9112482356121
 20
100.751540392152
 30
0.0
 10
399.9390863962686
 20
100.7858488810852
 30
0.0
 10
399.9833569418994
 20
100.8404090779164
 30
0.0
 10
400.0136790439427
 20
100.9326693451102
 30
0.0
 10
400.0172528568925
 20
100.9844088406696
 30
0.0
 10
400.0190432356884
 20
101.0103288586055
 30
0.0
  0
SPLINE
  5
126
330
1F
100
AcDbEntity
  8
0
  6
Continuous
 62
     7
370
    15
100
AcDbSpline
210
0.0
220
0.0
230
1.0
 70
     8
 71
     3
 72
    11
 73
     7
 74
     0
 42
0.00000001
 43
0.00000001
 40
0.0
 40
0.0
 40
0.0
 40
0.0
 40
0.2506206234242059
 40
0.4999971618137968
 40
0.7506220495740561
 40
0.9999999999999999
 40
0.9999999999999999
 40
0.9999999999999999
 40
0.9999999999999999
 10
393.7973316000988
 20
90.61259660076249
 30
0.0
 10
393.8027330761915
 20
90.55974586766908
 30
0.0
 10
393.8135092153578
 20
90.4543067534197
 30
0.0
 10
393.9087116331537
 20
90.32364075424337
 30
0.0
 10
394.0392231272673
 20
90.22864675581302
 30
0.0
 10
394.1445917380223
 20
90.21793323237657
 30
0.0
 10
394.1971446560909
 20
90.21258982967484
 30
0.0
  0
LINE
  5
127
330
1F
100
AcDbEntity
  8
0
  6
Continuous
 62
     7
370
    15
100
AcDbLine
 10
396.1517299699
 20
461.1103299553
 30
0.0
 11
396.1517299699
 21
469.7103265221
 31
0.0
  0
LINE
  5
128
330
1F
100
AcDbEntity
  8
0
  6
Continuous
 62
     7
370
    15
100
AcDbLine
 10
396.1517299699
 20
469.7103265221
 30
0.0
 11
391.4469267415
 21
469.7103265221
 31
0.0
  0
LINE
  5
129
330
1F
100
AcDbEntity
  8
0
  6
Continuous
 62
     7
370
    15
100
AcDbLine
 10
396.1517299699
 20
461.1103299553
 30
0.0
 11
391.4469267415
 21
461.1103299553
 31
0.0
  0
LINE
  5
12A
330
1F
100
AcDbEntity
  8
0
  6
Continuous
 62
     7
370
    15
100
AcDbLine
 10
396.8776698398
 20
473.0103376801
 30
0.0
 11
392.051735072
 21
473.0103376801
 31
0.0
  0
LINE
  5
12B
330
1F
100
AcDbEntity
  8
0
  6
Continuous
 62
     7
370
    15
100
AcDbLine
 10
396.9817991542
 20
473.8103363211
 30
0.0
 11
392.0523311185
 21
473.8103363211
 31
0.0
  0
LINE
  5
12C
330
1F
100
AcDbEntity
  8
0
  6
Continuous
 62
     7
370
    15
100
AcDbLine
 10
396.9335938977
 20
457.8103336985
 30
0.0
 11
392.0523311185
 21
457.8103336985
 31
0.0
  0
LINE
  5
12D
330
1F
100
AcDbEntity
  8
0
  6
Continuous
 62
     7
370
    15
100
AcDbLine
 10
396.8776698398
 20
458.6103323395
 30
0.0
 11
392.051735072
 21
458.6103323395
 31
0.0
  0
LINE
  5
12E
330
1F
100
AcDbEntity
  8
0
  6
Continuous
 62
     7
370
    15
100
AcDbLine
 10
395.6517364072
 20
474.1103264983
 30
0.0
 11
396.8150849628
 21
474.1103264983
 31
0.0
  0
LINE
  5
12F
330
1F
100
AcDbEntity
  8
0
  6
Continuous
 62
     7
370
    15
100
AcDbLine
 10
393.4517289685
 20
474.1103264983
 30
0.0
 11
395.6517364072
 21
474.1103264983
 31
0.0
  0
LINE
  5
130
330
1F
100
AcDbEntity
  8
0
  6
Continuous
 62
     7
370
    15
100
AcDbLine
 10
395.6517364072
 20
457.4103269274
 30
0.0
 11
396.7551226901
 21
457.4103269274
 31
0.0
  0
LINE
  5
131
330
1F
100
AcDbEntity
  8
0
  6
Continuous
 62
     7
370
    15
100
AcDbLine
 10
393.5517306613
 20
457.4103269274
 30
0.0
 11
395.6517364072
 21
457.4103269274
 31
0.0
  0
LINE
  5
132
330
1F
100
AcDbEntity
  8
0
  6
Continuous
 62
     7
370
    15
100
AcDbLine
 10
395.6517364072
 20
457.0103350575
 30
0.0
 11
396.5152437972
 21
457.0103350575
 31
0.0
  0
LINE
  5
133
330
1F
100
AcDbEntity
  8
0
  6
Continuous
 62
     7
370
    15
100
AcDbLine
 10
393.5517306613
 20
457.0103350575
 30
0.0
 11
395.6517364072
 21
457.0103350575
 31
0.0
  0
ARC
  5
134
330
1F
100
AcDbEntity
  8
0
  6
Continuous
 62
     7
370
    15
100
AcDbCircle
 10
392.5174678425
 20
473.0125924686
 30
0.0
 40
0.8026958953760797
100
AcDbArc
 50
125.4653655412
 51
180.1609451829
  0
ARC
  5
135
330
1F
100
AcDbEntity
  8
0
  6
Continuous
 62
     7
370
    15
100
AcDbCircle
 10
392.517479688
 20
458.6080687854
 30
0.0
 40
0.802707765506467
100
AcDbArc
 50
179.8384315232
 51
234.5341999199
  0
LINE
  5
136
330
1F
100
AcDbEntity
  8
0
  6
Continuous
 62
     7
370
    15
100
AcDbLine
 10
392.5026144074
 20
461.1103299553
 30
0.0
 11
392.5026144074
 21
460.060334533
 31
0.0
  0
LINE
  5
137
330
1F
100
AcDbEntity
  8
0
  6
Continuous
 62
     7
370
    15
100
AcDbLine
 10
392.5026144074
 20
459.0603325064
 30
0.0
 11
392.5026144074
 21
458.6103323395
 31
0.0
  0
LINE
  5
138
330
1F
100
AcDbEntity
  8
0
  6
Continuous
 62
     7
370
    15
100
AcDbLine
 10
392.5026144074
 20
473.0103376801
 30
0.0
 11
392.5026144074
 21
472.5603375132
 31
0.0
  0
LINE
  5
139
330
1F
100
AcDbEntity
  8
0
  6
Continuous
 62
     7
370
    15
100
AcDbLine
 10
392.5026144074
 20
471.5603354866
 30
0.0
 11
392.5026144074
 21
469.7103265221
 31
0.0
  0
LINE
  5
13A
330
1F
100
AcDbEntity
  8
0
  6
Continuous
 62
     7
370
    15
100
AcDbLine
 10
391.714775114
 20
469.7103265221
 30
0.0
 11
391.714775114
 21
473.0103376801
 31
0.0
  0
LINE
  5
13B
330
1F
100
AcDbEntity
  8
0
  6
Continuous
 62
     7
370
    15
100
AcDbLine
 10
391.714775114
 20
458.6103323395
 30
0.0
 11
391.714775114
 21
461.1103299553
 31
0.0
  0
LINE
  5
13C
330
1F
100
AcDbEntity
  8
0
  6
Continuous
 62
     7
370
    15
100
AcDbLine
 10
801.453092246
 20
85.8103397782
 30
0.0
 11
801.453092246
 21
50.8103284533
 31
0.0
  0
LINE
  5
13D
330
1F
100
AcDbEntity
  8
0
  6
Continuous
 62
     7
370
    15
100
AcDbLine
 10
812.0517368602
 20
85.8103397782
 30
0.0
 11
801.453092246
 21
85.8103397782
 31
0.0
  0
LINE
  5
13E
330
1F
100
AcDbEntity
  8
0
  6
Continuous
 62
     7
370
    15
100
AcDbLine
 10
812.0517368602
 20
50.8103284533
 30
0.0
 11
801.453092246
 21
50.8103284533
 31
0.0
  0
LINE
  5
13F
330
1F
100
AcDbEntity
  8
0
  6
Continuous
 62
     7
370
    15
100
AcDbLine
 10
801.453092246
 20
510.8103367979
 30
0.0
 11
801.453092246
 21
475.8103254731
 31
0.0
  0
LINE
  5
140
330
1F
100
AcDbEntity
  8
0
  6
Continuous
 62
     7
370
    15
100
AcDbLine
 10
812.0517368602
 20
510.8103367979
 30
0.0
 11
801.453092246
 21
510.8103367979
 31
0.0
  0
LINE
  5
141
330
1F
100
AcDbEntity
  8
0
  6
Continuous
 62
     7
370
    15
100
AcDbLine
 10
812.0517368602
 20
475.8103254731
 30
0.0
 11
801.453092246
 21
475.8103254731
 31
0.0
  0
LINE
  5
142
330
1F
100
AcDbEntity
  8
0
  6
Continuous
 62
     7
370
    15
100
AcDbLine
 10
809.0517307805
 20
122.8103253539
 30
0.0
 11
804.0517355489
 21
122.8103253539
 31
0.0
  0
LINE
  5
143
330
1F
100
AcDbEntity
  8
0
  6
Continuous
 62
     7
370
    15
100
AcDbLine
 10
804.0517355489
 20
438.8103398974
 30
0.0
 11
809.0517307805
 21
438.8103398974
 31
0.0
  0
LINE
  5
144
330
1F
100
AcDbEntity
  8
0
  6
Continuous
 62
     7
370
    15
100
AcDbLine
 10
800.9895767259
 20
50.8103284533
 30
0.0
 11
800.9895767259
 21
85.8103397782
 31
0.0
  0
LINE
  5
145
330
1F
100
AcDbEntity
  8
0
  6
Continuous
 62
     7
370
    15
100
AcDbLine
 10
801.453092246
 20
50.8103284533
 30
0.0
 11
800.9895767259
 21
50.8103284533
 31
0.0
  0
LINE
  5
146
330
1F
100
AcDbEntity
  8
0
  6
Continuous
 62
     7
370
    15
100
AcDbLine
 10
800.9895767259
 20
85.8103397782
 30
0.0
 11
801.453092246
 21
85.8103397782
 31
0.0
  0
LINE
  5
147
330
1F
100
AcDbEntity
  8
0
  6
Continuous
 62
     7
370
    15
100
AcDbLine
 10
800.9895767259
 20
475.8103254731
 30
0.0
 11
800.9895767259
 21
510.8103367979
 31
0.0
  0
LINE
  5
148
330
1F
100
AcDbEntity
  8
0
  6
Continuous
 62
     7
370
    15
100
AcDbLine
 10
800.9895767259
 20
510.8103367979
 30
0.0
 11
801.453092246
 21
510.8103367979
 31
0.0
  0
LINE
  5
149
330
1F
100
AcDbEntity
  8
0
  6
Continuous
 62
     7
370
    15
100
AcDbLine
 10
801.453092246
 20
475.8103254731
 30
0.0
 11
800.9895767259
 21
475.8103254731
 31
0.0
  0
LINE
  5
14A
330
1F
100
AcDbEntity
  8
0
  6
Continuous
 62
     7
370
    15
100
AcDbLine
 10
800.9895767259
 20
510.8103367979
 30
0.0
 11
800.5517359065
 21
510.8103367979
 31
0.0
  0
LINE
  5
14B
330
1F
100
AcDbEntity
  8
0
  6
Continuous
 62
     7
370
    15
100
AcDbLine
 10
800.9895767259
 20
475.8103254731
 30
0.0
 11
800.5517359065
 21
475.8103254731
 31
0.0
  0
LINE
  5
14C
330
1F
100
AcDbEntity
  8
0
  6
Continuous
 62
     7
370
    15
100
AcDbLine
 10
800.9895767259
 20
50.8103284533
 30
0.0
 11
800.5517359065
 21
50.8103284533
 31
0.0
  0
LINE
  5
14D
330
1F
100
AcDbEntity
  8
0
  6
Continuous
 62
     7
370
    15
100
AcDbLine
 10
800.9895767259
 20
85.8103397782
 30
0.0
 11
800.5517359065
 21
85.8103397782
 31
0.0
  0
LINE
  5
14E
330
1F
100
AcDbEntity
  8
0
  6
Continuous
 62
     7
370
    15
100
AcDbLine
 10
395.3517313289
 20
90.0603297646
 30
0.0
 11
395.3517313289
 21
89.060327738
 31
0.0
  0
LINE
  5
14F
330
1F
100
AcDbEntity
  8
0
  6
Continuous
 62
     7
370
    15
100
AcDbLine
 10
395.3517313289
 20
90.0603297646
 30
0.0
 11
396.9112421559
 21
90.0603297646
 31
0.0
  0
LINE
  5
150
330
1F
100
AcDbEntity
  8
0
  6
Continuous
 62
     7
370
    15
100
AcDbLine
 10
399.9112482356
 20
90.0603297646
 30
0.0
 11
400.2517397689
 21
90.0603297646
 31
0.0
  0
LINE
  5
151
330
1F
100
AcDbEntity
  8
0
  6
Continuous
 62
     7
370
    15
100
AcDbLine
 10
400.2517397689
 20
101.5603307183
 30
0.0
 11
400.2517397689
 21
90.0603297646
 31
0.0
  0
LINE
  5
152
330
1F
100
AcDbEntity
  8
0
  6
Continuous
 62
     7
370
    15
100
AcDbLine
 10
395.3517313289
 20
101.5603307183
 30
0.0
 11
396.9112421559
 21
101.5603307183
 31
0.0
  0
LINE
  5
153
330
1F
100
AcDbEntity
  8
0
  6
Continuous
 62
     7
370
    15
100
AcDbLine
 10
400.0190283345
 20
101.5603307183
 30
0.0
 11
400.2517397689
 21
101.5603307183
 31
0.0
  0
LINE
  5
154
330
1F
100
AcDbEntity
  8
0
  6
Continuous
 62
     7
370
    15
100
AcDbLine
 10
395.3517313289
 20
102.5603327448
 30
0.0
 11
395.3517313289
 21
101.5603307183
 31
0.0
  0
ARC
  5
155
330
1F
100
AcDbEntity
  8
0
  6
Continuous
 62
     7
370
    15
100
AcDbCircle
 10
400.2517329263
 20
101.5603326255
 30
0.0
 40
1.0
100
AcDbArc
 50
72.5423968763
 51
90.0
  0
ARC
  5
156
330
1F
100
AcDbEntity
  8
0
  6
Continuous
 62
     7
370
    15
100
AcDbCircle
 10
400.2517329263
 20
90.0603326255
 30
0.0
 40
1.000000000000069
100
AcDbArc
 50
270.0
 51
287.4576031237
  0
LINE
  5
157
330
1F
100
AcDbEntity
  8
0
  6
Continuous
 62
     7
370
    15
100
AcDbLine
 10
395.3517313289
 20
89.060327738
 30
0.0
 11
396.9112421559
 21
89.060327738
 31
0.0
  0
LINE
  5
158
330
1F
100
AcDbEntity
  8
0
  6
Continuous
 62
     7
370
    15
100
AcDbLine
 10
399.9112482356
 20
89.060327738
 30
0.0
 11
400.2517397689
 21
89.060327738
 31
0.0
  0
LINE
  5
159
330
1F
100
AcDbEntity
  8
0
  6
Continuous
 62
     7
370
    15
100
AcDbLine
 10
395.3517313289
 20
102.5603327448
 30
0.0
 11
396.9118084001
 21
102.5603327448
 31
0.0
  0
LINE
  5
15A
330
1F
100
AcDbEntity
  8
0
  6
Continuous
 62
     7
370
    15
100
AcDbLine
 10
400.0190432357
 20
102.5603327448
 30
0.0
 11
400.2517397689
 21
102.5603327448
 31
0.0
  0
LINE
  5
15B
330
1F
100
AcDbEntity
  8
0
  6
Continuous
 62
     7
370
    15
100
AcDbLine
 10
395.3517313289
 20
101.5603307183
 30
0.0
 11
392.2517384576
 21
101.5603307183
 31
0.0
  0
LINE
  5
15C
330
1F
100
AcDbEntity
  8
0
  6
Continuous
 62
     7
370
    15
100
AcDbLine
 10
395.3517313289
 20
102.5603327448
 30
0.0
 11
392.2517384576
 21
102.5603327448
 31
0.0
  0
LINE
  5
15D
330
1F
100
AcDbEntity
  8
0
  6
Continuous
 62
     7
370
    15
100
AcDbLine
 10
395.3517313289
 20
90.0603297646
 30
0.0
 11
392.2517384576
 21
90.0603297646
 31
0.0
  0
LINE
  5
15E
330
1F
100
AcDbEntity
  8
0
  6
Continuous
 62
     7
370
    15
100
AcDbLine
 10
395.3517313289
 20
89.060327738
 30
0.0
 11
392.2517384576
 21
89.060327738
 31
0.0
  0
LINE
  5
15F
330
1F
100
AcDbEntity
  8
0
  6
Continuous
 62
     7
370
    15
100
AcDbLine
 10
395.3517313289
 20
460.060334533
 30
0.0
 11
395.3517313289
 21
459.0603325064
 31
0.0
  0
LINE
  5
160
330
1F
100
AcDbEntity
  8
0
  6
Continuous
 62
     7
370
    15
100
AcDbLine
 10
395.3517313289
 20
459.0603325064
 30
0.0
 11
392.2517384576
 21
459.0603325064
 31
0.0
  0
LINE
  5
161
330
1F
100
AcDbEntity
  8
0
  6
Continuous
 62
     7
370
    15
100
AcDbLine
 10
395.3517313289
 20
460.060334533
 30
0.0
 11
392.2517384576
 21
460.060334533
 31
0.0
  0
LINE
  5
162
330
1F
100
AcDbEntity
  8
0
  6
Continuous
 62
     7
370
    15
100
AcDbLine
 10
395.3517313289
 20
472.5603375132
 30
0.0
 11
395.3517313289
 21
471.5603354866
 31
0.0
  0
LINE
  5
163
330
1F
100
AcDbEntity
  8
0
  6
Continuous
 62
     7
370
    15
100
AcDbLine
 10
395.3517313289
 20
471.5603354866
 30
0.0
 11
392.2517384576
 21
471.5603354866
 31
0.0
  0
LINE
  5
164
330
1F
100
AcDbEntity
  8
0
  6
Continuous
 62
     7
370
    15
100
AcDbLine
 10
395.3517313289
 20
472.5603375132
 30
0.0
 11
392.2517384576
 21
472.5603375132
 31
0.0
  0
LINE
  5
165
330
1F
100
AcDbEntity
  8
0
  6
Continuous
 62
     7
370
    15
100
AcDbLine
 10
395.3517313289
 20
459.0603325064
 30
0.0
 11
396.9112421559
 21
459.0603325064
 31
0.0
  0
LINE
  5
166
330
1F
100
AcDbEntity
  8
0
  6
Continuous
 62
     7
370
    15
100
AcDbLine
 10
399.9112482356
 20
459.0603325064
 30
0.0
 11
400.2517397689
 21
459.0603325064
 31
0.0
  0
LINE
  5
167
330
1F
100
AcDbEntity
  8
0
  6
Continuous
 62
     7
370
    15
100
AcDbLine
 10
395.3517313289
 20
471.5603354866
 30
0.0
 11
396.9112421559
 21
471.5603354866
 31
0.0
  0
LINE
  5
168
330
1F
100
AcDbEntity
  8
0
  6
Continuous
 62
     7
370
    15
100
AcDbLine
 10
400.0190283345
 20
471.5603354866
 30
0.0
 11
400.2517397689
 21
471.5603354866
 31
0.0
  0
ARC
  5
169
330
1F
100
AcDbEntity
  8
0
  6
Continuous
 62
     7
370
    15
100
AcDbCircle
 10
400.2517329263
 20
471.5603326255
 30
0.0
 40
1.0
100
AcDbArc
 50
72.5423968763
 51
90.0
  0
ARC
  5
16A
330
1F
100
AcDbEntity
  8
0
  6
Continuous
 62
     7
370
    15
100
AcDbCircle
 10
400.2517329263
 20
460.0603326255
 30
0.0
 40
1.000000000000083
100
AcDbArc
 50
270.0
 51
287.4576031237
  0
LINE
  5
16B
330
1F
100
AcDbEntity
  8
0
  6
Continuous
 62
     7
370
    15
100
AcDbLine
 10
400.2517397689
 20
471.5603354866
 30
0.0
 11
400.2517397689
 21
460.060334533
 31
0.0
  0
LINE
  5
16C
330
1F
100
AcDbEntity
  8
0
  6
Continuous
 62
     7
370
    15
100
AcDbLine
 10
395.3517313289
 20
472.5603375132
 30
0.0
 11
396.9118084001
 21
472.5603375132
 31
0.0
  0
LINE
  5
16D
330
1F
100
AcDbEntity
  8
0
  6
Continuous
 62
     7
370
    15
100
AcDbLine
 10
400.0190432357
 20
472.5603375132
 30
0.0
 11
400.2517397689
 21
472.5603375132
 31
0.0
  0
LINE
  5
16E
330
1F
100
AcDbEntity
  8
0
  6
Continuous
 62
     7
370
    15
100
AcDbLine
 10
395.3517313289
 20
460.060334533
 30
0.0
 11
396.9112421559
 21
460.060334533
 31
0.0
  0
LINE
  5
16F
330
1F
100
AcDbEntity
  8
0
  6
Continuous
 62
     7
370
    15
100
AcDbLine
 10
399.9112482356
 20
460.060334533
 30
0.0
 11
400.2517397689
 21
460.060334533
 31
0.0
  0
LINE
  5
170
330
1F
100
AcDbEntity
  8
0
  6
Continuous
 62
     7
370
    15
100
AcDbLine
 10
400.1517380761
 20
95.8103302414
 30
0.0
 11
400.1517380761
 21
98.8103363211
 31
0.0
  0
LINE
  5
171
330
1F
100
AcDbEntity
  8
0
  6
Continuous
 62
     7
370
    15
100
AcDbLine
 10
400.1517380761
 20
92.8103390629
 30
0.0
 11
400.1517380761
 21
95.8103302414
 31
0.0
  0
LINE
  5
172
330
1F
100
AcDbEntity
  8
0
  6
Continuous
 62
     7
370
    15
100
AcDbLine
 10
400.1517380761
 20
465.8103350098
 30
0.0
 11
400.1517380761
 21
468.8103261883
 31
0.0
  0
LINE
  5
173
330
1F
100
AcDbEntity
  8
0
  6
Continuous
 62
     7
370
    15
100
AcDbLine
 10
400.1517380761
 20
462.8103289301
 30
0.0
 11
400.1517380761
 21
465.8103350098
 31
0.0
  0
LINE
  5
174
330
1F
100
AcDbEntity
  8
0
  6
Continuous
 62
     7
370
    15
100
AcDbLine
 10
400.1517380761
 20
467.3103305991
 30
0.0
 11
399.9112482356
 21
467.3103305991
 31
0.0
  0
LINE
  5
175
330
1F
100
AcDbEntity
  8
0
  6
Continuous
 62
     7
370
    15
100
AcDbLine
 10
400.1517380761
 20
464.3103394205
 30
0.0
 11
399.9112482356
 21
464.3103394205
 31
0.0
  0
LINE
  5
176
330
1F
100
AcDbEntity
  8
0
  6
Continuous
 62
     7
370
    15
100
AcDbLine
 10
400.1517380761
 20
97.3103258307
 30
0.0
 11
399.9112482356
 21
97.3103258307
 31
0.0
  0
LINE
  5
177
330
1F
100
AcDbEntity
  8
0
  6
Continuous
 62
     7
370
    15
100
AcDbLine
 10
400.1517380761
 20
94.3103346522
 30
0.0
 11
399.9112482356
 21
94.3103346522
 31
0.0
  0
SPLINE
  5
178
330
1F
100
AcDbEntity
  8
0
  6
Continuous
 62
     8
370
    15
100
AcDbSpline
210
0.0
220
0.0
230
1.0
 70
     8
 71
     3
 72
    12
 73
     8
 74
     0
 42
0.00000001
 43
0.00000001
 40
0.0
 40
0.0
 40
0.0
 40
0.0
 40
0.002406368087225
 40
0.1885610613084739
 40
0.3740252658183883
 40
0.7457168466928337
 40
1.0
 40
1.0
 40
1.0
 40
1.0
 10
393.9431394623806
 20
460.6135848457728
 30
0.0
 10
393.9430992738945
 20
460.6132520783332
 30
0.0
 10
393.9399501365505
 20
460.5871766903151
 30
0.0
 10
393.9502210185237
 20
460.534534846766
 30
0.0
 10
393.9816187811156
 20
460.43662663347
 30
0.0
 10
394.0461727322088
 20
460.3374423848532
 30
0.0
 10
394.1212344017356
 20
460.292021144078
 30
0.0
 10
394.1517259167721
 20
460.2735701496516
 30
0.0
  0
SPLINE
  5
179
330
1F
100
AcDbEntity
  8
0
  6
Continuous
 62
     8
370
    15
100
AcDbSpline
210
0.0
220
0.0
230
1.0
 70
     8
 71
     3
 72
    12
 73
     8
 74
     0
 42
0.00000001
 43
0.00000001
 40
0.0
 40
0.0
 40
0.0
 40
0.0
 40
0.0024062828016113
 40
0.1885898200292457
 40
0.3740474513849568
 40
0.7457258589029389
 40
1.0
 40
1.0
 40
1.0
 40
1.0
 10
393.9431394623806
 20
90.61359497856247
 30
0.0
 10
393.9430992740484
 20
90.61326221112778
 30
0.0
 10
393.9399495568451
 20
90.58718192223509
 30
0.0
 10
393.9502189127847
 20
90.53453473733214
 30
0.0
 10
393.9816191343388
 20
90.43662187065185
 30
0.0
 10
394.0461726599156
 20
90.33743761534485
 30
0.0
 10
394.121234380852
 20
90.2920163753781
 30
0.0
 10
394.1517259167721
 20
90.27356538128006
 30
0.0
  0
SPLINE
  5
17A
330
1F
100
AcDbEntity
  8
0
  6
Continuous
 62
     7
370
    15
100
AcDbSpline
210
0.0
220
0.0
230
1.0
 70
     8
 71
     3
 72
    15
 73
    11
 74
     0
 42
0.00000001
 43
0.00000001
 40
0.0
 40
0.0
 40
0.0
 40
0.0
 40
0.1356021169510905
 40
0.2953302188250078
 40
0.4038072894230465
 40
0.5319608740480305
 40
0.6738402491577277
 40
0.826108247121691
 40
0.912614345383376
 40
1.0
 40
1.0
 40
1.0
 40
1.0
 10
215.0126249111464
 20
460.376373260728
 30
0.0
 10
215.0570064432534
 20
460.3690528915567
 30
0.0
 10
215.1536657571614
 20
460.353109731687
 30
0.0
 10
215.3605159707754
 20
460.4007758726554
 30
0.0
 10
215.5537775869512
 20
460.4885025975818
 30
0.0
 10
215.7003640868109
 20
460.6081639222928
 30
0.0
 10
215.7990706448233
 20
460.7590508264504
 30
0.0
 10
215.8287362131929
 20
460.8808871411251
 30
0.0
 10
215.8075446948968
 20
461.0101626205441
 30
0.0
 10
215.7612933397799
 20
461.0768284436409
 30
0.0
 10
215.7380506909659
 20
461.1103299553309
 30
0.0
  0
SPLINE
  5
17B
330
1F
100
AcDbEntity
  8
0
  6
Continuous
 62
     7
370
    15
100
AcDbSpline
210
0.0
220
0.0
230
1.0
 70
     8
 71
     3
 72
    20
 73
    16
 74
     0
 42
0.00000001
 43
0.00000001
 40
0.0
 40
0.0
 40
0.0
 40
0.0
 40
0.0607081471894335
 40
0.2265337074238974
 40
0.3908030833954561
 40
0.4705945151732304
 40
0.5476201727987644
 40
0.6228556359003089
 40
0.7003369654355592
 40
0.7786471557389032
 40
0.8566577310177214
 40
0.9330986509214964
 40
0.9703708665110311
 40
0.9892324730265014
 40
1.0
 40
1.0
 40
1.0
 40
1.0
 10
211.2764269626906
 20
461.1103299553309
 30
0.0
 10
211.3227016004471
 20
461.0569985165251
 30
0.0
 10
211.4953763687605
 20
460.857991149075
 30
0.0
 10
211.9123481445934
 20
460.8400606305675
 30
0.0
 10
212.4773028121673
 20
460.7650374731264
 30
0.0
 10
212.9969158811519
 20
460.7220993477687
 30
0.0
 10
213.390806196108
 20
460.6915390125339
 30
0.0
 10
213.783717410669
 20
460.6638664567159
 30
0.0
 10
214.1648792005516
 20
460.6325565536881
 30
0.0
 10
214.5206053869103
 20
460.6000832434246
 30
0.0
 10
214.8232290283164
 20
460.5692459395027
 30
0.0
 10
215.0157379241966
 20
460.5463462478056
 30
0.0
 10
215.1038656326936
 20
460.5383258909118
 30
0.0
 10
215.1492899971466
 20
460.5305439501084
 30
0.0
 10
215.1487332715361
 20
460.5344870362283
 30
0.0
 10
215.1485309518149
 20
460.5359199936305
 30
0.0
  0
SPLINE
  5
17C
330
1F
100
AcDbEntity
  8
0
  6
Continuous
 62
     7
370
    15
100
AcDbSpline
210
0.0
220
0.0
230
1.0
 70
     8
 71
     3
 72
    18
 73
    14
 74
     0
 42
0.00000001
 43
0.00000001
 40
0.0
 40
0.0
 40
0.0
 40
0.0
 40
0.0057533567917031
 40
0.1156375215450627
 40
0.2383930484367299
 40
0.3593083462105054
 40
0.4757045897176554
 40
0.5872129732179507
 40
0.7047314906629496
 40
0.8264986562017488
 40
0.8891456339577294
 40
0.9517930023982276
 40
1.0
 40
1.0
 40
1.0
 40
1.0
 10
215.5192420399954
 20
469.7571608717357
 30
0.0
 10
215.5145948704099
 20
469.7601130710277
 30
0.0
 10
215.4211907599884
 20
469.8194497368371
 30
0.0
 10
215.1988345266212
 20
469.825665299217
 30
0.0
 10
214.8074502515005
 20
469.884851372133
 30
0.0
 10
214.2955686458887
 20
469.9303922620255
 30
0.0
 10
213.7445389992311
 20
469.9765591739562
 30
0.0
 10
213.1824217716613
 20
470.015437564529
 30
0.0
 10
212.6481510968943
 20
470.0601910151604
 30
0.0
 10
212.2504969628156
 20
470.1012339196624
 30
0.0
 10
212.0357842879365
 20
470.1223786326406
 30
0.0
 10
211.9397122021013
 20
470.1246533051167
 30
0.0
 10
211.9242767191796
 20
470.1085772644774
 30
0.0
 10
211.9175643242171
 20
470.1015863115703
 30
0.0
  0
SPLINE
  5
17D
330
1F
100
AcDbEntity
  8
0
  6
Continuous
 62
     7
370
    15
100
AcDbSpline
210
0.0
220
0.0
230
1.0
 70
     8
 71
     3
 72
    12
 73
     8
 74
     0
 42
0.00000001
 43
0.00000001
 40
0.0
 40
0.0
 40
0.0
 40
0.0
 40
0.2236735693670915
 40
0.4523088700424478
 40
0.6822378332721339
 40
0.9102273307596506
 40
1.0
 40
1.0
 40
1.0
 40
1.0
 10
211.2183273351958
 20
470.9121796781932
 30
0.0
 10
211.2055917175877
 20
470.8696286438053
 30
0.0
 10
211.1798379692755
 20
470.7835826691397
 30
0.0
 10
211.3009630856151
 20
470.6919983830288
 30
0.0
 10
211.5326410011294
 20
470.5956582150589
 30
0.0
 10
211.77749972696
 20
470.5332005112961
 30
0.0
 10
211.9608320877978
 20
470.5384040784929
 30
0.0
 10
212.0126262820532
 20
470.5398741657649
 30
0.0
  0
SPLINE
  5
17E
330
1F
100
AcDbEntity
  8
0
  6
Continuous
 62
     7
370
    15
100
AcDbSpline
210
0.0
220
0.0
230
1.0
 70
     8
 71
     3
 72
    19
 73
    15
 74
     0
 42
0.00000001
 43
0.00000001
 40
0.0
 40
0.0
 40
0.0
 40
0.0
 40
0.0979034708198992
 40
0.1753768054955316
 40
0.288482163629521
 40
0.3734523911956805
 40
0.4570020127384862
 40
0.6168864240043902
 40
0.6796655723623525
 40
0.7634254151544344
 40
0.8137532723829093
 40
0.8702968900146344
 40
0.9323984214262235
 40
1.0
 40
1.0
 40
1.0
 40
1.0
 10
211.3945633686354
 20
470.4170587952052
 30
0.0
 10
211.4450703929278
 20
470.3906772369558
 30
0.0
 10
211.5355448214778
 20
470.3434193269854
 30
0.0
 10
211.9101886642614
 20
470.2827754946553
 30
0.0
 10
212.3967005346207
 20
470.2288820968831
 30
0.0
 10
212.988029047769
 20
470.1756594282329
 30
0.0
 10
213.7421319541774
 20
470.124110790545
 30
0.0
 10
214.3832206693332
 20
470.0571583955983
 30
0.0
 10
215.032500413999
 20
470.0216334405568
 30
0.0
 10
215.410818373796
 20
470.0998449631294
 30
0.0
 10
215.6626913069575
 20
470.2080198151676
 30
0.0
 10
215.7962743753483
 20
470.2963693271875
 30
0.0
 10
215.8580365855296
 20
470.3702024215484
 30
0.0
 10
215.7866006877602
 20
470.450727316807
 30
0.0
 10
215.7493681228926
 20
470.4926970894252
 30
0.0
  0
SPLINE
  5
17F
330
1F
100
AcDbEntity
  8
0
  6
Continuous
 62
     7
370
    15
100
AcDbSpline
210
0.0
220
0.0
230
1.0
 70
     8
 71
     3
 72
    25
 73
    21
 74
     0
 42
0.00000001
 43
0.00000001
 40
0.0
 40
0.0
 40
0.0
 40
0.0
 40
0.0176266731541836
 40
0.034498059170967
 40
0.0503150666076174
 40
0.0649732272677631
 40
0.0909453215100789
 40
0.1134395180991458
 40
0.1538405363989821
 40
0.1912342907497932
 40
0.2995716654021844
 40
0.3999644146135897
 40
0.5012964853073313
 40
0.5949069059212274
 40
0.678488065886439
 40
0.7336301365176005
 40
0.8075208615896503
 40
0.8952852370088895
 40
0.9453086755490474
 40
1.0
 40
1.0
 40
1.0
 40
1.0
 10
215.3920457280447
 20
469.8671165401851
 30
0.0
 10
215.4317566620134
 20
469.8715064809581
 30
0.0
 10
215.509476952042
 20
469.8800982574788
 30
0.0
 10
215.6113540928794
 20
469.9261105078783
 30
0.0
 10
215.6923689662825
 20
469.9850675252604
 30
0.0
 10
215.7685742615015
 20
470.0686363433947
 30
0.0
 10
215.8216214591221
 20
470.1722842452816
 30
0.0
 10
215.8457818362068
 20
470.3046247997551
 30
0.0
 10
215.8228912715425
 20
470.4364926801254
 30
0.0
 10
215.6516527965505
 20
470.6816904235556
 30
0.0
 10
215.3088612030303
 20
470.7687859737571
 30
0.0
 10
214.8137482779001
 20
470.8273436939357
 30
0.0
 10
214.2005347936748
 20
470.8856878534642
 30
0.0
 10
213.5510670972675
 20
470.9353107868052
 30
0.0
 10
213.0113660245507
 20
470.9747990553308
 30
0.0
 10
212.5653570106923
 20
471.0139748346453
 30
0.0
 10
212.1766488678097
 20
471.0522044836848
 30
0.0
 10
211.9165009436039
 20
471.0800311283223
 30
0.0
 10
211.7860546214546
 20
471.1025495245032
 30
0.0
 10
211.7773913343366
 20
471.1150055505418
 30
0.0
 10
211.7728665984442
 20
471.1215111906444
 30
0.0
  0
SPLINE
  5
180
330
1F
100
AcDbEntity
  8
0
  6
Continuous
 62
     7
370
    15
100
AcDbSpline
210
0.0
220
0.0
230
1.0
 70
     8
 71
     3
 72
    12
 73
     8
 74
     0
 42
0.00000001
 43
0.00000001
 40
0.0
 40
0.0
 40
0.0
 40
0.0
 40
0.1756480782096992
 40
0.5723179574994552
 40
0.7586182139746307
 40
0.9207542195155713
 40
1.0
 40
1.0
 40
1.0
 40
1.0
 10
211.8611932314207
 20
470.3030202085887
 30
0.0
 10
211.7956292552451
 20
470.2938496524931
 30
0.0
 10
211.5820007241911
 20
470.2639690299023
 30
0.0
 10
211.3660972584227
 20
470.1900293034085
 30
0.0
 10
211.2049344941676
 20
469.9751029738061
 30
0.0
 10
211.1737228104424
 20
469.8148804613647
 30
0.0
 10
211.2047003286029
 20
469.7362239923503
 30
0.0
 10
211.2148702657988
 20
469.7104010279094
 30
0.0
  0
LINE
  5
181
330
1F
100
AcDbEntity
  8
0
  6
Continuous
 62
     7
370
    15
100
AcDbLine
 10
211.3723829902
 20
461.0125932391
 30
0.0
 11
210.2539241827
 21
461.0125932391
 31
0.0
  0
LINE
  5
182
330
1F
100
AcDbEntity
  8
0
  6
Continuous
 62
     7
370
    15
100
AcDbLine
 10
210.2539241827
 20
460.212594598
 30
0.0
 11
212.0126262821
 21
460.212594598
 31
0.0
  0
LINE
  5
183
330
1F
100
AcDbEntity
  8
0
  6
Continuous
 62
     7
370
    15
100
AcDbLine
 10
208.8436335839
 20
473.8103363211
 30
0.0
 11
208.8436335839
 21
473.8638016875
 31
0.0
  0
LINE
  5
184
330
1F
100
AcDbEntity
  8
0
  6
Continuous
 62
     7
370
    15
100
AcDbLine
 10
205.8436349548
 20
473.8638016875
 30
0.0
 11
205.8436349548
 21
473.8103363211
 31
0.0
  0
SPLINE
  5
185
330
1F
100
AcDbEntity
  8
0
  6
Continuous
 62
     7
370
    15
100
AcDbSpline
210
0.0
220
0.0
230
1.0
 70
     8
 71
     3
 72
    15
 73
    11
 74
     0
 42
0.00000001
 43
0.00000001
 40
0.0
 40
0.0
 40
0.0
 40
0.0
 40
0.1077555227458458
 40
0.2352508777805143
 40
0.3627904281004047
 40
0.4902568001611004
 40
0.6176623048215986
 40
0.745096844097433
 40
0.8724965313269203
 40
1.0
 40
1.0
 40
1.0
 40
1.0
 10
205.8596909559538
 20
457.8103336985026
 30
0.0
 10
205.8762307868202
 20
457.4978117154758
 30
0.0
 10
205.9123403952236
 20
456.8155165628997
 30
0.0
 10
206.2485397800049
 20
455.8063632994769
 30
0.0
 10
206.8066324201661
 20
454.8428898103414
 30
0.0
 10
207.5614541033894
 20
454.0219641085773
 30
0.0
 10
208.4766149362872
 20
453.3866894184945
 30
0.0
 10
209.5038744605319
 20
452.966542557991
 30
0.0
 10
210.5998528363095
 20
452.7527091945077
 30
0.0
 10
211.3356132621825
 20
452.8182498621417
 30
0.0
 10
211.7036432541182
 20
452.8510335380946
 30
0.0
  0
SPLINE
  5
186
330
1F
100
AcDbEntity
  8
0
  6
Continuous
 62
     7
370
    15
100
AcDbSpline
210
0.0
220
0.0
230
1.0
 70
     8
 71
     3
 72
    15
 73
    11
 74
     0
 42
0.00000001
 43
0.00000001
 40
0.0
 40
0.0
 40
0.0
 40
0.0
 40
0.131651489175434
 40
0.2633123921046122
 40
0.3951886973848729
 40
0.5266702317687209
 40
0.6575475107725832
 40
0.7882108782408901
 40
0.9184604455980022
 40
1.0
 40
1.0
 40
1.0
 40
1.0
 10
211.2059519208243
 20
455.8087203199779
 30
0.0
 10
211.0537679265046
 20
455.7969049507086
 30
0.0
 10
210.7493890559325
 20
455.773273367311
 30
0.0
 10
210.2985321591641
 20
455.8747518379521
 30
0.0
 10
209.8794958962469
 20
456.0615953220528
 30
0.0
 10
209.5091115402882
 20
456.3342081275864
 30
0.0
 10
209.2068490776017
 20
456.6801141439811
 30
0.0
 10
208.987684268069
 20
457.0818190786134
 30
0.0
 10
208.8703175110425
 20
457.4681334078178
 30
0.0
 10
208.8601424855553
 20
457.7152088045311
 30
0.0
 10
208.8562250650695
 20
457.8103336985026
 30
0.0
  0
SPLINE
  5
187
330
1F
100
AcDbEntity
  8
0
  6
Continuous
 62
     7
370
    15
100
AcDbSpline
210
0.0
220
0.0
230
1.0
 70
     8
 71
     3
 72
    15
 73
    11
 74
     0
 42
0.00000001
 43
0.00000001
 40
0.0
 40
0.0
 40
0.0
 40
0.0
 40
0.1249271931084942
 40
0.2499164504218588
 40
0.3749675049727881
 40
0.4999572042926771
 40
0.6249205140385532
 40
0.7499165908916061
 40
0.8748745978506454
 40
1.0
 40
1.0
 40
1.0
 40
1.0
 10
211.874514869528
 20
478.7408474380885
 30
0.0
 10
211.508138512055
 20
478.7841777434087
 30
0.0
 10
210.7752037802336
 20
478.8708598806751
 30
0.0
 10
209.6711723864221
 20
478.7056935149319
 30
0.0
 10
208.630381672542
 20
478.3167389505293
 30
0.0
 10
207.6951865638073
 20
477.7117381994459
 30
0.0
 10
206.9145448390978
 20
476.915544333978
 30
0.0
 10
206.3265799744497
 20
475.97118186872
 30
0.0
 10
205.9307477889654
 20
474.9227383474226
 30
0.0
 10
205.8726855209705
 20
474.1836165558076
 30
0.0
 10
205.8436349547675
 20
473.8138082916652
 30
0.0
  0
SPLINE
  5
188
330
1F
100
AcDbEntity
  8
0
  6
Continuous
 62
     7
370
    15
100
AcDbSpline
210
0.0
220
0.0
230
1.0
 70
     8
 71
     3
 72
    15
 73
    11
 74
     0
 42
0.00000001
 43
0.00000001
 40
0.0
 40
0.0
 40
0.0
 40
0.0
 40
0.1242509509540391
 40
0.2486323689554776
 40
0.3735414777960868
 40
0.4985832299017895
 40
0.6236641560063036
 40
0.7490695536708376
 40
0.8744383430307837
 40
0.9999999999999999
 40
0.9999999999999999
 40
0.9999999999999999
 40
0.9999999999999999
 10
208.8436335838606
 20
473.8138082916652
 30
0.0
 10
208.8571946178037
 20
473.9657609632583
 30
0.0
 10
208.884330925163
 20
474.2698258610897
 30
0.0
 10
209.0587852394662
 20
474.697145547972
 30
0.0
 10
209.3121167081987
 20
475.0787887134115
 30
0.0
 10
209.6419438742552
 20
475.3987156671751
 30
0.0
 10
210.0328655973082
 20
475.6392982113115
 30
0.0
 10
210.4655690233911
 20
475.7909050516133
 30
0.0
 10
210.9230975170814
 20
475.8443672820375
 30
0.0
 10
211.2250174057188
 20
475.8036825635564
 30
0.0
 10
211.3760933793356
 20
475.7833245689784
 30
0.0
  0
LINE
  5
189
330
1F
100
AcDbEntity
  8
0
  6
Continuous
 62
     7
370
    15
100
AcDbLine
 10
226.7467007554
 20
458.4254685337
 30
0.0
 11
211.2057284034
 21
455.8090481455
 31
0.0
  0
LINE
  5
18A
330
1F
100
AcDbEntity
  8
0
  6
Continuous
 62
     7
370
    15
100
AcDbLine
 10
211.7037848151
 20
452.8506908114
 30
0.0
 11
227.2447571672
 21
455.4670962984
 31
0.0
  0
LINE
  5
18B
330
1F
100
AcDbEntity
  8
0
  6
Continuous
 62
     7
370
    15
100
AcDbLine
 10
211.3763094462
 20
475.7828924353
 30
0.0
 11
226.9172743476
 21
473.1664720471
 31
0.0
  0
LINE
  5
18C
330
1F
100
AcDbEntity
  8
0
  6
Continuous
 62
     7
370
    15
100
AcDbLine
 10
227.4153456605
 20
476.1248442824
 30
0.0
 11
211.8743733085
 21
478.7412646706
 31
0.0
  0
SPLINE
  5
18D
330
1F
100
AcDbEntity
  8
0
  6
Continuous
 62
     7
370
    15
100
AcDbSpline
210
0.0
220
0.0
230
1.0
 70
     8
 71
     3
 72
    12
 73
     8
 74
     0
 42
0.00000001
 43
0.00000001
 40
0.0
 40
0.0
 40
0.0
 40
0.0
 40
0.1526137558693945
 40
0.2973909068950319
 40
0.5623713122191962
 40
0.7966013227185454
 40
1.0
 40
1.0
 40
1.0
 40
1.0
 10
227.24441444047
 20
455.4674092228328
 30
0.0
 10
227.4956342399786
 20
455.5201469124809
 30
0.0
 10
227.9851738858661
 20
455.6229142499511
 30
0.0
 10
228.8346936051049
 20
456.0521675232606
 30
0.0
 10
229.6466875193836
 20
456.7965567909825
 30
0.0
 10
230.2111163900774
 20
457.8676041232246
 30
0.0
 10
230.2928056568835
 20
458.602529046957
 30
0.0
 10
230.3307727492621
 20
458.9441034490977
 30
0.0
  0
SPLINE
  5
18E
330
1F
100
AcDbEntity
  8
0
  6
Continuous
 62
     7
370
    15
100
AcDbSpline
210
0.0
220
0.0
230
1.0
 70
     8
 71
     3
 72
    11
 73
     7
 74
     0
 42
0.00000001
 43
0.00000001
 40
0.0
 40
0.0
 40
0.0
 40
0.0
 40
0.2003577666578269
 40
0.4327989616762116
 40
0.6990217085458137
 40
1.0
 40
1.0
 40
1.0
 40
1.0
 10
227.3324654019644
 20
458.9441034490977
 30
0.0
 10
227.3192382795937
 20
458.887674810947
 30
0.0
 10
227.2906659665585
 20
458.7657815776185
 30
0.0
 10
227.1747760032418
 20
458.6000827244391
 30
0.0
 10
226.9900214075478
 20
458.4611709726758
 30
0.0
 10
226.8323980316337
 20
458.4377776213096
 30
0.0
 10
226.748757115679
 20
458.4253642256175
 30
0.0
  0
SPLINE
  5
18F
330
1F
100
AcDbEntity
  8
0
  6
Continuous
 62
     7
370
    15
100
AcDbSpline
210
0.0
220
0.0
230
1.0
 70
     8
 71
     3
 72
    12
 73
     8
 74
     0
 42
0.00000001
 43
0.00000001
 40
0.0
 40
0.0
 40
0.0
 40
0.0
 40
0.2034074300668868
 40
0.4376408138569703
 40
0.7026169111361644
 40
0.8473902619935163
 40
1.0
 40
1.0
 40
1.0
 40
1.0
 10
230.3307727492621
 20
472.5027296240245
 30
0.0
 10
230.3093392400697
 20
472.845740809982
 30
0.0
 10
230.2632240199735
 20
473.5837457812613
 30
0.0
 10
229.751096664456
 20
474.6808467315337
 30
0.0
 10
228.9759041938364
 20
475.4636118820283
 30
0.0
 10
228.1480462052433
 20
475.9333313737538
 30
0.0
 10
227.6640588679595
 20
476.0595896716163
 30
0.0
 10
227.4156883872321
 20
476.1243823463832
 30
0.0
  0
SPLINE
  5
190
330
1F
100
AcDbEntity
  8
0
  6
Continuous
 62
     7
370
    15
100
AcDbSpline
210
0.0
220
0.0
230
1.0
 70
     8
 71
     3
 72
    12
 73
     8
 74
     0
 42
0.00000001
 43
0.00000001
 40
0.0
 40
0.0
 40
0.0
 40
0.0
 40
0.1555474100898919
 40
0.3021951733596975
 40
0.5679595087532391
 40
0.7999507504784817
 40
1.0
 40
1.0
 40
1.0
 40
1.0
 10
226.9153669989874
 20
473.1673959190761
 30
0.0
 10
226.955908439523
 20
473.151645434871
 30
0.0
 10
227.0346717416173
 20
473.121045630592
 30
0.0
 10
227.1643028732186
 20
473.026008419075
 30
0.0
 10
227.2787321829701
 20
472.8798313513341
 30
0.0
 10
227.3428861707034
 20
472.6855799704555
 30
0.0
 10
227.3357634573372
 20
472.5605996893318
 30
0.0
 10
227.3324654019644
 20
472.5027296240245
 30
0.0
  0
LINE
  5
191
330
1F
100
AcDbEntity
  8
0
  6
Continuous
 62
     7
370
    15
100
AcDbLine
 10
227.3316160358
 20
472.5527230198
 30
0.0
 11
227.3316160358
 21
458.8940951521
 31
0.0
  0
LINE
  5
192
330
1F
100
AcDbEntity
  8
0
  6
Continuous
 62
     7
370
    15
100
AcDbLine
 10
230.3316221155
 20
458.8940951521
 30
0.0
 11
230.3316221155
 21
472.5527230198
 31
0.0
  0
LINE
  5
193
330
1F
100
AcDbEntity
  8
0
  6
Continuous
 62
     7
370
    15
100
AcDbLine
 10
216.6308984674
 20
471.4103254969
 30
0.0
 11
215.0126249111
 21
471.4103254969
 31
0.0
  0
LINE
  5
194
330
1F
100
AcDbEntity
  8
0
  6
Continuous
 62
     7
370
    15
100
AcDbLine
 10
215.6395465649
 20
470.6103268559
 30
0.0
 11
216.6308984674
 21
470.6103268559
 31
0.0
  0
LINE
  5
195
330
1F
100
AcDbEntity
  8
0
  6
Continuous
 62
     7
370
    15
100
AcDbLine
 10
216.9691250242
 20
472.6784739191
 30
0.0
 11
216.702602855
 21
471.4702281649
 31
0.0
  0
LINE
  5
196
330
1F
100
AcDbEntity
  8
0
  6
Continuous
 62
     7
370
    15
100
AcDbLine
 10
217.4707577146
 20
471.2386790211
 30
0.0
 11
217.7503407515
 21
472.5061419899
 31
0.0
  0
SPLINE
  5
197
330
1F
100
AcDbEntity
  8
0
  6
Continuous
 62
     7
370
    15
100
AcDbSpline
210
0.0
220
0.0
230
1.0
 70
     8
 71
     3
 72
    11
 73
     7
 74
     0
 42
0.00000001
 43
0.00000001
 40
0.0
 40
0.0
 40
0.0
 40
0.0
 40
0.2541316261173311
 40
0.502266394026237
 40
0.7495055111375698
 40
1.0
 40
1.0
 40
1.0
 40
1.0
 10
216.6308984673788
 20
470.6103268558894
 30
0.0
 10
216.7309868824962
 20
470.6205779914189
 30
0.0
 10
216.9288018814116
 20
470.640838361825
 30
0.0
 10
217.1869491419894
 20
470.7948601015655
 30
0.0
 10
217.3904028410641
 20
471.0139333349035
 30
0.0
 10
217.4521381126192
 20
471.200986391482
 30
0.0
 10
217.4832076347639
 20
471.2951246197139
 30
0.0
  0
LINE
  5
198
330
1F
100
AcDbEntity
  8
0
  6
Continuous
 62
     7
370
    15
100
AcDbLine
 10
216.2426263607
 20
87.8103289301
 30
0.0
 11
216.2426263607
 21
88.6103275711
 31
0.0
  0
LINE
  5
199
330
1F
100
AcDbEntity
  8
0
  6
Continuous
 62
     7
370
    15
100
AcDbLine
 10
216.2426263607
 20
103.0103329117
 30
0.0
 11
216.2426263607
 21
103.8103315527
 31
0.0
  0
LINE
  5
19A
330
1F
100
AcDbEntity
  8
0
  6
Continuous
 62
     7
370
    15
100
AcDbLine
 10
211.3126293338
 20
104.1103366311
 30
0.0
 11
211.3126293338
 21
103.8103315527
 31
0.0
  0
LINE
  5
19B
330
1F
100
AcDbEntity
  8
0
  6
Continuous
 62
     7
370
    15
100
AcDbLine
 10
215.71262931
 20
103.8103315527
 30
0.0
 11
215.71262931
 21
104.1103366311
 31
0.0
  0
ARC
  5
19C
330
1F
100
AcDbEntity
  8
0
  6
Continuous
 62
     7
370
    15
100
AcDbCircle
 10
213.5126256192
 20
101.0031897685
 30
0.0
 40
3.80714285714331
100
AcDbArc
 50
54.6997515601
 51
125.3002484399
  0
LINE
  5
19D
330
1F
100
AcDbEntity
  8
0
  6
Continuous
 62
     7
370
    15
100
AcDbLine
 10
211.412623576
 20
87.4103370602
 30
0.0
 11
211.412623576
 21
87.0103302891
 31
0.0
  0
LINE
  5
19E
330
1F
100
AcDbEntity
  8
0
  6
Continuous
 62
     7
370
    15
100
AcDbLine
 10
215.6126276172
 20
87.0103302891
 30
0.0
 11
215.6126276172
 21
87.4103370602
 31
0.0
  0
ARC
  5
19F
330
1F
100
AcDbEntity
  8
0
  6
Continuous
 62
     7
370
    15
100
AcDbCircle
 10
211.6126256192
 20
87.8103326257
 30
0.0
 40
0.4000000000008015
100
AcDbArc
 50
270.0
 51
0.0
  0
ARC
  5
1A0
330
1F
100
AcDbEntity
  8
0
  6
Continuous
 62
     7
370
    15
100
AcDbCircle
 10
215.4126256193
 20
87.8103326257
 30
0.0
 40
0.4000000000008015
100
AcDbArc
 50
180.0
 51
270.0
  0
LINE
  5
1A1
330
1F
100
AcDbEntity
  8
0
  6
Continuous
 62
     7
370
    15
100
AcDbLine
 10
212.0126262821
 20
103.0103329117
 30
0.0
 11
212.0126262821
 21
102.5603327448
 31
0.0
  0
LINE
  5
1A2
330
1F
100
AcDbEntity
  8
0
  6
Continuous
 62
     7
370
    15
100
AcDbLine
 10
212.0126262821
 20
101.5603307183
 30
0.0
 11
212.0126262821
 21
101.0716322358
 31
0.0
  0
LINE
  5
1A3
330
1F
100
AcDbEntity
  8
0
  6
Continuous
 62
     7
370
    15
100
AcDbLine
 10
212.0126262821
 20
100.2755078967
 30
0.0
 11
212.0126262821
 21
100.1198205645
 31
0.0
  0
LINE
  5
1A4
330
1F
100
AcDbEntity
  8
0
  6
Continuous
 62
     7
370
    15
100
AcDbLine
 10
212.0126262821
 20
90.820706218
 30
0.0
 11
212.0126262821
 21
90.0603297646
 31
0.0
  0
LINE
  5
1A5
330
1F
100
AcDbEntity
  8
0
  6
Continuous
 62
     7
370
    15
100
AcDbLine
 10
212.0126262821
 20
89.060327738
 30
0.0
 11
212.0126262821
 21
88.6103275711
 31
0.0
  0
LINE
  5
1A6
330
1F
100
AcDbEntity
  8
0
  6
Continuous
 62
     7
370
    15
100
AcDbLine
 10
215.0126249111
 20
88.6103275711
 30
0.0
 11
215.0126249111
 21
89.060327738
 31
0.0
  0
LINE
  5
1A7
330
1F
100
AcDbEntity
  8
0
  6
Continuous
 62
     7
370
    15
100
AcDbLine
 10
215.0126249111
 20
90.0603297646
 30
0.0
 11
215.0126249111
 21
90.5474785263
 31
0.0
  0
LINE
  5
1A8
330
1F
100
AcDbEntity
  8
0
  6
Continuous
 62
     7
370
    15
100
AcDbLine
 10
215.0126249111
 20
99.8553994591
 30
0.0
 11
215.0126249111
 21
100.0433329041
 31
0.0
  0
LINE
  5
1A9
330
1F
100
AcDbEntity
  8
0
  6
Continuous
 62
     7
370
    15
100
AcDbLine
 10
215.0126249111
 20
100.7984045441
 30
0.0
 11
215.0126249111
 21
101.5603307183
 31
0.0
  0
LINE
  5
1AA
330
1F
100
AcDbEntity
  8
0
  6
Continuous
 62
     7
370
    15
100
AcDbLine
 10
215.0126249111
 20
102.5603327448
 30
0.0
 11
215.0126249111
 21
103.0103329117
 31
0.0
  0
SPLINE
  5
1AB
330
1F
100
AcDbEntity
  8
0
  6
Continuous
 62
     7
370
    15
100
AcDbSpline
210
0.0
220
0.0
230
1.0
 70
     8
 71
     3
 72
    15
 73
    11
 74
     0
 42
0.00000001
 43
0.00000001
 40
0.0
 40
0.0
 40
0.0
 40
0.0
 40
0.1356024681815957
 40
0.295330595159587
 40
0.4038076828067009
 40
0.5319612875732694
 40
0.6738447874455711
 40
0.8261128093411221
 40
0.912614331649187
 40
1.0
 40
1.0
 40
1.0
 40
1.0
 10
215.0126249111464
 20
90.37638339351761
 30
0.0
 10
215.0570063947396
 20
90.36905681898905
 30
0.0
 10
215.1536654757977
 20
90.35310016536008
 30
0.0
 10
215.3605160563217
 20
90.40077175239026
 30
0.0
 10
215.5537774056485
 20
90.48849822474325
 30
0.0
 10
215.7003665186184
 20
90.60815749910822
 30
0.0
 10
215.7990685975373
 20
90.75906205149697
 30
0.0
 10
215.8287371387522
 20
90.88090140364328
 30
0.0
 10
215.8075433369374
 20
91.01015666372683
 30
0.0
 10
215.7612932938781
 20
91.07682268928869
 30
0.0
 10
215.7380506909659
 20
91.11032518695939
 30
0.0
  0
SPLINE
  5
1AC
330
1F
100
AcDbEntity
  8
0
  6
Continuous
 62
     7
370
    15
100
AcDbSpline
210
0.0
220
0.0
230
1.0
 70
     8
 71
     3
 72
    20
 73
    16
 74
     0
 42
0.00000001
 43
0.00000001
 40
0.0
 40
0.0
 40
0.0
 40
0.0
 40
0.0607081418949688
 40
0.226533687667493
 40
0.3908030493128294
 40
0.4705944741318522
 40
0.5476201250398426
 40
0.6228555815799696
 40
0.7003369043579364
 40
0.7786470878317104
 40
0.8566574323358913
 40
0.9330983455731189
 40
0.9703706932585184
 40
0.9892322981290348
 40
1.0
 40
1.0
 40
1.0
 40
1.0
 10
211.2764269626906
 20
91.11032518695939
 30
0.0
 10
211.3227016004522
 20
91.05699374823712
 30
0.0
 10
211.4953763687847
 20
90.85798638109891
 30
0.0
 10
211.9123481442819
 20
90.84005585710614
 30
0.0
 10
212.4773028130432
 20
90.76503271906294
 30
0.0
 10
212.9969158797036
 20
90.7220945557387
 30
0.0
 10
213.3908062013722
 20
90.6915343301583
 30
0.0
 10
213.7837173912357
 20
90.6638613708807
 30
0.0
 10
214.1648792759081
 20
90.63255301633689
 30
0.0
 10
214.5206047622771
 20
90.60007386896385
 30
0.0
 10
214.8232295156458
 20
90.56925830864293
 30
0.0
 10
215.0157382342898
 20
90.54636478519784
 30
0.0
 10
215.1038655152822
 20
90.53832371612414
 30
0.0
 10
215.1492900937087
 20
90.53053209267345
 30
0.0
 10
215.1487332988171
 20
90.53449129666346
 30
0.0
 10
215.1485309518149
 20
90.53593012642014
 30
0.0
  0
SPLINE
  5
1AD
330
1F
100
AcDbEntity
  8
0
  6
Continuous
 62
     7
370
    15
100
AcDbSpline
210
0.0
220
0.0
230
1.0
 70
     8
 71
     3
 72
    18
 73
    14
 74
     0
 42
0.00000001
 43
0.00000001
 40
0.0
 40
0.0
 40
0.0
 40
0.0
 40
0.0057533581382656
 40
0.1156375486098096
 40
0.2383931042321795
 40
0.3593084303059557
 40
0.47570470105543
 40
0.5872131106540551
 40
0.7047316556040444
 40
0.8264988496422223
 40
0.8891458420606115
 40
0.9517932251636098
 40
1.0
 40
1.0
 40
1.0
 40
1.0
 10
215.5192420399954
 20
99.75715610336411
 30
0.0
 10
215.5145948704099
 20
99.76010830265622
 30
0.0
 10
215.4211907599884
 20
99.81944496846882
 30
0.0
 10
215.1988345266226
 20
99.82566053046123
 30
0.0
 10
214.8074502514948
 20
99.8848466052768
 30
0.0
 10
214.295568645909
 20
99.93038748822289
 30
0.0
 10
213.7445389991594
 20
99.9765544246671
 30
0.0
 10
213.1824217719226
 20
100.0154327266367
 30
0.0
 10
212.6481510958425
 20
100.0601865265241
 30
0.0
 10
212.2504969660525
 20
100.1012282903691
 30
0.0
 10
212.0357842821558
 20
100.1223754017631
 30
0.0
 10
211.9397123516054
 20
100.1246432392794
 30
0.0
 10
211.9242767516544
 20
100.1085812622784
 30
0.0
 10
211.9175643242171
 20
100.1015964443599
 30
0.0
  0
SPLINE
  5
1AE
330
1F
100
AcDbEntity
  8
0
  6
Continuous
 62
     7
370
    15
100
AcDbSpline
210
0.0
220
0.0
230
1.0
 70
     8
 71
     3
 72
    12
 73
     8
 74
     0
 42
0.00000001
 43
0.00000001
 40
0.0
 40
0.0
 40
0.0
 40
0.0
 40
0.2236732915419057
 40
0.4523100852040887
 40
0.6822371062107185
 40
0.9102273916452944
 40
1.0
 40
1.0
 40
1.0
 40
1.0
 10
211.2183273351958
 20
100.9121898109828
 30
0.0
 10
211.2055919184422
 20
100.8696409657196
 30
0.0
 10
211.1798384751177
 20
100.7835990798347
 30
0.0
 10
211.300961137332
 20
100.691981097345
 30
0.0
 10
211.5326433201323
 20
100.5956847115124
 30
0.0
 10
211.7774989924298
 20
100.5331822851108
 30
0.0
 10
211.9608320457871
 20
100.5384079677198
 30
0.0
 10
212.0126262820532
 20
100.5398842985545
 30
0.0
  0
SPLINE
  5
1AF
330
1F
100
AcDbEntity
  8
0
  6
Continuous
 62
     7
370
    15
100
AcDbSpline
210
0.0
220
0.0
230
1.0
 70
     8
 71
     3
 72
    19
 73
    15
 74
     0
 42
0.00000001
 43
0.00000001
 40
0.0
 40
0.0
 40
0.0
 40
0.0
 40
0.0979032791062705
 40
0.175376661531972
 40
0.2884820893775424
 40
0.3734525493481057
 40
0.4570022223860511
 40
0.6168865560951647
 40
0.6796657431465519
 40
0.7634253109011393
 40
0.813753725090831
 40
0.8702973775727617
 40
0.9323989472601321
 40
1.0
 40
1.0
 40
1.0
 40
1.0
 10
211.3945633686354
 20
100.4170540268337
 30
0.0
 10
211.4450705045774
 20
100.3906790182902
 30
0.0
 10
211.5355452360256
 20
100.3434327872298
 30
0.0
 10
211.9101885338521
 20
100.2827831093154
 30
0.0
 10
212.3967014200213
 20
100.2288996994666
 30
0.0
 10
212.9880283245678
 20
100.1756500544324
 30
0.0
 10
213.7421314415664
 20
100.1241065695573
 30
0.0
 10
214.3832216770062
 20
100.057166273439
 30
0.0
 10
215.0324989532473
 20
100.0216491976542
 30
0.0
 10
215.410821403726
 20
100.0998286273974
 30
0.0
 10
215.6626899035062
 20
100.2080360257702
 30
0.0
 10
215.7962746173559
 20
100.2963767612727
 30
0.0
 10
215.8580366016339
 20
100.3702162481869
 30
0.0
 10
215.7866005948997
 20
100.4507290304346
 30
0.0
 10
215.7493681228926
 20
100.4926923210536
 30
0.0
  0
SPLINE
  5
1B0
330
1F
100
AcDbEntity
  8
0
  6
Continuous
 62
     7
370
    15
100
AcDbSpline
210
0.0
220
0.0
230
1.0
 70
     8
 71
     3
 72
    25
 73
    21
 74
     0
 42
0.00000001
 43
0.00000001
 40
0.0
 40
0.0
 40
0.0
 40
0.0
 40
0.0176266621558083
 40
0.034498037645487
 40
0.0503150352129249
 40
0.0649745343870752
 40
0.0909466124237896
 40
0.113439419943851
 40
0.1538404130349847
 40
0.1912352818617078
 40
0.2995720690815307
 40
0.3999647556516694
 40
0.5012969407700583
 40
0.5949073029746037
 40
0.6784882503403717
 40
0.7336302865649732
 40
0.8075209655320142
 40
0.8952854120234525
 40
0.9453087096743586
 40
1.0
 40
1.0
 40
1.0
 40
1.0
 10
215.3920457280447
 20
99.86711177181351
 30
0.0
 10
215.4317567109737
 20
99.87150162928465
 30
0.0
 10
215.5094770968252
 20
99.88009324277103
 30
0.0
 10
215.6113535568449
 20
99.92610665152345
 30
0.0
 10
215.6923730877863
 20
99.98506134608212
 30
0.0
 10
215.7685692248021
 20
100.0686498905105
 30
0.0
 10
215.8216211138551
 20
100.1722938868463
 30
0.0
 10
215.8457823548982
 20
100.3046174235107
 30
0.0
 10
215.8228895092598
 20
100.4364867737433
 30
0.0
 10
215.651658199739
 20
100.6817115392847
 30
0.0
 10
215.3088586932243
 20
100.768773878565
 30
0.0
 10
214.8137480829314
 20
100.8273364221635
 30
0.0
 10
214.2005352968682
 20
100.8857003587365
 30
0.0
 10
213.5510678934717
 20
100.9353264671499
 30
0.0
 10
213.0113654302877
 20
100.974790623195
 30
0.0
 10
212.5653571145545
 20
101.0139723713018
 30
0.0
 10
212.1766484524978
 20
101.0521918189528
 30
0.0
 10
211.9165013859014
 20
101.0800540043306
 30
0.0
 10
211.7860544938644
 20
101.1025389247602
 30
0.0
 10
211.7773912936744
 20
101.1149987769823
 30
0.0
 10
211.7728665984442
 20
101.1215064222728
 30
0.0
  0
SPLINE
  5
1B1
330
1F
100
AcDbEntity
  8
0
  6
Continuous
 62
     7
370
    15
100
AcDbSpline
210
0.0
220
0.0
230
1.0
 70
     8
 71
     3
 72
    12
 73
     8
 74
     0
 42
0.00000001
 43
0.00000001
 40
0.0
 40
0.0
 40
0.0
 40
0.0
 40
0.1756484819836304
 40
0.5723147944529376
 40
0.7586193425867653
 40
0.9207487476514701
 40
1.0
 40
1.0
 40
1.0
 40
1.0
 10
211.8611932314207
 20
100.3030303413783
 30
0.0
 10
211.7956294226595
 20
100.2938531051338
 30
0.0
 10
211.5820031088364
 20
100.2639509504688
 30
0.0
 10
211.3660929470543
 20
100.1900550236935
 30
0.0
 10
211.204936778949
 20
99.9750920204136
 30
0.0
 10
211.1737242546566
 20
99.8148936302509
 30
0.0
 10
211.2047001211161
 20
99.73622509080506
 30
0.0
 10
211.2148702657988
 20
99.71039625953782
 30
0.0
  0
LINE
  5
1B2
330
1F
100
AcDbEntity
  8
0
  6
Continuous
 62
     7
370
    15
100
AcDbLine
 10
211.3723829902
 20
91.0125884707
 30
0.0
 11
210.2539241827
 21
91.0125884707
 31
0.0
  0
LINE
  5
1B3
330
1F
100
AcDbEntity
  8
0
  6
Continuous
 62
     7
370
    15
100
AcDbLine
 10
210.2539241827
 20
90.2125898297
 30
0.0
 11
212.0126262821
 21
90.2125898297
 31
0.0
  0
LINE
  5
1B4
330
1F
100
AcDbEntity
  8
0
  6
Continuous
 62
     7
370
    15
100
AcDbLine
 10
208.8436335839
 20
103.8103315527
 30
0.0
 11
208.8436335839
 21
103.8637969191
 31
0.0
  0
LINE
  5
1B5
330
1F
100
AcDbEntity
  8
0
  6
Continuous
 62
     7
370
    15
100
AcDbLine
 10
205.8436349548
 20
103.8637969191
 30
0.0
 11
205.8436349548
 21
103.8103315527
 31
0.0
  0
SPLINE
  5
1B6
330
1F
100
AcDbEntity
  8
0
  6
Continuous
 62
     7
370
    15
100
AcDbSpline
210
0.0
220
0.0
230
1.0
 70
     8
 71
     3
 72
    15
 73
    11
 74
     0
 42
0.00000001
 43
0.00000001
 40
0.0
 40
0.0
 40
0.0
 40
0.0
 40
0.1077555632443117
 40
0.235250966196397
 40
0.3627905644503143
 40
0.4902569844175339
 40
0.6176625369616796
 40
0.7450971241320742
 40
0.8724965551005236
 40
1.0
 40
1.0
 40
1.0
 40
1.0
 10
205.8596909559538
 20
87.81032893013108
 30
0.0
 10
205.87623078712
 20
87.49780694920445
 30
0.0
 10
205.912340396178
 20
86.81551180121369
 30
0.0
 10
206.2485397753573
 20
85.80635849854926
 30
0.0
 10
206.8066324374996
 20
84.84288516338931
 30
0.0
 10
207.5614540387585
 20
84.02195888747438
 30
0.0
 10
208.4766151773915
 20
83.38668633902749
 30
0.0
 10
209.5038727432045
 20
82.9665318198754
 30
0.0
 10
210.5998542186651
 20
82.75272825204574
 30
0.0
 10
211.3356134993272
 20
82.81825301796741
 30
0.0
 10
211.7036432541182
 20
82.85102876972306
 30
0.0
  0
SPLINE
  5
1B7
330
1F
100
AcDbEntity
  8
0
  6
Continuous
 62
     7
370
    15
100
AcDbSpline
210
0.0
220
0.0
230
1.0
 70
     8
 71
     3
 72
    15
 73
    11
 74
     0
 42
0.00000001
 43
0.00000001
 40
0.0
 40
0.0
 40
0.0
 40
0.0
 40
0.1316516399477192
 40
0.2633126936599635
 40
0.3951908777586238
 40
0.5266700567956787
 40
0.6575474856851714
 40
0.7882147191251545
 40
0.9184603522158077
 40
0.9999999999999999
 40
0.9999999999999999
 40
0.9999999999999999
 40
0.9999999999999999
 10
211.2059519208243
 20
85.8087155516063
 30
0.0
 10
211.0537681388416
 20
85.79690062308728
 30
0.0
 10
210.7493896929586
 20
85.77326992122156
 30
0.0
 10
210.2985276379247
 20
85.87474222004543
 30
0.0
 10
209.8795045259762
 20
86.06161104986326
 30
0.0
 10
209.5091070271529
 20
86.33420095806527
 30
0.0
 10
209.2068447190613
 20
86.680112729004
 30
0.0
 10
208.9876913367678
 20
87.08182226097752
 30
0.0
 10
208.8703159675316
 20
87.46813296635683
 30
0.0
 10
208.8601421110191
 20
87.71520391471938
 30
0.0
 10
208.8562250650694
 20
87.81032893013108
 30
0.0
  0
SPLINE
  5
1B8
330
1F
100
AcDbEntity
  8
0
  6
Continuous
 62
     7
370
    15
100
AcDbSpline
210
0.0
220
0.0
230
1.0
 70
     8
 71
     3
 72
    15
 73
    11
 74
     0
 42
0.00000001
 43
0.00000001
 40
0.0
 40
0.0
 40
0.0
 40
0.0
 40
0.1249271235195466
 40
0.2499165441323651
 40
0.3749669398554883
 40
0.4999574828345304
 40
0.6249207229713406
 40
0.7499167301970753
 40
0.8748746675500025
 40
1.0
 40
1.0
 40
1.0
 40
1.0
 10
211.874514869528
 20
108.7408575708781
 30
0.0
 10
211.5081380845243
 20
108.784189981842
 30
0.0
 10
210.7752018143304
 20
108.8708764122338
 30
0.0
 10
209.6711778834253
 20
108.7056783185152
 30
0.0
 10
208.6303732517804
 20
108.3167571752522
 30
0.0
 10
207.6951915973675
 20
107.7117296845988
 30
0.0
 10
206.9145439999664
 20
106.9155410889051
 30
0.0
 10
206.3265801981568
 20
105.9711766942467
 30
0.0
 10
205.9307477329583
 20
104.9227336807224
 30
0.0
 10
205.8726855022931
 20
104.1836118213415
 30
0.0
 10
205.8436349547675
 20
103.8138035232936
 30
0.0
  0
SPLINE
  5
1B9
330
1F
100
AcDbEntity
  8
0
  6
Continuous
 62
     7
370
    15
100
AcDbSpline
210
0.0
220
0.0
230
1.0
 70
     8
 71
     3
 72
    15
 73
    11
 74
     0
 42
0.00000001
 43
0.00000001
 40
0.0
 40
0.0
 40
0.0
 40
0.0
 40
0.1242547216221721
 40
0.2486321305662306
 40
0.3735409974541627
 40
0.4985825073502546
 40
0.6236631911692765
 40
0.7490696703026413
 40
0.8744382168194955
 40
1.0
 40
1.0
 40
1.0
 40
1.0
 10
208.8436335838606
 20
103.8138035232936
 30
0.0
 10
208.8571934034429
 20
103.9657615273121
 30
0.0
 10
208.884326431378
 20
104.2698275764927
 30
0.0
 10
209.0587893066152
 20
104.6971441068562
 30
0.0
 10
209.312116415112
 20
105.0787837725568
 30
0.0
 10
209.6419435246676
 20
105.398712105969
 30
0.0
 10
210.0328686698982
 20
105.6392896289877
 30
0.0
 10
210.4655657023715
 20
105.7909186833809
 30
0.0
 10
210.9230987268413
 20
105.8443802036214
 30
0.0
 10
211.2250176611655
 20
105.8036837148084
 30
0.0
 10
211.3760933793356
 20
105.7833198006068
 30
0.0
  0
LINE
  5
1BA
330
1F
100
AcDbEntity
  8
0
  6
Continuous
 62
     7
370
    15
100
AcDbLine
 10
226.7467007554
 20
88.4254637654
 30
0.0
 11
211.2057284034
 21
85.8090582783
 31
0.0
  0
LINE
  5
1BB
330
1F
100
AcDbEntity
  8
0
  6
Continuous
 62
     7
370
    15
100
AcDbLine
 10
211.7037848151
 20
82.850686043
 30
0.0
 11
227.2447571672
 21
85.4671064312
 31
0.0
  0
LINE
  5
1BC
330
1F
100
AcDbEntity
  8
0
  6
Continuous
 62
     7
370
    15
100
AcDbLine
 10
211.3763094462
 20
105.7829025681
 30
0.0
 11
226.9172743476
 21
103.1664821799
 31
0.0
  0
LINE
  5
1BD
330
1F
100
AcDbEntity
  8
0
  6
Continuous
 62
     7
370
    15
100
AcDbLine
 10
227.4153456605
 20
106.124839514
 30
0.0
 11
211.8743733085
 21
108.7412599022
 31
0.0
  0
SPLINE
  5
1BE
330
1F
100
AcDbEntity
  8
0
  6
Continuous
 62
     7
370
    15
100
AcDbSpline
210
0.0
220
0.0
230
1.0
 70
     8
 71
     3
 72
    12
 73
     8
 74
     0
 42
0.00000001
 43
0.00000001
 40
0.0
 40
0.0
 40
0.0
 40
0.0
 40
0.1526145777739737
 40
0.2973905050304727
 40
0.5623710619129286
 40
0.796601206382562
 40
1.0
 40
1.0
 40
1.0
 40
1.0
 10
227.24441444047
 20
85.46740445446122
 30
0.0
 10
227.4956332990761
 20
85.52014958970902
 30
0.0
 10
227.985167813562
 20
85.62293074363312
 30
0.0
 10
228.8346998944686
 20
86.05215397592184
 30
0.0
 10
229.6466861743169
 20
86.7965550040738
 30
0.0
 10
230.2111166602382
 20
87.86759875601707
 30
0.0
 10
230.2928057426059
 20
88.60252408857411
 30
0.0
 10
230.3307727492621
 20
88.94409868072614
 30
0.0
  0
SPLINE
  5
1BF
330
1F
100
AcDbEntity
  8
0
  6
Continuous
 62
     7
370
    15
100
AcDbSpline
210
0.0
220
0.0
230
1.0
 70
     8
 71
     3
 72
    11
 73
     7
 74
     0
 42
0.00000001
 43
0.00000001
 40
0.0
 40
0.0
 40
0.0
 40
0.0
 40
0.2003585325715143
 40
0.4328006161498773
 40
0.6990243807172165
 40
1.0
 40
1.0
 40
1.0
 40
1.0
 10
227.3324654019644
 20
88.94409868072617
 30
0.0
 10
227.3192382901339
 20
88.88766999537646
 30
0.0
 10
227.2906659998667
 20
88.7657766600918
 30
0.0
 10
227.174775835019
 20
88.60007870937508
 30
0.0
 10
226.9900230616701
 20
88.46116341627177
 30
0.0
 10
226.8323982793205
 20
88.43778157332979
 30
0.0
 10
226.748757115679
 20
88.42537435840714
 30
0.0
  0
SPLINE
  5
1C0
330
1F
100
AcDbEntity
  8
0
  6
Continuous
 62
     7
370
    15
100
AcDbSpline
210
0.0
220
0.0
230
1.0
 70
     8
 71
     3
 72
    12
 73
     8
 74
     0
 42
0.00000001
 43
0.00000001
 40
0.0
 40
0.0
 40
0.0
 40
0.0
 40
0.2034072527575092
 40
0.4376404323673645
 40
0.7026162986680399
 40
0.8473895233270877
 40
0.9999999999999999
 40
0.9999999999999999
 40
0.9999999999999999
 40
0.9999999999999999
 10
230.3307727492621
 20
102.5027248556529
 30
0.0
 10
230.3093392502364
 20
102.8457360744561
 30
0.0
 10
230.2632240520142
 20
103.5837411164045
 30
0.0
 10
229.7510965049404
 20
104.6808414478104
 30
0.0
 10
228.9759047443184
 20
105.4636088921142
 30
0.0
 10
228.1480438509653
 20
105.9333238732427
 30
0.0
 10
227.6640585259522
 20
106.0595937052031
 30
0.0
 10
227.4156883872321
 20
106.1243924791728
 30
0.0
  0
SPLINE
  5
1C1
330
1F
100
AcDbEntity
  8
0
  6
Continuous
 62
     7
370
    15
100
AcDbSpline
210
0.0
220
0.0
230
1.0
 70
     8
 71
     3
 72
    12
 73
     8
 74
     0
 42
0.00000001
 43
0.00000001
 40
0.0
 40
0.0
 40
0.0
 40
0.0
 40
0.1555472679745845
 40
0.3021948972602116
 40
0.5679589898391656
 40
0.7999337333052727
 40
1.0
 40
1.0
 40
1.0
 40
1.0
 10
226.9153669989875
 20
103.1673911507045
 30
0.0
 10
226.9559084286769
 20
103.1516406622308
 30
0.0
 10
227.0346717096996
 20
103.1210408496588
 30
0.0
 10
227.1643030325181
 20
103.0260037133974
 30
0.0
 10
227.278728194237
 20
102.8798298457468
 30
0.0
 10
227.3428885780014
 20
102.6855811017998
 30
0.0
 10
227.3357644083091
 20
102.5606001053896
 30
0.0
 10
227.3324654019644
 20
102.5027248556529
 30
0.0
  0
LINE
  5
1C2
330
1F
100
AcDbEntity
  8
0
  6
Continuous
 62
     7
370
    15
100
AcDbLine
 10
227.3316160358
 20
102.5527331526
 30
0.0
 11
227.3316160358
 21
88.8940903838
 31
0.0
  0
LINE
  5
1C3
330
1F
100
AcDbEntity
  8
0
  6
Continuous
 62
     7
370
    15
100
AcDbLine
 10
230.3316221155
 20
88.8940903838
 30
0.0
 11
230.3316221155
 21
102.5527331526
 31
0.0
  0
LINE
  5
1C4
330
1F
100
AcDbEntity
  8
0
  6
Continuous
 62
     7
370
    15
100
AcDbLine
 10
216.6308984674
 20
101.4103356297
 30
0.0
 11
215.0126249111
 21
101.4103356297
 31
0.0
  0
LINE
  5
1C5
330
1F
100
AcDbEntity
  8
0
  6
Continuous
 62
     7
370
    15
100
AcDbLine
 10
215.6395465649
 20
100.6103369887
 30
0.0
 11
216.6308984674
 21
100.6103369887
 31
0.0
  0
LINE
  5
1C6
330
1F
100
AcDbEntity
  8
0
  6
Continuous
 62
     7
370
    15
100
AcDbLine
 10
216.9691250242
 20
102.6784691508
 30
0.0
 11
216.702602855
 21
101.4702233965
 31
0.0
  0
LINE
  5
1C7
330
1F
100
AcDbEntity
  8
0
  6
Continuous
 62
     7
370
    15
100
AcDbLine
 10
217.4707577146
 20
101.2386742527
 30
0.0
 11
217.7503407515
 21
102.5061372216
 31
0.0
  0
SPLINE
  5
1C8
330
1F
100
AcDbEntity
  8
0
  6
Continuous
 62
     7
370
    15
100
AcDbSpline
210
0.0
220
0.0
230
1.0
 70
     8
 71
     3
 72
    11
 73
     7
 74
     0
 42
0.00000001
 43
0.00000001
 40
0.0
 40
0.0
 40
0.0
 40
0.0
 40
0.2541305495495546
 40
0.5022664238365682
 40
0.7495161270384285
 40
1.0
 40
1.0
 40
1.0
 40
1.0
 10
216.6308984673788
 20
100.6103369886791
 30
0.0
 10
216.7309868597766
 20
100.62058213007
 30
0.0
 10
216.9288026635289
 20
100.6408307406257
 30
0.0
 10
217.1869548452473
 20
100.7948561283687
 30
0.0
 10
217.3903946709266
 20
101.0139390116485
 30
0.0
 10
217.4521362521462
 20
101.2009877700717
 30
0.0
 10
217.4832076347639
 20
101.2951198513423
 30
0.0
  0
LINE
  5
1C9
330
1F
100
AcDbEntity
  8
0
  6
Continuous
 62
     7
370
    15
100
AcDbLine
 10
216.2426263607
 20
457.8103336985
 30
0.0
 11
216.2426263607
 21
458.6103323395
 31
0.0
  0
LINE
  5
1CA
330
1F
100
AcDbEntity
  8
0
  6
Continuous
 62
     7
370
    15
100
AcDbLine
 10
216.2426263607
 20
473.0103376801
 30
0.0
 11
216.2426263607
 21
473.8103363211
 31
0.0
  0
ARC
  5
1CB
330
1F
100
AcDbEntity
  8
0
  6
Continuous
 62
     7
370
    15
100
AcDbCircle
 10
213.5126256192
 20
471.0031897685
 30
0.0
 40
3.807142857143322
100
AcDbArc
 50
54.6997515601
 51
125.3002484399
  0
LINE
  5
1CC
330
1F
100
AcDbEntity
  8
0
  6
Continuous
 62
     7
370
    15
100
AcDbLine
 10
211.3126293338
 20
474.1103264983
 30
0.0
 11
211.3126293338
 21
473.8103363211
 31
0.0
  0
LINE
  5
1CD
330
1F
100
AcDbEntity
  8
0
  6
Continuous
 62
     7
370
    15
100
AcDbLine
 10
215.71262931
 20
473.8103363211
 30
0.0
 11
215.71262931
 21
474.1103264983
 31
0.0
  0
LINE
  5
1CE
330
1F
100
AcDbEntity
  8
0
  6
Continuous
 62
     7
370
    15
100
AcDbLine
 10
211.412623576
 20
457.4103269274
 30
0.0
 11
211.412623576
 21
457.0103350575
 31
0.0
  0
LINE
  5
1CF
330
1F
100
AcDbEntity
  8
0
  6
Continuous
 62
     7
370
    15
100
AcDbLine
 10
215.6126276172
 20
457.0103350575
 30
0.0
 11
215.6126276172
 21
457.4103269274
 31
0.0
  0
ARC
  5
1D0
330
1F
100
AcDbEntity
  8
0
  6
Continuous
 62
     7
370
    15
100
AcDbCircle
 10
211.6126256192
 20
457.8103326257
 30
0.0
 40
0.4000000000008015
100
AcDbArc
 50
270.0
 51
0.0
  0
ARC
  5
1D1
330
1F
100
AcDbEntity
  8
0
  6
Continuous
 62
     7
370
    15
100
AcDbCircle
 10
215.4126256193
 20
457.8103326257
 30
0.0
 40
0.4000000000007731
100
AcDbArc
 50
180.0
 51
270.0
  0
LINE
  5
1D2
330
1F
100
AcDbEntity
  8
0
  6
Continuous
 62
     7
370
    15
100
AcDbLine
 10
212.0126262821
 20
473.0103376801
 30
0.0
 11
212.0126262821
 21
472.5603375132
 31
0.0
  0
LINE
  5
1D3
330
1F
100
AcDbEntity
  8
0
  6
Continuous
 62
     7
370
    15
100
AcDbLine
 10
212.0126262821
 20
471.5603354866
 30
0.0
 11
212.0126262821
 21
471.071622103
 31
0.0
  0
LINE
  5
1D4
330
1F
100
AcDbEntity
  8
0
  6
Continuous
 62
     7
370
    15
100
AcDbLine
 10
212.0126262821
 20
470.275512665
 30
0.0
 11
212.0126262821
 21
470.1198104317
 31
0.0
  0
LINE
  5
1D5
330
1F
100
AcDbEntity
  8
0
  6
Continuous
 62
     7
370
    15
100
AcDbLine
 10
212.0126262821
 20
460.8207109864
 30
0.0
 11
212.0126262821
 21
460.060334533
 31
0.0
  0
LINE
  5
1D6
330
1F
100
AcDbEntity
  8
0
  6
Continuous
 62
     7
370
    15
100
AcDbLine
 10
212.0126262821
 20
459.0603325064
 30
0.0
 11
212.0126262821
 21
458.6103323395
 31
0.0
  0
LINE
  5
1D7
330
1F
100
AcDbEntity
  8
0
  6
Continuous
 62
     7
370
    15
100
AcDbLine
 10
215.0126249111
 20
458.6103323395
 30
0.0
 11
215.0126249111
 21
459.0603325064
 31
0.0
  0
LINE
  5
1D8
330
1F
100
AcDbEntity
  8
0
  6
Continuous
 62
     7
370
    15
100
AcDbLine
 10
215.0126249111
 20
460.060334533
 30
0.0
 11
215.0126249111
 21
460.5474683936
 31
0.0
  0
LINE
  5
1D9
330
1F
100
AcDbEntity
  8
0
  6
Continuous
 62
     7
370
    15
100
AcDbLine
 10
215.0126249111
 20
469.8553893263
 30
0.0
 11
215.0126249111
 21
470.0433376725
 31
0.0
  0
LINE
  5
1DA
330
1F
100
AcDbEntity
  8
0
  6
Continuous
 62
     7
370
    15
100
AcDbLine
 10
215.0126249111
 20
470.7984093125
 30
0.0
 11
215.0126249111
 21
471.5603354866
 31
0.0
  0
LINE
  5
1DB
330
1F
100
AcDbEntity
  8
0
  6
Continuous
 62
     7
370
    15
100
AcDbLine
 10
215.0126249111
 20
472.5603375132
 30
0.0
 11
215.0126249111
 21
473.0103376801
 31
0.0
  0
LINE
  5
1DC
330
1F
100
AcDbEntity
  8
0
  6
Continuous
 62
     7
370
    15
100
AcDbLine
 10
233.5326299585
 20
515.8103320296
 30
0.0
 11
238.5326251901
 21
515.8103320296
 31
0.0
  0
LINE
  5
1DD
330
1F
100
AcDbEntity
  8
0
  6
Continuous
 62
     7
370
    15
100
AcDbLine
 10
233.5326299585
 20
515.8103320296
 30
0.0
 11
233.5326299585
 21
530.8103326256
 31
0.0
  0
LINE
  5
1DE
330
1F
100
AcDbEntity
  8
0
  6
Continuous
 62
     7
370
    15
100
AcDbLine
 10
233.5326299585
 20
530.8103326256
 30
0.0
 11
238.5326251901
 21
530.8103326256
 31
0.0
  0
LINE
  5
1DF
330
1F
100
AcDbEntity
  8
0
  6
Continuous
 62
     7
370
    15
100
AcDbLine
 10
238.5326251901
 20
515.8103320296
 30
0.0
 11
238.5326251901
 21
530.8103326256
 31
0.0
  0
LINE
  5
1E0
330
1F
100
AcDbEntity
  8
0
  6
Continuous
 62
     7
370
    15
100
AcDbLine
 10
238.5326251901
 20
475.7978233988
 30
0.0
 11
238.5326251901
 21
515.8103320296
 31
0.0
  0
ARC
  5
1E1
330
1F
100
AcDbEntity
  8
0
  6
Continuous
 62
     7
370
    15
100
AcDbCircle
 10
226.0326256193
 20
465.8103326256
 30
0.0
 40
16.00000000000013
100
AcDbArc
 50
321.3751671269
 51
38.6248328731
  0
LINE
  5
1E2
330
1F
100
AcDbEntity
  8
0
  6
Continuous
 62
     7
370
    15
100
AcDbLine
 10
238.5326251901
 20
105.7978186304
 30
0.0
 11
238.5326251901
 21
455.8228466208
 31
0.0
  0
ARC
  5
1E3
330
1F
100
AcDbEntity
  8
0
  6
Continuous
 62
     7
370
    15
100
AcDbCircle
 10
226.0326256193
 20
95.8103326256
 30
0.0
 40
16.00000000000012
100
AcDbArc
 50
321.3751671269
 51
38.6248328731
  0
LINE
  5
1E4
330
1F
100
AcDbEntity
  8
0
  6
Continuous
 62
     7
370
    15
100
AcDbLine
 10
238.5326251901
 20
85.8228418524
 30
0.0
 11
238.5326251901
 21
45.8103332217
 31
0.0
  0
LINE
  5
1E5
330
1F
100
AcDbEntity
  8
0
  6
Continuous
 62
     7
370
    15
100
AcDbLine
 10
233.5326299585
 20
45.8103332217
 30
0.0
 11
238.5326251901
 21
45.8103332217
 31
0.0
  0
LINE
  5
1E6
330
1F
100
AcDbEntity
  8
0
  6
Continuous
 62
     7
370
    15
100
AcDbLine
 10
233.5326299585
 20
86.5393492873
 30
0.0
 11
230.5326238788
 21
89.3103394205
 31
0.0
  0
LINE
  5
1E7
330
1F
100
AcDbEntity
  8
0
  6
Continuous
 62
     7
370
    15
100
AcDbLine
 10
230.5326238788
 20
89.3103394205
 30
0.0
 11
230.3316221155
 21
89.3103394205
 31
0.0
  0
LINE
  5
1E8
330
1F
100
AcDbEntity
  8
0
  6
Continuous
 62
     7
370
    15
100
AcDbLine
 10
230.3316221155
 20
102.3103359635
 30
0.0
 11
230.5326238788
 21
102.3103359635
 31
0.0
  0
LINE
  5
1E9
330
1F
100
AcDbEntity
  8
0
  6
Continuous
 62
     7
370
    15
100
AcDbLine
 10
230.5326238788
 20
102.3103359635
 30
0.0
 11
233.5326299585
 21
105.0813111956
 31
0.0
  0
LINE
  5
1EA
330
1F
100
AcDbEntity
  8
0
  6
Continuous
 62
     7
370
    15
100
AcDbLine
 10
233.5326299585
 20
456.5393540556
 30
0.0
 11
230.5326238788
 21
459.3103292878
 31
0.0
  0
LINE
  5
1EB
330
1F
100
AcDbEntity
  8
0
  6
Continuous
 62
     7
370
    15
100
AcDbLine
 10
230.5326238788
 20
459.3103292878
 30
0.0
 11
230.3316221155
 21
459.3103292878
 31
0.0
  0
LINE
  5
1EC
330
1F
100
AcDbEntity
  8
0
  6
Continuous
 62
     7
370
    15
100
AcDbLine
 10
230.3316221155
 20
472.3103258307
 30
0.0
 11
230.5326238788
 21
472.3103258307
 31
0.0
  0
LINE
  5
1ED
330
1F
100
AcDbEntity
  8
0
  6
Continuous
 62
     7
370
    15
100
AcDbLine
 10
230.5326238788
 20
472.3103258307
 30
0.0
 11
233.5326299585
 21
475.081315964
 31
0.0
  0
LINE
  5
1EE
330
1F
100
AcDbEntity
  8
0
  6
Continuous
 62
     7
370
    15
100
AcDbLine
 10
233.5326299585
 20
475.081315964
 30
0.0
 11
233.5326299585
 21
515.8103320296
 31
0.0
  0
LINE
  5
1EF
330
1F
100
AcDbEntity
  8
0
  6
Continuous
 62
     7
370
    15
100
AcDbLine
 10
233.5326299585
 20
105.0813111956
 30
0.0
 11
233.5326299585
 21
456.5393540556
 31
0.0
  0
LINE
  5
1F0
330
1F
100
AcDbEntity
  8
0
  6
Continuous
 62
     7
370
    15
100
AcDbLine
 10
233.5326299585
 20
86.5393492873
 30
0.0
 11
233.5326299585
 21
45.8103332217
 31
0.0
  0
LINE
  5
1F1
330
1F
100
AcDbEntity
  8
0
  6
Continuous
 62
     7
370
    15
100
AcDbLine
 10
238.5326251901
 20
515.8103320296
 30
0.0
 11
253.5326257861
 21
515.8103320296
 31
0.0
  0
ARC
  5
1F2
330
1F
100
AcDbEntity
  8
0
  6
Continuous
 62
     7
370
    15
100
AcDbCircle
 10
238.5326256192
 20
515.8103326256
 30
0.0
 40
15.00000000000006
100
AcDbArc
 50
0.0
 51
90.0
  0
LINE
  5
1F3
330
1F
100
AcDbEntity
  8
0
  6
Continuous
 62
     7
370
    15
100
AcDbLine
 10
253.5326257861
 20
45.8103332217
 30
0.0
 11
253.5326257861
 21
515.8103320296
 31
0.0
  0
LINE
  5
1F4
330
1F
100
AcDbEntity
  8
0
  6
Continuous
 62
     7
370
    15
100
AcDbLine
 10
238.5326251901
 20
45.8103332217
 30
0.0
 11
253.5326257861
 21
45.8103332217
 31
0.0
  0
LINE
  5
1F5
330
1F
100
AcDbEntity
  8
0
  6
Continuous
 62
     7
370
    15
100
AcDbLine
 10
233.5326299585
 20
30.8103326256
 30
0.0
 11
238.5326251901
 21
30.8103326256
 31
0.0
  0
LINE
  5
1F6
330
1F
100
AcDbEntity
  8
0
  6
Continuous
 62
     7
370
    15
100
AcDbLine
 10
238.5326251901
 20
45.8103332217
 30
0.0
 11
238.5326251901
 21
30.8103326256
 31
0.0
  0
LINE
  5
1F7
330
1F
100
AcDbEntity
  8
0
  6
Continuous
 62
     7
370
    15
100
AcDbLine
 10
233.5326299585
 20
45.8103332217
 30
0.0
 11
233.5326299585
 21
30.8103326256
 31
0.0
  0
ARC
  5
1F8
330
1F
100
AcDbEntity
  8
0
  6
Continuous
 62
     7
370
    15
100
AcDbCircle
 10
238.5326256192
 20
45.8103326256
 30
0.0
 40
15.0
100
AcDbArc
 50
270.0
 51
0.0
  0
SPLINE
  5
1F9
330
1F
100
AcDbEntity
  8
0
  6
Continuous
 62
     7
370
    15
100
AcDbSpline
210
0.0
220
0.0
230
1.0
 70
     8
 71
     3
 72
    16
 73
    12
 74
     0
 42
0.00000001
 43
0.00000001
 40
0.0
 40
0.0
 40
0.0
 40
0.0
 40
0.1207042738131959
 40
0.2414114487279889
 40
0.3621184358952553
 40
0.482825450066651
 40
0.6035322349032569
 40
0.7242361879552779
 40
0.8449443239516976
 40
0.9656514163186455
 40
1.0
 40
1.0
 40
1.0
 40
1.0
 10
211.6849273956587
 20
452.8579625780498
 30
0.0
 10
211.7043284125105
 20
452.8606321270378
 30
0.0
 10
211.7431309125134
 20
452.8659712891757
 30
0.0
 10
211.748052157046
 20
453.156920557923
 30
0.0
 10
211.7108421598674
 20
453.6102579961201
 30
0.0
 10
211.6339256381298
 20
454.1777954391416
 30
0.0
 10
211.5301140260133
 20
454.766114314095
 30
0.0
 10
211.4140002323243
 20
455.292816338681
 30
0.0
 10
211.3070083521204
 20
455.6560891134906
 30
0.0
 10
211.2344323367452
 20
455.826576386386
 30
0.0
 10
211.214880200318
 20
455.7934163134071
 30
0.0
 10
211.2105489290526
 20
455.7860705549632
 30
0.0
  0
SPLINE
  5
1FA
330
1F
100
AcDbEntity
  8
0
  6
Continuous
 62
     7
370
    15
100
AcDbSpline
210
0.0
220
0.0
230
1.0
 70
     8
 71
     3
 72
    16
 73
    12
 74
     0
 42
0.00000001
 43
0.00000001
 40
0.0
 40
0.0
 40
0.0
 40
0.0
 40
0.1205801483811449
 40
0.2411630477309974
 40
0.3617456807763471
 40
0.4823257381238166
 40
0.6029082655695367
 40
0.7234903428186109
 40
0.8440742200332403
 40
0.9646532627467798
 40
1.0
 40
1.0
 40
1.0
 40
1.0
 10
211.8555084384253
 20
478.7339780027781
 30
0.0
 10
211.8749137405184
 20
478.7313084462632
 30
0.0
 10
211.9137247874257
 20
478.7259692723288
 30
0.0
 10
211.9186264836055
 20
478.4350205891707
 30
0.0
 10
211.8814375253323
 20
477.9816842860674
 30
0.0
 10
211.8045031176617
 20
477.4141593410506
 30
0.0
 10
211.7006901496461
 20
476.8258272036958
 30
0.0
 10
211.5845994423296
 20
476.2991691139125
 30
0.0
 10
211.4775718414375
 20
475.9356918700777
 30
0.0
 10
211.4048165953155
 20
475.7651576818047
 30
0.0
 10
211.3851670784734
 20
475.7987351936239
 30
0.0
 10
211.3807127393057
 20
475.8063468630229
 30
0.0
  0
SPLINE
  5
1FB
330
1F
100
AcDbEntity
  8
0
  6
Continuous
 62
     7
370
    15
100
AcDbSpline
210
0.0
220
0.0
230
1.0
 70
     8
 71
     3
 72
    16
 73
    12
 74
     0
 42
0.00000001
 43
0.00000001
 40
0.0
 40
0.0
 40
0.0
 40
0.0
 40
0.1205146181080734
 40
0.2410321327594094
 40
0.3615494599582157
 40
0.4820666181018546
 40
0.6025840090478344
 40
0.7230980118941867
 40
0.843616765466996
 40
0.9641308510853926
 40
1.0
 40
1.0
 40
1.0
 40
1.0
 10
227.225892297106
 20
455.4743829662715
 30
0.0
 10
227.2452932279367
 20
455.4770525310447
 30
0.0
 10
227.2840955558954
 20
455.4823917247535
 30
0.0
 10
227.289018090783
 20
455.7733407567155
 30
0.0
 10
227.2518032104143
 20
456.2266788489209
 30
0.0
 10
227.1749050292024
 20
456.7942129461907
 30
0.0
 10
227.0710689183638
 20
457.3825497090751
 30
0.0
 10
226.9549915574267
 20
457.9091751171902
 30
0.0
 10
226.8479222828971
 20
458.2727414289811
 30
0.0
 10
226.7751109921056
 20
458.4433485422712
 30
0.0
 10
226.7553952261082
 20
458.4095320694166
 30
0.0
 10
226.7508730805685
 20
458.4017756874476
 30
0.0
  0
SPLINE
  5
1FC
330
1F
100
AcDbEntity
  8
0
  6
Continuous
 62
     7
370
    15
100
AcDbSpline
210
0.0
220
0.0
230
1.0
 70
     8
 71
     3
 72
    16
 73
    12
 74
     0
 42
0.00000001
 43
0.00000001
 40
0.0
 40
0.0
 40
0.0
 40
0.0
 40
0.1205177926098628
 40
0.2410324289708117
 40
0.3615495976652971
 40
0.482065037636789
 40
0.6025819797007232
 40
0.7230984964308508
 40
0.8436147687564395
 40
0.9641311569369505
 40
0.9999999999999999
 40
0.9999999999999999
 40
0.9999999999999999
 40
0.9999999999999999
 10
227.3964807904532
 20
476.1175725157176
 30
0.0
 10
227.4158819010831
 20
476.1148982453041
 30
0.0
 10
227.4546836142458
 20
476.1095497745139
 30
0.0
 10
227.4596046623707
 20
475.8185965782882
 30
0.0
 10
227.4223990538596
 20
475.3652610268353
 30
0.0
 10
227.3454672172678
 20
474.7977437114312
 30
0.0
 10
227.2416631359361
 20
474.2094001010213
 30
0.0
 10
227.1255783909742
 20
473.6827751085716
 30
0.0
 10
227.0185201137536
 20
473.3191852628024
 30
0.0
 10
226.9456688559419
 20
473.1486083011764
 30
0.0
 10
226.9259779265762
 20
473.1824238009336
 30
0.0
 10
226.9214615739157
 20
473.1901797945415
 30
0.0
  0
SPLINE
  5
1FD
330
1F
100
AcDbEntity
  8
0
  6
Continuous
 62
     7
370
    15
100
AcDbSpline
210
0.0
220
0.0
230
1.0
 70
    24
 71
     3
 72
    16
 73
    12
 74
     0
 42
0.00000001
 43
0.00000001
 40
0.0
 40
0.0
 40
0.0
 40
0.0
 40
0.0611071491295778
 40
0.1864711554396543
 40
0.3118333742869777
 40
0.4371957719142286
 40
0.5625572265557508
 40
0.6879224398113394
 40
0.8132846586586627
 40
0.9386470562859137
 40
1.0
 40
1.0
 40
1.0
 40
1.0
 10
230.3028181708625
 20
458.9441034490977
 30
0.0
 10
230.3085848286149
 20
458.9441034490977
 30
0.0
 10
230.3261820385885
 20
458.9441034490977
 30
0.0
 10
230.1077909321794
 20
458.9441034490977
 30
0.0
 10
229.6950148791432
 20
458.9441034490978
 30
0.0
 10
229.1385625410445
 20
458.9441034490977
 30
0.0
 10
228.5394555890641
 20
458.9441034490977
 30
0.0
 10
227.9807492554715
 20
458.9441034490977
 30
0.0
 10
227.5638107634463
 20
458.9441034490977
 30
0.0
 10
227.3408194027491
 20
458.9441034490977
 30
0.0
 10
227.3556171736155
 20
458.9441034490977
 30
0.0
 10
227.3604795850089
 20
458.9441034490977
 30
0.0
  0
SPLINE
  5
1FE
330
1F
100
AcDbEntity
  8
0
  6
Continuous
 62
     7
370
    15
100
AcDbSpline
210
0.0
220
0.0
230
1.0
 70
    24
 71
     3
 72
    16
 73
    12
 74
     0
 42
0.00000001
 43
0.00000001
 40
0.0
 40
0.0
 40
0.0
 40
0.0
 40
0.0610095893915384
 40
0.1861734476045528
 40
0.3113355212085618
 40
0.43649777330707
 40
0.5616590839253597
 40
0.6868241471569546
 40
0.8119862207609637
 40
0.9371484728594719
 40
1.0
 40
1.0
 40
1.0
 40
1.0
 10
230.3028181708624
 20
472.5027296240245
 30
0.0
 10
230.308584822406
 20
472.5027296240245
 30
0.0
 10
230.326182013433
 20
472.5027296240245
 30
0.0
 10
230.1077911653977
 20
472.5027296240245
 30
0.0
 10
229.695014024679
 20
472.5027296240245
 30
0.0
 10
229.138565725683
 20
472.5027296240245
 30
0.0
 10
228.5394437049226
 20
472.5027296240246
 30
0.0
 10
227.9807936084297
 20
472.5027296240245
 30
0.0
 10
227.5636452404987
 20
472.5027296240245
 30
0.0
 10
227.3401645541372
 20
472.5027296240245
 30
0.0
 10
227.355367543093
 20
472.5027296240245
 30
0.0
 10
227.3604497826865
 20
472.5027296240245
 30
0.0
  0
SPLINE
  5
1FF
330
1F
100
AcDbEntity
  8
0
  6
Continuous
 62
     7
370
    15
100
AcDbSpline
210
0.0
220
0.0
230
1.0
 70
     8
 71
     3
 72
    19
 73
    15
 74
     0
 42
0.00000001
 43
0.00000001
 40
0.0
 40
0.0
 40
0.0
 40
0.0
 40
0.003954928517458
 40
0.1157672088822367
 40
0.2280459358041809
 40
0.3355207575953006
 40
0.4377102182766925
 40
0.5348860157013597
 40
0.6282995569216387
 40
0.7302915180829189
 40
0.8413280826380396
 40
0.9641213567352973
 40
0.9937658239335627
 40
1.0
 40
1.0
 40
1.0
 40
1.0
 10
216.6308984673788
 20
471.4103254969035
 30
0.0
 10
216.6312932565066
 20
471.4103235239418
 30
0.0
 10
216.6428493782451
 20
471.4102657721331
 30
0.0
 10
216.6660774342851
 20
471.3949913869404
 30
0.0
 10
216.7095795561826
 20
471.328145582539
 30
0.0
 10
216.74755456396
 20
471.223433565777
 30
0.0
 10
216.7710504179774
 20
471.0983597925746
 30
0.0
 10
216.782375028073
 20
470.9699233009479
 30
0.0
 10
216.7829844772249
 20
470.8487580548636
 30
0.0
 10
216.7671985410423
 20
470.7395169302227
 30
0.0
 10
216.7268198045098
 20
470.6501183887783
 30
0.0
 10
216.6749584073928
 20
470.6150206789916
 30
0.0
 10
216.6402512138588
 20
470.6104662361353
 30
0.0
 10
216.6322830022827
 20
470.6103474890602
 30
0.0
 10
216.6308984673788
 20
470.6103268558894
 30
0.0
  0
SPLINE
  5
200
330
1F
100
AcDbEntity
  8
0
  6
Continuous
 62
     7
370
    15
100
AcDbSpline
210
0.0
220
0.0
230
1.0
 70
     8
 71
     3
 72
    30
 73
    26
 74
     0
 42
0.00000001
 43
0.00000001
 40
0.0
 40
0.0
 40
0.0
 40
0.0
 40
0.1247086616182521
 40
0.2494195867643993
 40
0.3741256091584044
 40
0.4367848295856032
 40
0.4681534882833752
 40
0.4838406697802528
 40
0.4916864310521751
 40
0.4956114192420822
 40
0.4975721316888587
 40
0.4985511495907321
 40
0.4990392811720276
 40
0.4992847223999398
 40
0.4994090210176326
 40
0.4994755756150559
 40
0.4995053397358666
 40
0.4995221768651956
 40
0.499540035337682
 40
0.5609207783918303
 40
0.6646221179092631
 40
0.7325855655939886
 40
0.8111481432910701
 40
0.9002984832037224
 40
1.0
 40
1.0
 40
1.0
 40
1.0
 10
216.7026028550436
 20
471.4702281649028
 30
0.0
 10
216.7083679417514
 20
471.4684370352572
 30
0.0
 10
216.7198982198062
 20
471.4648547434561
 30
0.0
 10
216.8097330265341
 20
471.4429947633687
 30
0.0
 10
216.9172236295434
 20
471.4173491026114
 30
0.0
 10
217.0027675768915
 20
471.3968935424892
 30
0.0
 10
217.0468719719991
 20
471.3863896425232
 30
0.0
 10
217.0690964052092
 20
471.381057552853
 30
0.0
 10
217.0802316281822
 20
471.3784004509074
 30
0.0
 10
217.0858025029538
 20
471.3770683537345
 30
0.0
 10
217.0885846862248
 20
471.3763882195018
 30
0.0
 10
217.0899738494034
 20
471.3760493538555
 30
0.0
 10
217.090672666441
 20
471.3758991798738
 30
0.0
 10
217.0910199663104
 20
471.3758136896939
 30
0.0
 10
217.0911957042084
 20
471.3757645585389
 30
0.0
 10
217.0912810936825
 20
471.3757308494345
 30
0.0
 10
217.0913354988794
 20
471.3757496652162
 30
0.0
 10
217.0913501594256
 20
471.3757199894241
 30
0.0
 10
217.1193870771147
 20
471.3815780416714
 30
0.0
 10
217.181145888485
 20
471.3454448981884
 30
0.0
 10
217.2750784083811
 20
471.3375772883952
 30
0.0
 10
217.3579690229612
 20
471.317821724756
 30
0.0
 10
217.4216957215625
 20
471.3056391774326
 30
0.0
 10
217.4721454414951
 20
471.2957845502681
 30
0.0
 10
217.4793854044618
 20
471.2953526401888
 30
0.0
 10
217.4832076347639
 20
471.2951246197139
 30
0.0
  0
ELLIPSE
  5
201
330
1F
100
AcDbEntity
  8
0
  6
Continuous
 62
     7
370
    15
100
AcDbEllipse
 10
217.359734013
 20
472.5923078044
 30
0.0
 11
0.3906095144045878
 21
-0.08616383961157226
 31
0.0
210
0.0
220
0.0
230
1.0
 40
0.0142285888
 41
0.0
 42
6.283185307179586
  0
LINE
  5
202
330
1F
100
AcDbEntity
  8
0
  6
Continuous
 62
     7
370
    15
100
AcDbLine
 10
216.743551246
 20
91.110325187
 30
0.0
 11
216.743551246
 21
99.7103366549
 31
0.0
  0
LINE
  5
203
330
1F
100
AcDbEntity
  8
0
  6
Continuous
 62
     7
370
    15
100
AcDbLine
 10
216.743551246
 20
91.110325187
 30
0.0
 11
211.2292573369
 21
91.110325187
 31
0.0
  0
LINE
  5
204
330
1F
100
AcDbEntity
  8
0
  6
Continuous
 62
     7
370
    15
100
AcDbLine
 10
211.2292573369
 20
91.110325187
 30
0.0
 11
211.2292573369
 21
99.7103366549
 31
0.0
  0
LINE
  5
205
330
1F
100
AcDbEntity
  8
0
  6
Continuous
 62
     7
370
    15
100
AcDbLine
 10
216.743551246
 20
99.7103366549
 30
0.0
 11
211.2292573369
 21
99.7103366549
 31
0.0
  0
LINE
  5
206
330
1F
100
AcDbEntity
  8
0
  6
Continuous
 62
     7
370
    15
100
AcDbLine
 10
210.1150006569
 20
103.0103329117
 30
0.0
 11
185.3028908885
 21
103.0103329117
 31
0.0
  0
LINE
  5
207
330
1F
100
AcDbEntity
  8
0
  6
Continuous
 62
     7
370
    15
100
AcDbLine
 10
210.1150006569
 20
99.7103366549
 30
0.0
 11
210.1150006569
 21
103.0103329117
 31
0.0
  0
LINE
  5
208
330
1F
100
AcDbEntity
  8
0
  6
Continuous
 62
     7
370
    15
100
AcDbLine
 10
210.1150006569
 20
88.6103275711
 30
0.0
 11
210.1150006569
 21
91.110325187
 31
0.0
  0
LINE
  5
209
330
1F
100
AcDbEntity
  8
0
  6
Continuous
 62
     7
370
    15
100
AcDbLine
 10
185.3028908885
 20
88.6103275711
 30
0.0
 11
210.1150006569
 21
88.6103275711
 31
0.0
  0
LINE
  5
20A
330
1F
100
AcDbEntity
  8
0
  6
Continuous
 62
     7
370
    15
100
AcDbLine
 10
185.3028908885
 20
88.6103275711
 30
0.0
 11
185.3028908885
 21
103.0103329117
 31
0.0
  0
LINE
  5
20B
330
1F
100
AcDbEntity
  8
0
  6
Continuous
 62
     7
370
    15
100
AcDbLine
 10
210.1150006569
 20
99.7103366549
 30
0.0
 11
211.2292573369
 21
99.7103366549
 31
0.0
  0
LINE
  5
20C
330
1F
100
AcDbEntity
  8
0
  6
Continuous
 62
     7
370
    15
100
AcDbLine
 10
210.1150006569
 20
91.110325187
 30
0.0
 11
211.2292573369
 21
91.110325187
 31
0.0
  0
LINE
  5
20D
330
1F
100
AcDbEntity
  8
0
  6
Continuous
 62
     7
370
    15
100
AcDbLine
 10
210.2426291025
 20
87.8129813368
 30
0.0
 11
212.1348605073
 21
87.8129813368
 31
0.0
  0
LINE
  5
20E
330
1F
100
AcDbEntity
  8
0
  6
Continuous
 62
     7
370
    15
100
AcDbLine
 10
212.1348605073
 20
87.8129813368
 30
0.0
 11
212.8076106823
 21
87.8103289301
 31
0.0
  0
LINE
  5
20F
330
1F
100
AcDbEntity
  8
0
  6
Continuous
 62
     7
370
    15
100
AcDbLine
 10
212.8076106823
 20
87.8103289301
 30
0.0
 11
185.4418144143
 21
87.8103289301
 31
0.0
  0
ARC
  5
210
330
1F
100
AcDbEntity
  8
0
  6
Continuous
 62
     7
370
    15
100
AcDbCircle
 10
186.5588661249
 20
88.4163718946
 30
0.0
 40
1.270862934734449
100
AcDbArc
 50
171.2213661736
 51
208.4815118367
  0
ARC
  5
211
330
1F
100
AcDbEntity
  8
0
  6
Continuous
 62
     7
370
    15
100
AcDbCircle
 10
211.5892621947
 20
88.4374198627
 30
0.0
 40
1.484366584631196
100
AcDbArc
 50
173.310665776
 51
204.8773215644
  0
LINE
  5
212
330
1F
100
AcDbEntity
  8
0
  6
Continuous
 62
     7
370
    15
100
AcDbLine
 10
212.1348605073
 20
103.807679146
 30
0.0
 11
210.2426291025
 21
103.807679146
 31
0.0
  0
ARC
  5
213
330
1F
100
AcDbEntity
  8
0
  6
Continuous
 62
     7
370
    15
100
AcDbCircle
 10
211.5892336523
 20
103.1832451889
 30
0.0
 40
1.484338768683186
100
AcDbArc
 50
155.122374946
 51
186.6896377137
  0
ARC
  5
214
330
1F
100
AcDbEntity
  8
0
  6
Continuous
 62
     7
370
    15
100
AcDbCircle
 10
186.5588661249
 20
103.2042885883
 30
0.0
 40
1.270862934734455
100
AcDbArc
 50
151.5184881633
 51
188.7786338264
  0
LINE
  5
215
330
1F
100
AcDbEntity
  8
0
  6
Continuous
 62
     7
370
    15
100
AcDbLine
 10
185.4418144143
 20
103.8103315527
 30
0.0
 11
212.8076106823
 21
103.8103315527
 31
0.0
  0
LINE
  5
216
330
1F
100
AcDbEntity
  8
0
  6
Continuous
 62
     7
370
    15
100
AcDbLine
 10
212.8076106823
 20
103.8103315527
 30
0.0
 11
212.1348605073
 21
103.807679146
 31
0.0
  0
LINE
  5
217
330
1F
100
AcDbEntity
  8
0
  6
Continuous
 62
     7
370
    15
100
AcDbLine
 10
210.2426291025
 20
87.8129813368
 30
0.0
 11
210.2426291025
 21
88.6103275711
 31
0.0
  0
LINE
  5
218
330
1F
100
AcDbEntity
  8
0
  6
Continuous
 62
     7
370
    15
100
AcDbLine
 10
210.2539241827
 20
91.110325187
 30
0.0
 11
210.2539241827
 21
88.6103275711
 31
0.0
  0
LINE
  5
219
330
1F
100
AcDbEntity
  8
0
  6
Continuous
 62
     7
370
    15
100
AcDbLine
 10
210.2426291025
 20
103.0103329117
 30
0.0
 11
210.2426291025
 21
103.807679146
 31
0.0
  0
LINE
  5
21A
330
1F
100
AcDbEntity
  8
0
  6
Continuous
 62
     7
370
    15
100
AcDbLine
 10
210.2539241827
 20
103.0103329117
 30
0.0
 11
210.2539241827
 21
99.7103366549
 31
0.0
  0
LINE
  5
21B
330
1F
100
AcDbEntity
  8
0
  6
Continuous
 62
     7
370
    15
100
AcDbLine
 10
216.2426263607
 20
87.8103289301
 30
0.0
 11
212.8076106823
 21
87.8103289301
 31
0.0
  0
LINE
  5
21C
330
1F
100
AcDbEntity
  8
0
  6
Continuous
 62
     7
370
    15
100
AcDbLine
 10
212.1348605073
 20
87.8129813368
 30
0.0
 11
212.1348605073
 21
88.6103275711
 31
0.0
  0
LINE
  5
21D
330
1F
100
AcDbEntity
  8
0
  6
Continuous
 62
     7
370
    15
100
AcDbLine
 10
216.2426263607
 20
88.6103275711
 30
0.0
 11
212.1348605073
 21
88.6103275711
 31
0.0
  0
LINE
  5
21E
330
1F
100
AcDbEntity
  8
0
  6
Continuous
 62
     7
370
    15
100
AcDbLine
 10
212.1348605073
 20
103.0103329117
 30
0.0
 11
212.1348605073
 21
103.807679146
 31
0.0
  0
LINE
  5
21F
330
1F
100
AcDbEntity
  8
0
  6
Continuous
 62
     7
370
    15
100
AcDbLine
 10
216.2426263607
 20
103.8103315527
 30
0.0
 11
212.8076106823
 21
103.8103315527
 31
0.0
  0
LINE
  5
220
330
1F
100
AcDbEntity
  8
0
  6
Continuous
 62
     7
370
    15
100
AcDbLine
 10
216.2426263607
 20
103.0103329117
 30
0.0
 11
212.1348605073
 21
103.0103329117
 31
0.0
  0
LINE
  5
221
330
1F
100
AcDbEntity
  8
0
  6
Continuous
 62
     7
370
    15
100
AcDbLine
 10
210.2426291025
 20
103.0103329117
 30
0.0
 11
212.1348605073
 21
103.0103329117
 31
0.0
  0
LINE
  5
222
330
1F
100
AcDbEntity
  8
0
  6
Continuous
 62
     7
370
    15
100
AcDbLine
 10
210.2426291025
 20
88.6103275711
 30
0.0
 11
212.1348605073
 21
88.6103275711
 31
0.0
  0
LINE
  5
223
330
1F
100
AcDbEntity
  8
0
  6
Continuous
 62
     7
370
    15
100
AcDbLine
 10
211.3126293338
 20
104.1103366311
 30
0.0
 11
215.71262931
 21
104.1103366311
 31
0.0
  0
LINE
  5
224
330
1F
100
AcDbEntity
  8
0
  6
Continuous
 62
     7
370
    15
100
AcDbLine
 10
211.412623576
 20
87.4103370602
 30
0.0
 11
215.6126276172
 21
87.4103370602
 31
0.0
  0
LINE
  5
225
330
1F
100
AcDbEntity
  8
0
  6
Continuous
 62
     7
370
    15
100
AcDbLine
 10
211.412623576
 20
87.0103302891
 30
0.0
 11
215.6126276172
 21
87.0103302891
 31
0.0
  0
ARC
  5
226
330
1F
100
AcDbEntity
  8
0
  6
Continuous
 62
     7
370
    15
100
AcDbCircle
 10
193.7085427791
 20
95.8103302414
 30
0.0
 40
16.90401408232907
100
AcDbArc
 50
154.7901718738
 51
205.2098281262
  0
SPLINE
  5
227
330
1F
100
AcDbEntity
  8
0
  6
Continuous
 62
     7
370
    15
100
AcDbSpline
210
0.0
220
0.0
230
1.0
 70
     8
 71
     3
 72
    12
 73
     8
 74
     0
 42
0.00000001
 43
0.00000001
 40
0.0
 40
0.0
 40
0.0
 40
0.0
 40
0.1818733417761793
 40
0.3633454216084013
 40
0.5550836161874682
 40
0.771267585233913
 40
1.0
 40
1.0
 40
1.0
 40
1.0
 10
178.5469428218176
 20
87.81032893013108
 30
0.0
 10
178.5708041712165
 20
87.81765262684016
 30
0.0
 10
178.6184742254025
 20
87.8322838621961
 30
0.0
 10
178.6332034826239
 20
87.94427091808407
 30
0.0
 10
178.6059876014511
 20
88.11367225357026
 30
0.0
 10
178.5343064579444
 20
88.34207757296136
 30
0.0
 10
178.4552245338358
 20
88.51924528913851
 30
0.0
 10
178.4145683563521
 20
88.61032757114518
 30
0.0
  0
LINE
  5
228
330
1F
100
AcDbEntity
  8
0
  6
Continuous
 62
     7
370
    15
100
AcDbLine
 10
178.16258227
 20
88.564834326
 30
0.0
 11
178.5170212901
 21
87.8103289301
 31
0.0
  0
ARC
  5
229
330
1F
100
AcDbEntity
  8
0
  6
Continuous
 62
     7
370
    15
100
AcDbCircle
 10
193.433210963
 20
95.8103302414
 30
0.0
 40
16.90234633834254
100
AcDbArc
 50
154.616938827
 51
205.383061173
  0
LINE
  5
22A
330
1F
100
AcDbEntity
  8
0
  6
Continuous
 62
     7
370
    15
100
AcDbLine
 10
178.5170212901
 20
103.8103315527
 30
0.0
 11
178.16258227
 21
103.0558261568
 31
0.0
  0
SPLINE
  5
22B
330
1F
100
AcDbEntity
  8
0
  6
Continuous
 62
     7
370
    15
100
AcDbSpline
210
0.0
220
0.0
230
1.0
 70
     8
 71
     3
 72
    12
 73
     8
 74
     0
 42
0.00000001
 43
0.00000001
 40
0.0
 40
0.0
 40
0.0
 40
0.0
 40
0.2510252792808068
 40
0.502395842462116
 40
0.7402770312516813
 40
0.9473075742685327
 40
1.0
 40
1.0
 40
1.0
 40
1.0
 10
178.4145683563521
 20
103.0103329117213
 30
0.0
 10
178.458885881741
 20
103.1102174966643
 30
0.0
 10
178.5475818910331
 20
103.3101240572514
 30
0.0
 10
178.62257779983
 20
103.5688530770592
 30
0.0
 10
178.6340709324977
 20
103.7460859492173
 30
0.0
 10
178.5924251912422
 20
103.8065465342216
 30
0.0
 10
178.5546139430726
 20
103.809693166118
 30
0.0
 10
178.5469428218176
 20
103.8103315527354
 30
0.0
  0
LINE
  5
22C
330
1F
100
AcDbEntity
  8
0
  6
Continuous
 62
     7
370
    15
100
AcDbLine
 10
178.5469428218
 20
103.8103315527
 30
0.0
 11
178.5170212901
 21
103.8103315527
 31
0.0
  0
LINE
  5
22D
330
1F
100
AcDbEntity
  8
0
  6
Continuous
 62
     7
370
    15
100
AcDbLine
 10
178.5469428218
 20
87.8103289301
 30
0.0
 11
178.5170212901
 21
87.8103289301
 31
0.0
  0
LINE
  5
22E
330
1F
100
AcDbEntity
  8
0
  6
Continuous
 62
     7
370
    15
100
AcDbLine
 10
180.4040447391
 20
103.0103329117
 30
0.0
 11
178.4145683564
 21
103.0103329117
 31
0.0
  0
LINE
  5
22F
330
1F
100
AcDbEntity
  8
0
  6
Continuous
 62
     7
370
    15
100
AcDbLine
 10
180.4040447391
 20
88.6103275711
 30
0.0
 11
180.4040447391
 21
103.0103329117
 31
0.0
  0
LINE
  5
230
330
1F
100
AcDbEntity
  8
0
  6
Continuous
 62
     7
370
    15
100
AcDbLine
 10
178.4145683564
 20
88.6103275711
 30
0.0
 11
180.4040447391
 21
88.6103275711
 31
0.0
  0
LWPOLYLINE
  5
231
330
1F
100
AcDbEntity
  8
0
  6
Continuous
 62
     7
370
    15
100
AcDbPolyline
 90
        9
 70
   128
 43
0.0
 10
180.4040447391
 20
103.0103329117
 10
180.3987846292
 20
103.1664076741
 10
180.3832129157
 20
103.3164772684
 10
180.3579330958
 20
103.4547898467
 10
180.3239062942
 20
103.576010793
 10
180.2824438132
 20
103.6755058463
 10
180.2351326264
 20
103.7494305069
 10
180.1838055766
 20
103.7949535544
 10
180.1304296172
 20
103.8103315527
  0
LINE
  5
232
330
1F
100
AcDbEntity
  8
0
  6
Continuous
 62
     7
370
    15
100
AcDbLine
 10
178.5469428218
 20
103.8103315527
 30
0.0
 11
180.1304296172
 21
103.8103315527
 31
0.0
  0
LWPOLYLINE
  5
233
330
1F
100
AcDbEntity
  8
0
  6
Continuous
 62
     7
370
    15
100
AcDbPolyline
 90
        9
 70
   128
 43
0.0
 10
180.4040447391
 20
88.6103275711
 10
180.3987846292
 20
88.45426771
 10
180.3832129157
 20
88.3041832144
 10
180.3579330958
 20
88.1658706362
 10
180.3239062942
 20
88.0446496899
 10
180.2824438132
 20
87.9451546366
 10
180.2351326264
 20
87.8712299759
 10
180.1838055766
 20
87.8257069285
 10
180.1304296172
 20
87.8103289301
  0
LINE
  5
234
330
1F
100
AcDbEntity
  8
0
  6
Continuous
 62
     7
370
    15
100
AcDbLine
 10
180.1304296172
 20
87.8103289301
 30
0.0
 11
178.5469428218
 21
87.8103289301
 31
0.0
  0
LINE
  5
235
330
1F
100
AcDbEntity
  8
0
  6
Continuous
 62
     7
370
    15
100
AcDbLine
 10
180.4040447391
 20
88.6103275711
 30
0.0
 11
185.3028908885
 21
88.6103275711
 31
0.0
  0
LINE
  5
236
330
1F
100
AcDbEntity
  8
0
  6
Continuous
 62
     7
370
    15
100
AcDbLine
 10
185.4418144143
 20
87.8103289301
 30
0.0
 11
180.1304296172
 21
87.8103289301
 31
0.0
  0
LINE
  5
237
330
1F
100
AcDbEntity
  8
0
  6
Continuous
 62
     7
370
    15
100
AcDbLine
 10
185.3028908885
 20
103.0103329117
 30
0.0
 11
180.4040447391
 21
103.0103329117
 31
0.0
  0
LINE
  5
238
330
1F
100
AcDbEntity
  8
0
  6
Continuous
 62
     7
370
    15
100
AcDbLine
 10
180.1304296172
 20
103.8103315527
 30
0.0
 11
185.4418144143
 21
103.8103315527
 31
0.0
  0
SPLINE
  5
239
330
1F
100
AcDbEntity
  8
0
  6
Continuous
 62
     7
370
    15
100
AcDbSpline
210
0.0
220
0.0
230
1.0
 70
     8
 71
     3
 72
    16
 73
    12
 74
     0
 42
0.00000001
 43
0.00000001
 40
0.0
 40
0.0
 40
0.0
 40
0.0
 40
0.1207046623740796
 40
0.2414119361454772
 40
0.3621190221691944
 40
0.4828232368669746
 40
0.6035301205598657
 40
0.7242368490543083
 40
0.8449450839081195
 40
0.9656513881878872
 40
1.0
 40
1.0
 40
1.0
 40
1.0
 10
211.6849273956587
 20
82.8579578096782
 30
0.0
 10
211.7043284275653
 20
82.860633595889
 30
0.0
 10
211.743130911112
 20
82.86598522620014
 30
0.0
 10
211.748051985886
 20
83.15692953816949
 30
0.0
 10
211.7108431397824
 20
83.61026507363376
 30
0.0
 10
211.6339244710892
 20
84.17779489009297
 30
0.0
 10
211.5301124997131
 20
84.76611300791708
 30
0.0
 10
211.4140018424312
 20
85.29282316366977
 30
0.0
 10
211.3070086136145
 20
85.65610389612246
 30
0.0
 10
211.2344321772248
 20
85.82657039250063
 30
0.0
 10
211.2148801916714
 20
85.7934113571856
 30
0.0
 10
211.2105489290526
 20
85.78606578659165
 30
0.0
  0
SPLINE
  5
23A
330
1F
100
AcDbEntity
  8
0
  6
Continuous
 62
     7
370
    15
100
AcDbSpline
210
0.0
220
0.0
230
1.0
 70
     8
 71
     3
 72
    16
 73
    12
 74
     0
 42
0.00000001
 43
0.00000001
 40
0.0
 40
0.0
 40
0.0
 40
0.0
 40
0.1205804028921054
 40
0.2411632673443268
 40
0.3617458654921225
 40
0.4823258879427835
 40
0.6029083804909801
 40
0.7234904228426613
 40
0.8440742651593766
 40
0.9646532729764011
 40
1.0
 40
1.0
 40
1.0
 40
1.0
 10
211.8555084384253
 20
108.7339881355678
 30
0.0
 10
211.8749137403517
 20
108.7313123481544
 30
0.0
 10
211.9137247403493
 20
108.7259607187033
 30
0.0
 10
211.9186264951688
 20
108.4350168974323
 30
0.0
 10
211.881437522234
 20
107.9816792292198
 30
0.0
 10
211.8045031184919
 20
107.4141546499779
 30
0.0
 10
211.7006901494236
 20
106.8258224146084
 30
0.0
 10
211.5845994423893
 20
106.2991643511049
 30
0.0
 10
211.477571841421
 20
105.9356871001661
 30
0.0
 10
211.4048165953164
 20
105.7651529135254
 30
0.0
 10
211.3851670784737
 20
105.7987304252694
 30
0.0
 10
211.3807127393057
 20
105.8063420946513
 30
0.0
  0
SPLINE
  5
23B
330
1F
100
AcDbEntity
  8
0
  6
Continuous
 62
     7
370
    15
100
AcDbSpline
210
0.0
220
0.0
230
1.0
 70
     8
 71
     3
 72
    16
 73
    12
 74
     0
 42
0.00000001
 43
0.00000001
 40
0.0
 40
0.0
 40
0.0
 40
0.0
 40
0.1205151312322554
 40
0.2410328697613979
 40
0.3615504208376626
 40
0.4820649090746249
 40
0.6025825238981815
 40
0.7230994230080197
 40
0.8436164749636975
 40
0.9641307844535307
 40
1.0
 40
1.0
 40
1.0
 40
1.0
 10
227.225892297106
 20
85.47437819789994
 30
0.0
 10
227.2452932426995
 20
85.4770539976924
 30
0.0
 10
227.2840955536183
 20
85.4824056551671
 30
0.0
 10
227.2890179231225
 20
85.77334976340647
 30
0.0
 10
227.2518041772446
 20
86.22668582725521
 30
0.0
 10
227.1749039107756
 20
86.79421276741076
 30
0.0
 10
227.0710672101664
 20
87.38254702158171
 30
0.0
 10
226.9549944644855
 20
87.90918429172226
 30
0.0
 10
226.8479208669749
 20
88.27273442135593
 30
0.0
 10
226.7751110475766
 20
88.44334398280334
 30
0.0
 10
226.7553952364576
 20
88.40952734002092
 30
0.0
 10
226.7508730805685
 20
88.40177091907609
 30
0.0
  0
SPLINE
  5
23C
330
1F
100
AcDbEntity
  8
0
  6
Continuous
 62
     7
370
    15
100
AcDbSpline
210
0.0
220
0.0
230
1.0
 70
     8
 71
     3
 72
    16
 73
    12
 74
     0
 42
0.00000001
 43
0.00000001
 40
0.0
 40
0.0
 40
0.0
 40
0.0
 40
0.12051774033532
 40
0.2410309044108987
 40
0.3615480208311119
 40
0.4820663022704323
 40
0.6025831920601926
 40
0.7230996565163307
 40
0.8436139510406299
 40
0.9641311724950465
 40
1.0
 40
1.0
 40
1.0
 40
1.0
 10
227.3964807904532
 20
106.117567747346
 30
0.0
 10
227.4158818946753
 20
106.1148922602145
 30
0.0
 10
227.4546833664271
 20
106.1095413875442
 30
0.0
 10
227.459604805239
 20
105.8186092509945
 30
0.0
 10
227.4223979692609
 20
105.3652668029761
 30
0.0
 10
227.3454686850622
 20
104.7977428952349
 30
0.0
 10
227.2416627965638
 20
104.2093968163715
 30
0.0
 10
227.1255797297263
 20
103.6827679668154
 30
0.0
 10
227.0185184251756
 20
103.3192022709084
 30
0.0
 10
226.9456690736478
 20
103.1486020421832
 30
0.0
 10
226.9259779463906
 20
103.182418790183
 30
0.0
 10
226.9214615739157
 20
103.1901750261699
 30
0.0
  0
SPLINE
  5
23D
330
1F
100
AcDbEntity
  8
0
  6
Continuous
 62
     7
370
    15
100
AcDbSpline
210
0.0
220
0.0
230
1.0
 70
    24
 71
     3
 72
    16
 73
    12
 74
     0
 42
0.00000001
 43
0.00000001
 40
0.0
 40
0.0
 40
0.0
 40
0.0
 40
0.0611071491295778
 40
0.1864711554396543
 40
0.3118333742869777
 40
0.4371957719142286
 40
0.5625572265557508
 40
0.6879224398113394
 40
0.8132846586586627
 40
0.9386470562859137
 40
1.0
 40
1.0
 40
1.0
 40
1.0
 10
230.3028181708625
 20
88.94409868072614
 30
0.0
 10
230.3085848286149
 20
88.94409868072617
 30
0.0
 10
230.3261820385885
 20
88.94409868072614
 30
0.0
 10
230.1077909321794
 20
88.94409868072626
 30
0.0
 10
229.6950148791432
 20
88.94409868072606
 30
0.0
 10
229.1385625410445
 20
88.9440986807262
 30
0.0
 10
228.5394555890641
 20
88.9440986807262
 30
0.0
 10
227.9807492554715
 20
88.94409868072614
 30
0.0
 10
227.5638107634463
 20
88.94409868072617
 30
0.0
 10
227.3408194027491
 20
88.94409868072617
 30
0.0
 10
227.3556171736155
 20
88.94409868072617
 30
0.0
 10
227.3604795850089
 20
88.94409868072614
 30
0.0
  0
SPLINE
  5
23E
330
1F
100
AcDbEntity
  8
0
  6
Continuous
 62
     7
370
    15
100
AcDbSpline
210
0.0
220
0.0
230
1.0
 70
    24
 71
     3
 72
    16
 73
    12
 74
     0
 42
0.00000001
 43
0.00000001
 40
0.0
 40
0.0
 40
0.0
 40
0.0
 40
0.0610095893915384
 40
0.1861734476045528
 40
0.3113355212085618
 40
0.43649777330707
 40
0.5616590839253597
 40
0.6868241471569546
 40
0.8119862207609637
 40
0.9371484728594719
 40
1.0
 40
1.0
 40
1.0
 40
1.0
 10
230.3028181708624
 20
102.5027248556529
 30
0.0
 10
230.308584822406
 20
102.5027248556529
 30
0.0
 10
230.326182013433
 20
102.5027248556529
 30
0.0
 10
230.1077911653977
 20
102.5027248556529
 30
0.0
 10
229.695014024679
 20
102.502724855653
 30
0.0
 10
229.138565725683
 20
102.5027248556529
 30
0.0
 10
228.5394437049226
 20
102.5027248556529
 30
0.0
 10
227.9807936084297
 20
102.502724855653
 30
0.0
 10
227.5636452404987
 20
102.5027248556529
 30
0.0
 10
227.3401645541372
 20
102.502724855653
 30
0.0
 10
227.355367543093
 20
102.5027248556529
 30
0.0
 10
227.3604497826865
 20
102.5027248556529
 30
0.0
  0
SPLINE
  5
23F
330
1F
100
AcDbEntity
  8
0
  6
Continuous
 62
     7
370
    15
100
AcDbSpline
210
0.0
220
0.0
230
1.0
 70
     8
 71
     3
 72
    19
 73
    15
 74
     0
 42
0.00000001
 43
0.00000001
 40
0.0
 40
0.0
 40
0.0
 40
0.0
 40
0.0039549877534883
 40
0.1157675200006728
 40
0.2280464998557988
 40
0.3355215637582196
 40
0.4377005810613949
 40
0.5348765973964855
 40
0.6283012741179353
 40
0.7302840589171755
 40
0.8413278422611192
 40
0.9641213929779504
 40
0.993765926957071
 40
1.0
 40
1.0
 40
1.0
 40
1.0
 10
216.6308984673788
 20
101.4103356296932
 30
0.0
 10
216.6312932564199
 20
101.4103285923102
 30
0.0
 10
216.6428492335938
 20
101.4101225991645
 30
0.0
 10
216.6660774275456
 20
101.3950495833756
 30
0.0
 10
216.7095797841737
 20
101.3281248033945
 30
0.0
 10
216.7475524623193
 20
101.2234358484791
 30
0.0
 10
216.7710519158217
 20
101.0983646544439
 30
0.0
 10
216.7823748192368
 20
100.9699302546193
 30
0.0
 10
216.7829858011958
 20
100.8487572969146
 30
0.0
 10
216.767195676288
 20
100.7395305641245
 30
0.0
 10
216.7268222682874
 20
100.650096312868
 30
0.0
 10
216.67495813831
 20
100.6150551862447
 30
0.0
 10
216.6402513542549
 20
100.6104397615922
 30
0.0
 10
216.6322830047642
 20
100.610352202478
 30
0.0
 10
216.6308984673788
 20
100.6103369886791
 30
0.0
  0
SPLINE
  5
240
330
1F
100
AcDbEntity
  8
0
  6
Continuous
 62
     7
370
    15
100
AcDbSpline
210
0.0
220
0.0
230
1.0
 70
     8
 71
     3
 72
    30
 73
    26
 74
     0
 42
0.00000001
 43
0.00000001
 40
0.0
 40
0.0
 40
0.0
 40
0.0
 40
0.1247090451119846
 40
0.249420353758825
 40
0.3741267596384465
 40
0.4367835271034138
 40
0.468155018204278
 40
0.4838422479410749
 40
0.4916880333396316
 40
0.4956130335993368
 40
0.4975709668342042
 40
0.4985499877466723
 40
0.4990408717120179
 40
0.4992863136946907
 40
0.4994077283343087
 40
0.4994742831363951
 40
0.499506340174155
 40
0.4995182458590905
 40
0.4995397091378428
 40
0.5609180394937028
 40
0.6646196979048935
 40
0.7325853181538022
 40
0.8111465902982206
 40
0.9002981766098876
 40
1.0
 40
1.0
 40
1.0
 40
1.0
 10
216.7026028550436
 20
101.4702233965312
 30
0.0
 10
216.708367820973
 20
101.4684317336245
 30
0.0
 10
216.719897857469
 20
101.4648483752915
 30
0.0
 10
216.8097344758899
 20
101.4429963942001
 30
0.0
 10
216.9172184252106
 20
101.4173255968372
 30
0.0
 10
217.0027725611391
 20
101.3969155282046
 30
0.0
 10
217.0468708044818
 20
101.3863848506245
 30
0.0
 10
217.0690957306576
 20
101.3810499038754
 30
0.0
 10
217.0802326479601
 20
101.3784000415279
 30
0.0
 10
217.0857999276507
 20
101.3770576772236
 30
0.0
 10
217.088584464146
 20
101.3763927045874
 30
0.0
 10
217.0899775957849
 20
101.3760698100786
 30
0.0
 10
217.090671122643
 20
101.3758935673045
 30
0.0
 10
217.0910186916418
 20
101.3758077832645
 30
0.0
 10
217.0911935969316
 20
101.3757627451387
 30
0.0
 10
217.0912878675861
 20
101.3757620207281
 30
0.0
 10
217.091327829442
 20
101.3757324458407
 30
0.0
 10
217.0913564736766
 20
101.3757375531384
 30
0.0
 10
217.111153292422
 20
101.3563351360425
 30
0.0
 10
217.187809254766
 20
101.3658852116735
 30
0.0
 10
217.2737303127714
 20
101.3334574631708
 30
0.0
 10
217.3583139868471
 20
101.3188707250846
 30
0.0
 10
217.4215846540426
 20
101.3053165759439
 30
0.0
 10
217.4721786224271
 20
101.2958749669301
 30
0.0
 10
217.4793968820412
 20
101.295380759454
 30
0.0
 10
217.4832076347639
 20
101.2951198513423
 30
0.0
  0
ELLIPSE
  5
241
330
1F
100
AcDbEntity
  8
0
  6
Continuous
 62
     7
370
    15
100
AcDbEllipse
 10
217.359734013
 20
102.5923078044
 30
0.0
 11
0.3906095144045878
 21
-0.08616383961160068
 31
0.0
210
0.0
220
0.0
230
1.0
 40
0.0142285888
 41
0.0
 42
6.283185307179586
  0
LINE
  5
242
330
1F
100
AcDbEntity
  8
0
  6
Continuous
 62
     7
370
    15
100
AcDbLine
 10
216.743551246
 20
461.1103299553
 30
0.0
 11
216.743551246
 21
469.7103265221
 31
0.0
  0
LINE
  5
243
330
1F
100
AcDbEntity
  8
0
  6
Continuous
 62
     7
370
    15
100
AcDbLine
 10
211.2292573369
 20
461.1103299553
 30
0.0
 11
211.2292573369
 21
469.7103265221
 31
0.0
  0
LINE
  5
244
330
1F
100
AcDbEntity
  8
0
  6
Continuous
 62
     7
370
    15
100
AcDbLine
 10
216.743551246
 20
461.1103299553
 30
0.0
 11
211.2292573369
 21
461.1103299553
 31
0.0
  0
LINE
  5
245
330
1F
100
AcDbEntity
  8
0
  6
Continuous
 62
     7
370
    15
100
AcDbLine
 10
216.743551246
 20
469.7103265221
 30
0.0
 11
211.2292573369
 21
469.7103265221
 31
0.0
  0
LINE
  5
246
330
1F
100
AcDbEntity
  8
0
  6
Continuous
 62
     7
370
    15
100
AcDbLine
 10
210.1150006569
 20
473.0103376801
 30
0.0
 11
185.3028908885
 21
473.0103376801
 31
0.0
  0
LINE
  5
247
330
1F
100
AcDbEntity
  8
0
  6
Continuous
 62
     7
370
    15
100
AcDbLine
 10
210.1150006569
 20
469.7103265221
 30
0.0
 11
210.1150006569
 21
473.0103376801
 31
0.0
  0
LINE
  5
248
330
1F
100
AcDbEntity
  8
0
  6
Continuous
 62
     7
370
    15
100
AcDbLine
 10
210.1150006569
 20
458.6103323395
 30
0.0
 11
210.1150006569
 21
461.1103299553
 31
0.0
  0
LINE
  5
249
330
1F
100
AcDbEntity
  8
0
  6
Continuous
 62
     7
370
    15
100
AcDbLine
 10
185.3028908885
 20
458.6103323395
 30
0.0
 11
210.1150006569
 21
458.6103323395
 31
0.0
  0
LINE
  5
24A
330
1F
100
AcDbEntity
  8
0
  6
Continuous
 62
     7
370
    15
100
AcDbLine
 10
185.3028908885
 20
458.6103323395
 30
0.0
 11
185.3028908885
 21
473.0103376801
 31
0.0
  0
LINE
  5
24B
330
1F
100
AcDbEntity
  8
0
  6
Continuous
 62
     7
370
    15
100
AcDbLine
 10
210.1150006569
 20
461.1103299553
 30
0.0
 11
211.2292573369
 21
461.1103299553
 31
0.0
  0
LINE
  5
24C
330
1F
100
AcDbEntity
  8
0
  6
Continuous
 62
     7
370
    15
100
AcDbLine
 10
210.1150006569
 20
469.7103265221
 30
0.0
 11
211.2292573369
 21
469.7103265221
 31
0.0
  0
LINE
  5
24D
330
1F
100
AcDbEntity
  8
0
  6
Continuous
 62
     7
370
    15
100
AcDbLine
 10
212.1348605073
 20
473.8076839144
 30
0.0
 11
210.2426291025
 21
473.8076839144
 31
0.0
  0
ARC
  5
24E
330
1F
100
AcDbEntity
  8
0
  6
Continuous
 62
     7
370
    15
100
AcDbCircle
 10
211.5892621947
 20
473.1832453886
 30
0.0
 40
1.484366584631194
100
AcDbArc
 50
155.1226784356
 51
186.689334224
  0
ARC
  5
24F
330
1F
100
AcDbEntity
  8
0
  6
Continuous
 62
     7
370
    15
100
AcDbCircle
 10
186.5588661249
 20
473.2042933566
 30
0.0
 40
1.270862934734452
100
AcDbArc
 50
151.5184881633
 51
188.7786338264
  0
LINE
  5
250
330
1F
100
AcDbEntity
  8
0
  6
Continuous
 62
     7
370
    15
100
AcDbLine
 10
185.4418144143
 20
473.8103363211
 30
0.0
 11
212.8076106823
 21
473.8103363211
 31
0.0
  0
LINE
  5
251
330
1F
100
AcDbEntity
  8
0
  6
Continuous
 62
     7
370
    15
100
AcDbLine
 10
212.8076106823
 20
473.8103363211
 30
0.0
 11
212.1348605073
 21
473.8076839144
 31
0.0
  0
LINE
  5
252
330
1F
100
AcDbEntity
  8
0
  6
Continuous
 62
     7
370
    15
100
AcDbLine
 10
210.2426291025
 20
457.8129861052
 30
0.0
 11
212.1348605073
 21
457.8129861052
 31
0.0
  0
LINE
  5
253
330
1F
100
AcDbEntity
  8
0
  6
Continuous
 62
     7
370
    15
100
AcDbLine
 10
212.1348605073
 20
457.8129861052
 30
0.0
 11
212.8076106823
 21
457.8103336985
 31
0.0
  0
LINE
  5
254
330
1F
100
AcDbEntity
  8
0
  6
Continuous
 62
     7
370
    15
100
AcDbLine
 10
212.8076106823
 20
457.8103336985
 30
0.0
 11
185.4418144143
 21
457.8103336985
 31
0.0
  0
ARC
  5
255
330
1F
100
AcDbEntity
  8
0
  6
Continuous
 62
     7
370
    15
100
AcDbCircle
 10
186.5588661249
 20
458.416376663
 30
0.0
 40
1.270862934734452
100
AcDbArc
 50
171.2213661736
 51
208.4815118367
  0
ARC
  5
256
330
1F
100
AcDbEntity
  8
0
  6
Continuous
 62
     7
370
    15
100
AcDbCircle
 10
211.5892336523
 20
458.4374200623
 30
0.0
 40
1.484338768683204
100
AcDbArc
 50
173.3103622863
 51
204.8776250541
  0
LINE
  5
257
330
1F
100
AcDbEntity
  8
0
  6
Continuous
 62
     7
370
    15
100
AcDbLine
 10
210.2426291025
 20
473.0103376801
 30
0.0
 11
210.2426291025
 21
473.8076839144
 31
0.0
  0
LINE
  5
258
330
1F
100
AcDbEntity
  8
0
  6
Continuous
 62
     7
370
    15
100
AcDbLine
 10
210.2539241827
 20
473.0103376801
 30
0.0
 11
210.2539241827
 21
469.7103265221
 31
0.0
  0
LINE
  5
259
330
1F
100
AcDbEntity
  8
0
  6
Continuous
 62
     7
370
    15
100
AcDbLine
 10
210.2426291025
 20
457.8129861052
 30
0.0
 11
210.2426291025
 21
458.6103323395
 31
0.0
  0
LINE
  5
25A
330
1F
100
AcDbEntity
  8
0
  6
Continuous
 62
     7
370
    15
100
AcDbLine
 10
210.2539241827
 20
461.1103299553
 30
0.0
 11
210.2539241827
 21
458.6103323395
 31
0.0
  0
LINE
  5
25B
330
1F
100
AcDbEntity
  8
0
  6
Continuous
 62
     7
370
    15
100
AcDbLine
 10
216.2426263607
 20
457.8103336985
 30
0.0
 11
212.8076106823
 21
457.8103336985
 31
0.0
  0
LINE
  5
25C
330
1F
100
AcDbEntity
  8
0
  6
Continuous
 62
     7
370
    15
100
AcDbLine
 10
212.1348605073
 20
457.8129861052
 30
0.0
 11
212.1348605073
 21
458.6103323395
 31
0.0
  0
LINE
  5
25D
330
1F
100
AcDbEntity
  8
0
  6
Continuous
 62
     7
370
    15
100
AcDbLine
 10
216.2426263607
 20
458.6103323395
 30
0.0
 11
212.1348605073
 21
458.6103323395
 31
0.0
  0
LINE
  5
25E
330
1F
100
AcDbEntity
  8
0
  6
Continuous
 62
     7
370
    15
100
AcDbLine
 10
212.1348605073
 20
473.0103376801
 30
0.0
 11
212.1348605073
 21
473.8076839144
 31
0.0
  0
LINE
  5
25F
330
1F
100
AcDbEntity
  8
0
  6
Continuous
 62
     7
370
    15
100
AcDbLine
 10
216.2426263607
 20
473.8103363211
 30
0.0
 11
212.8076106823
 21
473.8103363211
 31
0.0
  0
LINE
  5
260
330
1F
100
AcDbEntity
  8
0
  6
Continuous
 62
     7
370
    15
100
AcDbLine
 10
216.2426263607
 20
473.0103376801
 30
0.0
 11
212.1348605073
 21
473.0103376801
 31
0.0
  0
LINE
  5
261
330
1F
100
AcDbEntity
  8
0
  6
Continuous
 62
     7
370
    15
100
AcDbLine
 10
210.2426291025
 20
473.0103376801
 30
0.0
 11
212.1348605073
 21
473.0103376801
 31
0.0
  0
LINE
  5
262
330
1F
100
AcDbEntity
  8
0
  6
Continuous
 62
     7
370
    15
100
AcDbLine
 10
210.2426291025
 20
458.6103323395
 30
0.0
 11
212.1348605073
 21
458.6103323395
 31
0.0
  0
LINE
  5
263
330
1F
100
AcDbEntity
  8
0
  6
Continuous
 62
     7
370
    15
100
AcDbLine
 10
211.3126293338
 20
474.1103264983
 30
0.0
 11
215.71262931
 21
474.1103264983
 31
0.0
  0
LINE
  5
264
330
1F
100
AcDbEntity
  8
0
  6
Continuous
 62
     7
370
    15
100
AcDbLine
 10
211.412623576
 20
457.4103269274
 30
0.0
 11
215.6126276172
 21
457.4103269274
 31
0.0
  0
LINE
  5
265
330
1F
100
AcDbEntity
  8
0
  6
Continuous
 62
     7
370
    15
100
AcDbLine
 10
211.412623576
 20
457.0103350575
 30
0.0
 11
215.6126276172
 21
457.0103350575
 31
0.0
  0
LINE
  5
266
330
1F
100
AcDbEntity
  8
0
  6
Continuous
 62
     7
370
    15
100
AcDbLine
 10
180.4040447391
 20
473.0103376801
 30
0.0
 11
178.4145683564
 21
473.0103376801
 31
0.0
  0
LINE
  5
267
330
1F
100
AcDbEntity
  8
0
  6
Continuous
 62
     7
370
    15
100
AcDbLine
 10
180.4040447391
 20
458.6103323395
 30
0.0
 11
180.4040447391
 21
473.0103376801
 31
0.0
  0
LINE
  5
268
330
1F
100
AcDbEntity
  8
0
  6
Continuous
 62
     7
370
    15
100
AcDbLine
 10
178.4145683564
 20
458.6103323395
 30
0.0
 11
180.4040447391
 21
458.6103323395
 31
0.0
  0
ARC
  5
269
330
1F
100
AcDbEntity
  8
0
  6
Continuous
 62
     7
370
    15
100
AcDbCircle
 10
193.7085427791
 20
465.8103350098
 30
0.0
 40
16.90401408232909
100
AcDbArc
 50
154.7901718738
 51
205.2098281262
  0
SPLINE
  5
26A
330
1F
100
AcDbEntity
  8
0
  6
Continuous
 62
     7
370
    15
100
AcDbSpline
210
0.0
220
0.0
230
1.0
 70
     8
 71
     3
 72
    12
 73
     8
 74
     0
 42
0.00000001
 43
0.00000001
 40
0.0
 40
0.0
 40
0.0
 40
0.0
 40
0.18187302953746
 40
0.3633447978198461
 40
0.5550755613763376
 40
0.7712679779199193
 40
1.0
 40
1.0
 40
1.0
 40
1.0
 10
178.5469428218177
 20
457.8103336985026
 30
0.0
 10
178.5708041113866
 20
457.817657135589
 30
0.0
 10
178.6184740460448
 20
457.8322878522722
 30
0.0
 10
178.6332040266108
 20
457.9442774319658
 30
0.0
 10
178.6059850702148
 20
458.1136617608287
 30
0.0
 10
178.5343089973732
 20
458.3420820878415
 30
0.0
 10
178.4552248638504
 20
458.5192511637716
 30
0.0
 10
178.4145683563521
 20
458.6103323395167
 30
0.0
  0
LINE
  5
26B
330
1F
100
AcDbEntity
  8
0
  6
Continuous
 62
     7
370
    15
100
AcDbLine
 10
178.16258227
 20
458.5648390944
 30
0.0
 11
178.5170212901
 21
457.8103336985
 31
0.0
  0
ARC
  5
26C
330
1F
100
AcDbEntity
  8
0
  6
Continuous
 62
     7
370
    15
100
AcDbCircle
 10
193.433210963
 20
465.8103350098
 30
0.0
 40
16.90234633834256
100
AcDbArc
 50
154.616938827
 51
205.383061173
  0
LINE
  5
26D
330
1F
100
AcDbEntity
  8
0
  6
Continuous
 62
     7
370
    15
100
AcDbLine
 10
178.5170212901
 20
473.8103363211
 30
0.0
 11
178.16258227
 21
473.0558309252
 31
0.0
  0
SPLINE
  5
26E
330
1F
100
AcDbEntity
  8
0
  6
Continuous
 62
     7
370
    15
100
AcDbSpline
210
0.0
220
0.0
230
1.0
 70
     8
 71
     3
 72
    12
 73
     8
 74
     0
 42
0.00000001
 43
0.00000001
 40
0.0
 40
0.0
 40
0.0
 40
0.0
 40
0.2510172357647315
 40
0.5023980923729131
 40
0.7402747485671194
 40
0.9473067201835714
 40
1.0
 40
1.0
 40
1.0
 40
1.0
 10
178.4145683563521
 20
473.0103376800929
 30
0.0
 10
178.4588863551959
 20
473.110215962901
 30
0.0
 10
178.5475865514557
 20
473.3101172111135
 30
0.0
 10
178.622575610503
 20
473.5688574702315
 30
0.0
 10
178.6340711331464
 20
473.7460810352181
 30
0.0
 10
178.5924248574418
 20
473.8065187753593
 30
0.0
 10
178.5546139340918
 20
473.8096924444283
 30
0.0
 10
178.5469428218176
 20
473.810336321107
 30
0.0
  0
LINE
  5
26F
330
1F
100
AcDbEntity
  8
0
  6
Continuous
 62
     7
370
    15
100
AcDbLine
 10
178.5469428218
 20
457.8103336985
 30
0.0
 11
178.5170212901
 21
457.8103336985
 31
0.0
  0
LINE
  5
270
330
1F
100
AcDbEntity
  8
0
  6
Continuous
 62
     7
370
    15
100
AcDbLine
 10
178.5469428218
 20
473.8103363211
 30
0.0
 11
178.5170212901
 21
473.8103363211
 31
0.0
  0
LWPOLYLINE
  5
271
330
1F
100
AcDbEntity
  8
0
  6
Continuous
 62
     7
370
    15
100
AcDbPolyline
 90
        9
 70
   128
 43
0.0
 10
180.4040447391
 20
473.0103376801
 10
180.3987846292
 20
473.1663975413
 10
180.3832129157
 20
473.3164820368
 10
180.3579330958
 20
473.454794615
 10
180.3239062942
 20
473.5760155613
 10
180.2824438132
 20
473.6755106146
 10
180.2351326264
 20
473.7494352753
 10
180.1838055766
 20
473.7949583228
 10
180.1304296172
 20
473.8103363211
  0
LINE
  5
272
330
1F
100
AcDbEntity
  8
0
  6
Continuous
 62
     7
370
    15
100
AcDbLine
 10
178.5469428218
 20
473.8103363211
 30
0.0
 11
180.1304296172
 21
473.8103363211
 31
0.0
  0
LWPOLYLINE
  5
273
330
1F
100
AcDbEntity
  8
0
  6
Continuous
 62
     7
370
    15
100
AcDbPolyline
 90
        9
 70
   128
 43
0.0
 10
180.4040447391
 20
458.6103323395
 10
180.3987846292
 20
458.4542575772
 10
180.3832129157
 20
458.3041879828
 10
180.3579330958
 20
458.1658754046
 10
180.3239062942
 20
458.0446544583
 10
180.2824438132
 20
457.945159405
 10
180.2351326264
 20
457.8712347443
 10
180.1838055766
 20
457.8257116969
 10
180.1304296172
 20
457.8103336985
  0
LINE
  5
274
330
1F
100
AcDbEntity
  8
0
  6
Continuous
 62
     7
370
    15
100
AcDbLine
 10
180.1304296172
 20
457.8103336985
 30
0.0
 11
178.5469428218
 21
457.8103336985
 31
0.0
  0
LINE
  5
275
330
1F
100
AcDbEntity
  8
0
  6
Continuous
 62
     7
370
    15
100
AcDbLine
 10
180.4040447391
 20
458.6103323395
 30
0.0
 11
185.3028908885
 21
458.6103323395
 31
0.0
  0
LINE
  5
276
330
1F
100
AcDbEntity
  8
0
  6
Continuous
 62
     7
370
    15
100
AcDbLine
 10
185.4418144143
 20
457.8103336985
 30
0.0
 11
180.1304296172
 21
457.8103336985
 31
0.0
  0
LINE
  5
277
330
1F
100
AcDbEntity
  8
0
  6
Continuous
 62
     7
370
    15
100
AcDbLine
 10
185.3028908885
 20
473.0103376801
 30
0.0
 11
180.4040447391
 21
473.0103376801
 31
0.0
  0
LINE
  5
278
330
1F
100
AcDbEntity
  8
0
  6
Continuous
 62
     7
370
    15
100
AcDbLine
 10
180.1304296172
 20
473.8103363211
 30
0.0
 11
185.4418144143
 21
473.8103363211
 31
0.0
  0
LINE
  5
279
330
1F
100
AcDbEntity
  8
0
  6
Continuous
 62
     7
370
    15
100
AcDbLine
 10
216.5326253093
 20
102.5603327448
 30
0.0
 11
216.5326253093
 21
101.5603307183
 31
0.0
  0
LINE
  5
27A
330
1F
100
AcDbEntity
  8
0
  6
Continuous
 62
     7
370
    15
100
AcDbLine
 10
216.5326253093
 20
101.5603307183
 30
0.0
 11
210.3326246656
 21
101.5603307183
 31
0.0
  0
LINE
  5
27B
330
1F
100
AcDbEntity
  8
0
  6
Continuous
 62
     7
370
    15
100
AcDbLine
 10
210.3326246656
 20
102.5603327448
 30
0.0
 11
210.3326246656
 21
101.5603307183
 31
0.0
  0
LINE
  5
27C
330
1F
100
AcDbEntity
  8
0
  6
Continuous
 62
     7
370
    15
100
AcDbLine
 10
216.5326253093
 20
102.5603327448
 30
0.0
 11
210.3326246656
 21
102.5603327448
 31
0.0
  0
LINE
  5
27D
330
1F
100
AcDbEntity
  8
0
  6
Continuous
 62
     7
370
    15
100
AcDbLine
 10
216.5326253093
 20
472.5603375132
 30
0.0
 11
210.3326246656
 21
472.5603375132
 31
0.0
  0
LINE
  5
27E
330
1F
100
AcDbEntity
  8
0
  6
Continuous
 62
     7
370
    15
100
AcDbLine
 10
216.5326253093
 20
472.5603375132
 30
0.0
 11
216.5326253093
 21
471.5603354866
 31
0.0
  0
LINE
  5
27F
330
1F
100
AcDbEntity
  8
0
  6
Continuous
 62
     7
370
    15
100
AcDbLine
 10
216.5326253093
 20
471.5603354866
 30
0.0
 11
210.3326246656
 21
471.5603354866
 31
0.0
  0
LINE
  5
280
330
1F
100
AcDbEntity
  8
0
  6
Continuous
 62
     7
370
    15
100
AcDbLine
 10
210.3326246656
 20
472.5603375132
 30
0.0
 11
210.3326246656
 21
471.5603354866
 31
0.0
  0
LINE
  5
281
330
1F
100
AcDbEntity
  8
0
  6
Continuous
 62
     7
370
    15
100
AcDbLine
 10
216.5326253093
 20
90.0603297646
 30
0.0
 11
216.5326253093
 21
89.060327738
 31
0.0
  0
LINE
  5
282
330
1F
100
AcDbEntity
  8
0
  6
Continuous
 62
     7
370
    15
100
AcDbLine
 10
210.3326246656
 20
90.0603297646
 30
0.0
 11
210.3326246656
 21
89.060327738
 31
0.0
  0
LINE
  5
283
330
1F
100
AcDbEntity
  8
0
  6
Continuous
 62
     7
370
    15
100
AcDbLine
 10
216.5326253093
 20
90.0603297646
 30
0.0
 11
210.3326246656
 21
90.0603297646
 31
0.0
  0
LINE
  5
284
330
1F
100
AcDbEntity
  8
0
  6
Continuous
 62
     7
370
    15
100
AcDbLine
 10
216.5326253093
 20
89.060327738
 30
0.0
 11
210.3326246656
 21
89.060327738
 31
0.0
  0
LINE
  5
285
330
1F
100
AcDbEntity
  8
0
  6
Continuous
 62
     7
370
    15
100
AcDbLine
 10
216.5326253093
 20
460.060334533
 30
0.0
 11
216.5326253093
 21
459.0603325064
 31
0.0
  0
LINE
  5
286
330
1F
100
AcDbEntity
  8
0
  6
Continuous
 62
     7
370
    15
100
AcDbLine
 10
216.5326253093
 20
459.0603325064
 30
0.0
 11
210.3326246656
 21
459.0603325064
 31
0.0
  0
LINE
  5
287
330
1F
100
AcDbEntity
  8
0
  6
Continuous
 62
     7
370
    15
100
AcDbLine
 10
210.3326246656
 20
460.060334533
 30
0.0
 11
210.3326246656
 21
459.0603325064
 31
0.0
  0
LINE
  5
288
330
1F
100
AcDbEntity
  8
0
  6
Continuous
 62
     7
370
    15
100
AcDbLine
 10
216.5326253093
 20
460.060334533
 30
0.0
 11
210.3326246656
 21
460.060334533
 31
0.0
  0
LWPOLYLINE
  5
289
330
1F
100
AcDbEntity
  8
0
  6
Continuous
 62
     7
370
    15
100
AcDbPolyline
 90
        3
 70
   128
 43
0.0
 10
210.2539241827
 20
459.4491932089
 10
210.2565020836
 20
459.443009227
 10
210.3326246656
 20
459.0603325064
  0
LWPOLYLINE
  5
28A
330
1F
100
AcDbEntity
  8
0
  6
Continuous
 62
     7
370
    15
100
AcDbPolyline
 90
        3
 70
   128
 43
0.0
 10
210.3326246656
 20
472.5603375132
 10
210.2565020836
 20
472.1776458914
 10
210.2539241827
 20
472.1714768107
  0
LINE
  5
28B
330
1F
100
AcDbEntity
  8
0
  6
Continuous
 62
     7
370
    15
100
AcDbLine
 10
216.5326253093
 20
471.5603354866
 30
0.0
 11
216.5326253093
 21
471.4103254969
 31
0.0
  0
LINE
  5
28C
330
1F
100
AcDbEntity
  8
0
  6
Continuous
 62
     7
370
    15
100
AcDbLine
 10
216.5326253093
 20
470.6103268559
 30
0.0
 11
216.5326253093
 21
469.7103265221
 31
0.0
  0
LINE
  5
28D
330
1F
100
AcDbEntity
  8
0
  6
Continuous
 62
     7
370
    15
100
AcDbLine
 10
216.5326253093
 20
461.1103299553
 30
0.0
 11
216.5326253093
 21
460.060334533
 31
0.0
  0
LWPOLYLINE
  5
28E
330
1F
100
AcDbEntity
  8
0
  6
Continuous
 62
     7
370
    15
100
AcDbPolyline
 90
        3
 70
   128
 43
0.0
 10
210.2539241827
 20
89.4491884406
 10
210.2565020836
 20
89.4430193598
 10
210.3326246656
 20
89.060327738
  0
LWPOLYLINE
  5
28F
330
1F
100
AcDbEntity
  8
0
  6
Continuous
 62
     7
370
    15
100
AcDbPolyline
 90
        3
 70
   128
 43
0.0
 10
210.3326246656
 20
102.5603327448
 10
210.2565020836
 20
102.1776560242
 10
210.2539241827
 20
102.1714720423
  0
LINE
  5
290
330
1F
100
AcDbEntity
  8
0
  6
Continuous
 62
     7
370
    15
100
AcDbLine
 10
216.5326253093
 20
101.5603307183
 30
0.0
 11
216.5326253093
 21
101.4103356297
 31
0.0
  0
LINE
  5
291
330
1F
100
AcDbEntity
  8
0
  6
Continuous
 62
     7
370
    15
100
AcDbLine
 10
216.5326253093
 20
100.6103369887
 30
0.0
 11
216.5326253093
 21
99.7103366549
 31
0.0
  0
LINE
  5
292
330
1F
100
AcDbEntity
  8
0
  6
Continuous
 62
     7
370
    15
100
AcDbLine
 10
216.5326253093
 20
91.110325187
 30
0.0
 11
216.5326253093
 21
90.0603297646
 31
0.0
  0
LINE
  5
293
330
1F
100
AcDbEntity
  8
0
  6
Continuous
 62
     7
370
    15
100
AcDbLine
 10
108.5326253019
 20
45.8103332217
 30
0.0
 11
93.5326256371
 21
45.8103332217
 31
0.0
  0
LINE
  5
294
330
1F
100
AcDbEntity
  8
0
  6
Continuous
 62
     7
370
    15
100
AcDbLine
 10
108.5326253019
 20
45.8103332217
 30
0.0
 11
108.5326253019
 21
30.8103326256
 31
0.0
  0
ARC
  5
295
330
1F
100
AcDbEntity
  8
0
  6
Continuous
 62
     7
370
    15
100
AcDbCircle
 10
108.5326256192
 20
45.8103326256
 30
0.0
 40
15.00000000000001
100
AcDbArc
 50
180.0
 51
270.0
  0
LINE
  5
296
330
1F
100
AcDbEntity
  8
0
  6
Continuous
 62
     7
370
    15
100
AcDbLine
 10
108.5326253019
 20
515.8103320296
 30
0.0
 11
108.5326253019
 21
45.8103332217
 31
0.0
  0
LINE
  5
297
330
1F
100
AcDbEntity
  8
0
  6
Continuous
 62
     7
370
    15
100
AcDbLine
 10
93.5326256371
 20
515.8103320296
 30
0.0
 11
93.5326256371
 21
45.8103332217
 31
0.0
  0
LINE
  5
298
330
1F
100
AcDbEntity
  8
0
  6
Continuous
 62
     7
370
    15
100
AcDbLine
 10
93.5326256371
 20
515.8103320296
 30
0.0
 11
108.5326253019
 21
515.8103320296
 31
0.0
  0
ARC
  5
299
330
1F
100
AcDbEntity
  8
0
  6
Continuous
 62
     7
370
    15
100
AcDbCircle
 10
108.5326256192
 20
515.8103326256
 30
0.0
 40
15.0
100
AcDbArc
 50
90.0
 51
180.0
  0
LINE
  5
29A
330
1F
100
AcDbEntity
  8
0
  6
Continuous
 62
     7
370
    15
100
AcDbLine
 10
108.5326253019
 20
530.8103326256
 30
0.0
 11
108.5326253019
 21
515.8103320296
 31
0.0
  0
LINE
  5
29B
330
1F
100
AcDbEntity
  8
0
  6
Continuous
 62
     7
370
    15
100
AcDbLine
 10
229.5326218522
 20
515.8103320296
 30
0.0
 11
108.5326253019
 21
515.8103320296
 31
0.0
  0
LINE
  5
29C
330
1F
100
AcDbEntity
  8
0
  6
Continuous
 62
     7
370
    15
100
AcDbLine
 10
229.5326218522
 20
530.8103326256
 30
0.0
 11
108.5326253019
 21
530.8103326256
 31
0.0
  0
LINE
  5
29D
330
1F
100
AcDbEntity
  8
0
  6
Continuous
 62
     7
370
    15
100
AcDbLine
 10
229.5326218522
 20
530.8103326256
 30
0.0
 11
229.5326218522
 21
515.8103320296
 31
0.0
  0
LINE
  5
29E
330
1F
100
AcDbEntity
  8
0
  6
Continuous
 62
     7
370
    15
100
AcDbLine
 10
229.5326218522
 20
45.8103332217
 30
0.0
 11
229.5326218522
 21
86.8024292881
 31
0.0
  0
LINE
  5
29F
330
1F
100
AcDbEntity
  8
0
  6
Continuous
 62
     7
370
    15
100
AcDbLine
 10
229.5326218522
 20
104.786268204
 30
0.0
 11
229.5326218522
 21
456.8024191554
 31
0.0
  0
LINE
  5
2A0
330
1F
100
AcDbEntity
  8
0
  6
Continuous
 62
     7
370
    15
100
AcDbLine
 10
229.5326218522
 20
474.7862580712
 30
0.0
 11
229.5326218522
 21
515.8103320296
 31
0.0
  0
LINE
  5
2A1
330
1F
100
AcDbEntity
  8
0
  6
Continuous
 62
     7
370
    15
100
AcDbLine
 10
229.5326218522
 20
45.8103332217
 30
0.0
 11
108.5326253019
 21
45.8103332217
 31
0.0
  0
LINE
  5
2A2
330
1F
100
AcDbEntity
  8
0
  6
Continuous
 62
     7
370
    15
100
AcDbLine
 10
209.5326260246
 20
50.8103284533
 30
0.0
 11
113.5326251901
 21
50.8103284533
 31
0.0
  0
LINE
  5
2A3
330
1F
100
AcDbEntity
  8
0
  6
Continuous
 62
     7
370
    15
100
AcDbLine
 10
209.5326260246
 20
50.8103284533
 30
0.0
 11
209.5326260246
 21
82.9977903063
 31
0.0
  0
LINE
  5
2A4
330
1F
100
AcDbEntity
  8
0
  6
Continuous
 62
     7
370
    15
100
AcDbLine
 10
209.5326260246
 20
86.3375726635
 30
0.0
 11
209.5326260246
 21
87.8103289301
 31
0.0
  0
LINE
  5
2A5
330
1F
100
AcDbEntity
  8
0
  6
Continuous
 62
     7
370
    15
100
AcDbLine
 10
209.5326260246
 20
103.8103315527
 30
0.0
 11
209.5326260246
 21
105.2697363789
 31
0.0
  0
LINE
  5
2A6
330
1F
100
AcDbEntity
  8
0
  6
Continuous
 62
     7
370
    15
100
AcDbLine
 10
209.5326260246
 20
108.6124542649
 30
0.0
 11
209.5326260246
 21
452.9977801735
 31
0.0
  0
LINE
  5
2A7
330
1F
100
AcDbEntity
  8
0
  6
Continuous
 62
     7
370
    15
100
AcDbLine
 10
209.5326260246
 20
456.3375774319
 30
0.0
 11
209.5326260246
 21
457.8103336985
 31
0.0
  0
LINE
  5
2A8
330
1F
100
AcDbEntity
  8
0
  6
Continuous
 62
     7
370
    15
100
AcDbLine
 10
209.5326260246
 20
473.8103363211
 30
0.0
 11
209.5326260246
 21
475.2697411473
 31
0.0
  0
LINE
  5
2A9
330
1F
100
AcDbEntity
  8
0
  6
Continuous
 62
     7
370
    15
100
AcDbLine
 10
209.5326260246
 20
478.6124441321
 30
0.0
 11
209.5326260246
 21
510.8103367979
 31
0.0
  0
LINE
  5
2AA
330
1F
100
AcDbEntity
  8
0
  6
Continuous
 62
     7
370
    15
100
AcDbLine
 10
209.5326260246
 20
510.8103367979
 30
0.0
 11
113.5326251901
 21
510.8103367979
 31
0.0
  0
LINE
  5
2AB
330
1F
100
AcDbEntity
  8
0
  6
Continuous
 62
     7
370
    15
100
AcDbLine
 10
113.5326251901
 20
510.8103367979
 30
0.0
 11
113.5326251901
 21
50.8103284533
 31
0.0
  0
LINE
  5
2AC
330
1F
100
AcDbEntity
  8
0
  6
Continuous
 62
     7
370
    15
100
AcDbLine
 10
229.5326218522
 20
30.8103326256
 30
0.0
 11
108.5326253019
 21
30.8103326256
 31
0.0
  0
LINE
  5
2AD
330
1F
100
AcDbEntity
  8
0
  6
Continuous
 62
     7
370
    15
100
AcDbLine
 10
229.5326218522
 20
45.8103332217
 30
0.0
 11
229.5326218522
 21
30.8103326256
 31
0.0
  0
LINE
  5
2AE
330
1F
100
AcDbEntity
  8
0
  6
Continuous
 62
     7
370
    15
100
AcDbLine
 10
233.5326299585
 20
510.8103367979
 30
0.0
 11
229.5326218522
 21
510.8103367979
 31
0.0
  0
LINE
  5
2AF
330
1F
100
AcDbEntity
  8
0
  6
Continuous
 62
     7
370
    15
100
AcDbLine
 10
233.5326299585
 20
50.8103284533
 30
0.0
 11
229.5326218522
 21
50.8103284533
 31
0.0
  0
LINE
  5
2B0
330
1F
100
AcDbEntity
  8
0
  6
Continuous
 62
     7
370
    15
100
AcDbLine
 10
233.5326299585
 20
525.810337394
 30
0.0
 11
229.5326218522
 21
525.810337394
 31
0.0
  0
LINE
  5
2B1
330
1F
100
AcDbEntity
  8
0
  6
Continuous
 62
     7
370
    15
100
AcDbLine
 10
233.5326299585
 20
35.8103278572
 30
0.0
 11
229.5326218522
 21
35.8103278572
 31
0.0
  0
LINE
  5
2B2
330
1F
100
AcDbEntity
  8
0
  6
Continuous
 62
     7
370
    15
100
AcDbLine
 10
400.551729946
 20
581.1433355355
 30
0.0
 11
400.9643281983
 21
581.1433355355
 31
0.0
  0
SPLINE
  5
2B3
330
1F
100
AcDbEntity
  8
0
  6
Continuous
 62
     7
370
    15
100
AcDbSpline
210
0.0
220
0.0
230
1.0
 70
     8
 71
     3
 72
    15
 73
    11
 74
     0
 42
0.00000001
 43
0.00000001
 40
0.0
 40
0.0
 40
0.0
 40
0.0
 40
0.1250756062547273
 40
0.2501515053337112
 40
0.3752915679483704
 40
0.5003054540347794
 40
0.6252893286866023
 40
0.7502629851145114
 40
0.8750792003843805
 40
1.0
 40
1.0
 40
1.0
 40
1.0
 10
398.1661732482006
 20
611.7011616969272
 30
0.0
 10
398.1400484212953
 20
611.9599257159894
 30
0.0
 10
398.0877987063217
 20
612.4774543599258
 30
0.0
 10
398.0089298199492
 20
613.2585680724061
 30
0.0
 10
397.9345027605348
 20
613.9957493715668
 30
0.0
 10
397.867489589405
 20
614.6593221761918
 30
0.0
 10
397.8113819140401
 20
615.2150903388728
 30
0.0
 10
397.7688639755677
 20
615.636186772091
 30
0.0
 10
397.740031589158
 20
615.9217939495344
 30
0.0
 10
397.7356898244226
 20
615.9648290935672
 30
0.0
 10
397.7335180329372
 20
615.9863556766674
 30
0.0
  0
SPLINE
  5
2B4
330
1F
100
AcDbEntity
  8
0
  6
Continuous
 62
     7
370
    15
100
AcDbSpline
210
0.0
220
0.0
230
1.0
 70
     8
 71
     3
 72
    15
 73
    11
 74
     0
 42
0.00000001
 43
0.00000001
 40
0.0
 40
0.0
 40
0.0
 40
0.0
 40
0.1249400649682093
 40
0.2497678875974486
 40
0.3747497703685242
 40
0.4997368432771674
 40
0.6247476138688625
 40
0.7498792509438331
 40
0.8749421949232868
 40
1.0
 40
1.0
 40
1.0
 40
1.0
 10
394.7492624806454
 20
615.6849722409412
 30
0.0
 10
394.7514448817336
 20
615.663394512877
 30
0.0
 10
394.7558077233078
 20
615.6202584415205
 30
0.0
 10
394.7846576607721
 20
615.3345453857553
 30
0.0
 10
394.827162527514
 20
614.9133597774079
 30
0.0
 10
394.8833023956184
 20
614.3575878194059
 30
0.0
 10
394.9502862735153
 20
613.6940596834082
 30
0.0
 10
395.0247088036515
 20
612.9570172990325
 30
0.0
 10
395.103536232435
 20
612.1761029026284
 30
0.0
 10
395.1557809651114
 20
611.6587482806907
 30
0.0
 10
395.1819027947475
 20
611.4000762844249
 30
0.0
  0
LINE
  5
2B5
330
1F
100
AcDbEntity
  8
0
  6
Continuous
 62
     7
370
    15
100
AcDbLine
 10
395.1816196727
 20
611.399942174
 30
0.0
 11
396.7506970452
 21
595.8589623714
 31
0.0
  0
LINE
  5
2B6
330
1F
100
AcDbEntity
  8
0
  6
Continuous
 62
     7
370
    15
100
AcDbLine
 10
399.7355188417
 20
596.1603234554
 30
0.0
 11
398.1664414691
 21
611.7012958074
 31
0.0
  0
SPLINE
  5
2B7
330
1F
100
AcDbEntity
  8
0
  6
Continuous
 62
     7
370
    15
100
AcDbSpline
210
0.0
220
0.0
230
1.0
 70
     8
 71
     3
 72
     9
 73
     5
 74
     0
 42
0.00000001
 43
0.00000001
 40
0.0
 40
0.0
 40
0.0
 40
0.0
 40
0.4837417203017415
 40
0.9999999999999999
 40
0.9999999999999999
 40
0.9999999999999999
 40
0.9999999999999999
 10
396.9207788991024
 20
594.1775898480579
 30
0.0
 10
396.9302394200557
 20
594.1133651296022
 30
0.0
 10
396.9497963872475
 20
593.9805985813382
 30
0.0
 10
396.9836393495831
 20
593.944441511643
 30
0.0
 10
397.0011110590984
 20
593.9257751250431
 30
0.0
  0
SPLINE
  5
2B8
330
1F
100
AcDbEntity
  8
0
  6
Continuous
 62
     7
370
    15
100
AcDbSpline
210
0.0
220
0.0
230
1.0
 70
     8
 71
     3
 72
    11
 73
     7
 74
     0
 42
0.00000001
 43
0.00000001
 40
0.0
 40
0.0
 40
0.0
 40
0.0
 40
0.2484383806842924
 40
0.4978875796835376
 40
0.7483873199441324
 40
1.0
 40
1.0
 40
1.0
 40
1.0
 10
396.7509652661373
 20
595.8591262841388
 30
0.0
 10
396.7689779818821
 20
595.6806544832972
 30
0.0
 10
396.8050767014964
 20
595.3229847354986
 30
0.0
 10
396.8521014800612
 20
594.8581492342248
 30
0.0
 10
396.890893998681
 20
594.4752614247782
 30
0.0
 10
396.905938437563
 20
594.3279739068873
 30
0.0
 10
396.9134773301174
 20
594.2541669154331
 30
0.0
  0
SPLINE
  5
2B9
330
1F
100
AcDbEntity
  8
0
  6
Continuous
 62
     7
370
    15
100
AcDbSpline
210
0.0
220
0.0
230
1.0
 70
     8
 71
     3
 72
    19
 73
    15
 74
     0
 42
0.00000001
 43
0.00000001
 40
0.0
 40
0.0
 40
0.0
 40
0.0
 40
0.0802802792806688
 40
0.1534415337217443
 40
0.2193402340933869
 40
0.277945875717397
 40
0.372844389173099
 40
0.4421534172425104
 40
0.5315371887576311
 40
0.65548116843645
 40
0.7303542582803444
 40
0.8130770453257533
 40
0.9031425815135538
 40
1.0
 40
1.0
 40
1.0
 40
1.0
 10
396.9364251183559
 20
594.0949480080768
 30
0.0
 10
396.9717858238661
 20
593.9720742447643
 30
0.0
 10
397.039371548973
 20
593.7372228109405
 30
0.0
 10
397.2365943302894
 20
593.4428102848548
 30
0.0
 10
397.4614469313624
 20
593.2186920232791
 30
0.0
 10
397.7571092642177
 20
593.0256491040013
 30
0.0
 10
398.0990561798571
 20
592.9077296580018
 30
0.0
 10
398.5088167026013
 20
592.8779563344136
 30
0.0
 10
398.9478988324147
 20
592.9802537423581
 30
0.0
 10
399.3344328918038
 20
593.2314914040008
 30
0.0
 10
399.6272639785747
 20
593.5722029070484
 30
0.0
 10
399.808062143117
 20
593.9276614932725
 30
0.0
 10
399.9139468759068
 20
594.3546116638457
 30
0.0
 10
399.8816930286655
 20
594.649679670509
 30
0.0
 10
399.8649801301052
 20
594.8025743508503
 30
0.0
  0
SPLINE
  5
2BA
330
1F
100
AcDbEntity
  8
0
  6
Continuous
 62
     7
370
    15
100
AcDbSpline
210
0.0
220
0.0
230
1.0
 70
     8
 71
     3
 72
    11
 73
     7
 74
     0
 42
0.00000001
 43
0.00000001
 40
0.0
 40
0.0
 40
0.0
 40
0.0
 40
0.2477440274521925
 40
0.496949406743769
 40
0.7476766356534901
 40
1.0
 40
1.0
 40
1.0
 40
1.0
 10
399.8887474822094
 20
594.6348915839359
 30
0.0
 10
399.8823137553855
 20
594.699517007526
 30
0.0
 10
399.8694083515249
 20
594.8291490565564
 30
0.0
 10
399.8334189660806
 20
595.1870247232158
 30
0.0
 10
399.788466846096
 20
595.6333454768585
 30
0.0
 10
399.7530268452051
 20
595.9842036414854
 30
0.0
 10
399.7352506207516
 20
596.1601893448993
 30
0.0
  0
LINE
  5
2BB
330
1F
100
AcDbEntity
  8
0
  6
Continuous
 62
     7
370
    15
100
AcDbLine
 10
400.0190432357
 20
605.8150018597
 30
0.0
 11
400.0190283345
 21
606.1148206735
 31
0.0
  0
LINE
  5
2BC
330
1F
100
AcDbEntity
  8
0
  6
Continuous
 62
     7
370
    15
100
AcDbLine
 10
399.2190296935
 20
606.1148206735
 30
0.0
 11
399.2190296935
 21
605.8174531007
 31
0.0
  0
SPLINE
  5
2BD
330
1F
100
AcDbEntity
  8
0
  6
Continuous
 62
     7
370
    15
100
AcDbSpline
210
0.0
220
0.0
230
1.0
 70
    24
 71
     3
 72
    11
 73
     7
 74
     0
 42
0.00000001
 43
0.00000001
 40
0.0
 40
0.0
 40
0.0
 40
0.0
 40
0.0207851580527776
 40
0.3465582713038245
 40
0.6711422062876115
 40
0.9999999999999999
 40
0.9999999999999999
 40
0.9999999999999999
 40
0.9999999999999999
 10
399.2190296935131
 20
606.4011390352413
 30
0.0
 10
399.2190296935131
 20
606.3978173308802
 30
0.0
 10
399.219029693513
 20
606.3424333824765
 30
0.0
 10
399.2190296935132
 20
606.2491957242156
 30
0.0
 10
399.2190296935131
 20
606.1364820084444
 30
0.0
 10
399.2190296935131
 20
606.101960078396
 30
0.0
 10
399.2190296935131
 20
606.0845862174198
 30
0.0
  0
SPLINE
  5
2BE
330
1F
100
AcDbEntity
  8
0
  6
Continuous
 62
     7
370
    15
100
AcDbSpline
210
0.0
220
0.0
230
1.0
 70
    24
 71
     3
 72
    11
 73
     7
 74
     0
 42
0.00000001
 43
0.00000001
 40
0.0
 40
0.0
 40
0.0
 40
0.0
 40
0.2504858112135913
 40
0.4977299750592455
 40
0.74586599487306
 40
1.0
 40
1.0
 40
1.0
 40
1.0
 10
400.0190432356884
 20
606.0821349764034
 30
0.0
 10
400.0190432356884
 20
606.0983516735267
 30
0.0
 10
400.0190432356884
 20
606.1305752003431
 30
0.0
 10
400.0190432356885
 20
606.2393592082392
 30
0.0
 10
400.0190432356884
 20
606.3781889972463
 30
0.0
 10
400.0190432356885
 20
606.4852167374546
 30
0.0
 10
400.0190432356884
 20
606.539369657056
 30
0.0
  0
LINE
  5
2BF
330
1F
100
AcDbEntity
  8
0
  6
Continuous
 62
     7
370
    15
100
AcDbLine
 10
399.0122909831
 20
606.6433350587
 30
0.0
 11
399.221205263
 21
606.3961098933
 31
0.0
  0
LINE
  5
2C0
330
1F
100
AcDbEntity
  8
0
  6
Continuous
 62
     7
370
    15
100
AcDbLine
 10
400.0190432357
 20
606.5393696571
 30
0.0
 11
400.0190432357
 21
606.6433350587
 31
0.0
  0
LINE
  5
2C1
330
1F
100
AcDbEntity
  8
0
  6
Continuous
 62
     7
370
    15
100
AcDbLine
 10
394.7426463651
 20
615.7813529515
 30
0.0
 11
394.7270299481
 21
616.2405843878
 31
0.0
  0
SPLINE
  5
2C2
330
1F
100
AcDbEntity
  8
0
  6
Continuous
 62
     7
370
    15
100
AcDbSpline
210
0.0
220
0.0
230
1.0
 70
     8
 71
     3
 72
    11
 73
     7
 74
     0
 42
0.00000001
 43
0.00000001
 40
0.0
 40
0.0
 40
0.0
 40
0.0
 40
0.2495964854342604
 40
0.4993498505623883
 40
0.749384192910349
 40
1.0
 40
1.0
 40
1.0
 40
1.0
 10
396.7337544249584
 20
596.0296700740024
 30
0.0
 10
396.7580675279353
 20
595.7887850100419
 30
0.0
 10
396.806709015483
 20
595.3068634778452
 30
0.0
 10
396.8668286422659
 20
594.7115894517098
 30
0.0
 10
396.9093848353518
 20
594.2901163726433
 30
0.0
 10
396.9169779382601
 20
594.2151277206755
 30
0.0
 10
396.9207788991024
 20
594.1775898480579
 30
0.0
  0
SPLINE
  5
2C3
330
1F
100
AcDbEntity
  8
0
  6
Continuous
 62
     7
370
    15
100
AcDbSpline
210
0.0
220
0.0
230
1.0
 70
     8
 71
     3
 72
    11
 73
     7
 74
     0
 42
0.00000001
 43
0.00000001
 40
0.0
 40
0.0
 40
0.0
 40
0.0
 40
0.2499510346138598
 40
0.4997630224874046
 40
0.7497401319368467
 40
1.0
 40
1.0
 40
1.0
 40
1.0
 10
399.9036188410809
 20
594.4924811864063
 30
0.0
 10
399.8999637183121
 20
594.5286661666669
 30
0.0
 10
399.8926555061043
 20
594.6010159976311
 30
0.0
 10
399.8505801925389
 20
595.0178764772003
 30
0.0
 10
399.7908310112502
 20
595.6095850066484
 30
0.0
 10
399.7423027328833
 20
596.0902896550546
 30
0.0
 10
399.7180248784115
 20
596.3307778382465
 30
0.0
  0
LINE
  5
2C4
330
1F
100
AcDbEntity
  8
0
  6
Continuous
 62
     7
370
    15
100
AcDbLine
 10
395.1034928845
 20
646.6433341646
 30
0.0
 11
394.3517293023
 21
646.3697190428
 31
0.0
  0
LINE
  5
2C5
330
1F
100
AcDbEntity
  8
0
  6
Continuous
 62
     7
370
    15
100
AcDbLine
 10
400.551729946
 20
645.6433321381
 30
0.0
 11
400.2517397689
 21
645.6433321381
 31
0.0
  0
LINE
  5
2C6
330
1F
100
AcDbEntity
  8
0
  6
Continuous
 62
     7
370
    15
100
AcDbLine
 10
400.2517397689
 20
644.6433375621
 30
0.0
 11
400.1517380761
 21
644.6433375621
 31
0.0
  0
LINE
  5
2C7
330
1F
100
AcDbEntity
  8
0
  6
Continuous
 62
     7
370
    15
100
AcDbLine
 10
400.1517380761
 20
638.6433328533
 30
0.0
 11
400.2517397689
 21
638.6433328533
 31
0.0
  0
LINE
  5
2C8
330
1F
100
AcDbEntity
  8
0
  6
Continuous
 62
     7
370
    15
100
AcDbLine
 10
400.2517397689
 20
621.6433356548
 30
0.0
 11
400.1517380761
 21
621.6433356548
 31
0.0
  0
LINE
  5
2C9
330
1F
100
AcDbEntity
  8
0
  6
Continuous
 62
     7
370
    15
100
AcDbLine
 10
400.1517380761
 20
615.6433383966
 30
0.0
 11
400.2517397689
 21
615.6433383966
 31
0.0
  0
LINE
  5
2CA
330
1F
100
AcDbEntity
  8
0
  6
Continuous
 62
     7
370
    15
100
AcDbLine
 10
415.5517305421
 20
589.6433304095
 30
0.0
 11
415.5517305421
 21
584.6433351779
 31
0.0
  0
LINE
  5
2CB
330
1F
100
AcDbEntity
  8
0
  6
Continuous
 62
     7
370
    15
100
AcDbLine
 10
785.5517353105
 20
589.6433304095
 30
0.0
 11
785.5517353105
 21
584.6433351779
 31
0.0
  0
LINE
  5
2CC
330
1F
100
AcDbEntity
  8
0
  6
Continuous
 62
     7
370
    15
100
AcDbLine
 10
415.5517305421
 20
584.6433351779
 30
0.0
 11
785.5517353105
 21
584.6433351779
 31
0.0
  0
LINE
  5
2CD
330
1F
100
AcDbEntity
  8
0
  6
Continuous
 62
     7
370
    15
100
AcDbLine
 10
415.5517305421
 20
589.6433304095
 30
0.0
 11
785.5517353105
 21
589.6433304095
 31
0.0
  0
LINE
  5
2CE
330
1F
100
AcDbEntity
  8
0
  6
Continuous
 62
     7
370
    15
100
AcDbLine
 10
800.5517359065
 20
589.6433304095
 30
0.0
 11
800.5517359065
 21
584.6433351779
 31
0.0
  0
LINE
  5
2CF
330
1F
100
AcDbEntity
  8
0
  6
Continuous
 62
     7
370
    15
100
AcDbLine
 10
800.5517359065
 20
584.6433351779
 30
0.0
 11
785.5517353105
 21
584.6433351779
 31
0.0
  0
LINE
  5
2D0
330
1F
100
AcDbEntity
  8
0
  6
Continuous
 62
     7
370
    15
100
AcDbLine
 10
800.5517359065
 20
589.6433304095
 30
0.0
 11
785.5517353105
 21
589.6433304095
 31
0.0
  0
LINE
  5
2D1
330
1F
100
AcDbEntity
  8
0
  6
Continuous
 62
     7
370
    15
100
AcDbLine
 10
415.5517305421
 20
569.6433345819
 30
0.0
 11
415.5517305421
 21
584.6433351779
 31
0.0
  0
LINE
  5
2D2
330
1F
100
AcDbEntity
  8
0
  6
Continuous
 62
     7
370
    15
100
AcDbLine
 10
785.5517353105
 20
584.6433351779
 30
0.0
 11
785.5517353105
 21
569.6433345819
 31
0.0
  0
LINE
  5
2D3
330
1F
100
AcDbEntity
  8
0
  6
Continuous
 62
     7
370
    15
100
AcDbLine
 10
415.5517305421
 20
569.6433345819
 30
0.0
 11
785.5517353105
 21
569.6433345819
 31
0.0
  0
ARC
  5
2D4
330
1F
100
AcDbEntity
  8
0
  6
Continuous
 62
     7
370
    15
100
AcDbCircle
 10
785.5517329263
 20
584.6433347488
 30
0.0
 40
15.0
100
AcDbArc
 50
270.0
 51
0.0
  0
ARC
  5
2D5
330
1F
100
AcDbEntity
  8
0
  6
Continuous
 62
     7
370
    15
100
AcDbCircle
 10
415.5517329263
 20
584.6433347488
 30
0.0
 40
15.0
100
AcDbArc
 50
180.0
 51
270.0
  0
LINE
  5
2D6
330
1F
100
AcDbEntity
  8
0
  6
Continuous
 62
     7
370
    15
100
AcDbLine
 10
400.551729946
 20
584.6433351779
 30
0.0
 11
415.5517305421
 21
584.6433351779
 31
0.0
  0
LINE
  5
2D7
330
1F
100
AcDbEntity
  8
0
  6
Continuous
 62
     7
370
    15
100
AcDbLine
 10
400.551729946
 20
589.6433304095
 30
0.0
 11
400.551729946
 21
584.6433351779
 31
0.0
  0
LINE
  5
2D8
330
1F
100
AcDbEntity
  8
0
  6
Continuous
 62
     7
370
    15
100
AcDbLine
 10
400.551729946
 20
589.6433304095
 30
0.0
 11
415.5517305421
 21
589.6433304095
 31
0.0
  0
LINE
  5
2D9
330
1F
100
AcDbEntity
  8
0
  6
Continuous
 62
     7
370
    15
100
AcDbLine
 10
400.551729946
 20
581.1433355355
 30
0.0
 11
400.551729946
 21
584.6433351779
 31
0.0
  0
LINE
  5
2DA
330
1F
100
AcDbEntity
  8
0
  6
Continuous
 62
     7
370
    15
100
AcDbLine
 10
401.7517353581
 20
592.6433364892
 30
0.0
 11
400.551729946
 21
592.6433364892
 31
0.0
  0
LINE
  5
2DB
330
1F
100
AcDbEntity
  8
0
  6
Continuous
 62
     7
370
    15
100
AcDbLine
 10
401.7517353581
 20
589.6433304095
 30
0.0
 11
401.7517353581
 21
592.6433364892
 31
0.0
  0
LINE
  5
2DC
330
1F
100
AcDbEntity
  8
0
  6
Continuous
 62
     7
370
    15
100
AcDbLine
 10
400.551729946
 20
592.6433364892
 30
0.0
 11
400.551729946
 21
589.6433304095
 31
0.0
  0
LINE
  5
2DD
330
1F
100
AcDbEntity
  8
0
  6
Continuous
 62
     7
370
    15
100
AcDbLine
 10
401.7517353581
 20
592.6433364892
 30
0.0
 11
401.7517353581
 21
593.6433385158
 31
0.0
  0
LINE
  5
2DE
330
1F
100
AcDbEntity
  8
0
  6
Continuous
 62
     7
370
    15
100
AcDbLine
 10
400.551729946
 20
593.6433385158
 30
0.0
 11
400.551729946
 21
592.6433364892
 31
0.0
  0
SPLINE
  5
2DF
330
1F
100
AcDbEntity
  8
0
  6
Continuous
 62
     7
370
    15
100
AcDbSpline
210
0.0
220
0.0
230
1.0
 70
     8
 71
     3
 72
    12
 73
     8
 74
     0
 42
0.00000001
 43
0.00000001
 40
0.0
 40
0.0
 40
0.0
 40
0.0
 40
0.2340518051280206
 40
0.4681089500171918
 40
0.7021655779966526
 40
0.936217206423978
 40
1.0
 40
1.0
 40
1.0
 40
1.0
 10
396.848716883569
 20
611.3204519295856
 30
0.0
 10
396.6523238779511
 20
611.3010690099046
 30
0.0
 10
396.2595333861185
 20
611.2623027283323
 30
0.0
 10
395.7220364330535
 20
611.2570652865159
 30
0.0
 10
395.3485346928151
 20
611.295530072431
 30
0.0
 10
395.1693407458977
 20
611.350196641158
 30
0.0
 10
395.1980595512304
 20
611.3941502596821
 30
0.0
 10
395.2042098330547
 20
611.4035631561443
 30
0.0
  0
SPLINE
  5
2E0
330
1F
100
AcDbEntity
  8
0
  6
Continuous
 62
     7
370
    15
100
AcDbSpline
210
0.0
220
0.0
230
1.0
 70
     8
 71
     3
 72
    11
 73
     7
 74
     0
 42
0.00000001
 43
0.00000001
 40
0.0
 40
0.0
 40
0.0
 40
0.0
 40
0.1986866934056226
 40
0.4657940968944007
 40
0.7328966104905887
 40
1.0
 40
1.0
 40
1.0
 40
1.0
 10
398.1446261691143
 20
611.699336304681
 30
0.0
 10
398.1434431964535
 20
611.6748463779165
 30
0.0
 10
398.1406698769486
 20
611.6174330548364
 30
0.0
 10
397.871132793262
 20
611.5103416795647
 30
0.0
 10
397.4240833148115
 20
611.3995350415331
 30
0.0
 10
397.040505903628
 20
611.3468129957168
 30
0.0
 10
396.848716883569
 20
611.3204519295856
 30
0.0
  0
SPLINE
  5
2E1
330
1F
100
AcDbEntity
  8
0
  6
Continuous
 62
     7
370
    15
100
AcDbSpline
210
0.0
220
0.0
230
1.0
 70
     8
 71
     3
 72
    12
 73
     8
 74
     0
 42
0.00000001
 43
0.00000001
 40
0.0
 40
0.0
 40
0.0
 40
0.0
 40
0.2339657516696391
 40
0.4679297819275171
 40
0.7018962886551927
 40
0.935865542599682
 40
1.0
 40
1.0
 40
1.0
 40
1.0
 10
396.2417329834988
 20
617.3323254132434
 30
0.0
 10
396.045652810973
 20
617.3098193954536
 30
0.0
 10
395.6534939085889
 20
617.2648075254627
 30
0.0
 10
395.1505616860147
 20
616.9173184147926
 30
0.0
 10
394.8307485543708
 20
616.42382951408
 30
0.0
 10
394.7028204090331
 20
615.9702438029835
 30
0.0
 10
394.7606114804302
 20
615.7272513125529
 30
0.0
 10
394.7730447339108
 20
615.6749735617801
 30
0.0
  0
SPLINE
  5
2E2
330
1F
100
AcDbEntity
  8
0
  6
Continuous
 62
     7
370
    15
100
AcDbSpline
210
0.0
220
0.0
230
1.0
 70
     8
 71
     3
 72
    11
 73
     7
 74
     0
 42
0.00000001
 43
0.00000001
 40
0.0
 40
0.0
 40
0.0
 40
0.0
 40
0.197688317045171
 40
0.4651245499065082
 40
0.732557952030392
 40
1.0
 40
1.0
 40
1.0
 40
1.0
 10
397.7119560526897
 20
615.9820343399211
 30
0.0
 10
397.6936758578364
 20
616.1267853296092
 30
0.0
 10
397.6506658938156
 20
616.4673580044818
 30
0.0
 10
397.3252066831413
 20
616.9171309100589
 30
0.0
 10
396.8319109265224
 20
617.2648574257972
 30
0.0
 10
396.4384610844436
 20
617.3098358417477
 30
0.0
 10
396.2417329834988
 20
617.3323254132434
 30
0.0
  0
SPLINE
  5
2E3
330
1F
100
AcDbEntity
  8
0
  6
Continuous
 62
     7
370
    15
100
AcDbSpline
210
0.0
220
0.0
230
1.0
 70
     8
 71
     3
 72
    12
 73
     8
 74
     0
 42
0.00000001
 43
0.00000001
 40
0.0
 40
0.0
 40
0.0
 40
0.0
 40
0.2350187323561774
 40
0.4700313097903079
 40
0.7050488254647164
 40
0.9400629699996629
 40
1.0
 40
1.0
 40
1.0
 40
1.0
 10
398.4177942561199
 20
595.7794795775577
 30
0.0
 10
398.2214034719896
 20
595.7601016177351
 30
0.0
 10
397.8286270470207
 20
595.7213462055809
 30
0.0
 10
397.2910195001458
 20
595.7160779044337
 30
0.0
 10
396.9179562320585
 20
595.7546030877198
 30
0.0
 10
396.7389122223373
 20
595.8087244242773
 30
0.0
 10
396.7668128551375
 20
595.8520257531975
 30
0.0
 10
396.7724825429012
 20
595.8608250165149
 30
0.0
  0
SPLINE
  5
2E4
330
1F
100
AcDbEntity
  8
0
  6
Continuous
 62
     7
370
    15
100
AcDbSpline
210
0.0
220
0.0
230
1.0
 70
     8
 71
     3
 72
    11
 73
     7
 74
     0
 42
0.00000001
 43
0.00000001
 40
0.0
 40
0.0
 40
0.0
 40
0.0
 40
0.1989193009382574
 40
0.4659478716240108
 40
0.7329728264197857
 40
1.0
 40
1.0
 40
1.0
 40
1.0
 10
399.7137482451488
 20
596.158475711362
 30
0.0
 10
399.7125738733932
 20
596.1339492195661
 30
0.0
 10
399.709823029119
 20
596.076498451356
 30
0.0
 10
399.4402186766931
 20
595.9693826878264
 30
0.0
 10
398.9931568821456
 20
595.8585590268333
 30
0.0
 10
398.6095823293309
 20
595.8058394669929
 30
0.0
 10
398.4177942561199
 20
595.7794795775577
 30
0.0
  0
ELLIPSE
  5
2E5
330
1F
100
AcDbEntity
  8
0
  6
Continuous
 62
     7
370
    15
100
AcDbEllipse
 10
399.6190323266
 20
605.816226355
 30
0.0
 11
0.3991830274373456
 21
-0.02624604221159644
 31
0.0
210
0.0
220
0.0
230
1.0
 40
0.9763157485
 41
0.0
 42
6.283185307179586
  0
ARC
  5
2E6
330
1F
100
AcDbEntity
  8
0
  6
Continuous
 62
     7
370
    15
100
AcDbCircle
 10
399.6190221193
 20
606.0811103901
 30
0.0
 40
0.4000075274666111
100
AcDbArc
 50
0.1467585748
 51
179.5021275156
  0
SPLINE
  5
2E7
330
1F
100
AcDbEntity
  8
0
  6
Continuous
 62
     7
370
    15
100
AcDbSpline
210
0.0
220
0.0
230
1.0
 70
     8
 71
     3
 72
    13
 73
     9
 74
     0
 42
0.00000001
 43
0.00000001
 40
0.0
 40
0.0
 40
0.0
 40
0.0
 40
0.0081702255363152
 40
0.2391558285067378
 40
0.4711050326031623
 40
0.6931301664665489
 40
0.9042366219981457
 40
1.0
 40
1.0
 40
1.0
 40
1.0
 10
399.6190364646008
 20
606.545061900632
 30
0.0
 10
399.6173775635171
 20
606.5446671045669
 30
0.0
 10
399.5688188228424
 20
606.533110779756
 30
0.0
 10
399.4726842529661
 20
606.5099174518957
 30
0.0
 10
399.3498545691997
 20
606.4662610990079
 30
0.0
 10
399.264200528263
 20
606.4288207087934
 30
0.0
 10
399.2201839936939
 20
606.4076725677448
 30
0.0
 10
399.2234154797212
 20
606.4026929883801
 30
0.0
 10
399.2244239138653
 20
606.4011390352413
 30
0.0
  0
SPLINE
  5
2E8
330
1F
100
AcDbEntity
  8
0
  6
Continuous
 62
     7
370
    15
100
AcDbSpline
210
0.0
220
0.0
230
1.0
 70
     8
 71
     3
 72
    13
 73
     9
 74
     0
 42
0.00000001
 43
0.00000001
 40
0.0
 40
0.0
 40
0.0
 40
0.0
 40
0.1252341766304182
 40
0.2499825864961038
 40
0.4999856401740236
 40
0.7499976044866836
 40
0.8747560402315016
 40
0.9999999999999999
 40
0.9999999999999999
 40
0.9999999999999999
 40
0.9999999999999999
 10
400.0190432356884
 20
606.539369657056
 30
0.0
 10
400.0173288621781
 20
606.5393924994617
 30
0.0
 10
400.0139067649851
 20
606.5394380956701
 30
0.0
 10
399.9795294707856
 20
606.5399331937497
 30
0.0
 10
399.9042400792292
 20
606.541001392761
 30
0.0
 10
399.7956004679635
 20
606.5425535073072
 30
0.0
 10
399.6968884805602
 20
606.5439499624208
 30
0.0
 10
399.6450207136613
 20
606.5446907749898
 30
0.0
 10
399.6190364646008
 20
606.545061900632
 30
0.0
  0
SPLINE
  5
2E9
330
1F
100
AcDbEntity
  8
0
  6
Continuous
 62
     7
370
    15
100
AcDbSpline
210
0.0
220
0.0
230
1.0
 70
     8
 71
     3
 72
    10
 73
     6
 74
     0
 42
0.00000001
 43
0.00000001
 40
0.0
 40
0.0
 40
0.0
 40
0.0
 40
0.0190106334334019
 40
0.525313552957266
 40
1.0
 40
1.0
 40
1.0
 40
1.0
 10
399.6190364646008
 20
606.545061900632
 30
0.0
 10
399.6205608141195
 20
606.5457995972399
 30
0.0
 10
399.6626825805759
 20
606.566184085082
 30
0.0
 10
399.7452038097484
 20
606.604599849975
 30
0.0
 10
399.815357675881
 20
606.6307037582224
 30
0.0
 10
399.8493041085293
 20
606.6433350587055
 30
0.0
  0
LINE
  5
2EA
330
1F
100
AcDbEntity
  8
0
  6
Continuous
 62
     7
370
    15
100
AcDbLine
 10
394.7425420569
 20
615.7831857944
 30
0.0
 11
394.7549696254
 21
615.6335259819
 31
0.0
  0
LINE
  5
2EB
330
1F
100
AcDbEntity
  8
0
  6
Continuous
 62
     7
370
    15
100
AcDbLine
 10
397.7347399282
 20
615.9770350003
 30
0.0
 11
397.6991559552
 21
616.1871935272
 31
0.0
  0
ARC
  5
2EC
330
1F
100
AcDbEntity
  8
0
  6
Continuous
 62
     7
370
    15
100
AcDbCircle
 10
395.6517329263
 20
609.6633347488
 30
0.0
 40
2.200000000000031
100
AcDbArc
 50
103.5934783352
 51
268.1042765975
  0
LINE
  5
2ED
330
1F
100
AcDbEntity
  8
0
  6
Continuous
 62
     7
370
    15
100
AcDbLine
 10
392.1049024152
 20
611.0410998607
 30
0.0
 11
392.4385543155
 21
612.9333312655
 31
0.0
  0
LWPOLYLINE
  5
2EE
330
1F
100
AcDbEntity
  8
0
  6
Continuous
 62
     7
370
    15
100
AcDbPolyline
 90
        9
 70
   128
 43
0.0
 10
392.4385543155
 20
612.9333312655
 10
392.2943110751
 20
612.9587675476
 10
392.1572799968
 20
612.9829297805
 10
392.0321698474
 20
613.0049909496
 10
391.9233168649
 20
613.0241836453
 10
391.834491043
 20
613.0398447657
 10
391.768762021
 20
613.0514378691
 10
391.7283947753
 20
613.0585531736
 10
391.714775114
 20
613.0609597111
  0
LINE
  5
2EF
330
1F
100
AcDbEntity
  8
0
  6
Continuous
 62
     7
370
    15
100
AcDbLine
 10
391.714775114
 20
613.0609597111
 30
0.0
 11
396.0898156451
 21
637.8730694795
 31
0.0
  0
LWPOLYLINE
  5
2F0
330
1F
100
AcDbEntity
  8
0
  6
Continuous
 62
     7
370
    15
100
AcDbPolyline
 90
        9
 70
   128
 43
0.0
 10
396.0898156451
 20
637.8730694795
 10
396.1049552249
 20
637.870394721
 10
396.1497928189
 20
637.862489655
 10
396.2225998925
 20
637.8496523047
 10
396.3205750274
 20
637.8323818588
 10
396.4399631309
 20
637.8113265181
 10
396.5761746453
 20
637.7873132968
 10
396.7239643621
 20
637.7612511659
 10
396.8776698398
 20
637.7341459537
  0
LINE
  5
2F1
330
1F
100
AcDbEntity
  8
0
  6
Continuous
 62
     7
370
    15
100
AcDbLine
 10
396.8776698398
 20
637.7341459537
 30
0.0
 11
392.0523311185
 21
610.3683496857
 31
0.0
  0
LINE
  5
2F2
330
1F
100
AcDbEntity
  8
0
  6
Continuous
 62
     7
370
    15
100
AcDbLine
 10
392.0523311185
 20
610.3683496857
 30
0.0
 11
392.1049024152
 21
611.0410998607
 31
0.0
  0
LINE
  5
2F3
330
1F
100
AcDbEntity
  8
0
  6
Continuous
 62
     7
370
    15
100
AcDbLine
 10
395.8366449164
 20
644.6290175462
 30
0.0
 11
396.4129771279
 21
643.0455307508
 31
0.0
  0
LWPOLYLINE
  5
2F4
330
1F
100
AcDbEntity
  8
0
  6
Continuous
 62
     7
370
    15
100
AcDbPolyline
 90
        9
 70
   128
 43
0.0
 10
395.6612284469
 20
642.7719156289
 10
395.6756676721
 20
642.7771757388
 10
395.7184489059
 20
642.7927474523
 10
395.7879181193
 20
642.8180272722
 10
395.8814080047
 20
642.8520540738
 10
395.995327382
 20
642.8935165548
 10
396.1252953099
 20
642.9408277416
 10
396.2663198995
 20
642.9921547914
 10
396.4129771279
 20
643.0455307508
  0
LINE
  5
2F5
330
1F
100
AcDbEntity
  8
0
  6
Continuous
 62
     7
370
    15
100
AcDbLine
 10
395.6612284469
 20
642.7719156289
 30
0.0
 11
394.9371214198
 21
644.7613920117
 31
0.0
  0
SPLINE
  5
2F6
330
1F
100
AcDbEntity
  8
0
  6
Continuous
 62
     7
370
    15
100
AcDbSpline
210
0.0
220
0.0
230
1.0
 70
     8
 71
     3
 72
    12
 73
     8
 74
     0
 42
0.00000001
 43
0.00000001
 40
0.0
 40
0.0
 40
0.0
 40
0.0
 40
0.2510172357647315
 40
0.5023980923729131
 40
0.7402747485671194
 40
0.9473067201835714
 40
1.0
 40
1.0
 40
1.0
 40
1.0
 10
394.9371214198162
 20
644.7613920116588
 30
0.0
 10
394.9648312693737
 20
644.717074012815
 30
0.0
 10
395.020291108676
 20
644.6283738165553
 30
0.0
 10
395.2272800106516
 20
644.553384757508
 30
0.0
 10
395.4886760930178
 20
644.5418892348646
 30
0.0
 10
395.7052564878918
 20
644.5835355105693
 30
0.0
 10
395.8144846201176
 20
644.6213464339191
 30
0.0
 10
395.836644916444
 20
644.6290175461933
 30
0.0
  0
LWPOLYLINE
  5
2F7
330
1F
100
AcDbEntity
  8
0
  6
Continuous
 62
     7
370
    15
100
AcDbPolyline
 90
        5
 70
   128
 43
0.0
 10
394.9371214198
 20
644.7613920117
 10
394.6836377667
 20
645.4577977801
 10
394.5000852632
 20
645.9621126795
 10
394.388952403
 20
646.2674672747
 10
394.3517293023
 20
646.3697190428
  0
LWPOLYLINE
  5
2F8
330
1F
100
AcDbEntity
  8
0
  6
Continuous
 62
     7
370
    15
100
AcDbPolyline
 90
        5
 70
   128
 43
0.0
 10
395.696737914
 20
645.013378098
 10
395.4399014997
 20
645.7190523887
 10
395.2538605022
 20
646.2301696682
 10
395.1412077235
 20
646.539689138
 10
395.1034928845
 20
646.6433341646
  0
LINE
  5
2F9
330
1F
100
AcDbEntity
  8
0
  6
Continuous
 62
     7
370
    15
100
AcDbLine
 10
395.9188397216
 20
644.6589390779
 30
0.0
 11
395.696737914
 21
645.013378098
 31
0.0
  0
LINE
  5
2FA
330
1F
100
AcDbEntity
  8
0
  6
Continuous
 62
     7
370
    15
100
AcDbLine
 10
395.8366449164
 20
644.6290175462
 30
0.0
 11
395.9188397216
 21
644.6589390779
 31
0.0
  0
ARC
  5
2FB
330
1F
100
AcDbEntity
  8
0
  6
Continuous
 62
     7
370
    15
100
AcDbCircle
 10
386.7341458858
 20
639.5227252171
 30
0.0
 40
9.499999999999945
100
AcDbArc
 50
350.0
 51
20.0
  0
ARC
  5
2FC
330
1F
100
AcDbEntity
  8
0
  6
Continuous
 62
     7
370
    15
100
AcDbCircle
 10
386.7341458858
 20
639.5227252171
 30
0.0
 40
10.30000000000015
100
AcDbArc
 50
350.0
 51
20.0
  0
ARC
  5
2FD
330
1F
100
AcDbEntity
  8
0
  6
Continuous
 62
     7
370
    15
100
AcDbCircle
 10
396.2417384324
 20
615.8323256672
 30
0.0
 40
1.600000000000018
100
AcDbArc
 50
348.026450872
 51
204.5705045339
  0
ARC
  5
2FE
330
1F
100
AcDbEntity
  8
0
  6
Continuous
 62
     7
370
    15
100
AcDbCircle
 10
396.7544473977
 20
643.8553996031
 30
0.0
 40
0.5
100
AcDbArc
 50
36.8410865502
 51
90.0
  0
LINE
  5
2FF
330
1F
100
AcDbEntity
  8
0
  6
Continuous
 62
     7
370
    15
100
AcDbLine
 10
399.0517343568
 20
638.4590203905
 30
0.0
 11
399.0517343568
 21
610.4333336497
 31
0.0
  0
ARC
  5
300
330
1F
100
AcDbEntity
  8
0
  6
Continuous
 62
     7
370
    15
100
AcDbCircle
 10
396.6364348521
 20
645.3553996031
 30
0.0
 40
1.0
100
AcDbArc
 50
224.1440002858
 51
270.0
  0
ARC
  5
301
330
1F
100
AcDbEntity
  8
0
  6
Continuous
 62
     7
370
    15
100
AcDbCircle
 10
389.5517329263
 20
638.4590207947
 30
0.0
 40
9.499999999999943
100
AcDbArc
 50
0.0
 51
36.8410865502
  0
LINE
  5
302
330
1F
100
AcDbEntity
  8
0
  6
Continuous
 62
     7
370
    15
100
AcDbLine
 10
396.6364349412
 20
644.3554024244
 30
0.0
 11
396.7544521379
 21
644.3554024244
 31
0.0
  0
LWPOLYLINE
  5
303
330
1F
100
AcDbEntity
  8
0
  6
Continuous
 62
     7
370
    15
100
AcDbPolyline
 90
        3
 70
   128
 43
0.0
 10
399.0517343568
 20
610.4333336497
 10
398.8431181001
 20
609.2430512452
 10
398.4869505452
 20
608.5268939877
  0
ARC
  5
304
330
1F
100
AcDbEntity
  8
0
  6
Continuous
 62
     7
370
    15
100
AcDbCircle
 10
395.5517329263
 20
610.4333347488
 30
0.0
 40
3.500000000000001
100
AcDbArc
 50
181.0639402281
 51
271.3221928088
  0
ARC
  5
305
330
1F
100
AcDbEntity
  8
0
  6
Continuous
 62
     7
370
    15
100
AcDbCircle
 10
396.1453507197
 20
611.1308302756
 30
0.0
 40
4.69842830268841
100
AcDbArc
 50
170.0
 51
264.3261771657
  0
LINE
  5
306
330
1F
100
AcDbEntity
  8
0
  6
Continuous
 62
     7
370
    15
100
AcDbLine
 10
391.714775114
 20
613.0609597111
 30
0.0
 11
391.5183033036
 21
611.9467030311
 31
0.0
  0
LINE
  5
307
330
1F
100
AcDbEntity
  8
0
  6
Continuous
 62
     7
370
    15
100
AcDbLine
 10
785.5517353105
 20
714.6433350662
 30
0.0
 11
415.5517305421
 21
714.6433350662
 31
0.0
  0
LINE
  5
308
330
1F
100
AcDbEntity
  8
0
  6
Continuous
 62
     7
370
    15
100
AcDbLine
 10
415.5517305421
 20
714.6433350662
 30
0.0
 11
415.5517305421
 21
729.6433347309
 31
0.0
  0
LINE
  5
309
330
1F
100
AcDbEntity
  8
0
  6
Continuous
 62
     7
370
    15
100
AcDbLine
 10
785.5517353105
 20
729.6433347309
 30
0.0
 11
415.5517305421
 21
729.6433347309
 31
0.0
  0
LINE
  5
30A
330
1F
100
AcDbEntity
  8
0
  6
Continuous
 62
     7
370
    15
100
AcDbLine
 10
785.5517353105
 20
714.6433350662
 30
0.0
 11
785.5517353105
 21
729.6433347309
 31
0.0
  0
LINE
  5
30B
330
1F
100
AcDbEntity
  8
0
  6
Continuous
 62
     7
370
    15
100
AcDbLine
 10
785.5517353105
 20
593.6433385158
 30
0.0
 11
785.5517353105
 21
714.6433350662
 31
0.0
  0
LINE
  5
30C
330
1F
100
AcDbEntity
  8
0
  6
Continuous
 62
     7
370
    15
100
AcDbLine
 10
785.5517353105
 20
714.6433350662
 30
0.0
 11
800.5517359065
 21
714.6433350662
 31
0.0
  0
LINE
  5
30D
330
1F
100
AcDbEntity
  8
0
  6
Continuous
 62
     7
370
    15
100
AcDbLine
 10
800.5517359065
 20
593.6433385158
 30
0.0
 11
800.5517359065
 21
714.6433350662
 31
0.0
  0
LINE
  5
30E
330
1F
100
AcDbEntity
  8
0
  6
Continuous
 62
     7
370
    15
100
AcDbLine
 10
800.5517359065
 20
593.6433385158
 30
0.0
 11
785.5517353105
 21
593.6433385158
 31
0.0
  0
LINE
  5
30F
330
1F
100
AcDbEntity
  8
0
  6
Continuous
 62
     7
370
    15
100
AcDbLine
 10
415.5517305421
 20
714.6433350662
 30
0.0
 11
400.551729946
 21
714.6433350662
 31
0.0
  0
ARC
  5
310
330
1F
100
AcDbEntity
  8
0
  6
Continuous
 62
     7
370
    15
100
AcDbCircle
 10
415.5517329263
 20
714.6433347488
 30
0.0
 40
15.00000000000006
100
AcDbArc
 50
90.0
 51
180.0
  0
LINE
  5
311
330
1F
100
AcDbEntity
  8
0
  6
Continuous
 62
     7
370
    15
100
AcDbLine
 10
400.551729946
 20
593.6433385158
 30
0.0
 11
400.551729946
 21
714.6433350662
 31
0.0
  0
LINE
  5
312
330
1F
100
AcDbEntity
  8
0
  6
Continuous
 62
     7
370
    15
100
AcDbLine
 10
415.5517305421
 20
593.6433385158
 30
0.0
 11
415.5517305421
 21
714.6433350662
 31
0.0
  0
LINE
  5
313
330
1F
100
AcDbEntity
  8
0
  6
Continuous
 62
     7
370
    15
100
AcDbLine
 10
415.5517305421
 20
593.6433385158
 30
0.0
 11
400.551729946
 21
593.6433385158
 31
0.0
  0
LINE
  5
314
330
1F
100
AcDbEntity
  8
0
  6
Continuous
 62
     7
370
    15
100
AcDbLine
 10
415.5517305421
 20
593.6433385158
 30
0.0
 11
785.5517353105
 21
593.6433385158
 31
0.0
  0
LINE
  5
315
330
1F
100
AcDbEntity
  8
0
  6
Continuous
 62
     7
370
    15
100
AcDbLine
 10
420.5517257737
 20
613.6433343434
 30
0.0
 11
420.5517257737
 21
709.6433351779
 31
0.0
  0
LINE
  5
316
330
1F
100
AcDbEntity
  8
0
  6
Continuous
 62
     7
370
    15
100
AcDbLine
 10
420.5517257737
 20
613.6433343434
 30
0.0
 11
780.5517400788
 21
613.6433343434
 31
0.0
  0
LINE
  5
317
330
1F
100
AcDbEntity
  8
0
  6
Continuous
 62
     7
370
    15
100
AcDbLine
 10
780.5517400788
 20
709.6433351779
 30
0.0
 11
780.5517400788
 21
613.6433343434
 31
0.0
  0
LINE
  5
318
330
1F
100
AcDbEntity
  8
0
  6
Continuous
 62
     7
370
    15
100
AcDbLine
 10
780.5517400788
 20
709.6433351779
 30
0.0
 11
420.5517257737
 21
709.6433351779
 31
0.0
  0
ARC
  5
319
330
1F
100
AcDbEntity
  8
0
  6
Continuous
 62
     7
370
    15
100
AcDbCircle
 10
785.5517329263
 20
714.6433347488
 30
0.0
 40
15.0
100
AcDbArc
 50
0.0
 51
90.0
  0
LINE
  5
31A
330
1F
100
AcDbEntity
  8
0
  6
Continuous
 62
     7
370
    15
100
AcDbLine
 10
420.5517257737
 20
589.6433304095
 30
0.0
 11
420.5517257737
 21
593.6433385158
 31
0.0
  0
LINE
  5
31B
330
1F
100
AcDbEntity
  8
0
  6
Continuous
 62
     7
370
    15
100
AcDbLine
 10
405.5517400788
 20
589.6433304095
 30
0.0
 11
405.5517400788
 21
593.6433385158
 31
0.0
  0
LINE
  5
31C
330
1F
100
AcDbEntity
  8
0
  6
Continuous
 62
     7
370
    15
100
AcDbLine
 10
780.5517400788
 20
589.6433304095
 30
0.0
 11
780.5517400788
 21
593.6433385158
 31
0.0
  0
LINE
  5
31D
330
1F
100
AcDbEntity
  8
0
  6
Continuous
 62
     7
370
    15
100
AcDbLine
 10
795.5517257737
 20
593.6433385158
 30
0.0
 11
795.5517257737
 21
589.6433304095
 31
0.0
  0
LINE
  5
31E
330
1F
100
AcDbEntity
  8
0
  6
Continuous
 62
     7
370
    15
100
AcDbLine
 10
800.5517359065
 20
593.6433385158
 30
0.0
 11
801.2190546083
 21
593.6433385158
 31
0.0
  0
ARC
  5
31F
330
1F
100
AcDbEntity
  8
0
  6
Continuous
 62
     7
370
    15
100
AcDbCircle
 10
801.2190506744
 20
594.1433347488
 30
0.0
 40
0.5000000000001137
100
AcDbArc
 50
270.0
 51
332.720387264
  0
ARC
  5
320
330
1F
100
AcDbEntity
  8
0
  6
Continuous
 62
     7
370
    15
100
AcDbCircle
 10
800.989584061
 20
589.1433347488
 30
0.0
 40
0.5
100
AcDbArc
 50
22.0243128371
 51
90.0
  0
ARC
  5
321
330
1F
100
AcDbEntity
  8
0
  6
Continuous
 62
     7
370
    15
100
AcDbCircle
 10
806.5517329263
 20
591.3933347488
 30
0.0
 40
5.500000000000115
100
AcDbArc
 50
202.024312837
 51
152.720387264
  0
LINE
  5
322
330
1F
100
AcDbEntity
  8
0
  6
Continuous
 62
     7
370
    15
100
AcDbLine
 10
800.9895767259
 20
589.6433304095
 30
0.0
 11
800.5517359065
 21
589.6433304095
 31
0.0
  0
LINE
  5
323
330
1F
100
AcDbEntity
  8
0
  6
Continuous
 62
     7
370
    15
100
AcDbLine
 10
400.551729946
 20
606.6433350587
 30
0.0
 11
400.2517397689
 21
606.6433350587
 31
0.0
  0
LINE
  5
324
330
1F
100
AcDbEntity
  8
0
  6
Continuous
 62
     7
370
    15
100
AcDbLine
 10
400.2517397689
 20
606.6433350587
 30
0.0
 11
400.2517397689
 21
612.8433357024
 31
0.0
  0
LINE
  5
325
330
1F
100
AcDbEntity
  8
0
  6
Continuous
 62
     7
370
    15
100
AcDbLine
 10
400.2517397689
 20
612.8433357024
 30
0.0
 11
400.551729946
 21
612.8443936849
 31
0.0
  0
LINE
  5
326
330
1F
100
AcDbEntity
  8
0
  6
Continuous
 62
     7
370
    15
100
AcDbLine
 10
400.551729946
 20
614.843332305
 30
0.0
 11
400.2517397689
 21
614.843332305
 31
0.0
  0
LINE
  5
327
330
1F
100
AcDbEntity
  8
0
  6
Continuous
 62
     7
370
    15
100
AcDbLine
 10
400.2517397689
 20
612.8433357024
 30
0.0
 11
400.2517397689
 21
614.843332305
 31
0.0
  0
ARC
  5
328
330
1F
100
AcDbEntity
  8
0
  6
Continuous
 62
     7
370
    15
100
AcDbCircle
 10
395.3517329263
 20
609.7433347488
 30
0.0
 40
3.100000000000023
100
AcDbArc
 50
192.3149213774
 51
270.0
  0
LINE
  5
329
330
1F
100
AcDbEntity
  8
0
  6
Continuous
 62
     7
370
    15
100
AcDbLine
 10
395.3517313289
 20
606.6433350587
 30
0.0
 11
395.6618691968
 21
606.6433350587
 31
0.0
  0
LINE
  5
32A
330
1F
100
AcDbEntity
  8
0
  6
Continuous
 62
     7
370
    15
100
AcDbLine
 10
398.6771191644
 20
606.6433350587
 30
0.0
 11
400.2517397689
 21
606.6433350587
 31
0.0
  0
LINE
  5
32B
330
1F
100
AcDbEntity
  8
0
  6
Continuous
 62
     7
370
    15
100
AcDbLine
 10
400.2517397689
 20
612.8433357024
 30
0.0
 11
399.0517343568
 21
612.8433357024
 31
0.0
  0
LINE
  5
32C
330
1F
100
AcDbEntity
  8
0
  6
Continuous
 62
     7
370
    15
100
AcDbLine
 10
400.2517397689
 20
645.6433321381
 30
0.0
 11
400.2517397689
 21
638.8933370853
 31
0.0
  0
LINE
  5
32D
330
1F
100
AcDbEntity
  8
0
  6
Continuous
 62
     7
370
    15
100
AcDbLine
 10
400.2517397689
 20
614.843332305
 30
0.0
 11
400.2517397689
 21
638.8933370853
 31
0.0
  0
LINE
  5
32E
330
1F
100
AcDbEntity
  8
0
  6
Continuous
 62
     7
370
    15
100
AcDbLine
 10
400.1517380761
 20
638.6433328533
 30
0.0
 11
400.1517380761
 21
644.6433375621
 31
0.0
  0
LINE
  5
32F
330
1F
100
AcDbEntity
  8
0
  6
Continuous
 62
     7
370
    15
100
AcDbLine
 10
400.1517380761
 20
615.6433383966
 30
0.0
 11
400.1517380761
 21
621.6433356548
 31
0.0
  0
LINE
  5
330
330
1F
100
AcDbEntity
  8
0
  6
Continuous
 62
     7
370
    15
100
AcDbLine
 10
400.2517397689
 20
629.6433369661
 30
0.0
 11
399.0517343568
 21
629.9648742223
 31
0.0
  0
LINE
  5
331
330
1F
100
AcDbEntity
  8
0
  6
Continuous
 62
     7
370
    15
100
AcDbLine
 10
399.0517343568
 20
631.0001472974
 30
0.0
 11
400.2517397689
 21
630.6786100412
 31
0.0
  0
LINE
  5
332
330
1F
100
AcDbEntity
  8
0
  6
Continuous
 62
     8
370
    15
100
AcDbLine
 10
400.551729946
 20
638.8933370853
 30
0.0
 11
400.2517397689
 21
638.8933370853
 31
0.0
  0
ENDSEC
  0
SECTION
  2
OBJECTS
  0
DICTIONARY
  5
C
330
0
100
AcDbDictionary
281
     1
  3
ACAD_GROUP
350
D
  3
ACAD_LAYOUT
350
1A
  3
ACAD_MLINESTYLE
350
17
  3
ACAD_PLOTSETTINGS
350
19
  3
ACAD_PLOTSTYLENAME
350
E
  0
DICTIONARY
  5
D
102
{ACAD_REACTORS
330
C
102
}
330
C
100
AcDbDictionary
281
     1
  0
DICTIONARY
  5
1A
102
{ACAD_REACTORS
330
C
102
}
330
C
100
AcDbDictionary
281
     1
  3
Layout1
350
1E
  3
Layout2
350
26
  3
Model
350
22
  0
DICTIONARY
  5
17
102
{ACAD_REACTORS
330
C
102
}
330
C
100
AcDbDictionary
281
     1
  3
Standard
350
18
  0
DICTIONARY
  5
19
102
{ACAD_REACTORS
330
C
102
}
330
C
100
AcDbDictionary
281
     1
  0
ACDBDICTIONARYWDFLT
  5
E
102
{ACAD_REACTORS
330
C
102
}
330
C
100
AcDbDictionary
281
     1
  3
Normal
350
F
100
AcDbDictionaryWithDefault
340
F
  0
LAYOUT
  5
1E
102
{ACAD_REACTORS
330
1A
102
}
330
1A
100
AcDbPlotSettings
  1

  2
none_device
  4

  6

 40
0.0
 41
0.0
 42
0.0
 43
0.0
 44
0.0
 45
0.0
 46
0.0
 47
0.0
 48
0.0
 49
0.0
140
0.0
141
0.0
142
1.0
143
1.0
 70
   688
 72
     0
 73
     0
 74
     5
  7

 75
    16
147
1.0
148
0.0
149
0.0
100
AcDbLayout
  1
Layout1
 70
     1
 71
     1
 10
0.0
 20
0.0
 11
420.0
 21
297.0
 12
0.0
 22
0.0
 32
0.0
 14
1.0000000000E+20
 24
1.0000000000E+20
 34
1.0000000000E+20
 15
-1.0000000000E+20
 25
-1.0000000000E+20
 35
-1.0000000000E+20
146
0.0
 13
0.0
 23
0.0
 33
0.0
 16
1.0
 26
0.0
 36
0.0
 17
0.0
 27
1.0
 37
0.0
 76
     0
330
1B
  0
LAYOUT
  5
26
102
{ACAD_REACTORS
330
1A
102
}
330
1A
100
AcDbPlotSettings
  1

  2
none_device
  4

  6

 40
0.0
 41
0.0
 42
0.0
 43
0.0
 44
0.0
 45
0.0
 46
0.0
 47
0.0
 48
0.0
 49
0.0
140
0.0
141
0.0
142
1.0
143
1.0
 70
   688
 72
     0
 73
     0
 74
     5
  7

 75
    16
147
1.0
148
0.0
149
0.0
100
AcDbLayout
  1
Layout2
 70
     1
 71
     2
 10
0.0
 20
0.0
 11
0.0
 21
0.0
 12
0.0
 22
0.0
 32
0.0
 14
0.0
 24
0.0
 34
0.0
 15
0.0
 25
0.0
 35
0.0
146
0.0
 13
0.0
 23
0.0
 33
0.0
 16
1.0
 26
0.0
 36
0.0
 17
0.0
 27
1.0
 37
0.0
 76
     0
330
23
  0
LAYOUT
  5
22
102
{ACAD_REACTORS
330
1A
102
}
330
1A
100
AcDbPlotSettings
  1

  2
none_device
  4

  6

 40
0.0
 41
0.0
 42
0.0
 43
0.0
 44
0.0
 45
0.0
 46
0.0
 47
0.0
 48
0.0
 49
0.0
140
0.0
141
0.0
142
1.0
143
1.0
 70
  1712
 72
     0
 73
     0
 74
     0
  7

 75
     0
147
1.0
148
0.0
149
0.0
100
AcDbLayout
  1
Model
 70
     1
 71
     0
 10
0.0
 20
0.0
 11
840.0
 21
594.0
 12
0.0
 22
0.0
 32
0.0
 14
0.0
 24
0.0
 34
0.0
 15
840.0
 25
594.0
 35
0.0
146
0.0
 13
0.0
 23
0.0
 33
0.0
 16
1.0
 26
0.0
 36
0.0
 17
0.0
 27
1.0
 37
0.0
 76
     0
330
1F
331
29
  0
MLINESTYLE
  5
18
102
{ACAD_REACTORS
330
17
102
}
330
17
100
AcDbMlineStyle
  2
Standard
 70
     0
  3

 62
   256
 51
90.0
 52
90.0
 71
     2
 49
0.5
 62
   256
  6
BYLAYER
 49
-0.5
 62
   256
  6
BYLAYER
  0
ACDBPLACEHOLDER
  5
F
102
{ACAD_REACTORS
330
E
102
}
330
E
  0
ENDSEC
  0
EOF
