  0
SECTION
  2
HEADER
  9
$ACADVER
  1
AC1015
  9
$ACADMAINTVER
 70
     6
  9
$DWGCODEPAGE
  3
DOS932
  9
$INSBASE
 10
0.0
 20
0.0
 30
0.0
  9
$EXTMIN
 10
0.0
 20
0.0
 30
0.0
  9
$EXTMAX
 10
840.0
 20
594.0
 30
0.0
  9
$LIMMIN
 10
0.0
 20
0.0
  9
$LIMMAX
 10
840.0
 20
594.0
  9
$ORTHOMODE
 70
     0
  9
$REGENMODE
 70
     1
  9
$FILLMODE
 70
     1
  9
$QTEXTMODE
 70
     0
  9
$MIRRTEXT
 70
     1
  9
$LTSCALE
 40
2.0
  9
$ATTMODE
 70
     1
  9
$TEXTSIZE
 40
7.0
  9
$TRACEWID
 40
1.0
  9
$TEXTSTYLE
  7
Standard
  9
$CLAYER
  8
0
  9
$CELTYPE
  6
ByLayer
  9
$CECOLOR
 62
   256
  9
$CELTSCALE
 40
1.0
  9
$DISPSILH
 70
     0
  9
$DIMSCALE
 40
1.0
  9
$DIMASZ
 40
6.0
  9
$DIMEXO
 40
2.0
  9
$DIMDLI
 40
3.75
  9
$DIMRND
 40
0.0
  9
$DIMDLE
 40
0.0
  9
$DIMEXE
 40
2.0
  9
$DIMTP
 40
0.0
  9
$DIMTM
 40
0.0
  9
$DIMTXT
 40
7.0
  9
$DIMCEN
 40
2.5
  9
$DIMTSZ
 40
0.0
  9
$DIMTOL
 70
     0
  9
$DIMLIM
 70
     0
  9
$DIMTIH
 70
     1
  9
$DIMTOH
 70
     1
  9
$DIMSE1
 70
     0
  9
$DIMSE2
 70
     0
  9
$DIMTAD
 70
     1
  9
$DIMZIN
 70
     0
  9
$DIMBLK
  1

  9
$DIMASO
 70
     1
  9
$DIMSHO
 70
     1
  9
$DIMPOST
  1

  9
$DIMAPOST
  1

  9
$DIMALT
 70
     0
  9
$DIMALTD
 70
     3
  9
$DIMALTF
 40
0.0393700787
  9
$DIMLFAC
 40
1.0
  9
$DIMTOFL
 70
     1
  9
$DIMTVP
 40
0.0
  9
$DIMTIX
 70
     0
  9
$DIMSOXD
 70
     0
  9
$DIMSAH
 70
     0
  9
$DIMBLK1
  1

  9
$DIMBLK2
  1

  9
$DIMSTYLE
  2
ISO-25
  9
$DIMCLRD
 70
     0
  9
$DIMCLRE
 70
     0
  9
$DIMCLRT
 70
     0
  9
$DIMTFAC
 40
1.0
  9
$DIMGAP
 40
3.048
  9
$DIMJUST
 70
     0
  9
$DIMSD1
 70
     0
  9
$DIMSD2
 70
     0
  9
$DIMTOLJ
 70
     0
  9
$DIMTZIN
 70
     0
  9
$DIMALTZ
 70
     0
  9
$DIMALTTZ
 70
     0
  9
$DIMUPT
 70
     0
  9
$DIMDEC
 70
     1
  9
$DIMTDEC
 70
     1
  9
$DIMALTU
 70
     2
  9
$DIMALTTD
 70
     3
  9
$DIMTXSTY
  7
Standard
  9
$DIMAUNIT
 70
     0
  9
$DIMADEC
 70
     2
  9
$DIMALTRND
 40
0.0
  9
$DIMAZIN
 70
     0
  9
$DIMDSEP
 70
    44
  9
$DIMATFIT
 70
     3
  9
$DIMFRAC
 70
     0
  9
$DIMLDRBLK
  1

  9
$DIMLUNIT
 70
     2
  9
$DIMLWD
 70
    -2
  9
$DIMLWE
 70
    -2
  9
$DIMTMOVE
 70
     0
  9
$LUNITS
 70
     2
  9
$LUPREC
 70
     1
  9
$SKETCHINC
 40
1.0
  9
$FILLETRAD
 40
10.0
  9
$AUNITS
 70
     0
  9
$AUPREC
 70
     2
  9
$MENU
  1
.
  9
$ELEVATION
 40
0.0
  9
$PELEVATION
 40
0.0
  9
$THICKNESS
 40
0.0
  9
$LIMCHECK
 70
     0
  9
$CHAMFERA
 40
10.0
  9
$CHAMFERB
 40
10.0
  9
$CHAMFERC
 40
20.0
  9
$CHAMFERD
 40
0.0
  9
$SKPOLY
 70
     0
  9
$TDCREATE
 40
2460445.594408877
  9
$TDUCREATE
 40
2460445.219408877
  9
$TDUPDATE
 40
2460445.594408889
  9
$TDUUPDATE
 40
2460445.219408889
  9
$TDINDWG
 40
0.0000000116
  9
$TDUSRTIMER
 40
0.0000000116
  9
$USRTIMER
 70
     1
  9
$ANGBASE
 50
0.0
  9
$ANGDIR
 70
     0
  9
$PDMODE
 70
     0
  9
$PDSIZE
 40
-1.0
  9
$PLINEWID
 40
0.0
  9
$SPLFRAME
 70
     0
  9
$SPLINETYPE
 70
     6
  9
$SPLINESEGS
 70
     8
  9
$HANDSEED
  5
253
  9
$SURFTAB1
 70
     6
  9
$SURFTAB2
 70
     6
  9
$SURFTYPE
 70
     6
  9
$SURFU
 70
     6
  9
$SURFV
 70
     6
  9
$UCSBASE
  2

  9
$UCSNAME
  2

  9
$UCSORG
 10
0.0
 20
0.0
 30
0.0
  9
$UCSXDIR
 10
1.0
 20
0.0
 30
0.0
  9
$UCSYDIR
 10
0.0
 20
1.0
 30
0.0
  9
$UCSORTHOREF
  2

  9
$UCSORTHOVIEW
 70
     0
  9
$UCSORGTOP
 10
0.0
 20
0.0
 30
0.0
  9
$UCSORGBOTTOM
 10
0.0
 20
0.0
 30
0.0
  9
$UCSORGLEFT
 10
0.0
 20
0.0
 30
0.0
  9
$UCSORGRIGHT
 10
0.0
 20
0.0
 30
0.0
  9
$UCSORGFRONT
 10
0.0
 20
0.0
 30
0.0
  9
$UCSORGBACK
 10
0.0
 20
0.0
 30
0.0
  9
$PUCSBASE
  2

  9
$PUCSNAME
  2

  9
$PUCSORG
 10
0.0
 20
0.0
 30
0.0
  9
$PUCSXDIR
 10
1.0
 20
0.0
 30
0.0
  9
$PUCSYDIR
 10
0.0
 20
1.0
 30
0.0
  9
$PUCSORTHOREF
  2

  9
$PUCSORTHOVIEW
 70
     0
  9
$PUCSORGTOP
 10
0.0
 20
0.0
 30
0.0
  9
$PUCSORGBOTTOM
 10
0.0
 20
0.0
 30
0.0
  9
$PUCSORGLEFT
 10
0.0
 20
0.0
 30
0.0
  9
$PUCSORGRIGHT
 10
0.0
 20
0.0
 30
0.0
  9
$PUCSORGFRONT
 10
0.0
 20
0.0
 30
0.0
  9
$PUCSORGBACK
 10
0.0
 20
0.0
 30
0.0
  9
$USERI1
 70
     0
  9
$USERI2
 70
     0
  9
$USERI3
 70
     0
  9
$USERI4
 70
     0
  9
$USERI5
 70
     0
  9
$USERR1
 40
0.0
  9
$USERR2
 40
0.0
  9
$USERR3
 40
0.0
  9
$USERR4
 40
0.0
  9
$USERR5
 40
0.0
  9
$WORLDVIEW
 70
     1
  9
$SHADEDGE
 70
     3
  9
$SHADEDIF
 70
    70
  9
$TILEMODE
 70
     1
  9
$MAXACTVP
 70
    64
  9
$PINSBASE
 10
0.0
 20
0.0
 30
0.0
  9
$PLIMCHECK
 70
     0
  9
$PEXTMIN
 10
1.0000000000E+20
 20
1.0000000000E+20
 30
1.0000000000E+20
  9
$PEXTMAX
 10
-1.0000000000E+20
 20
-1.0000000000E+20
 30
-1.0000000000E+20
  9
$PLIMMIN
 10
0.0
 20
0.0
  9
$PLIMMAX
 10
420.0
 20
297.0
  9
$UNITMODE
 70
     0
  9
$VISRETAIN
 70
     1
  9
$PLINEGEN
 70
     0
  9
$PSLTSCALE
 70
     1
  9
$TREEDEPTH
 70
  3020
  9
$CMLSTYLE
  2
Standard
  9
$CMLJUST
 70
     0
  9
$CMLSCALE
 40
20.0
  9
$PROXYGRAPHICS
 70
     1
  9
$MEASUREMENT
 70
     1
  9
$CELWEIGHT
370
    -1
  9
$ENDCAPS
280
     0
  9
$JOINSTYLE
280
     0
  9
$LWDISPLAY
290
     1
  9
$INSUNITS
 70
     4
  9
$HYPERLINKBASE
  1

  9
$STYLESHEET
  1

  9
$XEDIT
290
     1
  9
$CEPSNTYPE
380
     0
  9
$PSTYLEMODE
290
     1
  9
$FINGERPRINTGUID
  2
{80E8B3D9-E94C-4806-82F6-6EB946A44FC4}
  9
$VERSIONGUID
  2
{FAEB1C32-E019-11D5-929B-00C0DF256EC4}
  9
$EXTNAMES
290
     1
  9
$PSVPSCALE
 40
0.0
  9
$OLESTARTUP
290
     0
  0
ENDSEC
  0
SECTION
  2
CLASSES
  0
CLASS
  1
ACDBDICTIONARYWDFLT
  2
AcDbDictionaryWithDefault
  3
ObjectDBX Classes
 90
        0
280
     0
281
     0
  0
CLASS
  1
VISUALSTYLE
  2
AcDbVisualStyle
  3
ObjectDBX Classes
 90
     4095
280
     0
281
     0
  0
CLASS
  1
MATERIAL
  2
AcDbMaterial
  3
ObjectDBX Classes
 90
     1153
280
     0
281
     0
  0
CLASS
  1
ACDBPLACEHOLDER
  2
AcDbPlaceHolder
  3
ObjectDBX Classes
 90
        0
280
     0
281
     0
  0
CLASS
  1
LAYOUT
  2
AcDbLayout
  3
ObjectDBX Classes
 90
        0
280
     0
281
     0
  0
ENDSEC
  0
SECTION
  2
TABLES
  0
TABLE
  2
VPORT
  5
8
330
0
100
AcDbSymbolTable
 70
     1
  0
VPORT
  5
29
330
8
100
AcDbSymbolTableRecord
100
AcDbViewportTableRecord
  2
*Active
 70
     0
 10
0.0
 20
0.0
 11
1.0
 21
1.0
 12
420.0
 22
297.0
 13
0.0
 23
0.0
 14
10.0
 24
10.0
 15
10.0
 25
10.0
 16
0.0
 26
0.0
 36
1.0
 17
0.0
 27
0.0
 37
0.0
 40
594.0
 41
1.4141414141
 42
50.0
 43
0.0
 44
0.0
 50
0.0
 51
0.0
 71
     0
 72
  2000
 73
     1
 74
     3
 75
     0
 76
     0
 77
     0
 78
     0
281
     0
 65
     1
110
0.0
120
0.0
130
0.0
111
1.0
121
0.0
131
0.0
112
0.0
122
1.0
132
0.0
 79
     0
146
0.0
  0
ENDTAB
  0
TABLE
  2
LTYPE
  5
5
330
0
100
AcDbSymbolTable
 70
     6
  0
LTYPE
  5
14
330
5
100
AcDbSymbolTableRecord
100
AcDbLinetypeTableRecord
  2
ByBlock
 70
     0
  3

 72
    65
 73
     0
 40
0.0
  0
LTYPE
  5
15
330
5
100
AcDbSymbolTableRecord
100
AcDbLinetypeTableRecord
  2
ByLayer
 70
     0
  3

 72
    65
 73
     0
 40
0.0
  0
LTYPE
  5
16
330
5
100
AcDbSymbolTableRecord
100
AcDbLinetypeTableRecord
  2
Continuous
 70
     0
  3
Solid line
 72
    65
 73
     0
 40
0.0
  0
LTYPE
  5
3F
330
5
100
AcDbSymbolTableRecord
100
AcDbLinetypeTableRecord
  2
HIDDEN
 70
     0
  3
Hidden __ __ __ __ __ __ __ __ __ __ __ __ __ __
 72
    65
 73
     2
 40
1.905
 49
1.27
 74
     0
 49
-0.635
 74
     0
  0
LTYPE
  5
40
330
5
100
AcDbSymbolTableRecord
100
AcDbLinetypeTableRecord
  2
PHANTOM
 70
     0
  3
Phantom ______  __  __  ______  __  __  ______
 72
    65
 73
     6
 40
12.7
 49
6.35
 74
     0
 49
-1.27
 74
     0
 49
1.27
 74
     0
 49
-1.27
 74
     0
 49
1.27
 74
     0
 49
-1.27
 74
     0
  0
LTYPE
  5
41
330
5
100
AcDbSymbolTableRecord
100
AcDbLinetypeTableRecord
  2
CENTER
 70
     0
  3
Center ____ _ ____ _ ____ _ ____ _ ____ _ ____
 72
    65
 73
     4
 40
10.16
 49
6.35
 74
     0
 49
-1.27
 74
     0
 49
1.27
 74
     0
 49
-1.27
 74
     0
  0
LTYPE
  5
42
330
5
100
AcDbSymbolTableRecord
100
AcDbLinetypeTableRecord
  2
CENTERX2
 70
     0
  3
Center (2x) ________  __  ________  __  _____
 72
    65
 73
     4
 40
20.32
 49
12.7
 74
     0
 49
-2.54
 74
     0
 49
2.54
 74
     0
 49
-2.54
 74
     0
  0
LTYPE
  5
43
330
5
100
AcDbSymbolTableRecord
100
AcDbLinetypeTableRecord
  2
DOT2
 70
     0
  3
Dot (.5x) ........................................
 72
    65
 73
     2
 40
0.635
 49
0.0
 74
     0
 49
-0.635
 74
     0
  0
ENDTAB
  0
TABLE
  2
LAYER
  5
2
330
0
100
AcDbSymbolTable
 70
     1
  0
LAYER
  5
10
330
2
100
AcDbSymbolTableRecord
100
AcDbLayerTableRecord
  2
0
 70
     0
 62
     7
  6
Continuous
370
    -3
390
F
  0
ENDTAB
  0
TABLE
  2
STYLE
  5
3
330
0
100
AcDbSymbolTable
 70
     2
  0
STYLE
  5
11
330
3
100
AcDbSymbolTableRecord
100
AcDbTextStyleTableRecord
  2
Standard
 70
     0
 40
0.0
 41
1.0
 50
0.0
 71
     0
 42
2.5
  3
txt
  4
bigfont
  0
STYLE
  5
44
330
3
100
AcDbSymbolTableRecord
100
AcDbTextStyleTableRecord
  2
SLDTEXTSTYLE0
 70
     0
 40
0.0
 41
0.7
 50
0.0
 71
     0
 42
0.2
  3
TXT
  4
bigfont
  0
ENDTAB
  0
TABLE
  2
VIEW
  5
6
330
0
100
AcDbSymbolTable
 70
     0
  0
ENDTAB
  0
TABLE
  2
UCS
  5
7
330
0
100
AcDbSymbolTable
 70
     0
  0
ENDTAB
  0
TABLE
  2
APPID
  5
9
330
0
100
AcDbSymbolTable
 70
     1
  0
APPID
  5
12
330
9
100
AcDbSymbolTableRecord
100
AcDbRegAppTableRecord
  2
ACAD
 70
     0
  0
ENDTAB
  0
TABLE
  2
DIMSTYLE
  5
A
330
0
100
AcDbSymbolTable
 70
     1
100
AcDbDimStyleTable
  0
DIMSTYLE
105
27
330
A
100
AcDbSymbolTableRecord
100
AcDbDimStyleTableRecord
  2
ISO-25
 70
     0
 41
2.5
 42
0.625
 43
3.75
 44
1.25
 73
     0
 74
     0
 77
     1
 78
     8
140
2.5
141
2.5
143
0.0393700787
147
0.625
171
     3
172
     1
178
     0
271
     2
272
     2
274
     3
278
    44
283
     0
284
     8
340
11
  0
ENDTAB
  0
TABLE
  2
BLOCK_RECORD
  5
1
330
0
100
AcDbSymbolTable
 70
     1
  0
BLOCK_RECORD
  5
1F
330
1
100
AcDbSymbolTableRecord
100
AcDbBlockTableRecord
  2
*Model_Space
340
22
  0
BLOCK_RECORD
  5
1B
330
1
100
AcDbSymbolTableRecord
100
AcDbBlockTableRecord
  2
*Paper_Space
340
1E
  0
BLOCK_RECORD
  5
23
330
1
100
AcDbSymbolTableRecord
100
AcDbBlockTableRecord
  2
*Paper_Space0
340
26
  0
ENDTAB
  0
ENDSEC
  0
SECTION
  2
BLOCKS
  0
BLOCK
  5
20
330
1F
100
AcDbEntity
  8
0
100
AcDbBlockBegin
  2
*Model_Space
 70
     0
 10
0.0
 20
0.0
 30
0.0
  3
*Model_Space
  1

  0
ENDBLK
  5
21
330
1F
100
AcDbEntity
  8
0
100
AcDbBlockEnd
  0
BLOCK
  5
1C
330
1B
100
AcDbEntity
 67
     1
  8
0
100
AcDbBlockBegin
  2
*Paper_Space
 70
     0
 10
0.0
 20
0.0
 30
0.0
  3
*Paper_Space
  1

  0
ENDBLK
  5
1D
330
1B
100
AcDbEntity
 67
     1
  8
0
100
AcDbBlockEnd
  0
BLOCK
  5
24
330
23
100
AcDbEntity
  8
0
100
AcDbBlockBegin
  2
*Paper_Space0
 70
     0
 10
0.0
 20
0.0
 30
0.0
  3
*Paper_Space0
  1

  0
ENDBLK
  5
25
330
23
100
AcDbEntity
  8
0
100
AcDbBlockEnd
  0
ENDSEC
  0
SECTION
  2
ENTITIES
  0
MTEXT
  5
45
330
1F
100
AcDbEntity
  8
0
  6
Continuous
 62
     7
370
     0
100
AcDbMText
 10
197.0076433121
 20
489.6805158553
 30
0.0
 40
7.0
 41
0.0
 71
     1
 72
     1
  1
CHB-506P
  7
SLDTEXTSTYLE0
 73
     1
 44
1.0
  0
LINE
  5
46
330
1F
100
AcDbEntity
  8
0
  6
Continuous
 62
     7
370
    15
100
AcDbLine
 10
361.2060194125
 20
222.6223633851
 30
0.0
 11
361.3060211053
 21
222.6223633851
 31
0.0
  0
LINE
  5
47
330
1F
100
AcDbEntity
  8
0
  6
Continuous
 62
     7
370
    15
100
AcDbLine
 10
361.3060211053
 20
228.62236367
 30
0.0
 11
361.2060194125
 21
228.62236367
 31
0.0
  0
LINE
  5
48
330
1F
100
AcDbEntity
  8
0
  6
Continuous
 62
     7
370
    15
100
AcDbLine
 10
361.2060194125
 20
232.62236386
 30
0.0
 11
361.3060211053
 21
232.62236386
 31
0.0
  0
LINE
  5
49
330
1F
100
AcDbEntity
  8
0
  6
Continuous
 62
     7
370
    15
100
AcDbLine
 10
361.3060211053
 20
238.622364145
 30
0.0
 11
361.2060194125
 21
238.622364145
 31
0.0
  0
LINE
  5
4A
330
1F
100
AcDbEntity
  8
0
  6
Continuous
 62
     7
370
    15
100
AcDbLine
 10
362.5060116163
 20
242.1223637874
 30
0.0
 11
361.3060211053
 21
242.1223637874
 31
0.0
  0
LINE
  5
4B
330
1F
100
AcDbEntity
  8
0
  6
Continuous
 62
     7
370
    15
100
AcDbLine
 10
361.3060211053
 20
219.1223637427
 30
0.0
 11
362.5060116163
 21
219.1223637427
 31
0.0
  0
LINE
  5
4C
330
1F
100
AcDbEntity
  8
0
  6
Continuous
 62
     7
370
    15
100
AcDbLine
 10
774.0060185304
 20
86.6223699639
 30
0.0
 11
774.0060185304
 21
121.6223663876
 31
0.0
  0
LINE
  5
4D
330
1F
100
AcDbEntity
  8
0
  6
Continuous
 62
     7
370
    15
100
AcDbLine
 10
774.0060185304
 20
339.6223611424
 30
0.0
 11
774.0060185304
 21
374.6223575662
 31
0.0
  0
SPLINE
  5
4E
330
1F
100
AcDbEntity
  8
0
  6
Continuous
 62
     7
370
    15
100
AcDbSpline
210
0.0
220
0.0
230
1.0
 70
     8
 71
     3
 72
    11
 73
     7
 74
     0
 42
0.00000001
 43
0.00000001
 40
0.0
 40
0.0
 40
0.0
 40
0.0
 40
0.2262211333386928
 40
0.4679442160813388
 40
0.7254890556036399
 40
1.0
 40
1.0
 40
1.0
 40
1.0
 10
358.8265274872994
 20
238.8527984956875
 30
0.0
 10
358.8293468203178
 20
238.8298995161918
 30
0.0
 10
358.8351786829721
 20
238.7825323898271
 30
0.0
 10
358.8519694708451
 20
238.4577421750123
 30
0.0
 10
358.865561752951
 20
237.9572569373977
 30
0.0
 10
358.8660970230046
 20
237.5334298512323
 30
0.0
 10
358.8663731923318
 20
237.3147588449195
 30
0.0
  0
SPLINE
  5
4F
330
1F
100
AcDbEntity
  8
0
  6
Continuous
 62
     7
370
    15
100
AcDbSpline
210
0.0
220
0.0
230
1.0
 70
     8
 71
     3
 72
    12
 73
     8
 74
     0
 42
0.00000001
 43
0.00000001
 40
0.0
 40
0.0
 40
0.0
 40
0.0
 40
0.2489445739028115
 40
0.4822862098310756
 40
0.6998114639483098
 40
0.9035368778110593
 40
1.0
 40
1.0
 40
1.0
 40
1.0
 10
358.8663731923318
 20
223.7561280133799
 30
0.0
 10
358.8649473458143
 20
223.6187944944864
 30
0.0
 10
358.862185019639
 20
223.3527350207992
 30
0.0
 10
358.8512837957933
 20
223.0169194681522
 30
0.0
 10
358.8487736414333
 20
222.7837534099859
 30
0.0
 10
358.8535627837267
 20
222.6636443077251
 30
0.0
 10
358.8799932894607
 20
222.6622980431369
 30
0.0
 10
358.8884865155435
 20
222.6618654320612
 30
0.0
  0
LINE
  5
50
330
1F
100
AcDbEntity
  8
0
  6
Continuous
 62
     7
370
    15
100
AcDbLine
 10
358.8655238261
 20
237.36475876
 30
0.0
 11
358.8655238261
 21
223.7061280983
 31
0.0
  0
LINE
  5
51
330
1F
100
AcDbEntity
  8
0
  6
Continuous
 62
     7
370
    15
100
AcDbLine
 10
357.3419098964
 20
241.3026471848
 30
0.0
 11
358.829269301
 21
238.8224997784
 31
0.0
  0
LINE
  5
52
330
1F
100
AcDbEntity
  8
0
  6
Continuous
 62
     7
370
    15
100
AcDbLine
 10
361.3060211053
 20
240.5256093706
 30
0.0
 11
359.914729487
 21
242.8455730195
 31
0.0
  0
LINE
  5
53
330
1F
100
AcDbEntity
  8
0
  6
Continuous
 62
     7
370
    15
100
AcDbLine
 10
358.8937615266
 20
222.5297796766
 30
0.0
 11
357.3246841541
 21
219.913361151
 31
0.0
  0
LINE
  5
54
330
1F
100
AcDbEntity
  8
0
  6
Continuous
 62
     7
370
    15
100
AcDbLine
 10
359.8975037446
 20
218.3704353164
 30
0.0
 11
361.3060211053
 21
220.7191181595
 31
0.0
  0
LINE
  5
55
330
1F
100
AcDbEntity
  8
0
  6
Continuous
 62
     7
370
    15
100
AcDbLine
 10
359.9346225372
 20
242.8100644837
 30
0.0
 11
359.844664227
 21
242.9238516132
 31
0.0
  0
SPLINE
  5
56
330
1F
100
AcDbEntity
  8
0
  6
Continuous
 62
     7
370
    15
100
AcDbSpline
210
0.0
220
0.0
230
1.0
 70
     8
 71
     3
 72
    20
 73
    16
 74
     0
 42
0.00000001
 43
0.00000001
 40
0.0
 40
0.0
 40
0.0
 40
0.0
 40
0.0337804504955803
 40
0.110106129442281
 40
0.1739284394576207
 40
0.2252740656393193
 40
0.2665365052847715
 40
0.3037745271294951
 40
0.3388585253804877
 40
0.372639864700143
 40
0.4139176374303661
 40
0.6259827958877605
 40
0.8390272751872768
 40
0.9659462427231557
 40
1.0
 40
1.0
 40
1.0
 40
1.0
 10
359.7323541751123
 20
243.0659211466685
 30
0.0
 10
359.6916935639755
 20
243.1221065077155
 30
0.0
 10
359.5591618053003
 20
243.3052406147344
 30
0.0
 10
359.2492940418704
 20
243.4824196443269
 30
0.0
 10
358.8620374832093
 20
243.6053780533276
 30
0.0
 10
358.4921878869553
 20
243.6201665413274
 30
0.0
 10
358.1578701311047
 20
243.5695734353315
 30
0.0
 10
357.8833858541313
 20
243.4685306878333
 30
0.0
 10
357.6558816008204
 20
243.333808318987
 30
0.0
 10
357.4498485766977
 20
243.1576360244613
 30
0.0
 10
357.1053259799857
 20
242.715133560602
 30
0.0
 10
356.924237130671
 20
242.0284728703936
 30
0.0
 10
356.7744365800723
 20
240.8476341285393
 30
0.0
 10
356.7193168469822
 20
239.9429917207379
 30
0.0
 10
356.7127553452463
 20
239.5284037585957
 30
0.0
 10
356.7113672604776
 20
239.4406977335587
 30
0.0
  0
SPLINE
  5
57
330
1F
100
AcDbEntity
  8
0
  6
Continuous
 62
     7
370
    15
100
AcDbSpline
210
0.0
220
0.0
230
1.0
 70
     8
 71
     3
 72
    19
 73
    15
 74
     0
 42
0.00000001
 43
0.00000001
 40
0.0
 40
0.0
 40
0.0
 40
0.0
 40
0.010273716450927
 40
0.1295969544120951
 40
0.326812560494732
 40
0.5525093950604796
 40
0.5858541833950538
 40
0.61860173985923
 40
0.6529061552892397
 40
0.6960072169155693
 40
0.7523131166079877
 40
0.8223154421021113
 40
0.9054607797521667
 40
1.0
 40
1.0
 40
1.0
 40
1.0
 10
356.7085211386895
 20
221.8223638127222
 30
0.0
 10
356.7088443430358
 20
221.7951648434806
 30
0.0
 10
356.7129213777819
 20
221.4520656744794
 30
0.0
 10
356.7526834028512
 20
220.6320755199555
 30
0.0
 10
356.8876883354477
 20
219.409640627242
 30
0.0
 10
356.9780867079031
 20
218.7662897451215
 30
0.0
 10
357.3289841830143
 20
218.2261833818793
 30
0.0
 10
357.4982044569343
 20
218.0383428740004
 30
0.0
 10
357.7349117012546
 20
217.8618563388044
 30
0.0
 10
358.0485410337897
 20
217.7083882843456
 30
0.0
 10
358.4520270532475
 20
217.6065974839229
 30
0.0
 10
358.9378887326062
 20
217.629760166396
 30
0.0
 10
359.4676430555738
 20
217.840088629743
 30
0.0
 10
359.7328619090923
 20
218.1619049312201
 30
0.0
 10
359.8739748110985
 20
218.3331311906352
 30
0.0
  0
LINE
  5
58
330
1F
100
AcDbEntity
  8
0
  6
Continuous
 62
     7
370
    15
100
AcDbLine
 10
353.4012084117
 20
234.5223636592
 30
0.0
 11
353.4012084117
 21
225.9223638328
 31
0.0
  0
LINE
  5
59
330
1F
100
AcDbEntity
  8
0
  6
Continuous
 62
     7
370
    15
100
AcDbLine
 10
354.0060167423
 20
223.4223638887
 30
0.0
 11
354.0060167423
 21
222.6226176361
 31
0.0
  0
LINE
  5
5A
330
1F
100
AcDbEntity
  8
0
  6
Continuous
 62
     7
370
    15
100
AcDbLine
 10
354.0060167423
 20
238.622109894
 30
0.0
 11
354.0060167423
 21
237.8223636414
 31
0.0
  0
LINE
  5
5B
330
1F
100
AcDbEntity
  8
0
  6
Continuous
 62
     7
370
    15
100
AcDbLine
 10
355.4060106387
 20
238.9223636354
 30
0.0
 11
355.4060106387
 21
238.622364145
 31
0.0
  0
ARC
  5
5C
330
1F
100
AcDbEntity
  8
0
  6
Continuous
 62
     7
370
    15
100
AcDbCircle
 10
357.6060145965
 20
235.8152209079
 30
0.0
 40
3.807142857143215
100
AcDbArc
 50
77.9663271603
 51
90.0
  0
ARC
  5
5D
330
1F
100
AcDbEntity
  8
0
  6
Continuous
 62
     7
370
    15
100
AcDbCircle
 10
357.6060145965
 20
235.8152209079
 30
0.0
 40
3.807142857143191
100
AcDbArc
 50
90.0
 51
125.3002484399
  0
LINE
  5
5E
330
1F
100
AcDbEntity
  8
0
  6
Continuous
 62
     7
370
    15
100
AcDbLine
 10
355.5060123315
 20
222.2223640646
 30
0.0
 11
355.5060123315
 21
221.8223638127
 31
0.0
  0
ARC
  5
5F
330
1F
100
AcDbEntity
  8
0
  6
Continuous
 62
     7
370
    15
100
AcDbCircle
 10
355.7060145965
 20
222.6223637651
 30
0.0
 40
0.4000000000008868
100
AcDbArc
 50
270.0
 51
0.0
  0
LINE
  5
60
330
1F
100
AcDbEntity
  8
0
  6
Continuous
 62
     7
370
    15
100
AcDbLine
 10
356.106007587
 20
237.8223636414
 30
0.0
 11
356.106007587
 21
237.3723639401
 31
0.0
  0
LINE
  5
61
330
1F
100
AcDbEntity
  8
0
  6
Continuous
 62
     7
370
    15
100
AcDbLine
 10
356.106007587
 20
223.8723635899
 30
0.0
 11
356.106007587
 21
223.4223638887
 31
0.0
  0
LINE
  5
62
330
1F
100
AcDbEntity
  8
0
  6
Continuous
 62
     7
370
    15
100
AcDbLine
 10
774.0060185304
 20
50.6223566125
 30
0.0
 11
774.0060185304
 21
85.6223679374
 31
0.0
  0
LINE
  5
63
330
1F
100
AcDbEntity
  8
0
  6
Continuous
 62
     7
370
    15
100
AcDbLine
 10
774.0060185304
 20
375.6223595927
 30
0.0
 11
774.0060185304
 21
410.6223709176
 31
0.0
  0
LINE
  5
64
330
1F
100
AcDbEntity
  8
0
  6
Continuous
 62
     7
370
    15
100
AcDbLine
 10
771.0060124507
 20
85.6223679374
 30
0.0
 11
771.0060124507
 21
86.6223699639
 31
0.0
  0
LINE
  5
65
330
1F
100
AcDbEntity
  8
0
  6
Continuous
 62
     7
370
    15
100
AcDbLine
 10
771.0060124507
 20
121.6223663876
 30
0.0
 11
771.0060124507
 21
122.6223609636
 31
0.0
  0
LINE
  5
66
330
1F
100
AcDbEntity
  8
0
  6
Continuous
 62
     7
370
    15
100
AcDbLine
 10
766.0060172191
 20
122.6223609636
 30
0.0
 11
766.0060172191
 21
121.6223663876
 31
0.0
  0
LINE
  5
67
330
1F
100
AcDbEntity
  8
0
  6
Continuous
 62
     7
370
    15
100
AcDbLine
 10
766.0060172191
 20
86.6223699639
 30
0.0
 11
766.0060172191
 21
85.6223679374
 31
0.0
  0
LINE
  5
68
330
1F
100
AcDbEntity
  8
0
  6
Continuous
 62
     7
370
    15
100
AcDbLine
 10
766.0060172191
 20
375.6223595927
 30
0.0
 11
766.0060172191
 21
374.6223575662
 31
0.0
  0
LINE
  5
69
330
1F
100
AcDbEntity
  8
0
  6
Continuous
 62
     7
370
    15
100
AcDbLine
 10
766.0060172191
 20
339.6223611424
 30
0.0
 11
766.0060172191
 21
338.6223665665
 31
0.0
  0
LINE
  5
6A
330
1F
100
AcDbEntity
  8
0
  6
Continuous
 62
     7
370
    15
100
AcDbLine
 10
771.0060124507
 20
338.6223665665
 30
0.0
 11
771.0060124507
 21
339.6223611424
 31
0.0
  0
LINE
  5
6B
330
1F
100
AcDbEntity
  8
0
  6
Continuous
 62
     7
370
    15
100
AcDbLine
 10
771.0060124507
 20
374.6223575662
 30
0.0
 11
771.0060124507
 21
375.6223595927
 31
0.0
  0
LINE
  5
6C
330
1F
100
AcDbEntity
  8
0
  6
Continuous
 62
     7
370
    15
100
AcDbLine
 10
354.2060201278
 20
224.165174667
 30
0.0
 11
354.2060201278
 21
223.8723635899
 31
0.0
  0
LINE
  5
6D
330
1F
100
AcDbEntity
  8
0
  6
Continuous
 62
     7
370
    15
100
AcDbLine
 10
354.2060201278
 20
237.3723639401
 30
0.0
 11
354.2060201278
 21
237.079552863
 31
0.0
  0
LINE
  5
6E
330
1F
100
AcDbEntity
  8
0
  6
Continuous
 62
     7
370
    15
100
AcDbLine
 10
747.5060169807
 20
45.6223613809
 30
0.0
 11
747.5060169807
 21
30.6223607848
 31
0.0
  0
LINE
  5
6F
330
1F
100
AcDbEntity
  8
0
  6
Continuous
 62
     7
370
    15
100
AcDbLine
 10
747.5060169807
 20
45.6223613809
 30
0.0
 11
762.5060175767
 21
45.6223613809
 31
0.0
  0
ARC
  5
70
330
1F
100
AcDbEntity
  8
0
  6
Continuous
 62
     7
370
    15
100
AcDbCircle
 10
747.5060145965
 20
45.622363765
 30
0.0
 40
15.00000000000011
100
AcDbArc
 50
270.0
 51
0.0
  0
LINE
  5
71
330
1F
100
AcDbEntity
  8
0
  6
Continuous
 62
     7
370
    15
100
AcDbLine
 10
377.5060122123
 20
30.6223607848
 30
0.0
 11
377.5060122123
 21
45.6223613809
 31
0.0
  0
LINE
  5
72
330
1F
100
AcDbEntity
  8
0
  6
Continuous
 62
     7
370
    15
100
AcDbLine
 10
377.5060122123
 20
45.6223613809
 30
0.0
 11
747.5060169807
 21
45.6223613809
 31
0.0
  0
LINE
  5
73
330
1F
100
AcDbEntity
  8
0
  6
Continuous
 62
     7
370
    15
100
AcDbLine
 10
377.5060122123
 20
30.6223607848
 30
0.0
 11
747.5060169807
 21
30.6223607848
 31
0.0
  0
ARC
  5
74
330
1F
100
AcDbEntity
  8
0
  6
Continuous
 62
     7
370
    15
100
AcDbCircle
 10
377.5060145965
 20
45.622363765
 30
0.0
 40
15.00000000000001
100
AcDbArc
 50
180.0
 51
270.0
  0
LINE
  5
75
330
1F
100
AcDbEntity
  8
0
  6
Continuous
 62
     7
370
    15
100
AcDbLine
 10
362.5060116163
 20
45.6223613809
 30
0.0
 11
377.5060122123
 21
45.6223613809
 31
0.0
  0
LINE
  5
76
330
1F
100
AcDbEntity
  8
0
  6
Continuous
 62
     7
370
    15
100
AcDbLine
 10
382.5060074439
 20
50.6223566125
 30
0.0
 11
382.5060074439
 21
410.6223709176
 31
0.0
  0
LINE
  5
77
330
1F
100
AcDbEntity
  8
0
  6
Continuous
 62
     7
370
    15
100
AcDbLine
 10
742.506021749
 20
50.6223566125
 30
0.0
 11
382.5060074439
 21
50.6223566125
 31
0.0
  0
LINE
  5
78
330
1F
100
AcDbEntity
  8
0
  6
Continuous
 62
     7
370
    15
100
AcDbLine
 10
382.5060074439
 20
410.6223709176
 30
0.0
 11
742.506021749
 21
410.6223709176
 31
0.0
  0
LINE
  5
79
330
1F
100
AcDbEntity
  8
0
  6
Continuous
 62
     7
370
    15
100
AcDbLine
 10
377.5060122123
 20
415.6223661492
 30
0.0
 11
377.5060122123
 21
45.6223613809
 31
0.0
  0
LINE
  5
7A
330
1F
100
AcDbEntity
  8
0
  6
Continuous
 62
     7
370
    15
100
AcDbLine
 10
377.5060122123
 20
415.6223661492
 30
0.0
 11
747.5060169807
 21
415.6223661492
 31
0.0
  0
LINE
  5
7B
330
1F
100
AcDbEntity
  8
0
  6
Continuous
 62
     7
370
    15
100
AcDbLine
 10
747.5060169807
 20
45.6223613809
 30
0.0
 11
747.5060169807
 21
415.6223661492
 31
0.0
  0
LINE
  5
7C
330
1F
100
AcDbEntity
  8
0
  6
Continuous
 62
     7
370
    15
100
AcDbLine
 10
742.506021749
 20
50.6223566125
 30
0.0
 11
742.506021749
 21
410.6223709176
 31
0.0
  0
LINE
  5
7D
330
1F
100
AcDbEntity
  8
0
  6
Continuous
 62
     7
370
    15
100
AcDbLine
 10
362.5060116163
 20
220.6348716507
 30
0.0
 11
362.5060116163
 21
45.6223613809
 31
0.0
  0
LINE
  5
7E
330
1F
100
AcDbEntity
  8
0
  6
Continuous
 62
     7
370
    15
100
AcDbLine
 10
362.5060116163
 20
240.6098558793
 30
0.0
 11
362.5060116163
 21
415.6223661492
 31
0.0
  0
LINE
  5
7F
330
1F
100
AcDbEntity
  8
0
  6
Continuous
 62
     7
370
    15
100
AcDbLine
 10
362.5060116163
 20
415.6223661492
 30
0.0
 11
377.5060122123
 21
415.6223661492
 31
0.0
  0
LINE
  5
80
330
1F
100
AcDbEntity
  8
0
  6
Continuous
 62
     7
370
    15
100
AcDbLine
 10
762.5060175767
 20
45.6223613809
 30
0.0
 11
762.5060175767
 21
415.6223661492
 31
0.0
  0
LINE
  5
81
330
1F
100
AcDbEntity
  8
0
  6
Continuous
 62
     7
370
    15
100
AcDbLine
 10
762.5060175767
 20
415.6223661492
 30
0.0
 11
747.5060169807
 21
415.6223661492
 31
0.0
  0
LINE
  5
82
330
1F
100
AcDbEntity
  8
0
  6
Continuous
 62
     7
370
    15
100
AcDbLine
 10
377.5060122123
 20
415.6223661492
 30
0.0
 11
377.5060122123
 21
430.6223667453
 31
0.0
  0
LINE
  5
83
330
1F
100
AcDbEntity
  8
0
  6
Continuous
 62
     7
370
    15
100
AcDbLine
 10
377.5060122123
 20
430.6223667453
 30
0.0
 11
747.5060169807
 21
430.6223667453
 31
0.0
  0
LINE
  5
84
330
1F
100
AcDbEntity
  8
0
  6
Continuous
 62
     7
370
    15
100
AcDbLine
 10
747.5060169807
 20
430.6223667453
 30
0.0
 11
747.5060169807
 21
415.6223661492
 31
0.0
  0
ARC
  5
85
330
1F
100
AcDbEntity
  8
0
  6
Continuous
 62
     7
370
    15
100
AcDbCircle
 10
747.5060145965
 20
415.622363765
 30
0.0
 40
15.0
100
AcDbArc
 50
0.0
 51
90.0
  0
ARC
  5
86
330
1F
100
AcDbEntity
  8
0
  6
Continuous
 62
     7
370
    15
100
AcDbCircle
 10
377.5060145965
 20
415.622363765
 30
0.0
 40
15.0
100
AcDbArc
 50
90.0
 51
180.0
  0
LINE
  5
87
330
1F
100
AcDbEntity
  8
0
  6
Continuous
 62
     7
370
    15
100
AcDbLine
 10
361.3060211053
 20
241.6568468551
 30
0.0
 11
362.5060116163
 21
241.6568468551
 31
0.0
  0
LINE
  5
88
330
1F
100
AcDbEntity
  8
0
  6
Continuous
 62
     7
370
    15
100
AcDbLine
 10
361.3060211053
 20
219.587880675
 30
0.0
 11
362.5060116163
 21
219.587880675
 31
0.0
  0
LINE
  5
89
330
1F
100
AcDbEntity
  8
0
  6
Continuous
 62
     7
370
    15
100
AcDbLine
 10
361.3060211053
 20
219.587880675
 30
0.0
 11
361.3060211053
 21
241.6568468551
 31
0.0
  0
LINE
  5
8A
330
1F
100
AcDbEntity
  8
0
  6
Continuous
 62
     7
370
    15
100
AcDbLine
 10
362.5060116163
 20
240.6098558793
 30
0.0
 11
362.5060116163
 21
220.6348716507
 31
0.0
  0
LINE
  5
8B
330
1F
100
AcDbEntity
  8
0
  6
Continuous
 62
     7
370
    15
100
AcDbLine
 10
361.2060194125
 20
222.6223633851
 30
0.0
 11
361.2060194125
 21
228.62236367
 31
0.0
  0
LINE
  5
8C
330
1F
100
AcDbEntity
  8
0
  6
Continuous
 62
     7
370
    15
100
AcDbLine
 10
361.2060194125
 20
235.6223636533
 30
0.0
 11
361.2060194125
 21
238.622364145
 31
0.0
  0
LINE
  5
8D
330
1F
100
AcDbEntity
  8
0
  6
Continuous
 62
     7
370
    15
100
AcDbLine
 10
361.2060194125
 20
232.62236386
 30
0.0
 11
361.2060194125
 21
235.6223636533
 31
0.0
  0
LINE
  5
8E
330
1F
100
AcDbEntity
  8
0
  6
Continuous
 62
     7
370
    15
100
AcDbLine
 10
361.3060211053
 20
241.6568468551
 30
0.0
 11
361.3060211053
 21
242.1223637874
 31
0.0
  0
LINE
  5
8F
330
1F
100
AcDbEntity
  8
0
  6
Continuous
 62
     7
370
    15
100
AcDbLine
 10
361.3060211053
 20
219.1223637427
 30
0.0
 11
361.3060211053
 21
219.587880675
 31
0.0
  0
LINE
  5
90
330
1F
100
AcDbEntity
  8
0
  6
Continuous
 62
     7
370
    15
100
AcDbLine
 10
763.4073739162
 20
121.6223663876
 30
0.0
 11
763.4073739162
 21
86.6223699639
 31
0.0
  0
LINE
  5
91
330
1F
100
AcDbEntity
  8
0
  6
Continuous
 62
     7
370
    15
100
AcDbLine
 10
763.4073739162
 20
121.6223663876
 30
0.0
 11
774.0060185304
 21
121.6223663876
 31
0.0
  0
LINE
  5
92
330
1F
100
AcDbEntity
  8
0
  6
Continuous
 62
     7
370
    15
100
AcDbLine
 10
763.4073739162
 20
86.6223699639
 30
0.0
 11
774.0060185304
 21
86.6223699639
 31
0.0
  0
LINE
  5
93
330
1F
100
AcDbEntity
  8
0
  6
Continuous
 62
     7
370
    15
100
AcDbLine
 10
763.4073739162
 20
374.6223575662
 30
0.0
 11
763.4073739162
 21
339.6223611424
 31
0.0
  0
LINE
  5
94
330
1F
100
AcDbEntity
  8
0
  6
Continuous
 62
     7
370
    15
100
AcDbLine
 10
763.4073739162
 20
374.6223575662
 30
0.0
 11
774.0060185304
 21
374.6223575662
 31
0.0
  0
LINE
  5
95
330
1F
100
AcDbEntity
  8
0
  6
Continuous
 62
     7
370
    15
100
AcDbLine
 10
763.4073739162
 20
339.6223611424
 30
0.0
 11
774.0060185304
 21
339.6223611424
 31
0.0
  0
LINE
  5
96
330
1F
100
AcDbEntity
  8
0
  6
Continuous
 62
     7
370
    15
100
AcDbLine
 10
762.9438583961
 20
121.6223663876
 30
0.0
 11
762.9438583961
 21
86.6223699639
 31
0.0
  0
LINE
  5
97
330
1F
100
AcDbEntity
  8
0
  6
Continuous
 62
     7
370
    15
100
AcDbLine
 10
762.9438583961
 20
121.6223663876
 30
0.0
 11
763.4073739162
 21
121.6223663876
 31
0.0
  0
LINE
  5
98
330
1F
100
AcDbEntity
  8
0
  6
Continuous
 62
     7
370
    15
100
AcDbLine
 10
762.9438583961
 20
86.6223699639
 30
0.0
 11
763.4073739162
 21
86.6223699639
 31
0.0
  0
LINE
  5
99
330
1F
100
AcDbEntity
  8
0
  6
Continuous
 62
     7
370
    15
100
AcDbLine
 10
762.9438583961
 20
374.6223575662
 30
0.0
 11
762.9438583961
 21
339.6223611424
 31
0.0
  0
LINE
  5
9A
330
1F
100
AcDbEntity
  8
0
  6
Continuous
 62
     7
370
    15
100
AcDbLine
 10
762.9438583961
 20
374.6223575662
 30
0.0
 11
763.4073739162
 21
374.6223575662
 31
0.0
  0
LINE
  5
9B
330
1F
100
AcDbEntity
  8
0
  6
Continuous
 62
     7
370
    15
100
AcDbLine
 10
762.9438583961
 20
339.6223611424
 30
0.0
 11
763.4073739162
 21
339.6223611424
 31
0.0
  0
LINE
  5
9C
330
1F
100
AcDbEntity
  8
0
  6
Continuous
 62
     7
370
    15
100
AcDbLine
 10
762.5060175767
 20
121.6223663876
 30
0.0
 11
762.9438583961
 21
121.6223663876
 31
0.0
  0
LINE
  5
9D
330
1F
100
AcDbEntity
  8
0
  6
Continuous
 62
     7
370
    15
100
AcDbLine
 10
762.5060175767
 20
86.6223699639
 30
0.0
 11
762.9438583961
 21
86.6223699639
 31
0.0
  0
LINE
  5
9E
330
1F
100
AcDbEntity
  8
0
  6
Continuous
 62
     7
370
    15
100
AcDbLine
 10
762.5060175767
 20
374.6223575662
 30
0.0
 11
762.9438583961
 21
374.6223575662
 31
0.0
  0
LINE
  5
9F
330
1F
100
AcDbEntity
  8
0
  6
Continuous
 62
     7
370
    15
100
AcDbLine
 10
762.5060175767
 20
339.6223611424
 30
0.0
 11
762.9438583961
 21
339.6223611424
 31
0.0
  0
LINE
  5
A0
330
1F
100
AcDbEntity
  8
0
  6
Continuous
 62
     7
370
    15
100
AcDbLine
 10
354.2365228048
 20
235.9223636093
 30
0.0
 11
353.5060082784
 21
235.9223636093
 31
0.0
  0
LINE
  5
A1
330
1F
100
AcDbEntity
  8
0
  6
Continuous
 62
     7
370
    15
100
AcDbLine
 10
354.2365228048
 20
235.9223636093
 30
0.0
 11
354.2365228048
 21
225.3223639208
 31
0.0
  0
LINE
  5
A2
330
1F
100
AcDbEntity
  8
0
  6
Continuous
 62
     7
370
    15
100
AcDbLine
 10
353.5060082784
 20
225.3223639208
 30
0.0
 11
354.2365228048
 21
225.3223639208
 31
0.0
  0
LINE
  5
A3
330
1F
100
AcDbEntity
  8
0
  6
Continuous
 62
     7
370
    15
100
AcDbLine
 10
353.5060082784
 20
235.9223636093
 30
0.0
 11
353.5060082784
 21
225.3223639208
 31
0.0
  0
LINE
  5
A4
330
1F
100
AcDbEntity
  8
0
  6
Continuous
 62
     7
370
    15
100
AcDbLine
 10
355.1885579934
 20
224.1223636309
 30
0.0
 11
354.4580434671
 21
224.1223636309
 31
0.0
  0
ARC
  5
A5
330
1F
100
AcDbEntity
  8
0
  6
Continuous
 62
     7
370
    15
100
AcDbCircle
 10
354.598182357
 20
225.2111992034
 30
0.0
 40
1.097816839157933
100
AcDbArc
 50
174.1882798295
 51
262.6660489201
  0
ARC
  5
A6
330
1F
100
AcDbEntity
  8
0
  6
Continuous
 62
     7
370
    15
100
AcDbCircle
 10
355.3286968834
 20
225.2111992034
 30
0.0
 40
1.097816839157908
100
AcDbArc
 50
174.1882798295
 51
262.6660489201
  0
ARC
  5
A7
330
1F
100
AcDbEntity
  8
0
  6
Continuous
 62
     7
370
    15
100
AcDbCircle
 10
355.3286968834
 20
236.0335283267
 30
0.0
 40
1.097816839157933
100
AcDbArc
 50
97.3339510799
 51
185.8117201705
  0
LINE
  5
A8
330
1F
100
AcDbEntity
  8
0
  6
Continuous
 62
     7
370
    15
100
AcDbLine
 10
355.1885579934
 20
237.1223638991
 30
0.0
 11
358.7319945207
 21
237.1223638991
 31
0.0
  0
LINE
  5
A9
330
1F
100
AcDbEntity
  8
0
  6
Continuous
 62
     7
370
    15
100
AcDbLine
 10
358.7319945207
 20
237.1223638991
 30
0.0
 11
358.7319945207
 21
224.1223636309
 31
0.0
  0
LINE
  5
AA
330
1F
100
AcDbEntity
  8
0
  6
Continuous
 62
     7
370
    15
100
AcDbLine
 10
358.7319945207
 20
224.1223636309
 30
0.0
 11
355.1885579934
 21
224.1223636309
 31
0.0
  0
LINE
  5
AB
330
1F
100
AcDbEntity
  8
0
  6
Continuous
 62
     7
370
    15
100
AcDbLine
 10
354.4580434671
 20
237.1223638991
 30
0.0
 11
355.1885579934
 21
237.1223638991
 31
0.0
  0
ARC
  5
AC
330
1F
100
AcDbEntity
  8
0
  6
Continuous
 62
     7
370
    15
100
AcDbCircle
 10
354.598182357
 20
236.0335283267
 30
0.0
 40
1.097816839157908
100
AcDbArc
 50
97.3339510799
 51
185.8117201705
  0
LINE
  5
AD
330
1F
100
AcDbEntity
  8
0
  6
Continuous
 62
     7
370
    15
100
AcDbLine
 10
358.83195151
 20
237.1223638991
 30
0.0
 11
358.7319945207
 21
237.1223638991
 31
0.0
  0
LINE
  5
AE
330
1F
100
AcDbEntity
  8
0
  6
Continuous
 62
     7
370
    15
100
AcDbLine
 10
358.7319945207
 20
224.1223636309
 30
0.0
 11
358.8655238261
 21
224.1223636309
 31
0.0
  0
SPLINE
  5
AF
330
1F
100
AcDbEntity
  8
0
  6
Continuous
 62
     7
370
    15
100
AcDbSpline
210
0.0
220
0.0
230
1.0
 70
    24
 71
     3
 72
    12
 73
     8
 74
     0
 42
0.00000001
 43
0.00000001
 40
0.0
 40
0.0
 40
0.0
 40
0.0
 40
0.2185042665755995
 40
0.4370130079610726
 40
0.6555186338092558
 40
0.8740245712698237
 40
1.0
 40
1.0
 40
1.0
 40
1.0
 10
360.6653605809427
 20
237.3147588449195
 30
0.0
 10
360.4686416926241
 20
237.3147588449195
 30
0.0
 10
360.075199887326
 20
237.3147588449195
 30
0.0
 10
359.5144304799502
 20
237.3147588449195
 30
0.0
 10
359.0967791524074
 20
237.3147588449195
 30
0.0
 10
358.8702107901269
 20
237.3147588449195
 30
0.0
 10
358.8877389721995
 20
237.3147588449195
 30
0.0
 10
358.8941489567972
 20
237.3147588449195
 30
0.0
  0
SPLINE
  5
B0
330
1F
100
AcDbEntity
  8
0
  6
Continuous
 62
     7
370
    15
100
AcDbSpline
210
0.0
220
0.0
230
1.0
 70
    24
 71
     3
 72
     9
 73
     5
 74
     0
 42
0.00000001
 43
0.00000001
 40
0.0
 40
0.0
 40
0.0
 40
0.0
 40
0.0025141086251864
 40
1.0
 40
1.0
 40
1.0
 40
1.0
 10
361.206019412539
 20
237.3147588449195
 30
0.0
 10
361.2056718516027
 20
237.3147588449195
 30
0.0
 10
361.0674276512977
 20
237.3147588449196
 30
0.0
 10
360.8661410879777
 20
237.3147588449196
 30
0.0
 10
360.6653605809427
 20
237.3147588449195
 30
0.0
  0
SPLINE
  5
B1
330
1F
100
AcDbEntity
  8
0
  6
Continuous
 62
     7
370
    15
100
AcDbSpline
210
0.0
220
0.0
230
1.0
 70
     8
 71
     3
 72
    13
 73
     9
 74
     0
 42
0.00000001
 43
0.00000001
 40
0.0
 40
0.0
 40
0.0
 40
0.0
 40
0.1877386539089659
 40
0.3754723399019311
 40
0.563210247197253
 40
0.7509479971675025
 40
0.9386849648529548
 40
1.0
 40
1.0
 40
1.0
 40
1.0
 10
360.3720759263254
 20
240.929597545661
 30
0.0
 10
360.1753789669213
 20
240.9268988022563
 30
0.0
 10
359.7819902530829
 20
240.9215013868607
 30
0.0
 10
359.2489750425918
 20
240.6309599270487
 30
0.0
 10
358.8584573088872
 20
240.1760587515752
 30
0.0
 10
358.6854847915951
 20
239.6143823362519
 30
0.0
 10
358.6887825092168
 20
239.1411830113024
 30
0.0
 10
358.8161151293457
 20
238.9197513817949
 30
0.0
 10
358.8474636187768
 20
238.8652363086715
 30
0.0
  0
SPLINE
  5
B2
330
1F
100
AcDbEntity
  8
0
  6
Continuous
 62
     7
370
    15
100
AcDbSpline
210
0.0
220
0.0
230
1.0
 70
     8
 71
     3
 72
    10
 73
     6
 74
     0
 42
0.00000001
 43
0.00000001
 40
0.0
 40
0.0
 40
0.0
 40
0.0
 40
0.2093392736738888
 40
0.6046681284542607
 40
1.0
 40
1.0
 40
1.0
 40
1.0
 10
361.5092431416726
 20
240.1234829092994
 30
0.0
 10
361.467540643166
 20
240.2165466247917
 30
0.0
 10
361.3470846423338
 20
240.4853574488962
 30
0.0
 10
360.9403814755294
 20
240.8020142364331
 30
0.0
 10
360.5615115912526
 20
240.8870696677421
 30
0.0
 10
360.3720759263254
 20
240.929597545661
 30
0.0
  0
SPLINE
  5
B3
330
1F
100
AcDbEntity
  8
0
  6
Continuous
 62
     7
370
    15
100
AcDbSpline
210
0.0
220
0.0
230
1.0
 70
     8
 71
     3
 72
    13
 73
     9
 74
     0
 42
0.00000001
 43
0.00000001
 40
0.0
 40
0.0
 40
0.0
 40
0.0
 40
0.1768614158016835
 40
0.3537267399476782
 40
0.5305919192438419
 40
0.7074547270595563
 40
0.8843194473083311
 40
1.0
 40
1.0
 40
1.0
 40
1.0
 10
360.3548501839853
 20
220.2864107901826
 30
0.0
 10
360.1581830574442
 20
220.2891015378543
 30
0.0
 10
359.7648444583442
 20
220.2944830926588
 30
0.0
 10
359.2314594222374
 20
220.5851584988359
 30
0.0
 10
358.8423292389397
 20
221.0395212016772
 30
0.0
 10
358.6641687118197
 20
221.603219374326
 30
0.0
 10
358.6851301245441
 20
222.1363662756068
 30
0.0
 10
358.8512246330536
 20
222.4096376008191
 30
0.0
 10
358.9169030299402
 20
222.5176966975108
 30
0.0
  0
SPLINE
  5
B4
330
1F
100
AcDbEntity
  8
0
  6
Continuous
 62
     7
370
    15
100
AcDbSpline
210
0.0
220
0.0
230
1.0
 70
     8
 71
     3
 72
    10
 73
     6
 74
     0
 42
0.00000001
 43
0.00000001
 40
0.0
 40
0.0
 40
0.0
 40
0.0
 40
0.0588269319728957
 40
0.5294108146436431
 40
1.0
 40
1.0
 40
1.0
 40
1.0
 10
361.384967457316
 20
220.886320363976
 30
0.0
 10
361.3743277690544
 20
220.8648401265953
 30
0.0
 10
361.2785762851479
 20
220.6715295188664
 30
0.0
 10
360.9177418136272
 20
220.4173306272356
 30
0.0
 10
360.5424814319537
 20
220.3300508997819
 30
0.0
 10
360.3548501839852
 20
220.2864107901826
 30
0.0
  0
SPLINE
  5
B5
330
1F
100
AcDbEntity
  8
0
  6
Continuous
 62
     7
370
    15
100
AcDbSpline
210
0.0
220
0.0
230
1.0
 70
    24
 71
     3
 72
    12
 73
     8
 74
     0
 42
0.00000001
 43
0.00000001
 40
0.0
 40
0.0
 40
0.0
 40
0.0
 40
0.2193536141895231
 40
0.4387117205829468
 40
0.6580666993286801
 40
0.8774219908980663
 40
1.0
 40
1.0
 40
1.0
 40
1.0
 10
360.6653605809426
 20
223.7561280133799
 30
0.0
 10
360.4686463207593
 20
223.7561280133799
 30
0.0
 10
360.0752137718264
 20
223.7561280133799
 30
0.0
 10
359.5143749409517
 20
223.7561280133799
 30
0.0
 10
359.096987420319
 20
223.7561280133799
 30
0.0
 10
358.8711364964049
 20
223.7561280133799
 30
0.0
 10
358.8881091986455
 20
223.7561280133799
 30
0.0
 10
358.8941936602807
 20
223.7561280133799
 30
0.0
  0
SPLINE
  5
B6
330
1F
100
AcDbEntity
  8
0
  6
Continuous
 62
     7
370
    15
100
AcDbSpline
210
0.0
220
0.0
230
1.0
 70
    24
 71
     3
 72
     9
 73
     5
 74
     0
 42
0.00000001
 43
0.00000001
 40
0.0
 40
0.0
 40
0.0
 40
0.0
 40
0.0025141086251864
 40
1.0
 40
1.0
 40
1.0
 40
1.0
 10
361.206019412539
 20
223.7561280133799
 30
0.0
 10
361.2056718516027
 20
223.7561280133799
 30
0.0
 10
361.0674276512977
 20
223.7561280133797
 30
0.0
 10
360.8661410879777
 20
223.7561280133798
 30
0.0
 10
360.6653605809427
 20
223.7561280133799
 30
0.0
  0
SPLINE
  5
B7
330
1F
100
AcDbEntity
  8
0
  6
Continuous
 62
     7
370
    15
100
AcDbSpline
210
0.0
220
0.0
230
1.0
 70
     8
 71
     3
 72
    13
 73
     9
 74
     0
 42
0.00000001
 43
0.00000001
 40
0.0
 40
0.0
 40
0.0
 40
0.0
 40
0.1768614774712451
 40
0.3537265172110513
 40
0.530591640972232
 40
0.7074548960608414
 40
0.8843190982005572
 40
0.9999999999999999
 40
0.9999999999999999
 40
0.9999999999999999
 40
0.9999999999999999
 10
358.8029985537743
 20
243.5460160712376
 30
0.0
 10
358.6063315298395
 20
243.5433252412429
 30
0.0
 10
358.2129935207862
 20
243.5379435270559
 30
0.0
 10
357.6796073558681
 20
243.2472698860483
 30
0.0
 10
357.2904772470987
 20
242.7929040297684
 30
0.0
 10
357.1123172390426
 20
242.2292099365274
 30
0.0
 10
357.1332790318606
 20
241.6960588327389
 30
0.0
 10
357.2993729859332
 20
241.4227890422565
 30
0.0
 10
357.3650513997293
 20
241.3147301639095
 30
0.0
  0
SPLINE
  5
B8
330
1F
100
AcDbEntity
  8
0
  6
Continuous
 62
     7
370
    15
100
AcDbSpline
210
0.0
220
0.0
230
1.0
 70
     8
 71
     3
 72
    10
 73
     6
 74
     0
 42
0.00000001
 43
0.00000001
 40
0.0
 40
0.0
 40
0.0
 40
0.0
 40
0.1474627692345064
 40
0.5737294769795925
 40
1.0
 40
1.0
 40
1.0
 40
1.0
 10
359.8915879836297
 20
242.8334900403991
 30
0.0
 10
359.8635259565688
 20
242.8937840885376
 30
0.0
 10
359.7543457737183
 20
243.1283685391285
 30
0.0
 10
359.3692909921567
 20
243.4171923926704
 30
0.0
 10
358.9917632630726
 20
243.503074716935
 30
0.0
 10
358.8029985537744
 20
243.5460160712376
 30
0.0
  0
SPLINE
  5
B9
330
1F
100
AcDbEntity
  8
0
  6
Continuous
 62
     7
370
    15
100
AcDbSpline
210
0.0
220
0.0
230
1.0
 70
     8
 71
     3
 72
    13
 73
     9
 74
     0
 42
0.00000001
 43
0.00000001
 40
0.0
 40
0.0
 40
0.0
 40
0.0
 40
0.1768612807734419
 40
0.353726469888211
 40
0.5305915141532597
 40
0.707454474607417
 40
0.8843186698085845
 40
1.0
 40
1.0
 40
1.0
 40
1.0
 10
358.7857728114343
 20
217.669992264606
 30
0.0
 10
358.5891056851654
 20
217.6726830247206
 30
0.0
 10
358.1957670866099
 20
217.6780646044112
 30
0.0
 10
357.6623820464197
 20
217.9687398239393
 30
0.0
 10
357.2732516676668
 20
218.4231034823854
 30
0.0
 10
357.0950912885001
 20
218.9867989848252
 30
0.0
 10
357.116053680592
 20
219.5199504373935
 30
0.0
 10
357.2821472479209
 20
219.7932193831329
 30
0.0
 10
357.3478256573892
 20
219.9012781719342
 30
0.0
  0
SPLINE
  5
BA
330
1F
100
AcDbEntity
  8
0
  6
Continuous
 62
     7
370
    15
100
AcDbSpline
210
0.0
220
0.0
230
1.0
 70
     8
 71
     3
 72
    10
 73
     6
 74
     0
 42
0.00000001
 43
0.00000001
 40
0.0
 40
0.0
 40
0.0
 40
0.0
 40
0.1474573734895173
 40
0.573730886909061
 40
1.0
 40
1.0
 40
1.0
 40
1.0
 10
359.8743622412896
 20
218.3825182954445
 30
0.0
 10
359.8463056944264
 20
218.3222239395477
 30
0.0
 10
359.7371425706402
 20
218.0876291311247
 30
0.0
 10
359.3520626388224
 20
217.798821671662
 30
0.0
 10
358.9745354377051
 20
217.7129352525261
 30
0.0
 10
358.7857728114343
 20
217.669992264606
 30
0.0
  0
LINE
  5
BB
330
1F
100
AcDbEntity
  8
0
  6
Continuous
 62
     7
370
    15
100
AcDbLine
 10
353.5060082784
 20
225.9223638328
 30
0.0
 11
353.4012084117
 21
225.9223638328
 31
0.0
  0
LINE
  5
BC
330
1F
100
AcDbEntity
  8
0
  6
Continuous
 62
     7
370
    15
100
AcDbLine
 10
353.5060082784
 20
234.5223636592
 30
0.0
 11
353.4012084117
 21
234.5223636592
 31
0.0
  0
LINE
  5
BD
330
1F
100
AcDbEntity
  8
0
  6
Continuous
 62
     7
370
    15
100
AcDbLine
 10
358.83195151
 20
223.4223638887
 30
0.0
 11
354.0060167423
 21
223.4223638887
 31
0.0
  0
LINE
  5
BE
330
1F
100
AcDbEntity
  8
0
  6
Continuous
 62
     7
370
    15
100
AcDbLine
 10
358.8878755679
 20
222.6223633851
 30
0.0
 11
354.0066127887
 21
222.6223633851
 31
0.0
  0
LINE
  5
BF
330
1F
100
AcDbEntity
  8
0
  6
Continuous
 62
     7
370
    15
100
AcDbLine
 10
358.9360808244
 20
238.622364145
 30
0.0
 11
354.0066127887
 21
238.622364145
 31
0.0
  0
LINE
  5
C0
330
1F
100
AcDbEntity
  8
0
  6
Continuous
 62
     7
370
    15
100
AcDbLine
 10
358.83195151
 20
237.8223636414
 30
0.0
 11
354.0060167423
 21
237.8223636414
 31
0.0
  0
LINE
  5
C1
330
1F
100
AcDbEntity
  8
0
  6
Continuous
 62
     7
370
    15
100
AcDbLine
 10
357.6060180774
 20
238.9223636354
 30
0.0
 11
358.769366633
 21
238.9223636354
 31
0.0
  0
LINE
  5
C2
330
1F
100
AcDbEntity
  8
0
  6
Continuous
 62
     7
370
    15
100
AcDbLine
 10
355.4060106387
 20
238.9223636354
 30
0.0
 11
357.6060180774
 21
238.9223636354
 31
0.0
  0
LINE
  5
C3
330
1F
100
AcDbEntity
  8
0
  6
Continuous
 62
     7
370
    15
100
AcDbLine
 10
357.6060180774
 20
221.8223638127
 30
0.0
 11
358.4695254674
 21
221.8223638127
 31
0.0
  0
LINE
  5
C4
330
1F
100
AcDbEntity
  8
0
  6
Continuous
 62
     7
370
    15
100
AcDbLine
 10
355.5060123315
 20
221.8223638127
 30
0.0
 11
357.6060180774
 21
221.8223638127
 31
0.0
  0
LINE
  5
C5
330
1F
100
AcDbEntity
  8
0
  6
Continuous
 62
     7
370
    15
100
AcDbLine
 10
357.6060180774
 20
222.2223640646
 30
0.0
 11
358.7094043603
 21
222.2223640646
 31
0.0
  0
LINE
  5
C6
330
1F
100
AcDbEntity
  8
0
  6
Continuous
 62
     7
370
    15
100
AcDbLine
 10
355.5060123315
 20
222.2223640646
 30
0.0
 11
357.6060180774
 21
222.2223640646
 31
0.0
  0
ARC
  5
C7
330
1F
100
AcDbEntity
  8
0
  6
Continuous
 62
     7
370
    15
100
AcDbCircle
 10
354.4717685941
 20
237.8246179102
 30
0.0
 40
0.802714975266454
100
AcDbArc
 50
125.4660676112
 51
180.1609042628
  0
ARC
  5
C8
330
1F
100
AcDbEntity
  8
0
  6
Continuous
 62
     7
370
    15
100
AcDbCircle
 10
354.4717685941
 20
223.4201096199
 30
0.0
 40
0.8027149752665583
100
AcDbArc
 50
179.8390957372
 51
234.5339323887
  0
LINE
  5
C9
330
1F
100
AcDbEntity
  8
0
  6
Continuous
 62
     7
370
    15
100
AcDbLine
 10
354.4568960777
 20
223.8723635899
 30
0.0
 11
354.4568960777
 21
223.4223638887
 31
0.0
  0
LINE
  5
CA
330
1F
100
AcDbEntity
  8
0
  6
Continuous
 62
     7
370
    15
100
AcDbLine
 10
354.4568960777
 20
237.8223636414
 30
0.0
 11
354.4568960777
 21
237.3723639401
 31
0.0
  0
LINE
  5
CB
330
1F
100
AcDbEntity
  8
0
  6
Continuous
 62
     7
370
    15
100
AcDbLine
 10
353.6690567842
 20
223.4223638887
 30
0.0
 11
353.6690567842
 21
224.6508058387
 31
0.0
  0
LINE
  5
CC
330
1F
100
AcDbEntity
  8
0
  6
Continuous
 62
     7
370
    15
100
AcDbLine
 10
353.6690567842
 20
236.5939216914
 30
0.0
 11
353.6690567842
 21
237.8223636414
 31
0.0
  0
LINE
  5
CD
330
1F
100
AcDbEntity
  8
0
  6
Continuous
 62
     7
370
    15
100
AcDbLine
 10
763.4073739162
 20
85.6223679374
 30
0.0
 11
763.4073739162
 21
50.6223566125
 31
0.0
  0
LINE
  5
CE
330
1F
100
AcDbEntity
  8
0
  6
Continuous
 62
     7
370
    15
100
AcDbLine
 10
774.0060185304
 20
85.6223679374
 30
0.0
 11
763.4073739162
 21
85.6223679374
 31
0.0
  0
LINE
  5
CF
330
1F
100
AcDbEntity
  8
0
  6
Continuous
 62
     7
370
    15
100
AcDbLine
 10
774.0060185304
 20
50.6223566125
 30
0.0
 11
763.4073739162
 21
50.6223566125
 31
0.0
  0
LINE
  5
D0
330
1F
100
AcDbEntity
  8
0
  6
Continuous
 62
     7
370
    15
100
AcDbLine
 10
763.4073739162
 20
410.6223709176
 30
0.0
 11
763.4073739162
 21
375.6223595927
 31
0.0
  0
LINE
  5
D1
330
1F
100
AcDbEntity
  8
0
  6
Continuous
 62
     7
370
    15
100
AcDbLine
 10
774.0060185304
 20
410.6223709176
 30
0.0
 11
763.4073739162
 21
410.6223709176
 31
0.0
  0
LINE
  5
D2
330
1F
100
AcDbEntity
  8
0
  6
Continuous
 62
     7
370
    15
100
AcDbLine
 10
774.0060185304
 20
375.6223595927
 30
0.0
 11
763.4073739162
 21
375.6223595927
 31
0.0
  0
LINE
  5
D3
330
1F
100
AcDbEntity
  8
0
  6
Continuous
 62
     7
370
    15
100
AcDbLine
 10
771.0060124507
 20
122.6223609636
 30
0.0
 11
766.0060172191
 21
122.6223609636
 31
0.0
  0
LINE
  5
D4
330
1F
100
AcDbEntity
  8
0
  6
Continuous
 62
     7
370
    15
100
AcDbLine
 10
766.0060172191
 20
338.6223665665
 30
0.0
 11
771.0060124507
 21
338.6223665665
 31
0.0
  0
LINE
  5
D5
330
1F
100
AcDbEntity
  8
0
  6
Continuous
 62
     7
370
    15
100
AcDbLine
 10
762.9438583961
 20
50.6223566125
 30
0.0
 11
762.9438583961
 21
85.6223679374
 31
0.0
  0
LINE
  5
D6
330
1F
100
AcDbEntity
  8
0
  6
Continuous
 62
     7
370
    15
100
AcDbLine
 10
762.9438583961
 20
85.6223679374
 30
0.0
 11
763.4073739162
 21
85.6223679374
 31
0.0
  0
LINE
  5
D7
330
1F
100
AcDbEntity
  8
0
  6
Continuous
 62
     7
370
    15
100
AcDbLine
 10
763.4073739162
 20
50.6223566125
 30
0.0
 11
762.9438583961
 21
50.6223566125
 31
0.0
  0
LINE
  5
D8
330
1F
100
AcDbEntity
  8
0
  6
Continuous
 62
     7
370
    15
100
AcDbLine
 10
762.9438583961
 20
375.6223595927
 30
0.0
 11
762.9438583961
 21
410.6223709176
 31
0.0
  0
LINE
  5
D9
330
1F
100
AcDbEntity
  8
0
  6
Continuous
 62
     7
370
    15
100
AcDbLine
 10
763.4073739162
 20
375.6223595927
 30
0.0
 11
762.9438583961
 21
375.6223595927
 31
0.0
  0
LINE
  5
DA
330
1F
100
AcDbEntity
  8
0
  6
Continuous
 62
     7
370
    15
100
AcDbLine
 10
762.9438583961
 20
410.6223709176
 30
0.0
 11
763.4073739162
 21
410.6223709176
 31
0.0
  0
LINE
  5
DB
330
1F
100
AcDbEntity
  8
0
  6
Continuous
 62
     7
370
    15
100
AcDbLine
 10
762.9438583961
 20
375.6223595927
 30
0.0
 11
762.5060175767
 21
375.6223595927
 31
0.0
  0
LINE
  5
DC
330
1F
100
AcDbEntity
  8
0
  6
Continuous
 62
     7
370
    15
100
AcDbLine
 10
762.9438583961
 20
410.6223709176
 30
0.0
 11
762.5060175767
 21
410.6223709176
 31
0.0
  0
LINE
  5
DD
330
1F
100
AcDbEntity
  8
0
  6
Continuous
 62
     7
370
    15
100
AcDbLine
 10
762.9438583961
 20
85.6223679374
 30
0.0
 11
762.5060175767
 21
85.6223679374
 31
0.0
  0
LINE
  5
DE
330
1F
100
AcDbEntity
  8
0
  6
Continuous
 62
     7
370
    15
100
AcDbLine
 10
762.9438583961
 20
50.6223566125
 30
0.0
 11
762.5060175767
 21
50.6223566125
 31
0.0
  0
LINE
  5
DF
330
1F
100
AcDbEntity
  8
0
  6
Continuous
 62
     7
370
    15
100
AcDbLine
 10
357.3060129991
 20
223.8723635899
 30
0.0
 11
358.8655238261
 21
223.8723635899
 31
0.0
  0
LINE
  5
E0
330
1F
100
AcDbEntity
  8
0
  6
Continuous
 62
     7
370
    15
100
AcDbLine
 10
357.3060129991
 20
237.3723639401
 30
0.0
 11
358.8660900703
 21
237.3723639401
 31
0.0
  0
LINE
  5
E1
330
1F
100
AcDbEntity
  8
0
  6
Continuous
 62
     7
370
    15
100
AcDbLine
 10
357.3060129991
 20
223.8723635899
 30
0.0
 11
354.2060201278
 21
223.8723635899
 31
0.0
  0
LINE
  5
E2
330
1F
100
AcDbEntity
  8
0
  6
Continuous
 62
     7
370
    15
100
AcDbLine
 10
357.3060129991
 20
237.3723639401
 30
0.0
 11
354.2060201278
 21
237.3723639401
 31
0.0
  0
LINE
  5
E3
330
1F
100
AcDbEntity
  8
0
  6
Continuous
 62
     8
370
    15
100
AcDbLine
 10
357.3060129991
 20
224.1223636309
 30
0.0
 11
357.3060129991
 21
223.8723635899
 31
0.0
  0
LINE
  5
E4
330
1F
100
AcDbEntity
  8
0
  6
Continuous
 62
     8
370
    15
100
AcDbLine
 10
357.3060129991
 20
237.3723639401
 30
0.0
 11
357.3060129991
 21
237.1223638991
 31
0.0
  0
LINE
  5
E5
330
1F
100
AcDbEntity
  8
0
  6
Continuous
 62
     7
370
    15
100
AcDbLine
 10
273.7921409643
 20
237.1223638991
 30
0.0
 11
273.7921409643
 21
224.1223636309
 31
0.0
  0
SPLINE
  5
E6
330
1F
100
AcDbEntity
  8
0
  6
Continuous
 62
     7
370
    15
100
AcDbSpline
210
0.0
220
0.0
230
1.0
 70
     8
 71
     3
 72
    15
 73
    11
 74
     0
 42
0.00000001
 43
0.00000001
 40
0.0
 40
0.0
 40
0.0
 40
0.0
 40
0.1356020697477454
 40
0.2953298537971245
 40
0.4038071763059135
 40
0.5319604563897418
 40
0.673841799752955
 40
0.8261089327295112
 40
0.9126121771622892
 40
1.0
 40
1.0
 40
1.0
 40
1.0
 10
262.7721436655697
 20
225.188409000881
 30
0.0
 10
262.8165251383642
 20
225.1810858934495
 30
0.0
 10
262.9131842372712
 20
225.1651367840362
 30
0.0
 10
263.1200353760323
 20
225.2128026887093
 30
0.0
 10
263.3132957243557
 20
225.300533863253
 30
0.0
 10
263.4598843331014
 20
225.4201922462189
 30
0.0
 10
263.5585879923617
 20
225.5710892249739
 30
0.0
 10
263.5882557860176
 20
225.6929254255862
 30
0.0
 10
263.5670619484089
 20
225.8221880606411
 30
0.0
 10
263.5208120370119
 20
225.8888588580212
 30
0.0
 10
263.4975694453892
 20
225.9223638328388
 30
0.0
  0
SPLINE
  5
E7
330
1F
100
AcDbEntity
  8
0
  6
Continuous
 62
     7
370
    15
100
AcDbSpline
210
0.0
220
0.0
230
1.0
 70
     8
 71
     3
 72
    20
 73
    16
 74
     0
 42
0.00000001
 43
0.00000001
 40
0.0
 40
0.0
 40
0.0
 40
0.0
 40
0.0607085806041512
 40
0.2265340369978799
 40
0.3908033180562259
 40
0.4705947072635677
 40
0.5476202542388329
 40
0.6228557433873007
 40
0.7003370172864999
 40
0.7786471146609508
 40
0.8566575290901528
 40
0.9330984415649892
 40
0.9703707141490432
 40
0.9892323149454911
 40
1.0
 40
1.0
 40
1.0
 40
1.0
 10
259.0359457171139
 20
225.9223638328388
 30
0.0
 10
259.0822202780608
 20
225.8690304353484
 30
0.0
 10
259.2548937782036
 20
225.6700168903093
 30
0.0
 10
259.671867191302
 20
225.6520901372205
 30
0.0
 10
260.2368216453966
 20
225.5770671746903
 30
0.0
 10
260.7564343611393
 20
225.5341249914103
 30
0.0
 10
261.1503254332873
 20
225.5035744314405
 30
0.0
 10
261.5432358556648
 20
225.4758909395212
 30
0.0
 10
261.9243979246346
 20
225.4445844563156
 30
0.0
 10
262.2801239339958
 20
225.4121114345654
 30
0.0
 10
262.5827481044316
 20
225.3812861004444
 30
0.0
 10
262.7752568086132
 20
225.3583833224036
 30
0.0
 10
262.8633843362666
 20
225.3503553912537
 30
0.0
 10
262.9088088384556
 20
225.3425616400043
 30
0.0
 10
262.908252050534
 20
225.3465200043612
 30
0.0
 10
262.9080497062382
 20
225.3479585277512
 30
0.0
  0
SPLINE
  5
E8
330
1F
100
AcDbEntity
  8
0
  6
Continuous
 62
     7
370
    15
100
AcDbSpline
210
0.0
220
0.0
230
1.0
 70
     8
 71
     3
 72
    18
 73
    14
 74
     0
 42
0.00000001
 43
0.00000001
 40
0.0
 40
0.0
 40
0.0
 40
0.0
 40
0.0057535982135415
 40
0.1156377242154852
 40
0.2383932268128284
 40
0.359308556936928
 40
0.4757046853877381
 40
0.5872131392277756
 40
0.7047315200334028
 40
0.8264988174978832
 40
0.8891456968437458
 40
0.9517930526448382
 40
1.0
 40
1.0
 40
1.0
 40
1.0
 10
263.2787607944187
 20
234.5691877643242
 30
0.0
 10
263.2741136313831
 20
234.5721412411665
 30
0.0
 10
263.1807134081584
 20
234.6315011978207
 30
0.0
 10
262.9583514445959
 20
234.6376847016517
 30
0.0
 10
262.5669692967297
 20
234.6968815038059
 30
0.0
 10
262.055087804742
 20
234.7424277328981
 30
0.0
 10
261.5040570884495
 20
234.7885797736246
 30
0.0
 10
260.9419413003448
 20
234.8274759146414
 30
0.0
 10
260.4076689332238
 20
234.8722053168692
 30
0.0
 10
260.010016269956
 20
234.9132774133662
 30
0.0
 10
259.7953028801411
 20
234.9343974024584
 30
0.0
 10
259.6992310033359
 20
234.9366868168097
 30
0.0
 10
259.6837954855678
 20
234.9206116778679
 30
0.0
 10
259.6770830786404
 20
234.9136211204007
 30
0.0
  0
SPLINE
  5
E9
330
1F
100
AcDbEntity
  8
0
  6
Continuous
 62
     7
370
    15
100
AcDbSpline
210
0.0
220
0.0
230
1.0
 70
     8
 71
     3
 72
    12
 73
     8
 74
     0
 42
0.00000001
 43
0.00000001
 40
0.0
 40
0.0
 40
0.0
 40
0.0
 40
0.2236729820054967
 40
0.4523097742282867
 40
0.6822372678484837
 40
0.9102273613192214
 40
1.0
 40
1.0
 40
1.0
 40
1.0
 10
258.977846089619
 20
235.7242144870236
 30
0.0
 10
258.9651106705967
 20
235.6816665593745
 30
0.0
 10
258.9393572047508
 20
235.5956264691666
 30
0.0
 10
259.0604802097362
 20
235.5040114172828
 30
0.0
 10
259.2921615123995
 20
235.4077060542832
 30
0.0
 10
259.5370179524164
 20
235.3452149959422
 30
0.0
 10
259.7203508113071
 20
235.3504351388737
 30
0.0
 10
259.7721450364765
 20
235.3519099059179
 30
0.0
  0
SPLINE
  5
EA
330
1F
100
AcDbEntity
  8
0
  6
Continuous
 62
     7
370
    15
100
AcDbSpline
210
0.0
220
0.0
230
1.0
 70
     8
 71
     3
 72
    19
 73
    15
 74
     0
 42
0.00000001
 43
0.00000001
 40
0.0
 40
0.0
 40
0.0
 40
0.0
 40
0.0979033461140013
 40
0.1753767258512808
 40
0.2884821220827502
 40
0.3734524649498238
 40
0.4570021434395499
 40
0.6168865294898215
 40
0.679665710597983
 40
0.7634253193335143
 40
0.8137536452962887
 40
0.8702971820376518
 40
0.9323988135077979
 40
1.0
 40
1.0
 40
1.0
 40
1.0
 10
259.1540821230587
 20
235.2290838251486
 30
0.0
 10
259.2045892275233
 20
235.2027068307403
 30
0.0
 10
259.2950638738436
 20
235.1554570573592
 30
0.0
 10
259.6697072916808
 20
235.0948084241054
 30
0.0
 10
260.1562196956919
 20
235.0409216488262
 30
0.0
 10
260.747547586882
 20
234.9876881263486
 30
0.0
 10
261.5016502337564
 20
234.9361384861849
 30
0.0
 10
262.1427401773534
 20
234.8691942089312
 30
0.0
 10
262.7920179259619
 20
234.8336752881034
 30
0.0
 10
263.17033971602
 20
234.9118592911791
 30
0.0
 10
263.4222086638626
 20
235.0200631231475
 30
0.0
 10
263.5557935628271
 20
235.1083991109187
 30
0.0
 10
263.6175553076374
 20
235.1822426137481
 30
0.0
 10
263.5461193442609
 20
235.2627576396115
 30
0.0
 10
263.5088868773159
 20
235.3047221193686
 30
0.0
  0
SPLINE
  5
EB
330
1F
100
AcDbEntity
  8
0
  6
Continuous
 62
     7
370
    15
100
AcDbSpline
210
0.0
220
0.0
230
1.0
 70
     8
 71
     3
 72
    25
 73
    21
 74
     0
 42
0.00000001
 43
0.00000001
 40
0.0
 40
0.0
 40
0.0
 40
0.0
 40
0.0176268869902508
 40
0.0344980441856529
 40
0.0503151177816487
 40
0.0649738214219473
 40
0.0909458622065212
 40
0.1134394932922148
 40
0.1538404992325488
 40
0.1912347399242825
 40
0.2995718540016348
 40
0.3999645412880792
 40
0.5012966809060265
 40
0.5949070728825703
 40
0.6784881571327293
 40
0.7336302056751591
 40
0.8075209229184616
 40
0.8952853068742985
 40
0.9453086546988192
 40
1.0
 40
1.0
 40
1.0
 40
1.0
 10
263.151564482468
 20
234.6791401731446
 30
0.0
 10
263.1912751451271
 20
234.6835346241921
 30
0.0
 10
263.268993927565
 20
234.6921351199287
 30
0.0
 10
263.3708738529284
 20
234.7381383523116
 30
0.0
 10
263.4518890451099
 20
234.7970976438401
 30
0.0
 10
263.5280910170234
 20
234.880673596785
 30
0.0
 10
263.5811400945334
 20
234.984319856815
 30
0.0
 10
263.6053008021318
 20
235.1166534396102
 30
0.0
 10
263.5824092634787
 20
235.2485218405652
 30
0.0
 10
263.4111739015745
 20
235.4937313718478
 30
0.0
 10
263.0683789884944
 20
235.5808136060115
 30
0.0
 10
262.5732667348292
 20
235.6393683586649
 30
0.0
 10
261.9600538980176
 20
235.6977257517434
 30
0.0
 10
261.3105860720618
 20
235.7473478254783
 30
0.0
 10
260.7708846324599
 20
235.786829365273
 30
0.0
 10
260.3248757226991
 20
235.8260057615348
 30
0.0
 10
259.9361675556711
 20
235.8642337523365
 30
0.0
 10
259.676019915107
 20
235.8920753337643
 30
0.0
 10
259.5455732742597
 20
235.9145705519105
 30
0.0
 10
259.5369100570116
 20
235.9270331793969
 30
0.0
 10
259.5323853528675
 20
235.9335422741845
 30
0.0
  0
SPLINE
  5
EC
330
1F
100
AcDbEntity
  8
0
  6
Continuous
 62
     7
370
    15
100
AcDbSpline
210
0.0
220
0.0
230
1.0
 70
     8
 71
     3
 72
    12
 73
     8
 74
     0
 42
0.00000001
 43
0.00000001
 40
0.0
 40
0.0
 40
0.0
 40
0.0
 40
0.1756476026937465
 40
0.5723156357634481
 40
0.7586165168330588
 40
0.9207514297076087
 40
1.0
 40
1.0
 40
1.0
 40
1.0
 10
259.620711985844
 20
235.1150545517579
 30
0.0
 10
259.5551480404635
 20
235.1058832343479
 30
0.0
 10
259.3415198980454
 20
235.0760001714777
 30
0.0
 10
259.1256150729188
 20
235.0020696502642
 30
0.0
 10
258.9644534307124
 20
234.7871341091357
 30
0.0
 10
258.9332421672287
 20
234.6269166304992
 30
0.0
 10
258.9642190162048
 20
234.5482533748997
 30
0.0
 10
258.9743890202221
 20
234.5224274548366
 30
0.0
  0
SPLINE
  5
ED
330
1F
100
AcDbEntity
  8
0
  6
Continuous
 62
     7
370
    15
100
AcDbSpline
210
0.0
220
0.0
230
1.0
 70
     8
 71
     3
 72
    11
 73
     7
 74
     0
 42
0.00000001
 43
0.00000001
 40
0.0
 40
0.0
 40
0.0
 40
0.0
 40
0.3513116680942781
 40
0.6843168869924241
 40
0.9949424881685199
 40
0.9999999999999999
 40
0.9999999999999999
 40
0.9999999999999999
 40
0.9999999999999999
 10
263.1966553962406
 20
234.7096204983666
 30
0.0
 10
263.2373570167001
 20
234.7113022085469
 30
0.0
 10
263.3166393427312
 20
234.7145779969134
 30
0.0
 10
263.4091952127667
 20
234.7614049336061
 30
0.0
 10
263.4606468196975
 20
234.8016095116275
 30
0.0
 10
263.4734479959473
 20
234.824804146035
 30
0.0
 10
263.473653081673
 20
234.8251757437959
 30
0.0
  0
LINE
  5
EE
330
1F
100
AcDbEntity
  8
0
  6
Continuous
 62
     7
370
    15
100
AcDbLine
 10
259.1319017446
 20
225.8246233913
 30
0.0
 11
258.0134429372
 21
225.8246233913
 31
0.0
  0
LINE
  5
EF
330
1F
100
AcDbEntity
  8
0
  6
Continuous
 62
     7
370
    15
100
AcDbLine
 10
258.0134429372
 20
225.0246238189
 30
0.0
 11
259.7721450365
 21
225.0246238189
 31
0.0
  0
LINE
  5
F0
330
1F
100
AcDbEntity
  8
0
  6
Continuous
 62
     7
370
    15
100
AcDbLine
 10
256.6031523383
 20
238.622364145
 30
0.0
 11
256.6031523383
 21
238.675834168
 31
0.0
  0
LINE
  5
F1
330
1F
100
AcDbEntity
  8
0
  6
Continuous
 62
     7
370
    15
100
AcDbLine
 10
253.6031537092
 20
238.675834168
 30
0.0
 11
253.6031537092
 21
238.622364145
 31
0.0
  0
SPLINE
  5
F2
330
1F
100
AcDbEntity
  8
0
  6
Continuous
 62
     7
370
    15
100
AcDbSpline
210
0.0
220
0.0
230
1.0
 70
     8
 71
     3
 72
    15
 73
    11
 74
     0
 42
0.00000001
 43
0.00000001
 40
0.0
 40
0.0
 40
0.0
 40
0.0
 40
0.1077551036863209
 40
0.235250774724543
 40
0.3627908901706017
 40
0.4902566411288575
 40
0.6176624605260265
 40
0.7450971317547226
 40
0.8724965622541917
 40
1.0
 40
1.0
 40
1.0
 40
1.0
 10
253.6192097103771
 20
222.6223633850589
 30
0.0
 10
253.6357496432836
 20
222.3098426218497
 30
0.0
 10
253.6718595990726
 20
221.6275477778254
 30
0.0
 10
254.0080597810116
 20
220.618394043852
 30
0.0
 10
254.5661467883436
 20
219.6549156905474
 30
0.0
 10
255.3209771102084
 20
218.8339967529925
 30
0.0
 10
256.2361325908856
 20
218.1987182166633
 30
0.0
 10
257.2633913060415
 20
217.7785623008338
 30
0.0
 10
258.3593729267656
 20
217.5647539362304
 30
0.0
 10
259.0951322447331
 20
217.6302845490915
 30
0.0
 10
259.4631620085415
 20
217.6630632246509
 30
0.0
  0
SPLINE
  5
F3
330
1F
100
AcDbEntity
  8
0
  6
Continuous
 62
     7
370
    15
100
AcDbSpline
210
0.0
220
0.0
230
1.0
 70
     8
 71
     3
 72
    15
 73
    11
 74
     0
 42
0.00000001
 43
0.00000001
 40
0.0
 40
0.0
 40
0.0
 40
0.0
 40
0.13165152765372
 40
0.2633126517915331
 40
0.3951894494802554
 40
0.5266690080863677
 40
0.6575465462284578
 40
0.7882125285852056
 40
0.9184593483091296
 40
1.0
 40
1.0
 40
1.0
 40
1.0
 10
258.9654706752476
 20
220.620748143889
 30
0.0
 10
258.8132866961129
 20
220.6089338113854
 30
0.0
 10
258.5089076446862
 20
220.5853042851951
 30
0.0
 10
258.0580497978708
 20
220.6867842273121
 30
0.0
 10
257.6390196032169
 20
220.8736348993638
 30
0.0
 10
257.2686265272587
 20
221.1462319158196
 30
0.0
 10
256.9663651464022
 20
221.4921423299442
 30
0.0
 10
256.7472078327694
 20
221.8938504727542
 30
0.0
 10
256.6298348342033
 20
222.2801635442406
 30
0.0
 10
256.6196609022134
 20
222.5272371566789
 30
0.0
 10
256.6157438194927
 20
222.6223633850589
 30
0.0
  0
SPLINE
  5
F4
330
1F
100
AcDbEntity
  8
0
  6
Continuous
 62
     7
370
    15
100
AcDbSpline
210
0.0
220
0.0
230
1.0
 70
     8
 71
     3
 72
    15
 73
    11
 74
     0
 42
0.00000001
 43
0.00000001
 40
0.0
 40
0.0
 40
0.0
 40
0.0
 40
0.1249271214721239
 40
0.2499164818036735
 40
0.3749670227679549
 40
0.4999570499749355
 40
0.6249205129505147
 40
0.7499166961711446
 40
0.8748739392863579
 40
1.0
 40
1.0
 40
1.0
 40
1.0
 10
259.6340336239513
 20
243.5528845752254
 30
0.0
 10
259.2676569645466
 20
243.5962164317991
 30
0.0
 10
258.5347211163941
 20
243.6829017329358
 30
0.0
 10
257.4306950388057
 20
243.5177119912375
 30
0.0
 10
256.3898957466879
 20
243.1287811918896
 30
0.0
 10
255.4547067698477
 20
242.5237666947201
 30
0.0
 10
254.6740632612003
 20
241.7275728505145
 30
0.0
 10
254.0861009338183
 20
240.7832095748757
 30
0.0
 10
253.6902646180085
 20
239.7347671020812
 30
0.0
 10
253.6322037433733
 20
238.9956448496877
 30
0.0
 10
253.6031537091907
 20
238.6258342529312
 30
0.0
  0
SPLINE
  5
F5
330
1F
100
AcDbEntity
  8
0
  6
Continuous
 62
     7
370
    15
100
AcDbSpline
210
0.0
220
0.0
230
1.0
 70
     8
 71
     3
 72
    15
 73
    11
 74
     0
 42
0.00000001
 43
0.00000001
 40
0.0
 40
0.0
 40
0.0
 40
0.0
 40
0.1242532604422722
 40
0.2486330675825304
 40
0.3735413482506271
 40
0.4985832518969759
 40
0.6236637152450767
 40
0.7490698239710455
 40
0.8744383580209767
 40
0.9999999999999999
 40
0.9999999999999999
 40
0.9999999999999999
 40
0.9999999999999999
 10
256.6031523382839
 20
238.6258342529312
 30
0.0
 10
256.6167128363796
 20
238.7777901501943
 30
0.0
 10
256.6438476433658
 20
239.0818567053842
 30
0.0
 10
256.8183046049555
 20
239.5091762758694
 30
0.0
 10
257.0716370466212
 20
239.8908155099919
 30
0.0
 10
257.4014610107477
 20
240.2107458053788
 30
0.0
 10
257.79238719739
 20
240.4513217641718
 30
0.0
 10
258.2250852641431
 20
240.6029455927497
 30
0.0
 10
258.6826171158368
 20
240.656403058377
 30
0.0
 10
258.9845363452874
 20
240.6157130526326
 30
0.0
 10
259.1356121337589
 20
240.5953523928895
 30
0.0
  0
LINE
  5
F6
330
1F
100
AcDbEntity
  8
0
  6
Continuous
 62
     7
370
    15
100
AcDbLine
 10
274.5062195099
 20
223.2375005486
 30
0.0
 11
258.9652471578
 21
220.6210824887
 31
0.0
  0
LINE
  5
F7
330
1F
100
AcDbEntity
  8
0
  6
Continuous
 62
     7
370
    15
100
AcDbLine
 10
259.4633035696
 20
217.66271491
 30
0.0
 11
275.0042759216
 21
220.2791334356
 31
0.0
  0
LINE
  5
F8
330
1F
100
AcDbEntity
  8
0
  6
Continuous
 62
     7
370
    15
100
AcDbLine
 10
259.1358282006
 20
240.5949267785
 30
0.0
 11
274.676793102
 21
237.9785077872
 31
0.0
  0
LINE
  5
F9
330
1F
100
AcDbEntity
  8
0
  6
Continuous
 62
     7
370
    15
100
AcDbLine
 10
275.1748644149
 20
240.9368749003
 30
0.0
 11
259.6338920629
 21
243.5532934258
 31
0.0
  0
SPLINE
  5
FA
330
1F
100
AcDbEntity
  8
0
  6
Continuous
 62
     7
370
    15
100
AcDbSpline
210
0.0
220
0.0
230
1.0
 70
     8
 71
     3
 72
    12
 73
     8
 74
     0
 42
0.00000001
 43
0.00000001
 40
0.0
 40
0.0
 40
0.0
 40
0.0
 40
0.1526139307072609
 40
0.2973908392825297
 40
0.5623711728146452
 40
0.7966022742850417
 40
0.9999999999999999
 40
0.9999999999999999
 40
0.9999999999999999
 40
0.9999999999999999
 10
275.0039331948932
 20
220.2794426346794
 30
0.0
 10
275.2551528160616
 20
220.3321807099208
 30
0.0
 10
275.7446914423018
 20
220.4349486576797
 30
0.0
 10
276.5942132669703
 20
220.8641941247643
 30
0.0
 10
277.4062084509957
 20
221.6085841605528
 30
0.0
 10
277.9706332408994
 20
222.6796318330891
 30
0.0
 10
278.0523239368138
 20
223.414555774568
 30
0.0
 10
278.0902915036854
 20
223.7561280133799
 30
0.0
  0
SPLINE
  5
FB
330
1F
100
AcDbEntity
  8
0
  6
Continuous
 62
     7
370
    15
100
AcDbSpline
210
0.0
220
0.0
230
1.0
 70
     8
 71
     3
 72
    11
 73
     7
 74
     0
 42
0.00000001
 43
0.00000001
 40
0.0
 40
0.0
 40
0.0
 40
0.0
 40
0.200353644134469
 40
0.4328004438907008
 40
0.6990211869197542
 40
1.0
 40
1.0
 40
1.0
 40
1.0
 10
275.0919841563877
 20
223.7561280133799
 30
0.0
 10
275.0787565455016
 20
223.6997013902014
 30
0.0
 10
275.0501824914191
 20
223.5778095840184
 30
0.0
 10
274.9342978971279
 20
223.4121082696288
 30
0.0
 10
274.7495385550341
 20
223.2732027912927
 30
0.0
 10
274.5919164664686
 20
223.249813558331
 30
0.0
 10
274.5082758701023
 20
223.237402294077
 30
0.0
  0
SPLINE
  5
FC
330
1F
100
AcDbEntity
  8
0
  6
Continuous
 62
     7
370
    15
100
AcDbSpline
210
0.0
220
0.0
230
1.0
 70
     8
 71
     3
 72
    12
 73
     8
 74
     0
 42
0.00000001
 43
0.00000001
 40
0.0
 40
0.0
 40
0.0
 40
0.0
 40
0.2034063295255029
 40
0.4376409556918522
 40
0.7026161450413805
 40
0.8473900579471296
 40
1.0
 40
1.0
 40
1.0
 40
1.0
 10
278.0902915036854
 20
237.3147588449195
 30
0.0
 10
278.0688573754259
 20
237.6577680329493
 30
0.0
 10
278.022740558915
 20
238.3957729377654
 30
0.0
 10
277.5106201429483
 20
239.492877700315
 30
0.0
 10
276.7354186200417
 20
240.2756357563522
 30
0.0
 10
275.9075662523916
 20
240.7453644242898
 30
0.0
 10
275.4235778574155
 20
240.8716254758878
 30
0.0
 10
275.1752071416553
 20
240.9364194835201
 30
0.0
  0
SPLINE
  5
FD
330
1F
100
AcDbEntity
  8
0
  6
Continuous
 62
     7
370
    15
100
AcDbSpline
210
0.0
220
0.0
230
1.0
 70
     8
 71
     3
 72
    12
 73
     8
 74
     0
 42
0.00000001
 43
0.00000001
 40
0.0
 40
0.0
 40
0.0
 40
0.0
 40
0.1555469387593176
 40
0.3021967960522135
 40
0.5679618796206853
 40
0.7999449029016247
 40
1.0
 40
1.0
 40
1.0
 40
1.0
 10
274.6748857534107
 20
237.9794260712936
 30
0.0
 10
274.7154273676359
 20
237.9636761929558
 30
0.0
 10
274.7941916687745
 20
237.9330773087228
 30
0.0
 10
274.9238205175342
 20
237.8380350223516
 30
0.0
 10
275.0382489793892
 20
237.6918604400174
 30
0.0
 10
275.1024059379972
 20
237.4976105003225
 30
0.0
 10
275.0952826105938
 20
237.3726306977804
 30
0.0
 10
275.0919841563877
 20
237.3147588449195
 30
0.0
  0
LINE
  5
FE
330
1F
100
AcDbEntity
  8
0
  6
Continuous
 62
     7
370
    15
100
AcDbLine
 10
275.0911347902
 20
237.36475876
 30
0.0
 11
275.0911347902
 21
237.1223638991
 31
0.0
  0
LINE
  5
FF
330
1F
100
AcDbEntity
  8
0
  6
Continuous
 62
     7
370
    15
100
AcDbLine
 10
275.0911347902
 20
224.1223636309
 30
0.0
 11
275.0911347902
 21
223.7061280983
 31
0.0
  0
LINE
  5
100
330
1F
100
AcDbEntity
  8
0
  6
Continuous
 62
     7
370
    15
100
AcDbLine
 10
278.0911408699
 20
223.7061280983
 30
0.0
 11
278.0911408699
 21
224.1251082386
 31
0.0
  0
LINE
  5
101
330
1F
100
AcDbEntity
  8
0
  6
Continuous
 62
     7
370
    15
100
AcDbLine
 10
278.0911408699
 20
237.1196192915
 30
0.0
 11
278.0911408699
 21
237.36475876
 31
0.0
  0
LINE
  5
102
330
1F
100
AcDbEntity
  8
0
  6
Continuous
 62
     7
370
    15
100
AcDbLine
 10
264.3904172218
 20
236.2223635654
 30
0.0
 11
262.7721436656
 21
236.2223635654
 31
0.0
  0
LINE
  5
103
330
1F
100
AcDbEntity
  8
0
  6
Continuous
 62
     7
370
    15
100
AcDbLine
 10
263.3990653193
 20
235.422363993
 30
0.0
 11
264.3904172218
 21
235.422363993
 31
0.0
  0
LINE
  5
104
330
1F
100
AcDbEntity
  8
0
  6
Continuous
 62
     7
370
    15
100
AcDbLine
 10
264.7286437786
 20
237.4905026744
 30
0.0
 11
264.4621216095
 21
236.2822555232
 31
0.0
  0
LINE
  5
105
330
1F
100
AcDbEntity
  8
0
  6
Continuous
 62
     7
370
    15
100
AcDbLine
 10
265.230276469
 20
236.050705448
 30
0.0
 11
265.5098595059
 21
237.3181749361
 31
0.0
  0
SPLINE
  5
106
330
1F
100
AcDbEntity
  8
0
  6
Continuous
 62
     7
370
    15
100
AcDbSpline
210
0.0
220
0.0
230
1.0
 70
     8
 71
     3
 72
    11
 73
     7
 74
     0
 42
0.00000001
 43
0.00000001
 40
0.0
 40
0.0
 40
0.0
 40
0.0
 40
0.2541309399275824
 40
0.5022690019548702
 40
0.7495126202113759
 40
1.0
 40
1.0
 40
1.0
 40
1.0
 10
264.3904172218021
 20
235.4223639930263
 30
0.0
 10
264.4905059662372
 20
235.4326101045045
 30
0.0
 10
264.6883231772727
 20
235.4528607051892
 30
0.0
 10
264.9464685034708
 20
235.606893192959
 30
0.0
 10
265.1499174893064
 20
235.8259673256561
 30
0.0
 10
265.2116559706557
 20
236.0130171095163
 30
0.0
 10
265.2427263891872
 20
236.1071515123024
 30
0.0
  0
LINE
  5
107
330
1F
100
AcDbEntity
  8
0
  6
Continuous
 62
     7
370
    15
100
AcDbLine
 10
264.0021451152
 20
237.8223636414
 30
0.0
 11
264.0021451152
 21
238.622364145
 31
0.0
  0
LINE
  5
108
330
1F
100
AcDbEntity
  8
0
  6
Continuous
 62
     7
370
    15
100
AcDbLine
 10
264.0021451152
 20
222.6223633851
 30
0.0
 11
264.0021451152
 21
223.4223638887
 31
0.0
  0
ARC
  5
109
330
1F
100
AcDbEntity
  8
0
  6
Continuous
 62
     7
370
    15
100
AcDbCircle
 10
261.2721443737
 20
235.8152209079
 30
0.0
 40
3.807142857143221
100
AcDbArc
 50
54.6997515601
 51
125.3002484399
  0
LINE
  5
10A
330
1F
100
AcDbEntity
  8
0
  6
Continuous
 62
     7
370
    15
100
AcDbLine
 10
259.0721480882
 20
238.9223636354
 30
0.0
 11
259.0721480882
 21
238.622364145
 31
0.0
  0
LINE
  5
10B
330
1F
100
AcDbEntity
  8
0
  6
Continuous
 62
     7
370
    15
100
AcDbLine
 10
263.4721480644
 20
238.622364145
 30
0.0
 11
263.4721480644
 21
238.9223636354
 31
0.0
  0
LINE
  5
10C
330
1F
100
AcDbEntity
  8
0
  6
Continuous
 62
     7
370
    15
100
AcDbLine
 10
259.1721423304
 20
222.2223640646
 30
0.0
 11
259.1721423304
 21
221.8223638127
 31
0.0
  0
LINE
  5
10D
330
1F
100
AcDbEntity
  8
0
  6
Continuous
 62
     7
370
    15
100
AcDbLine
 10
263.3721463716
 20
221.8223638127
 30
0.0
 11
263.3721463716
 21
222.2223640646
 31
0.0
  0
ARC
  5
10E
330
1F
100
AcDbEntity
  8
0
  6
Continuous
 62
     7
370
    15
100
AcDbCircle
 10
259.3721443737
 20
222.6223637651
 30
0.0
 40
0.4000000000007731
100
AcDbArc
 50
270.0
 51
0.0
  0
ARC
  5
10F
330
1F
100
AcDbEntity
  8
0
  6
Continuous
 62
     7
370
    15
100
AcDbCircle
 10
263.1721443737
 20
222.6223637651
 30
0.0
 40
0.4000000000007731
100
AcDbArc
 50
180.0
 51
270.0
  0
LINE
  5
110
330
1F
100
AcDbEntity
  8
0
  6
Continuous
 62
     7
370
    15
100
AcDbLine
 10
259.7721450365
 20
237.8223636414
 30
0.0
 11
259.7721450365
 21
237.3723639401
 31
0.0
  0
LINE
  5
111
330
1F
100
AcDbEntity
  8
0
  6
Continuous
 62
     7
370
    15
100
AcDbLine
 10
259.7721450365
 20
236.3723637762
 30
0.0
 11
259.7721450365
 21
235.8836592401
 31
0.0
  0
LINE
  5
112
330
1F
100
AcDbEntity
  8
0
  6
Continuous
 62
     7
370
    15
100
AcDbLine
 10
259.7721450365
 20
235.0875446799
 30
0.0
 11
259.7721450365
 21
234.9318475688
 31
0.0
  0
LINE
  5
113
330
1F
100
AcDbEntity
  8
0
  6
Continuous
 62
     7
370
    15
100
AcDbLine
 10
259.7721450365
 20
225.6327369476
 30
0.0
 11
259.7721450365
 21
224.8723637539
 31
0.0
  0
LINE
  5
114
330
1F
100
AcDbEntity
  8
0
  6
Continuous
 62
     7
370
    15
100
AcDbLine
 10
259.7721450365
 20
223.8723635899
 30
0.0
 11
259.7721450365
 21
223.4223638887
 31
0.0
  0
LINE
  5
115
330
1F
100
AcDbEntity
  8
0
  6
Continuous
 62
     7
370
    15
100
AcDbLine
 10
262.7721436656
 20
223.4223638887
 30
0.0
 11
262.7721436656
 21
223.8723635899
 31
0.0
  0
LINE
  5
116
330
1F
100
AcDbEntity
  8
0
  6
Continuous
 62
     7
370
    15
100
AcDbLine
 10
262.7721436656
 20
224.8723637539
 30
0.0
 11
262.7721436656
 21
225.3595059964
 31
0.0
  0
LINE
  5
117
330
1F
100
AcDbEntity
  8
0
  6
Continuous
 62
     7
370
    15
100
AcDbLine
 10
262.7721436656
 20
234.6674232038
 30
0.0
 11
262.7721436656
 21
234.8553617711
 31
0.0
  0
LINE
  5
118
330
1F
100
AcDbEntity
  8
0
  6
Continuous
 62
     7
370
    15
100
AcDbLine
 10
262.7721436656
 20
235.6104408617
 30
0.0
 11
262.7721436656
 21
236.3723637762
 31
0.0
  0
LINE
  5
119
330
1F
100
AcDbEntity
  8
0
  6
Continuous
 62
     7
370
    15
100
AcDbLine
 10
262.7721436656
 20
237.3723639401
 30
0.0
 11
262.7721436656
 21
237.8223636414
 31
0.0
  0
LINE
  5
11A
330
1F
100
AcDbEntity
  8
0
  6
Continuous
 62
     7
370
    15
100
AcDbLine
 10
274.3707530534
 20
237.1223638991
 30
0.0
 11
274.3707530534
 21
224.1223636309
 31
0.0
  0
LINE
  5
11B
330
1F
100
AcDbEntity
  8
0
  6
Continuous
 62
     7
370
    15
100
AcDbLine
 10
274.3707530534
 20
237.1223638991
 30
0.0
 11
277.0897381342
 21
237.1223638991
 31
0.0
  0
LWPOLYLINE
  5
11C
330
1F
100
AcDbEntity
  8
0
  6
Continuous
 62
     7
370
    15
100
AcDbPolyline
 90
        9
 70
   128
 43
0.0
 10
277.8202526605
 20
235.9223636093
 10
277.8062157667
 20
236.1564720275
 10
277.764641527
 20
236.3815838697
 10
277.6971392667
 20
236.5890480804
 10
277.6062868869
 20
236.7708920727
 10
277.4955861604
 20
236.9201272021
 10
277.3692839182
 20
237.0310193154
 10
277.2322528398
 20
237.0993062148
 10
277.0897381342
 20
237.1223638991
  0
LINE
  5
11D
330
1F
100
AcDbEntity
  8
0
  6
Continuous
 62
     7
370
    15
100
AcDbLine
 10
277.8202526605
 20
235.9223636093
 30
0.0
 11
277.8202526605
 21
225.3223639208
 31
0.0
  0
LWPOLYLINE
  5
11E
330
1F
100
AcDbEntity
  8
0
  6
Continuous
 62
     7
370
    15
100
AcDbPolyline
 90
        9
 70
   128
 43
0.0
 10
277.0897381342
 20
224.1223636309
 10
277.2322528398
 20
224.1454213152
 10
277.3692839182
 20
224.2137082147
 10
277.4955861604
 20
224.324600328
 10
277.6062868869
 20
224.4738354574
 10
277.6971392667
 20
224.6556794497
 10
277.764641527
 20
224.8631436604
 10
277.8062157667
 20
225.0882555025
 10
277.8202526605
 20
225.3223639208
  0
LINE
  5
11F
330
1F
100
AcDbEntity
  8
0
  6
Continuous
 62
     7
370
    15
100
AcDbLine
 10
277.0897381342
 20
224.1223636309
 30
0.0
 11
274.3707530534
 21
224.1223636309
 31
0.0
  0
LINE
  5
120
330
1F
100
AcDbEntity
  8
0
  6
Continuous
 62
     7
370
    15
100
AcDbLine
 10
277.0897381342
 20
237.1223638991
 30
0.0
 11
278.0417584217
 21
237.1223638991
 31
0.0
  0
LWPOLYLINE
  5
121
330
1F
100
AcDbEntity
  8
0
  6
Continuous
 62
     7
370
    15
100
AcDbPolyline
 90
        9
 70
   128
 43
0.0
 10
278.0417584217
 20
237.1223638991
 10
278.1842731273
 20
237.0993062148
 10
278.3213191068
 20
237.0310193154
 10
278.447606448
 20
236.9201272021
 10
278.5583071745
 20
236.7708920727
 10
278.6491595543
 20
236.5890480804
 10
278.7166618145
 20
236.3815838697
 10
278.7582360542
 20
236.1564720275
 10
278.772272948
 20
235.9223636093
  0
LINE
  5
122
330
1F
100
AcDbEntity
  8
0
  6
Continuous
 62
     7
370
    15
100
AcDbLine
 10
278.772272948
 20
235.9223636093
 30
0.0
 11
277.8202526605
 21
235.9223636093
 31
0.0
  0
LINE
  5
123
330
1F
100
AcDbEntity
  8
0
  6
Continuous
 62
     7
370
    15
100
AcDbLine
 10
278.772272948
 20
235.9223636093
 30
0.0
 11
278.772272948
 21
225.3223639208
 31
0.0
  0
LINE
  5
124
330
1F
100
AcDbEntity
  8
0
  6
Continuous
 62
     7
370
    15
100
AcDbLine
 10
277.8202526605
 20
225.3223639208
 30
0.0
 11
278.772272948
 21
225.3223639208
 31
0.0
  0
LINE
  5
125
330
1F
100
AcDbEntity
  8
0
  6
Continuous
 62
     7
370
    15
100
AcDbLine
 10
278.0417584217
 20
224.1223636309
 30
0.0
 11
277.0897381342
 21
224.1223636309
 31
0.0
  0
LWPOLYLINE
  5
126
330
1F
100
AcDbEntity
  8
0
  6
Continuous
 62
     7
370
    15
100
AcDbPolyline
 90
        9
 70
   128
 43
0.0
 10
278.772272948
 20
225.3223639208
 10
278.7582360542
 20
225.0882555025
 10
278.7166618145
 20
224.8631436604
 10
278.6491595543
 20
224.6556794497
 10
278.5583071745
 20
224.4738354574
 10
278.447606448
 20
224.324600328
 10
278.3213191068
 20
224.2137082147
 10
278.1842731273
 20
224.1454213152
 10
278.0417584217
 20
224.1223636309
  0
LINE
  5
127
330
1F
100
AcDbEntity
  8
0
  6
Continuous
 62
     7
370
    15
100
AcDbLine
 10
273.7921409643
 20
237.1223638991
 30
0.0
 11
274.3707530534
 21
237.1223638991
 31
0.0
  0
LINE
  5
128
330
1F
100
AcDbEntity
  8
0
  6
Continuous
 62
     7
370
    15
100
AcDbLine
 10
274.3707530534
 20
224.1223636309
 30
0.0
 11
273.7921409643
 21
224.1223636309
 31
0.0
  0
CIRCLE
  5
129
330
1F
100
AcDbEntity
  8
0
  6
Continuous
 62
     7
370
    15
100
AcDbCircle
 10
284.2921443737
 20
225.622363765
 30
0.0
 40
3.0
  0
LINE
  5
12A
330
1F
100
AcDbEntity
  8
0
  6
Continuous
 62
     7
370
    15
100
AcDbLine
 10
283.8921480215
 20
223.7223638448
 30
0.0
 11
284.6921466625
 21
223.7223638448
 31
0.0
  0
LINE
  5
12B
330
1F
100
AcDbEntity
  8
0
  6
Continuous
 62
     7
370
    15
100
AcDbLine
 10
284.6921466625
 20
223.7223638448
 30
0.0
 11
284.6921466625
 21
225.222363625
 31
0.0
  0
LINE
  5
12C
330
1F
100
AcDbEntity
  8
0
  6
Continuous
 62
     7
370
    15
100
AcDbLine
 10
284.6921466625
 20
225.222363625
 30
0.0
 11
286.1921422517
 21
225.222363625
 31
0.0
  0
LINE
  5
12D
330
1F
100
AcDbEntity
  8
0
  6
Continuous
 62
     7
370
    15
100
AcDbLine
 10
286.1921422517
 20
225.222363625
 30
0.0
 11
286.1921422517
 21
226.022363663
 31
0.0
  0
LINE
  5
12E
330
1F
100
AcDbEntity
  8
0
  6
Continuous
 62
     7
370
    15
100
AcDbLine
 10
286.1921422517
 20
226.022363663
 30
0.0
 11
284.6921466625
 21
226.022363663
 31
0.0
  0
LINE
  5
12F
330
1F
100
AcDbEntity
  8
0
  6
Continuous
 62
     7
370
    15
100
AcDbLine
 10
284.6921466625
 20
226.022363663
 30
0.0
 11
284.6921466625
 21
227.522363676
 31
0.0
  0
LINE
  5
130
330
1F
100
AcDbEntity
  8
0
  6
Continuous
 62
     7
370
    15
100
AcDbLine
 10
284.6921466625
 20
227.522363676
 30
0.0
 11
283.8921480215
 21
227.522363676
 31
0.0
  0
LINE
  5
131
330
1F
100
AcDbEntity
  8
0
  6
Continuous
 62
     7
370
    15
100
AcDbLine
 10
283.8921480215
 20
227.522363676
 30
0.0
 11
283.8921480215
 21
226.022363663
 31
0.0
  0
LINE
  5
132
330
1F
100
AcDbEntity
  8
0
  6
Continuous
 62
     7
370
    15
100
AcDbLine
 10
282.3921375311
 20
226.022363663
 30
0.0
 11
282.3921375311
 21
225.222363625
 31
0.0
  0
LINE
  5
133
330
1F
100
AcDbEntity
  8
0
  6
Continuous
 62
     7
370
    15
100
AcDbLine
 10
283.8921480215
 20
225.222363625
 30
0.0
 11
283.8921480215
 21
223.7223638448
 31
0.0
  0
LINE
  5
134
330
1F
100
AcDbEntity
  8
0
  6
Continuous
 62
     7
370
    15
100
AcDbLine
 10
283.8921480215
 20
226.022363663
 30
0.0
 11
282.3921375311
 21
226.022363663
 31
0.0
  0
LINE
  5
135
330
1F
100
AcDbEntity
  8
0
  6
Continuous
 62
     7
370
    15
100
AcDbLine
 10
282.3921375311
 20
225.222363625
 30
0.0
 11
283.8921480215
 21
225.222363625
 31
0.0
  0
LINE
  5
136
330
1F
100
AcDbEntity
  8
0
  6
Continuous
 62
     7
370
    15
100
AcDbLine
 10
283.8921480215
 20
235.2223638671
 30
0.0
 11
283.8921480215
 21
233.7223638541
 31
0.0
  0
LINE
  5
137
330
1F
100
AcDbEntity
  8
0
  6
Continuous
 62
     7
370
    15
100
AcDbLine
 10
283.8921480215
 20
233.7223638541
 30
0.0
 11
284.6921466625
 21
233.7223638541
 31
0.0
  0
LINE
  5
138
330
1F
100
AcDbEntity
  8
0
  6
Continuous
 62
     7
370
    15
100
AcDbLine
 10
284.6921466625
 20
233.7223638541
 30
0.0
 11
284.6921466625
 21
235.2223638671
 31
0.0
  0
LINE
  5
139
330
1F
100
AcDbEntity
  8
0
  6
Continuous
 62
     7
370
    15
100
AcDbLine
 10
284.6921466625
 20
235.2223638671
 30
0.0
 11
286.1921422517
 21
235.2223638671
 31
0.0
  0
LINE
  5
13A
330
1F
100
AcDbEntity
  8
0
  6
Continuous
 62
     7
370
    15
100
AcDbLine
 10
286.1921422517
 20
235.2223638671
 30
0.0
 11
286.1921422517
 21
236.0223639051
 31
0.0
  0
LINE
  5
13B
330
1F
100
AcDbEntity
  8
0
  6
Continuous
 62
     7
370
    15
100
AcDbLine
 10
286.1921422517
 20
236.0223639051
 30
0.0
 11
284.6921466625
 21
236.0223639051
 31
0.0
  0
LINE
  5
13C
330
1F
100
AcDbEntity
  8
0
  6
Continuous
 62
     7
370
    15
100
AcDbLine
 10
284.6921466625
 20
236.0223639051
 30
0.0
 11
284.6921466625
 21
237.5223636853
 31
0.0
  0
LINE
  5
13D
330
1F
100
AcDbEntity
  8
0
  6
Continuous
 62
     7
370
    15
100
AcDbLine
 10
284.6921466625
 20
237.5223636853
 30
0.0
 11
283.8921480215
 21
237.5223636853
 31
0.0
  0
LINE
  5
13E
330
1F
100
AcDbEntity
  8
0
  6
Continuous
 62
     7
370
    15
100
AcDbLine
 10
283.8921480215
 20
237.5223636853
 30
0.0
 11
283.8921480215
 21
236.0223639051
 31
0.0
  0
CIRCLE
  5
13F
330
1F
100
AcDbEntity
  8
0
  6
Continuous
 62
     7
370
    15
100
AcDbCircle
 10
284.2921443737
 20
235.622363765
 30
0.0
 40
3.0
  0
LINE
  5
140
330
1F
100
AcDbEntity
  8
0
  6
Continuous
 62
     7
370
    15
100
AcDbLine
 10
282.3921375311
 20
235.2223638671
 30
0.0
 11
283.8921480215
 21
235.2223638671
 31
0.0
  0
LINE
  5
141
330
1F
100
AcDbEntity
  8
0
  6
Continuous
 62
     7
370
    15
100
AcDbLine
 10
283.8921480215
 20
236.0223639051
 30
0.0
 11
282.3921375311
 21
236.0223639051
 31
0.0
  0
LINE
  5
142
330
1F
100
AcDbEntity
  8
0
  6
Continuous
 62
     7
370
    15
100
AcDbLine
 10
282.3921375311
 20
236.0223639051
 30
0.0
 11
282.3921375311
 21
235.2223638671
 31
0.0
  0
LINE
  5
143
330
1F
100
AcDbEntity
  8
0
  6
Continuous
 62
     7
370
    15
100
AcDbLine
 10
278.2921426332
 20
237.1223638991
 30
0.0
 11
283.2743756807
 21
241.7242494638
 31
0.0
  0
ARC
  5
144
330
1F
100
AcDbEntity
  8
0
  6
Continuous
 62
     7
370
    15
100
AcDbCircle
 10
284.2921443737
 20
240.622363765
 30
0.0
 40
1.500000000000015
100
AcDbArc
 50
43.6028189726
 51
132.7273953127
  0
ARC
  5
145
330
1F
100
AcDbEntity
  8
0
  6
Continuous
 62
     7
370
    15
100
AcDbCircle
 10
273.7921443737
 20
230.622363765
 30
0.0
 40
16.00000000000004
100
AcDbArc
 50
316.3971810272
 51
43.6028189726
  0
LINE
  5
146
330
1F
100
AcDbEntity
  8
0
  6
Continuous
 62
     7
370
    15
100
AcDbLine
 10
283.2743756807
 20
219.5204780663
 30
0.0
 11
278.2921426332
 21
224.1223636309
 31
0.0
  0
ARC
  5
147
330
1F
100
AcDbEntity
  8
0
  6
Continuous
 62
     7
370
    15
100
AcDbCircle
 10
284.2921443736
 20
220.622363765
 30
0.0
 40
1.500000000000011
100
AcDbArc
 50
227.2726046868
 51
316.3971810272
  0
LINE
  5
148
330
1F
100
AcDbEntity
  8
0
  6
Continuous
 62
     7
370
    15
100
AcDbLine
 10
278.0911408699
 20
237.1223638991
 30
0.0
 11
278.2921426332
 21
237.1223638991
 31
0.0
  0
LINE
  5
149
330
1F
100
AcDbEntity
  8
0
  6
Continuous
 62
     7
370
    15
100
AcDbLine
 10
278.2921426332
 20
224.1223636309
 30
0.0
 11
278.0911408699
 21
224.1223636309
 31
0.0
  0
LINE
  5
14A
330
1F
100
AcDbEntity
  8
0
  6
Continuous
 62
     7
370
    15
100
AcDbLine
 10
281.2921487129
 20
45.6223613809
 30
0.0
 11
286.2921439445
 21
45.6223613809
 31
0.0
  0
LINE
  5
14B
330
1F
100
AcDbEntity
  8
0
  6
Continuous
 62
     7
370
    15
100
AcDbLine
 10
281.2921487129
 20
221.3513865362
 30
0.0
 11
281.2921487129
 21
45.6223613809
 31
0.0
  0
LINE
  5
14C
330
1F
100
AcDbEntity
  8
0
  6
Continuous
 62
     7
370
    15
100
AcDbLine
 10
286.2921439445
 20
220.6348716507
 30
0.0
 11
286.2921439445
 21
45.6223613809
 31
0.0
  0
LINE
  5
14D
330
1F
100
AcDbEntity
  8
0
  6
Continuous
 62
     7
370
    15
100
AcDbLine
 10
281.2921487129
 20
30.6223607848
 30
0.0
 11
286.2921439445
 21
30.6223607848
 31
0.0
  0
LINE
  5
14E
330
1F
100
AcDbEntity
  8
0
  6
Continuous
 62
     7
370
    15
100
AcDbLine
 10
281.2921487129
 20
45.6223613809
 30
0.0
 11
281.2921487129
 21
30.6223607848
 31
0.0
  0
LINE
  5
14F
330
1F
100
AcDbEntity
  8
0
  6
Continuous
 62
     7
370
    15
100
AcDbLine
 10
286.2921439445
 20
45.6223613809
 30
0.0
 11
286.2921439445
 21
30.6223607848
 31
0.0
  0
LINE
  5
150
330
1F
100
AcDbEntity
  8
0
  6
Continuous
 62
     7
370
    15
100
AcDbLine
 10
286.2921439445
 20
240.6098558793
 30
0.0
 11
286.2921439445
 21
415.6223661492
 31
0.0
  0
LINE
  5
151
330
1F
100
AcDbEntity
  8
0
  6
Continuous
 62
     7
370
    15
100
AcDbLine
 10
286.2921439445
 20
415.6223661492
 30
0.0
 11
301.2921445406
 21
415.6223661492
 31
0.0
  0
LINE
  5
152
330
1F
100
AcDbEntity
  8
0
  6
Continuous
 62
     7
370
    15
100
AcDbLine
 10
301.2921445406
 20
415.6223661492
 30
0.0
 11
301.2921445406
 21
45.6223613809
 31
0.0
  0
LINE
  5
153
330
1F
100
AcDbEntity
  8
0
  6
Continuous
 62
     7
370
    15
100
AcDbLine
 10
286.2921439445
 20
45.6223613809
 30
0.0
 11
301.2921445406
 21
45.6223613809
 31
0.0
  0
ARC
  5
154
330
1F
100
AcDbEntity
  8
0
  6
Continuous
 62
     7
370
    15
100
AcDbCircle
 10
286.2921443737
 20
45.622363765
 30
0.0
 40
15.00000000000001
100
AcDbArc
 50
270.0
 51
0.0
  0
LINE
  5
155
330
1F
100
AcDbEntity
  8
0
  6
Continuous
 62
     7
370
    15
100
AcDbLine
 10
281.2921487129
 20
415.6223661492
 30
0.0
 11
286.2921439445
 21
415.6223661492
 31
0.0
  0
LINE
  5
156
330
1F
100
AcDbEntity
  8
0
  6
Continuous
 62
     7
370
    15
100
AcDbLine
 10
281.2921487129
 20
239.8933409939
 30
0.0
 11
281.2921487129
 21
415.6223661492
 31
0.0
  0
LINE
  5
157
330
1F
100
AcDbEntity
  8
0
  6
Continuous
 62
     7
370
    15
100
AcDbLine
 10
281.2921487129
 20
430.6223667453
 30
0.0
 11
286.2921439445
 21
430.6223667453
 31
0.0
  0
LINE
  5
158
330
1F
100
AcDbEntity
  8
0
  6
Continuous
 62
     7
370
    15
100
AcDbLine
 10
286.2921439445
 20
415.6223661492
 30
0.0
 11
286.2921439445
 21
430.6223667453
 31
0.0
  0
LINE
  5
159
330
1F
100
AcDbEntity
  8
0
  6
Continuous
 62
     7
370
    15
100
AcDbLine
 10
281.2921487129
 20
415.6223661492
 30
0.0
 11
281.2921487129
 21
430.6223667453
 31
0.0
  0
ARC
  5
15A
330
1F
100
AcDbEntity
  8
0
  6
Continuous
 62
     7
370
    15
100
AcDbCircle
 10
286.2921443737
 20
415.622363765
 30
0.0
 40
15.0
100
AcDbArc
 50
0.0
 51
90.0
  0
SPLINE
  5
15B
330
1F
100
AcDbEntity
  8
0
  6
Continuous
 62
     7
370
    15
100
AcDbSpline
210
0.0
220
0.0
230
1.0
 70
     8
 71
     3
 72
    16
 73
    12
 74
     0
 42
0.00000001
 43
0.00000001
 40
0.0
 40
0.0
 40
0.0
 40
0.0
 40
0.1207044914554374
 40
0.2414116502801842
 40
0.3621187102477262
 40
0.4828243480536009
 40
0.6035308285510433
 40
0.7242368618406472
 40
0.8449447090351456
 40
0.9656514861558141
 40
1.0
 40
1.0
 40
1.0
 40
1.0
 10
259.444446150082
 20
217.669992264606
 30
0.0
 10
259.4638471739606
 20
217.6726650080296
 30
0.0
 10
259.5026496504483
 20
217.6780105539399
 30
0.0
 10
259.5075708360191
 20
217.9689560313248
 30
0.0
 10
259.4703613505707
 20
218.4222927100621
 30
0.0
 10
259.3934440845767
 20
218.9898258373097
 30
0.0
 10
259.2896313276403
 20
219.5781441181624
 30
0.0
 10
259.1735204894299
 20
220.1048520744275
 30
0.0
 10
259.0665269004193
 20
220.4681278408335
 30
0.0
 10
258.9939510910826
 20
220.6385997076056
 30
0.0
 10
258.9743989563225
 20
220.6054478980194
 30
0.0
 10
258.9700676834759
 20
220.5981039668098
 30
0.0
  0
SPLINE
  5
15C
330
1F
100
AcDbEntity
  8
0
  6
Continuous
 62
     7
370
    15
100
AcDbSpline
210
0.0
220
0.0
230
1.0
 70
     8
 71
     3
 72
    16
 73
    12
 74
     0
 42
0.00000001
 43
0.00000001
 40
0.0
 40
0.0
 40
0.0
 40
0.0
 40
0.1205802123267266
 40
0.2411628533287396
 40
0.3617455516146525
 40
0.4823269758812673
 40
0.6029090458262124
 40
0.7234903738647235
 40
0.8440738090980884
 40
0.9646532140801932
 40
1.0
 40
1.0
 40
1.0
 40
1.0
 10
259.6150271928486
 20
243.5460160712376
 30
0.0
 10
259.6344324892034
 20
243.543343239982
 30
0.0
 10
259.6732434727662
 20
243.5379975236357
 30
0.0
 10
259.6781453219237
 20
243.247053894611
 30
0.0
 10
259.6409557739902
 20
242.7937139939307
 30
0.0
 10
259.5640227286935
 20
242.226186099246
 30
0.0
 10
259.4602089808053
 20
241.6378538900811
 30
0.0
 10
259.3441180788304
 20
241.1111970445962
 30
0.0
 10
259.2370901832356
 20
240.7477285509834
 30
0.0
 10
259.1643353970479
 20
240.577178214911
 30
0.0
 10
259.1446858370691
 20
240.610762437238
 30
0.0
 10
259.140231493729
 20
240.6183756182566
 30
0.0
  0
SPLINE
  5
15D
330
1F
100
AcDbEntity
  8
0
  6
Continuous
 62
     7
370
    15
100
AcDbSpline
210
0.0
220
0.0
230
1.0
 70
     8
 71
     3
 72
    16
 73
    12
 74
     0
 42
0.00000001
 43
0.00000001
 40
0.0
 40
0.0
 40
0.0
 40
0.0
 40
0.120514831002165
 40
0.2410323251824575
 40
0.3615497206608775
 40
0.4820655001929122
 40
0.6025825828726462
 40
0.7230986582865249
 40
0.8436171191058824
 40
0.9641308578801009
 40
1.0
 40
1.0
 40
1.0
 40
1.0
 10
274.9854110515293
 20
220.2864107901826
 30
0.0
 10
275.0048119893877
 20
220.2890835492572
 30
0.0
 10
275.0436142938331
 20
220.2944291264698
 30
0.0
 10
275.0485367697431
 20
220.5853743690834
 30
0.0
 10
275.0113224011819
 20
221.0387116941688
 30
0.0
 10
274.9344234752722
 20
221.6062415043035
 30
0.0
 10
274.8305862211228
 20
222.1945775665039
 30
0.0
 10
274.7145118103284
 20
222.7212093029074
 30
0.0
 10
274.6074408563113
 20
223.0847770937682
 30
0.0
 10
274.5346296999135
 20
223.2553729978402
 30
0.0
 10
274.5149139794557
 20
223.2215592779566
 30
0.0
 10
274.5103918349918
 20
223.2138035113588
 30
0.0
  0
SPLINE
  5
15E
330
1F
100
AcDbEntity
  8
0
  6
Continuous
 62
     7
370
    15
100
AcDbSpline
210
0.0
220
0.0
230
1.0
 70
     8
 71
     3
 72
    16
 73
    12
 74
     0
 42
0.00000001
 43
0.00000001
 40
0.0
 40
0.0
 40
0.0
 40
0.0
 40
0.1205176055237603
 40
0.241032021926216
 40
0.3615491481662126
 40
0.4820661734124042
 40
0.6025826964759677
 40
0.7230985026543721
 40
0.8436143714857623
 40
0.9641311876504708
 40
1.0
 40
1.0
 40
1.0
 40
1.0
 10
275.1559995448765
 20
240.929597545661
 30
0.0
 10
275.1754006470973
 20
240.926926242017
 30
0.0
 10
275.2142023381495
 20
240.9215837054166
 30
0.0
 10
275.2191235211956
 20
240.6306306599059
 30
0.0
 10
275.1819171977559
 20
240.1772935350165
 30
0.0
 10
275.1049869190934
 20
239.6097724936552
 30
0.0
 10
275.0011819553555
 20
239.0214285775735
 30
0.0
 10
274.8850970354883
 20
238.4948053247473
 30
0.0
 10
274.778038426927
 20
238.1312221591191
 30
0.0
 10
274.7051877198066
 20
237.9606349476495
 30
0.0
 10
274.6854966889397
 20
237.9944495326842
 30
0.0
 10
274.680980328339
 20
238.0022052901462
 30
0.0
  0
SPLINE
  5
15F
330
1F
100
AcDbEntity
  8
0
  6
Continuous
 62
     7
370
    15
100
AcDbSpline
210
0.0
220
0.0
230
1.0
 70
    24
 71
     3
 72
    16
 73
    12
 74
     0
 42
0.00000001
 43
0.00000001
 40
0.0
 40
0.0
 40
0.0
 40
0.0
 40
0.0611071491295778
 40
0.1864711554396543
 40
0.3118333742869777
 40
0.4371957719142286
 40
0.5625572265557508
 40
0.6879224398113394
 40
0.8132846586586627
 40
0.9386470562859137
 40
1.0
 40
1.0
 40
1.0
 40
1.0
 10
278.0623369252857
 20
223.7561280133799
 30
0.0
 10
278.0681035830381
 20
223.7561280133799
 30
0.0
 10
278.0857007930118
 20
223.7561280133799
 30
0.0
 10
277.8673096866026
 20
223.7561280133799
 30
0.0
 10
277.4545336335664
 20
223.7561280133799
 30
0.0
 10
276.8980812954677
 20
223.7561280133799
 30
0.0
 10
276.2989743434874
 20
223.7561280133799
 30
0.0
 10
275.7402680098947
 20
223.7561280133799
 30
0.0
 10
275.3233295178695
 20
223.7561280133799
 30
0.0
 10
275.1003381571723
 20
223.7561280133799
 30
0.0
 10
275.1151359280387
 20
223.7561280133799
 30
0.0
 10
275.1199983394321
 20
223.7561280133799
 30
0.0
  0
SPLINE
  5
160
330
1F
100
AcDbEntity
  8
0
  6
Continuous
 62
     7
370
    15
100
AcDbSpline
210
0.0
220
0.0
230
1.0
 70
    24
 71
     3
 72
    16
 73
    12
 74
     0
 42
0.00000001
 43
0.00000001
 40
0.0
 40
0.0
 40
0.0
 40
0.0
 40
0.0610095893915384
 40
0.1861734476045528
 40
0.3113355212085618
 40
0.43649777330707
 40
0.5616590839253597
 40
0.6868241471569546
 40
0.8119862207609637
 40
0.9371484728594719
 40
1.0
 40
1.0
 40
1.0
 40
1.0
 10
278.0623369252857
 20
237.3147588449195
 30
0.0
 10
278.0681035768293
 20
237.3147588449195
 30
0.0
 10
278.0857007678562
 20
237.3147588449195
 30
0.0
 10
277.8673099198209
 20
237.3147588449195
 30
0.0
 10
277.4545327791022
 20
237.3147588449195
 30
0.0
 10
276.8980844801062
 20
237.3147588449195
 30
0.0
 10
276.2989624593458
 20
237.3147588449195
 30
0.0
 10
275.7403123628529
 20
237.3147588449195
 30
0.0
 10
275.323163994922
 20
237.3147588449195
 30
0.0
 10
275.0996833085605
 20
237.3147588449195
 30
0.0
 10
275.1148862975163
 20
237.3147588449195
 30
0.0
 10
275.1199685371097
 20
237.3147588449195
 30
0.0
  0
SPLINE
  5
161
330
1F
100
AcDbEntity
  8
0
  6
Continuous
 62
     7
370
    15
100
AcDbSpline
210
0.0
220
0.0
230
1.0
 70
     8
 71
     3
 72
    19
 73
    15
 74
     0
 42
0.00000001
 43
0.00000001
 40
0.0
 40
0.0
 40
0.0
 40
0.0
 40
0.0039549647145973
 40
0.1157673416546059
 40
0.2280441602243888
 40
0.3355190748443604
 40
0.4377072895834259
 40
0.5348813783049912
 40
0.628302511166183
 40
0.7302898573119802
 40
0.8413273888114153
 40
0.9641211978473089
 40
0.9937659048421617
 40
1.0
 40
1.0
 40
1.0
 40
1.0
 10
264.3904172218021
 20
236.222363565363
 30
0.0
 10
264.3908120109272
 20
236.2223579526649
 30
0.0
 10
264.4023680400782
 20
236.2221936611521
 30
0.0
 10
264.4255957119152
 20
236.2070625361941
 30
0.0
 10
264.4690988346305
 20
236.1401679151483
 30
0.0
 10
264.5070729952547
 20
236.0354694300205
 30
0.0
 10
264.5305692232702
 20
235.9103939803462
 30
0.0
 10
264.5418939359799
 20
235.7819574403841
 30
0.0
 10
264.5425038278274
 20
235.6607875869333
 30
0.0
 10
264.5267163918983
 20
235.551553933122
 30
0.0
 10
264.4863388887561
 20
235.4621379968605
 30
0.0
 10
264.4344768064244
 20
235.4270870816419
 30
0.0
 10
264.3997701250158
 20
235.422476868373
 30
0.0
 10
264.3918017593751
 20
235.4223807022935
 30
0.0
 10
264.3904172218021
 20
235.4223639930263
 30
0.0
  0
SPLINE
  5
162
330
1F
100
AcDbEntity
  8
0
  6
Continuous
 62
     7
370
    15
100
AcDbSpline
210
0.0
220
0.0
230
1.0
 70
     8
 71
     3
 72
    30
 73
    26
 74
     0
 42
0.00000001
 43
0.00000001
 40
0.0
 40
0.0
 40
0.0
 40
0.0
 40
0.1247092734887808
 40
0.2494201828389453
 40
0.3741277144462729
 40
0.4367850730959945
 40
0.4681558419898508
 40
0.4838425773092939
 40
0.4916892392768147
 40
0.4956135513877403
 40
0.4975725240520635
 40
0.4985520646506174
 40
0.4990418856792856
 40
0.4992867094199373
 40
0.4994091646771043
 40
0.4994761549231492
 40
0.4995067471108747
 40
0.499519220607769
 40
0.4995374626013807
 40
0.5609179998168962
 40
0.6646198887245258
 40
0.7325838327632908
 40
0.8111466747801674
 40
0.9002980622844619
 40
0.9999999999999999
 40
0.9999999999999999
 40
0.9999999999999999
 40
0.9999999999999999
 10
264.4621216094669
 20
236.2822555231526
 30
0.0
 10
264.4678864903029
 20
236.2804626829627
 30
0.0
 10
264.4794163275952
 20
236.2768769790653
 30
0.0
 10
264.5692541046277
 20
236.2550370950999
 30
0.0
 10
264.6767370431352
 20
236.2293562041002
 30
0.0
 10
264.7622910926785
 20
236.2089447357457
 30
0.0
 10
264.806388236636
 20
236.1984109397258
 30
0.0
 10
264.8286166339785
 20
236.1930914200706
 30
0.0
 10
264.8397496949345
 20
236.1904258455208
 30
0.0
 10
264.8453198219539
 20
236.1890934992679
 30
0.0
 10
264.8481038535069
 20
236.188424459439
 30
0.0
 10
264.849494857982
 20
236.1880923445325
 30
0.0
 10
264.8501898579906
 20
236.1879235530496
 30
0.0
 10
264.8505379336106
 20
236.1878418082042
 30
0.0
 10
264.8507137690724
 20
236.1877978770126
 30
0.0
 10
264.8508034626713
 20
236.1877785948495
 30
0.0
 10
264.8508485630774
 20
236.1877695169209
 30
0.0
 10
264.8508727389965
 20
236.1877609954848
 30
0.0
 10
264.8761686268905
 20
236.1833529040738
 30
0.0
 10
264.9428797568989
 20
236.1657817726135
 30
0.0
 10
265.0341484984999
 20
236.1479309472479
 30
0.0
 10
265.1176030107396
 20
236.1302863307646
 30
0.0
 10
265.1811773837208
 20
236.1175368807
 30
0.0
 10
265.2316751927093
 20
236.1078466044348
 30
0.0
 10
265.2389079673997
 20
236.1073916813147
 30
0.0
 10
265.2427263891872
 20
236.1071515123024
 30
0.0
  0
ELLIPSE
  5
163
330
1F
100
AcDbEntity
  8
0
  6
Continuous
 62
     7
370
    15
100
AcDbEllipse
 10
265.1192527674
 20
237.4043389438
 30
0.0
 11
0.3906095144045594
 21
-0.08616383961160068
 31
0.0
210
0.0
220
0.0
230
1.0
 40
0.0142285888
 41
0.0
 42
6.283185307179586
  0
LINE
  5
164
330
1F
100
AcDbEntity
  8
0
  6
Continuous
 62
     7
370
    15
100
AcDbLine
 10
264.5030700004
 20
225.9223638328
 30
0.0
 11
264.5030700004
 21
234.5223636592
 31
0.0
  0
LINE
  5
165
330
1F
100
AcDbEntity
  8
0
  6
Continuous
 62
     7
370
    15
100
AcDbLine
 10
264.5030700004
 20
225.9223638328
 30
0.0
 11
258.9887760914
 21
225.9223638328
 31
0.0
  0
LINE
  5
166
330
1F
100
AcDbEntity
  8
0
  6
Continuous
 62
     7
370
    15
100
AcDbLine
 10
258.9887760914
 20
225.9223638328
 30
0.0
 11
258.9887760914
 21
234.5223636592
 31
0.0
  0
LINE
  5
167
330
1F
100
AcDbEntity
  8
0
  6
Continuous
 62
     7
370
    15
100
AcDbLine
 10
264.5030700004
 20
234.5223636592
 30
0.0
 11
258.9887760914
 21
234.5223636592
 31
0.0
  0
LINE
  5
168
330
1F
100
AcDbEntity
  8
0
  6
Continuous
 62
     7
370
    15
100
AcDbLine
 10
257.8745194113
 20
237.8223636414
 30
0.0
 11
233.062409643
 21
237.8223636414
 31
0.0
  0
LINE
  5
169
330
1F
100
AcDbEntity
  8
0
  6
Continuous
 62
     7
370
    15
100
AcDbLine
 10
257.8745194113
 20
234.5223636592
 30
0.0
 11
257.8745194113
 21
237.8223636414
 31
0.0
  0
LINE
  5
16A
330
1F
100
AcDbEntity
  8
0
  6
Continuous
 62
     7
370
    15
100
AcDbLine
 10
257.8745194113
 20
223.4223638887
 30
0.0
 11
257.8745194113
 21
225.9223638328
 31
0.0
  0
LINE
  5
16B
330
1F
100
AcDbEntity
  8
0
  6
Continuous
 62
     7
370
    15
100
AcDbLine
 10
233.062409643
 20
223.4223638887
 30
0.0
 11
257.8745194113
 21
223.4223638887
 31
0.0
  0
LINE
  5
16C
330
1F
100
AcDbEntity
  8
0
  6
Continuous
 62
     7
370
    15
100
AcDbLine
 10
233.062409643
 20
223.4223638887
 30
0.0
 11
233.062409643
 21
237.8223636414
 31
0.0
  0
LINE
  5
16D
330
1F
100
AcDbEntity
  8
0
  6
Continuous
 62
     7
370
    15
100
AcDbLine
 10
257.8745194113
 20
225.9223638328
 30
0.0
 11
258.9887760914
 21
225.9223638328
 31
0.0
  0
LINE
  5
16E
330
1F
100
AcDbEntity
  8
0
  6
Continuous
 62
     7
370
    15
100
AcDbLine
 10
257.8745194113
 20
234.5223636592
 30
0.0
 11
258.9887760914
 21
234.5223636592
 31
0.0
  0
LINE
  5
16F
330
1F
100
AcDbEntity
  8
0
  6
Continuous
 62
     7
370
    15
100
AcDbLine
 10
259.8943792617
 20
238.6197145323
 30
0.0
 11
258.002147857
 21
238.6197145323
 31
0.0
  0
ARC
  5
170
330
1F
100
AcDbEntity
  8
0
  6
Continuous
 62
     7
370
    15
100
AcDbCircle
 10
259.3487711588
 20
237.9952765637
 30
0.0
 40
1.484357468314245
100
AcDbArc
 50
155.1225389752
 51
186.6895781293
  0
ARC
  5
171
330
1F
100
AcDbEntity
  8
0
  6
Continuous
 62
     7
370
    15
100
AcDbCircle
 10
234.3183577608
 20
238.0163254382
 30
0.0
 40
1.270837067952045
100
AcDbArc
 50
151.5180738401
 51
188.7790931251
  0
LINE
  5
172
330
1F
100
AcDbEntity
  8
0
  6
Continuous
 62
     7
370
    15
100
AcDbLine
 10
233.2013331688
 20
238.622364145
 30
0.0
 11
260.5671294367
 21
238.622364145
 31
0.0
  0
LINE
  5
173
330
1F
100
AcDbEntity
  8
0
  6
Continuous
 62
     7
370
    15
100
AcDbLine
 10
260.5671294367
 20
238.622364145
 30
0.0
 11
259.8943792617
 21
238.6197145323
 31
0.0
  0
LINE
  5
174
330
1F
100
AcDbEntity
  8
0
  6
Continuous
 62
     7
370
    15
100
AcDbLine
 10
258.002147857
 20
222.6250129978
 30
0.0
 11
259.8943792617
 21
222.6250129978
 31
0.0
  0
LINE
  5
175
330
1F
100
AcDbEntity
  8
0
  6
Continuous
 62
     7
370
    15
100
AcDbLine
 10
259.8943792617
 20
222.6250129978
 30
0.0
 11
260.5671294367
 21
222.6223633851
 31
0.0
  0
LINE
  5
176
330
1F
100
AcDbEntity
  8
0
  6
Continuous
 62
     7
370
    15
100
AcDbLine
 10
260.5671294367
 20
222.6223633851
 30
0.0
 11
233.2013331688
 21
222.6223633851
 31
0.0
  0
ARC
  5
177
330
1F
100
AcDbEntity
  8
0
  6
Continuous
 62
     7
370
    15
100
AcDbCircle
 10
234.3183577608
 20
223.2284020919
 30
0.0
 40
1.270837067952045
100
AcDbArc
 50
171.2209068749
 51
208.4819261599
  0
ARC
  5
178
330
1F
100
AcDbEntity
  8
0
  6
Continuous
 62
     7
370
    15
100
AcDbCircle
 10
259.3487711588
 20
223.2494509663
 30
0.0
 40
1.484357468314245
100
AcDbArc
 50
173.3104218707
 51
204.8774610248
  0
LINE
  5
179
330
1F
100
AcDbEntity
  8
0
  6
Continuous
 62
     7
370
    15
100
AcDbLine
 10
258.002147857
 20
237.8223636414
 30
0.0
 11
258.002147857
 21
238.6197145323
 31
0.0
  0
LINE
  5
17A
330
1F
100
AcDbEntity
  8
0
  6
Continuous
 62
     7
370
    15
100
AcDbLine
 10
258.0134429372
 20
237.8223636414
 30
0.0
 11
258.0134429372
 21
234.5223636592
 31
0.0
  0
LINE
  5
17B
330
1F
100
AcDbEntity
  8
0
  6
Continuous
 62
     7
370
    15
100
AcDbLine
 10
258.002147857
 20
222.6250129978
 30
0.0
 11
258.002147857
 21
223.4223638887
 31
0.0
  0
LINE
  5
17C
330
1F
100
AcDbEntity
  8
0
  6
Continuous
 62
     7
370
    15
100
AcDbLine
 10
258.0134429372
 20
225.9223638328
 30
0.0
 11
258.0134429372
 21
223.4223638887
 31
0.0
  0
LINE
  5
17D
330
1F
100
AcDbEntity
  8
0
  6
Continuous
 62
     7
370
    15
100
AcDbLine
 10
259.8943792617
 20
237.8223636414
 30
0.0
 11
259.8943792617
 21
238.6197145323
 31
0.0
  0
LINE
  5
17E
330
1F
100
AcDbEntity
  8
0
  6
Continuous
 62
     7
370
    15
100
AcDbLine
 10
264.0021451152
 20
238.622364145
 30
0.0
 11
260.5671294367
 21
238.622364145
 31
0.0
  0
LINE
  5
17F
330
1F
100
AcDbEntity
  8
0
  6
Continuous
 62
     7
370
    15
100
AcDbLine
 10
264.0021451152
 20
237.8223636414
 30
0.0
 11
259.8943792617
 21
237.8223636414
 31
0.0
  0
LINE
  5
180
330
1F
100
AcDbEntity
  8
0
  6
Continuous
 62
     7
370
    15
100
AcDbLine
 10
264.0021451152
 20
222.6223633851
 30
0.0
 11
260.5671294367
 21
222.6223633851
 31
0.0
  0
LINE
  5
181
330
1F
100
AcDbEntity
  8
0
  6
Continuous
 62
     7
370
    15
100
AcDbLine
 10
259.8943792617
 20
222.6250129978
 30
0.0
 11
259.8943792617
 21
223.4223638887
 31
0.0
  0
LINE
  5
182
330
1F
100
AcDbEntity
  8
0
  6
Continuous
 62
     7
370
    15
100
AcDbLine
 10
264.0021451152
 20
223.4223638887
 30
0.0
 11
259.8943792617
 21
223.4223638887
 31
0.0
  0
LINE
  5
183
330
1F
100
AcDbEntity
  8
0
  6
Continuous
 62
     7
370
    15
100
AcDbLine
 10
258.002147857
 20
223.4223638887
 30
0.0
 11
259.8943792617
 21
223.4223638887
 31
0.0
  0
LINE
  5
184
330
1F
100
AcDbEntity
  8
0
  6
Continuous
 62
     7
370
    15
100
AcDbLine
 10
258.002147857
 20
237.8223636414
 30
0.0
 11
259.8943792617
 21
237.8223636414
 31
0.0
  0
LINE
  5
185
330
1F
100
AcDbEntity
  8
0
  6
Continuous
 62
     7
370
    15
100
AcDbLine
 10
259.0721480882
 20
238.9223636354
 30
0.0
 11
263.4721480644
 21
238.9223636354
 31
0.0
  0
LINE
  5
186
330
1F
100
AcDbEntity
  8
0
  6
Continuous
 62
     7
370
    15
100
AcDbLine
 10
259.1721423304
 20
222.2223640646
 30
0.0
 11
263.3721463716
 21
222.2223640646
 31
0.0
  0
LINE
  5
187
330
1F
100
AcDbEntity
  8
0
  6
Continuous
 62
     7
370
    15
100
AcDbLine
 10
259.1721423304
 20
221.8223638127
 30
0.0
 11
263.3721463716
 21
221.8223638127
 31
0.0
  0
ARC
  5
188
330
1F
100
AcDbEntity
  8
0
  6
Continuous
 62
     7
370
    15
100
AcDbCircle
 10
241.4680442817
 20
230.622363765
 30
0.0
 40
16.90399728363032
100
AcDbArc
 50
154.7901555355
 51
205.2098444645
  0
SPLINE
  5
189
330
1F
100
AcDbEntity
  8
0
  6
Continuous
 62
     7
370
    15
100
AcDbSpline
210
0.0
220
0.0
230
1.0
 70
     8
 71
     3
 72
    12
 73
     8
 74
     0
 42
0.00000001
 43
0.00000001
 40
0.0
 40
0.0
 40
0.0
 40
0.0
 40
0.1818720879954493
 40
0.3633434410005944
 40
0.5550790921410036
 40
0.7712660534529983
 40
0.9999999999999999
 40
0.9999999999999999
 40
0.9999999999999999
 40
0.9999999999999999
 10
226.3064615762409
 20
222.6223633850589
 30
0.0
 10
226.3303229107991
 20
222.6296850744997
 30
0.0
 10
226.3779930041091
 20
222.64431232085
 30
0.0
 10
226.3927223851797
 20
222.7563015631293
 30
0.0
 10
226.3655055267608
 20
222.9256983505389
 30
0.0
 10
226.293825683713
 20
223.1541105702662
 30
0.0
 10
226.2147433550862
 20
223.3312806881704
 30
0.0
 10
226.1740871107753
 20
223.4223638887182
 30
0.0
  0
LINE
  5
18A
330
1F
100
AcDbEntity
  8
0
  6
Continuous
 62
     7
370
    15
100
AcDbLine
 10
225.9221010244
 20
223.3768627274
 30
0.0
 11
226.2765400446
 21
222.6223633851
 31
0.0
  0
ARC
  5
18B
330
1F
100
AcDbEntity
  8
0
  6
Continuous
 62
     7
370
    15
100
AcDbCircle
 10
241.1927614429
 20
230.622363765
 30
0.0
 40
16.90237719687151
100
AcDbArc
 50
154.6169692401
 51
205.3830307599
  0
LINE
  5
18C
330
1F
100
AcDbEntity
  8
0
  6
Continuous
 62
     7
370
    15
100
AcDbLine
 10
226.2765400446
 20
238.622364145
 30
0.0
 11
225.9221010244
 21
237.8678648027
 31
0.0
  0
SPLINE
  5
18D
330
1F
100
AcDbEntity
  8
0
  6
Continuous
 62
     7
370
    15
100
AcDbSpline
210
0.0
220
0.0
230
1.0
 70
     8
 71
     3
 72
    12
 73
     8
 74
     0
 42
0.00000001
 43
0.00000001
 40
0.0
 40
0.0
 40
0.0
 40
0.0
 40
0.2510219938737357
 40
0.5023977523608443
 40
0.7402766005126201
 40
0.9473072801081994
 40
1.0
 40
1.0
 40
1.0
 40
1.0
 10
226.1740871107753
 20
237.8223636413589
 30
0.0
 10
226.218404856607
 20
237.9222457235193
 30
0.0
 10
226.3071028051489
 20
238.1221506513869
 30
0.0
 10
226.38209545791
 20
238.38088625566
 30
0.0
 10
226.3935898249882
 20
238.5581155700124
 30
0.0
 10
226.3519437706704
 20
238.6185648404823
 30
0.0
 10
226.3141326930062
 20
238.6217233468094
 30
0.0
 10
226.3064615762409
 20
238.6223641450181
 30
0.0
  0
LINE
  5
18E
330
1F
100
AcDbEntity
  8
0
  6
Continuous
 62
     7
370
    15
100
AcDbLine
 10
226.3064615762
 20
238.622364145
 30
0.0
 11
226.2765400446
 21
238.622364145
 31
0.0
  0
LINE
  5
18F
330
1F
100
AcDbEntity
  8
0
  6
Continuous
 62
     7
370
    15
100
AcDbLine
 10
226.3064615762
 20
222.6223633851
 30
0.0
 11
226.2765400446
 21
222.6223633851
 31
0.0
  0
LINE
  5
190
330
1F
100
AcDbEntity
  8
0
  6
Continuous
 62
     7
370
    15
100
AcDbLine
 10
228.1635634935
 20
237.8223636414
 30
0.0
 11
226.1740871108
 21
237.8223636414
 31
0.0
  0
LINE
  5
191
330
1F
100
AcDbEntity
  8
0
  6
Continuous
 62
     7
370
    15
100
AcDbLine
 10
228.1635634935
 20
223.4223638887
 30
0.0
 11
228.1635634935
 21
237.8223636414
 31
0.0
  0
LINE
  5
192
330
1F
100
AcDbEntity
  8
0
  6
Continuous
 62
     7
370
    15
100
AcDbLine
 10
226.1740871108
 20
223.4223638887
 30
0.0
 11
228.1635634935
 21
223.4223638887
 31
0.0
  0
LWPOLYLINE
  5
193
330
1F
100
AcDbEntity
  8
0
  6
Continuous
 62
     7
370
    15
100
AcDbPolyline
 90
        9
 70
   128
 43
0.0
 10
228.1635634935
 20
237.8223636414
 10
228.1583033836
 20
237.9784360754
 10
228.1427316702
 20
238.1285103264
 10
228.1174518502
 20
238.2668201106
 10
228.0834250486
 20
238.3880489732
 10
228.0419625676
 20
238.4875393699
 10
227.9946513808
 20
238.5614677558
 10
227.9433243311
 20
238.6069917346
 10
227.8899483717
 20
238.622364145
  0
LINE
  5
194
330
1F
100
AcDbEntity
  8
0
  6
Continuous
 62
     7
370
    15
100
AcDbLine
 10
226.3064615762
 20
238.622364145
 30
0.0
 11
227.8899483717
 21
238.622364145
 31
0.0
  0
LWPOLYLINE
  5
195
330
1F
100
AcDbEntity
  8
0
  6
Continuous
 62
     7
370
    15
100
AcDbPolyline
 90
        9
 70
   128
 43
0.0
 10
228.1635634935
 20
223.4223638887
 10
228.1583033836
 20
223.2662914547
 10
228.1427316702
 20
223.1162172037
 10
228.1174518502
 20
222.9779074195
 10
228.0834250486
 20
222.8566785569
 10
228.0419625676
 20
222.7571881602
 10
227.9946513808
 20
222.6832597742
 10
227.9433243311
 20
222.6377357955
 10
227.8899483717
 20
222.6223633851
  0
LINE
  5
196
330
1F
100
AcDbEntity
  8
0
  6
Continuous
 62
     7
370
    15
100
AcDbLine
 10
227.8899483717
 20
222.6223633851
 30
0.0
 11
226.3064615762
 21
222.6223633851
 31
0.0
  0
LINE
  5
197
330
1F
100
AcDbEntity
  8
0
  6
Continuous
 62
     7
370
    15
100
AcDbLine
 10
228.1635634935
 20
223.4223638887
 30
0.0
 11
233.062409643
 21
223.4223638887
 31
0.0
  0
LINE
  5
198
330
1F
100
AcDbEntity
  8
0
  6
Continuous
 62
     7
370
    15
100
AcDbLine
 10
233.2013331688
 20
222.6223633851
 30
0.0
 11
227.8899483717
 21
222.6223633851
 31
0.0
  0
LINE
  5
199
330
1F
100
AcDbEntity
  8
0
  6
Continuous
 62
     7
370
    15
100
AcDbLine
 10
233.062409643
 20
237.8223636414
 30
0.0
 11
228.1635634935
 21
237.8223636414
 31
0.0
  0
LINE
  5
19A
330
1F
100
AcDbEntity
  8
0
  6
Continuous
 62
     7
370
    15
100
AcDbLine
 10
227.8899483717
 20
238.622364145
 30
0.0
 11
233.2013331688
 21
238.622364145
 31
0.0
  0
LINE
  5
19B
330
1F
100
AcDbEntity
  8
0
  6
Continuous
 62
     7
370
    15
100
AcDbLine
 10
264.2921440637
 20
224.8723637539
 30
0.0
 11
264.2921440637
 21
223.8723635899
 31
0.0
  0
LINE
  5
19C
330
1F
100
AcDbEntity
  8
0
  6
Continuous
 62
     7
370
    15
100
AcDbLine
 10
258.09214342
 20
224.8723637539
 30
0.0
 11
258.09214342
 21
223.8723635899
 31
0.0
  0
LINE
  5
19D
330
1F
100
AcDbEntity
  8
0
  6
Continuous
 62
     7
370
    15
100
AcDbLine
 10
264.2921440637
 20
223.8723635899
 30
0.0
 11
258.09214342
 21
223.8723635899
 31
0.0
  0
LINE
  5
19E
330
1F
100
AcDbEntity
  8
0
  6
Continuous
 62
     7
370
    15
100
AcDbLine
 10
264.2921440637
 20
224.8723637539
 30
0.0
 11
258.09214342
 21
224.8723637539
 31
0.0
  0
LINE
  5
19F
330
1F
100
AcDbEntity
  8
0
  6
Continuous
 62
     7
370
    15
100
AcDbLine
 10
264.2921440637
 20
237.3723639401
 30
0.0
 11
264.2921440637
 21
236.3723637762
 31
0.0
  0
LINE
  5
1A0
330
1F
100
AcDbEntity
  8
0
  6
Continuous
 62
     7
370
    15
100
AcDbLine
 10
258.09214342
 20
237.3723639401
 30
0.0
 11
258.09214342
 21
236.3723637762
 31
0.0
  0
LINE
  5
1A1
330
1F
100
AcDbEntity
  8
0
  6
Continuous
 62
     7
370
    15
100
AcDbLine
 10
264.2921440637
 20
236.3723637762
 30
0.0
 11
258.09214342
 21
236.3723637762
 31
0.0
  0
LINE
  5
1A2
330
1F
100
AcDbEntity
  8
0
  6
Continuous
 62
     7
370
    15
100
AcDbLine
 10
264.2921440637
 20
237.3723639401
 30
0.0
 11
258.09214342
 21
237.3723639401
 31
0.0
  0
LWPOLYLINE
  5
1A3
330
1F
100
AcDbEntity
  8
0
  6
Continuous
 62
     7
370
    15
100
AcDbPolyline
 90
        3
 70
   128
 43
0.0
 10
258.0134429372
 20
224.2612252238
 10
258.016020838
 20
224.2550472955
 10
258.09214342
 20
223.8723635899
  0
LWPOLYLINE
  5
1A4
330
1F
100
AcDbEntity
  8
0
  6
Continuous
 62
     7
370
    15
100
AcDbPolyline
 90
        3
 70
   128
 43
0.0
 10
258.09214342
 20
237.3723639401
 10
258.016020838
 20
236.9896802346
 10
258.0134429372
 20
236.9835023063
  0
LINE
  5
1A5
330
1F
100
AcDbEntity
  8
0
  6
Continuous
 62
     7
370
    15
100
AcDbLine
 10
264.2921440637
 20
236.3723637762
 30
0.0
 11
264.2921440637
 21
236.2223635654
 31
0.0
  0
LINE
  5
1A6
330
1F
100
AcDbEntity
  8
0
  6
Continuous
 62
     7
370
    15
100
AcDbLine
 10
264.2921440637
 20
235.422363993
 30
0.0
 11
264.2921440637
 21
234.5223636592
 31
0.0
  0
LINE
  5
1A7
330
1F
100
AcDbEntity
  8
0
  6
Continuous
 62
     7
370
    15
100
AcDbLine
 10
264.2921440637
 20
225.9223638328
 30
0.0
 11
264.2921440637
 21
224.8723637539
 31
0.0
  0
LINE
  5
1A8
330
1F
100
AcDbEntity
  8
0
  6
Continuous
 62
     7
370
    15
100
AcDbLine
 10
156.2921440563
 20
415.6223661492
 30
0.0
 11
156.2921440563
 21
45.6223613809
 31
0.0
  0
LINE
  5
1A9
330
1F
100
AcDbEntity
  8
0
  6
Continuous
 62
     7
370
    15
100
AcDbLine
 10
156.2921440563
 20
45.6223613809
 30
0.0
 11
141.2921443916
 21
45.6223613809
 31
0.0
  0
LINE
  5
1AA
330
1F
100
AcDbEntity
  8
0
  6
Continuous
 62
     7
370
    15
100
AcDbLine
 10
141.2921443916
 20
415.6223661492
 30
0.0
 11
141.2921443916
 21
45.6223613809
 31
0.0
  0
LINE
  5
1AB
330
1F
100
AcDbEntity
  8
0
  6
Continuous
 62
     7
370
    15
100
AcDbLine
 10
141.2921443916
 20
415.6223661492
 30
0.0
 11
156.2921440563
 21
415.6223661492
 31
0.0
  0
LINE
  5
1AC
330
1F
100
AcDbEntity
  8
0
  6
Continuous
 62
     7
370
    15
100
AcDbLine
 10
156.2921440563
 20
45.6223613809
 30
0.0
 11
156.2921440563
 21
30.6223607848
 31
0.0
  0
ARC
  5
1AD
330
1F
100
AcDbEntity
  8
0
  6
Continuous
 62
     7
370
    15
100
AcDbCircle
 10
156.2921443737
 20
45.622363765
 30
0.0
 40
15.00000000000001
100
AcDbArc
 50
180.0
 51
270.0
  0
ARC
  5
1AE
330
1F
100
AcDbEntity
  8
0
  6
Continuous
 62
     7
370
    15
100
AcDbCircle
 10
156.2921443737
 20
415.622363765
 30
0.0
 40
15.0
100
AcDbArc
 50
90.0
 51
180.0
  0
LINE
  5
1AF
330
1F
100
AcDbEntity
  8
0
  6
Continuous
 62
     7
370
    15
100
AcDbLine
 10
156.2921440563
 20
430.6223667453
 30
0.0
 11
156.2921440563
 21
415.6223661492
 31
0.0
  0
LINE
  5
1B0
330
1F
100
AcDbEntity
  8
0
  6
Continuous
 62
     7
370
    15
100
AcDbLine
 10
277.2921406067
 20
430.6223667453
 30
0.0
 11
156.2921440563
 21
430.6223667453
 31
0.0
  0
LINE
  5
1B1
330
1F
100
AcDbEntity
  8
0
  6
Continuous
 62
     7
370
    15
100
AcDbLine
 10
277.2921406067
 20
430.6223667453
 30
0.0
 11
277.2921406067
 21
415.6223661492
 31
0.0
  0
LINE
  5
1B2
330
1F
100
AcDbEntity
  8
0
  6
Continuous
 62
     7
370
    15
100
AcDbLine
 10
277.2921406067
 20
415.6223661492
 30
0.0
 11
156.2921440563
 21
415.6223661492
 31
0.0
  0
LINE
  5
1B3
330
1F
100
AcDbEntity
  8
0
  6
Continuous
 62
     7
370
    15
100
AcDbLine
 10
257.292144779
 20
50.6223566125
 30
0.0
 11
257.292144779
 21
217.8098173107
 31
0.0
  0
LINE
  5
1B4
330
1F
100
AcDbEntity
  8
0
  6
Continuous
 62
     7
370
    15
100
AcDbLine
 10
257.292144779
 20
221.1496033932
 30
0.0
 11
257.292144779
 21
222.6223633851
 31
0.0
  0
LINE
  5
1B5
330
1F
100
AcDbEntity
  8
0
  6
Continuous
 62
     7
370
    15
100
AcDbLine
 10
257.292144779
 20
238.622364145
 30
0.0
 11
257.292144779
 21
240.0817661772
 31
0.0
  0
LINE
  5
1B6
330
1F
100
AcDbEntity
  8
0
  6
Continuous
 62
     7
370
    15
100
AcDbLine
 10
257.292144779
 20
243.4244822005
 30
0.0
 11
257.292144779
 21
410.6223709176
 31
0.0
  0
LINE
  5
1B7
330
1F
100
AcDbEntity
  8
0
  6
Continuous
 62
     7
370
    15
100
AcDbLine
 10
257.292144779
 20
410.6223709176
 30
0.0
 11
161.2921439445
 21
410.6223709176
 31
0.0
  0
LINE
  5
1B8
330
1F
100
AcDbEntity
  8
0
  6
Continuous
 62
     7
370
    15
100
AcDbLine
 10
161.2921439445
 20
410.6223709176
 30
0.0
 11
161.2921439445
 21
50.6223566125
 31
0.0
  0
LINE
  5
1B9
330
1F
100
AcDbEntity
  8
0
  6
Continuous
 62
     7
370
    15
100
AcDbLine
 10
257.292144779
 20
50.6223566125
 30
0.0
 11
161.2921439445
 21
50.6223566125
 31
0.0
  0
LINE
  5
1BA
330
1F
100
AcDbEntity
  8
0
  6
Continuous
 62
     7
370
    15
100
AcDbLine
 10
277.2921406067
 20
45.6223613809
 30
0.0
 11
277.2921406067
 21
221.6144562925
 31
0.0
  0
LINE
  5
1BB
330
1F
100
AcDbEntity
  8
0
  6
Continuous
 62
     7
370
    15
100
AcDbLine
 10
277.2921406067
 20
239.5982933457
 30
0.0
 11
277.2921406067
 21
415.6223661492
 31
0.0
  0
LINE
  5
1BC
330
1F
100
AcDbEntity
  8
0
  6
Continuous
 62
     7
370
    15
100
AcDbLine
 10
277.2921406067
 20
45.6223613809
 30
0.0
 11
156.2921440563
 21
45.6223613809
 31
0.0
  0
LINE
  5
1BD
330
1F
100
AcDbEntity
  8
0
  6
Continuous
 62
     7
370
    15
100
AcDbLine
 10
277.2921406067
 20
45.6223613809
 30
0.0
 11
277.2921406067
 21
30.6223607848
 31
0.0
  0
LINE
  5
1BE
330
1F
100
AcDbEntity
  8
0
  6
Continuous
 62
     7
370
    15
100
AcDbLine
 10
277.2921406067
 20
30.6223607848
 30
0.0
 11
156.2921440563
 21
30.6223607848
 31
0.0
  0
LINE
  5
1BF
330
1F
100
AcDbEntity
  8
0
  6
Continuous
 62
     7
370
    15
100
AcDbLine
 10
281.2921487129
 20
50.6223566125
 30
0.0
 11
277.2921406067
 21
50.6223566125
 31
0.0
  0
LINE
  5
1C0
330
1F
100
AcDbEntity
  8
0
  6
Continuous
 62
     7
370
    15
100
AcDbLine
 10
281.2921487129
 20
35.6223709176
 30
0.0
 11
277.2921406067
 21
35.6223709176
 31
0.0
  0
LINE
  5
1C1
330
1F
100
AcDbEntity
  8
0
  6
Continuous
 62
     7
370
    15
100
AcDbLine
 10
281.2921487129
 20
425.6223566125
 30
0.0
 11
277.2921406067
 21
425.6223566125
 31
0.0
  0
LINE
  5
1C2
330
1F
100
AcDbEntity
  8
0
  6
Continuous
 62
     7
370
    15
100
AcDbLine
 10
281.2921487129
 20
410.6223709176
 30
0.0
 11
277.2921406067
 21
410.6223709176
 31
0.0
  0
LINE
  5
1C3
330
1F
100
AcDbEntity
  8
0
  6
Continuous
 62
     7
370
    15
100
AcDbLine
 10
361.3060211053
 20
469.7260446651
 30
0.0
 11
362.5060116163
 21
469.7260446651
 31
0.0
  0
LINE
  5
1C4
330
1F
100
AcDbEntity
  8
0
  6
Continuous
 62
     7
370
    15
100
AcDbLine
 10
361.2060194125
 20
472.2260422809
 30
0.0
 11
361.3060211053
 21
472.2260422809
 31
0.0
  0
LINE
  5
1C5
330
1F
100
AcDbEntity
  8
0
  6
Continuous
 62
     7
370
    15
100
AcDbLine
 10
361.3060211053
 20
478.2260395391
 30
0.0
 11
361.2060194125
 21
478.2260395391
 31
0.0
  0
SPLINE
  5
1C6
330
1F
100
AcDbEntity
  8
0
  6
Continuous
 62
     7
370
    15
100
AcDbSpline
210
0.0
220
0.0
230
1.0
 70
     8
 71
     3
 72
    15
 73
    11
 74
     0
 42
0.00000001
 43
0.00000001
 40
0.0
 40
0.0
 40
0.0
 40
0.0
 40
0.1250754737106914
 40
0.2501512637214284
 40
0.3752910642424033
 40
0.5003040442798201
 40
0.6252881250789707
 40
0.750262047766226
 40
0.8750785722580477
 40
1.0
 40
1.0
 40
1.0
 40
1.0
 10
360.120454918406
 20
500.2838708264383
 30
0.0
 10
360.0943300910455
 20
500.542634850013
 30
0.0
 10
360.0420803702581
 20
501.060163551544
 30
0.0
 10
359.9632115129467
 20
501.8412769761269
 30
0.0
 10
359.8887846873777
 20
502.5784559593874
 30
0.0
 10
359.8217708926149
 20
503.2420349403212
 30
0.0
 10
359.7656636241773
 20
503.797799073001
 30
0.0
 10
359.7231456263232
 20
504.2188960942032
 30
0.0
 10
359.694313237096
 20
504.5045032996686
 30
0.0
 10
359.689971489049
 20
504.547538278347
 30
0.0
 10
359.6877997031427
 20
504.5690648061785
 30
0.0
  0
SPLINE
  5
1C7
330
1F
100
AcDbEntity
  8
0
  6
Continuous
 62
     7
370
    15
100
AcDbSpline
210
0.0
220
0.0
230
1.0
 70
     8
 71
     3
 72
    15
 73
    11
 74
     0
 42
0.00000001
 43
0.00000001
 40
0.0
 40
0.0
 40
0.0
 40
0.0
 40
0.1249396532407659
 40
0.2497688921967589
 40
0.3747511584182677
 40
0.499737694248962
 40
0.6247481088386436
 40
0.7498793230434497
 40
0.8749423236597464
 40
1.0
 40
1.0
 40
1.0
 40
1.0
 10
356.7035441508508
 20
504.2676813704523
 30
0.0
 10
356.7057265976475
 20
504.2461031896453
 30
0.0
 10
356.7100895625235
 20
504.202965897553
 30
0.0
 10
356.7389391799917
 20
503.9172560111582
 30
0.0
 10
356.7814439799906
 20
503.4960710633401
 30
0.0
 10
356.8375841499057
 20
502.9402961160494
 30
0.0
 10
356.9045678835528
 20
502.2767694089112
 30
0.0
 10
356.9789906701663
 20
501.5397244841022
 30
0.0
 10
357.0578178108007
 20
500.7588129417414
 30
0.0
 10
357.110062617611
 20
500.2414575855863
 30
0.0
 10
357.136184464953
 20
499.982785413936
 30
0.0
  0
LINE
  5
1C8
330
1F
100
AcDbEntity
  8
0
  6
Continuous
 62
     7
370
    15
100
AcDbLine
 10
357.1359013429
 20
499.9826513035
 30
0.0
 11
358.7049787154
 21
484.4416715009
 31
0.0
  0
LINE
  5
1C9
330
1F
100
AcDbEntity
  8
0
  6
Continuous
 62
     7
370
    15
100
AcDbLine
 10
361.6898005119
 20
484.7430325849
 30
0.0
 11
360.1207231393
 21
500.2840049369
 31
0.0
  0
SPLINE
  5
1CA
330
1F
100
AcDbEntity
  8
0
  6
Continuous
 62
     7
370
    15
100
AcDbSpline
210
0.0
220
0.0
230
1.0
 70
     8
 71
     3
 72
     9
 73
     5
 74
     0
 42
0.00000001
 43
0.00000001
 40
0.0
 40
0.0
 40
0.0
 40
0.0
 40
0.4837344539668944
 40
1.0
 40
1.0
 40
1.0
 40
1.0
 10
358.8750605693078
 20
482.760298977569
 30
0.0
 10
358.8845212138399
 20
482.6960741926254
 30
0.0
 10
358.9040787302719
 20
482.5633055125842
 30
0.0
 10
358.9379210866891
 20
482.5271500659518
 30
0.0
 10
358.9553927293039
 20
482.5084842545542
 30
0.0
  0
SPLINE
  5
1CB
330
1F
100
AcDbEntity
  8
0
  6
Continuous
 62
     7
370
    15
100
AcDbSpline
210
0.0
220
0.0
230
1.0
 70
     8
 71
     3
 72
    11
 73
     7
 74
     0
 42
0.00000001
 43
0.00000001
 40
0.0
 40
0.0
 40
0.0
 40
0.0
 40
0.2484396053587954
 40
0.4978882905326143
 40
0.7483888276677946
 40
1.0
 40
1.0
 40
1.0
 40
1.0
 10
358.7052469363427
 20
484.4418354136499
 30
0.0
 10
358.7232596175133
 20
484.2633639543058
 30
0.0
 10
358.7593581414301
 20
483.9056961433567
 30
0.0
 10
358.8063833302837
 20
483.4408565860288
 30
0.0
 10
358.8451754760331
 20
483.0579724531906
 30
0.0
 10
358.8602200663736
 20
482.9106834452774
 30
0.0
 10
358.8677590003228
 20
482.8368760449442
 30
0.0
  0
SPLINE
  5
1CC
330
1F
100
AcDbEntity
  8
0
  6
Continuous
 62
     7
370
    15
100
AcDbSpline
210
0.0
220
0.0
230
1.0
 70
     8
 71
     3
 72
    19
 73
    15
 74
     0
 42
0.00000001
 43
0.00000001
 40
0.0
 40
0.0
 40
0.0
 40
0.0
 40
0.0802804369297216
 40
0.1534416957310603
 40
0.2193403204326486
 40
0.2779459655494368
 40
0.3728444810618545
 40
0.442153508026651
 40
0.5315374242239219
 40
0.6554817064516648
 40
0.7303544145519429
 40
0.8130772361858046
 40
0.9031427657753383
 40
0.9999999999999999
 40
0.9999999999999999
 40
0.9999999999999999
 40
0.9999999999999999
 10
358.8907067885614
 20
482.6776571375879
 30
0.0
 10
358.9260674658883
 20
482.5547834208585
 30
0.0
 10
358.993653075767
 20
482.3199322892904
 30
0.0
 10
359.1908758206039
 20
482.0255195854567
 30
0.0
 10
359.4157287855819
 20
481.8014010025448
 30
0.0
 10
359.7113908991925
 20
481.6083582715233
 30
0.0
 10
360.0533378175656
 20
481.4904387877505
 30
0.0
 10
360.4630987002046
 20
481.4606654282765
 30
0.0
 10
360.9021808800828
 20
481.5629632627935
 30
0.0
 10
361.2887128189947
 20
481.8141987650926
 30
0.0
 10
361.5815465266806
 20
482.1549131909214
 30
0.0
 10
361.7623435858505
 20
482.5103703823052
 30
0.0
 10
361.8682285693293
 20
482.9373203684164
 30
0.0
 10
361.8359746970928
 20
483.2323887437432
 30
0.0
 10
361.8192618003106
 20
483.3852834803614
 30
0.0
  0
SPLINE
  5
1CD
330
1F
100
AcDbEntity
  8
0
  6
Continuous
 62
     7
370
    15
100
AcDbSpline
210
0.0
220
0.0
230
1.0
 70
     8
 71
     3
 72
    11
 73
     7
 74
     0
 42
0.00000001
 43
0.00000001
 40
0.0
 40
0.0
 40
0.0
 40
0.0
 40
0.2477443977010795
 40
0.4969515347440527
 40
0.7476787962907897
 40
1.0
 40
1.0
 40
1.0
 40
1.0
 10
361.8430291524148
 20
483.217600713447
 30
0.0
 10
361.8365954026057
 20
483.282226365537
 30
0.0
 10
361.8236899166633
 20
483.4118592342838
 30
0.0
 10
361.7877007828722
 20
483.7697323940197
 30
0.0
 10
361.7427487544202
 20
484.216052246827
 30
0.0
 10
361.707308543658
 20
484.5669124906264
 30
0.0
 10
361.689532290957
 20
484.7428984744104
 30
0.0
  0
LINE
  5
1CE
330
1F
100
AcDbEntity
  8
0
  6
Continuous
 62
     7
370
    15
100
AcDbLine
 10
361.9733249059
 20
494.3977109892
 30
0.0
 11
361.9733100047
 21
494.697529803
 31
0.0
  0
LINE
  5
1CF
330
1F
100
AcDbEntity
  8
0
  6
Continuous
 62
     7
370
    15
100
AcDbLine
 10
361.1733113637
 20
494.697529803
 30
0.0
 11
361.1733113637
 21
494.4001622302
 31
0.0
  0
SPLINE
  5
1D0
330
1F
100
AcDbEntity
  8
0
  6
Continuous
 62
     7
370
    15
100
AcDbSpline
210
0.0
220
0.0
230
1.0
 70
    24
 71
     3
 72
    11
 73
     7
 74
     0
 42
0.00000001
 43
0.00000001
 40
0.0
 40
0.0
 40
0.0
 40
0.0
 40
0.0207832163337777
 40
0.3465538622668197
 40
0.6711424087355256
 40
1.0
 40
1.0
 40
1.0
 40
1.0
 10
361.1733113637185
 20
494.9838481647524
 30
0.0
 10
361.1733113637185
 20
494.9805264525769
 30
0.0
 10
361.1733113637185
 20
494.925137904179
 30
0.0
 10
361.1733113637185
 20
494.8319050094555
 30
0.0
 10
361.1733113637185
 20
494.7191916051333
 30
0.0
 10
361.1733113637185
 20
494.684669279213
 30
0.0
 10
361.1733113637185
 20
494.6672953469309
 30
0.0
  0
SPLINE
  5
1D1
330
1F
100
AcDbEntity
  8
0
  6
Continuous
 62
     7
370
    15
100
AcDbSpline
210
0.0
220
0.0
230
1.0
 70
    24
 71
     3
 72
    11
 73
     7
 74
     0
 42
0.00000001
 43
0.00000001
 40
0.0
 40
0.0
 40
0.0
 40
0.0
 40
0.2504863591729243
 40
0.4977314983156908
 40
0.7458651761595598
 40
1.0
 40
1.0
 40
1.0
 40
1.0
 10
361.9733249058938
 20
494.6648441059145
 30
0.0
 10
361.9733249058938
 20
494.681060878606
 30
0.0
 10
361.9733249058938
 20
494.713284583706
 30
0.0
 10
361.9733249058938
 20
494.8220671706727
 30
0.0
 10
361.9733249058938
 20
494.9608993765871
 30
0.0
 10
361.9733249058938
 20
495.0679260619826
 30
0.0
 10
361.9733249058938
 20
495.1220787865671
 30
0.0
  0
LINE
  5
1D2
330
1F
100
AcDbEntity
  8
0
  6
Continuous
 62
     7
370
    15
100
AcDbLine
 10
360.9665726533
 20
495.2260441882
 30
0.0
 11
361.1754869333
 21
494.9788190228
 31
0.0
  0
LINE
  5
1D3
330
1F
100
AcDbEntity
  8
0
  6
Continuous
 62
     7
370
    15
100
AcDbLine
 10
361.9733249059
 20
495.1220787866
 30
0.0
 11
361.9733249059
 21
495.2260441882
 31
0.0
  0
LINE
  5
1D4
330
1F
100
AcDbEntity
  8
0
  6
Continuous
 62
     7
370
    15
100
AcDbLine
 10
356.6969280353
 20
504.3640620811
 30
0.0
 11
356.6813116183
 21
504.8232935173
 31
0.0
  0
SPLINE
  5
1D5
330
1F
100
AcDbEntity
  8
0
  6
Continuous
 62
     7
370
    15
100
AcDbSpline
210
0.0
220
0.0
230
1.0
 70
     8
 71
     3
 72
    11
 73
     7
 74
     0
 42
0.00000001
 43
0.00000001
 40
0.0
 40
0.0
 40
0.0
 40
0.0
 40
0.1207592001546205
 40
0.4133922129870417
 40
0.7063570810263333
 40
1.0
 40
1.0
 40
1.0
 40
1.0
 10
358.7295954337335
 20
484.2006303174051
 30
0.0
 10
358.7395186764805
 20
484.1023297874955
 30
0.0
 10
358.7734886868312
 20
483.7658198276321
 30
0.0
 10
358.8208470429952
 20
483.296906732399
 30
0.0
 10
358.8637323893989
 20
482.8721728043927
 30
0.0
 10
358.8712816006658
 20
482.7976189783845
 30
0.0
 10
358.8750605693078
 20
482.760298977569
 30
0.0
  0
LINE
  5
1D6
330
1F
100
AcDbEntity
  8
0
  6
Continuous
 62
     7
370
    15
100
AcDbLine
 10
357.0577745548
 20
535.2260432941
 30
0.0
 11
356.3060109725
 21
534.9524281723
 31
0.0
  0
LINE
  5
1D7
330
1F
100
AcDbEntity
  8
0
  6
Continuous
 62
     7
370
    15
100
AcDbLine
 10
362.5060116163
 20
534.2260412676
 30
0.0
 11
362.2060214391
 21
534.2260412676
 31
0.0
  0
LINE
  5
1D8
330
1F
100
AcDbEntity
  8
0
  6
Continuous
 62
     7
370
    15
100
AcDbLine
 10
362.2060214391
 20
533.2260466916
 30
0.0
 11
362.1060197463
 21
533.2260466916
 31
0.0
  0
LINE
  5
1D9
330
1F
100
AcDbEntity
  8
0
  6
Continuous
 62
     7
370
    15
100
AcDbLine
 10
362.1060197463
 20
527.2260419828
 30
0.0
 11
362.2060214391
 21
527.2260419828
 31
0.0
  0
LINE
  5
1DA
330
1F
100
AcDbEntity
  8
0
  6
Continuous
 62
     7
370
    15
100
AcDbLine
 10
362.2060214391
 20
510.2260447843
 30
0.0
 11
362.1060197463
 21
510.2260447843
 31
0.0
  0
LINE
  5
1DB
330
1F
100
AcDbEntity
  8
0
  6
Continuous
 62
     7
370
    15
100
AcDbLine
 10
362.1060197463
 20
504.2260475261
 30
0.0
 11
362.2060214391
 21
504.2260475261
 31
0.0
  0
LINE
  5
1DC
330
1F
100
AcDbEntity
  8
0
  6
Continuous
 62
     7
370
    15
100
AcDbLine
 10
377.5060122123
 20
478.2260395391
 30
0.0
 11
377.5060122123
 21
473.2260443074
 31
0.0
  0
LINE
  5
1DD
330
1F
100
AcDbEntity
  8
0
  6
Continuous
 62
     7
370
    15
100
AcDbLine
 10
747.5060169807
 20
478.2260395391
 30
0.0
 11
747.5060169807
 21
473.2260443074
 31
0.0
  0
LINE
  5
1DE
330
1F
100
AcDbEntity
  8
0
  6
Continuous
 62
     7
370
    15
100
AcDbLine
 10
377.5060122123
 20
473.2260443074
 30
0.0
 11
747.5060169807
 21
473.2260443074
 31
0.0
  0
LINE
  5
1DF
330
1F
100
AcDbEntity
  8
0
  6
Continuous
 62
     7
370
    15
100
AcDbLine
 10
377.5060122123
 20
478.2260395391
 30
0.0
 11
747.5060169807
 21
478.2260395391
 31
0.0
  0
LINE
  5
1E0
330
1F
100
AcDbEntity
  8
0
  6
Continuous
 62
     7
370
    15
100
AcDbLine
 10
362.5060116163
 20
478.2260395391
 30
0.0
 11
362.5060116163
 21
473.2260443074
 31
0.0
  0
LINE
  5
1E1
330
1F
100
AcDbEntity
  8
0
  6
Continuous
 62
     7
370
    15
100
AcDbLine
 10
362.5060116163
 20
473.2260443074
 30
0.0
 11
377.5060122123
 21
473.2260443074
 31
0.0
  0
LINE
  5
1E2
330
1F
100
AcDbEntity
  8
0
  6
Continuous
 62
     7
370
    15
100
AcDbLine
 10
362.5060116163
 20
478.2260395391
 30
0.0
 11
377.5060122123
 21
478.2260395391
 31
0.0
  0
LINE
  5
1E3
330
1F
100
AcDbEntity
  8
0
  6
Continuous
 62
     7
370
    15
100
AcDbLine
 10
377.5060122123
 20
458.2260437114
 30
0.0
 11
377.5060122123
 21
473.2260443074
 31
0.0
  0
LINE
  5
1E4
330
1F
100
AcDbEntity
  8
0
  6
Continuous
 62
     7
370
    15
100
AcDbLine
 10
747.5060169807
 20
473.2260443074
 30
0.0
 11
747.5060169807
 21
458.2260437114
 31
0.0
  0
LINE
  5
1E5
330
1F
100
AcDbEntity
  8
0
  6
Continuous
 62
     7
370
    15
100
AcDbLine
 10
377.5060122123
 20
458.2260437114
 30
0.0
 11
747.5060169807
 21
458.2260437114
 31
0.0
  0
ARC
  5
1E6
330
1F
100
AcDbEntity
  8
0
  6
Continuous
 62
     7
370
    15
100
AcDbCircle
 10
377.5060145965
 20
473.2260438783
 30
0.0
 40
15.0
100
AcDbArc
 50
180.0
 51
270.0
  0
LINE
  5
1E7
330
1F
100
AcDbEntity
  8
0
  6
Continuous
 62
     7
370
    15
100
AcDbLine
 10
762.5060175767
 20
478.2260395391
 30
0.0
 11
762.5060175767
 21
473.2260443074
 31
0.0
  0
LINE
  5
1E8
330
1F
100
AcDbEntity
  8
0
  6
Continuous
 62
     7
370
    15
100
AcDbLine
 10
762.5060175767
 20
473.2260443074
 30
0.0
 11
747.5060169807
 21
473.2260443074
 31
0.0
  0
LINE
  5
1E9
330
1F
100
AcDbEntity
  8
0
  6
Continuous
 62
     7
370
    15
100
AcDbLine
 10
762.5060175767
 20
478.2260395391
 30
0.0
 11
747.5060169807
 21
478.2260395391
 31
0.0
  0
ARC
  5
1EA
330
1F
100
AcDbEntity
  8
0
  6
Continuous
 62
     7
370
    15
100
AcDbCircle
 10
747.5060145965
 20
473.2260438783
 30
0.0
 40
15.0
100
AcDbArc
 50
270.0
 51
0.0
  0
LINE
  5
1EB
330
1F
100
AcDbEntity
  8
0
  6
Continuous
 62
     7
370
    15
100
AcDbLine
 10
361.3060211053
 20
476.2438125712
 30
0.0
 11
362.5060116163
 21
476.2438125712
 31
0.0
  0
LINE
  5
1EC
330
1F
100
AcDbEntity
  8
0
  6
Continuous
 62
     7
370
    15
100
AcDbLine
 10
361.3060211053
 20
474.1398431165
 30
0.0
 11
362.5060116163
 21
474.1398431165
 31
0.0
  0
LINE
  5
1ED
330
1F
100
AcDbEntity
  8
0
  6
Continuous
 62
     7
370
    15
100
AcDbLine
 10
361.3060211053
 20
474.1398431165
 30
0.0
 11
361.3060211053
 21
476.2438125712
 31
0.0
  0
LINE
  5
1EE
330
1F
100
AcDbEntity
  8
0
  6
Continuous
 62
     7
370
    15
100
AcDbLine
 10
361.3060211053
 20
481.2260456187
 30
0.0
 11
362.5060116163
 21
481.2260456187
 31
0.0
  0
LINE
  5
1EF
330
1F
100
AcDbEntity
  8
0
  6
Continuous
 62
     7
370
    15
100
AcDbLine
 10
362.5060116163
 20
478.2260395391
 30
0.0
 11
362.5060116163
 21
481.2260456187
 31
0.0
  0
LINE
  5
1F0
330
1F
100
AcDbEntity
  8
0
  6
Continuous
 62
     7
370
    15
100
AcDbLine
 10
361.3060211053
 20
481.2260456187
 30
0.0
 11
361.3060211053
 21
476.2438125712
 31
0.0
  0
LINE
  5
1F1
330
1F
100
AcDbEntity
  8
0
  6
Continuous
 62
     7
370
    15
100
AcDbLine
 10
362.5060116163
 20
473.2260443074
 30
0.0
 11
362.5060116163
 21
469.7260446651
 31
0.0
  0
LINE
  5
1F2
330
1F
100
AcDbEntity
  8
0
  6
Continuous
 62
     7
370
    15
100
AcDbLine
 10
361.3060211053
 20
469.7260446651
 30
0.0
 11
361.3060211053
 21
474.1398431165
 31
0.0
  0
LINE
  5
1F3
330
1F
100
AcDbEntity
  8
0
  6
Continuous
 62
     7
370
    15
100
AcDbLine
 10
361.2060194125
 20
472.2260422809
 30
0.0
 11
361.2060194125
 21
478.2260395391
 31
0.0
  0
ARC
  5
1F4
330
1F
100
AcDbEntity
  8
0
  6
Continuous
 62
     7
370
    15
100
AcDbCircle
 10
359.7060145965
 20
482.9260438783
 30
0.0
 40
2.800000000000011
100
AcDbArc
 50
0.0
 51
45.4024529621
  0
LINE
  5
1F5
330
1F
100
AcDbEntity
  8
0
  6
Continuous
 62
     7
370
    15
100
AcDbLine
 10
358.5983609071
 20
485.4976422889
 30
0.0
 11
358.0014799943
 21
485.1474351985
 31
0.0
  0
LINE
  5
1F6
330
1F
100
AcDbEntity
  8
0
  6
Continuous
 62
     7
370
    15
100
AcDbLine
 10
355.1885579934
 20
481.4764298303
 30
0.0
 11
358.7319945207
 21
484.195414911
 31
0.0
  0
LINE
  5
1F7
330
1F
100
AcDbEntity
  8
0
  6
Continuous
 62
     7
370
    15
100
AcDbLine
 10
354.4580434671
 20
482.4284501178
 30
0.0
 11
355.1885579934
 21
481.4764298303
 31
0.0
  0
LINE
  5
1F8
330
1F
100
AcDbEntity
  8
0
  6
Continuous
 62
     7
370
    15
100
AcDbLine
 10
358.0014799943
 20
485.1474351985
 30
0.0
 11
354.4580434671
 21
482.4284501178
 31
0.0
  0
LINE
  5
1F9
330
1F
100
AcDbEntity
  8
0
  6
Continuous
 62
     7
370
    15
100
AcDbLine
 10
362.5060116163
 20
481.2260456187
 30
0.0
 11
362.5060116163
 21
482.2260476453
 31
0.0
  0
LINE
  5
1FA
330
1F
100
AcDbEntity
  8
0
  6
Continuous
 62
     7
370
    15
100
AcDbLine
 10
361.3060211053
 20
481.8669892652
 30
0.0
 11
361.3060211053
 21
481.2260456187
 31
0.0
  0
LWPOLYLINE
  5
1FB
330
1F
100
AcDbEntity
  8
0
  6
Continuous
 62
     7
370
    15
100
AcDbPolyline
 90
        9
 70
   128
 43
0.0
 10
355.1885579934
 20
481.4764298303
 10
355.0028150192
 20
481.3339151246
 10
354.8242246022
 20
481.1968691451
 10
354.6596412769
 20
481.070581804
 10
354.5153682342
 20
480.9598810775
 10
354.3969785085
 20
480.8690286977
 10
354.3090020528
 20
480.8015264375
 10
354.2548214307
 20
480.7599521977
 10
354.2365228048
 20
480.7459153039
  0
LINE
  5
1FC
330
1F
100
AcDbEntity
  8
0
  6
Continuous
 62
     7
370
    15
100
AcDbLine
 10
354.2365228048
 20
480.7459153039
 30
0.0
 11
353.5060082784
 21
481.6979355914
 31
0.0
  0
LWPOLYLINE
  5
1FD
330
1F
100
AcDbEntity
  8
0
  6
Continuous
 62
     7
370
    15
100
AcDbPolyline
 90
        9
 70
   128
 43
0.0
 10
353.5060082784
 20
481.6979355914
 10
353.5243069043
 20
481.7119724853
 10
353.5784875264
 20
481.753546725
 10
353.6664639821
 20
481.8210489852
 10
353.7848537078
 20
481.911901365
 10
353.9291267505
 20
482.0226020915
 10
354.0937100759
 20
482.1489043338
 10
354.2723004928
 20
482.2859354121
 10
354.4580434671
 20
482.4284501178
  0
SPLINE
  5
1FE
330
1F
100
AcDbEntity
  8
0
  6
Continuous
 62
     7
370
    15
100
AcDbSpline
210
0.0
220
0.0
230
1.0
 70
     8
 71
     3
 72
    12
 73
     8
 74
     0
 42
0.00000001
 43
0.00000001
 40
0.0
 40
0.0
 40
0.0
 40
0.0
 40
0.2340518048260158
 40
0.4681083238238113
 40
0.7021649540123228
 40
0.9362191112700744
 40
0.9999999999999999
 40
0.9999999999999999
 40
0.9999999999999999
 40
0.9999999999999999
 10
358.8029985537744
 20
499.9031610590967
 30
0.0
 10
358.6066056916753
 20
499.8837781535297
 30
0.0
 10
358.213816011816
 20
499.8450119519933
 30
0.0
 10
357.6763173137883
 20
499.8397742323979
 30
0.0
 10
357.3028148481212
 20
499.8782400894067
 30
0.0
 10
357.1236222441159
 20
499.9329041879017
 30
0.0
 10
357.1523413529928
 20
499.9768593578008
 30
0.0
 10
357.1584915032602
 20
499.9862722856554
 30
0.0
  0
SPLINE
  5
1FF
330
1F
100
AcDbEntity
  8
0
  6
Continuous
 62
     7
370
    15
100
AcDbSpline
210
0.0
220
0.0
230
1.0
 70
     8
 71
     3
 72
    11
 73
     7
 74
     0
 42
0.00000001
 43
0.00000001
 40
0.0
 40
0.0
 40
0.0
 40
0.0
 40
0.1986868986185168
 40
0.4657930972863268
 40
0.7328953533015765
 40
1.0
 40
1.0
 40
1.0
 40
1.0
 10
360.0989078393197
 20
500.2820454341921
 30
0.0
 10
360.097724980389
 20
500.2575555494874
 30
0.0
 10
360.0949519363243
 20
500.20014250752
 30
0.0
 10
359.8254139053648
 20
500.0930505438165
 30
0.0
 10
359.3783633012883
 20
499.9822438905233
 30
0.0
 10
358.9947873751388
 20
499.9295220815524
 30
0.0
 10
358.8029985537744
 20
499.9031610590967
 30
0.0
  0
SPLINE
  5
200
330
1F
100
AcDbEntity
  8
0
  6
Continuous
 62
     7
370
    15
100
AcDbSpline
210
0.0
220
0.0
230
1.0
 70
     8
 71
     3
 72
    12
 73
     8
 74
     0
 42
0.00000001
 43
0.00000001
 40
0.0
 40
0.0
 40
0.0
 40
0.0
 40
0.2339657516696391
 40
0.4679297819275171
 40
0.7018962886551927
 40
0.935865542599682
 40
1.0
 40
1.0
 40
1.0
 40
1.0
 10
358.1960146537042
 20
505.9150345427545
 30
0.0
 10
357.9999344811785
 20
505.8925285249647
 30
0.0
 10
357.6077755787943
 20
505.8475166549738
 30
0.0
 10
357.10484335622
 20
505.5000275443036
 30
0.0
 10
356.7850302245762
 20
505.0065386435911
 30
0.0
 10
356.6571020792384
 20
504.5529529324945
 30
0.0
 10
356.7148931506356
 20
504.309960442064
 30
0.0
 10
356.7273264041162
 20
504.2576826912912
 30
0.0
  0
SPLINE
  5
201
330
1F
100
AcDbEntity
  8
0
  6
Continuous
 62
     7
370
    15
100
AcDbSpline
210
0.0
220
0.0
230
1.0
 70
     8
 71
     3
 72
    11
 73
     7
 74
     0
 42
0.00000001
 43
0.00000001
 40
0.0
 40
0.0
 40
0.0
 40
0.0
 40
0.197688317045171
 40
0.4651245499065082
 40
0.732557952030392
 40
1.0
 40
1.0
 40
1.0
 40
1.0
 10
359.6662377228952
 20
504.5647434694322
 30
0.0
 10
359.6479575280417
 20
504.7094944591203
 30
0.0
 10
359.604947564021
 20
505.0500671339928
 30
0.0
 10
359.2794883533468
 20
505.4998400395698
 30
0.0
 10
358.7861925967279
 20
505.8475665553083
 30
0.0
 10
358.392742754649
 20
505.8925449712588
 30
0.0
 10
358.1960146537042
 20
505.9150345427545
 30
0.0
  0
SPLINE
  5
202
330
1F
100
AcDbEntity
  8
0
  6
Continuous
 62
     7
370
    15
100
AcDbSpline
210
0.0
220
0.0
230
1.0
 70
     8
 71
     3
 72
    12
 73
     8
 74
     0
 42
0.00000001
 43
0.00000001
 40
0.0
 40
0.0
 40
0.0
 40
0.0
 40
0.2350176793872489
 40
0.4700291397670341
 40
0.7050458845177425
 40
0.9400624323235348
 40
1.0
 40
1.0
 40
1.0
 40
1.0
 10
360.3720759263254
 20
484.3621887070688
 30
0.0
 10
360.1756851472216
 20
484.3428107527329
 30
0.0
 10
359.7829087858815
 20
484.3040553568378
 30
0.0
 10
359.2453009904037
 20
484.2987869645547
 30
0.0
 10
358.8722353578146
 20
484.3373127041251
 30
0.0
 10
358.693193960414
 20
484.3914334980669
 30
0.0
 10
358.721094541519
 20
484.4347348806129
 30
0.0
 10
358.7267642131066
 20
484.443534146026
 30
0.0
  0
SPLINE
  5
203
330
1F
100
AcDbEntity
  8
0
  6
Continuous
 62
     7
370
    15
100
AcDbSpline
210
0.0
220
0.0
230
1.0
 70
     8
 71
     3
 72
    11
 73
     7
 74
     0
 42
0.00000001
 43
0.00000001
 40
0.0
 40
0.0
 40
0.0
 40
0.0
 40
0.1989239597362801
 40
0.465950584310487
 40
0.7329742733226847
 40
1.0
 40
1.0
 40
1.0
 40
1.0
 10
361.6680299153543
 20
484.7411848408731
 30
0.0
 10
361.6668561279183
 20
484.716658562765
 30
0.0
 10
361.6641067007383
 20
484.6592093061216
 30
0.0
 10
361.394499822055
 20
484.5520913888493
 30
0.0
 10
360.9474387909024
 20
484.4412682775043
 30
0.0
 10
360.5638640356941
 20
484.3885486309313
 30
0.0
 10
360.3720759263254
 20
484.3621887070688
 30
0.0
  0
LINE
  5
204
330
1F
100
AcDbEntity
  8
0
  6
Continuous
 62
     7
370
    15
100
AcDbLine
 10
358.8951473346
 20
482.7597625358
 30
0.0
 11
358.8941489568
 21
482.9632974965
 31
0.0
  0
ARC
  5
205
330
1F
100
AcDbEntity
  8
0
  6
Continuous
 62
     7
370
    15
100
AcDbCircle
 10
361.5733037895
 20
494.6638195196
 30
0.0
 40
0.4000075274666025
100
AcDbArc
 50
0.1467585748
 51
179.5021275156
  0
ELLIPSE
  5
206
330
1F
100
AcDbEntity
  8
0
  6
Continuous
 62
     7
370
    15
100
AcDbEllipse
 10
361.5733139968
 20
494.3989354845
 30
0.0
 11
0.3991830274372887
 21
-0.0262460422114259
 31
0.0
210
0.0
220
0.0
230
0.9999999999999999
 40
0.9763157485
 41
0.0
 42
6.283185307179586
  0
SPLINE
  5
207
330
1F
100
AcDbEntity
  8
0
  6
Continuous
 62
     7
370
    15
100
AcDbSpline
210
0.0
220
0.0
230
1.0
 70
     8
 71
     3
 72
    13
 73
     9
 74
     0
 42
0.00000001
 43
0.00000001
 40
0.0
 40
0.0
 40
0.0
 40
0.0
 40
0.0081702280425704
 40
0.2391539873185931
 40
0.4710971973866074
 40
0.6931205590767906
 40
0.9042225733627326
 40
1.0
 40
1.0
 40
1.0
 40
1.0
 10
361.5733181348062
 20
495.1277710301432
 30
0.0
 10
361.5716592338318
 20
495.1273762340778
 30
0.0
 10
361.5231008850894
 20
495.1158200017755
 30
0.0
 10
361.426967400404
 20
495.0926270709784
 30
0.0
 10
361.3041349245174
 20
495.0489696615736
 30
0.0
 10
361.2184827310718
 20
495.0115303164237
 30
0.0
 10
361.1744649036985
 20
494.9903806096589
 30
0.0
 10
361.1776968804177
 20
494.9854019958509
 30
0.0
 10
361.1787055840707
 20
494.9838481647524
 30
0.0
  0
SPLINE
  5
208
330
1F
100
AcDbEntity
  8
0
  6
Continuous
 62
     7
370
    15
100
AcDbSpline
210
0.0
220
0.0
230
1.0
 70
     8
 71
     3
 72
    13
 73
     9
 74
     0
 42
0.00000001
 43
0.00000001
 40
0.0
 40
0.0
 40
0.0
 40
0.0
 40
0.1252296646732068
 40
0.2499794552566222
 40
0.4999947492888411
 40
0.7499963880864888
 40
0.8747535995357313
 40
1.0
 40
1.0
 40
1.0
 40
1.0
 10
361.9733249058938
 20
495.1220787865671
 30
0.0
 10
361.9716104746255
 20
495.1221016298172
 30
0.0
 10
361.9681881817077
 20
495.1221472287831
 30
0.0
 10
361.9338095258124
 20
495.1226423463946
 30
0.0
 10
361.8585286536939
 20
495.123710423921
 30
0.0
 10
361.7498800607455
 20
495.1252626662569
 30
0.0
 10
361.6511689798493
 20
495.1266591085725
 30
0.0
 10
361.5993022461802
 20
495.1273999064397
 30
0.0
 10
361.5733181348062
 20
495.1277710301432
 30
0.0
  0
SPLINE
  5
209
330
1F
100
AcDbEntity
  8
0
  6
Continuous
 62
     7
370
    15
100
AcDbSpline
210
0.0
220
0.0
230
1.0
 70
     8
 71
     3
 72
    10
 73
     6
 74
     0
 42
0.00000001
 43
0.00000001
 40
0.0
 40
0.0
 40
0.0
 40
0.0
 40
0.0190107309040389
 40
0.5253203859619627
 40
1.0
 40
1.0
 40
1.0
 40
1.0
 10
361.5733181348062
 20
495.1277710301432
 30
0.0
 10
361.5748424847869
 20
495.1285087269436
 30
0.0
 10
361.6169645959413
 20
495.1488933807417
 30
0.0
 10
361.6994834299658
 20
495.1873081160325
 30
0.0
 10
361.7696390046389
 20
495.2134127278572
 30
0.0
 10
361.8035857787347
 20
495.2260441882166
 30
0.0
  0
LINE
  5
20A
330
1F
100
AcDbEntity
  8
0
  6
Continuous
 62
     7
370
    15
100
AcDbLine
 10
356.6967939248
 20
504.3670050604
 30
0.0
 11
356.7092512956
 21
504.2162351114
 31
0.0
  0
LINE
  5
20B
330
1F
100
AcDbEntity
  8
0
  6
Continuous
 62
     7
370
    15
100
AcDbLine
 10
359.6890215984
 20
504.5597441299
 30
0.0
 11
359.6534376254
 21
504.7699026567
 31
0.0
  0
ARC
  5
20C
330
1F
100
AcDbEntity
  8
0
  6
Continuous
 62
     7
370
    15
100
AcDbCircle
 10
357.6060145965
 20
498.2460438783
 30
0.0
 40
2.200000000000036
100
AcDbArc
 50
103.5934783352
 51
268.1042765976
  0
LINE
  5
20D
330
1F
100
AcDbEntity
  8
0
  6
Continuous
 62
     7
370
    15
100
AcDbLine
 10
354.0591840854
 20
499.6238089902
 30
0.0
 11
354.3928359857
 21
501.516040395
 31
0.0
  0
LWPOLYLINE
  5
20E
330
1F
100
AcDbEntity
  8
0
  6
Continuous
 62
     7
370
    15
100
AcDbPolyline
 90
        9
 70
   128
 43
0.0
 10
354.3928359857
 20
501.516040395
 10
354.2485927453
 20
501.5414766771
 10
354.111561667
 20
501.56563891
 10
353.9864515176
 20
501.5877000792
 10
353.8775985351
 20
501.6068927748
 10
353.7887727132
 20
501.6225538952
 10
353.7230436912
 20
501.6341469986
 10
353.6826764455
 20
501.6412623031
 10
353.6690567842
 20
501.6436688406
  0
LINE
  5
20F
330
1F
100
AcDbEntity
  8
0
  6
Continuous
 62
     7
370
    15
100
AcDbLine
 10
353.6690567842
 20
501.6436688406
 30
0.0
 11
358.0440973153
 21
526.455778609
 31
0.0
  0
LWPOLYLINE
  5
210
330
1F
100
AcDbEntity
  8
0
  6
Continuous
 62
     7
370
    15
100
AcDbPolyline
 90
        9
 70
   128
 43
0.0
 10
358.0440973153
 20
526.455778609
 10
358.0592368951
 20
526.4531038506
 10
358.1040744891
 20
526.4451987845
 10
358.1768815627
 20
526.4323614342
 10
358.2748566976
 20
526.4150909884
 10
358.3942448011
 20
526.3940356476
 10
358.5304563155
 20
526.3700224263
 10
358.6782460323
 20
526.3439602954
 10
358.83195151
 20
526.3168550832
  0
LINE
  5
211
330
1F
100
AcDbEntity
  8
0
  6
Continuous
 62
     7
370
    15
100
AcDbLine
 10
358.83195151
 20
526.3168550832
 30
0.0
 11
354.0066127887
 21
498.9510588152
 31
0.0
  0
LINE
  5
212
330
1F
100
AcDbEntity
  8
0
  6
Continuous
 62
     7
370
    15
100
AcDbLine
 10
354.0066127887
 20
498.9510588152
 30
0.0
 11
354.0591840854
 21
499.6238089902
 31
0.0
  0
LWPOLYLINE
  5
213
330
1F
100
AcDbEntity
  8
0
  6
Continuous
 62
     7
370
    15
100
AcDbPolyline
 90
        5
 70
   128
 43
0.0
 10
356.89140309
 20
533.3441011412
 10
356.637919437
 20
534.0405069096
 10
356.4543669334
 20
534.544821809
 10
356.3432340732
 20
534.8501764042
 10
356.3060109725
 20
534.9524281723
  0
LWPOLYLINE
  5
214
330
1F
100
AcDbEntity
  8
0
  6
Continuous
 62
     7
370
    15
100
AcDbPolyline
 90
        5
 70
   128
 43
0.0
 10
357.6510195842
 20
533.5960872275
 10
357.3941831699
 20
534.3017615182
 10
357.2081421724
 20
534.8128787977
 10
357.0954893937
 20
535.1223982675
 10
357.0577745548
 20
535.2260432941
  0
LINE
  5
215
330
1F
100
AcDbEntity
  8
0
  6
Continuous
 62
     7
370
    15
100
AcDbLine
 10
357.8731213918
 20
533.2416482074
 30
0.0
 11
357.6510195842
 21
533.5960872275
 31
0.0
  0
LINE
  5
216
330
1F
100
AcDbEntity
  8
0
  6
Continuous
 62
     7
370
    15
100
AcDbLine
 10
357.7909265866
 20
533.2117266757
 30
0.0
 11
357.8731213918
 21
533.2416482074
 31
0.0
  0
SPLINE
  5
217
330
1F
100
AcDbEntity
  8
0
  6
Continuous
 62
     7
370
    15
100
AcDbSpline
210
0.0
220
0.0
230
1.0
 70
     8
 71
     3
 72
    12
 73
     8
 74
     0
 42
0.00000001
 43
0.00000001
 40
0.0
 40
0.0
 40
0.0
 40
0.0
 40
0.2510219938737357
 40
0.5023977523608443
 40
0.7402766005126201
 40
0.9473072801081994
 40
1.0
 40
1.0
 40
1.0
 40
1.0
 10
356.8914030900216
 20
533.34410114117
 30
0.0
 10
356.9191119240648
 20
533.2997833953383
 30
0.0
 10
356.9745686421358
 20
533.2110854467963
 30
0.0
 10
357.1815666659189
 20
533.1360927940353
 30
0.0
 10
357.4429548429476
 20
533.1245984269572
 30
0.0
 10
357.659537779291
 20
533.1662444812749
 30
0.0
 10
357.7687662908337
 20
533.204055558939
 30
0.0
 10
357.7909265866494
 20
533.2117266757044
 30
0.0
  0
LINE
  5
218
330
1F
100
AcDbEntity
  8
0
  6
Continuous
 62
     7
370
    15
100
AcDbLine
 10
357.7909265866
 20
533.2117266757
 30
0.0
 11
358.3672587981
 21
531.6282398803
 31
0.0
  0
LWPOLYLINE
  5
219
330
1F
100
AcDbEntity
  8
0
  6
Continuous
 62
     7
370
    15
100
AcDbPolyline
 90
        9
 70
   128
 43
0.0
 10
357.6155101171
 20
531.3546247584
 10
357.6299493423
 20
531.3598848683
 10
357.6727305761
 20
531.3754565818
 10
357.7421997895
 20
531.4007364018
 10
357.8356896749
 20
531.4347632033
 10
357.9496090522
 20
531.4762256844
 10
358.0795769801
 20
531.5235368712
 10
358.2206015697
 20
531.5748639209
 10
358.3672587981
 20
531.6282398803
  0
LINE
  5
21A
330
1F
100
AcDbEntity
  8
0
  6
Continuous
 62
     7
370
    15
100
AcDbLine
 10
357.6155101171
 20
531.3546247584
 30
0.0
 11
356.89140309
 21
533.3441011412
 31
0.0
  0
ARC
  5
21B
330
1F
100
AcDbEntity
  8
0
  6
Continuous
 62
     7
370
    15
100
AcDbCircle
 10
358.1960201026
 20
504.4150347967
 30
0.0
 40
1.600000000000006
100
AcDbArc
 50
347.034367059
 51
204.5950707184
  0
ARC
  5
21C
330
1F
100
AcDbEntity
  8
0
  6
Continuous
 62
     7
370
    15
100
AcDbCircle
 10
358.7087290679
 20
532.4381087326
 30
0.0
 40
0.5000000000001137
100
AcDbArc
 50
36.8410865503
 51
90.0
  0
ARC
  5
21D
330
1F
100
AcDbEntity
  8
0
  6
Continuous
 62
     7
370
    15
100
AcDbCircle
 10
351.5060145965
 20
527.0417299242
 30
0.0
 40
9.5
100
AcDbArc
 50
0.0
 51
36.8410865502
  0
LINE
  5
21E
330
1F
100
AcDbEntity
  8
0
  6
Continuous
 62
     7
370
    15
100
AcDbLine
 10
361.006016027
 20
527.04172952
 30
0.0
 11
361.006016027
 21
499.0160427792
 31
0.0
  0
ARC
  5
21F
330
1F
100
AcDbEntity
  8
0
  6
Continuous
 62
     7
370
    15
100
AcDbCircle
 10
348.688427556
 20
528.1054343466
 30
0.0
 40
10.30000000000015
100
AcDbArc
 50
350.0
 51
20.0
  0
ARC
  5
220
330
1F
100
AcDbEntity
  8
0
  6
Continuous
 62
     7
370
    15
100
AcDbCircle
 10
358.5907165223
 20
533.9381087326
 30
0.0
 40
1.0
100
AcDbArc
 50
224.1440002858
 51
270.0
  0
LINE
  5
221
330
1F
100
AcDbEntity
  8
0
  6
Continuous
 62
     7
370
    15
100
AcDbLine
 10
358.5907166114
 20
532.9381115539
 30
0.0
 11
358.7087338081
 21
532.9381115539
 31
0.0
  0
LWPOLYLINE
  5
222
330
1F
100
AcDbEntity
  8
0
  6
Continuous
 62
     7
370
    15
100
AcDbPolyline
 90
        3
 70
   128
 43
0.0
 10
361.006016027
 20
499.0160427792
 10
360.7973997703
 20
497.8257603747
 10
360.4412322154
 20
497.1096031172
  0
ARC
  5
223
330
1F
100
AcDbEntity
  8
0
  6
Continuous
 62
     7
370
    15
100
AcDbCircle
 10
357.5060145965
 20
499.0160438783
 30
0.0
 40
3.500000000000009
100
AcDbArc
 50
181.0639402281
 51
271.3221928089
  0
ARC
  5
224
330
1F
100
AcDbEntity
  8
0
  6
Continuous
 62
     7
370
    15
100
AcDbCircle
 10
348.688427556
 20
528.1054343466
 30
0.0
 40
9.50000000000039
100
AcDbArc
 50
350.0
 51
20.0
  0
ARC
  5
225
330
1F
100
AcDbEntity
  8
0
  6
Continuous
 62
     7
370
    15
100
AcDbCircle
 10
358.0996323899
 20
499.7135394051
 30
0.0
 40
4.698428302688381
100
AcDbArc
 50
170.0
 51
264.3261771657
  0
LINE
  5
226
330
1F
100
AcDbEntity
  8
0
  6
Continuous
 62
     7
370
    15
100
AcDbLine
 10
353.6690567842
 20
501.6436688406
 30
0.0
 11
353.4725849738
 21
500.5294121606
 31
0.0
  0
LINE
  5
227
330
1F
100
AcDbEntity
  8
0
  6
Continuous
 62
     7
370
    15
100
AcDbLine
 10
747.5060169807
 20
603.2260441957
 30
0.0
 11
762.5060175767
 21
603.2260441957
 31
0.0
  0
LINE
  5
228
330
1F
100
AcDbEntity
  8
0
  6
Continuous
 62
     7
370
    15
100
AcDbLine
 10
747.5060169807
 20
603.2260441957
 30
0.0
 11
747.5060169807
 21
618.2260438604
 31
0.0
  0
ARC
  5
229
330
1F
100
AcDbEntity
  8
0
  6
Continuous
 62
     7
370
    15
100
AcDbCircle
 10
747.5060145965
 20
603.2260438783
 30
0.0
 40
15.0
100
AcDbArc
 50
0.0
 51
90.0
  0
LINE
  5
22A
330
1F
100
AcDbEntity
  8
0
  6
Continuous
 62
     7
370
    15
100
AcDbLine
 10
747.5060169807
 20
618.2260438604
 30
0.0
 11
377.5060122123
 21
618.2260438604
 31
0.0
  0
LINE
  5
22B
330
1F
100
AcDbEntity
  8
0
  6
Continuous
 62
     7
370
    15
100
AcDbLine
 10
747.5060169807
 20
603.2260441957
 30
0.0
 11
377.5060122123
 21
603.2260441957
 31
0.0
  0
LINE
  5
22C
330
1F
100
AcDbEntity
  8
0
  6
Continuous
 62
     7
370
    15
100
AcDbLine
 10
377.5060122123
 20
603.2260441957
 30
0.0
 11
377.5060122123
 21
618.2260438604
 31
0.0
  0
LINE
  5
22D
330
1F
100
AcDbEntity
  8
0
  6
Continuous
 62
     7
370
    15
100
AcDbLine
 10
377.5060122123
 20
603.2260441957
 30
0.0
 11
362.5060116163
 21
603.2260441957
 31
0.0
  0
ARC
  5
22E
330
1F
100
AcDbEntity
  8
0
  6
Continuous
 62
     7
370
    15
100
AcDbCircle
 10
377.5060145965
 20
603.2260438783
 30
0.0
 40
15.0
100
AcDbArc
 50
90.0
 51
180.0
  0
LINE
  5
22F
330
1F
100
AcDbEntity
  8
0
  6
Continuous
 62
     7
370
    15
100
AcDbLine
 10
382.5060074439
 20
502.226043473
 30
0.0
 11
382.5060074439
 21
598.2260443074
 31
0.0
  0
LINE
  5
230
330
1F
100
AcDbEntity
  8
0
  6
Continuous
 62
     7
370
    15
100
AcDbLine
 10
382.5060074439
 20
502.226043473
 30
0.0
 11
742.506021749
 21
502.226043473
 31
0.0
  0
LINE
  5
231
330
1F
100
AcDbEntity
  8
0
  6
Continuous
 62
     7
370
    15
100
AcDbLine
 10
742.506021749
 20
598.2260443074
 30
0.0
 11
742.506021749
 21
502.226043473
 31
0.0
  0
LINE
  5
232
330
1F
100
AcDbEntity
  8
0
  6
Continuous
 62
     7
370
    15
100
AcDbLine
 10
742.506021749
 20
598.2260443074
 30
0.0
 11
382.5060074439
 21
598.2260443074
 31
0.0
  0
LINE
  5
233
330
1F
100
AcDbEntity
  8
0
  6
Continuous
 62
     7
370
    15
100
AcDbLine
 10
747.5060169807
 20
482.2260476453
 30
0.0
 11
377.5060122123
 21
482.2260476453
 31
0.0
  0
LINE
  5
234
330
1F
100
AcDbEntity
  8
0
  6
Continuous
 62
     7
370
    15
100
AcDbLine
 10
377.5060122123
 20
482.2260476453
 30
0.0
 11
377.5060122123
 21
603.2260441957
 31
0.0
  0
LINE
  5
235
330
1F
100
AcDbEntity
  8
0
  6
Continuous
 62
     7
370
    15
100
AcDbLine
 10
747.5060169807
 20
482.2260476453
 30
0.0
 11
747.5060169807
 21
603.2260441957
 31
0.0
  0
LINE
  5
236
330
1F
100
AcDbEntity
  8
0
  6
Continuous
 62
     7
370
    15
100
AcDbLine
 10
762.5060175767
 20
482.2260476453
 30
0.0
 11
762.5060175767
 21
603.2260441957
 31
0.0
  0
LINE
  5
237
330
1F
100
AcDbEntity
  8
0
  6
Continuous
 62
     7
370
    15
100
AcDbLine
 10
762.5060175767
 20
482.2260476453
 30
0.0
 11
747.5060169807
 21
482.2260476453
 31
0.0
  0
LINE
  5
238
330
1F
100
AcDbEntity
  8
0
  6
Continuous
 62
     7
370
    15
100
AcDbLine
 10
377.5060122123
 20
482.2260476453
 30
0.0
 11
362.5060116163
 21
482.2260476453
 31
0.0
  0
LINE
  5
239
330
1F
100
AcDbEntity
  8
0
  6
Continuous
 62
     7
370
    15
100
AcDbLine
 10
362.5060116163
 20
482.2260476453
 30
0.0
 11
362.5060116163
 21
603.2260441957
 31
0.0
  0
LINE
  5
23A
330
1F
100
AcDbEntity
  8
0
  6
Continuous
 62
     7
370
    15
100
AcDbLine
 10
757.5060074439
 20
478.2260395391
 30
0.0
 11
757.5060074439
 21
482.2260476453
 31
0.0
  0
LINE
  5
23B
330
1F
100
AcDbEntity
  8
0
  6
Continuous
 62
     7
370
    15
100
AcDbLine
 10
742.506021749
 20
478.2260395391
 30
0.0
 11
742.506021749
 21
482.2260476453
 31
0.0
  0
LINE
  5
23C
330
1F
100
AcDbEntity
  8
0
  6
Continuous
 62
     7
370
    15
100
AcDbLine
 10
382.5060074439
 20
478.2260395391
 30
0.0
 11
382.5060074439
 21
482.2260476453
 31
0.0
  0
LINE
  5
23D
330
1F
100
AcDbEntity
  8
0
  6
Continuous
 62
     7
370
    15
100
AcDbLine
 10
367.506021749
 20
478.2260395391
 30
0.0
 11
367.506021749
 21
482.2260476453
 31
0.0
  0
LINE
  5
23E
330
1F
100
AcDbEntity
  8
0
  6
Continuous
 62
     7
370
    15
100
AcDbLine
 10
762.5060175767
 20
482.2260476453
 30
0.0
 11
763.1733362785
 21
482.2260476453
 31
0.0
  0
ARC
  5
23F
330
1F
100
AcDbEntity
  8
0
  6
Continuous
 62
     7
370
    15
100
AcDbCircle
 10
763.1733323446
 20
482.7260438783
 30
0.0
 40
0.50000000000008
100
AcDbArc
 50
270.0
 51
332.720387264
  0
ARC
  5
240
330
1F
100
AcDbEntity
  8
0
  6
Continuous
 62
     7
370
    15
100
AcDbCircle
 10
768.5060145965
 20
479.9760438783
 30
0.0
 40
5.500000000000302
100
AcDbArc
 50
202.024312837
 51
152.720387264
  0
ARC
  5
241
330
1F
100
AcDbEntity
  8
0
  6
Continuous
 62
     7
370
    15
100
AcDbCircle
 10
762.9438657312
 20
477.7260438783
 30
0.0
 40
0.5
100
AcDbArc
 50
22.0243128371
 51
90.0
  0
LINE
  5
242
330
1F
100
AcDbEntity
  8
0
  6
Continuous
 62
     7
370
    15
100
AcDbLine
 10
762.9438583961
 20
478.2260395391
 30
0.0
 11
762.5060175767
 21
478.2260395391
 31
0.0
  0
LINE
  5
243
330
1F
100
AcDbEntity
  8
0
  6
Continuous
 62
     7
370
    15
100
AcDbLine
 10
362.2060214391
 20
501.4260448319
 30
0.0
 11
362.5060116163
 21
501.4271028144
 31
0.0
  0
LINE
  5
244
330
1F
100
AcDbEntity
  8
0
  6
Continuous
 62
     7
370
    15
100
AcDbLine
 10
362.5060116163
 20
503.4260414345
 30
0.0
 11
362.2060214391
 21
503.4260414345
 31
0.0
  0
LINE
  5
245
330
1F
100
AcDbEntity
  8
0
  6
Continuous
 62
     7
370
    15
100
AcDbLine
 10
362.2060214391
 20
501.4260448319
 30
0.0
 11
362.2060214391
 21
503.4260414345
 31
0.0
  0
ARC
  5
246
330
1F
100
AcDbEntity
  8
0
  6
Continuous
 62
     7
370
    15
100
AcDbCircle
 10
357.3060145965
 20
498.3260438783
 30
0.0
 40
3.100000000000023
100
AcDbArc
 50
192.3149192898
 51
270.0
  0
LINE
  5
247
330
1F
100
AcDbEntity
  8
0
  6
Continuous
 62
     7
370
    15
100
AcDbLine
 10
362.2060214391
 20
501.4260448319
 30
0.0
 11
361.006016027
 21
501.4260448319
 31
0.0
  0
LINE
  5
248
330
1F
100
AcDbEntity
  8
0
  6
Continuous
 62
     7
370
    15
100
AcDbLine
 10
362.2060214391
 20
495.2260441882
 30
0.0
 11
362.2060214391
 21
501.4260448319
 31
0.0
  0
LINE
  5
249
330
1F
100
AcDbEntity
  8
0
  6
Continuous
 62
     7
370
    15
100
AcDbLine
 10
357.3060129991
 20
495.2260441882
 30
0.0
 11
357.616150867
 21
495.2260441882
 31
0.0
  0
LINE
  5
24A
330
1F
100
AcDbEntity
  8
0
  6
Continuous
 62
     7
370
    15
100
AcDbLine
 10
360.6314008346
 20
495.2260441882
 30
0.0
 11
362.2060214391
 21
495.2260441882
 31
0.0
  0
LINE
  5
24B
330
1F
100
AcDbEntity
  8
0
  6
Continuous
 62
     7
370
    15
100
AcDbLine
 10
362.5060116163
 20
495.2260441882
 30
0.0
 11
362.2060214391
 21
495.2260441882
 31
0.0
  0
LINE
  5
24C
330
1F
100
AcDbEntity
  8
0
  6
Continuous
 62
     7
370
    15
100
AcDbLine
 10
362.2060214391
 20
503.4260414345
 30
0.0
 11
362.2060214391
 21
527.4760462148
 31
0.0
  0
LINE
  5
24D
330
1F
100
AcDbEntity
  8
0
  6
Continuous
 62
     7
370
    15
100
AcDbLine
 10
362.2060214391
 20
534.2260412676
 30
0.0
 11
362.2060214391
 21
527.4760462148
 31
0.0
  0
LINE
  5
24E
330
1F
100
AcDbEntity
  8
0
  6
Continuous
 62
     7
370
    15
100
AcDbLine
 10
362.1060197463
 20
527.2260419828
 30
0.0
 11
362.1060197463
 21
533.2260466916
 31
0.0
  0
LINE
  5
24F
330
1F
100
AcDbEntity
  8
0
  6
Continuous
 62
     7
370
    15
100
AcDbLine
 10
362.1060197463
 20
504.2260475261
 30
0.0
 11
362.1060197463
 21
510.2260447843
 31
0.0
  0
LINE
  5
250
330
1F
100
AcDbEntity
  8
0
  6
Continuous
 62
     7
370
    15
100
AcDbLine
 10
361.006016027
 20
519.5828564269
 30
0.0
 11
362.2060214391
 21
519.2613191707
 31
0.0
  0
LINE
  5
251
330
1F
100
AcDbEntity
  8
0
  6
Continuous
 62
     7
370
    15
100
AcDbLine
 10
362.2060214391
 20
518.2260460956
 30
0.0
 11
361.006016027
 21
518.5475833518
 31
0.0
  0
LINE
  5
252
330
1F
100
AcDbEntity
  8
0
  6
Continuous
 62
     8
370
    15
100
AcDbLine
 10
362.5060116163
 20
527.4760462148
 30
0.0
 11
362.2060214391
 21
527.4760462148
 31
0.0
  0
ENDSEC
  0
SECTION
  2
OBJECTS
  0
DICTIONARY
  5
C
330
0
100
AcDbDictionary
281
     1
  3
ACAD_GROUP
350
D
  3
ACAD_LAYOUT
350
1A
  3
ACAD_MLINESTYLE
350
17
  3
ACAD_PLOTSETTINGS
350
19
  3
ACAD_PLOTSTYLENAME
350
E
  0
DICTIONARY
  5
D
102
{ACAD_REACTORS
330
C
102
}
330
C
100
AcDbDictionary
281
     1
  0
DICTIONARY
  5
1A
102
{ACAD_REACTORS
330
C
102
}
330
C
100
AcDbDictionary
281
     1
  3
Layout1
350
1E
  3
Layout2
350
26
  3
Model
350
22
  0
DICTIONARY
  5
17
102
{ACAD_REACTORS
330
C
102
}
330
C
100
AcDbDictionary
281
     1
  3
Standard
350
18
  0
DICTIONARY
  5
19
102
{ACAD_REACTORS
330
C
102
}
330
C
100
AcDbDictionary
281
     1
  0
ACDBDICTIONARYWDFLT
  5
E
102
{ACAD_REACTORS
330
C
102
}
330
C
100
AcDbDictionary
281
     1
  3
Normal
350
F
100
AcDbDictionaryWithDefault
340
F
  0
LAYOUT
  5
1E
102
{ACAD_REACTORS
330
1A
102
}
330
1A
100
AcDbPlotSettings
  1

  2
none_device
  4

  6

 40
0.0
 41
0.0
 42
0.0
 43
0.0
 44
0.0
 45
0.0
 46
0.0
 47
0.0
 48
0.0
 49
0.0
140
0.0
141
0.0
142
1.0
143
1.0
 70
   688
 72
     0
 73
     0
 74
     5
  7

 75
    16
147
1.0
148
0.0
149
0.0
100
AcDbLayout
  1
Layout1
 70
     1
 71
     1
 10
0.0
 20
0.0
 11
420.0
 21
297.0
 12
0.0
 22
0.0
 32
0.0
 14
1.0000000000E+20
 24
1.0000000000E+20
 34
1.0000000000E+20
 15
-1.0000000000E+20
 25
-1.0000000000E+20
 35
-1.0000000000E+20
146
0.0
 13
0.0
 23
0.0
 33
0.0
 16
1.0
 26
0.0
 36
0.0
 17
0.0
 27
1.0
 37
0.0
 76
     0
330
1B
  0
LAYOUT
  5
26
102
{ACAD_REACTORS
330
1A
102
}
330
1A
100
AcDbPlotSettings
  1

  2
none_device
  4

  6

 40
0.0
 41
0.0
 42
0.0
 43
0.0
 44
0.0
 45
0.0
 46
0.0
 47
0.0
 48
0.0
 49
0.0
140
0.0
141
0.0
142
1.0
143
1.0
 70
   688
 72
     0
 73
     0
 74
     5
  7

 75
    16
147
1.0
148
0.0
149
0.0
100
AcDbLayout
  1
Layout2
 70
     1
 71
     2
 10
0.0
 20
0.0
 11
0.0
 21
0.0
 12
0.0
 22
0.0
 32
0.0
 14
0.0
 24
0.0
 34
0.0
 15
0.0
 25
0.0
 35
0.0
146
0.0
 13
0.0
 23
0.0
 33
0.0
 16
1.0
 26
0.0
 36
0.0
 17
0.0
 27
1.0
 37
0.0
 76
     0
330
23
  0
LAYOUT
  5
22
102
{ACAD_REACTORS
330
1A
102
}
330
1A
100
AcDbPlotSettings
  1

  2
none_device
  4

  6

 40
0.0
 41
0.0
 42
0.0
 43
0.0
 44
0.0
 45
0.0
 46
0.0
 47
0.0
 48
0.0
 49
0.0
140
0.0
141
0.0
142
1.0
143
1.0
 70
  1712
 72
     0
 73
     0
 74
     0
  7

 75
     0
147
1.0
148
0.0
149
0.0
100
AcDbLayout
  1
Model
 70
     1
 71
     0
 10
0.0
 20
0.0
 11
840.0
 21
594.0
 12
0.0
 22
0.0
 32
0.0
 14
0.0
 24
0.0
 34
0.0
 15
840.0
 25
594.0
 35
0.0
146
0.0
 13
0.0
 23
0.0
 33
0.0
 16
1.0
 26
0.0
 36
0.0
 17
0.0
 27
1.0
 37
0.0
 76
     0
330
1F
331
29
  0
MLINESTYLE
  5
18
102
{ACAD_REACTORS
330
17
102
}
330
17
100
AcDbMlineStyle
  2
Standard
 70
     0
  3

 62
   256
 51
90.0
 52
90.0
 71
     2
 49
0.5
 62
   256
  6
BYLAYER
 49
-0.5
 62
   256
  6
BYLAYER
  0
ACDBPLACEHOLDER
  5
F
102
{ACAD_REACTORS
330
E
102
}
330
E
  0
ENDSEC
  0
EOF
