  0
SECTION
  2
HEADER
  9
$ACADVER
  1
AC1015
  9
$ACADMAINTVER
 70
     6
  9
$DWGCODEPAGE
  3
DOS932
  9
$INSBASE
 10
0.0
 20
0.0
 30
0.0
  9
$EXTMIN
 10
0.0
 20
0.0
 30
0.0
  9
$EXTMAX
 10
840.0
 20
594.0
 30
0.0
  9
$LIMMIN
 10
0.0
 20
0.0
  9
$LIMMAX
 10
840.0
 20
594.0
  9
$ORTHOMODE
 70
     0
  9
$REGENMODE
 70
     1
  9
$FILLMODE
 70
     1
  9
$QTEXTMODE
 70
     0
  9
$MIRRTEXT
 70
     1
  9
$LTSCALE
 40
2.0
  9
$ATTMODE
 70
     1
  9
$TEXTSIZE
 40
7.0
  9
$TRACEWID
 40
1.0
  9
$TEXTSTYLE
  7
Standard
  9
$CLAYER
  8
0
  9
$CELTYPE
  6
ByLayer
  9
$CECOLOR
 62
   256
  9
$CELTSCALE
 40
1.0
  9
$DISPSILH
 70
     0
  9
$DIMSCALE
 40
1.0
  9
$DIMASZ
 40
6.0
  9
$DIMEXO
 40
2.0
  9
$DIMDLI
 40
3.75
  9
$DIMRND
 40
0.0
  9
$DIMDLE
 40
0.0
  9
$DIMEXE
 40
2.0
  9
$DIMTP
 40
0.0
  9
$DIMTM
 40
0.0
  9
$DIMTXT
 40
7.0
  9
$DIMCEN
 40
2.5
  9
$DIMTSZ
 40
0.0
  9
$DIMTOL
 70
     0
  9
$DIMLIM
 70
     0
  9
$DIMTIH
 70
     1
  9
$DIMTOH
 70
     1
  9
$DIMSE1
 70
     0
  9
$DIMSE2
 70
     0
  9
$DIMTAD
 70
     1
  9
$DIMZIN
 70
     0
  9
$DIMBLK
  1

  9
$DIMASO
 70
     1
  9
$DIMSHO
 70
     1
  9
$DIMPOST
  1

  9
$DIMAPOST
  1

  9
$DIMALT
 70
     0
  9
$DIMALTD
 70
     3
  9
$DIMALTF
 40
0.0393700787
  9
$DIMLFAC
 40
1.0
  9
$DIMTOFL
 70
     1
  9
$DIMTVP
 40
0.0
  9
$DIMTIX
 70
     0
  9
$DIMSOXD
 70
     0
  9
$DIMSAH
 70
     0
  9
$DIMBLK1
  1

  9
$DIMBLK2
  1

  9
$DIMSTYLE
  2
ISO-25
  9
$DIMCLRD
 70
     0
  9
$DIMCLRE
 70
     0
  9
$DIMCLRT
 70
     0
  9
$DIMTFAC
 40
1.0
  9
$DIMGAP
 40
3.048
  9
$DIMJUST
 70
     0
  9
$DIMSD1
 70
     0
  9
$DIMSD2
 70
     0
  9
$DIMTOLJ
 70
     0
  9
$DIMTZIN
 70
     0
  9
$DIMALTZ
 70
     0
  9
$DIMALTTZ
 70
     0
  9
$DIMUPT
 70
     0
  9
$DIMDEC
 70
     1
  9
$DIMTDEC
 70
     1
  9
$DIMALTU
 70
     2
  9
$DIMALTTD
 70
     3
  9
$DIMTXSTY
  7
Standard
  9
$DIMAUNIT
 70
     0
  9
$DIMADEC
 70
     2
  9
$DIMALTRND
 40
0.0
  9
$DIMAZIN
 70
     0
  9
$DIMDSEP
 70
    44
  9
$DIMATFIT
 70
     3
  9
$DIMFRAC
 70
     0
  9
$DIMLDRBLK
  1

  9
$DIMLUNIT
 70
     2
  9
$DIMLWD
 70
    -2
  9
$DIMLWE
 70
    -2
  9
$DIMTMOVE
 70
     0
  9
$LUNITS
 70
     2
  9
$LUPREC
 70
     1
  9
$SKETCHINC
 40
1.0
  9
$FILLETRAD
 40
10.0
  9
$AUNITS
 70
     0
  9
$AUPREC
 70
     2
  9
$MENU
  1
.
  9
$ELEVATION
 40
0.0
  9
$PELEVATION
 40
0.0
  9
$THICKNESS
 40
0.0
  9
$LIMCHECK
 70
     0
  9
$CHAMFERA
 40
10.0
  9
$CHAMFERB
 40
10.0
  9
$CHAMFERC
 40
20.0
  9
$CHAMFERD
 40
0.0
  9
$SKPOLY
 70
     0
  9
$TDCREATE
 40
2460445.589081898
  9
$TDUCREATE
 40
2460445.214081898
  9
$TDUPDATE
 40
2460445.58908191
  9
$TDUUPDATE
 40
2460445.21408191
  9
$TDINDWG
 40
0.0000000116
  9
$TDUSRTIMER
 40
0.0000000116
  9
$USRTIMER
 70
     1
  9
$ANGBASE
 50
0.0
  9
$ANGDIR
 70
     0
  9
$PDMODE
 70
     0
  9
$PDSIZE
 40
-1.0
  9
$PLINEWID
 40
0.0
  9
$SPLFRAME
 70
     0
  9
$SPLINETYPE
 70
     6
  9
$SPLINESEGS
 70
     8
  9
$HANDSEED
  5
253
  9
$SURFTAB1
 70
     6
  9
$SURFTAB2
 70
     6
  9
$SURFTYPE
 70
     6
  9
$SURFU
 70
     6
  9
$SURFV
 70
     6
  9
$UCSBASE
  2

  9
$UCSNAME
  2

  9
$UCSORG
 10
0.0
 20
0.0
 30
0.0
  9
$UCSXDIR
 10
1.0
 20
0.0
 30
0.0
  9
$UCSYDIR
 10
0.0
 20
1.0
 30
0.0
  9
$UCSORTHOREF
  2

  9
$UCSORTHOVIEW
 70
     0
  9
$UCSORGTOP
 10
0.0
 20
0.0
 30
0.0
  9
$UCSORGBOTTOM
 10
0.0
 20
0.0
 30
0.0
  9
$UCSORGLEFT
 10
0.0
 20
0.0
 30
0.0
  9
$UCSORGRIGHT
 10
0.0
 20
0.0
 30
0.0
  9
$UCSORGFRONT
 10
0.0
 20
0.0
 30
0.0
  9
$UCSORGBACK
 10
0.0
 20
0.0
 30
0.0
  9
$PUCSBASE
  2

  9
$PUCSNAME
  2

  9
$PUCSORG
 10
0.0
 20
0.0
 30
0.0
  9
$PUCSXDIR
 10
1.0
 20
0.0
 30
0.0
  9
$PUCSYDIR
 10
0.0
 20
1.0
 30
0.0
  9
$PUCSORTHOREF
  2

  9
$PUCSORTHOVIEW
 70
     0
  9
$PUCSORGTOP
 10
0.0
 20
0.0
 30
0.0
  9
$PUCSORGBOTTOM
 10
0.0
 20
0.0
 30
0.0
  9
$PUCSORGLEFT
 10
0.0
 20
0.0
 30
0.0
  9
$PUCSORGRIGHT
 10
0.0
 20
0.0
 30
0.0
  9
$PUCSORGFRONT
 10
0.0
 20
0.0
 30
0.0
  9
$PUCSORGBACK
 10
0.0
 20
0.0
 30
0.0
  9
$USERI1
 70
     0
  9
$USERI2
 70
     0
  9
$USERI3
 70
     0
  9
$USERI4
 70
     0
  9
$USERI5
 70
     0
  9
$USERR1
 40
0.0
  9
$USERR2
 40
0.0
  9
$USERR3
 40
0.0
  9
$USERR4
 40
0.0
  9
$USERR5
 40
0.0
  9
$WORLDVIEW
 70
     1
  9
$SHADEDGE
 70
     3
  9
$SHADEDIF
 70
    70
  9
$TILEMODE
 70
     1
  9
$MAXACTVP
 70
    64
  9
$PINSBASE
 10
0.0
 20
0.0
 30
0.0
  9
$PLIMCHECK
 70
     0
  9
$PEXTMIN
 10
1.0000000000E+20
 20
1.0000000000E+20
 30
1.0000000000E+20
  9
$PEXTMAX
 10
-1.0000000000E+20
 20
-1.0000000000E+20
 30
-1.0000000000E+20
  9
$PLIMMIN
 10
0.0
 20
0.0
  9
$PLIMMAX
 10
420.0
 20
297.0
  9
$UNITMODE
 70
     0
  9
$VISRETAIN
 70
     1
  9
$PLINEGEN
 70
     0
  9
$PSLTSCALE
 70
     1
  9
$TREEDEPTH
 70
  3020
  9
$CMLSTYLE
  2
Standard
  9
$CMLJUST
 70
     0
  9
$CMLSCALE
 40
20.0
  9
$PROXYGRAPHICS
 70
     1
  9
$MEASUREMENT
 70
     1
  9
$CELWEIGHT
370
    -1
  9
$ENDCAPS
280
     0
  9
$JOINSTYLE
280
     0
  9
$LWDISPLAY
290
     1
  9
$INSUNITS
 70
     4
  9
$HYPERLINKBASE
  1

  9
$STYLESHEET
  1

  9
$XEDIT
290
     1
  9
$CEPSNTYPE
380
     0
  9
$PSTYLEMODE
290
     1
  9
$FINGERPRINTGUID
  2
{11F853A2-B97C-4480-BC45-5E22C3FBC0A5}
  9
$VERSIONGUID
  2
{FAEB1C32-E019-11D5-929B-00C0DF256EC4}
  9
$EXTNAMES
290
     1
  9
$PSVPSCALE
 40
0.0
  9
$OLESTARTUP
290
     0
  0
ENDSEC
  0
SECTION
  2
CLASSES
  0
CLASS
  1
ACDBDICTIONARYWDFLT
  2
AcDbDictionaryWithDefault
  3
ObjectDBX Classes
 90
        0
280
     0
281
     0
  0
CLASS
  1
VISUALSTYLE
  2
AcDbVisualStyle
  3
ObjectDBX Classes
 90
     4095
280
     0
281
     0
  0
CLASS
  1
MATERIAL
  2
AcDbMaterial
  3
ObjectDBX Classes
 90
     1153
280
     0
281
     0
  0
CLASS
  1
ACDBPLACEHOLDER
  2
AcDbPlaceHolder
  3
ObjectDBX Classes
 90
        0
280
     0
281
     0
  0
CLASS
  1
LAYOUT
  2
AcDbLayout
  3
ObjectDBX Classes
 90
        0
280
     0
281
     0
  0
ENDSEC
  0
SECTION
  2
TABLES
  0
TABLE
  2
VPORT
  5
8
330
0
100
AcDbSymbolTable
 70
     1
  0
VPORT
  5
29
330
8
100
AcDbSymbolTableRecord
100
AcDbViewportTableRecord
  2
*Active
 70
     0
 10
0.0
 20
0.0
 11
1.0
 21
1.0
 12
420.0
 22
297.0
 13
0.0
 23
0.0
 14
10.0
 24
10.0
 15
10.0
 25
10.0
 16
0.0
 26
0.0
 36
1.0
 17
0.0
 27
0.0
 37
0.0
 40
594.0
 41
1.4141414141
 42
50.0
 43
0.0
 44
0.0
 50
0.0
 51
0.0
 71
     0
 72
  2000
 73
     1
 74
     3
 75
     0
 76
     0
 77
     0
 78
     0
281
     0
 65
     1
110
0.0
120
0.0
130
0.0
111
1.0
121
0.0
131
0.0
112
0.0
122
1.0
132
0.0
 79
     0
146
0.0
  0
ENDTAB
  0
TABLE
  2
LTYPE
  5
5
330
0
100
AcDbSymbolTable
 70
     6
  0
LTYPE
  5
14
330
5
100
AcDbSymbolTableRecord
100
AcDbLinetypeTableRecord
  2
ByBlock
 70
     0
  3

 72
    65
 73
     0
 40
0.0
  0
LTYPE
  5
15
330
5
100
AcDbSymbolTableRecord
100
AcDbLinetypeTableRecord
  2
ByLayer
 70
     0
  3

 72
    65
 73
     0
 40
0.0
  0
LTYPE
  5
16
330
5
100
AcDbSymbolTableRecord
100
AcDbLinetypeTableRecord
  2
Continuous
 70
     0
  3
Solid line
 72
    65
 73
     0
 40
0.0
  0
LTYPE
  5
3F
330
5
100
AcDbSymbolTableRecord
100
AcDbLinetypeTableRecord
  2
HIDDEN
 70
     0
  3
Hidden __ __ __ __ __ __ __ __ __ __ __ __ __ __
 72
    65
 73
     2
 40
1.905
 49
1.27
 74
     0
 49
-0.635
 74
     0
  0
LTYPE
  5
40
330
5
100
AcDbSymbolTableRecord
100
AcDbLinetypeTableRecord
  2
PHANTOM
 70
     0
  3
Phantom ______  __  __  ______  __  __  ______
 72
    65
 73
     6
 40
12.7
 49
6.35
 74
     0
 49
-1.27
 74
     0
 49
1.27
 74
     0
 49
-1.27
 74
     0
 49
1.27
 74
     0
 49
-1.27
 74
     0
  0
LTYPE
  5
41
330
5
100
AcDbSymbolTableRecord
100
AcDbLinetypeTableRecord
  2
CENTER
 70
     0
  3
Center ____ _ ____ _ ____ _ ____ _ ____ _ ____
 72
    65
 73
     4
 40
10.16
 49
6.35
 74
     0
 49
-1.27
 74
     0
 49
1.27
 74
     0
 49
-1.27
 74
     0
  0
LTYPE
  5
42
330
5
100
AcDbSymbolTableRecord
100
AcDbLinetypeTableRecord
  2
CENTERX2
 70
     0
  3
Center (2x) ________  __  ________  __  _____
 72
    65
 73
     4
 40
20.32
 49
12.7
 74
     0
 49
-2.54
 74
     0
 49
2.54
 74
     0
 49
-2.54
 74
     0
  0
LTYPE
  5
43
330
5
100
AcDbSymbolTableRecord
100
AcDbLinetypeTableRecord
  2
DOT2
 70
     0
  3
Dot (.5x) ........................................
 72
    65
 73
     2
 40
0.635
 49
0.0
 74
     0
 49
-0.635
 74
     0
  0
ENDTAB
  0
TABLE
  2
LAYER
  5
2
330
0
100
AcDbSymbolTable
 70
     1
  0
LAYER
  5
10
330
2
100
AcDbSymbolTableRecord
100
AcDbLayerTableRecord
  2
0
 70
     0
 62
     7
  6
Continuous
370
    -3
390
F
  0
ENDTAB
  0
TABLE
  2
STYLE
  5
3
330
0
100
AcDbSymbolTable
 70
     2
  0
STYLE
  5
11
330
3
100
AcDbSymbolTableRecord
100
AcDbTextStyleTableRecord
  2
Standard
 70
     0
 40
0.0
 41
1.0
 50
0.0
 71
     0
 42
2.5
  3
txt
  4
bigfont
  0
STYLE
  5
44
330
3
100
AcDbSymbolTableRecord
100
AcDbTextStyleTableRecord
  2
SLDTEXTSTYLE0
 70
     0
 40
0.0
 41
0.7
 50
0.0
 71
     0
 42
0.2
  3
TXT
  4
bigfont
  0
ENDTAB
  0
TABLE
  2
VIEW
  5
6
330
0
100
AcDbSymbolTable
 70
     0
  0
ENDTAB
  0
TABLE
  2
UCS
  5
7
330
0
100
AcDbSymbolTable
 70
     0
  0
ENDTAB
  0
TABLE
  2
APPID
  5
9
330
0
100
AcDbSymbolTable
 70
     1
  0
APPID
  5
12
330
9
100
AcDbSymbolTableRecord
100
AcDbRegAppTableRecord
  2
ACAD
 70
     0
  0
ENDTAB
  0
TABLE
  2
DIMSTYLE
  5
A
330
0
100
AcDbSymbolTable
 70
     1
100
AcDbDimStyleTable
  0
DIMSTYLE
105
27
330
A
100
AcDbSymbolTableRecord
100
AcDbDimStyleTableRecord
  2
ISO-25
 70
     0
 41
2.5
 42
0.625
 43
3.75
 44
1.25
 73
     0
 74
     0
 77
     1
 78
     8
140
2.5
141
2.5
143
0.0393700787
147
0.625
171
     3
172
     1
178
     0
271
     2
272
     2
274
     3
278
    44
283
     0
284
     8
340
11
  0
ENDTAB
  0
TABLE
  2
BLOCK_RECORD
  5
1
330
0
100
AcDbSymbolTable
 70
     1
  0
BLOCK_RECORD
  5
1F
330
1
100
AcDbSymbolTableRecord
100
AcDbBlockTableRecord
  2
*Model_Space
340
22
  0
BLOCK_RECORD
  5
1B
330
1
100
AcDbSymbolTableRecord
100
AcDbBlockTableRecord
  2
*Paper_Space
340
1E
  0
BLOCK_RECORD
  5
23
330
1
100
AcDbSymbolTableRecord
100
AcDbBlockTableRecord
  2
*Paper_Space0
340
26
  0
ENDTAB
  0
ENDSEC
  0
SECTION
  2
BLOCKS
  0
BLOCK
  5
20
330
1F
100
AcDbEntity
  8
0
100
AcDbBlockBegin
  2
*Model_Space
 70
     0
 10
0.0
 20
0.0
 30
0.0
  3
*Model_Space
  1

  0
ENDBLK
  5
21
330
1F
100
AcDbEntity
  8
0
100
AcDbBlockEnd
  0
BLOCK
  5
1C
330
1B
100
AcDbEntity
 67
     1
  8
0
100
AcDbBlockBegin
  2
*Paper_Space
 70
     0
 10
0.0
 20
0.0
 30
0.0
  3
*Paper_Space
  1

  0
ENDBLK
  5
1D
330
1B
100
AcDbEntity
 67
     1
  8
0
100
AcDbBlockEnd
  0
BLOCK
  5
24
330
23
100
AcDbEntity
  8
0
100
AcDbBlockBegin
  2
*Paper_Space0
 70
     0
 10
0.0
 20
0.0
 30
0.0
  3
*Paper_Space0
  1

  0
ENDBLK
  5
25
330
23
100
AcDbEntity
  8
0
100
AcDbBlockEnd
  0
ENDSEC
  0
SECTION
  2
ENTITIES
  0
MTEXT
  5
45
330
1F
100
AcDbEntity
  8
0
  6
Continuous
 62
     7
370
     0
100
AcDbMText
 10
171.1041755131
 20
480.7761987994
 30
0.0
 40
7.0
 41
0.0
 71
     1
 72
     1
  1
CHB-506N
  7
SLDTEXTSTYLE0
 73
     1
 44
1.0
  0
LINE
  5
46
330
1F
100
AcDbEntity
  8
0
  6
Continuous
 62
     7
370
    15
100
AcDbLine
 10
360.3965360438
 20
199.1473456922
 30
0.0
 11
360.4965377366
 21
199.1473456922
 31
0.0
  0
LINE
  5
47
330
1F
100
AcDbEntity
  8
0
  6
Continuous
 62
     7
370
    15
100
AcDbLine
 10
360.4965377366
 20
205.1473459772
 30
0.0
 11
360.3965360438
 21
205.1473459772
 31
0.0
  0
LINE
  5
48
330
1F
100
AcDbEntity
  8
0
  6
Continuous
 62
     7
370
    15
100
AcDbLine
 10
360.3965360438
 20
209.1473461672
 30
0.0
 11
360.4965377366
 21
209.1473461672
 31
0.0
  0
LINE
  5
49
330
1F
100
AcDbEntity
  8
0
  6
Continuous
 62
     7
370
    15
100
AcDbLine
 10
360.4965377366
 20
215.1473464522
 30
0.0
 11
360.3965360438
 21
215.1473464522
 31
0.0
  0
LINE
  5
4A
330
1F
100
AcDbEntity
  8
0
  6
Continuous
 62
     7
370
    15
100
AcDbLine
 10
361.6965282475
 20
218.6473460945
 30
0.0
 11
360.4965377366
 21
218.6473460945
 31
0.0
  0
LINE
  5
4B
330
1F
100
AcDbEntity
  8
0
  6
Continuous
 62
     7
370
    15
100
AcDbLine
 10
360.4965377366
 20
195.6473460498
 30
0.0
 11
361.6965282475
 21
195.6473460498
 31
0.0
  0
LINE
  5
4C
330
1F
100
AcDbEntity
  8
0
  6
Continuous
 62
     7
370
    15
100
AcDbLine
 10
773.1965351617
 20
63.1473522711
 30
0.0
 11
773.1965351617
 21
98.1473486948
 31
0.0
  0
LINE
  5
4D
330
1F
100
AcDbEntity
  8
0
  6
Continuous
 62
     7
370
    15
100
AcDbLine
 10
773.1965351617
 20
316.1473434496
 30
0.0
 11
773.1965351617
 21
351.1473398733
 31
0.0
  0
SPLINE
  5
4E
330
1F
100
AcDbEntity
  8
0
  6
Continuous
 62
     7
370
    15
100
AcDbSpline
210
0.0
220
0.0
230
1.0
 70
     8
 71
     3
 72
    11
 73
     7
 74
     0
 42
0.00000001
 43
0.00000001
 40
0.0
 40
0.0
 40
0.0
 40
0.0
 40
0.2262211333386928
 40
0.4679442160813388
 40
0.7254890556036399
 40
1.0
 40
1.0
 40
1.0
 40
1.0
 10
358.0170441185803
 20
215.3777808028354
 30
0.0
 10
358.0198634515987
 20
215.3548818233397
 30
0.0
 10
358.0256953142529
 20
215.307514696975
 30
0.0
 10
358.042486102126
 20
214.9827244821602
 30
0.0
 10
358.0560783842319
 20
214.4822392445456
 30
0.0
 10
358.0566136542855
 20
214.0584121583802
 30
0.0
 10
358.0568898236127
 20
213.8397411520674
 30
0.0
  0
SPLINE
  5
4F
330
1F
100
AcDbEntity
  8
0
  6
Continuous
 62
     7
370
    15
100
AcDbSpline
210
0.0
220
0.0
230
1.0
 70
     8
 71
     3
 72
    12
 73
     8
 74
     0
 42
0.00000001
 43
0.00000001
 40
0.0
 40
0.0
 40
0.0
 40
0.0
 40
0.2489445739028115
 40
0.4822862098310756
 40
0.6998114639483098
 40
0.9035368778110593
 40
1.0
 40
1.0
 40
1.0
 40
1.0
 10
358.0568898236127
 20
200.2811103205277
 30
0.0
 10
358.0554639770952
 20
200.1437768016343
 30
0.0
 10
358.0527016509199
 20
199.8777173279471
 30
0.0
 10
358.0418004270742
 20
199.5419017753001
 30
0.0
 10
358.0392902727142
 20
199.3087357171338
 30
0.0
 10
358.0440794150076
 20
199.188626614873
 30
0.0
 10
358.0705099207416
 20
199.1872803502848
 30
0.0
 10
358.0790031468244
 20
199.1868477392091
 30
0.0
  0
LINE
  5
50
330
1F
100
AcDbEntity
  8
0
  6
Continuous
 62
     7
370
    15
100
AcDbLine
 10
358.0560404574
 20
213.8897410671
 30
0.0
 11
358.0560404574
 21
200.2311104055
 31
0.0
  0
LINE
  5
51
330
1F
100
AcDbEntity
  8
0
  6
Continuous
 62
     7
370
    15
100
AcDbLine
 10
356.5324265277
 20
217.827629492
 30
0.0
 11
358.0197859322
 21
215.3474820855
 31
0.0
  0
LINE
  5
52
330
1F
100
AcDbEntity
  8
0
  6
Continuous
 62
     7
370
    15
100
AcDbLine
 10
360.4965377366
 20
217.0505916777
 30
0.0
 11
359.1052461182
 21
219.3705553266
 31
0.0
  0
LINE
  5
53
330
1F
100
AcDbEntity
  8
0
  6
Continuous
 62
     7
370
    15
100
AcDbLine
 10
358.0842781579
 20
199.0547619837
 30
0.0
 11
356.5152007853
 21
196.4383434582
 31
0.0
  0
LINE
  5
54
330
1F
100
AcDbEntity
  8
0
  6
Continuous
 62
     7
370
    15
100
AcDbLine
 10
359.0880203759
 20
194.8954176235
 30
0.0
 11
360.4965377366
 21
197.2441004667
 31
0.0
  0
LINE
  5
55
330
1F
100
AcDbEntity
  8
0
  6
Continuous
 62
     7
370
    15
100
AcDbLine
 10
359.1251391684
 20
219.3350467908
 30
0.0
 11
359.0351808583
 21
219.4488339203
 31
0.0
  0
SPLINE
  5
56
330
1F
100
AcDbEntity
  8
0
  6
Continuous
 62
     7
370
    15
100
AcDbSpline
210
0.0
220
0.0
230
1.0
 70
     8
 71
     3
 72
    20
 73
    16
 74
     0
 42
0.00000001
 43
0.00000001
 40
0.0
 40
0.0
 40
0.0
 40
0.0
 40
0.0337804504955803
 40
0.110106129442281
 40
0.1739284394576207
 40
0.2252740656393193
 40
0.2665365052847715
 40
0.3037745271294951
 40
0.3388585253804877
 40
0.372639864700143
 40
0.4139176374303661
 40
0.6259827958877605
 40
0.8390272751872768
 40
0.9659462427231557
 40
1.0
 40
1.0
 40
1.0
 40
1.0
 10
358.9228708063932
 20
219.5909034538164
 30
0.0
 10
358.8822101952564
 20
219.6470888148634
 30
0.0
 10
358.7496784365812
 20
219.8302229218824
 30
0.0
 10
358.4398106731513
 20
220.0074019514747
 30
0.0
 10
358.0525541144902
 20
220.1303603604755
 30
0.0
 10
357.6827045182362
 20
220.1451488484753
 30
0.0
 10
357.3483867623856
 20
220.0945557424794
 30
0.0
 10
357.0739024854122
 20
219.9935129949812
 30
0.0
 10
356.8463982321013
 20
219.8587906261349
 30
0.0
 10
356.6403652079786
 20
219.6826183316092
 30
0.0
 10
356.2958426112666
 20
219.2401158677499
 30
0.0
 10
356.1147537619519
 20
218.5534551775415
 30
0.0
 10
355.9649532113532
 20
217.3726164356873
 30
0.0
 10
355.9098334782631
 20
216.4679740278858
 30
0.0
 10
355.9032719765272
 20
216.0533860657436
 30
0.0
 10
355.9018838917585
 20
215.9656800407066
 30
0.0
  0
SPLINE
  5
57
330
1F
100
AcDbEntity
  8
0
  6
Continuous
 62
     7
370
    15
100
AcDbSpline
210
0.0
220
0.0
230
1.0
 70
     8
 71
     3
 72
    19
 73
    15
 74
     0
 42
0.00000001
 43
0.00000001
 40
0.0
 40
0.0
 40
0.0
 40
0.0
 40
0.010273716450927
 40
0.1295969544120951
 40
0.326812560494732
 40
0.5525093950604796
 40
0.5858541833950538
 40
0.61860173985923
 40
0.6529061552892397
 40
0.6960072169155693
 40
0.7523131166079877
 40
0.8223154421021113
 40
0.9054607797521667
 40
1.0
 40
1.0
 40
1.0
 40
1.0
 10
355.8990377699704
 20
198.3473461198701
 30
0.0
 10
355.8993609743167
 20
198.3201471506285
 30
0.0
 10
355.9034380090628
 20
197.9770479816273
 30
0.0
 10
355.9432000341321
 20
197.1570578271034
 30
0.0
 10
356.0782049667286
 20
195.9346229343899
 30
0.0
 10
356.168603339184
 20
195.2912720522694
 30
0.0
 10
356.5195008142952
 20
194.7511656890271
 30
0.0
 10
356.6887210882151
 20
194.5633251811483
 30
0.0
 10
356.9254283325355
 20
194.3868386459523
 30
0.0
 10
357.2390576650706
 20
194.2333705914935
 30
0.0
 10
357.6425436845283
 20
194.1315797910707
 30
0.0
 10
358.1284053638871
 20
194.1547424735439
 30
0.0
 10
358.6581596868547
 20
194.3650709368909
 30
0.0
 10
358.9233785403732
 20
194.686887238368
 30
0.0
 10
359.0644914423794
 20
194.8581134977831
 30
0.0
  0
LINE
  5
58
330
1F
100
AcDbEntity
  8
0
  6
Continuous
 62
     7
370
    15
100
AcDbLine
 10
352.591725043
 20
211.0473459664
 30
0.0
 11
352.591725043
 21
202.44734614
 31
0.0
  0
LINE
  5
59
330
1F
100
AcDbEntity
  8
0
  6
Continuous
 62
     7
370
    15
100
AcDbLine
 10
353.1965333735
 20
215.1470922011
 30
0.0
 11
353.1965333735
 21
214.3473459485
 31
0.0
  0
LINE
  5
5A
330
1F
100
AcDbEntity
  8
0
  6
Continuous
 62
     7
370
    15
100
AcDbLine
 10
353.1965333735
 20
199.9473461959
 30
0.0
 11
353.1965333735
 21
199.1475999433
 31
0.0
  0
LINE
  5
5B
330
1F
100
AcDbEntity
  8
0
  6
Continuous
 62
     7
370
    15
100
AcDbLine
 10
354.59652727
 20
215.4473459425
 30
0.0
 11
354.59652727
 21
215.1473464522
 31
0.0
  0
ARC
  5
5C
330
1F
100
AcDbEntity
  8
0
  6
Continuous
 62
     7
370
    15
100
AcDbCircle
 10
356.7965312278
 20
212.3402032151
 30
0.0
 40
3.807142857143187
100
AcDbArc
 50
77.9663271603
 51
90.0
  0
ARC
  5
5D
330
1F
100
AcDbEntity
  8
0
  6
Continuous
 62
     7
370
    15
100
AcDbCircle
 10
356.7965312278
 20
212.3402032151
 30
0.0
 40
3.807142857143189
100
AcDbArc
 50
90.0
 51
125.3002484399
  0
LINE
  5
5E
330
1F
100
AcDbEntity
  8
0
  6
Continuous
 62
     7
370
    15
100
AcDbLine
 10
354.6965289628
 20
198.7473463717
 30
0.0
 11
354.6965289628
 21
198.3473461199
 31
0.0
  0
ARC
  5
5F
330
1F
100
AcDbEntity
  8
0
  6
Continuous
 62
     7
370
    15
100
AcDbCircle
 10
354.8965312278
 20
199.1473460722
 30
0.0
 40
0.4000000000008299
100
AcDbArc
 50
270.0
 51
0.0
  0
LINE
  5
60
330
1F
100
AcDbEntity
  8
0
  6
Continuous
 62
     7
370
    15
100
AcDbLine
 10
355.2965242183
 20
214.3473459485
 30
0.0
 11
355.2965242183
 21
213.8973462473
 31
0.0
  0
LINE
  5
61
330
1F
100
AcDbEntity
  8
0
  6
Continuous
 62
     7
370
    15
100
AcDbLine
 10
355.2965242183
 20
200.3973458971
 30
0.0
 11
355.2965242183
 21
199.9473461959
 31
0.0
  0
LINE
  5
62
330
1F
100
AcDbEntity
  8
0
  6
Continuous
 62
     7
370
    15
100
AcDbLine
 10
773.1965351617
 20
27.1473389196
 30
0.0
 11
773.1965351617
 21
62.1473502445
 31
0.0
  0
LINE
  5
63
330
1F
100
AcDbEntity
  8
0
  6
Continuous
 62
     7
370
    15
100
AcDbLine
 10
773.1965351617
 20
352.1473418999
 30
0.0
 11
773.1965351617
 21
387.1473532247
 31
0.0
  0
LINE
  5
64
330
1F
100
AcDbEntity
  8
0
  6
Continuous
 62
     7
370
    15
100
AcDbLine
 10
770.196529082
 20
62.1473502445
 30
0.0
 11
770.196529082
 21
63.1473522711
 31
0.0
  0
LINE
  5
65
330
1F
100
AcDbEntity
  8
0
  6
Continuous
 62
     7
370
    15
100
AcDbLine
 10
770.196529082
 20
98.1473486948
 30
0.0
 11
770.196529082
 21
99.1473432708
 31
0.0
  0
LINE
  5
66
330
1F
100
AcDbEntity
  8
0
  6
Continuous
 62
     7
370
    15
100
AcDbLine
 10
765.1965338504
 20
99.1473432708
 30
0.0
 11
765.1965338504
 21
98.1473486948
 31
0.0
  0
LINE
  5
67
330
1F
100
AcDbEntity
  8
0
  6
Continuous
 62
     7
370
    15
100
AcDbLine
 10
765.1965338504
 20
63.1473522711
 30
0.0
 11
765.1965338504
 21
62.1473502445
 31
0.0
  0
LINE
  5
68
330
1F
100
AcDbEntity
  8
0
  6
Continuous
 62
     7
370
    15
100
AcDbLine
 10
765.1965338504
 20
352.1473418999
 30
0.0
 11
765.1965338504
 21
351.1473398733
 31
0.0
  0
LINE
  5
69
330
1F
100
AcDbEntity
  8
0
  6
Continuous
 62
     7
370
    15
100
AcDbLine
 10
765.1965338504
 20
316.1473434496
 30
0.0
 11
765.1965338504
 21
315.1473488736
 31
0.0
  0
LINE
  5
6A
330
1F
100
AcDbEntity
  8
0
  6
Continuous
 62
     7
370
    15
100
AcDbLine
 10
770.196529082
 20
315.1473488736
 30
0.0
 11
770.196529082
 21
316.1473434496
 31
0.0
  0
LINE
  5
6B
330
1F
100
AcDbEntity
  8
0
  6
Continuous
 62
     7
370
    15
100
AcDbLine
 10
770.196529082
 20
351.1473398733
 30
0.0
 11
770.196529082
 21
352.1473418999
 31
0.0
  0
LINE
  5
6C
330
1F
100
AcDbEntity
  8
0
  6
Continuous
 62
     7
370
    15
100
AcDbLine
 10
353.3965367591
 20
200.6901569742
 30
0.0
 11
353.3965367591
 21
200.3973458971
 31
0.0
  0
LINE
  5
6D
330
1F
100
AcDbEntity
  8
0
  6
Continuous
 62
     7
370
    15
100
AcDbLine
 10
353.3965367591
 20
213.8973462473
 30
0.0
 11
353.3965367591
 21
213.6045351702
 31
0.0
  0
LINE
  5
6E
330
1F
100
AcDbEntity
  8
0
  6
Continuous
 62
     7
370
    15
100
AcDbLine
 10
746.696533612
 20
22.147343688
 30
0.0
 11
746.696533612
 21
7.147343092
 31
0.0
  0
LINE
  5
6F
330
1F
100
AcDbEntity
  8
0
  6
Continuous
 62
     7
370
    15
100
AcDbLine
 10
746.696533612
 20
22.147343688
 30
0.0
 11
761.696534208
 21
22.147343688
 31
0.0
  0
ARC
  5
70
330
1F
100
AcDbEntity
  8
0
  6
Continuous
 62
     7
370
    15
100
AcDbCircle
 10
746.6965312278
 20
22.1473460722
 30
0.0
 40
15.00000000000011
100
AcDbArc
 50
270.0
 51
0.0
  0
LINE
  5
71
330
1F
100
AcDbEntity
  8
0
  6
Continuous
 62
     7
370
    15
100
AcDbLine
 10
376.6965288436
 20
7.147343092
 30
0.0
 11
376.6965288436
 21
22.147343688
 31
0.0
  0
LINE
  5
72
330
1F
100
AcDbEntity
  8
0
  6
Continuous
 62
     7
370
    15
100
AcDbLine
 10
376.6965288436
 20
22.147343688
 30
0.0
 11
746.696533612
 21
22.147343688
 31
0.0
  0
LINE
  5
73
330
1F
100
AcDbEntity
  8
0
  6
Continuous
 62
     7
370
    15
100
AcDbLine
 10
376.6965288436
 20
7.147343092
 30
0.0
 11
746.696533612
 21
7.147343092
 31
0.0
  0
ARC
  5
74
330
1F
100
AcDbEntity
  8
0
  6
Continuous
 62
     7
370
    15
100
AcDbCircle
 10
376.6965312278
 20
22.1473460722
 30
0.0
 40
15.00000000000001
100
AcDbArc
 50
180.0
 51
270.0
  0
LINE
  5
75
330
1F
100
AcDbEntity
  8
0
  6
Continuous
 62
     7
370
    15
100
AcDbLine
 10
361.6965282475
 20
22.147343688
 30
0.0
 11
376.6965288436
 21
22.147343688
 31
0.0
  0
LINE
  5
76
330
1F
100
AcDbEntity
  8
0
  6
Continuous
 62
     7
370
    15
100
AcDbLine
 10
361.6965282475
 20
197.1598539579
 30
0.0
 11
361.6965282475
 21
22.147343688
 31
0.0
  0
LINE
  5
77
330
1F
100
AcDbEntity
  8
0
  6
Continuous
 62
     7
370
    15
100
AcDbLine
 10
361.6965282475
 20
217.1348381865
 30
0.0
 11
361.6965282475
 21
392.1473484564
 31
0.0
  0
LINE
  5
78
330
1F
100
AcDbEntity
  8
0
  6
Continuous
 62
     7
370
    15
100
AcDbLine
 10
361.6965282475
 20
392.1473484564
 30
0.0
 11
376.6965288436
 21
392.1473484564
 31
0.0
  0
LINE
  5
79
330
1F
100
AcDbEntity
  8
0
  6
Continuous
 62
     7
370
    15
100
AcDbLine
 10
376.6965288436
 20
392.1473484564
 30
0.0
 11
376.6965288436
 21
22.147343688
 31
0.0
  0
LINE
  5
7A
330
1F
100
AcDbEntity
  8
0
  6
Continuous
 62
     7
370
    15
100
AcDbLine
 10
381.6965240752
 20
27.1473389196
 30
0.0
 11
381.6965240752
 21
387.1473532247
 31
0.0
  0
LINE
  5
7B
330
1F
100
AcDbEntity
  8
0
  6
Continuous
 62
     7
370
    15
100
AcDbLine
 10
381.6965240752
 20
387.1473532247
 30
0.0
 11
741.6965383803
 21
387.1473532247
 31
0.0
  0
LINE
  5
7C
330
1F
100
AcDbEntity
  8
0
  6
Continuous
 62
     7
370
    15
100
AcDbLine
 10
376.6965288436
 20
392.1473484564
 30
0.0
 11
746.696533612
 21
392.1473484564
 31
0.0
  0
LINE
  5
7D
330
1F
100
AcDbEntity
  8
0
  6
Continuous
 62
     7
370
    15
100
AcDbLine
 10
746.696533612
 20
22.147343688
 30
0.0
 11
746.696533612
 21
392.1473484564
 31
0.0
  0
LINE
  5
7E
330
1F
100
AcDbEntity
  8
0
  6
Continuous
 62
     7
370
    15
100
AcDbLine
 10
741.6965383803
 20
27.1473389196
 30
0.0
 11
741.6965383803
 21
387.1473532247
 31
0.0
  0
LINE
  5
7F
330
1F
100
AcDbEntity
  8
0
  6
Continuous
 62
     7
370
    15
100
AcDbLine
 10
741.6965383803
 20
27.1473389196
 30
0.0
 11
381.6965240752
 21
27.1473389196
 31
0.0
  0
LINE
  5
80
330
1F
100
AcDbEntity
  8
0
  6
Continuous
 62
     7
370
    15
100
AcDbLine
 10
761.696534208
 20
22.147343688
 30
0.0
 11
761.696534208
 21
392.1473484564
 31
0.0
  0
LINE
  5
81
330
1F
100
AcDbEntity
  8
0
  6
Continuous
 62
     7
370
    15
100
AcDbLine
 10
761.696534208
 20
392.1473484564
 30
0.0
 11
746.696533612
 21
392.1473484564
 31
0.0
  0
ARC
  5
82
330
1F
100
AcDbEntity
  8
0
  6
Continuous
 62
     7
370
    15
100
AcDbCircle
 10
746.6965312278
 20
392.1473460722
 30
0.0
 40
15.0
100
AcDbArc
 50
0.0
 51
90.0
  0
LINE
  5
83
330
1F
100
AcDbEntity
  8
0
  6
Continuous
 62
     7
370
    15
100
AcDbLine
 10
746.696533612
 20
407.1473490524
 30
0.0
 11
746.696533612
 21
392.1473484564
 31
0.0
  0
LINE
  5
84
330
1F
100
AcDbEntity
  8
0
  6
Continuous
 62
     7
370
    15
100
AcDbLine
 10
376.6965288436
 20
392.1473484564
 30
0.0
 11
376.6965288436
 21
407.1473490524
 31
0.0
  0
LINE
  5
85
330
1F
100
AcDbEntity
  8
0
  6
Continuous
 62
     7
370
    15
100
AcDbLine
 10
376.6965288436
 20
407.1473490524
 30
0.0
 11
746.696533612
 21
407.1473490524
 31
0.0
  0
ARC
  5
86
330
1F
100
AcDbEntity
  8
0
  6
Continuous
 62
     7
370
    15
100
AcDbCircle
 10
376.6965312278
 20
392.1473460722
 30
0.0
 40
15.00000000000006
100
AcDbArc
 50
90.0
 51
180.0
  0
LINE
  5
87
330
1F
100
AcDbEntity
  8
0
  6
Continuous
 62
     7
370
    15
100
AcDbLine
 10
360.4965377366
 20
218.1818291622
 30
0.0
 11
361.6965282475
 21
218.1818291622
 31
0.0
  0
LINE
  5
88
330
1F
100
AcDbEntity
  8
0
  6
Continuous
 62
     7
370
    15
100
AcDbLine
 10
360.4965377366
 20
196.1128629821
 30
0.0
 11
361.6965282475
 21
196.1128629821
 31
0.0
  0
LINE
  5
89
330
1F
100
AcDbEntity
  8
0
  6
Continuous
 62
     7
370
    15
100
AcDbLine
 10
360.4965377366
 20
196.1128629821
 30
0.0
 11
360.4965377366
 21
218.1818291622
 31
0.0
  0
LINE
  5
8A
330
1F
100
AcDbEntity
  8
0
  6
Continuous
 62
     7
370
    15
100
AcDbLine
 10
361.6965282475
 20
217.1348381865
 30
0.0
 11
361.6965282475
 21
197.1598539579
 31
0.0
  0
LINE
  5
8B
330
1F
100
AcDbEntity
  8
0
  6
Continuous
 62
     7
370
    15
100
AcDbLine
 10
360.3965360438
 20
199.1473456922
 30
0.0
 11
360.3965360438
 21
205.1473459772
 31
0.0
  0
LINE
  5
8C
330
1F
100
AcDbEntity
  8
0
  6
Continuous
 62
     7
370
    15
100
AcDbLine
 10
360.3965360438
 20
212.1473459604
 30
0.0
 11
360.3965360438
 21
215.1473464522
 31
0.0
  0
LINE
  5
8D
330
1F
100
AcDbEntity
  8
0
  6
Continuous
 62
     7
370
    15
100
AcDbLine
 10
360.3965360438
 20
209.1473461672
 30
0.0
 11
360.3965360438
 21
212.1473459604
 31
0.0
  0
LINE
  5
8E
330
1F
100
AcDbEntity
  8
0
  6
Continuous
 62
     7
370
    15
100
AcDbLine
 10
360.4965377366
 20
218.1818291622
 30
0.0
 11
360.4965377366
 21
218.6473460945
 31
0.0
  0
LINE
  5
8F
330
1F
100
AcDbEntity
  8
0
  6
Continuous
 62
     7
370
    15
100
AcDbLine
 10
360.4965377366
 20
195.6473460498
 30
0.0
 11
360.4965377366
 21
196.1128629821
 31
0.0
  0
LINE
  5
90
330
1F
100
AcDbEntity
  8
0
  6
Continuous
 62
     7
370
    15
100
AcDbLine
 10
762.5978905475
 20
98.1473486948
 30
0.0
 11
762.5978905475
 21
63.1473522711
 31
0.0
  0
LINE
  5
91
330
1F
100
AcDbEntity
  8
0
  6
Continuous
 62
     7
370
    15
100
AcDbLine
 10
762.5978905475
 20
98.1473486948
 30
0.0
 11
773.1965351617
 21
98.1473486948
 31
0.0
  0
LINE
  5
92
330
1F
100
AcDbEntity
  8
0
  6
Continuous
 62
     7
370
    15
100
AcDbLine
 10
762.5978905475
 20
63.1473522711
 30
0.0
 11
773.1965351617
 21
63.1473522711
 31
0.0
  0
LINE
  5
93
330
1F
100
AcDbEntity
  8
0
  6
Continuous
 62
     7
370
    15
100
AcDbLine
 10
762.5978905475
 20
316.1473434496
 30
0.0
 11
773.1965351617
 21
316.1473434496
 31
0.0
  0
LINE
  5
94
330
1F
100
AcDbEntity
  8
0
  6
Continuous
 62
     7
370
    15
100
AcDbLine
 10
762.5978905475
 20
351.1473398733
 30
0.0
 11
762.5978905475
 21
316.1473434496
 31
0.0
  0
LINE
  5
95
330
1F
100
AcDbEntity
  8
0
  6
Continuous
 62
     7
370
    15
100
AcDbLine
 10
762.5978905475
 20
351.1473398733
 30
0.0
 11
773.1965351617
 21
351.1473398733
 31
0.0
  0
LINE
  5
96
330
1F
100
AcDbEntity
  8
0
  6
Continuous
 62
     7
370
    15
100
AcDbLine
 10
762.1343750274
 20
98.1473486948
 30
0.0
 11
762.1343750274
 21
63.1473522711
 31
0.0
  0
LINE
  5
97
330
1F
100
AcDbEntity
  8
0
  6
Continuous
 62
     7
370
    15
100
AcDbLine
 10
762.1343750274
 20
98.1473486948
 30
0.0
 11
762.5978905475
 21
98.1473486948
 31
0.0
  0
LINE
  5
98
330
1F
100
AcDbEntity
  8
0
  6
Continuous
 62
     7
370
    15
100
AcDbLine
 10
762.1343750274
 20
63.1473522711
 30
0.0
 11
762.5978905475
 21
63.1473522711
 31
0.0
  0
LINE
  5
99
330
1F
100
AcDbEntity
  8
0
  6
Continuous
 62
     7
370
    15
100
AcDbLine
 10
762.1343750274
 20
351.1473398733
 30
0.0
 11
762.1343750274
 21
316.1473434496
 31
0.0
  0
LINE
  5
9A
330
1F
100
AcDbEntity
  8
0
  6
Continuous
 62
     7
370
    15
100
AcDbLine
 10
762.1343750274
 20
351.1473398733
 30
0.0
 11
762.5978905475
 21
351.1473398733
 31
0.0
  0
LINE
  5
9B
330
1F
100
AcDbEntity
  8
0
  6
Continuous
 62
     7
370
    15
100
AcDbLine
 10
762.1343750274
 20
316.1473434496
 30
0.0
 11
762.5978905475
 21
316.1473434496
 31
0.0
  0
LINE
  5
9C
330
1F
100
AcDbEntity
  8
0
  6
Continuous
 62
     7
370
    15
100
AcDbLine
 10
761.696534208
 20
98.1473486948
 30
0.0
 11
762.1343750274
 21
98.1473486948
 31
0.0
  0
LINE
  5
9D
330
1F
100
AcDbEntity
  8
0
  6
Continuous
 62
     7
370
    15
100
AcDbLine
 10
761.696534208
 20
63.1473522711
 30
0.0
 11
762.1343750274
 21
63.1473522711
 31
0.0
  0
LINE
  5
9E
330
1F
100
AcDbEntity
  8
0
  6
Continuous
 62
     7
370
    15
100
AcDbLine
 10
761.696534208
 20
351.1473398733
 30
0.0
 11
762.1343750274
 21
351.1473398733
 31
0.0
  0
LINE
  5
9F
330
1F
100
AcDbEntity
  8
0
  6
Continuous
 62
     7
370
    15
100
AcDbLine
 10
761.696534208
 20
316.1473434496
 30
0.0
 11
762.1343750274
 21
316.1473434496
 31
0.0
  0
LINE
  5
A0
330
1F
100
AcDbEntity
  8
0
  6
Continuous
 62
     7
370
    15
100
AcDbLine
 10
353.427039436
 20
212.4473459165
 30
0.0
 11
352.6965249097
 21
212.4473459165
 31
0.0
  0
LINE
  5
A1
330
1F
100
AcDbEntity
  8
0
  6
Continuous
 62
     7
370
    15
100
AcDbLine
 10
353.427039436
 20
212.4473459165
 30
0.0
 11
353.427039436
 21
201.8473462279
 31
0.0
  0
LINE
  5
A2
330
1F
100
AcDbEntity
  8
0
  6
Continuous
 62
     7
370
    15
100
AcDbLine
 10
352.6965249097
 20
201.8473462279
 30
0.0
 11
353.427039436
 21
201.8473462279
 31
0.0
  0
LINE
  5
A3
330
1F
100
AcDbEntity
  8
0
  6
Continuous
 62
     7
370
    15
100
AcDbLine
 10
352.6965249097
 20
212.4473459165
 30
0.0
 11
352.6965249097
 21
201.8473462279
 31
0.0
  0
ARC
  5
A4
330
1F
100
AcDbEntity
  8
0
  6
Continuous
 62
     7
370
    15
100
AcDbCircle
 10
354.5192135146
 20
212.5585106338
 30
0.0
 40
1.097816839157882
100
AcDbArc
 50
97.3339510799
 51
185.8117201705
  0
LINE
  5
A5
330
1F
100
AcDbEntity
  8
0
  6
Continuous
 62
     7
370
    15
100
AcDbLine
 10
354.3790746247
 20
213.6473462063
 30
0.0
 11
357.922511152
 21
213.6473462063
 31
0.0
  0
LINE
  5
A6
330
1F
100
AcDbEntity
  8
0
  6
Continuous
 62
     7
370
    15
100
AcDbLine
 10
357.922511152
 20
213.6473462063
 30
0.0
 11
357.922511152
 21
200.6473459381
 31
0.0
  0
LINE
  5
A7
330
1F
100
AcDbEntity
  8
0
  6
Continuous
 62
     7
370
    15
100
AcDbLine
 10
357.922511152
 20
200.6473459381
 30
0.0
 11
354.3790746247
 21
200.6473459381
 31
0.0
  0
ARC
  5
A8
330
1F
100
AcDbEntity
  8
0
  6
Continuous
 62
     7
370
    15
100
AcDbCircle
 10
354.5192135146
 20
201.7361815105
 30
0.0
 40
1.097816839158046
100
AcDbArc
 50
174.1882798295
 51
262.6660489201
  0
LINE
  5
A9
330
1F
100
AcDbEntity
  8
0
  6
Continuous
 62
     7
370
    15
100
AcDbLine
 10
354.3790746247
 20
200.6473459381
 30
0.0
 11
353.6485600983
 21
200.6473459381
 31
0.0
  0
ARC
  5
AA
330
1F
100
AcDbEntity
  8
0
  6
Continuous
 62
     7
370
    15
100
AcDbCircle
 10
353.7886989883
 20
201.7361815105
 30
0.0
 40
1.097816839157908
100
AcDbArc
 50
174.1882798295
 51
262.6660489201
  0
LINE
  5
AB
330
1F
100
AcDbEntity
  8
0
  6
Continuous
 62
     7
370
    15
100
AcDbLine
 10
353.6485600983
 20
213.6473462063
 30
0.0
 11
354.3790746247
 21
213.6473462063
 31
0.0
  0
ARC
  5
AC
330
1F
100
AcDbEntity
  8
0
  6
Continuous
 62
     7
370
    15
100
AcDbCircle
 10
353.7886989883
 20
212.5585106338
 30
0.0
 40
1.097816839158051
100
AcDbArc
 50
97.3339510799
 51
185.8117201705
  0
LINE
  5
AD
330
1F
100
AcDbEntity
  8
0
  6
Continuous
 62
     7
370
    15
100
AcDbLine
 10
358.004050306
 20
213.6473462063
 30
0.0
 11
357.922511152
 21
213.6473462063
 31
0.0
  0
LINE
  5
AE
330
1F
100
AcDbEntity
  8
0
  6
Continuous
 62
     7
370
    15
100
AcDbLine
 10
357.922511152
 20
200.6473459381
 30
0.0
 11
358.0560404574
 21
200.6473459381
 31
0.0
  0
SPLINE
  5
AF
330
1F
100
AcDbEntity
  8
0
  6
Continuous
 62
     7
370
    15
100
AcDbSpline
210
0.0
220
0.0
230
1.0
 70
    24
 71
     3
 72
    12
 73
     8
 74
     0
 42
0.00000001
 43
0.00000001
 40
0.0
 40
0.0
 40
0.0
 40
0.0
 40
0.2185042665755995
 40
0.4370130079610726
 40
0.6555186338092558
 40
0.8740245712698237
 40
1.0
 40
1.0
 40
1.0
 40
1.0
 10
359.8558772122236
 20
213.8397411520674
 30
0.0
 10
359.659158323905
 20
213.8397411520674
 30
0.0
 10
359.2657165186069
 20
213.8397411520674
 30
0.0
 10
358.7049471112311
 20
213.8397411520674
 30
0.0
 10
358.2872957836883
 20
213.8397411520674
 30
0.0
 10
358.0607274214078
 20
213.8397411520674
 30
0.0
 10
358.0782556034804
 20
213.8397411520674
 30
0.0
 10
358.0846655880781
 20
213.8397411520674
 30
0.0
  0
SPLINE
  5
B0
330
1F
100
AcDbEntity
  8
0
  6
Continuous
 62
     7
370
    15
100
AcDbSpline
210
0.0
220
0.0
230
1.0
 70
    24
 71
     3
 72
     9
 73
     5
 74
     0
 42
0.00000001
 43
0.00000001
 40
0.0
 40
0.0
 40
0.0
 40
0.0
 40
0.0025141086251864
 40
1.0
 40
1.0
 40
1.0
 40
1.0
 10
360.3965360438199
 20
213.8397411520674
 30
0.0
 10
360.3961884828836
 20
213.8397411520674
 30
0.0
 10
360.2579442825786
 20
213.8397411520675
 30
0.0
 10
360.0566577192586
 20
213.8397411520675
 30
0.0
 10
359.8558772122236
 20
213.8397411520674
 30
0.0
  0
SPLINE
  5
B1
330
1F
100
AcDbEntity
  8
0
  6
Continuous
 62
     7
370
    15
100
AcDbSpline
210
0.0
220
0.0
230
1.0
 70
     8
 71
     3
 72
    13
 73
     9
 74
     0
 42
0.00000001
 43
0.00000001
 40
0.0
 40
0.0
 40
0.0
 40
0.0
 40
0.1877386539089659
 40
0.3754723399019311
 40
0.563210247197253
 40
0.7509479971675025
 40
0.9386849648529548
 40
1.0
 40
1.0
 40
1.0
 40
1.0
 10
359.5625925576063
 20
217.4545798528089
 30
0.0
 10
359.3658955982022
 20
217.4518811094042
 30
0.0
 10
358.9725068843638
 20
217.4464836940087
 30
0.0
 10
358.4394916738727
 20
217.1559422341967
 30
0.0
 10
358.0489739401681
 20
216.7010410587231
 30
0.0
 10
357.876001422876
 20
216.1393646433998
 30
0.0
 10
357.8792991404977
 20
215.6661653184503
 30
0.0
 10
358.0066317606266
 20
215.4447336889428
 30
0.0
 10
358.0379802500577
 20
215.3902186158194
 30
0.0
  0
SPLINE
  5
B2
330
1F
100
AcDbEntity
  8
0
  6
Continuous
 62
     7
370
    15
100
AcDbSpline
210
0.0
220
0.0
230
1.0
 70
     8
 71
     3
 72
    10
 73
     6
 74
     0
 42
0.00000001
 43
0.00000001
 40
0.0
 40
0.0
 40
0.0
 40
0.0
 40
0.2093392736738888
 40
0.6046681284542607
 40
1.0
 40
1.0
 40
1.0
 40
1.0
 10
360.6997597729535
 20
216.6484652164473
 30
0.0
 10
360.6580572744469
 20
216.7415289319396
 30
0.0
 10
360.5376012736147
 20
217.0103397560441
 30
0.0
 10
360.1308981068103
 20
217.326996543581
 30
0.0
 10
359.7520282225335
 20
217.41205197489
 30
0.0
 10
359.5625925576063
 20
217.4545798528089
 30
0.0
  0
SPLINE
  5
B3
330
1F
100
AcDbEntity
  8
0
  6
Continuous
 62
     7
370
    15
100
AcDbSpline
210
0.0
220
0.0
230
1.0
 70
     8
 71
     3
 72
    13
 73
     9
 74
     0
 42
0.00000001
 43
0.00000001
 40
0.0
 40
0.0
 40
0.0
 40
0.0
 40
0.1768614158016835
 40
0.3537267399476782
 40
0.5305919192438419
 40
0.7074547270595563
 40
0.8843194473083311
 40
1.0
 40
1.0
 40
1.0
 40
1.0
 10
359.5453668152662
 20
196.8113930973305
 30
0.0
 10
359.348699688725
 20
196.8140838450022
 30
0.0
 10
358.9553610896251
 20
196.8194653998067
 30
0.0
 10
358.4219760535183
 20
197.1101408059838
 30
0.0
 10
358.0328458702206
 20
197.5645035088251
 30
0.0
 10
357.8546853431006
 20
198.1282016814739
 30
0.0
 10
357.875646755825
 20
198.6613485827548
 30
0.0
 10
358.0417412643345
 20
198.934619907967
 30
0.0
 10
358.1074196612211
 20
199.0426790046587
 30
0.0
  0
SPLINE
  5
B4
330
1F
100
AcDbEntity
  8
0
  6
Continuous
 62
     7
370
    15
100
AcDbSpline
210
0.0
220
0.0
230
1.0
 70
     8
 71
     3
 72
    10
 73
     6
 74
     0
 42
0.00000001
 43
0.00000001
 40
0.0
 40
0.0
 40
0.0
 40
0.0
 40
0.0588269319728957
 40
0.5294108146436431
 40
1.0
 40
1.0
 40
1.0
 40
1.0
 10
360.5754840885969
 20
197.4113026711239
 30
0.0
 10
360.5648444003353
 20
197.3898224337431
 30
0.0
 10
360.4690929164288
 20
197.1965118260143
 30
0.0
 10
360.1082584449081
 20
196.9423129343835
 30
0.0
 10
359.7329980632346
 20
196.8550332069298
 30
0.0
 10
359.5453668152661
 20
196.8113930973305
 30
0.0
  0
SPLINE
  5
B5
330
1F
100
AcDbEntity
  8
0
  6
Continuous
 62
     7
370
    15
100
AcDbSpline
210
0.0
220
0.0
230
1.0
 70
    24
 71
     3
 72
    12
 73
     8
 74
     0
 42
0.00000001
 43
0.00000001
 40
0.0
 40
0.0
 40
0.0
 40
0.0
 40
0.2193536141895231
 40
0.4387117205829468
 40
0.6580666993286801
 40
0.8774219908980663
 40
1.0
 40
1.0
 40
1.0
 40
1.0
 10
359.8558772122235
 20
200.2811103205277
 30
0.0
 10
359.6591629520402
 20
200.2811103205277
 30
0.0
 10
359.2657304031073
 20
200.2811103205277
 30
0.0
 10
358.7048915722326
 20
200.2811103205277
 30
0.0
 10
358.2875040515999
 20
200.2811103205277
 30
0.0
 10
358.0616531276858
 20
200.2811103205277
 30
0.0
 10
358.0786258299264
 20
200.2811103205277
 30
0.0
 10
358.0847102915616
 20
200.2811103205277
 30
0.0
  0
SPLINE
  5
B6
330
1F
100
AcDbEntity
  8
0
  6
Continuous
 62
     7
370
    15
100
AcDbSpline
210
0.0
220
0.0
230
1.0
 70
    24
 71
     3
 72
     9
 73
     5
 74
     0
 42
0.00000001
 43
0.00000001
 40
0.0
 40
0.0
 40
0.0
 40
0.0
 40
0.0025141086251864
 40
1.0
 40
1.0
 40
1.0
 40
1.0
 10
360.3965360438199
 20
200.2811103205277
 30
0.0
 10
360.3961884828836
 20
200.2811103205277
 30
0.0
 10
360.2579442825786
 20
200.2811103205276
 30
0.0
 10
360.0566577192586
 20
200.2811103205277
 30
0.0
 10
359.8558772122236
 20
200.2811103205277
 30
0.0
  0
SPLINE
  5
B7
330
1F
100
AcDbEntity
  8
0
  6
Continuous
 62
     7
370
    15
100
AcDbSpline
210
0.0
220
0.0
230
1.0
 70
     8
 71
     3
 72
    13
 73
     9
 74
     0
 42
0.00000001
 43
0.00000001
 40
0.0
 40
0.0
 40
0.0
 40
0.0
 40
0.1768614774712451
 40
0.3537265172110513
 40
0.530591640972232
 40
0.7074548960608414
 40
0.8843190982005572
 40
0.9999999999999999
 40
0.9999999999999999
 40
0.9999999999999999
 40
0.9999999999999999
 10
357.9935151850552
 20
220.0709983783855
 30
0.0
 10
357.7968481611204
 20
220.0683075483908
 30
0.0
 10
357.4035101520671
 20
220.0629258342038
 30
0.0
 10
356.870123987149
 20
219.7722521931962
 30
0.0
 10
356.4809938783796
 20
219.3178863369163
 30
0.0
 10
356.3028338703235
 20
218.7541922436752
 30
0.0
 10
356.3237956631415
 20
218.2210411398869
 30
0.0
 10
356.4898896172141
 20
217.9477713494043
 30
0.0
 10
356.5555680310102
 20
217.8397124710574
 30
0.0
  0
SPLINE
  5
B8
330
1F
100
AcDbEntity
  8
0
  6
Continuous
 62
     7
370
    15
100
AcDbSpline
210
0.0
220
0.0
230
1.0
 70
     8
 71
     3
 72
    10
 73
     6
 74
     0
 42
0.00000001
 43
0.00000001
 40
0.0
 40
0.0
 40
0.0
 40
0.0
 40
0.1474627692345064
 40
0.5737294769795925
 40
1.0
 40
1.0
 40
1.0
 40
1.0
 10
359.0821046149106
 20
219.358472347547
 30
0.0
 10
359.0540425878497
 20
219.4187663956855
 30
0.0
 10
358.9448624049992
 20
219.6533508462764
 30
0.0
 10
358.5598076234376
 20
219.9421746998183
 30
0.0
 10
358.1822798943535
 20
220.0280570240829
 30
0.0
 10
357.9935151850553
 20
220.0709983783855
 30
0.0
  0
SPLINE
  5
B9
330
1F
100
AcDbEntity
  8
0
  6
Continuous
 62
     7
370
    15
100
AcDbSpline
210
0.0
220
0.0
230
1.0
 70
     8
 71
     3
 72
    13
 73
     9
 74
     0
 42
0.00000001
 43
0.00000001
 40
0.0
 40
0.0
 40
0.0
 40
0.0
 40
0.1768612807734419
 40
0.353726469888211
 40
0.5305915141532597
 40
0.707454474607417
 40
0.8843186698085845
 40
1.0
 40
1.0
 40
1.0
 40
1.0
 10
357.9762894427152
 20
194.1949745717539
 30
0.0
 10
357.7796223164462
 20
194.1976653318686
 30
0.0
 10
357.3862837178908
 20
194.2030469115591
 30
0.0
 10
356.8528986777006
 20
194.4937221310872
 30
0.0
 10
356.4637682989477
 20
194.9480857895333
 30
0.0
 10
356.285607919781
 20
195.5117812919731
 30
0.0
 10
356.3065703118729
 20
196.0449327445414
 30
0.0
 10
356.4726638792018
 20
196.3182016902808
 30
0.0
 10
356.5383422886701
 20
196.4262604790821
 30
0.0
  0
SPLINE
  5
BA
330
1F
100
AcDbEntity
  8
0
  6
Continuous
 62
     7
370
    15
100
AcDbSpline
210
0.0
220
0.0
230
1.0
 70
     8
 71
     3
 72
    10
 73
     6
 74
     0
 42
0.00000001
 43
0.00000001
 40
0.0
 40
0.0
 40
0.0
 40
0.0
 40
0.1474573734895173
 40
0.573730886909061
 40
1.0
 40
1.0
 40
1.0
 40
1.0
 10
359.0648788725705
 20
194.9075006025924
 30
0.0
 10
359.0368223257072
 20
194.8472062466955
 30
0.0
 10
358.9276592019211
 20
194.6126114382726
 30
0.0
 10
358.5425792701033
 20
194.3238039788098
 30
0.0
 10
358.165052068986
 20
194.237917559674
 30
0.0
 10
357.9762894427152
 20
194.1949745717539
 30
0.0
  0
LINE
  5
BB
330
1F
100
AcDbEntity
  8
0
  6
Continuous
 62
     7
370
    15
100
AcDbLine
 10
352.6965249097
 20
211.0473459664
 30
0.0
 11
352.591725043
 21
211.0473459664
 31
0.0
  0
LINE
  5
BC
330
1F
100
AcDbEntity
  8
0
  6
Continuous
 62
     7
370
    15
100
AcDbLine
 10
352.6965249097
 20
202.44734614
 30
0.0
 11
352.591725043
 21
202.44734614
 31
0.0
  0
LINE
  5
BD
330
1F
100
AcDbEntity
  8
0
  6
Continuous
 62
     7
370
    15
100
AcDbLine
 10
358.0224681413
 20
214.3473459485
 30
0.0
 11
353.1965333735
 21
214.3473459485
 31
0.0
  0
LINE
  5
BE
330
1F
100
AcDbEntity
  8
0
  6
Continuous
 62
     7
370
    15
100
AcDbLine
 10
358.0408114707
 20
215.1473464522
 30
0.0
 11
353.19712942
 21
215.1473464522
 31
0.0
  0
LINE
  5
BF
330
1F
100
AcDbEntity
  8
0
  6
Continuous
 62
     7
370
    15
100
AcDbLine
 10
358.0624181544
 20
199.9473461959
 30
0.0
 11
353.1965333735
 21
199.9473461959
 31
0.0
  0
LINE
  5
C0
330
1F
100
AcDbEntity
  8
0
  6
Continuous
 62
     7
370
    15
100
AcDbLine
 10
358.0706882989
 20
199.1473456922
 30
0.0
 11
353.19712942
 21
199.1473456922
 31
0.0
  0
LINE
  5
C1
330
1F
100
AcDbEntity
  8
0
  6
Continuous
 62
     7
370
    15
100
AcDbLine
 10
356.7965347087
 20
215.4473459425
 30
0.0
 11
357.9598832642
 21
215.4473459425
 31
0.0
  0
LINE
  5
C2
330
1F
100
AcDbEntity
  8
0
  6
Continuous
 62
     7
370
    15
100
AcDbLine
 10
358.1230360782
 20
215.4473459425
 30
0.0
 11
358.1853825366
 21
215.4473459425
 31
0.0
  0
LINE
  5
C3
330
1F
100
AcDbEntity
  8
0
  6
Continuous
 62
     7
370
    15
100
AcDbLine
 10
354.59652727
 20
215.4473459425
 30
0.0
 11
356.7965347087
 21
215.4473459425
 31
0.0
  0
LINE
  5
C4
330
1F
100
AcDbEntity
  8
0
  6
Continuous
 62
     7
370
    15
100
AcDbLine
 10
356.7965347087
 20
198.3473461199
 30
0.0
 11
357.6600420987
 21
198.3473461199
 31
0.0
  0
LINE
  5
C5
330
1F
100
AcDbEntity
  8
0
  6
Continuous
 62
     7
370
    15
100
AcDbLine
 10
354.6965289628
 20
198.3473461199
 30
0.0
 11
356.7965347087
 21
198.3473461199
 31
0.0
  0
LINE
  5
C6
330
1F
100
AcDbEntity
  8
0
  6
Continuous
 62
     7
370
    15
100
AcDbLine
 10
356.7965347087
 20
198.7473463717
 30
0.0
 11
357.8999209916
 21
198.7473463717
 31
0.0
  0
LINE
  5
C7
330
1F
100
AcDbEntity
  8
0
  6
Continuous
 62
     7
370
    15
100
AcDbLine
 10
354.6965289628
 20
198.7473463717
 30
0.0
 11
356.7965347087
 21
198.7473463717
 31
0.0
  0
ARC
  5
C8
330
1F
100
AcDbEntity
  8
0
  6
Continuous
 62
     7
370
    15
100
AcDbCircle
 10
353.6622852254
 20
214.3496002174
 30
0.0
 40
0.8027149752665016
100
AcDbArc
 50
125.4660676113
 51
180.1609042628
  0
ARC
  5
C9
330
1F
100
AcDbEntity
  8
0
  6
Continuous
 62
     7
370
    15
100
AcDbCircle
 10
353.6622852254
 20
199.945091927
 30
0.0
 40
0.80271497526651
100
AcDbArc
 50
179.8390957372
 51
234.5339323888
  0
LINE
  5
CA
330
1F
100
AcDbEntity
  8
0
  6
Continuous
 62
     7
370
    15
100
AcDbLine
 10
353.6474127089
 20
200.3973458971
 30
0.0
 11
353.6474127089
 21
199.9473461959
 31
0.0
  0
LINE
  5
CB
330
1F
100
AcDbEntity
  8
0
  6
Continuous
 62
     7
370
    15
100
AcDbLine
 10
353.6474127089
 20
214.3473459485
 30
0.0
 11
353.6474127089
 21
213.8973462473
 31
0.0
  0
LINE
  5
CC
330
1F
100
AcDbEntity
  8
0
  6
Continuous
 62
     7
370
    15
100
AcDbLine
 10
352.8595734155
 20
213.1189039986
 30
0.0
 11
352.8595734155
 21
214.3473459485
 31
0.0
  0
LINE
  5
CD
330
1F
100
AcDbEntity
  8
0
  6
Continuous
 62
     7
370
    15
100
AcDbLine
 10
352.8595734155
 20
199.9473461959
 30
0.0
 11
352.8595734155
 21
201.1757881458
 31
0.0
  0
LINE
  5
CE
330
1F
100
AcDbEntity
  8
0
  6
Continuous
 62
     7
370
    15
100
AcDbLine
 10
762.5978905475
 20
62.1473502445
 30
0.0
 11
762.5978905475
 21
27.1473389196
 31
0.0
  0
LINE
  5
CF
330
1F
100
AcDbEntity
  8
0
  6
Continuous
 62
     7
370
    15
100
AcDbLine
 10
773.1965351617
 20
62.1473502445
 30
0.0
 11
762.5978905475
 21
62.1473502445
 31
0.0
  0
LINE
  5
D0
330
1F
100
AcDbEntity
  8
0
  6
Continuous
 62
     7
370
    15
100
AcDbLine
 10
773.1965351617
 20
27.1473389196
 30
0.0
 11
762.5978905475
 21
27.1473389196
 31
0.0
  0
LINE
  5
D1
330
1F
100
AcDbEntity
  8
0
  6
Continuous
 62
     7
370
    15
100
AcDbLine
 10
762.5978905475
 20
387.1473532247
 30
0.0
 11
762.5978905475
 21
352.1473418999
 31
0.0
  0
LINE
  5
D2
330
1F
100
AcDbEntity
  8
0
  6
Continuous
 62
     7
370
    15
100
AcDbLine
 10
773.1965351617
 20
352.1473418999
 30
0.0
 11
762.5978905475
 21
352.1473418999
 31
0.0
  0
LINE
  5
D3
330
1F
100
AcDbEntity
  8
0
  6
Continuous
 62
     7
370
    15
100
AcDbLine
 10
773.1965351617
 20
387.1473532247
 30
0.0
 11
762.5978905475
 21
387.1473532247
 31
0.0
  0
LINE
  5
D4
330
1F
100
AcDbEntity
  8
0
  6
Continuous
 62
     7
370
    15
100
AcDbLine
 10
770.196529082
 20
99.1473432708
 30
0.0
 11
765.1965338504
 21
99.1473432708
 31
0.0
  0
LINE
  5
D5
330
1F
100
AcDbEntity
  8
0
  6
Continuous
 62
     7
370
    15
100
AcDbLine
 10
765.1965338504
 20
315.1473488736
 30
0.0
 11
770.196529082
 21
315.1473488736
 31
0.0
  0
LINE
  5
D6
330
1F
100
AcDbEntity
  8
0
  6
Continuous
 62
     7
370
    15
100
AcDbLine
 10
762.1343750274
 20
27.1473389196
 30
0.0
 11
762.1343750274
 21
62.1473502445
 31
0.0
  0
LINE
  5
D7
330
1F
100
AcDbEntity
  8
0
  6
Continuous
 62
     7
370
    15
100
AcDbLine
 10
762.1343750274
 20
62.1473502445
 30
0.0
 11
762.5978905475
 21
62.1473502445
 31
0.0
  0
LINE
  5
D8
330
1F
100
AcDbEntity
  8
0
  6
Continuous
 62
     7
370
    15
100
AcDbLine
 10
762.5978905475
 20
27.1473389196
 30
0.0
 11
762.1343750274
 21
27.1473389196
 31
0.0
  0
LINE
  5
D9
330
1F
100
AcDbEntity
  8
0
  6
Continuous
 62
     7
370
    15
100
AcDbLine
 10
762.1343750274
 20
352.1473418999
 30
0.0
 11
762.1343750274
 21
387.1473532247
 31
0.0
  0
LINE
  5
DA
330
1F
100
AcDbEntity
  8
0
  6
Continuous
 62
     7
370
    15
100
AcDbLine
 10
762.5978905475
 20
352.1473418999
 30
0.0
 11
762.1343750274
 21
352.1473418999
 31
0.0
  0
LINE
  5
DB
330
1F
100
AcDbEntity
  8
0
  6
Continuous
 62
     7
370
    15
100
AcDbLine
 10
762.1343750274
 20
387.1473532247
 30
0.0
 11
762.5978905475
 21
387.1473532247
 31
0.0
  0
LINE
  5
DC
330
1F
100
AcDbEntity
  8
0
  6
Continuous
 62
     7
370
    15
100
AcDbLine
 10
762.1343750274
 20
352.1473418999
 30
0.0
 11
761.696534208
 21
352.1473418999
 31
0.0
  0
LINE
  5
DD
330
1F
100
AcDbEntity
  8
0
  6
Continuous
 62
     7
370
    15
100
AcDbLine
 10
762.1343750274
 20
387.1473532247
 30
0.0
 11
761.696534208
 21
387.1473532247
 31
0.0
  0
LINE
  5
DE
330
1F
100
AcDbEntity
  8
0
  6
Continuous
 62
     7
370
    15
100
AcDbLine
 10
762.1343750274
 20
62.1473502445
 30
0.0
 11
761.696534208
 21
62.1473502445
 31
0.0
  0
LINE
  5
DF
330
1F
100
AcDbEntity
  8
0
  6
Continuous
 62
     7
370
    15
100
AcDbLine
 10
762.1343750274
 20
27.1473389196
 30
0.0
 11
761.696534208
 21
27.1473389196
 31
0.0
  0
LINE
  5
E0
330
1F
100
AcDbEntity
  8
0
  6
Continuous
 62
     7
370
    15
100
AcDbLine
 10
356.4965296304
 20
200.3973458971
 30
0.0
 11
358.0560404574
 21
200.3973458971
 31
0.0
  0
LINE
  5
E1
330
1F
100
AcDbEntity
  8
0
  6
Continuous
 62
     7
370
    15
100
AcDbLine
 10
356.4965296304
 20
213.8973462473
 30
0.0
 11
358.0566067016
 21
213.8973462473
 31
0.0
  0
LINE
  5
E2
330
1F
100
AcDbEntity
  8
0
  6
Continuous
 62
     7
370
    15
100
AcDbLine
 10
356.4965296304
 20
200.3973458971
 30
0.0
 11
353.3965367591
 21
200.3973458971
 31
0.0
  0
LINE
  5
E3
330
1F
100
AcDbEntity
  8
0
  6
Continuous
 62
     7
370
    15
100
AcDbLine
 10
356.4965296304
 20
213.8973462473
 30
0.0
 11
353.3965367591
 21
213.8973462473
 31
0.0
  0
LINE
  5
E4
330
1F
100
AcDbEntity
  8
0
  6
Continuous
 62
     8
370
    15
100
AcDbLine
 10
356.4965296304
 20
200.6473459381
 30
0.0
 11
356.4965296304
 21
200.3973458971
 31
0.0
  0
LINE
  5
E5
330
1F
100
AcDbEntity
  8
0
  6
Continuous
 62
     8
370
    15
100
AcDbLine
 10
356.4965296304
 20
213.8973462473
 30
0.0
 11
356.4965296304
 21
213.6473462063
 31
0.0
  0
LINE
  5
E6
330
1F
100
AcDbEntity
  8
0
  6
Continuous
 62
     7
370
    15
100
AcDbLine
 10
234.1274558971
 20
213.6473462063
 30
0.0
 11
234.1274558971
 21
200.6473459381
 31
0.0
  0
SPLINE
  5
E7
330
1F
100
AcDbEntity
  8
0
  6
Continuous
 62
     7
370
    15
100
AcDbSpline
210
0.0
220
0.0
230
1.0
 70
     8
 71
     3
 72
    15
 73
    11
 74
     0
 42
0.00000001
 43
0.00000001
 40
0.0
 40
0.0
 40
0.0
 40
0.0
 40
0.1356020697477454
 40
0.2953298537971245
 40
0.4038071763059135
 40
0.5319604563897418
 40
0.673841799752955
 40
0.8261089327295112
 40
0.9126121771622892
 40
1.0
 40
1.0
 40
1.0
 40
1.0
 10
223.1074585983368
 20
201.7133913080289
 30
0.0
 10
223.1518400711314
 20
201.7060682005974
 30
0.0
 10
223.2484991700383
 20
201.6901190911841
 30
0.0
 10
223.4553503087994
 20
201.7377849958572
 30
0.0
 10
223.6486106571228
 20
201.8255161704009
 30
0.0
 10
223.7951992658685
 20
201.9451745533668
 30
0.0
 10
223.8939029251288
 20
202.0960715321218
 30
0.0
 10
223.9235707187848
 20
202.2179077327341
 30
0.0
 10
223.9023768811761
 20
202.347170367789
 30
0.0
 10
223.8561269697791
 20
202.4138411651691
 30
0.0
 10
223.8328843781563
 20
202.4473461399867
 30
0.0
  0
SPLINE
  5
E8
330
1F
100
AcDbEntity
  8
0
  6
Continuous
 62
     7
370
    15
100
AcDbSpline
210
0.0
220
0.0
230
1.0
 70
     8
 71
     3
 72
    20
 73
    16
 74
     0
 42
0.00000001
 43
0.00000001
 40
0.0
 40
0.0
 40
0.0
 40
0.0
 40
0.0607085806041512
 40
0.2265340369978799
 40
0.3908033180562259
 40
0.4705947072635677
 40
0.5476202542388329
 40
0.6228557433873007
 40
0.7003370172864999
 40
0.7786471146609508
 40
0.8566575290901528
 40
0.9330984415649892
 40
0.9703707141490432
 40
0.9892323149454911
 40
1.0
 40
1.0
 40
1.0
 40
1.0
 10
219.371260649881
 20
202.4473461399867
 30
0.0
 10
219.4175352108279
 20
202.3940127424963
 30
0.0
 10
219.5902087109707
 20
202.1949991974572
 30
0.0
 10
220.0071821240691
 20
202.1770724443683
 30
0.0
 10
220.5721365781637
 20
202.1020494818382
 30
0.0
 10
221.0917492939064
 20
202.0591072985582
 30
0.0
 10
221.4856403660544
 20
202.0285567385884
 30
0.0
 10
221.8785507884319
 20
202.0008732466691
 30
0.0
 10
222.2597128574018
 20
201.9695667634635
 30
0.0
 10
222.6154388667629
 20
201.9370937417133
 30
0.0
 10
222.9180630371987
 20
201.9062684075923
 30
0.0
 10
223.1105717413803
 20
201.8833656295515
 30
0.0
 10
223.1986992690337
 20
201.8753376984016
 30
0.0
 10
223.2441237712227
 20
201.8675439471522
 30
0.0
 10
223.2435669833012
 20
201.8715023115091
 30
0.0
 10
223.2433646390053
 20
201.8729408348991
 30
0.0
  0
SPLINE
  5
E9
330
1F
100
AcDbEntity
  8
0
  6
Continuous
 62
     7
370
    15
100
AcDbSpline
210
0.0
220
0.0
230
1.0
 70
     8
 71
     3
 72
    18
 73
    14
 74
     0
 42
0.00000001
 43
0.00000001
 40
0.0
 40
0.0
 40
0.0
 40
0.0
 40
0.0057535982135415
 40
0.1156377242154852
 40
0.2383932268128284
 40
0.359308556936928
 40
0.4757046853877381
 40
0.5872131392277756
 40
0.7047315200334028
 40
0.8264988174978832
 40
0.8891456968437458
 40
0.9517930526448382
 40
1.0
 40
1.0
 40
1.0
 40
1.0
 10
223.6140757271858
 20
211.0941700714721
 30
0.0
 10
223.6094285641502
 20
211.0971235483144
 30
0.0
 10
223.5160283409255
 20
211.1564835049686
 30
0.0
 10
223.2936663773631
 20
211.1626670087996
 30
0.0
 10
222.9022842294968
 20
211.2218638109538
 30
0.0
 10
222.3904027375091
 20
211.267410040046
 30
0.0
 10
221.8393720212166
 20
211.3135620807725
 30
0.0
 10
221.2772562331119
 20
211.3524582217893
 30
0.0
 10
220.7429838659909
 20
211.3971876240171
 30
0.0
 10
220.3453312027231
 20
211.4382597205141
 30
0.0
 10
220.1306178129082
 20
211.4593797096063
 30
0.0
 10
220.034545936103
 20
211.4616691239576
 30
0.0
 10
220.0191104183349
 20
211.4455939850158
 30
0.0
 10
220.0123980114075
 20
211.4386034275486
 30
0.0
  0
SPLINE
  5
EA
330
1F
100
AcDbEntity
  8
0
  6
Continuous
 62
     7
370
    15
100
AcDbSpline
210
0.0
220
0.0
230
1.0
 70
     8
 71
     3
 72
    12
 73
     8
 74
     0
 42
0.00000001
 43
0.00000001
 40
0.0
 40
0.0
 40
0.0
 40
0.0
 40
0.2236729820054967
 40
0.4523097742282867
 40
0.6822372678484837
 40
0.9102273613192214
 40
1.0
 40
1.0
 40
1.0
 40
1.0
 10
219.3131610223862
 20
212.2491967941715
 30
0.0
 10
219.3004256033638
 20
212.2066488665225
 30
0.0
 10
219.2746721375179
 20
212.1206087763145
 30
0.0
 10
219.3957951425033
 20
212.0289937244307
 30
0.0
 10
219.6274764451666
 20
211.9326883614311
 30
0.0
 10
219.8723328851835
 20
211.8701973030901
 30
0.0
 10
220.0556657440742
 20
211.8754174460216
 30
0.0
 10
220.1074599692436
 20
211.8768922130658
 30
0.0
  0
SPLINE
  5
EB
330
1F
100
AcDbEntity
  8
0
  6
Continuous
 62
     7
370
    15
100
AcDbSpline
210
0.0
220
0.0
230
1.0
 70
     8
 71
     3
 72
    19
 73
    15
 74
     0
 42
0.00000001
 43
0.00000001
 40
0.0
 40
0.0
 40
0.0
 40
0.0
 40
0.0979033461140013
 40
0.1753767258512808
 40
0.2884821220827502
 40
0.3734524649498238
 40
0.4570021434395499
 40
0.6168865294898215
 40
0.679665710597983
 40
0.7634253193335143
 40
0.8137536452962887
 40
0.8702971820376518
 40
0.9323988135077979
 40
1.0
 40
1.0
 40
1.0
 40
1.0
 10
219.4893970558258
 20
211.7540661322965
 30
0.0
 10
219.5399041602905
 20
211.7276891378882
 30
0.0
 10
219.6303788066107
 20
211.6804393645071
 30
0.0
 10
220.0050222244479
 20
211.6197907312533
 30
0.0
 10
220.491534628459
 20
211.5659039559741
 30
0.0
 10
221.0828625196491
 20
211.5126704334965
 30
0.0
 10
221.8369651665236
 20
211.4611207933328
 30
0.0
 10
222.4780551101206
 20
211.3941765160791
 30
0.0
 10
223.1273328587291
 20
211.3586575952513
 30
0.0
 10
223.5056546487871
 20
211.436841598327
 30
0.0
 10
223.7575235966297
 20
211.5450454302955
 30
0.0
 10
223.8911084955943
 20
211.6333814180666
 30
0.0
 10
223.9528702404046
 20
211.707224920896
 30
0.0
 10
223.8814342770281
 20
211.7877399467594
 30
0.0
 10
223.844201810083
 20
211.8297044265165
 30
0.0
  0
SPLINE
  5
EC
330
1F
100
AcDbEntity
  8
0
  6
Continuous
 62
     7
370
    15
100
AcDbSpline
210
0.0
220
0.0
230
1.0
 70
     8
 71
     3
 72
    25
 73
    21
 74
     0
 42
0.00000001
 43
0.00000001
 40
0.0
 40
0.0
 40
0.0
 40
0.0
 40
0.0176268869902508
 40
0.0344980441856529
 40
0.0503151177816487
 40
0.0649738214219473
 40
0.0909458622065212
 40
0.1134394932922148
 40
0.1538404992325488
 40
0.1912347399242825
 40
0.2995718540016348
 40
0.3999645412880792
 40
0.5012966809060265
 40
0.5949070728825703
 40
0.6784881571327293
 40
0.7336302056751591
 40
0.8075209229184616
 40
0.8952853068742985
 40
0.9453086546988192
 40
1.0
 40
1.0
 40
1.0
 40
1.0
 10
223.4868794152351
 20
211.2041224802925
 30
0.0
 10
223.5265900778942
 20
211.2085169313401
 30
0.0
 10
223.6043088603322
 20
211.2171174270766
 30
0.0
 10
223.7061887856955
 20
211.2631206594594
 30
0.0
 10
223.787203977877
 20
211.3220799509881
 30
0.0
 10
223.8634059497905
 20
211.4056559039329
 30
0.0
 10
223.9164550273005
 20
211.5093021639629
 30
0.0
 10
223.9406157348989
 20
211.6416357467581
 30
0.0
 10
223.9177241962458
 20
211.7735041477131
 30
0.0
 10
223.7464888343416
 20
212.0187136789957
 30
0.0
 10
223.4036939212616
 20
212.1057959131594
 30
0.0
 10
222.9085816675963
 20
212.1643506658129
 30
0.0
 10
222.2953688307848
 20
212.2227080588913
 30
0.0
 10
221.6459010048289
 20
212.2723301326262
 30
0.0
 10
221.106199565227
 20
212.3118116724209
 30
0.0
 10
220.6601906554663
 20
212.3509880686827
 30
0.0
 10
220.2714824884383
 20
212.3892160594844
 30
0.0
 10
220.0113348478742
 20
212.4170576409122
 30
0.0
 10
219.8808882070268
 20
212.4395528590584
 30
0.0
 10
219.8722249897787
 20
212.4520154865448
 30
0.0
 10
219.8677002856346
 20
212.4585245813324
 30
0.0
  0
SPLINE
  5
ED
330
1F
100
AcDbEntity
  8
0
  6
Continuous
 62
     7
370
    15
100
AcDbSpline
210
0.0
220
0.0
230
1.0
 70
     8
 71
     3
 72
    12
 73
     8
 74
     0
 42
0.00000001
 43
0.00000001
 40
0.0
 40
0.0
 40
0.0
 40
0.0
 40
0.1756476026937465
 40
0.5723156357634481
 40
0.7586165168330588
 40
0.9207514297076087
 40
1.0
 40
1.0
 40
1.0
 40
1.0
 10
219.9560269186111
 20
211.6400368589057
 30
0.0
 10
219.8904629732306
 20
211.6308655414958
 30
0.0
 10
219.6768348308126
 20
211.6009824786257
 30
0.0
 10
219.460930005686
 20
211.5270519574121
 30
0.0
 10
219.2997683634795
 20
211.3121164162836
 30
0.0
 10
219.2685570999959
 20
211.151898937647
 30
0.0
 10
219.2995339489719
 20
211.0732356820476
 30
0.0
 10
219.3097039529892
 20
211.0474097619845
 30
0.0
  0
LINE
  5
EE
330
1F
100
AcDbEntity
  8
0
  6
Continuous
 62
     7
370
    15
100
AcDbLine
 10
219.4672166774
 20
202.3496056984
 30
0.0
 11
218.3487578699
 21
202.3496056984
 31
0.0
  0
LINE
  5
EF
330
1F
100
AcDbEntity
  8
0
  6
Continuous
 62
     7
370
    15
100
AcDbLine
 10
218.3487578699
 20
201.5496061261
 30
0.0
 11
220.1074599692
 21
201.5496061261
 31
0.0
  0
LINE
  5
F0
330
1F
100
AcDbEntity
  8
0
  6
Continuous
 62
     7
370
    15
100
AcDbLine
 10
216.9384672711
 20
215.1473464522
 30
0.0
 11
216.9384672711
 21
215.2008164751
 31
0.0
  0
LINE
  5
F1
330
1F
100
AcDbEntity
  8
0
  6
Continuous
 62
     7
370
    15
100
AcDbLine
 10
213.938468642
 20
215.2008164751
 30
0.0
 11
213.938468642
 21
215.1473464522
 31
0.0
  0
SPLINE
  5
F2
330
1F
100
AcDbEntity
  8
0
  6
Continuous
 62
     7
370
    15
100
AcDbSpline
210
0.0
220
0.0
230
1.0
 70
     8
 71
     3
 72
    15
 73
    11
 74
     0
 42
0.00000001
 43
0.00000001
 40
0.0
 40
0.0
 40
0.0
 40
0.0
 40
0.1077551036863209
 40
0.235250774724543
 40
0.3627908901706017
 40
0.4902566411288575
 40
0.6176624605260265
 40
0.7450971317547226
 40
0.8724965622541917
 40
1.0
 40
1.0
 40
1.0
 40
1.0
 10
213.9545246431442
 20
199.1473456922068
 30
0.0
 10
213.9710645760507
 20
198.8348249289976
 30
0.0
 10
214.0071745318397
 20
198.1525300849733
 30
0.0
 10
214.3433747137787
 20
197.143376351
 30
0.0
 10
214.9014617211107
 20
196.1798979976953
 30
0.0
 10
215.6562920429755
 20
195.3589790601404
 30
0.0
 10
216.5714475236527
 20
194.7237005238111
 30
0.0
 10
217.5987062388087
 20
194.3035446079817
 30
0.0
 10
218.6946878595327
 20
194.0897362433783
 30
0.0
 10
219.4304471775002
 20
194.1552668562394
 30
0.0
 10
219.7984769413086
 20
194.1880455317988
 30
0.0
  0
SPLINE
  5
F3
330
1F
100
AcDbEntity
  8
0
  6
Continuous
 62
     7
370
    15
100
AcDbSpline
210
0.0
220
0.0
230
1.0
 70
     8
 71
     3
 72
    15
 73
    11
 74
     0
 42
0.00000001
 43
0.00000001
 40
0.0
 40
0.0
 40
0.0
 40
0.0
 40
0.13165152765372
 40
0.2633126517915331
 40
0.3951894494802554
 40
0.5266690080863677
 40
0.6575465462284578
 40
0.7882125285852056
 40
0.9184593483091296
 40
1.0
 40
1.0
 40
1.0
 40
1.0
 10
219.3007856080147
 20
197.1457304510369
 30
0.0
 10
219.14860162888
 20
197.1339161185333
 30
0.0
 10
218.8442225774533
 20
197.1102865923431
 30
0.0
 10
218.3933647306379
 20
197.21176653446
 30
0.0
 10
217.9743345359841
 20
197.3986172065117
 30
0.0
 10
217.6039414600258
 20
197.6712142229674
 30
0.0
 10
217.3016800791693
 20
198.0171246370921
 30
0.0
 10
217.0825227655365
 20
198.4188327799021
 30
0.0
 10
216.9651497669705
 20
198.8051458513885
 30
0.0
 10
216.9549758349805
 20
199.0522194638268
 30
0.0
 10
216.9510587522598
 20
199.1473456922068
 30
0.0
  0
SPLINE
  5
F4
330
1F
100
AcDbEntity
  8
0
  6
Continuous
 62
     7
370
    15
100
AcDbSpline
210
0.0
220
0.0
230
1.0
 70
     8
 71
     3
 72
    15
 73
    11
 74
     0
 42
0.00000001
 43
0.00000001
 40
0.0
 40
0.0
 40
0.0
 40
0.0
 40
0.1249271214721239
 40
0.2499164818036735
 40
0.3749670227679549
 40
0.4999570499749355
 40
0.6249205129505147
 40
0.7499166961711446
 40
0.8748739392863579
 40
1.0
 40
1.0
 40
1.0
 40
1.0
 10
219.9693485567184
 20
220.0778668823733
 30
0.0
 10
219.6029718973137
 20
220.1211987389471
 30
0.0
 10
218.8700360491612
 20
220.2078840400837
 30
0.0
 10
217.7660099715729
 20
220.0426942983854
 30
0.0
 10
216.725210679455
 20
219.6537634990375
 30
0.0
 10
215.7900217026148
 20
219.0487490018681
 30
0.0
 10
215.0093781939675
 20
218.2525551576624
 30
0.0
 10
214.4214158665855
 20
217.3081918820236
 30
0.0
 10
214.0255795507756
 20
216.2597494092291
 30
0.0
 10
213.9675186761404
 20
215.5206271568356
 30
0.0
 10
213.9384686419579
 20
215.1508165600791
 30
0.0
  0
SPLINE
  5
F5
330
1F
100
AcDbEntity
  8
0
  6
Continuous
 62
     7
370
    15
100
AcDbSpline
210
0.0
220
0.0
230
1.0
 70
     8
 71
     3
 72
    15
 73
    11
 74
     0
 42
0.00000001
 43
0.00000001
 40
0.0
 40
0.0
 40
0.0
 40
0.0
 40
0.1242532604422722
 40
0.2486330675825304
 40
0.3735413482506271
 40
0.4985832518969759
 40
0.6236637152450767
 40
0.7490698239710455
 40
0.8744383580209767
 40
0.9999999999999999
 40
0.9999999999999999
 40
0.9999999999999999
 40
0.9999999999999999
 10
216.938467271051
 20
215.1508165600791
 30
0.0
 10
216.9520277691467
 20
215.3027724573422
 30
0.0
 10
216.9791625761329
 20
215.6068390125321
 30
0.0
 10
217.1536195377226
 20
216.0341585830172
 30
0.0
 10
217.4069519793883
 20
216.4157978171398
 30
0.0
 10
217.7367759435149
 20
216.7357281125267
 30
0.0
 10
218.1277021301571
 20
216.9763040713196
 30
0.0
 10
218.5604001969103
 20
217.1279278998976
 30
0.0
 10
219.017932048604
 20
217.1813853655249
 30
0.0
 10
219.3198512780546
 20
217.1406953597805
 30
0.0
 10
219.470927066526
 20
217.1203347000374
 30
0.0
  0
LINE
  5
F6
330
1F
100
AcDbEntity
  8
0
  6
Continuous
 62
     7
370
    15
100
AcDbLine
 10
234.8415344426
 20
199.7624828558
 30
0.0
 11
219.3005620906
 21
197.1460647958
 31
0.0
  0
LINE
  5
F7
330
1F
100
AcDbEntity
  8
0
  6
Continuous
 62
     7
370
    15
100
AcDbLine
 10
219.7986185023
 20
194.1876972172
 30
0.0
 11
235.3395908544
 21
196.8041157427
 31
0.0
  0
LINE
  5
F8
330
1F
100
AcDbEntity
  8
0
  6
Continuous
 62
     7
370
    15
100
AcDbLine
 10
219.4711431334
 20
217.1199090856
 30
0.0
 11
235.0121080348
 21
214.5034900944
 31
0.0
  0
LINE
  5
F9
330
1F
100
AcDbEntity
  8
0
  6
Continuous
 62
     7
370
    15
100
AcDbLine
 10
235.5101793477
 20
217.4618572074
 30
0.0
 11
219.9692069957
 21
220.078275733
 31
0.0
  0
SPLINE
  5
FA
330
1F
100
AcDbEntity
  8
0
  6
Continuous
 62
     7
370
    15
100
AcDbSpline
210
0.0
220
0.0
230
1.0
 70
     8
 71
     3
 72
    12
 73
     8
 74
     0
 42
0.00000001
 43
0.00000001
 40
0.0
 40
0.0
 40
0.0
 40
0.0
 40
0.1526139307072609
 40
0.2973908392825297
 40
0.5623711728146452
 40
0.7966022742850417
 40
0.9999999999999999
 40
0.9999999999999999
 40
0.9999999999999999
 40
0.9999999999999999
 10
235.3392481276604
 20
196.8044249418272
 30
0.0
 10
235.5904677488288
 20
196.8571630170687
 30
0.0
 10
236.0800063750689
 20
196.9599309648276
 30
0.0
 10
236.9295281997375
 20
197.3891764319121
 30
0.0
 10
237.7415233837628
 20
198.1335664677007
 30
0.0
 10
238.3059481736665
 20
199.204614140237
 30
0.0
 10
238.3876388695809
 20
199.9395380817159
 30
0.0
 10
238.4256064364525
 20
200.2811103205277
 30
0.0
  0
SPLINE
  5
FB
330
1F
100
AcDbEntity
  8
0
  6
Continuous
 62
     7
370
    15
100
AcDbSpline
210
0.0
220
0.0
230
1.0
 70
     8
 71
     3
 72
    11
 73
     7
 74
     0
 42
0.00000001
 43
0.00000001
 40
0.0
 40
0.0
 40
0.0
 40
0.0
 40
0.200353644134469
 40
0.4328004438907008
 40
0.6990211869197542
 40
1.0
 40
1.0
 40
1.0
 40
1.0
 10
235.4272990891548
 20
200.2811103205277
 30
0.0
 10
235.4140714782687
 20
200.2246836973493
 30
0.0
 10
235.3854974241862
 20
200.1027918911663
 30
0.0
 10
235.269612829895
 20
199.9370905767767
 30
0.0
 10
235.0848534878012
 20
199.7981850984406
 30
0.0
 10
234.9272313992357
 20
199.7747958654789
 30
0.0
 10
234.8435908028694
 20
199.7623846012249
 30
0.0
  0
SPLINE
  5
FC
330
1F
100
AcDbEntity
  8
0
  6
Continuous
 62
     7
370
    15
100
AcDbSpline
210
0.0
220
0.0
230
1.0
 70
     8
 71
     3
 72
    12
 73
     8
 74
     0
 42
0.00000001
 43
0.00000001
 40
0.0
 40
0.0
 40
0.0
 40
0.0
 40
0.2034063295255029
 40
0.4376409556918522
 40
0.7026161450413805
 40
0.8473900579471296
 40
1.0
 40
1.0
 40
1.0
 40
1.0
 10
238.4256064364525
 20
213.8397411520674
 30
0.0
 10
238.404172308193
 20
214.1827503400972
 30
0.0
 10
238.3580554916821
 20
214.9207552449133
 30
0.0
 10
237.8459350757154
 20
216.0178600074629
 30
0.0
 10
237.0707335528088
 20
216.8006180635001
 30
0.0
 10
236.2428811851588
 20
217.2703467314377
 30
0.0
 10
235.7588927901826
 20
217.3966077830357
 30
0.0
 10
235.5105220744225
 20
217.461401790668
 30
0.0
  0
SPLINE
  5
FD
330
1F
100
AcDbEntity
  8
0
  6
Continuous
 62
     7
370
    15
100
AcDbSpline
210
0.0
220
0.0
230
1.0
 70
     8
 71
     3
 72
    12
 73
     8
 74
     0
 42
0.00000001
 43
0.00000001
 40
0.0
 40
0.0
 40
0.0
 40
0.0
 40
0.1555469387593176
 40
0.3021967960522135
 40
0.5679618796206853
 40
0.7999449029016247
 40
1.0
 40
1.0
 40
1.0
 40
1.0
 10
235.0102006861778
 20
214.5044083784415
 30
0.0
 10
235.050742300403
 20
214.4886585001037
 30
0.0
 10
235.1295066015417
 20
214.4580596158707
 30
0.0
 10
235.2591354503013
 20
214.3630173294995
 30
0.0
 10
235.3735639121564
 20
214.2168427471653
 30
0.0
 10
235.4377208707644
 20
214.0225928074704
 30
0.0
 10
235.4305975433609
 20
213.8976130049283
 30
0.0
 10
235.4272990891548
 20
213.8397411520674
 30
0.0
  0
LINE
  5
FE
330
1F
100
AcDbEntity
  8
0
  6
Continuous
 62
     7
370
    15
100
AcDbLine
 10
235.426449723
 20
213.8897410671
 30
0.0
 11
235.426449723
 21
213.6473462063
 31
0.0
  0
LINE
  5
FF
330
1F
100
AcDbEntity
  8
0
  6
Continuous
 62
     7
370
    15
100
AcDbLine
 10
235.426449723
 20
200.6473459381
 30
0.0
 11
235.426449723
 21
200.2311104055
 31
0.0
  0
LINE
  5
100
330
1F
100
AcDbEntity
  8
0
  6
Continuous
 62
     7
370
    15
100
AcDbLine
 10
238.4264558026
 20
200.2311104055
 30
0.0
 11
238.4264558026
 21
200.6500905457
 31
0.0
  0
LINE
  5
101
330
1F
100
AcDbEntity
  8
0
  6
Continuous
 62
     7
370
    15
100
AcDbLine
 10
238.4264558026
 20
213.6446015987
 30
0.0
 11
238.4264558026
 21
213.8897410671
 31
0.0
  0
LINE
  5
102
330
1F
100
AcDbEntity
  8
0
  6
Continuous
 62
     7
370
    15
100
AcDbLine
 10
224.7257321546
 20
212.7473458725
 30
0.0
 11
223.1074585983
 21
212.7473458725
 31
0.0
  0
LINE
  5
103
330
1F
100
AcDbEntity
  8
0
  6
Continuous
 62
     7
370
    15
100
AcDbLine
 10
223.7343802521
 20
211.9473463002
 30
0.0
 11
224.7257321546
 21
211.9473463002
 31
0.0
  0
LINE
  5
104
330
1F
100
AcDbEntity
  8
0
  6
Continuous
 62
     7
370
    15
100
AcDbLine
 10
225.0639587113
 20
214.0154849815
 30
0.0
 11
224.7974365422
 21
212.8072378303
 31
0.0
  0
LINE
  5
105
330
1F
100
AcDbEntity
  8
0
  6
Continuous
 62
     7
370
    15
100
AcDbLine
 10
225.5655914018
 20
212.5756877552
 30
0.0
 11
225.8451744387
 21
213.8431572433
 31
0.0
  0
SPLINE
  5
106
330
1F
100
AcDbEntity
  8
0
  6
Continuous
 62
     7
370
    15
100
AcDbSpline
210
0.0
220
0.0
230
1.0
 70
     8
 71
     3
 72
    11
 73
     7
 74
     0
 42
0.00000001
 43
0.00000001
 40
0.0
 40
0.0
 40
0.0
 40
0.0
 40
0.2541309399275824
 40
0.5022690019548702
 40
0.7495126202113759
 40
1.0
 40
1.0
 40
1.0
 40
1.0
 10
224.7257321545692
 20
211.9473463001742
 30
0.0
 10
224.8258208990043
 20
211.9575924116524
 30
0.0
 10
225.0236381100398
 20
211.9778430123371
 30
0.0
 10
225.2817834362379
 20
212.1318755001069
 30
0.0
 10
225.4852324220735
 20
212.350949632804
 30
0.0
 10
225.5469709034228
 20
212.5379994166641
 30
0.0
 10
225.5780413219543
 20
212.6321338194503
 30
0.0
  0
LINE
  5
107
330
1F
100
AcDbEntity
  8
0
  6
Continuous
 62
     7
370
    15
100
AcDbLine
 10
224.3374600479
 20
199.1473456922
 30
0.0
 11
224.3374600479
 21
199.9473461959
 31
0.0
  0
LINE
  5
108
330
1F
100
AcDbEntity
  8
0
  6
Continuous
 62
     7
370
    15
100
AcDbLine
 10
224.3374600479
 20
214.3473459485
 30
0.0
 11
224.3374600479
 21
215.1473464522
 31
0.0
  0
ARC
  5
109
330
1F
100
AcDbEntity
  8
0
  6
Continuous
 62
     7
370
    15
100
AcDbCircle
 10
221.6074593064
 20
212.3402032151
 30
0.0
 40
3.807142857143189
100
AcDbArc
 50
54.6997515601
 51
125.3002484399
  0
LINE
  5
10A
330
1F
100
AcDbEntity
  8
0
  6
Continuous
 62
     7
370
    15
100
AcDbLine
 10
219.407463021
 20
215.4473459425
 30
0.0
 11
219.407463021
 21
215.1473464522
 31
0.0
  0
LINE
  5
10B
330
1F
100
AcDbEntity
  8
0
  6
Continuous
 62
     7
370
    15
100
AcDbLine
 10
223.8074629972
 20
215.1473464522
 30
0.0
 11
223.8074629972
 21
215.4473459425
 31
0.0
  0
LINE
  5
10C
330
1F
100
AcDbEntity
  8
0
  6
Continuous
 62
     7
370
    15
100
AcDbLine
 10
219.5074572632
 20
198.7473463717
 30
0.0
 11
219.5074572632
 21
198.3473461199
 31
0.0
  0
LINE
  5
10D
330
1F
100
AcDbEntity
  8
0
  6
Continuous
 62
     7
370
    15
100
AcDbLine
 10
223.7074613044
 20
198.3473461199
 30
0.0
 11
223.7074613044
 21
198.7473463717
 31
0.0
  0
ARC
  5
10E
330
1F
100
AcDbEntity
  8
0
  6
Continuous
 62
     7
370
    15
100
AcDbCircle
 10
219.7074593064
 20
199.1473460722
 30
0.0
 40
0.4000000000007731
100
AcDbArc
 50
270.0
 51
0.0
  0
ARC
  5
10F
330
1F
100
AcDbEntity
  8
0
  6
Continuous
 62
     7
370
    15
100
AcDbCircle
 10
223.5074593064
 20
199.1473460722
 30
0.0
 40
0.4000000000007731
100
AcDbArc
 50
180.0
 51
270.0
  0
LINE
  5
110
330
1F
100
AcDbEntity
  8
0
  6
Continuous
 62
     7
370
    15
100
AcDbLine
 10
220.1074599692
 20
214.3473459485
 30
0.0
 11
220.1074599692
 21
213.8973462473
 31
0.0
  0
LINE
  5
111
330
1F
100
AcDbEntity
  8
0
  6
Continuous
 62
     7
370
    15
100
AcDbLine
 10
220.1074599692
 20
212.8973460834
 30
0.0
 11
220.1074599692
 21
212.4086415473
 31
0.0
  0
LINE
  5
112
330
1F
100
AcDbEntity
  8
0
  6
Continuous
 62
     7
370
    15
100
AcDbLine
 10
220.1074599692
 20
211.612526987
 30
0.0
 11
220.1074599692
 21
211.456829876
 31
0.0
  0
LINE
  5
113
330
1F
100
AcDbEntity
  8
0
  6
Continuous
 62
     7
370
    15
100
AcDbLine
 10
220.1074599692
 20
202.1577192548
 30
0.0
 11
220.1074599692
 21
201.397346061
 31
0.0
  0
LINE
  5
114
330
1F
100
AcDbEntity
  8
0
  6
Continuous
 62
     7
370
    15
100
AcDbLine
 10
220.1074599692
 20
200.3973458971
 30
0.0
 11
220.1074599692
 21
199.9473461959
 31
0.0
  0
LINE
  5
115
330
1F
100
AcDbEntity
  8
0
  6
Continuous
 62
     7
370
    15
100
AcDbLine
 10
223.1074585983
 20
199.9473461959
 30
0.0
 11
223.1074585983
 21
200.3973458971
 31
0.0
  0
LINE
  5
116
330
1F
100
AcDbEntity
  8
0
  6
Continuous
 62
     7
370
    15
100
AcDbLine
 10
223.1074585983
 20
201.397346061
 30
0.0
 11
223.1074585983
 21
201.8844883035
 31
0.0
  0
LINE
  5
117
330
1F
100
AcDbEntity
  8
0
  6
Continuous
 62
     7
370
    15
100
AcDbLine
 10
223.1074585983
 20
211.192405511
 30
0.0
 11
223.1074585983
 21
211.3803440782
 31
0.0
  0
LINE
  5
118
330
1F
100
AcDbEntity
  8
0
  6
Continuous
 62
     7
370
    15
100
AcDbLine
 10
223.1074585983
 20
212.1354231688
 30
0.0
 11
223.1074585983
 21
212.8973460834
 31
0.0
  0
LINE
  5
119
330
1F
100
AcDbEntity
  8
0
  6
Continuous
 62
     7
370
    15
100
AcDbLine
 10
223.1074585983
 20
213.8973462473
 30
0.0
 11
223.1074585983
 21
214.3473459485
 31
0.0
  0
LINE
  5
11A
330
1F
100
AcDbEntity
  8
0
  6
Continuous
 62
     7
370
    15
100
AcDbLine
 10
234.7060679862
 20
213.6473462063
 30
0.0
 11
234.7060679862
 21
200.6473459381
 31
0.0
  0
LINE
  5
11B
330
1F
100
AcDbEntity
  8
0
  6
Continuous
 62
     7
370
    15
100
AcDbLine
 10
234.7060679862
 20
213.6473462063
 30
0.0
 11
237.4250530669
 21
213.6473462063
 31
0.0
  0
LWPOLYLINE
  5
11C
330
1F
100
AcDbEntity
  8
0
  6
Continuous
 62
     7
370
    15
100
AcDbPolyline
 90
        9
 70
   128
 43
0.0
 10
238.1555675933
 20
212.4473459165
 10
238.1415306995
 20
212.6814543347
 10
238.0999564597
 20
212.9065661769
 10
238.0324541995
 20
213.1140303875
 10
237.9416018197
 20
213.2958743799
 10
237.8309010932
 20
213.4451095092
 10
237.7045988509
 20
213.5560016225
 10
237.5675677726
 20
213.624288522
 10
237.4250530669
 20
213.6473462063
  0
LINE
  5
11D
330
1F
100
AcDbEntity
  8
0
  6
Continuous
 62
     7
370
    15
100
AcDbLine
 10
238.1555675933
 20
212.4473459165
 30
0.0
 11
238.1555675933
 21
201.8473462279
 31
0.0
  0
LWPOLYLINE
  5
11E
330
1F
100
AcDbEntity
  8
0
  6
Continuous
 62
     7
370
    15
100
AcDbPolyline
 90
        9
 70
   128
 43
0.0
 10
237.4250530669
 20
200.6473459381
 10
237.5675677726
 20
200.6704036224
 10
237.7045988509
 20
200.7386905219
 10
237.8309010932
 20
200.8495826352
 10
237.9416018197
 20
200.9988177645
 10
238.0324541995
 20
201.1806617568
 10
238.0999564597
 20
201.3881259675
 10
238.1415306995
 20
201.6132378097
 10
238.1555675933
 20
201.8473462279
  0
LINE
  5
11F
330
1F
100
AcDbEntity
  8
0
  6
Continuous
 62
     7
370
    15
100
AcDbLine
 10
237.4250530669
 20
200.6473459381
 30
0.0
 11
234.7060679862
 21
200.6473459381
 31
0.0
  0
LINE
  5
120
330
1F
100
AcDbEntity
  8
0
  6
Continuous
 62
     7
370
    15
100
AcDbLine
 10
237.4250530669
 20
213.6473462063
 30
0.0
 11
238.3770733544
 21
213.6473462063
 31
0.0
  0
LWPOLYLINE
  5
121
330
1F
100
AcDbEntity
  8
0
  6
Continuous
 62
     7
370
    15
100
AcDbPolyline
 90
        9
 70
   128
 43
0.0
 10
238.3770733544
 20
213.6473462063
 10
238.5195880601
 20
213.624288522
 10
238.6566340396
 20
213.5560016225
 10
238.7829213807
 20
213.4451095092
 10
238.8936221072
 20
213.2958743799
 10
238.984474487
 20
213.1140303875
 10
239.0519767472
 20
212.9065661769
 10
239.093550987
 20
212.6814543347
 10
239.1075878808
 20
212.4473459165
  0
LINE
  5
122
330
1F
100
AcDbEntity
  8
0
  6
Continuous
 62
     7
370
    15
100
AcDbLine
 10
239.1075878808
 20
212.4473459165
 30
0.0
 11
238.1555675933
 21
212.4473459165
 31
0.0
  0
LINE
  5
123
330
1F
100
AcDbEntity
  8
0
  6
Continuous
 62
     7
370
    15
100
AcDbLine
 10
238.3770733544
 20
200.6473459381
 30
0.0
 11
237.4250530669
 21
200.6473459381
 31
0.0
  0
LINE
  5
124
330
1F
100
AcDbEntity
  8
0
  6
Continuous
 62
     7
370
    15
100
AcDbLine
 10
238.1555675933
 20
201.8473462279
 30
0.0
 11
239.1075878808
 21
201.8473462279
 31
0.0
  0
LWPOLYLINE
  5
125
330
1F
100
AcDbEntity
  8
0
  6
Continuous
 62
     7
370
    15
100
AcDbPolyline
 90
        9
 70
   128
 43
0.0
 10
239.1075878808
 20
201.8473462279
 10
239.093550987
 20
201.6132378097
 10
239.0519767472
 20
201.3881259675
 10
238.984474487
 20
201.1806617568
 10
238.8936221072
 20
200.9988177645
 10
238.7829213807
 20
200.8495826352
 10
238.6566340396
 20
200.7386905219
 10
238.5195880601
 20
200.6704036224
 10
238.3770733544
 20
200.6473459381
  0
LINE
  5
126
330
1F
100
AcDbEntity
  8
0
  6
Continuous
 62
     7
370
    15
100
AcDbLine
 10
239.1075878808
 20
212.4473459165
 30
0.0
 11
239.1075878808
 21
201.8473462279
 31
0.0
  0
LINE
  5
127
330
1F
100
AcDbEntity
  8
0
  6
Continuous
 62
     7
370
    15
100
AcDbLine
 10
234.1274558971
 20
213.6473462063
 30
0.0
 11
234.7060679862
 21
213.6473462063
 31
0.0
  0
LINE
  5
128
330
1F
100
AcDbEntity
  8
0
  6
Continuous
 62
     7
370
    15
100
AcDbLine
 10
234.7060679862
 20
200.6473459381
 30
0.0
 11
234.1274558971
 21
200.6473459381
 31
0.0
  0
CIRCLE
  5
129
330
1F
100
AcDbEntity
  8
0
  6
Continuous
 62
     7
370
    15
100
AcDbCircle
 10
244.6274593064
 20
202.1473460722
 30
0.0
 40
3.0
  0
LINE
  5
12A
330
1F
100
AcDbEntity
  8
0
  6
Continuous
 62
     7
370
    15
100
AcDbLine
 10
244.2274629542
 20
200.2473461519
 30
0.0
 11
245.0274615953
 21
200.2473461519
 31
0.0
  0
LINE
  5
12B
330
1F
100
AcDbEntity
  8
0
  6
Continuous
 62
     7
370
    15
100
AcDbLine
 10
245.0274615953
 20
200.2473461519
 30
0.0
 11
245.0274615953
 21
201.7473459321
 31
0.0
  0
LINE
  5
12C
330
1F
100
AcDbEntity
  8
0
  6
Continuous
 62
     7
370
    15
100
AcDbLine
 10
245.0274615953
 20
201.7473459321
 30
0.0
 11
246.5274571845
 21
201.7473459321
 31
0.0
  0
LINE
  5
12D
330
1F
100
AcDbEntity
  8
0
  6
Continuous
 62
     7
370
    15
100
AcDbLine
 10
246.5274571845
 20
201.7473459321
 30
0.0
 11
246.5274571845
 21
202.5473459701
 31
0.0
  0
LINE
  5
12E
330
1F
100
AcDbEntity
  8
0
  6
Continuous
 62
     7
370
    15
100
AcDbLine
 10
246.5274571845
 20
202.5473459701
 30
0.0
 11
245.0274615953
 21
202.5473459701
 31
0.0
  0
LINE
  5
12F
330
1F
100
AcDbEntity
  8
0
  6
Continuous
 62
     7
370
    15
100
AcDbLine
 10
245.0274615953
 20
202.5473459701
 30
0.0
 11
245.0274615953
 21
204.0473459832
 31
0.0
  0
LINE
  5
130
330
1F
100
AcDbEntity
  8
0
  6
Continuous
 62
     7
370
    15
100
AcDbLine
 10
245.0274615953
 20
204.0473459832
 30
0.0
 11
244.2274629542
 21
204.0473459832
 31
0.0
  0
LINE
  5
131
330
1F
100
AcDbEntity
  8
0
  6
Continuous
 62
     7
370
    15
100
AcDbLine
 10
244.2274629542
 20
204.0473459832
 30
0.0
 11
244.2274629542
 21
202.5473459701
 31
0.0
  0
LINE
  5
132
330
1F
100
AcDbEntity
  8
0
  6
Continuous
 62
     7
370
    15
100
AcDbLine
 10
244.2274629542
 20
202.5473459701
 30
0.0
 11
242.7274524638
 21
202.5473459701
 31
0.0
  0
LINE
  5
133
330
1F
100
AcDbEntity
  8
0
  6
Continuous
 62
     7
370
    15
100
AcDbLine
 10
242.7274524638
 20
202.5473459701
 30
0.0
 11
242.7274524638
 21
201.7473459321
 31
0.0
  0
LINE
  5
134
330
1F
100
AcDbEntity
  8
0
  6
Continuous
 62
     7
370
    15
100
AcDbLine
 10
242.7274524638
 20
201.7473459321
 30
0.0
 11
244.2274629542
 21
201.7473459321
 31
0.0
  0
LINE
  5
135
330
1F
100
AcDbEntity
  8
0
  6
Continuous
 62
     7
370
    15
100
AcDbLine
 10
244.2274629542
 20
201.7473459321
 30
0.0
 11
244.2274629542
 21
200.2473461519
 31
0.0
  0
CIRCLE
  5
136
330
1F
100
AcDbEntity
  8
0
  6
Continuous
 62
     7
370
    15
100
AcDbCircle
 10
244.6274593064
 20
212.1473460722
 30
0.0
 40
3.000000000000028
  0
LINE
  5
137
330
1F
100
AcDbEntity
  8
0
  6
Continuous
 62
     7
370
    15
100
AcDbLine
 10
244.2274629542
 20
212.5473462123
 30
0.0
 11
242.7274524638
 21
212.5473462123
 31
0.0
  0
LINE
  5
138
330
1F
100
AcDbEntity
  8
0
  6
Continuous
 62
     7
370
    15
100
AcDbLine
 10
244.2274629542
 20
211.7473461743
 30
0.0
 11
244.2274629542
 21
210.2473461612
 31
0.0
  0
LINE
  5
139
330
1F
100
AcDbEntity
  8
0
  6
Continuous
 62
     7
370
    15
100
AcDbLine
 10
244.2274629542
 20
210.2473461612
 30
0.0
 11
245.0274615953
 21
210.2473461612
 31
0.0
  0
LINE
  5
13A
330
1F
100
AcDbEntity
  8
0
  6
Continuous
 62
     7
370
    15
100
AcDbLine
 10
245.0274615953
 20
210.2473461612
 30
0.0
 11
245.0274615953
 21
211.7473461743
 31
0.0
  0
LINE
  5
13B
330
1F
100
AcDbEntity
  8
0
  6
Continuous
 62
     7
370
    15
100
AcDbLine
 10
245.0274615953
 20
211.7473461743
 30
0.0
 11
246.5274571845
 21
211.7473461743
 31
0.0
  0
LINE
  5
13C
330
1F
100
AcDbEntity
  8
0
  6
Continuous
 62
     7
370
    15
100
AcDbLine
 10
246.5274571845
 20
211.7473461743
 30
0.0
 11
246.5274571845
 21
212.5473462123
 31
0.0
  0
LINE
  5
13D
330
1F
100
AcDbEntity
  8
0
  6
Continuous
 62
     7
370
    15
100
AcDbLine
 10
246.5274571845
 20
212.5473462123
 30
0.0
 11
245.0274615953
 21
212.5473462123
 31
0.0
  0
LINE
  5
13E
330
1F
100
AcDbEntity
  8
0
  6
Continuous
 62
     7
370
    15
100
AcDbLine
 10
245.0274615953
 20
212.5473462123
 30
0.0
 11
245.0274615953
 21
214.0473459925
 31
0.0
  0
LINE
  5
13F
330
1F
100
AcDbEntity
  8
0
  6
Continuous
 62
     7
370
    15
100
AcDbLine
 10
245.0274615953
 20
214.0473459925
 30
0.0
 11
244.2274629542
 21
214.0473459925
 31
0.0
  0
LINE
  5
140
330
1F
100
AcDbEntity
  8
0
  6
Continuous
 62
     7
370
    15
100
AcDbLine
 10
244.2274629542
 20
214.0473459925
 30
0.0
 11
244.2274629542
 21
212.5473462123
 31
0.0
  0
LINE
  5
141
330
1F
100
AcDbEntity
  8
0
  6
Continuous
 62
     7
370
    15
100
AcDbLine
 10
242.7274524638
 20
212.5473462123
 30
0.0
 11
242.7274524638
 21
211.7473461743
 31
0.0
  0
LINE
  5
142
330
1F
100
AcDbEntity
  8
0
  6
Continuous
 62
     7
370
    15
100
AcDbLine
 10
242.7274524638
 20
211.7473461743
 30
0.0
 11
244.2274629542
 21
211.7473461743
 31
0.0
  0
ARC
  5
143
330
1F
100
AcDbEntity
  8
0
  6
Continuous
 62
     7
370
    15
100
AcDbCircle
 10
244.6274593065
 20
217.1473460722
 30
0.0
 40
1.500000000000034
100
AcDbArc
 50
43.6028189726
 51
132.7273953127
  0
ARC
  5
144
330
1F
100
AcDbEntity
  8
0
  6
Continuous
 62
     7
370
    15
100
AcDbCircle
 10
234.1274593064
 20
207.1473460722
 30
0.0
 40
15.99999999999999
100
AcDbArc
 50
316.3971810272
 51
43.6028189726
  0
ARC
  5
145
330
1F
100
AcDbEntity
  8
0
  6
Continuous
 62
     7
370
    15
100
AcDbCircle
 10
244.6274593064
 20
197.1473460722
 30
0.0
 40
1.49999999999999
100
AcDbArc
 50
227.2726046868
 51
316.3971810272
  0
LINE
  5
146
330
1F
100
AcDbEntity
  8
0
  6
Continuous
 62
     7
370
    15
100
AcDbLine
 10
238.627457566
 20
213.6473462063
 30
0.0
 11
243.6096906135
 21
218.2492317709
 31
0.0
  0
LINE
  5
147
330
1F
100
AcDbEntity
  8
0
  6
Continuous
 62
     7
370
    15
100
AcDbLine
 10
243.6096906135
 20
196.0454603735
 30
0.0
 11
238.627457566
 21
200.6473459381
 31
0.0
  0
LINE
  5
148
330
1F
100
AcDbEntity
  8
0
  6
Continuous
 62
     7
370
    15
100
AcDbLine
 10
238.4264558026
 20
213.6473462063
 30
0.0
 11
238.627457566
 21
213.6473462063
 31
0.0
  0
LINE
  5
149
330
1F
100
AcDbEntity
  8
0
  6
Continuous
 62
     7
370
    15
100
AcDbLine
 10
238.627457566
 20
200.6473459381
 30
0.0
 11
238.4264558026
 21
200.6473459381
 31
0.0
  0
LINE
  5
14A
330
1F
100
AcDbEntity
  8
0
  6
Continuous
 62
     7
370
    15
100
AcDbLine
 10
241.6274636457
 20
22.147343688
 30
0.0
 11
246.6274588773
 21
22.147343688
 31
0.0
  0
LINE
  5
14B
330
1F
100
AcDbEntity
  8
0
  6
Continuous
 62
     7
370
    15
100
AcDbLine
 10
241.6274636457
 20
197.8763688433
 30
0.0
 11
241.6274636457
 21
22.147343688
 31
0.0
  0
LINE
  5
14C
330
1F
100
AcDbEntity
  8
0
  6
Continuous
 62
     7
370
    15
100
AcDbLine
 10
246.6274588773
 20
197.1598539579
 30
0.0
 11
246.6274588773
 21
22.147343688
 31
0.0
  0
LINE
  5
14D
330
1F
100
AcDbEntity
  8
0
  6
Continuous
 62
     7
370
    15
100
AcDbLine
 10
241.6274636457
 20
7.147343092
 30
0.0
 11
246.6274588773
 21
7.147343092
 31
0.0
  0
LINE
  5
14E
330
1F
100
AcDbEntity
  8
0
  6
Continuous
 62
     7
370
    15
100
AcDbLine
 10
246.6274588773
 20
22.147343688
 30
0.0
 11
246.6274588773
 21
7.147343092
 31
0.0
  0
LINE
  5
14F
330
1F
100
AcDbEntity
  8
0
  6
Continuous
 62
     7
370
    15
100
AcDbLine
 10
241.6274636457
 20
22.147343688
 30
0.0
 11
241.6274636457
 21
7.147343092
 31
0.0
  0
LINE
  5
150
330
1F
100
AcDbEntity
  8
0
  6
Continuous
 62
     7
370
    15
100
AcDbLine
 10
246.6274588773
 20
217.1348381865
 30
0.0
 11
246.6274588773
 21
392.1473484564
 31
0.0
  0
LINE
  5
151
330
1F
100
AcDbEntity
  8
0
  6
Continuous
 62
     7
370
    15
100
AcDbLine
 10
246.6274588773
 20
392.1473484564
 30
0.0
 11
261.6274594733
 21
392.1473484564
 31
0.0
  0
LINE
  5
152
330
1F
100
AcDbEntity
  8
0
  6
Continuous
 62
     7
370
    15
100
AcDbLine
 10
261.6274594733
 20
392.1473484564
 30
0.0
 11
261.6274594733
 21
22.147343688
 31
0.0
  0
LINE
  5
153
330
1F
100
AcDbEntity
  8
0
  6
Continuous
 62
     7
370
    15
100
AcDbLine
 10
246.6274588773
 20
22.147343688
 30
0.0
 11
261.6274594733
 21
22.147343688
 31
0.0
  0
ARC
  5
154
330
1F
100
AcDbEntity
  8
0
  6
Continuous
 62
     7
370
    15
100
AcDbCircle
 10
246.6274593064
 20
22.1473460722
 30
0.0
 40
15.00000000000001
100
AcDbArc
 50
270.0
 51
0.0
  0
LINE
  5
155
330
1F
100
AcDbEntity
  8
0
  6
Continuous
 62
     7
370
    15
100
AcDbLine
 10
241.6274636457
 20
392.1473484564
 30
0.0
 11
246.6274588773
 21
392.1473484564
 31
0.0
  0
LINE
  5
156
330
1F
100
AcDbEntity
  8
0
  6
Continuous
 62
     7
370
    15
100
AcDbLine
 10
241.6274636457
 20
216.4183233011
 30
0.0
 11
241.6274636457
 21
392.1473484564
 31
0.0
  0
LINE
  5
157
330
1F
100
AcDbEntity
  8
0
  6
Continuous
 62
     7
370
    15
100
AcDbLine
 10
241.6274636457
 20
407.1473490524
 30
0.0
 11
246.6274588773
 21
407.1473490524
 31
0.0
  0
LINE
  5
158
330
1F
100
AcDbEntity
  8
0
  6
Continuous
 62
     7
370
    15
100
AcDbLine
 10
246.6274588773
 20
392.1473484564
 30
0.0
 11
246.6274588773
 21
407.1473490524
 31
0.0
  0
LINE
  5
159
330
1F
100
AcDbEntity
  8
0
  6
Continuous
 62
     7
370
    15
100
AcDbLine
 10
241.6274636457
 20
392.1473484564
 30
0.0
 11
241.6274636457
 21
407.1473490524
 31
0.0
  0
ARC
  5
15A
330
1F
100
AcDbEntity
  8
0
  6
Continuous
 62
     7
370
    15
100
AcDbCircle
 10
246.6274593064
 20
392.1473460722
 30
0.0
 40
15.00000000000006
100
AcDbArc
 50
0.0
 51
90.0
  0
LINE
  5
15B
330
1F
100
AcDbEntity
  8
0
  6
Continuous
 62
     7
370
    15
100
AcDbLine
 10
213.938468642
 20
215.1508165601
 30
0.0
 11
216.9384672711
 21
215.1508165601
 31
0.0
  0
SPLINE
  5
15C
330
1F
100
AcDbEntity
  8
0
  6
Continuous
 62
     7
370
    15
100
AcDbSpline
210
0.0
220
0.0
230
1.0
 70
     8
 71
     3
 72
    16
 73
    12
 74
     0
 42
0.00000001
 43
0.00000001
 40
0.0
 40
0.0
 40
0.0
 40
0.0
 40
0.1207044914554374
 40
0.2414116502801842
 40
0.3621187102477262
 40
0.4828243480536009
 40
0.6035308285510433
 40
0.7242368618406472
 40
0.8449447090351456
 40
0.9656514861558141
 40
1.0
 40
1.0
 40
1.0
 40
1.0
 10
219.7797610828491
 20
194.1949745717539
 30
0.0
 10
219.7991621067277
 20
194.1976473151775
 30
0.0
 10
219.8379645832155
 20
194.2029928610879
 30
0.0
 10
219.8428857687862
 20
194.4939383384726
 30
0.0
 10
219.8056762833378
 20
194.94727501721
 30
0.0
 10
219.7287590173439
 20
195.5148081444576
 30
0.0
 10
219.6249462604074
 20
196.1031264253103
 30
0.0
 10
219.5088354221971
 20
196.6298343815754
 30
0.0
 10
219.4018418331864
 20
196.9931101479814
 30
0.0
 10
219.3292660238497
 20
197.1635820147534
 30
0.0
 10
219.3097138890896
 20
197.1304302051673
 30
0.0
 10
219.305382616243
 20
197.1230862739577
 30
0.0
  0
SPLINE
  5
15D
330
1F
100
AcDbEntity
  8
0
  6
Continuous
 62
     7
370
    15
100
AcDbSpline
210
0.0
220
0.0
230
1.0
 70
     8
 71
     3
 72
    16
 73
    12
 74
     0
 42
0.00000001
 43
0.00000001
 40
0.0
 40
0.0
 40
0.0
 40
0.0
 40
0.1205802123267266
 40
0.2411628533287396
 40
0.3617455516146525
 40
0.4823269758812673
 40
0.6029090458262124
 40
0.7234903738647235
 40
0.8440738090980884
 40
0.9646532140801932
 40
1.0
 40
1.0
 40
1.0
 40
1.0
 10
219.9503421256157
 20
220.0709983783855
 30
0.0
 10
219.9697474219705
 20
220.0683255471299
 30
0.0
 10
220.0085584055333
 20
220.0629798307836
 30
0.0
 10
220.0134602546908
 20
219.7720362017589
 30
0.0
 10
219.9762707067574
 20
219.3186963010786
 30
0.0
 10
219.8993376614606
 20
218.7511684063939
 30
0.0
 10
219.7955239135724
 20
218.162836197229
 30
0.0
 10
219.6794330115975
 20
217.6361793517441
 30
0.0
 10
219.5724051160027
 20
217.2727108581313
 30
0.0
 10
219.499650329815
 20
217.1021605220589
 30
0.0
 10
219.4800007698362
 20
217.1357447443859
 30
0.0
 10
219.4755464264961
 20
217.1433579254045
 30
0.0
  0
SPLINE
  5
15E
330
1F
100
AcDbEntity
  8
0
  6
Continuous
 62
     7
370
    15
100
AcDbSpline
210
0.0
220
0.0
230
1.0
 70
     8
 71
     3
 72
    16
 73
    12
 74
     0
 42
0.00000001
 43
0.00000001
 40
0.0
 40
0.0
 40
0.0
 40
0.0
 40
0.120514831002165
 40
0.2410323251824575
 40
0.3615497206608775
 40
0.4820655001929122
 40
0.6025825828726462
 40
0.7230986582865249
 40
0.8436171191058824
 40
0.9641308578801009
 40
1.0
 40
1.0
 40
1.0
 40
1.0
 10
235.3207259842964
 20
196.8113930973305
 30
0.0
 10
235.3401269221548
 20
196.8140658564051
 30
0.0
 10
235.3789292266002
 20
196.8194114336177
 30
0.0
 10
235.3838517025102
 20
197.1103566762313
 30
0.0
 10
235.346637333949
 20
197.5636940013167
 30
0.0
 10
235.2697384080393
 20
198.1312238114513
 30
0.0
 10
235.1659011538899
 20
198.7195598736518
 30
0.0
 10
235.0498267430955
 20
199.2461916100553
 30
0.0
 10
234.9427557890785
 20
199.6097594009161
 30
0.0
 10
234.8699446326806
 20
199.7803553049881
 30
0.0
 10
234.8502289122229
 20
199.7465415851045
 30
0.0
 10
234.8457067677589
 20
199.7387858185067
 30
0.0
  0
SPLINE
  5
15F
330
1F
100
AcDbEntity
  8
0
  6
Continuous
 62
     7
370
    15
100
AcDbSpline
210
0.0
220
0.0
230
1.0
 70
     8
 71
     3
 72
    16
 73
    12
 74
     0
 42
0.00000001
 43
0.00000001
 40
0.0
 40
0.0
 40
0.0
 40
0.0
 40
0.1205176055237603
 40
0.241032021926216
 40
0.3615491481662126
 40
0.4820661734124042
 40
0.6025826964759677
 40
0.7230985026543721
 40
0.8436143714857623
 40
0.9641311876504708
 40
1.0
 40
1.0
 40
1.0
 40
1.0
 10
235.4913144776436
 20
217.4545798528089
 30
0.0
 10
235.5107155798644
 20
217.4519085491649
 30
0.0
 10
235.5495172709167
 20
217.4465660125645
 30
0.0
 10
235.5544384539627
 20
217.1556129670538
 30
0.0
 10
235.517232130523
 20
216.7022758421644
 30
0.0
 10
235.4403018518606
 20
216.1347548008031
 30
0.0
 10
235.3364968881227
 20
215.5464108847215
 30
0.0
 10
235.2204119682555
 20
215.0197876318952
 30
0.0
 10
235.1133533596942
 20
214.656204466267
 30
0.0
 10
235.0405026525738
 20
214.4856172547974
 30
0.0
 10
235.0208116217068
 20
214.5194318398321
 30
0.0
 10
235.0162952611061
 20
214.527187597294
 30
0.0
  0
SPLINE
  5
160
330
1F
100
AcDbEntity
  8
0
  6
Continuous
 62
     7
370
    15
100
AcDbSpline
210
0.0
220
0.0
230
1.0
 70
    24
 71
     3
 72
    16
 73
    12
 74
     0
 42
0.00000001
 43
0.00000001
 40
0.0
 40
0.0
 40
0.0
 40
0.0
 40
0.0611071491295778
 40
0.1864711554396543
 40
0.3118333742869777
 40
0.4371957719142286
 40
0.5625572265557508
 40
0.6879224398113394
 40
0.8132846586586627
 40
0.9386470562859137
 40
1.0
 40
1.0
 40
1.0
 40
1.0
 10
238.3976518580528
 20
200.2811103205277
 30
0.0
 10
238.4034185158053
 20
200.2811103205277
 30
0.0
 10
238.4210157257789
 20
200.2811103205277
 30
0.0
 10
238.2026246193697
 20
200.2811103205277
 30
0.0
 10
237.7898485663336
 20
200.2811103205277
 30
0.0
 10
237.2333962282349
 20
200.2811103205277
 30
0.0
 10
236.6342892762545
 20
200.2811103205277
 30
0.0
 10
236.0755829426618
 20
200.2811103205277
 30
0.0
 10
235.6586444506367
 20
200.2811103205277
 30
0.0
 10
235.4356530899395
 20
200.2811103205277
 30
0.0
 10
235.4504508608059
 20
200.2811103205277
 30
0.0
 10
235.4553132721992
 20
200.2811103205277
 30
0.0
  0
SPLINE
  5
161
330
1F
100
AcDbEntity
  8
0
  6
Continuous
 62
     7
370
    15
100
AcDbSpline
210
0.0
220
0.0
230
1.0
 70
    24
 71
     3
 72
    16
 73
    12
 74
     0
 42
0.00000001
 43
0.00000001
 40
0.0
 40
0.0
 40
0.0
 40
0.0
 40
0.0610095893915384
 40
0.1861734476045528
 40
0.3113355212085618
 40
0.43649777330707
 40
0.5616590839253597
 40
0.6868241471569546
 40
0.8119862207609637
 40
0.9371484728594719
 40
1.0
 40
1.0
 40
1.0
 40
1.0
 10
238.3976518580528
 20
213.8397411520674
 30
0.0
 10
238.4034185095964
 20
213.8397411520674
 30
0.0
 10
238.4210157006233
 20
213.8397411520674
 30
0.0
 10
238.2026248525881
 20
213.8397411520674
 30
0.0
 10
237.7898477118693
 20
213.8397411520674
 30
0.0
 10
237.2333994128734
 20
213.8397411520674
 30
0.0
 10
236.6342773921129
 20
213.8397411520674
 30
0.0
 10
236.0756272956201
 20
213.8397411520674
 30
0.0
 10
235.6584789276891
 20
213.8397411520674
 30
0.0
 10
235.4349982413276
 20
213.8397411520674
 30
0.0
 10
235.4502012302834
 20
213.8397411520674
 30
0.0
 10
235.4552834698769
 20
213.8397411520674
 30
0.0
  0
SPLINE
  5
162
330
1F
100
AcDbEntity
  8
0
  6
Continuous
 62
     7
370
    15
100
AcDbSpline
210
0.0
220
0.0
230
1.0
 70
     8
 71
     3
 72
    19
 73
    15
 74
     0
 42
0.00000001
 43
0.00000001
 40
0.0
 40
0.0
 40
0.0
 40
0.0
 40
0.0039549647145973
 40
0.1157673416546059
 40
0.2280441602243888
 40
0.3355190748443604
 40
0.4377072895834259
 40
0.5348813783049912
 40
0.628302511166183
 40
0.7302898573119802
 40
0.8413273888114153
 40
0.9641211978473089
 40
0.9937659048421617
 40
1.0
 40
1.0
 40
1.0
 40
1.0
 10
224.7257321545692
 20
212.7473458725109
 30
0.0
 10
224.7261269436944
 20
212.7473402598128
 30
0.0
 10
224.7376829728454
 20
212.7471759683
 30
0.0
 10
224.7609106446823
 20
212.732044843342
 30
0.0
 10
224.8044137673977
 20
212.6651502222962
 30
0.0
 10
224.8423879280219
 20
212.5604517371684
 30
0.0
 10
224.8658841560373
 20
212.4353762874941
 30
0.0
 10
224.8772088687471
 20
212.306939747532
 30
0.0
 10
224.8778187605945
 20
212.1857698940813
 30
0.0
 10
224.8620313246654
 20
212.0765362402699
 30
0.0
 10
224.8216538215232
 20
211.9871203040084
 30
0.0
 10
224.7697917391915
 20
211.9520693887898
 30
0.0
 10
224.7350850577829
 20
211.9474591755209
 30
0.0
 10
224.7271166921423
 20
211.9473630094414
 30
0.0
 10
224.7257321545692
 20
211.9473463001742
 30
0.0
  0
SPLINE
  5
163
330
1F
100
AcDbEntity
  8
0
  6
Continuous
 62
     7
370
    15
100
AcDbSpline
210
0.0
220
0.0
230
1.0
 70
     8
 71
     3
 72
    30
 73
    26
 74
     0
 42
0.00000001
 43
0.00000001
 40
0.0
 40
0.0
 40
0.0
 40
0.0
 40
0.1247092734887808
 40
0.2494201828389453
 40
0.3741277144462729
 40
0.4367850730959945
 40
0.4681558419898508
 40
0.4838425773092939
 40
0.4916892392768147
 40
0.4956135513877403
 40
0.4975725240520635
 40
0.4985520646506174
 40
0.4990418856792856
 40
0.4992867094199373
 40
0.4994091646771043
 40
0.4994761549231492
 40
0.4995067471108747
 40
0.499519220607769
 40
0.4995374626013807
 40
0.5609179998168962
 40
0.6646198887245258
 40
0.7325838327632908
 40
0.8111466747801674
 40
0.9002980622844619
 40
0.9999999999999999
 40
0.9999999999999999
 40
0.9999999999999999
 40
0.9999999999999999
 10
224.797436542234
 20
212.8072378303005
 30
0.0
 10
224.8032014230701
 20
212.8054449901106
 30
0.0
 10
224.8147312603624
 20
212.8018592862132
 30
0.0
 10
224.9045690373949
 20
212.7800194022477
 30
0.0
 10
225.0120519759023
 20
212.7543385112481
 30
0.0
 10
225.0976060254456
 20
212.7339270428936
 30
0.0
 10
225.1417031694031
 20
212.7233932468737
 30
0.0
 10
225.1639315667456
 20
212.7180737272186
 30
0.0
 10
225.1750646277016
 20
212.7154081526687
 30
0.0
 10
225.180634754721
 20
212.7140758064158
 30
0.0
 10
225.183418786274
 20
212.7134067665869
 30
0.0
 10
225.1848097907491
 20
212.7130746516805
 30
0.0
 10
225.1855047907577
 20
212.7129058601975
 30
0.0
 10
225.1858528663777
 20
212.7128241153521
 30
0.0
 10
225.1860287018395
 20
212.7127801841606
 30
0.0
 10
225.1861183954384
 20
212.7127609019974
 30
0.0
 10
225.1861634958446
 20
212.7127518240688
 30
0.0
 10
225.1861876717637
 20
212.7127433026327
 30
0.0
 10
225.2114835596576
 20
212.7083352112218
 30
0.0
 10
225.2781946896661
 20
212.6907640797614
 30
0.0
 10
225.369463431267
 20
212.6729132543958
 30
0.0
 10
225.4529179435067
 20
212.6552686379126
 30
0.0
 10
225.516492316488
 20
212.6425191878479
 30
0.0
 10
225.5669901254765
 20
212.6328289115827
 30
0.0
 10
225.5742229001668
 20
212.6323739884626
 30
0.0
 10
225.5780413219543
 20
212.6321338194503
 30
0.0
  0
ELLIPSE
  5
164
330
1F
100
AcDbEntity
  8
0
  6
Continuous
 62
     7
370
    15
100
AcDbEllipse
 10
225.4545677002
 20
213.9293212509
 30
0.0
 11
0.3906095144045594
 21
-0.08616383961160068
 31
0.0
210
0.0
220
0.0
230
1.0
 40
0.0142285888
 41
0.0
 42
6.283185307179586
  0
LINE
  5
165
330
1F
100
AcDbEntity
  8
0
  6
Continuous
 62
     7
370
    15
100
AcDbLine
 10
224.8383849332
 20
202.44734614
 30
0.0
 11
224.8383849332
 21
211.0473459664
 31
0.0
  0
LINE
  5
166
330
1F
100
AcDbEntity
  8
0
  6
Continuous
 62
     7
370
    15
100
AcDbLine
 10
219.3240910241
 20
202.44734614
 30
0.0
 11
219.3240910241
 21
211.0473459664
 31
0.0
  0
LINE
  5
167
330
1F
100
AcDbEntity
  8
0
  6
Continuous
 62
     7
370
    15
100
AcDbLine
 10
224.8383849332
 20
211.0473459664
 30
0.0
 11
219.3240910241
 21
211.0473459664
 31
0.0
  0
LINE
  5
168
330
1F
100
AcDbEntity
  8
0
  6
Continuous
 62
     7
370
    15
100
AcDbLine
 10
224.8383849332
 20
202.44734614
 30
0.0
 11
219.3240910241
 21
202.44734614
 31
0.0
  0
LINE
  5
169
330
1F
100
AcDbEntity
  8
0
  6
Continuous
 62
     7
370
    15
100
AcDbLine
 10
218.2098343441
 20
214.3473459485
 30
0.0
 11
193.3977245757
 21
214.3473459485
 31
0.0
  0
LINE
  5
16A
330
1F
100
AcDbEntity
  8
0
  6
Continuous
 62
     7
370
    15
100
AcDbLine
 10
218.2098343441
 20
211.0473459664
 30
0.0
 11
218.2098343441
 21
214.3473459485
 31
0.0
  0
LINE
  5
16B
330
1F
100
AcDbEntity
  8
0
  6
Continuous
 62
     7
370
    15
100
AcDbLine
 10
218.2098343441
 20
199.9473461959
 30
0.0
 11
218.2098343441
 21
202.44734614
 31
0.0
  0
LINE
  5
16C
330
1F
100
AcDbEntity
  8
0
  6
Continuous
 62
     7
370
    15
100
AcDbLine
 10
193.3977245757
 20
199.9473461959
 30
0.0
 11
218.2098343441
 21
199.9473461959
 31
0.0
  0
LINE
  5
16D
330
1F
100
AcDbEntity
  8
0
  6
Continuous
 62
     7
370
    15
100
AcDbLine
 10
193.3977245757
 20
199.9473461959
 30
0.0
 11
193.3977245757
 21
214.3473459485
 31
0.0
  0
LINE
  5
16E
330
1F
100
AcDbEntity
  8
0
  6
Continuous
 62
     7
370
    15
100
AcDbLine
 10
218.2098343441
 20
211.0473459664
 30
0.0
 11
219.3240910241
 21
211.0473459664
 31
0.0
  0
LINE
  5
16F
330
1F
100
AcDbEntity
  8
0
  6
Continuous
 62
     7
370
    15
100
AcDbLine
 10
218.2098343441
 20
202.44734614
 30
0.0
 11
219.3240910241
 21
202.44734614
 31
0.0
  0
LINE
  5
170
330
1F
100
AcDbEntity
  8
0
  6
Continuous
 62
     7
370
    15
100
AcDbLine
 10
220.2296941945
 20
215.1446968394
 30
0.0
 11
218.3374627897
 21
215.1446968394
 31
0.0
  0
ARC
  5
171
330
1F
100
AcDbEntity
  8
0
  6
Continuous
 62
     7
370
    15
100
AcDbCircle
 10
219.6840860916
 20
214.5202588709
 30
0.0
 40
1.48435746831422
100
AcDbArc
 50
155.1225389752
 51
186.6895781293
  0
ARC
  5
172
330
1F
100
AcDbEntity
  8
0
  6
Continuous
 62
     7
370
    15
100
AcDbCircle
 10
194.6536726935
 20
214.5413077454
 30
0.0
 40
1.270837067952018
100
AcDbArc
 50
151.5180738401
 51
188.7790931251
  0
LINE
  5
173
330
1F
100
AcDbEntity
  8
0
  6
Continuous
 62
     7
370
    15
100
AcDbLine
 10
193.5366481015
 20
215.1473464522
 30
0.0
 11
220.9024443695
 21
215.1473464522
 31
0.0
  0
LINE
  5
174
330
1F
100
AcDbEntity
  8
0
  6
Continuous
 62
     7
370
    15
100
AcDbLine
 10
220.9024443695
 20
215.1473464522
 30
0.0
 11
220.2296941945
 21
215.1446968394
 31
0.0
  0
LINE
  5
175
330
1F
100
AcDbEntity
  8
0
  6
Continuous
 62
     7
370
    15
100
AcDbLine
 10
218.3374627897
 20
199.1499953049
 30
0.0
 11
220.2296941945
 21
199.1499953049
 31
0.0
  0
LINE
  5
176
330
1F
100
AcDbEntity
  8
0
  6
Continuous
 62
     7
370
    15
100
AcDbLine
 10
220.2296941945
 20
199.1499953049
 30
0.0
 11
220.9024443695
 21
199.1473456922
 31
0.0
  0
LINE
  5
177
330
1F
100
AcDbEntity
  8
0
  6
Continuous
 62
     7
370
    15
100
AcDbLine
 10
220.9024443695
 20
199.1473456922
 30
0.0
 11
193.5366481015
 21
199.1473456922
 31
0.0
  0
ARC
  5
178
330
1F
100
AcDbEntity
  8
0
  6
Continuous
 62
     7
370
    15
100
AcDbCircle
 10
194.6536726935
 20
199.753384399
 30
0.0
 40
1.270837067952018
100
AcDbArc
 50
171.2209068749
 51
208.4819261599
  0
ARC
  5
179
330
1F
100
AcDbEntity
  8
0
  6
Continuous
 62
     7
370
    15
100
AcDbCircle
 10
219.6840860916
 20
199.7744332735
 30
0.0
 40
1.484357468314274
100
AcDbArc
 50
173.3104218707
 51
204.8774610248
  0
LINE
  5
17A
330
1F
100
AcDbEntity
  8
0
  6
Continuous
 62
     7
370
    15
100
AcDbLine
 10
218.3374627897
 20
199.1499953049
 30
0.0
 11
218.3374627897
 21
199.9473461959
 31
0.0
  0
LINE
  5
17B
330
1F
100
AcDbEntity
  8
0
  6
Continuous
 62
     7
370
    15
100
AcDbLine
 10
218.3487578699
 20
202.44734614
 30
0.0
 11
218.3487578699
 21
199.9473461959
 31
0.0
  0
LINE
  5
17C
330
1F
100
AcDbEntity
  8
0
  6
Continuous
 62
     7
370
    15
100
AcDbLine
 10
218.3374627897
 20
214.3473459485
 30
0.0
 11
218.3374627897
 21
215.1446968394
 31
0.0
  0
LINE
  5
17D
330
1F
100
AcDbEntity
  8
0
  6
Continuous
 62
     7
370
    15
100
AcDbLine
 10
218.3487578699
 20
214.3473459485
 30
0.0
 11
218.3487578699
 21
211.0473459664
 31
0.0
  0
LINE
  5
17E
330
1F
100
AcDbEntity
  8
0
  6
Continuous
 62
     7
370
    15
100
AcDbLine
 10
224.3374600479
 20
199.1473456922
 30
0.0
 11
220.9024443695
 21
199.1473456922
 31
0.0
  0
LINE
  5
17F
330
1F
100
AcDbEntity
  8
0
  6
Continuous
 62
     7
370
    15
100
AcDbLine
 10
220.2296941945
 20
199.1499953049
 30
0.0
 11
220.2296941945
 21
199.9473461959
 31
0.0
  0
LINE
  5
180
330
1F
100
AcDbEntity
  8
0
  6
Continuous
 62
     7
370
    15
100
AcDbLine
 10
224.3374600479
 20
199.9473461959
 30
0.0
 11
220.2296941945
 21
199.9473461959
 31
0.0
  0
LINE
  5
181
330
1F
100
AcDbEntity
  8
0
  6
Continuous
 62
     7
370
    15
100
AcDbLine
 10
220.2296941945
 20
214.3473459485
 30
0.0
 11
220.2296941945
 21
215.1446968394
 31
0.0
  0
LINE
  5
182
330
1F
100
AcDbEntity
  8
0
  6
Continuous
 62
     7
370
    15
100
AcDbLine
 10
224.3374600479
 20
215.1473464522
 30
0.0
 11
220.9024443695
 21
215.1473464522
 31
0.0
  0
LINE
  5
183
330
1F
100
AcDbEntity
  8
0
  6
Continuous
 62
     7
370
    15
100
AcDbLine
 10
224.3374600479
 20
214.3473459485
 30
0.0
 11
220.2296941945
 21
214.3473459485
 31
0.0
  0
LINE
  5
184
330
1F
100
AcDbEntity
  8
0
  6
Continuous
 62
     7
370
    15
100
AcDbLine
 10
218.3374627897
 20
214.3473459485
 30
0.0
 11
220.2296941945
 21
214.3473459485
 31
0.0
  0
LINE
  5
185
330
1F
100
AcDbEntity
  8
0
  6
Continuous
 62
     7
370
    15
100
AcDbLine
 10
218.3374627897
 20
199.9473461959
 30
0.0
 11
220.2296941945
 21
199.9473461959
 31
0.0
  0
LINE
  5
186
330
1F
100
AcDbEntity
  8
0
  6
Continuous
 62
     7
370
    15
100
AcDbLine
 10
219.407463021
 20
215.4473459425
 30
0.0
 11
223.8074629972
 21
215.4473459425
 31
0.0
  0
LINE
  5
187
330
1F
100
AcDbEntity
  8
0
  6
Continuous
 62
     7
370
    15
100
AcDbLine
 10
219.5074572632
 20
198.7473463717
 30
0.0
 11
223.7074613044
 21
198.7473463717
 31
0.0
  0
LINE
  5
188
330
1F
100
AcDbEntity
  8
0
  6
Continuous
 62
     7
370
    15
100
AcDbLine
 10
219.5074572632
 20
198.3473461199
 30
0.0
 11
223.7074613044
 21
198.3473461199
 31
0.0
  0
LINE
  5
189
330
1F
100
AcDbEntity
  8
0
  6
Continuous
 62
     7
370
    15
100
AcDbLine
 10
188.4988784263
 20
214.3473459485
 30
0.0
 11
186.5094020435
 21
214.3473459485
 31
0.0
  0
LINE
  5
18A
330
1F
100
AcDbEntity
  8
0
  6
Continuous
 62
     7
370
    15
100
AcDbLine
 10
188.4988784263
 20
199.9473461959
 30
0.0
 11
188.4988784263
 21
214.3473459485
 31
0.0
  0
LINE
  5
18B
330
1F
100
AcDbEntity
  8
0
  6
Continuous
 62
     7
370
    15
100
AcDbLine
 10
186.5094020435
 20
199.9473461959
 30
0.0
 11
188.4988784263
 21
199.9473461959
 31
0.0
  0
ARC
  5
18C
330
1F
100
AcDbEntity
  8
0
  6
Continuous
 62
     7
370
    15
100
AcDbCircle
 10
201.8033592145
 20
207.1473460722
 30
0.0
 40
16.90399728363029
100
AcDbArc
 50
154.7901555355
 51
205.2098444645
  0
SPLINE
  5
18D
330
1F
100
AcDbEntity
  8
0
  6
Continuous
 62
     7
370
    15
100
AcDbSpline
210
0.0
220
0.0
230
1.0
 70
     8
 71
     3
 72
    12
 73
     8
 74
     0
 42
0.00000001
 43
0.00000001
 40
0.0
 40
0.0
 40
0.0
 40
0.0
 40
0.1818720879954493
 40
0.3633434410005944
 40
0.5550790921410036
 40
0.7712660534529983
 40
0.9999999999999999
 40
0.9999999999999999
 40
0.9999999999999999
 40
0.9999999999999999
 10
186.641776509008
 20
199.1473456922068
 30
0.0
 10
186.6656378435662
 20
199.1546673816476
 30
0.0
 10
186.7133079368763
 20
199.1692946279979
 30
0.0
 10
186.7280373179468
 20
199.2812838702772
 30
0.0
 10
186.700820459528
 20
199.4506806576868
 30
0.0
 10
186.6291406164801
 20
199.6790928774141
 30
0.0
 10
186.5500582878533
 20
199.8562629953183
 30
0.0
 10
186.5094020435425
 20
199.9473461958661
 30
0.0
  0
LINE
  5
18E
330
1F
100
AcDbEntity
  8
0
  6
Continuous
 62
     7
370
    15
100
AcDbLine
 10
186.2574159572
 20
199.9018450345
 30
0.0
 11
186.6118549773
 21
199.1473456922
 31
0.0
  0
ARC
  5
18F
330
1F
100
AcDbEntity
  8
0
  6
Continuous
 62
     7
370
    15
100
AcDbCircle
 10
201.5280763757
 20
207.1473460722
 30
0.0
 40
16.9023771968715
100
AcDbArc
 50
154.6169692401
 51
205.3830307599
  0
LINE
  5
190
330
1F
100
AcDbEntity
  8
0
  6
Continuous
 62
     7
370
    15
100
AcDbLine
 10
186.6118549773
 20
215.1473464522
 30
0.0
 11
186.2574159572
 21
214.3928471099
 31
0.0
  0
SPLINE
  5
191
330
1F
100
AcDbEntity
  8
0
  6
Continuous
 62
     7
370
    15
100
AcDbSpline
210
0.0
220
0.0
230
1.0
 70
     8
 71
     3
 72
    12
 73
     8
 74
     0
 42
0.00000001
 43
0.00000001
 40
0.0
 40
0.0
 40
0.0
 40
0.0
 40
0.2510219938737357
 40
0.5023977523608443
 40
0.7402766005126201
 40
0.9473072801081994
 40
1.0
 40
1.0
 40
1.0
 40
1.0
 10
186.5094020435425
 20
214.3473459485068
 30
0.0
 10
186.5537197893741
 20
214.4472280306672
 30
0.0
 10
186.6424177379161
 20
214.6471329585348
 30
0.0
 10
186.7174103906771
 20
214.9058685628079
 30
0.0
 10
186.7289047577553
 20
215.0830978771604
 30
0.0
 10
186.6872587034375
 20
215.1435471476303
 30
0.0
 10
186.6494476257733
 20
215.1467056539573
 30
0.0
 10
186.641776509008
 20
215.147346452166
 30
0.0
  0
LINE
  5
192
330
1F
100
AcDbEntity
  8
0
  6
Continuous
 62
     7
370
    15
100
AcDbLine
 10
186.641776509
 20
199.1473456922
 30
0.0
 11
186.6118549773
 21
199.1473456922
 31
0.0
  0
LINE
  5
193
330
1F
100
AcDbEntity
  8
0
  6
Continuous
 62
     7
370
    15
100
AcDbLine
 10
186.641776509
 20
215.1473464522
 30
0.0
 11
186.6118549773
 21
215.1473464522
 31
0.0
  0
LWPOLYLINE
  5
194
330
1F
100
AcDbEntity
  8
0
  6
Continuous
 62
     7
370
    15
100
AcDbPolyline
 90
        9
 70
   128
 43
0.0
 10
188.4988784263
 20
214.3473459485
 10
188.4936183164
 20
214.5034183825
 10
188.4780466029
 20
214.6534926335
 10
188.452766783
 20
214.7918024178
 10
188.4187399814
 20
214.9130312803
 10
188.3772775004
 20
215.012521677
 10
188.3299663136
 20
215.086450063
 10
188.2786392638
 20
215.1319740417
 10
188.2252633044
 20
215.1473464522
  0
LINE
  5
195
330
1F
100
AcDbEntity
  8
0
  6
Continuous
 62
     7
370
    15
100
AcDbLine
 10
186.641776509
 20
215.1473464522
 30
0.0
 11
188.2252633044
 21
215.1473464522
 31
0.0
  0
LWPOLYLINE
  5
196
330
1F
100
AcDbEntity
  8
0
  6
Continuous
 62
     7
370
    15
100
AcDbPolyline
 90
        9
 70
   128
 43
0.0
 10
188.4988784263
 20
199.9473461959
 10
188.4936183164
 20
199.7912737618
 10
188.4780466029
 20
199.6411995108
 10
188.452766783
 20
199.5028897266
 10
188.4187399814
 20
199.381660864
 10
188.3772775004
 20
199.2821704674
 10
188.3299663136
 20
199.2082420814
 10
188.2786392638
 20
199.1627181026
 10
188.2252633044
 20
199.1473456922
  0
LINE
  5
197
330
1F
100
AcDbEntity
  8
0
  6
Continuous
 62
     7
370
    15
100
AcDbLine
 10
188.2252633044
 20
199.1473456922
 30
0.0
 11
186.641776509
 21
199.1473456922
 31
0.0
  0
LINE
  5
198
330
1F
100
AcDbEntity
  8
0
  6
Continuous
 62
     7
370
    15
100
AcDbLine
 10
188.4988784263
 20
199.9473461959
 30
0.0
 11
193.3977245757
 21
199.9473461959
 31
0.0
  0
LINE
  5
199
330
1F
100
AcDbEntity
  8
0
  6
Continuous
 62
     7
370
    15
100
AcDbLine
 10
193.5366481015
 20
199.1473456922
 30
0.0
 11
188.2252633044
 21
199.1473456922
 31
0.0
  0
LINE
  5
19A
330
1F
100
AcDbEntity
  8
0
  6
Continuous
 62
     7
370
    15
100
AcDbLine
 10
193.3977245757
 20
214.3473459485
 30
0.0
 11
188.4988784263
 21
214.3473459485
 31
0.0
  0
LINE
  5
19B
330
1F
100
AcDbEntity
  8
0
  6
Continuous
 62
     7
370
    15
100
AcDbLine
 10
188.2252633044
 20
215.1473464522
 30
0.0
 11
193.5366481015
 21
215.1473464522
 31
0.0
  0
LINE
  5
19C
330
1F
100
AcDbEntity
  8
0
  6
Continuous
 62
     7
370
    15
100
AcDbLine
 10
224.6274589965
 20
213.8973462473
 30
0.0
 11
224.6274589965
 21
212.8973460834
 31
0.0
  0
LINE
  5
19D
330
1F
100
AcDbEntity
  8
0
  6
Continuous
 62
     7
370
    15
100
AcDbLine
 10
218.4274583528
 20
213.8973462473
 30
0.0
 11
218.4274583528
 21
212.8973460834
 31
0.0
  0
LINE
  5
19E
330
1F
100
AcDbEntity
  8
0
  6
Continuous
 62
     7
370
    15
100
AcDbLine
 10
224.6274589965
 20
212.8973460834
 30
0.0
 11
218.4274583528
 21
212.8973460834
 31
0.0
  0
LINE
  5
19F
330
1F
100
AcDbEntity
  8
0
  6
Continuous
 62
     7
370
    15
100
AcDbLine
 10
224.6274589965
 20
213.8973462473
 30
0.0
 11
218.4274583528
 21
213.8973462473
 31
0.0
  0
LINE
  5
1A0
330
1F
100
AcDbEntity
  8
0
  6
Continuous
 62
     7
370
    15
100
AcDbLine
 10
224.6274589965
 20
201.397346061
 30
0.0
 11
224.6274589965
 21
200.3973458971
 31
0.0
  0
LINE
  5
1A1
330
1F
100
AcDbEntity
  8
0
  6
Continuous
 62
     7
370
    15
100
AcDbLine
 10
224.6274589965
 20
200.3973458971
 30
0.0
 11
218.4274583528
 21
200.3973458971
 31
0.0
  0
LINE
  5
1A2
330
1F
100
AcDbEntity
  8
0
  6
Continuous
 62
     7
370
    15
100
AcDbLine
 10
218.4274583528
 20
201.397346061
 30
0.0
 11
218.4274583528
 21
200.3973458971
 31
0.0
  0
LINE
  5
1A3
330
1F
100
AcDbEntity
  8
0
  6
Continuous
 62
     7
370
    15
100
AcDbLine
 10
224.6274589965
 20
201.397346061
 30
0.0
 11
218.4274583528
 21
201.397346061
 31
0.0
  0
LWPOLYLINE
  5
1A4
330
1F
100
AcDbEntity
  8
0
  6
Continuous
 62
     7
370
    15
100
AcDbPolyline
 90
        3
 70
   128
 43
0.0
 10
218.3487578699
 20
200.7862075309
 10
218.3513357708
 20
200.7800296026
 10
218.4274583528
 20
200.3973458971
  0
LWPOLYLINE
  5
1A5
330
1F
100
AcDbEntity
  8
0
  6
Continuous
 62
     7
370
    15
100
AcDbPolyline
 90
        3
 70
   128
 43
0.0
 10
218.4274583528
 20
213.8973462473
 10
218.3513357708
 20
213.5146625417
 10
218.3487578699
 20
213.5084846134
  0
LINE
  5
1A6
330
1F
100
AcDbEntity
  8
0
  6
Continuous
 62
     7
370
    15
100
AcDbLine
 10
224.6274589965
 20
212.8973460834
 30
0.0
 11
224.6274589965
 21
212.7473458725
 31
0.0
  0
LINE
  5
1A7
330
1F
100
AcDbEntity
  8
0
  6
Continuous
 62
     7
370
    15
100
AcDbLine
 10
224.6274589965
 20
211.9473463002
 30
0.0
 11
224.6274589965
 21
211.0473459664
 31
0.0
  0
LINE
  5
1A8
330
1F
100
AcDbEntity
  8
0
  6
Continuous
 62
     7
370
    15
100
AcDbLine
 10
224.6274589965
 20
202.44734614
 30
0.0
 11
224.6274589965
 21
201.397346061
 31
0.0
  0
LINE
  5
1A9
330
1F
100
AcDbEntity
  8
0
  6
Continuous
 62
     7
370
    15
100
AcDbLine
 10
116.627458989
 20
22.147343688
 30
0.0
 11
101.6274593243
 21
22.147343688
 31
0.0
  0
LINE
  5
1AA
330
1F
100
AcDbEntity
  8
0
  6
Continuous
 62
     7
370
    15
100
AcDbLine
 10
116.627458989
 20
22.147343688
 30
0.0
 11
116.627458989
 21
7.147343092
 31
0.0
  0
ARC
  5
1AB
330
1F
100
AcDbEntity
  8
0
  6
Continuous
 62
     7
370
    15
100
AcDbCircle
 10
116.6274593064
 20
22.1473460722
 30
0.0
 40
15.00000000000001
100
AcDbArc
 50
180.0
 51
270.0
  0
LINE
  5
1AC
330
1F
100
AcDbEntity
  8
0
  6
Continuous
 62
     7
370
    15
100
AcDbLine
 10
116.627458989
 20
392.1473484564
 30
0.0
 11
116.627458989
 21
22.147343688
 31
0.0
  0
LINE
  5
1AD
330
1F
100
AcDbEntity
  8
0
  6
Continuous
 62
     7
370
    15
100
AcDbLine
 10
101.6274593243
 20
392.1473484564
 30
0.0
 11
101.6274593243
 21
22.147343688
 31
0.0
  0
LINE
  5
1AE
330
1F
100
AcDbEntity
  8
0
  6
Continuous
 62
     7
370
    15
100
AcDbLine
 10
101.6274593243
 20
392.1473484564
 30
0.0
 11
116.627458989
 21
392.1473484564
 31
0.0
  0
ARC
  5
1AF
330
1F
100
AcDbEntity
  8
0
  6
Continuous
 62
     7
370
    15
100
AcDbCircle
 10
116.6274593064
 20
392.1473460722
 30
0.0
 40
15.0
100
AcDbArc
 50
90.0
 51
180.0
  0
LINE
  5
1B0
330
1F
100
AcDbEntity
  8
0
  6
Continuous
 62
     7
370
    15
100
AcDbLine
 10
116.627458989
 20
407.1473490524
 30
0.0
 11
116.627458989
 21
392.1473484564
 31
0.0
  0
LINE
  5
1B1
330
1F
100
AcDbEntity
  8
0
  6
Continuous
 62
     7
370
    15
100
AcDbLine
 10
217.6274597118
 20
27.1473389196
 30
0.0
 11
217.6274597118
 21
194.3347996178
 31
0.0
  0
LINE
  5
1B2
330
1F
100
AcDbEntity
  8
0
  6
Continuous
 62
     7
370
    15
100
AcDbLine
 10
217.6274597118
 20
197.6745857003
 30
0.0
 11
217.6274597118
 21
199.1473456922
 31
0.0
  0
LINE
  5
1B3
330
1F
100
AcDbEntity
  8
0
  6
Continuous
 62
     7
370
    15
100
AcDbLine
 10
217.6274597118
 20
215.1473464522
 30
0.0
 11
217.6274597118
 21
216.6067484844
 31
0.0
  0
LINE
  5
1B4
330
1F
100
AcDbEntity
  8
0
  6
Continuous
 62
     7
370
    15
100
AcDbLine
 10
217.6274597118
 20
219.9494645077
 30
0.0
 11
217.6274597118
 21
387.1473532247
 31
0.0
  0
LINE
  5
1B5
330
1F
100
AcDbEntity
  8
0
  6
Continuous
 62
     7
370
    15
100
AcDbLine
 10
217.6274597118
 20
387.1473532247
 30
0.0
 11
121.6274588773
 21
387.1473532247
 31
0.0
  0
LINE
  5
1B6
330
1F
100
AcDbEntity
  8
0
  6
Continuous
 62
     7
370
    15
100
AcDbLine
 10
121.6274588773
 20
387.1473532247
 30
0.0
 11
121.6274588773
 21
27.1473389196
 31
0.0
  0
LINE
  5
1B7
330
1F
100
AcDbEntity
  8
0
  6
Continuous
 62
     7
370
    15
100
AcDbLine
 10
217.6274597118
 20
27.1473389196
 30
0.0
 11
121.6274588773
 21
27.1473389196
 31
0.0
  0
LINE
  5
1B8
330
1F
100
AcDbEntity
  8
0
  6
Continuous
 62
     7
370
    15
100
AcDbLine
 10
237.6274555394
 20
392.1473484564
 30
0.0
 11
116.627458989
 21
392.1473484564
 31
0.0
  0
LINE
  5
1B9
330
1F
100
AcDbEntity
  8
0
  6
Continuous
 62
     7
370
    15
100
AcDbLine
 10
237.6274555394
 20
22.147343688
 30
0.0
 11
237.6274555394
 21
198.1394385996
 31
0.0
  0
LINE
  5
1BA
330
1F
100
AcDbEntity
  8
0
  6
Continuous
 62
     7
370
    15
100
AcDbLine
 10
237.6274555394
 20
216.1232756528
 30
0.0
 11
237.6274555394
 21
392.1473484564
 31
0.0
  0
LINE
  5
1BB
330
1F
100
AcDbEntity
  8
0
  6
Continuous
 62
     7
370
    15
100
AcDbLine
 10
237.6274555394
 20
22.147343688
 30
0.0
 11
116.627458989
 21
22.147343688
 31
0.0
  0
LINE
  5
1BC
330
1F
100
AcDbEntity
  8
0
  6
Continuous
 62
     7
370
    15
100
AcDbLine
 10
237.6274555394
 20
407.1473490524
 30
0.0
 11
116.627458989
 21
407.1473490524
 31
0.0
  0
LINE
  5
1BD
330
1F
100
AcDbEntity
  8
0
  6
Continuous
 62
     7
370
    15
100
AcDbLine
 10
237.6274555394
 20
407.1473490524
 30
0.0
 11
237.6274555394
 21
392.1473484564
 31
0.0
  0
LINE
  5
1BE
330
1F
100
AcDbEntity
  8
0
  6
Continuous
 62
     7
370
    15
100
AcDbLine
 10
237.6274555394
 20
22.147343688
 30
0.0
 11
237.6274555394
 21
7.147343092
 31
0.0
  0
LINE
  5
1BF
330
1F
100
AcDbEntity
  8
0
  6
Continuous
 62
     7
370
    15
100
AcDbLine
 10
237.6274555394
 20
7.147343092
 30
0.0
 11
116.627458989
 21
7.147343092
 31
0.0
  0
LINE
  5
1C0
330
1F
100
AcDbEntity
  8
0
  6
Continuous
 62
     7
370
    15
100
AcDbLine
 10
241.6274636457
 20
402.1473389196
 30
0.0
 11
237.6274555394
 21
402.1473389196
 31
0.0
  0
LINE
  5
1C1
330
1F
100
AcDbEntity
  8
0
  6
Continuous
 62
     7
370
    15
100
AcDbLine
 10
241.6274636457
 20
387.1473532247
 30
0.0
 11
237.6274555394
 21
387.1473532247
 31
0.0
  0
LINE
  5
1C2
330
1F
100
AcDbEntity
  8
0
  6
Continuous
 62
     7
370
    15
100
AcDbLine
 10
241.6274636457
 20
27.1473389196
 30
0.0
 11
237.6274555394
 21
27.1473389196
 31
0.0
  0
LINE
  5
1C3
330
1F
100
AcDbEntity
  8
0
  6
Continuous
 62
     7
370
    15
100
AcDbLine
 10
241.6274636457
 20
12.1473532247
 30
0.0
 11
237.6274555394
 21
12.1473532247
 31
0.0
  0
LINE
  5
1C4
330
1F
100
AcDbEntity
  8
0
  6
Continuous
 62
     7
370
    15
100
AcDbLine
 10
360.4965377366
 20
430.0613595978
 30
0.0
 11
361.6965282475
 21
430.0613595978
 31
0.0
  0
LINE
  5
1C5
330
1F
100
AcDbEntity
  8
0
  6
Continuous
 62
     7
370
    15
100
AcDbLine
 10
360.3965360438
 20
432.5613572136
 30
0.0
 11
360.4965377366
 21
432.5613572136
 31
0.0
  0
LINE
  5
1C6
330
1F
100
AcDbEntity
  8
0
  6
Continuous
 62
     7
370
    15
100
AcDbLine
 10
360.4965377366
 20
438.5613544718
 30
0.0
 11
360.3965360438
 21
438.5613544718
 31
0.0
  0
SPLINE
  5
1C7
330
1F
100
AcDbEntity
  8
0
  6
Continuous
 62
     7
370
    15
100
AcDbSpline
210
0.0
220
0.0
230
1.0
 70
     8
 71
     3
 72
    15
 73
    11
 74
     0
 42
0.00000001
 43
0.00000001
 40
0.0
 40
0.0
 40
0.0
 40
0.0
 40
0.1250754737106914
 40
0.2501512637214284
 40
0.3752910642424033
 40
0.5003040442798201
 40
0.6252881250789707
 40
0.750262047766226
 40
0.8750785722580477
 40
1.0
 40
1.0
 40
1.0
 40
1.0
 10
359.3109715496869
 20
460.6191857592063
 30
0.0
 10
359.2848467223264
 20
460.877949782781
 30
0.0
 10
359.232597001539
 20
461.3954784843119
 30
0.0
 10
359.1537281442275
 20
462.1765919088949
 30
0.0
 10
359.0793013186586
 20
462.9137708921554
 30
0.0
 10
359.0122875238958
 20
463.5773498730891
 30
0.0
 10
358.9561802554581
 20
464.1331140057691
 30
0.0
 10
358.9136622576041
 20
464.5542110269712
 30
0.0
 10
358.8848298683769
 20
464.8398182324365
 30
0.0
 10
358.8804881203299
 20
464.8828532111149
 30
0.0
 10
358.8783163344236
 20
464.9043797389465
 30
0.0
  0
SPLINE
  5
1C8
330
1F
100
AcDbEntity
  8
0
  6
Continuous
 62
     7
370
    15
100
AcDbSpline
210
0.0
220
0.0
230
1.0
 70
     8
 71
     3
 72
    15
 73
    11
 74
     0
 42
0.00000001
 43
0.00000001
 40
0.0
 40
0.0
 40
0.0
 40
0.0
 40
0.1249396532407659
 40
0.2497688921967589
 40
0.3747511584182677
 40
0.499737694248962
 40
0.6247481088386436
 40
0.7498793230434497
 40
0.8749423236597464
 40
1.0
 40
1.0
 40
1.0
 40
1.0
 10
355.8940607821317
 20
464.6029963032203
 30
0.0
 10
355.8962432289284
 20
464.5814181224134
 30
0.0
 10
355.9006061938044
 20
464.538280830321
 30
0.0
 10
355.9294558112726
 20
464.2525709439261
 30
0.0
 10
355.9719606112715
 20
463.8313859961081
 30
0.0
 10
356.0281007811866
 20
463.2756110488174
 30
0.0
 10
356.0950845148337
 20
462.6120843416792
 30
0.0
 10
356.1695073014472
 20
461.8750394168703
 30
0.0
 10
356.2483344420816
 20
461.0941278745094
 30
0.0
 10
356.3005792488918
 20
460.5767725183542
 30
0.0
 10
356.3267010962339
 20
460.3181003467041
 30
0.0
  0
LINE
  5
1C9
330
1F
100
AcDbEntity
  8
0
  6
Continuous
 62
     7
370
    15
100
AcDbLine
 10
356.3264179742
 20
460.3179662363
 30
0.0
 11
357.8954953467
 21
444.7769864336
 31
0.0
  0
LINE
  5
1CA
330
1F
100
AcDbEntity
  8
0
  6
Continuous
 62
     7
370
    15
100
AcDbLine
 10
360.8803171431
 20
445.0783475176
 30
0.0
 11
359.3112397706
 21
460.6193198697
 31
0.0
  0
SPLINE
  5
1CB
330
1F
100
AcDbEntity
  8
0
  6
Continuous
 62
     7
370
    15
100
AcDbSpline
210
0.0
220
0.0
230
1.0
 70
     8
 71
     3
 72
     9
 73
     5
 74
     0
 42
0.00000001
 43
0.00000001
 40
0.0
 40
0.0
 40
0.0
 40
0.0
 40
0.4837344539668944
 40
1.0
 40
1.0
 40
1.0
 40
1.0
 10
358.0655772005887
 20
443.095613910337
 30
0.0
 10
358.0750378451208
 20
443.0313891253933
 30
0.0
 10
358.0945953615528
 20
442.8986204453521
 30
0.0
 10
358.12843771797
 20
442.8624649987198
 30
0.0
 10
358.1459093605848
 20
442.8437991873222
 30
0.0
  0
SPLINE
  5
1CC
330
1F
100
AcDbEntity
  8
0
  6
Continuous
 62
     7
370
    15
100
AcDbSpline
210
0.0
220
0.0
230
1.0
 70
     8
 71
     3
 72
    11
 73
     7
 74
     0
 42
0.00000001
 43
0.00000001
 40
0.0
 40
0.0
 40
0.0
 40
0.0
 40
0.2484396053587954
 40
0.4978882905326143
 40
0.7483888276677946
 40
1.0
 40
1.0
 40
1.0
 40
1.0
 10
357.8957635676236
 20
444.7771503464179
 30
0.0
 10
357.9137762487942
 20
444.5986788870737
 30
0.0
 10
357.9498747727109
 20
444.2410110761247
 30
0.0
 10
357.9968999615646
 20
443.7761715187967
 30
0.0
 10
358.035692107314
 20
443.3932873859586
 30
0.0
 10
358.0507366976545
 20
443.2459983780454
 30
0.0
 10
358.0582756316037
 20
443.1721909777122
 30
0.0
  0
SPLINE
  5
1CD
330
1F
100
AcDbEntity
  8
0
  6
Continuous
 62
     7
370
    15
100
AcDbSpline
210
0.0
220
0.0
230
1.0
 70
     8
 71
     3
 72
    19
 73
    15
 74
     0
 42
0.00000001
 43
0.00000001
 40
0.0
 40
0.0
 40
0.0
 40
0.0
 40
0.0802804369297216
 40
0.1534416957310603
 40
0.2193403204326486
 40
0.2779459655494368
 40
0.3728444810618545
 40
0.442153508026651
 40
0.5315374242239219
 40
0.6554817064516648
 40
0.7303544145519429
 40
0.8130772361858046
 40
0.9031427657753383
 40
0.9999999999999999
 40
0.9999999999999999
 40
0.9999999999999999
 40
0.9999999999999999
 10
358.0812234198423
 20
443.0129720703559
 30
0.0
 10
358.1165840971691
 20
442.8900983536266
 30
0.0
 10
358.1841697070479
 20
442.6552472220583
 30
0.0
 10
358.3813924518848
 20
442.3608345182247
 30
0.0
 10
358.6062454168628
 20
442.1367159353127
 30
0.0
 10
358.9019075304734
 20
441.9436732042913
 30
0.0
 10
359.2438544488465
 20
441.8257537205184
 30
0.0
 10
359.6536153314854
 20
441.7959803610444
 30
0.0
 10
360.0926975113637
 20
441.8982781955614
 30
0.0
 10
360.4792294502756
 20
442.1495136978606
 30
0.0
 10
360.7720631579615
 20
442.4902281236893
 30
0.0
 10
360.9528602171314
 20
442.8456853150732
 30
0.0
 10
361.0587452006102
 20
443.2726353011844
 30
0.0
 10
361.0264913283737
 20
443.5677036765111
 30
0.0
 10
361.0097784315915
 20
443.7205984131294
 30
0.0
  0
SPLINE
  5
1CE
330
1F
100
AcDbEntity
  8
0
  6
Continuous
 62
     7
370
    15
100
AcDbSpline
210
0.0
220
0.0
230
1.0
 70
     8
 71
     3
 72
    11
 73
     7
 74
     0
 42
0.00000001
 43
0.00000001
 40
0.0
 40
0.0
 40
0.0
 40
0.0
 40
0.2477443977010795
 40
0.4969515347440527
 40
0.7476787962907897
 40
1.0
 40
1.0
 40
1.0
 40
1.0
 10
361.0335457836957
 20
443.552915646215
 30
0.0
 10
361.0271120338866
 20
443.617541298305
 30
0.0
 10
361.0142065479442
 20
443.7471741670518
 30
0.0
 10
360.9782174141531
 20
444.1050473267876
 30
0.0
 10
360.9332653857011
 20
444.5513671795949
 30
0.0
 10
360.8978251749389
 20
444.9022274233943
 30
0.0
 10
360.8800489222379
 20
445.0782134071785
 30
0.0
  0
LINE
  5
1CF
330
1F
100
AcDbEntity
  8
0
  6
Continuous
 62
     7
370
    15
100
AcDbLine
 10
361.1638415372
 20
454.733025922
 30
0.0
 11
361.163826636
 21
455.0328447358
 31
0.0
  0
LINE
  5
1D0
330
1F
100
AcDbEntity
  8
0
  6
Continuous
 62
     7
370
    15
100
AcDbLine
 10
360.363827995
 20
455.0328447358
 30
0.0
 11
360.363827995
 21
454.735477163
 31
0.0
  0
SPLINE
  5
1D1
330
1F
100
AcDbEntity
  8
0
  6
Continuous
 62
     7
370
    15
100
AcDbSpline
210
0.0
220
0.0
230
1.0
 70
    24
 71
     3
 72
    11
 73
     7
 74
     0
 42
0.00000001
 43
0.00000001
 40
0.0
 40
0.0
 40
0.0
 40
0.0
 40
0.0207832163337777
 40
0.3465538622668197
 40
0.6711424087355256
 40
1.0
 40
1.0
 40
1.0
 40
1.0
 10
360.3638279949994
 20
455.3191630975204
 30
0.0
 10
360.3638279949994
 20
455.3158413853449
 30
0.0
 10
360.3638279949994
 20
455.2604528369469
 30
0.0
 10
360.3638279949994
 20
455.1672199422235
 30
0.0
 10
360.3638279949994
 20
455.0545065379013
 30
0.0
 10
360.3638279949994
 20
455.019984211981
 30
0.0
 10
360.3638279949994
 20
455.0026102796989
 30
0.0
  0
SPLINE
  5
1D2
330
1F
100
AcDbEntity
  8
0
  6
Continuous
 62
     7
370
    15
100
AcDbSpline
210
0.0
220
0.0
230
1.0
 70
    24
 71
     3
 72
    11
 73
     7
 74
     0
 42
0.00000001
 43
0.00000001
 40
0.0
 40
0.0
 40
0.0
 40
0.0
 40
0.2504863591729243
 40
0.4977314983156908
 40
0.7458651761595598
 40
1.0
 40
1.0
 40
1.0
 40
1.0
 10
361.1638415371747
 20
455.0001590386825
 30
0.0
 10
361.1638415371747
 20
455.016375811374
 30
0.0
 10
361.1638415371747
 20
455.0485995164739
 30
0.0
 10
361.1638415371747
 20
455.1573821034407
 30
0.0
 10
361.1638415371747
 20
455.296214309355
 30
0.0
 10
361.1638415371747
 20
455.4032409947505
 30
0.0
 10
361.1638415371747
 20
455.4573937193351
 30
0.0
  0
LINE
  5
1D3
330
1F
100
AcDbEntity
  8
0
  6
Continuous
 62
     7
370
    15
100
AcDbLine
 10
360.1570892846
 20
455.561359121
 30
0.0
 11
360.3660035645
 21
455.3141339556
 31
0.0
  0
LINE
  5
1D4
330
1F
100
AcDbEntity
  8
0
  6
Continuous
 62
     7
370
    15
100
AcDbLine
 10
361.1638415372
 20
455.4573937193
 30
0.0
 11
361.1638415372
 21
455.561359121
 31
0.0
  0
LINE
  5
1D5
330
1F
100
AcDbEntity
  8
0
  6
Continuous
 62
     7
370
    15
100
AcDbLine
 10
355.8874446666
 20
464.6993770138
 30
0.0
 11
355.8718282496
 21
465.1586084501
 31
0.0
  0
SPLINE
  5
1D6
330
1F
100
AcDbEntity
  8
0
  6
Continuous
 62
     7
370
    15
100
AcDbSpline
210
0.0
220
0.0
230
1.0
 70
     8
 71
     3
 72
    11
 73
     7
 74
     0
 42
0.00000001
 43
0.00000001
 40
0.0
 40
0.0
 40
0.0
 40
0.0
 40
0.1207592001546205
 40
0.4133922129870417
 40
0.7063570810263333
 40
1.0
 40
1.0
 40
1.0
 40
1.0
 10
357.9201120650144
 20
444.5359452501731
 30
0.0
 10
357.9300353077613
 20
444.4376447202635
 30
0.0
 10
357.9640053181121
 20
444.1011347604002
 30
0.0
 10
358.011363674276
 20
443.632221665167
 30
0.0
 10
358.0542490206798
 20
443.2074877371606
 30
0.0
 10
358.0617982319467
 20
443.1329339111525
 30
0.0
 10
358.0655772005887
 20
443.095613910337
 30
0.0
  0
LINE
  5
1D7
330
1F
100
AcDbEntity
  8
0
  6
Continuous
 62
     7
370
    15
100
AcDbLine
 10
356.248291186
 20
495.5613582269
 30
0.0
 11
355.4965276038
 21
495.2877431051
 31
0.0
  0
LINE
  5
1D8
330
1F
100
AcDbEntity
  8
0
  6
Continuous
 62
     7
370
    15
100
AcDbLine
 10
361.6965282475
 20
494.5613562004
 30
0.0
 11
361.3965380704
 21
494.5613562004
 31
0.0
  0
LINE
  5
1D9
330
1F
100
AcDbEntity
  8
0
  6
Continuous
 62
     7
370
    15
100
AcDbLine
 10
361.3965380704
 20
493.5613616244
 30
0.0
 11
361.2965363776
 21
493.5613616244
 31
0.0
  0
LINE
  5
1DA
330
1F
100
AcDbEntity
  8
0
  6
Continuous
 62
     7
370
    15
100
AcDbLine
 10
361.2965363776
 20
487.5613569156
 30
0.0
 11
361.3965380704
 21
487.5613569156
 31
0.0
  0
LINE
  5
1DB
330
1F
100
AcDbEntity
  8
0
  6
Continuous
 62
     7
370
    15
100
AcDbLine
 10
361.3965380704
 20
470.561359717
 30
0.0
 11
361.2965363776
 21
470.561359717
 31
0.0
  0
LINE
  5
1DC
330
1F
100
AcDbEntity
  8
0
  6
Continuous
 62
     7
370
    15
100
AcDbLine
 10
361.2965363776
 20
464.5613624588
 30
0.0
 11
361.3965380704
 21
464.5613624588
 31
0.0
  0
LINE
  5
1DD
330
1F
100
AcDbEntity
  8
0
  6
Continuous
 62
     7
370
    15
100
AcDbLine
 10
361.6965282475
 20
438.5613544718
 30
0.0
 11
361.6965282475
 21
433.5613592402
 31
0.0
  0
LINE
  5
1DE
330
1F
100
AcDbEntity
  8
0
  6
Continuous
 62
     7
370
    15
100
AcDbLine
 10
361.6965282475
 20
438.5613544718
 30
0.0
 11
376.6965288436
 21
438.5613544718
 31
0.0
  0
LINE
  5
1DF
330
1F
100
AcDbEntity
  8
0
  6
Continuous
 62
     7
370
    15
100
AcDbLine
 10
376.6965288436
 20
438.5613544718
 30
0.0
 11
376.6965288436
 21
433.5613592402
 31
0.0
  0
LINE
  5
1E0
330
1F
100
AcDbEntity
  8
0
  6
Continuous
 62
     7
370
    15
100
AcDbLine
 10
361.6965282475
 20
433.5613592402
 30
0.0
 11
376.6965288436
 21
433.5613592402
 31
0.0
  0
LINE
  5
1E1
330
1F
100
AcDbEntity
  8
0
  6
Continuous
 62
     7
370
    15
100
AcDbLine
 10
746.696533612
 20
438.5613544718
 30
0.0
 11
746.696533612
 21
433.5613592402
 31
0.0
  0
LINE
  5
1E2
330
1F
100
AcDbEntity
  8
0
  6
Continuous
 62
     7
370
    15
100
AcDbLine
 10
376.6965288436
 20
433.5613592402
 30
0.0
 11
746.696533612
 21
433.5613592402
 31
0.0
  0
LINE
  5
1E3
330
1F
100
AcDbEntity
  8
0
  6
Continuous
 62
     7
370
    15
100
AcDbLine
 10
376.6965288436
 20
438.5613544718
 30
0.0
 11
746.696533612
 21
438.5613544718
 31
0.0
  0
ARC
  5
1E4
330
1F
100
AcDbEntity
  8
0
  6
Continuous
 62
     7
370
    15
100
AcDbCircle
 10
376.6965312278
 20
433.561358811
 30
0.0
 40
15.0
100
AcDbArc
 50
180.0
 51
270.0
  0
LINE
  5
1E5
330
1F
100
AcDbEntity
  8
0
  6
Continuous
 62
     7
370
    15
100
AcDbLine
 10
376.6965288436
 20
418.5613586441
 30
0.0
 11
376.6965288436
 21
433.5613592402
 31
0.0
  0
LINE
  5
1E6
330
1F
100
AcDbEntity
  8
0
  6
Continuous
 62
     7
370
    15
100
AcDbLine
 10
746.696533612
 20
433.5613592402
 30
0.0
 11
746.696533612
 21
418.5613586441
 31
0.0
  0
LINE
  5
1E7
330
1F
100
AcDbEntity
  8
0
  6
Continuous
 62
     7
370
    15
100
AcDbLine
 10
376.6965288436
 20
418.5613586441
 30
0.0
 11
746.696533612
 21
418.5613586441
 31
0.0
  0
LINE
  5
1E8
330
1F
100
AcDbEntity
  8
0
  6
Continuous
 62
     7
370
    15
100
AcDbLine
 10
761.696534208
 20
438.5613544718
 30
0.0
 11
761.696534208
 21
433.5613592402
 31
0.0
  0
LINE
  5
1E9
330
1F
100
AcDbEntity
  8
0
  6
Continuous
 62
     7
370
    15
100
AcDbLine
 10
761.696534208
 20
433.5613592402
 30
0.0
 11
746.696533612
 21
433.5613592402
 31
0.0
  0
LINE
  5
1EA
330
1F
100
AcDbEntity
  8
0
  6
Continuous
 62
     7
370
    15
100
AcDbLine
 10
761.696534208
 20
438.5613544718
 30
0.0
 11
746.696533612
 21
438.5613544718
 31
0.0
  0
ARC
  5
1EB
330
1F
100
AcDbEntity
  8
0
  6
Continuous
 62
     7
370
    15
100
AcDbCircle
 10
746.6965312278
 20
433.561358811
 30
0.0
 40
15.0
100
AcDbArc
 50
270.0
 51
0.0
  0
LINE
  5
1EC
330
1F
100
AcDbEntity
  8
0
  6
Continuous
 62
     7
370
    15
100
AcDbLine
 10
360.4965377366
 20
436.579127504
 30
0.0
 11
361.6965282475
 21
436.579127504
 31
0.0
  0
LINE
  5
1ED
330
1F
100
AcDbEntity
  8
0
  6
Continuous
 62
     7
370
    15
100
AcDbLine
 10
360.4965377366
 20
434.4751580492
 30
0.0
 11
361.6965282475
 21
434.4751580492
 31
0.0
  0
LINE
  5
1EE
330
1F
100
AcDbEntity
  8
0
  6
Continuous
 62
     7
370
    15
100
AcDbLine
 10
360.4965377366
 20
434.4751580492
 30
0.0
 11
360.4965377366
 21
436.579127504
 31
0.0
  0
LINE
  5
1EF
330
1F
100
AcDbEntity
  8
0
  6
Continuous
 62
     7
370
    15
100
AcDbLine
 10
360.4965377366
 20
441.5613605515
 30
0.0
 11
361.6965282475
 21
441.5613605515
 31
0.0
  0
LINE
  5
1F0
330
1F
100
AcDbEntity
  8
0
  6
Continuous
 62
     7
370
    15
100
AcDbLine
 10
361.6965282475
 20
438.5613544718
 30
0.0
 11
361.6965282475
 21
441.5613605515
 31
0.0
  0
LINE
  5
1F1
330
1F
100
AcDbEntity
  8
0
  6
Continuous
 62
     7
370
    15
100
AcDbLine
 10
360.4965377366
 20
441.5613605515
 30
0.0
 11
360.4965377366
 21
436.579127504
 31
0.0
  0
LINE
  5
1F2
330
1F
100
AcDbEntity
  8
0
  6
Continuous
 62
     7
370
    15
100
AcDbLine
 10
361.6965282475
 20
433.5613592402
 30
0.0
 11
361.6965282475
 21
430.0613595978
 31
0.0
  0
LINE
  5
1F3
330
1F
100
AcDbEntity
  8
0
  6
Continuous
 62
     7
370
    15
100
AcDbLine
 10
360.4965377366
 20
430.0613595978
 30
0.0
 11
360.4965377366
 21
434.4751580492
 31
0.0
  0
LINE
  5
1F4
330
1F
100
AcDbEntity
  8
0
  6
Continuous
 62
     7
370
    15
100
AcDbLine
 10
360.3965360438
 20
432.5613572136
 30
0.0
 11
360.3965360438
 21
438.5613544718
 31
0.0
  0
ARC
  5
1F5
330
1F
100
AcDbEntity
  8
0
  6
Continuous
 62
     7
370
    15
100
AcDbCircle
 10
358.8965312278
 20
443.261358811
 30
0.0
 40
2.800000000000051
100
AcDbArc
 50
0.0
 51
45.4024529621
  0
LINE
  5
1F6
330
1F
100
AcDbEntity
  8
0
  6
Continuous
 62
     7
370
    15
100
AcDbLine
 10
357.7888775384
 20
445.8329572216
 30
0.0
 11
357.1919966256
 21
445.4827501313
 31
0.0
  0
LINE
  5
1F7
330
1F
100
AcDbEntity
  8
0
  6
Continuous
 62
     7
370
    15
100
AcDbLine
 10
354.3790746247
 20
441.811744763
 30
0.0
 11
357.922511152
 21
444.5307298438
 31
0.0
  0
LINE
  5
1F8
330
1F
100
AcDbEntity
  8
0
  6
Continuous
 62
     7
370
    15
100
AcDbLine
 10
353.6485600983
 20
442.7637650506
 30
0.0
 11
354.3790746247
 21
441.811744763
 31
0.0
  0
LINE
  5
1F9
330
1F
100
AcDbEntity
  8
0
  6
Continuous
 62
     7
370
    15
100
AcDbLine
 10
357.1919966256
 20
445.4827501313
 30
0.0
 11
353.6485600983
 21
442.7637650506
 31
0.0
  0
LINE
  5
1FA
330
1F
100
AcDbEntity
  8
0
  6
Continuous
 62
     7
370
    15
100
AcDbLine
 10
361.6965282475
 20
441.5613605515
 30
0.0
 11
361.6965282475
 21
442.5613625781
 31
0.0
  0
LINE
  5
1FB
330
1F
100
AcDbEntity
  8
0
  6
Continuous
 62
     7
370
    15
100
AcDbLine
 10
360.4965377366
 20
442.2023041979
 30
0.0
 11
360.4965377366
 21
441.5613605515
 31
0.0
  0
LWPOLYLINE
  5
1FC
330
1F
100
AcDbEntity
  8
0
  6
Continuous
 62
     7
370
    15
100
AcDbPolyline
 90
        9
 70
   128
 43
0.0
 10
354.3790746247
 20
441.811744763
 10
354.1933316504
 20
441.6692300574
 10
354.0147412335
 20
441.5321840779
 10
353.8501579081
 20
441.4058967368
 10
353.7058848655
 20
441.2951960103
 10
353.5874951398
 20
441.2043436305
 10
353.4995186841
 20
441.1368413702
 10
353.445338062
 20
441.0952671305
 10
353.427039436
 20
441.0812302367
  0
LINE
  5
1FD
330
1F
100
AcDbEntity
  8
0
  6
Continuous
 62
     7
370
    15
100
AcDbLine
 10
353.427039436
 20
441.0812302367
 30
0.0
 11
352.6965249097
 21
442.0332505242
 31
0.0
  0
LWPOLYLINE
  5
1FE
330
1F
100
AcDbEntity
  8
0
  6
Continuous
 62
     7
370
    15
100
AcDbPolyline
 90
        9
 70
   128
 43
0.0
 10
352.6965249097
 20
442.0332505242
 10
352.7148235356
 20
442.047287418
 10
352.7690041577
 20
442.0888616578
 10
352.8569806134
 20
442.156363918
 10
352.9753703391
 20
442.2472162978
 10
353.1196433818
 20
442.3579170243
 10
353.2842267072
 20
442.4842192666
 10
353.4628171241
 20
442.6212503449
 10
353.6485600983
 20
442.7637650506
  0
SPLINE
  5
1FF
330
1F
100
AcDbEntity
  8
0
  6
Continuous
 62
     7
370
    15
100
AcDbSpline
210
0.0
220
0.0
230
1.0
 70
     8
 71
     3
 72
    12
 73
     8
 74
     0
 42
0.00000001
 43
0.00000001
 40
0.0
 40
0.0
 40
0.0
 40
0.0
 40
0.2340518048260158
 40
0.4681083238238113
 40
0.7021649540123228
 40
0.9362191112700744
 40
0.9999999999999999
 40
0.9999999999999999
 40
0.9999999999999999
 40
0.9999999999999999
 10
357.9935151850553
 20
460.2384759918647
 30
0.0
 10
357.7971223229562
 20
460.2190930862976
 30
0.0
 10
357.4043326430969
 20
460.1803268847612
 30
0.0
 10
356.8668339450692
 20
460.1750891651659
 30
0.0
 10
356.4933314794021
 20
460.2135550221747
 30
0.0
 10
356.3141388753968
 20
460.2682191206697
 30
0.0
 10
356.3428579842737
 20
460.3121742905688
 30
0.0
 10
356.3490081345411
 20
460.3215872184234
 30
0.0
  0
SPLINE
  5
200
330
1F
100
AcDbEntity
  8
0
  6
Continuous
 62
     7
370
    15
100
AcDbSpline
210
0.0
220
0.0
230
1.0
 70
     8
 71
     3
 72
    11
 73
     7
 74
     0
 42
0.00000001
 43
0.00000001
 40
0.0
 40
0.0
 40
0.0
 40
0.0
 40
0.1986868986185168
 40
0.4657930972863268
 40
0.7328953533015765
 40
1.0
 40
1.0
 40
1.0
 40
1.0
 10
359.2894244706006
 20
460.6173603669601
 30
0.0
 10
359.2882416116699
 20
460.5928704822554
 30
0.0
 10
359.2854685676051
 20
460.5354574402879
 30
0.0
 10
359.0159305366457
 20
460.4283654765844
 30
0.0
 10
358.5688799325692
 20
460.3175588232912
 30
0.0
 10
358.1853040064197
 20
460.2648370143204
 30
0.0
 10
357.9935151850553
 20
460.2384759918647
 30
0.0
  0
SPLINE
  5
201
330
1F
100
AcDbEntity
  8
0
  6
Continuous
 62
     7
370
    15
100
AcDbSpline
210
0.0
220
0.0
230
1.0
 70
     8
 71
     3
 72
    12
 73
     8
 74
     0
 42
0.00000001
 43
0.00000001
 40
0.0
 40
0.0
 40
0.0
 40
0.0
 40
0.2339657516696391
 40
0.4679297819275171
 40
0.7018962886551927
 40
0.935865542599682
 40
1.0
 40
1.0
 40
1.0
 40
1.0
 10
357.3865312849851
 20
466.2503494755226
 30
0.0
 10
357.1904511124594
 20
466.2278434577327
 30
0.0
 10
356.7982922100752
 20
466.1828315877418
 30
0.0
 10
356.2953599875009
 20
465.8353424770716
 30
0.0
 10
355.9755468558571
 20
465.341853576359
 30
0.0
 10
355.8476187105193
 20
464.8882678652625
 30
0.0
 10
355.9054097819165
 20
464.645275374832
 30
0.0
 10
355.9178430353971
 20
464.5929976240593
 30
0.0
  0
SPLINE
  5
202
330
1F
100
AcDbEntity
  8
0
  6
Continuous
 62
     7
370
    15
100
AcDbSpline
210
0.0
220
0.0
230
1.0
 70
     8
 71
     3
 72
    11
 73
     7
 74
     0
 42
0.00000001
 43
0.00000001
 40
0.0
 40
0.0
 40
0.0
 40
0.0
 40
0.197688317045171
 40
0.4651245499065082
 40
0.732557952030392
 40
1.0
 40
1.0
 40
1.0
 40
1.0
 10
358.8567543541761
 20
464.9000584022003
 30
0.0
 10
358.8384741593226
 20
465.0448093918882
 30
0.0
 10
358.7954641953019
 20
465.3853820667607
 30
0.0
 10
358.4700049846277
 20
465.8351549723379
 30
0.0
 10
357.9767092280087
 20
466.1828814880762
 30
0.0
 10
357.5832593859298
 20
466.2278599040267
 30
0.0
 10
357.3865312849851
 20
466.2503494755226
 30
0.0
  0
SPLINE
  5
203
330
1F
100
AcDbEntity
  8
0
  6
Continuous
 62
     7
370
    15
100
AcDbSpline
210
0.0
220
0.0
230
1.0
 70
     8
 71
     3
 72
    12
 73
     8
 74
     0
 42
0.00000001
 43
0.00000001
 40
0.0
 40
0.0
 40
0.0
 40
0.0
 40
0.2350176793872489
 40
0.4700291397670341
 40
0.7050458845177425
 40
0.9400624323235348
 40
1.0
 40
1.0
 40
1.0
 40
1.0
 10
359.5625925576063
 20
444.6975036398368
 30
0.0
 10
359.3662017785025
 20
444.6781256855008
 30
0.0
 10
358.9734254171624
 20
444.6393702896058
 30
0.0
 10
358.4358176216846
 20
444.6341018973226
 30
0.0
 10
358.0627519890955
 20
444.6726276368931
 30
0.0
 10
357.8837105916949
 20
444.7267484308348
 30
0.0
 10
357.9116111727999
 20
444.7700498133809
 30
0.0
 10
357.9172808443875
 20
444.778849078794
 30
0.0
  0
SPLINE
  5
204
330
1F
100
AcDbEntity
  8
0
  6
Continuous
 62
     7
370
    15
100
AcDbSpline
210
0.0
220
0.0
230
1.0
 70
     8
 71
     3
 72
    11
 73
     7
 74
     0
 42
0.00000001
 43
0.00000001
 40
0.0
 40
0.0
 40
0.0
 40
0.0
 40
0.1989239597362801
 40
0.465950584310487
 40
0.7329742733226847
 40
1.0
 40
1.0
 40
1.0
 40
1.0
 10
360.8585465466352
 20
445.0764997736412
 30
0.0
 10
360.8573727591992
 20
445.051973495533
 30
0.0
 10
360.8546233320192
 20
444.9945242388896
 30
0.0
 10
360.5850164533359
 20
444.8874063216173
 30
0.0
 10
360.1379554221833
 20
444.7765832102723
 30
0.0
 10
359.754380666975
 20
444.7238635636992
 30
0.0
 10
359.5625925576063
 20
444.6975036398368
 30
0.0
  0
ARC
  5
205
330
1F
100
AcDbEntity
  8
0
  6
Continuous
 62
     7
370
    15
100
AcDbCircle
 10
360.7638204207
 20
454.9991344524
 30
0.0
 40
0.400007527466602
100
AcDbArc
 50
0.1467585748
 51
179.5021275156
  0
ELLIPSE
  5
206
330
1F
100
AcDbEntity
  8
0
  6
Continuous
 62
     7
370
    15
100
AcDbEllipse
 10
360.7638306281
 20
454.7342504173
 30
0.0
 11
0.3991830274372887
 21
-0.0262460422114259
 31
0.0
210
0.0
220
0.0
230
0.9999999999999999
 40
0.9763157485
 41
0.0
 42
6.283185307179586
  0
SPLINE
  5
207
330
1F
100
AcDbEntity
  8
0
  6
Continuous
 62
     7
370
    15
100
AcDbSpline
210
0.0
220
0.0
230
1.0
 70
     8
 71
     3
 72
    13
 73
     9
 74
     0
 42
0.00000001
 43
0.00000001
 40
0.0
 40
0.0
 40
0.0
 40
0.0
 40
0.0081702280425704
 40
0.2391539873185931
 40
0.4710971973866074
 40
0.6931205590767906
 40
0.9042225733627326
 40
1.0
 40
1.0
 40
1.0
 40
1.0
 10
360.7638347660871
 20
455.4630859629112
 30
0.0
 10
360.7621758651127
 20
455.4626911668457
 30
0.0
 10
360.7136175163703
 20
455.4511349345435
 30
0.0
 10
360.6174840316849
 20
455.4279420037464
 30
0.0
 10
360.4946515557982
 20
455.3842845943416
 30
0.0
 10
360.4089993623527
 20
455.3468452491917
 30
0.0
 10
360.3649815349794
 20
455.3256955424268
 30
0.0
 10
360.3682135116986
 20
455.3207169286188
 30
0.0
 10
360.3692222153516
 20
455.3191630975204
 30
0.0
  0
SPLINE
  5
208
330
1F
100
AcDbEntity
  8
0
  6
Continuous
 62
     7
370
    15
100
AcDbSpline
210
0.0
220
0.0
230
1.0
 70
     8
 71
     3
 72
    13
 73
     9
 74
     0
 42
0.00000001
 43
0.00000001
 40
0.0
 40
0.0
 40
0.0
 40
0.0
 40
0.1252296646732068
 40
0.2499794552566222
 40
0.4999947492888411
 40
0.7499963880864888
 40
0.8747535995357313
 40
1.0
 40
1.0
 40
1.0
 40
1.0
 10
361.1638415371747
 20
455.4573937193351
 30
0.0
 10
361.1621271059064
 20
455.4574165625852
 30
0.0
 10
361.1587048129886
 20
455.4574621615511
 30
0.0
 10
361.1243261570933
 20
455.4579572791625
 30
0.0
 10
361.0490452849748
 20
455.4590253566889
 30
0.0
 10
360.9403966920264
 20
455.4605775990249
 30
0.0
 10
360.8416856111302
 20
455.4619740413405
 30
0.0
 10
360.7898188774611
 20
455.4627148392077
 30
0.0
 10
360.7638347660871
 20
455.4630859629112
 30
0.0
  0
SPLINE
  5
209
330
1F
100
AcDbEntity
  8
0
  6
Continuous
 62
     7
370
    15
100
AcDbSpline
210
0.0
220
0.0
230
1.0
 70
     8
 71
     3
 72
    10
 73
     6
 74
     0
 42
0.00000001
 43
0.00000001
 40
0.0
 40
0.0
 40
0.0
 40
0.0
 40
0.0190107309040389
 40
0.5253203859619627
 40
1.0
 40
1.0
 40
1.0
 40
1.0
 10
360.7638347660871
 20
455.4630859629112
 30
0.0
 10
360.7653591160678
 20
455.4638236597116
 30
0.0
 10
360.8074812272222
 20
455.4842083135097
 30
0.0
 10
360.8900000612467
 20
455.5226230488004
 30
0.0
 10
360.9601556359198
 20
455.5487276606252
 30
0.0
 10
360.9941024100156
 20
455.5613591209846
 30
0.0
  0
LINE
  5
20A
330
1F
100
AcDbEntity
  8
0
  6
Continuous
 62
     7
370
    15
100
AcDbLine
 10
355.8873105561
 20
464.7023199932
 30
0.0
 11
355.8997679269
 21
464.5515500442
 31
0.0
  0
LINE
  5
20B
330
1F
100
AcDbEntity
  8
0
  6
Continuous
 62
     7
370
    15
100
AcDbLine
 10
358.8795382296
 20
464.8950590626
 30
0.0
 11
358.8439542567
 21
465.1052175895
 31
0.0
  0
ARC
  5
20C
330
1F
100
AcDbEntity
  8
0
  6
Continuous
 62
     7
370
    15
100
AcDbCircle
 10
356.7965312278
 20
458.581358811
 30
0.0
 40
2.200000000000036
100
AcDbArc
 50
103.5934783352
 51
268.1042765976
  0
LINE
  5
20D
330
1F
100
AcDbEntity
  8
0
  6
Continuous
 62
     7
370
    15
100
AcDbLine
 10
353.2497007167
 20
459.959123923
 30
0.0
 11
353.583352617
 21
461.8513553277
 31
0.0
  0
LWPOLYLINE
  5
20E
330
1F
100
AcDbEntity
  8
0
  6
Continuous
 62
     7
370
    15
100
AcDbPolyline
 90
        9
 70
   128
 43
0.0
 10
353.583352617
 20
461.8513553277
 10
353.4391093766
 20
461.8767916099
 10
353.3020782983
 20
461.9009538428
 10
353.1769681489
 20
461.9230150119
 10
353.0681151664
 20
461.9422077075
 10
352.9792893445
 20
461.957868828
 10
352.9135603225
 20
461.9694619314
 10
352.8731930768
 20
461.9765772358
 10
352.8595734155
 20
461.9789837734
  0
LINE
  5
20F
330
1F
100
AcDbEntity
  8
0
  6
Continuous
 62
     7
370
    15
100
AcDbLine
 10
352.8595734155
 20
461.9789837734
 30
0.0
 11
357.2346139466
 21
486.7910935418
 31
0.0
  0
LWPOLYLINE
  5
210
330
1F
100
AcDbEntity
  8
0
  6
Continuous
 62
     7
370
    15
100
AcDbPolyline
 90
        9
 70
   128
 43
0.0
 10
357.2346139466
 20
486.7910935418
 10
357.2497535264
 20
486.7884187833
 10
357.2945911204
 20
486.7805137173
 10
357.367398194
 20
486.7676763669
 10
357.4653733289
 20
486.7504059211
 10
357.5847614323
 20
486.7293505804
 10
357.7209729468
 20
486.7053373591
 10
357.8687626635
 20
486.6792752282
 10
358.0224681413
 20
486.652170016
  0
LINE
  5
211
330
1F
100
AcDbEntity
  8
0
  6
Continuous
 62
     7
370
    15
100
AcDbLine
 10
358.0224681413
 20
486.652170016
 30
0.0
 11
353.19712942
 21
459.286373748
 31
0.0
  0
LINE
  5
212
330
1F
100
AcDbEntity
  8
0
  6
Continuous
 62
     7
370
    15
100
AcDbLine
 10
353.19712942
 20
459.286373748
 30
0.0
 11
353.2497007167
 21
459.959123923
 31
0.0
  0
LWPOLYLINE
  5
213
330
1F
100
AcDbEntity
  8
0
  6
Continuous
 62
     7
370
    15
100
AcDbPolyline
 90
        5
 70
   128
 43
0.0
 10
356.0819197213
 20
493.6794160739
 10
355.8284360682
 20
494.3758218423
 10
355.6448835646
 20
494.8801367418
 10
355.5337507045
 20
495.185491337
 10
355.4965276038
 20
495.2877431051
  0
LWPOLYLINE
  5
214
330
1F
100
AcDbEntity
  8
0
  6
Continuous
 62
     7
370
    15
100
AcDbPolyline
 90
        5
 70
   128
 43
0.0
 10
356.8415362155
 20
493.9314021603
 10
356.5846998011
 20
494.637076451
 10
356.3986588036
 20
495.1481937305
 10
356.286006025
 20
495.4577132002
 10
356.248291186
 20
495.5613582269
  0
LINE
  5
215
330
1F
100
AcDbEntity
  8
0
  6
Continuous
 62
     7
370
    15
100
AcDbLine
 10
357.0636380231
 20
493.5769631401
 30
0.0
 11
356.8415362155
 21
493.9314021603
 31
0.0
  0
LINE
  5
216
330
1F
100
AcDbEntity
  8
0
  6
Continuous
 62
     7
370
    15
100
AcDbLine
 10
356.9814432179
 20
493.5470416085
 30
0.0
 11
357.0636380231
 21
493.5769631401
 31
0.0
  0
SPLINE
  5
217
330
1F
100
AcDbEntity
  8
0
  6
Continuous
 62
     7
370
    15
100
AcDbSpline
210
0.0
220
0.0
230
1.0
 70
     8
 71
     3
 72
    12
 73
     8
 74
     0
 42
0.00000001
 43
0.00000001
 40
0.0
 40
0.0
 40
0.0
 40
0.0
 40
0.2510219938737357
 40
0.5023977523608443
 40
0.7402766005126201
 40
0.9473072801081994
 40
1.0
 40
1.0
 40
1.0
 40
1.0
 10
356.0819197213025
 20
493.6794160739379
 30
0.0
 10
356.1096285553457
 20
493.6350983281063
 30
0.0
 10
356.1650852734166
 20
493.5464003795643
 30
0.0
 10
356.3720832971998
 20
493.4714077268032
 30
0.0
 10
356.6334714742285
 20
493.4599133597251
 30
0.0
 10
356.8500544105719
 20
493.5015594140429
 30
0.0
 10
356.9592829221146
 20
493.539370491707
 30
0.0
 10
356.9814432179303
 20
493.5470416084724
 30
0.0
  0
LINE
  5
218
330
1F
100
AcDbEntity
  8
0
  6
Continuous
 62
     7
370
    15
100
AcDbLine
 10
356.9814432179
 20
493.5470416085
 30
0.0
 11
357.5577754294
 21
491.963554813
 31
0.0
  0
LWPOLYLINE
  5
219
330
1F
100
AcDbEntity
  8
0
  6
Continuous
 62
     7
370
    15
100
AcDbPolyline
 90
        9
 70
   128
 43
0.0
 10
356.8060267484
 20
491.6899396912
 10
356.8204659736
 20
491.6951998011
 10
356.8632472073
 20
491.7107715146
 10
356.9327164208
 20
491.7360513345
 10
357.0262063062
 20
491.7700781361
 10
357.1401256835
 20
491.8115406171
 10
357.2700936114
 20
491.8588518039
 10
357.411118201
 20
491.9101788537
 10
357.5577754294
 20
491.963554813
  0
LINE
  5
21A
330
1F
100
AcDbEntity
  8
0
  6
Continuous
 62
     7
370
    15
100
AcDbLine
 10
356.8060267484
 20
491.6899396912
 30
0.0
 11
356.0819197213
 21
493.6794160739
 31
0.0
  0
ARC
  5
21B
330
1F
100
AcDbEntity
  8
0
  6
Continuous
 62
     7
370
    15
100
AcDbCircle
 10
357.3865367339
 20
464.7503497295
 30
0.0
 40
1.600000000000028
100
AcDbArc
 50
347.034367059
 51
204.5705045338
  0
ARC
  5
21C
330
1F
100
AcDbEntity
  8
0
  6
Continuous
 62
     7
370
    15
100
AcDbCircle
 10
357.8992456992
 20
492.7734236654
 30
0.0
 40
0.5
100
AcDbArc
 50
36.8410865503
 51
90.0
  0
ARC
  5
21D
330
1F
100
AcDbEntity
  8
0
  6
Continuous
 62
     7
370
    15
100
AcDbCircle
 10
350.6965312278
 20
487.377044857
 30
0.0
 40
9.5
100
AcDbArc
 50
0.0
 51
36.8410865502
  0
LINE
  5
21E
330
1F
100
AcDbEntity
  8
0
  6
Continuous
 62
     7
370
    15
100
AcDbLine
 10
360.1965326583
 20
487.3770444528
 30
0.0
 11
360.1965326583
 21
459.3513577119
 31
0.0
  0
ARC
  5
21F
330
1F
100
AcDbEntity
  8
0
  6
Continuous
 62
     7
370
    15
100
AcDbCircle
 10
347.8789441873
 20
488.4407492793
 30
0.0
 40
10.30000000000013
100
AcDbArc
 50
350.0
 51
20.0
  0
ARC
  5
220
330
1F
100
AcDbEntity
  8
0
  6
Continuous
 62
     7
370
    15
100
AcDbCircle
 10
357.7812331536
 20
494.2734236654
 30
0.0
 40
1.0
100
AcDbArc
 50
224.1440002858
 51
270.0
  0
LINE
  5
221
330
1F
100
AcDbEntity
  8
0
  6
Continuous
 62
     7
370
    15
100
AcDbLine
 10
357.7812332427
 20
493.2734264866
 30
0.0
 11
357.8992504393
 21
493.2734264866
 31
0.0
  0
LWPOLYLINE
  5
222
330
1F
100
AcDbEntity
  8
0
  6
Continuous
 62
     7
370
    15
100
AcDbPolyline
 90
        3
 70
   128
 43
0.0
 10
360.1965326583
 20
459.3513577119
 10
359.9879164016
 20
458.1610753075
 10
359.6317488467
 20
457.44491805
  0
ARC
  5
223
330
1F
100
AcDbEntity
  8
0
  6
Continuous
 62
     7
370
    15
100
AcDbCircle
 10
356.6965312278
 20
459.351358811
 30
0.0
 40
3.500000000000008
100
AcDbArc
 50
181.0639402281
 51
271.3221928089
  0
ARC
  5
224
330
1F
100
AcDbEntity
  8
0
  6
Continuous
 62
     7
370
    15
100
AcDbCircle
 10
347.8789441873
 20
488.4407492793
 30
0.0
 40
9.500000000000352
100
AcDbArc
 50
350.0
 51
20.0
  0
ARC
  5
225
330
1F
100
AcDbEntity
  8
0
  6
Continuous
 62
     7
370
    15
100
AcDbCircle
 10
357.2901490211
 20
460.0488543378
 30
0.0
 40
4.6984283026884
100
AcDbArc
 50
170.0
 51
264.3261771657
  0
LINE
  5
226
330
1F
100
AcDbEntity
  8
0
  6
Continuous
 62
     7
370
    15
100
AcDbLine
 10
352.8595734155
 20
461.9789837734
 30
0.0
 11
352.6631016051
 21
460.8647270934
 31
0.0
  0
LINE
  5
227
330
1F
100
AcDbEntity
  8
0
  6
Continuous
 62
     7
370
    15
100
AcDbLine
 10
376.6965288436
 20
563.5613591284
 30
0.0
 11
376.6965288436
 21
578.5613587932
 31
0.0
  0
LINE
  5
228
330
1F
100
AcDbEntity
  8
0
  6
Continuous
 62
     7
370
    15
100
AcDbLine
 10
376.6965288436
 20
563.5613591284
 30
0.0
 11
361.6965282475
 21
563.5613591284
 31
0.0
  0
ARC
  5
229
330
1F
100
AcDbEntity
  8
0
  6
Continuous
 62
     7
370
    15
100
AcDbCircle
 10
376.6965312278
 20
563.561358811
 30
0.0
 40
15.0
100
AcDbArc
 50
90.0
 51
180.0
  0
LINE
  5
22A
330
1F
100
AcDbEntity
  8
0
  6
Continuous
 62
     7
370
    15
100
AcDbLine
 10
746.696533612
 20
578.5613587932
 30
0.0
 11
376.6965288436
 21
578.5613587932
 31
0.0
  0
LINE
  5
22B
330
1F
100
AcDbEntity
  8
0
  6
Continuous
 62
     7
370
    15
100
AcDbLine
 10
746.696533612
 20
563.5613591284
 30
0.0
 11
746.696533612
 21
578.5613587932
 31
0.0
  0
LINE
  5
22C
330
1F
100
AcDbEntity
  8
0
  6
Continuous
 62
     7
370
    15
100
AcDbLine
 10
746.696533612
 20
563.5613591284
 30
0.0
 11
376.6965288436
 21
563.5613591284
 31
0.0
  0
LINE
  5
22D
330
1F
100
AcDbEntity
  8
0
  6
Continuous
 62
     7
370
    15
100
AcDbLine
 10
746.696533612
 20
563.5613591284
 30
0.0
 11
761.696534208
 21
563.5613591284
 31
0.0
  0
ARC
  5
22E
330
1F
100
AcDbEntity
  8
0
  6
Continuous
 62
     7
370
    15
100
AcDbCircle
 10
746.6965312278
 20
563.561358811
 30
0.0
 40
15.0
100
AcDbArc
 50
0.0
 51
90.0
  0
LINE
  5
22F
330
1F
100
AcDbEntity
  8
0
  6
Continuous
 62
     7
370
    15
100
AcDbLine
 10
761.696534208
 20
442.5613625781
 30
0.0
 11
761.696534208
 21
563.5613591284
 31
0.0
  0
LINE
  5
230
330
1F
100
AcDbEntity
  8
0
  6
Continuous
 62
     7
370
    15
100
AcDbLine
 10
761.696534208
 20
442.5613625781
 30
0.0
 11
746.696533612
 21
442.5613625781
 31
0.0
  0
LINE
  5
231
330
1F
100
AcDbEntity
  8
0
  6
Continuous
 62
     7
370
    15
100
AcDbLine
 10
746.696533612
 20
442.5613625781
 30
0.0
 11
746.696533612
 21
563.5613591284
 31
0.0
  0
LINE
  5
232
330
1F
100
AcDbEntity
  8
0
  6
Continuous
 62
     7
370
    15
100
AcDbLine
 10
381.6965240752
 20
462.5613584057
 30
0.0
 11
381.6965240752
 21
558.5613592402
 31
0.0
  0
LINE
  5
233
330
1F
100
AcDbEntity
  8
0
  6
Continuous
 62
     7
370
    15
100
AcDbLine
 10
381.6965240752
 20
462.5613584057
 30
0.0
 11
741.6965383803
 21
462.5613584057
 31
0.0
  0
LINE
  5
234
330
1F
100
AcDbEntity
  8
0
  6
Continuous
 62
     7
370
    15
100
AcDbLine
 10
741.6965383803
 20
558.5613592402
 30
0.0
 11
741.6965383803
 21
462.5613584057
 31
0.0
  0
LINE
  5
235
330
1F
100
AcDbEntity
  8
0
  6
Continuous
 62
     7
370
    15
100
AcDbLine
 10
741.6965383803
 20
558.5613592402
 30
0.0
 11
381.6965240752
 21
558.5613592402
 31
0.0
  0
LINE
  5
236
330
1F
100
AcDbEntity
  8
0
  6
Continuous
 62
     7
370
    15
100
AcDbLine
 10
746.696533612
 20
442.5613625781
 30
0.0
 11
376.6965288436
 21
442.5613625781
 31
0.0
  0
LINE
  5
237
330
1F
100
AcDbEntity
  8
0
  6
Continuous
 62
     7
370
    15
100
AcDbLine
 10
376.6965288436
 20
442.5613625781
 30
0.0
 11
376.6965288436
 21
563.5613591284
 31
0.0
  0
LINE
  5
238
330
1F
100
AcDbEntity
  8
0
  6
Continuous
 62
     7
370
    15
100
AcDbLine
 10
376.6965288436
 20
442.5613625781
 30
0.0
 11
361.6965282475
 21
442.5613625781
 31
0.0
  0
LINE
  5
239
330
1F
100
AcDbEntity
  8
0
  6
Continuous
 62
     7
370
    15
100
AcDbLine
 10
361.6965282475
 20
442.5613625781
 30
0.0
 11
361.6965282475
 21
563.5613591284
 31
0.0
  0
LINE
  5
23A
330
1F
100
AcDbEntity
  8
0
  6
Continuous
 62
     7
370
    15
100
AcDbLine
 10
756.6965240752
 20
438.5613544718
 30
0.0
 11
756.6965240752
 21
442.5613625781
 31
0.0
  0
LINE
  5
23B
330
1F
100
AcDbEntity
  8
0
  6
Continuous
 62
     7
370
    15
100
AcDbLine
 10
741.6965383803
 20
438.5613544718
 30
0.0
 11
741.6965383803
 21
442.5613625781
 31
0.0
  0
LINE
  5
23C
330
1F
100
AcDbEntity
  8
0
  6
Continuous
 62
     7
370
    15
100
AcDbLine
 10
381.6965240752
 20
438.5613544718
 30
0.0
 11
381.6965240752
 21
442.5613625781
 31
0.0
  0
LINE
  5
23D
330
1F
100
AcDbEntity
  8
0
  6
Continuous
 62
     7
370
    15
100
AcDbLine
 10
366.6965383803
 20
438.5613544718
 30
0.0
 11
366.6965383803
 21
442.5613625781
 31
0.0
  0
LINE
  5
23E
330
1F
100
AcDbEntity
  8
0
  6
Continuous
 62
     7
370
    15
100
AcDbLine
 10
761.696534208
 20
442.5613625781
 30
0.0
 11
762.3638529097
 21
442.5613625781
 31
0.0
  0
ARC
  5
23F
330
1F
100
AcDbEntity
  8
0
  6
Continuous
 62
     7
370
    15
100
AcDbCircle
 10
762.3638489758
 20
443.061358811
 30
0.0
 40
0.5000000000000568
100
AcDbArc
 50
270.0
 51
332.720387264
  0
ARC
  5
240
330
1F
100
AcDbEntity
  8
0
  6
Continuous
 62
     7
370
    15
100
AcDbCircle
 10
762.1343823624
 20
438.061358811
 30
0.0
 40
0.5
100
AcDbArc
 50
22.0243128371
 51
90.0
  0
ARC
  5
241
330
1F
100
AcDbEntity
  8
0
  6
Continuous
 62
     7
370
    15
100
AcDbCircle
 10
767.6965312278
 20
440.311358811
 30
0.0
 40
5.500000000000259
100
AcDbArc
 50
202.024312837
 51
152.720387264
  0
LINE
  5
242
330
1F
100
AcDbEntity
  8
0
  6
Continuous
 62
     7
370
    15
100
AcDbLine
 10
762.1343750274
 20
438.5613544718
 30
0.0
 11
761.696534208
 21
438.5613544718
 31
0.0
  0
LINE
  5
243
330
1F
100
AcDbEntity
  8
0
  6
Continuous
 62
     7
370
    15
100
AcDbLine
 10
361.3965380704
 20
461.7613597647
 30
0.0
 11
361.6965282475
 21
461.7624177472
 31
0.0
  0
LINE
  5
244
330
1F
100
AcDbEntity
  8
0
  6
Continuous
 62
     7
370
    15
100
AcDbLine
 10
361.6965282475
 20
463.7613563673
 30
0.0
 11
361.3965380704
 21
463.7613563673
 31
0.0
  0
LINE
  5
245
330
1F
100
AcDbEntity
  8
0
  6
Continuous
 62
     7
370
    15
100
AcDbLine
 10
361.3965380704
 20
461.7613597647
 30
0.0
 11
361.3965380704
 21
463.7613563673
 31
0.0
  0
LINE
  5
246
330
1F
100
AcDbEntity
  8
0
  6
Continuous
 62
     7
370
    15
100
AcDbLine
 10
361.6965282475
 20
455.561359121
 30
0.0
 11
361.3965380704
 21
455.561359121
 31
0.0
  0
LINE
  5
247
330
1F
100
AcDbEntity
  8
0
  6
Continuous
 62
     7
370
    15
100
AcDbLine
 10
361.3965380704
 20
455.561359121
 30
0.0
 11
361.3965380704
 21
461.7613597647
 31
0.0
  0
ARC
  5
248
330
1F
100
AcDbEntity
  8
0
  6
Continuous
 62
     7
370
    15
100
AcDbCircle
 10
356.4965312278
 20
458.661358811
 30
0.0
 40
3.100000000000023
100
AcDbArc
 50
192.3149192898
 51
270.0
  0
LINE
  5
249
330
1F
100
AcDbEntity
  8
0
  6
Continuous
 62
     7
370
    15
100
AcDbLine
 10
361.3965380704
 20
461.7613597647
 30
0.0
 11
360.1965326583
 21
461.7613597647
 31
0.0
  0
LINE
  5
24A
330
1F
100
AcDbEntity
  8
0
  6
Continuous
 62
     7
370
    15
100
AcDbLine
 10
356.4965296304
 20
455.561359121
 30
0.0
 11
356.8066674983
 21
455.561359121
 31
0.0
  0
LINE
  5
24B
330
1F
100
AcDbEntity
  8
0
  6
Continuous
 62
     7
370
    15
100
AcDbLine
 10
359.8219174659
 20
455.561359121
 30
0.0
 11
361.3965380704
 21
455.561359121
 31
0.0
  0
LINE
  5
24C
330
1F
100
AcDbEntity
  8
0
  6
Continuous
 62
     7
370
    15
100
AcDbLine
 10
361.3965380704
 20
463.7613563673
 30
0.0
 11
361.3965380704
 21
487.8113611475
 31
0.0
  0
LINE
  5
24D
330
1F
100
AcDbEntity
  8
0
  6
Continuous
 62
     7
370
    15
100
AcDbLine
 10
361.3965380704
 20
494.5613562004
 30
0.0
 11
361.3965380704
 21
487.8113611475
 31
0.0
  0
LINE
  5
24E
330
1F
100
AcDbEntity
  8
0
  6
Continuous
 62
     7
370
    15
100
AcDbLine
 10
361.2965363776
 20
487.5613569156
 30
0.0
 11
361.2965363776
 21
493.5613616244
 31
0.0
  0
LINE
  5
24F
330
1F
100
AcDbEntity
  8
0
  6
Continuous
 62
     7
370
    15
100
AcDbLine
 10
361.2965363776
 20
464.5613624588
 30
0.0
 11
361.2965363776
 21
470.561359717
 31
0.0
  0
LINE
  5
250
330
1F
100
AcDbEntity
  8
0
  6
Continuous
 62
     7
370
    15
100
AcDbLine
 10
360.1965326583
 20
479.9181713597
 30
0.0
 11
361.3965380704
 21
479.5966341034
 31
0.0
  0
LINE
  5
251
330
1F
100
AcDbEntity
  8
0
  6
Continuous
 62
     7
370
    15
100
AcDbLine
 10
361.3965380704
 20
478.5613610283
 30
0.0
 11
360.1965326583
 21
478.8828982846
 31
0.0
  0
LINE
  5
252
330
1F
100
AcDbEntity
  8
0
  6
Continuous
 62
     8
370
    15
100
AcDbLine
 10
361.6965282475
 20
487.8113611475
 30
0.0
 11
361.3965380704
 21
487.8113611475
 31
0.0
  0
ENDSEC
  0
SECTION
  2
OBJECTS
  0
DICTIONARY
  5
C
330
0
100
AcDbDictionary
281
     1
  3
ACAD_GROUP
350
D
  3
ACAD_LAYOUT
350
1A
  3
ACAD_MLINESTYLE
350
17
  3
ACAD_PLOTSETTINGS
350
19
  3
ACAD_PLOTSTYLENAME
350
E
  0
DICTIONARY
  5
D
102
{ACAD_REACTORS
330
C
102
}
330
C
100
AcDbDictionary
281
     1
  0
DICTIONARY
  5
1A
102
{ACAD_REACTORS
330
C
102
}
330
C
100
AcDbDictionary
281
     1
  3
Layout1
350
1E
  3
Layout2
350
26
  3
Model
350
22
  0
DICTIONARY
  5
17
102
{ACAD_REACTORS
330
C
102
}
330
C
100
AcDbDictionary
281
     1
  3
Standard
350
18
  0
DICTIONARY
  5
19
102
{ACAD_REACTORS
330
C
102
}
330
C
100
AcDbDictionary
281
     1
  0
ACDBDICTIONARYWDFLT
  5
E
102
{ACAD_REACTORS
330
C
102
}
330
C
100
AcDbDictionary
281
     1
  3
Normal
350
F
100
AcDbDictionaryWithDefault
340
F
  0
LAYOUT
  5
1E
102
{ACAD_REACTORS
330
1A
102
}
330
1A
100
AcDbPlotSettings
  1

  2
none_device
  4

  6

 40
0.0
 41
0.0
 42
0.0
 43
0.0
 44
0.0
 45
0.0
 46
0.0
 47
0.0
 48
0.0
 49
0.0
140
0.0
141
0.0
142
1.0
143
1.0
 70
   688
 72
     0
 73
     0
 74
     5
  7

 75
    16
147
1.0
148
0.0
149
0.0
100
AcDbLayout
  1
Layout1
 70
     1
 71
     1
 10
0.0
 20
0.0
 11
420.0
 21
297.0
 12
0.0
 22
0.0
 32
0.0
 14
1.0000000000E+20
 24
1.0000000000E+20
 34
1.0000000000E+20
 15
-1.0000000000E+20
 25
-1.0000000000E+20
 35
-1.0000000000E+20
146
0.0
 13
0.0
 23
0.0
 33
0.0
 16
1.0
 26
0.0
 36
0.0
 17
0.0
 27
1.0
 37
0.0
 76
     0
330
1B
  0
LAYOUT
  5
26
102
{ACAD_REACTORS
330
1A
102
}
330
1A
100
AcDbPlotSettings
  1

  2
none_device
  4

  6

 40
0.0
 41
0.0
 42
0.0
 43
0.0
 44
0.0
 45
0.0
 46
0.0
 47
0.0
 48
0.0
 49
0.0
140
0.0
141
0.0
142
1.0
143
1.0
 70
   688
 72
     0
 73
     0
 74
     5
  7

 75
    16
147
1.0
148
0.0
149
0.0
100
AcDbLayout
  1
Layout2
 70
     1
 71
     2
 10
0.0
 20
0.0
 11
0.0
 21
0.0
 12
0.0
 22
0.0
 32
0.0
 14
0.0
 24
0.0
 34
0.0
 15
0.0
 25
0.0
 35
0.0
146
0.0
 13
0.0
 23
0.0
 33
0.0
 16
1.0
 26
0.0
 36
0.0
 17
0.0
 27
1.0
 37
0.0
 76
     0
330
23
  0
LAYOUT
  5
22
102
{ACAD_REACTORS
330
1A
102
}
330
1A
100
AcDbPlotSettings
  1

  2
none_device
  4

  6

 40
0.0
 41
0.0
 42
0.0
 43
0.0
 44
0.0
 45
0.0
 46
0.0
 47
0.0
 48
0.0
 49
0.0
140
0.0
141
0.0
142
1.0
143
1.0
 70
  1712
 72
     0
 73
     0
 74
     0
  7

 75
     0
147
1.0
148
0.0
149
0.0
100
AcDbLayout
  1
Model
 70
     1
 71
     0
 10
0.0
 20
0.0
 11
840.0
 21
594.0
 12
0.0
 22
0.0
 32
0.0
 14
0.0
 24
0.0
 34
0.0
 15
840.0
 25
594.0
 35
0.0
146
0.0
 13
0.0
 23
0.0
 33
0.0
 16
1.0
 26
0.0
 36
0.0
 17
0.0
 27
1.0
 37
0.0
 76
     0
330
1F
331
29
  0
MLINESTYLE
  5
18
102
{ACAD_REACTORS
330
17
102
}
330
17
100
AcDbMlineStyle
  2
Standard
 70
     0
  3

 62
   256
 51
90.0
 52
90.0
 71
     2
 49
0.5
 62
   256
  6
BYLAYER
 49
-0.5
 62
   256
  6
BYLAYER
  0
ACDBPLACEHOLDER
  5
F
102
{ACAD_REACTORS
330
E
102
}
330
E
  0
ENDSEC
  0
EOF
