  0
SECTION
  2
HEADER
  9
$ACADVER
  1
AC1015
  9
$ACADMAINTVER
 70
     6
  9
$DWGCODEPAGE
  3
DOS932
  9
$INSBASE
 10
0.0
 20
0.0
 30
0.0
  9
$EXTMIN
 10
0.0
 20
0.0
 30
0.0
  9
$EXTMAX
 10
840.0
 20
594.0
 30
0.0
  9
$LIMMIN
 10
0.0
 20
0.0
  9
$LIMMAX
 10
840.0
 20
594.0
  9
$ORTHOMODE
 70
     0
  9
$REGENMODE
 70
     1
  9
$FILLMODE
 70
     1
  9
$QTEXTMODE
 70
     0
  9
$MIRRTEXT
 70
     1
  9
$LTSCALE
 40
2.0
  9
$ATTMODE
 70
     1
  9
$TEXTSIZE
 40
7.0
  9
$TRACEWID
 40
1.0
  9
$TEXTSTYLE
  7
Standard
  9
$CLAYER
  8
0
  9
$CELTYPE
  6
ByLayer
  9
$CECOLOR
 62
   256
  9
$CELTSCALE
 40
1.0
  9
$DISPSILH
 70
     0
  9
$DIMSCALE
 40
1.0
  9
$DIMASZ
 40
6.0
  9
$DIMEXO
 40
2.0
  9
$DIMDLI
 40
3.75
  9
$DIMRND
 40
0.0
  9
$DIMDLE
 40
0.0
  9
$DIMEXE
 40
2.0
  9
$DIMTP
 40
0.0
  9
$DIMTM
 40
0.0
  9
$DIMTXT
 40
7.0
  9
$DIMCEN
 40
2.5
  9
$DIMTSZ
 40
0.0
  9
$DIMTOL
 70
     0
  9
$DIMLIM
 70
     0
  9
$DIMTIH
 70
     1
  9
$DIMTOH
 70
     1
  9
$DIMSE1
 70
     0
  9
$DIMSE2
 70
     0
  9
$DIMTAD
 70
     1
  9
$DIMZIN
 70
     0
  9
$DIMBLK
  1

  9
$DIMASO
 70
     1
  9
$DIMSHO
 70
     1
  9
$DIMPOST
  1

  9
$DIMAPOST
  1

  9
$DIMALT
 70
     0
  9
$DIMALTD
 70
     3
  9
$DIMALTF
 40
0.0393700787
  9
$DIMLFAC
 40
1.0
  9
$DIMTOFL
 70
     1
  9
$DIMTVP
 40
0.0
  9
$DIMTIX
 70
     0
  9
$DIMSOXD
 70
     0
  9
$DIMSAH
 70
     0
  9
$DIMBLK1
  1

  9
$DIMBLK2
  1

  9
$DIMSTYLE
  2
ISO-25
  9
$DIMCLRD
 70
     0
  9
$DIMCLRE
 70
     0
  9
$DIMCLRT
 70
     0
  9
$DIMTFAC
 40
1.0
  9
$DIMGAP
 40
3.048
  9
$DIMJUST
 70
     0
  9
$DIMSD1
 70
     0
  9
$DIMSD2
 70
     0
  9
$DIMTOLJ
 70
     0
  9
$DIMTZIN
 70
     0
  9
$DIMALTZ
 70
     0
  9
$DIMALTTZ
 70
     0
  9
$DIMUPT
 70
     0
  9
$DIMDEC
 70
     1
  9
$DIMTDEC
 70
     1
  9
$DIMALTU
 70
     2
  9
$DIMALTTD
 70
     3
  9
$DIMTXSTY
  7
Standard
  9
$DIMAUNIT
 70
     0
  9
$DIMADEC
 70
     2
  9
$DIMALTRND
 40
0.0
  9
$DIMAZIN
 70
     0
  9
$DIMDSEP
 70
    44
  9
$DIMATFIT
 70
     3
  9
$DIMFRAC
 70
     0
  9
$DIMLDRBLK
  1

  9
$DIMLUNIT
 70
     2
  9
$DIMLWD
 70
    -2
  9
$DIMLWE
 70
    -2
  9
$DIMTMOVE
 70
     0
  9
$LUNITS
 70
     2
  9
$LUPREC
 70
     1
  9
$SKETCHINC
 40
1.0
  9
$FILLETRAD
 40
10.0
  9
$AUNITS
 70
     0
  9
$AUPREC
 70
     2
  9
$MENU
  1
.
  9
$ELEVATION
 40
0.0
  9
$PELEVATION
 40
0.0
  9
$THICKNESS
 40
0.0
  9
$LIMCHECK
 70
     0
  9
$CHAMFERA
 40
10.0
  9
$CHAMFERB
 40
10.0
  9
$CHAMFERC
 40
20.0
  9
$CHAMFERD
 40
0.0
  9
$SKPOLY
 70
     0
  9
$TDCREATE
 40
2460440.678200984
  9
$TDUCREATE
 40
2460440.303200984
  9
$TDUPDATE
 40
2460440.678200996
  9
$TDUUPDATE
 40
2460440.303200996
  9
$TDINDWG
 40
0.0000000116
  9
$TDUSRTIMER
 40
0.0000000116
  9
$USRTIMER
 70
     1
  9
$ANGBASE
 50
0.0
  9
$ANGDIR
 70
     0
  9
$PDMODE
 70
     0
  9
$PDSIZE
 40
-1.0
  9
$PLINEWID
 40
0.0
  9
$SPLFRAME
 70
     0
  9
$SPLINETYPE
 70
     6
  9
$SPLINESEGS
 70
     8
  9
$HANDSEED
  5
252
  9
$SURFTAB1
 70
     6
  9
$SURFTAB2
 70
     6
  9
$SURFTYPE
 70
     6
  9
$SURFU
 70
     6
  9
$SURFV
 70
     6
  9
$UCSBASE
  2

  9
$UCSNAME
  2

  9
$UCSORG
 10
0.0
 20
0.0
 30
0.0
  9
$UCSXDIR
 10
1.0
 20
0.0
 30
0.0
  9
$UCSYDIR
 10
0.0
 20
1.0
 30
0.0
  9
$UCSORTHOREF
  2

  9
$UCSORTHOVIEW
 70
     0
  9
$UCSORGTOP
 10
0.0
 20
0.0
 30
0.0
  9
$UCSORGBOTTOM
 10
0.0
 20
0.0
 30
0.0
  9
$UCSORGLEFT
 10
0.0
 20
0.0
 30
0.0
  9
$UCSORGRIGHT
 10
0.0
 20
0.0
 30
0.0
  9
$UCSORGFRONT
 10
0.0
 20
0.0
 30
0.0
  9
$UCSORGBACK
 10
0.0
 20
0.0
 30
0.0
  9
$PUCSBASE
  2

  9
$PUCSNAME
  2

  9
$PUCSORG
 10
0.0
 20
0.0
 30
0.0
  9
$PUCSXDIR
 10
1.0
 20
0.0
 30
0.0
  9
$PUCSYDIR
 10
0.0
 20
1.0
 30
0.0
  9
$PUCSORTHOREF
  2

  9
$PUCSORTHOVIEW
 70
     0
  9
$PUCSORGTOP
 10
0.0
 20
0.0
 30
0.0
  9
$PUCSORGBOTTOM
 10
0.0
 20
0.0
 30
0.0
  9
$PUCSORGLEFT
 10
0.0
 20
0.0
 30
0.0
  9
$PUCSORGRIGHT
 10
0.0
 20
0.0
 30
0.0
  9
$PUCSORGFRONT
 10
0.0
 20
0.0
 30
0.0
  9
$PUCSORGBACK
 10
0.0
 20
0.0
 30
0.0
  9
$USERI1
 70
     0
  9
$USERI2
 70
     0
  9
$USERI3
 70
     0
  9
$USERI4
 70
     0
  9
$USERI5
 70
     0
  9
$USERR1
 40
0.0
  9
$USERR2
 40
0.0
  9
$USERR3
 40
0.0
  9
$USERR4
 40
0.0
  9
$USERR5
 40
0.0
  9
$WORLDVIEW
 70
     1
  9
$SHADEDGE
 70
     3
  9
$SHADEDIF
 70
    70
  9
$TILEMODE
 70
     1
  9
$MAXACTVP
 70
    64
  9
$PINSBASE
 10
0.0
 20
0.0
 30
0.0
  9
$PLIMCHECK
 70
     0
  9
$PEXTMIN
 10
1.0000000000E+20
 20
1.0000000000E+20
 30
1.0000000000E+20
  9
$PEXTMAX
 10
-1.0000000000E+20
 20
-1.0000000000E+20
 30
-1.0000000000E+20
  9
$PLIMMIN
 10
0.0
 20
0.0
  9
$PLIMMAX
 10
420.0
 20
297.0
  9
$UNITMODE
 70
     0
  9
$VISRETAIN
 70
     1
  9
$PLINEGEN
 70
     0
  9
$PSLTSCALE
 70
     1
  9
$TREEDEPTH
 70
  3020
  9
$CMLSTYLE
  2
Standard
  9
$CMLJUST
 70
     0
  9
$CMLSCALE
 40
20.0
  9
$PROXYGRAPHICS
 70
     1
  9
$MEASUREMENT
 70
     1
  9
$CELWEIGHT
370
    -1
  9
$ENDCAPS
280
     0
  9
$JOINSTYLE
280
     0
  9
$LWDISPLAY
290
     1
  9
$INSUNITS
 70
     4
  9
$HYPERLINKBASE
  1

  9
$STYLESHEET
  1

  9
$XEDIT
290
     1
  9
$CEPSNTYPE
380
     0
  9
$PSTYLEMODE
290
     1
  9
$FINGERPRINTGUID
  2
{A9A13AEB-70A5-4624-A48A-7379D6A97EE9}
  9
$VERSIONGUID
  2
{FAEB1C32-E019-11D5-929B-00C0DF256EC4}
  9
$EXTNAMES
290
     1
  9
$PSVPSCALE
 40
0.0
  9
$OLESTARTUP
290
     0
  0
ENDSEC
  0
SECTION
  2
CLASSES
  0
CLASS
  1
ACDBDICTIONARYWDFLT
  2
AcDbDictionaryWithDefault
  3
ObjectDBX Classes
 90
        0
280
     0
281
     0
  0
CLASS
  1
VISUALSTYLE
  2
AcDbVisualStyle
  3
ObjectDBX Classes
 90
     4095
280
     0
281
     0
  0
CLASS
  1
MATERIAL
  2
AcDbMaterial
  3
ObjectDBX Classes
 90
     1153
280
     0
281
     0
  0
CLASS
  1
ACDBPLACEHOLDER
  2
AcDbPlaceHolder
  3
ObjectDBX Classes
 90
        0
280
     0
281
     0
  0
CLASS
  1
LAYOUT
  2
AcDbLayout
  3
ObjectDBX Classes
 90
        0
280
     0
281
     0
  0
ENDSEC
  0
SECTION
  2
TABLES
  0
TABLE
  2
VPORT
  5
8
330
0
100
AcDbSymbolTable
 70
     1
  0
VPORT
  5
29
330
8
100
AcDbSymbolTableRecord
100
AcDbViewportTableRecord
  2
*Active
 70
     0
 10
0.0
 20
0.0
 11
1.0
 21
1.0
 12
420.0
 22
297.0
 13
0.0
 23
0.0
 14
10.0
 24
10.0
 15
10.0
 25
10.0
 16
0.0
 26
0.0
 36
1.0
 17
0.0
 27
0.0
 37
0.0
 40
594.0
 41
1.4141414141
 42
50.0
 43
0.0
 44
0.0
 50
0.0
 51
0.0
 71
     0
 72
  2000
 73
     1
 74
     3
 75
     0
 76
     0
 77
     0
 78
     0
281
     0
 65
     1
110
0.0
120
0.0
130
0.0
111
1.0
121
0.0
131
0.0
112
0.0
122
1.0
132
0.0
 79
     0
146
0.0
  0
ENDTAB
  0
TABLE
  2
LTYPE
  5
5
330
0
100
AcDbSymbolTable
 70
     6
  0
LTYPE
  5
14
330
5
100
AcDbSymbolTableRecord
100
AcDbLinetypeTableRecord
  2
ByBlock
 70
     0
  3

 72
    65
 73
     0
 40
0.0
  0
LTYPE
  5
15
330
5
100
AcDbSymbolTableRecord
100
AcDbLinetypeTableRecord
  2
ByLayer
 70
     0
  3

 72
    65
 73
     0
 40
0.0
  0
LTYPE
  5
16
330
5
100
AcDbSymbolTableRecord
100
AcDbLinetypeTableRecord
  2
Continuous
 70
     0
  3
Solid line
 72
    65
 73
     0
 40
0.0
  0
LTYPE
  5
3F
330
5
100
AcDbSymbolTableRecord
100
AcDbLinetypeTableRecord
  2
HIDDEN
 70
     0
  3
Hidden __ __ __ __ __ __ __ __ __ __ __ __ __ __
 72
    65
 73
     2
 40
1.905
 49
1.27
 74
     0
 49
-0.635
 74
     0
  0
LTYPE
  5
40
330
5
100
AcDbSymbolTableRecord
100
AcDbLinetypeTableRecord
  2
PHANTOM
 70
     0
  3
Phantom ______  __  __  ______  __  __  ______
 72
    65
 73
     6
 40
12.7
 49
6.35
 74
     0
 49
-1.27
 74
     0
 49
1.27
 74
     0
 49
-1.27
 74
     0
 49
1.27
 74
     0
 49
-1.27
 74
     0
  0
LTYPE
  5
41
330
5
100
AcDbSymbolTableRecord
100
AcDbLinetypeTableRecord
  2
CENTER
 70
     0
  3
Center ____ _ ____ _ ____ _ ____ _ ____ _ ____
 72
    65
 73
     4
 40
10.16
 49
6.35
 74
     0
 49
-1.27
 74
     0
 49
1.27
 74
     0
 49
-1.27
 74
     0
  0
LTYPE
  5
42
330
5
100
AcDbSymbolTableRecord
100
AcDbLinetypeTableRecord
  2
CENTERX2
 70
     0
  3
Center (2x) ________  __  ________  __  _____
 72
    65
 73
     4
 40
20.32
 49
12.7
 74
     0
 49
-2.54
 74
     0
 49
2.54
 74
     0
 49
-2.54
 74
     0
  0
LTYPE
  5
43
330
5
100
AcDbSymbolTableRecord
100
AcDbLinetypeTableRecord
  2
DOT2
 70
     0
  3
Dot (.5x) ........................................
 72
    65
 73
     2
 40
0.635
 49
0.0
 74
     0
 49
-0.635
 74
     0
  0
ENDTAB
  0
TABLE
  2
LAYER
  5
2
330
0
100
AcDbSymbolTable
 70
     1
  0
LAYER
  5
10
330
2
100
AcDbSymbolTableRecord
100
AcDbLayerTableRecord
  2
0
 70
     0
 62
     7
  6
Continuous
370
    -3
390
F
  0
ENDTAB
  0
TABLE
  2
STYLE
  5
3
330
0
100
AcDbSymbolTable
 70
     2
  0
STYLE
  5
11
330
3
100
AcDbSymbolTableRecord
100
AcDbTextStyleTableRecord
  2
Standard
 70
     0
 40
0.0
 41
1.0
 50
0.0
 71
     0
 42
2.5
  3
txt
  4
bigfont
  0
STYLE
  5
44
330
3
100
AcDbSymbolTableRecord
100
AcDbTextStyleTableRecord
  2
SLDTEXTSTYLE0
 70
     0
 40
0.0
 41
0.7
 50
0.0
 71
     0
 42
0.2
  3
TXT
  4
bigfont
  0
ENDTAB
  0
TABLE
  2
VIEW
  5
6
330
0
100
AcDbSymbolTable
 70
     0
  0
ENDTAB
  0
TABLE
  2
UCS
  5
7
330
0
100
AcDbSymbolTable
 70
     0
  0
ENDTAB
  0
TABLE
  2
APPID
  5
9
330
0
100
AcDbSymbolTable
 70
     1
  0
APPID
  5
12
330
9
100
AcDbSymbolTableRecord
100
AcDbRegAppTableRecord
  2
ACAD
 70
     0
  0
ENDTAB
  0
TABLE
  2
DIMSTYLE
  5
A
330
0
100
AcDbSymbolTable
 70
     1
100
AcDbDimStyleTable
  0
DIMSTYLE
105
27
330
A
100
AcDbSymbolTableRecord
100
AcDbDimStyleTableRecord
  2
ISO-25
 70
     0
 41
2.5
 42
0.625
 43
3.75
 44
1.25
 73
     0
 74
     0
 77
     1
 78
     8
140
2.5
141
2.5
143
0.0393700787
147
0.625
171
     3
172
     1
178
     0
271
     2
272
     2
274
     3
278
    44
283
     0
284
     8
340
11
  0
ENDTAB
  0
TABLE
  2
BLOCK_RECORD
  5
1
330
0
100
AcDbSymbolTable
 70
     1
  0
BLOCK_RECORD
  5
1F
330
1
100
AcDbSymbolTableRecord
100
AcDbBlockTableRecord
  2
*Model_Space
340
22
  0
BLOCK_RECORD
  5
1B
330
1
100
AcDbSymbolTableRecord
100
AcDbBlockTableRecord
  2
*Paper_Space
340
1E
  0
BLOCK_RECORD
  5
23
330
1
100
AcDbSymbolTableRecord
100
AcDbBlockTableRecord
  2
*Paper_Space0
340
26
  0
ENDTAB
  0
ENDSEC
  0
SECTION
  2
BLOCKS
  0
BLOCK
  5
20
330
1F
100
AcDbEntity
  8
0
100
AcDbBlockBegin
  2
*Model_Space
 70
     0
 10
0.0
 20
0.0
 30
0.0
  3
*Model_Space
  1

  0
ENDBLK
  5
21
330
1F
100
AcDbEntity
  8
0
100
AcDbBlockEnd
  0
BLOCK
  5
1C
330
1B
100
AcDbEntity
 67
     1
  8
0
100
AcDbBlockBegin
  2
*Paper_Space
 70
     0
 10
0.0
 20
0.0
 30
0.0
  3
*Paper_Space
  1

  0
ENDBLK
  5
1D
330
1B
100
AcDbEntity
 67
     1
  8
0
100
AcDbBlockEnd
  0
BLOCK
  5
24
330
23
100
AcDbEntity
  8
0
100
AcDbBlockBegin
  2
*Paper_Space0
 70
     0
 10
0.0
 20
0.0
 30
0.0
  3
*Paper_Space0
  1

  0
ENDBLK
  5
25
330
23
100
AcDbEntity
  8
0
100
AcDbBlockEnd
  0
ENDSEC
  0
SECTION
  2
ENTITIES
  0
MTEXT
  5
45
330
1F
100
AcDbEntity
  8
0
  6
Continuous
 62
     7
370
     0
100
AcDbMText
 10
151.6765746638
 20
501.0132830174
 30
0.0
 40
7.0
 41
0.0
 71
     1
 72
     1
  1
CHB-505P
  7
SLDTEXTSTYLE0
 73
     1
 44
1.0
  0
LINE
  5
46
330
1F
100
AcDbEntity
  8
0
  6
Continuous
 62
     7
370
    15
100
AcDbLine
 10
381.2551317897
 20
221.8128800163
 30
0.0
 11
381.3551334825
 21
221.8128800163
 31
0.0
  0
LINE
  5
47
330
1F
100
AcDbEntity
  8
0
  6
Continuous
 62
     7
370
    15
100
AcDbLine
 10
381.3551334825
 20
227.8128803013
 30
0.0
 11
381.2551317897
 21
227.8128803013
 31
0.0
  0
LINE
  5
48
330
1F
100
AcDbEntity
  8
0
  6
Continuous
 62
     7
370
    15
100
AcDbLine
 10
381.2551317897
 20
231.8128804913
 30
0.0
 11
381.3551334825
 21
231.8128804913
 31
0.0
  0
LINE
  5
49
330
1F
100
AcDbEntity
  8
0
  6
Continuous
 62
     7
370
    15
100
AcDbLine
 10
381.3551334825
 20
237.8128807763
 30
0.0
 11
381.2551317897
 21
237.8128807763
 31
0.0
  0
LINE
  5
4A
330
1F
100
AcDbEntity
  8
0
  6
Continuous
 62
     7
370
    15
100
AcDbLine
 10
382.5551239934
 20
241.3128804187
 30
0.0
 11
381.3551334825
 21
241.3128804187
 31
0.0
  0
LINE
  5
4B
330
1F
100
AcDbEntity
  8
0
  6
Continuous
 62
     7
370
    15
100
AcDbLine
 10
381.3551334825
 20
218.312880374
 30
0.0
 11
382.5551239934
 21
218.312880374
 31
0.0
  0
LINE
  5
4C
330
1F
100
AcDbEntity
  8
0
  6
Continuous
 62
     7
370
    15
100
AcDbLine
 10
694.055136868
 20
85.8128865952
 30
0.0
 11
694.055136868
 21
120.8128830189
 31
0.0
  0
LINE
  5
4D
330
1F
100
AcDbEntity
  8
0
  6
Continuous
 62
     7
370
    15
100
AcDbLine
 10
694.055136868
 20
338.8128777737
 30
0.0
 11
694.055136868
 21
373.8128741974
 31
0.0
  0
SPLINE
  5
4E
330
1F
100
AcDbEntity
  8
0
  6
Continuous
 62
     7
370
    15
100
AcDbSpline
210
0.0
220
0.0
230
1.0
 70
     8
 71
     3
 72
    11
 73
     7
 74
     0
 42
0.00000001
 43
0.00000001
 40
0.0
 40
0.0
 40
0.0
 40
0.0
 40
0.2262212516214751
 40
0.4679441910674981
 40
0.7254890426979009
 40
1.0
 40
1.0
 40
1.0
 40
1.0
 10
378.8756398644629
 20
238.0433151269688
 30
0.0
 10
378.8784669639755
 20
238.0204161850537
 30
0.0
 10
378.8843148884523
 20
237.9730491637241
 30
0.0
 10
378.9010748576017
 20
237.6482586419874
 30
0.0
 10
378.9146760625221
 20
237.1477735864389
 30
0.0
 10
378.9152100578532
 20
236.723946488558
 30
0.0
 10
378.9154855694953
 20
236.5052754762008
 30
0.0
  0
SPLINE
  5
4F
330
1F
100
AcDbEntity
  8
0
  6
Continuous
 62
     7
370
    15
100
AcDbSpline
210
0.0
220
0.0
230
1.0
 70
     8
 71
     3
 72
    12
 73
     8
 74
     0
 42
0.00000001
 43
0.00000001
 40
0.0
 40
0.0
 40
0.0
 40
0.0
 40
0.2489445739028115
 40
0.4822862098310756
 40
0.6998114639483098
 40
0.9035368778110593
 40
1.0
 40
1.0
 40
1.0
 40
1.0
 10
378.9154855694952
 20
222.9466446446611
 30
0.0
 10
378.9140597229778
 20
222.8093111257677
 30
0.0
 10
378.9112973968025
 20
222.5432516520804
 30
0.0
 10
378.9003961729568
 20
222.2074360994334
 30
0.0
 10
378.8978860185967
 20
221.9742700412672
 30
0.0
 10
378.9026751608902
 20
221.8541609390064
 30
0.0
 10
378.9291056666242
 20
221.8528146744181
 30
0.0
 10
378.9375988927069
 20
221.8523820633425
 30
0.0
  0
LINE
  5
50
330
1F
100
AcDbEntity
  8
0
  6
Continuous
 62
     7
370
    15
100
AcDbLine
 10
378.9146362033
 20
236.5552753913
 30
0.0
 11
378.9146362033
 21
222.8966447296
 31
0.0
  0
LINE
  5
51
330
1F
100
AcDbEntity
  8
0
  6
Continuous
 62
     7
370
    15
100
AcDbLine
 10
377.3910222736
 20
240.4931638161
 30
0.0
 11
378.8783816781
 21
238.0130164096
 31
0.0
  0
LINE
  5
52
330
1F
100
AcDbEntity
  8
0
  6
Continuous
 62
     7
370
    15
100
AcDbLine
 10
381.3551334825
 20
239.7161260018
 30
0.0
 11
379.9638418641
 21
242.0360896508
 31
0.0
  0
LINE
  5
53
330
1F
100
AcDbEntity
  8
0
  6
Continuous
 62
     7
370
    15
100
AcDbLine
 10
378.9428739038
 20
221.7202963079
 30
0.0
 11
377.3737965312
 21
219.1038777823
 31
0.0
  0
LINE
  5
54
330
1F
100
AcDbEntity
  8
0
  6
Continuous
 62
     7
370
    15
100
AcDbLine
 10
379.9466161218
 20
217.5609519476
 30
0.0
 11
381.3551334825
 21
219.9096347908
 31
0.0
  0
LINE
  5
55
330
1F
100
AcDbEntity
  8
0
  6
Continuous
 62
     7
370
    15
100
AcDbLine
 10
379.9837349143
 20
242.000581115
 30
0.0
 11
379.8937766042
 21
242.1143682445
 31
0.0
  0
SPLINE
  5
56
330
1F
100
AcDbEntity
  8
0
  6
Continuous
 62
     7
370
    15
100
AcDbSpline
210
0.0
220
0.0
230
1.0
 70
     8
 71
     3
 72
    20
 73
    16
 74
     0
 42
0.00000001
 43
0.00000001
 40
0.0
 40
0.0
 40
0.0
 40
0.0
 40
0.0337795050543948
 40
0.1101051841529493
 40
0.1739290285231793
 40
0.2252746548070327
 40
0.2665370945345786
 40
0.3037733232441076
 40
0.3388589253082213
 40
0.3726389058879608
 40
0.4139176362643257
 40
0.6259827951436343
 40
0.8390272748670135
 40
0.9659462426554039
 40
0.9999999999999999
 40
0.9999999999999999
 40
0.9999999999999999
 40
0.9999999999999999
 10
379.7814665522757
 20
242.2564377779497
 30
0.0
 10
379.7408113985101
 20
242.3126232713528
 30
0.0
 10
379.6082948567514
 20
242.4957613631603
 30
0.0
 10
379.2984188332372
 20
242.67293779398
 30
0.0
 10
378.9111519805649
 20
242.795894141416
 30
0.0
 10
378.5413011595958
 20
242.8106821860977
 30
0.0
 10
378.2069852243854
 20
242.760093962945
 30
0.0
 10
377.9325089575422
 20
242.6590389163792
 30
0.0
 10
377.7049946698235
 20
242.5243341735538
 30
0.0
 10
377.4989787764435
 20
242.3481445626845
 30
0.0
 10
377.1544095531991
 20
241.9056669313445
 30
0.0
 10
376.973361671003
 20
241.2189831108534
 30
0.0
 10
376.8235470328073
 20
240.0381517709617
 30
0.0
 10
376.768429303411
 20
239.1335083103712
 30
0.0
 10
376.7618677362503
 20
238.7189203826048
 30
0.0
 10
376.760479637641
 20
238.63121436484
 30
0.0
  0
SPLINE
  5
57
330
1F
100
AcDbEntity
  8
0
  6
Continuous
 62
     7
370
    15
100
AcDbSpline
210
0.0
220
0.0
230
1.0
 70
     8
 71
     3
 72
    19
 73
    15
 74
     0
 42
0.00000001
 43
0.00000001
 40
0.0
 40
0.0
 40
0.0
 40
0.0
 40
0.0102737053477949
 40
0.1295968921188889
 40
0.3268122850643485
 40
0.5525085230171803
 40
0.5858532753149814
 40
0.6186007963878319
 40
0.6529066586472678
 40
0.6960060375611246
 40
0.7523135488775782
 40
0.822314170160229
 40
0.9054608819237085
 40
1.0
 40
1.0
 40
1.0
 40
1.0
 10
376.757633515853
 20
221.0128804440035
 30
0.0
 10
376.7579566984887
 20
220.9856814740535
 30
0.0
 10
376.7620334618131
 20
220.6425820902346
 30
0.0
 10
376.8018209590765
 20
219.822592597998
 30
0.0
 10
376.9368171422207
 20
218.6001590315878
 30
0.0
 10
377.0271978791095
 20
217.9568042524468
 30
0.0
 10
377.3780970949742
 20
217.4167006674293
 30
0.0
 10
377.5473173968778
 20
217.2288541839182
 30
0.0
 10
377.784035816248
 20
217.0523822243535
 30
0.0
 10
378.0976572817918
 20
216.8988970843419
 30
0.0
 10
378.5011505167664
 20
216.797117704847
 30
0.0
 10
378.9870037235874
 20
216.8202783469145
 30
0.0
 10
379.516770985509
 20
217.0306019581108
 30
0.0
 10
379.7819901725872
 20
217.3524213362759
 30
0.0
 10
379.9231020894233
 20
217.5236478219165
 30
0.0
  0
LINE
  5
58
330
1F
100
AcDbEntity
  8
0
  6
Continuous
 62
     7
370
    15
100
AcDbLine
 10
373.4503207889
 20
233.7128802905
 30
0.0
 11
373.4503207889
 21
225.1128804641
 31
0.0
  0
LINE
  5
59
330
1F
100
AcDbEntity
  8
0
  6
Continuous
 62
     7
370
    15
100
AcDbLine
 10
374.0551291194
 20
222.61288052
 30
0.0
 11
374.0551291194
 21
221.8131342674
 31
0.0
  0
LINE
  5
5A
330
1F
100
AcDbEntity
  8
0
  6
Continuous
 62
     7
370
    15
100
AcDbLine
 10
374.0551291194
 20
237.8126265252
 30
0.0
 11
374.0551291194
 21
237.0128802726
 31
0.0
  0
ARC
  5
5B
330
1F
100
AcDbEntity
  8
0
  6
Continuous
 62
     7
370
    15
100
AcDbCircle
 10
377.6551299539
 20
235.0057375392
 30
0.0
 40
3.807142857143176
100
AcDbArc
 50
77.9663271603
 51
90.0
  0
ARC
  5
5C
330
1F
100
AcDbEntity
  8
0
  6
Continuous
 62
     7
370
    15
100
AcDbCircle
 10
377.6551299539
 20
235.0057375392
 30
0.0
 40
3.807142857143189
100
AcDbArc
 50
90.0
 51
125.3002484399
  0
LINE
  5
5D
330
1F
100
AcDbEntity
  8
0
  6
Continuous
 62
     7
370
    15
100
AcDbLine
 10
375.4551230159
 20
238.1128802667
 30
0.0
 11
375.4551230159
 21
237.8128807763
 31
0.0
  0
LINE
  5
5E
330
1F
100
AcDbEntity
  8
0
  6
Continuous
 62
     7
370
    15
100
AcDbLine
 10
375.5551247087
 20
221.4128806958
 30
0.0
 11
375.5551247087
 21
221.012880444
 31
0.0
  0
ARC
  5
5F
330
1F
100
AcDbEntity
  8
0
  6
Continuous
 62
     7
370
    15
100
AcDbCircle
 10
375.7551299539
 20
221.8128803964
 30
0.0
 40
0.4000000000007162
100
AcDbArc
 50
270.0
 51
0.0
  0
LINE
  5
60
330
1F
100
AcDbEntity
  8
0
  6
Continuous
 62
     7
370
    15
100
AcDbLine
 10
376.1551348653
 20
237.0128802726
 30
0.0
 11
376.1551348653
 21
236.5628805714
 31
0.0
  0
LINE
  5
61
330
1F
100
AcDbEntity
  8
0
  6
Continuous
 62
     7
370
    15
100
AcDbLine
 10
376.1551348653
 20
223.0628802212
 30
0.0
 11
376.1551348653
 21
222.61288052
 31
0.0
  0
LINE
  5
62
330
1F
100
AcDbEntity
  8
0
  6
Continuous
 62
     7
370
    15
100
AcDbLine
 10
694.055136868
 20
49.8128732438
 30
0.0
 11
694.055136868
 21
84.8128845686
 31
0.0
  0
LINE
  5
63
330
1F
100
AcDbEntity
  8
0
  6
Continuous
 62
     7
370
    15
100
AcDbLine
 10
694.055136868
 20
374.812876224
 30
0.0
 11
694.055136868
 21
409.8128875489
 31
0.0
  0
LINE
  5
64
330
1F
100
AcDbEntity
  8
0
  6
Continuous
 62
     7
370
    15
100
AcDbLine
 10
691.0551307883
 20
84.8128845686
 30
0.0
 11
691.0551307883
 21
85.8128865952
 31
0.0
  0
LINE
  5
65
330
1F
100
AcDbEntity
  8
0
  6
Continuous
 62
     7
370
    15
100
AcDbLine
 10
691.0551307883
 20
120.8128830189
 30
0.0
 11
691.0551307883
 21
121.8128775949
 31
0.0
  0
LINE
  5
66
330
1F
100
AcDbEntity
  8
0
  6
Continuous
 62
     7
370
    15
100
AcDbLine
 10
686.0551355567
 20
121.8128775949
 30
0.0
 11
686.0551355567
 21
120.8128830189
 31
0.0
  0
LINE
  5
67
330
1F
100
AcDbEntity
  8
0
  6
Continuous
 62
     7
370
    15
100
AcDbLine
 10
686.0551355567
 20
85.8128865952
 30
0.0
 11
686.0551355567
 21
84.8128845686
 31
0.0
  0
LINE
  5
68
330
1F
100
AcDbEntity
  8
0
  6
Continuous
 62
     7
370
    15
100
AcDbLine
 10
686.0551355567
 20
374.812876224
 30
0.0
 11
686.0551355567
 21
373.8128741974
 31
0.0
  0
LINE
  5
69
330
1F
100
AcDbEntity
  8
0
  6
Continuous
 62
     7
370
    15
100
AcDbLine
 10
686.0551355567
 20
338.8128777737
 30
0.0
 11
686.0551355567
 21
337.8128831977
 31
0.0
  0
LINE
  5
6A
330
1F
100
AcDbEntity
  8
0
  6
Continuous
 62
     7
370
    15
100
AcDbLine
 10
691.0551307883
 20
337.8128831977
 30
0.0
 11
691.0551307883
 21
338.8128777737
 31
0.0
  0
LINE
  5
6B
330
1F
100
AcDbEntity
  8
0
  6
Continuous
 62
     7
370
    15
100
AcDbLine
 10
691.0551307883
 20
373.8128741974
 30
0.0
 11
691.0551307883
 21
374.812876224
 31
0.0
  0
LINE
  5
6C
330
1F
100
AcDbEntity
  8
0
  6
Continuous
 62
     7
370
    15
100
AcDbLine
 10
374.255132505
 20
236.5628805714
 30
0.0
 11
374.255132505
 21
236.2700694943
 31
0.0
  0
LINE
  5
6D
330
1F
100
AcDbEntity
  8
0
  6
Continuous
 62
     7
370
    15
100
AcDbLine
 10
374.255132505
 20
223.3556912983
 30
0.0
 11
374.255132505
 21
223.0628802212
 31
0.0
  0
ARC
  5
6E
330
1F
100
AcDbEntity
  8
0
  6
Continuous
 62
     7
370
    15
100
AcDbCircle
 10
397.5551299539
 20
44.8128803963
 30
0.0
 40
15.00000000000001
100
AcDbArc
 50
180.0
 51
270.0
  0
LINE
  5
6F
330
1F
100
AcDbEntity
  8
0
  6
Continuous
 62
     7
370
    15
100
AcDbLine
 10
382.5551239934
 20
44.8128780121
 30
0.0
 11
397.5551245895
 21
44.8128780121
 31
0.0
  0
LINE
  5
70
330
1F
100
AcDbEntity
  8
0
  6
Continuous
 62
     7
370
    15
100
AcDbLine
 10
397.5551245895
 20
29.8128774161
 30
0.0
 11
397.5551245895
 21
44.8128780121
 31
0.0
  0
LINE
  5
71
330
1F
100
AcDbEntity
  8
0
  6
Continuous
 62
     7
370
    15
100
AcDbLine
 10
667.5551353183
 20
44.8128780121
 30
0.0
 11
667.5551353183
 21
29.8128774161
 31
0.0
  0
LINE
  5
72
330
1F
100
AcDbEntity
  8
0
  6
Continuous
 62
     7
370
    15
100
AcDbLine
 10
667.5551353183
 20
44.8128780121
 30
0.0
 11
682.5551359143
 21
44.8128780121
 31
0.0
  0
ARC
  5
73
330
1F
100
AcDbEntity
  8
0
  6
Continuous
 62
     7
370
    15
100
AcDbCircle
 10
667.5551299539
 20
44.8128803963
 30
0.0
 40
15.00000000000002
100
AcDbArc
 50
270.0
 51
0.0
  0
LINE
  5
74
330
1F
100
AcDbEntity
  8
0
  6
Continuous
 62
     7
370
    15
100
AcDbLine
 10
667.5551353183
 20
29.8128774161
 30
0.0
 11
397.5551245895
 21
29.8128774161
 31
0.0
  0
LINE
  5
75
330
1F
100
AcDbEntity
  8
0
  6
Continuous
 62
     7
370
    15
100
AcDbLine
 10
667.5551353183
 20
44.8128780121
 30
0.0
 11
397.5551245895
 21
44.8128780121
 31
0.0
  0
LINE
  5
76
330
1F
100
AcDbEntity
  8
0
  6
Continuous
 62
     7
370
    15
100
AcDbLine
 10
682.5551359143
 20
44.8128780121
 30
0.0
 11
682.5551359143
 21
414.8128827805
 31
0.0
  0
LINE
  5
77
330
1F
100
AcDbEntity
  8
0
  6
Continuous
 62
     7
370
    15
100
AcDbLine
 10
667.5551353183
 20
44.8128780121
 30
0.0
 11
667.5551353183
 21
414.8128827805
 31
0.0
  0
LINE
  5
78
330
1F
100
AcDbEntity
  8
0
  6
Continuous
 62
     7
370
    15
100
AcDbLine
 10
682.5551359143
 20
414.8128827805
 30
0.0
 11
667.5551353183
 21
414.8128827805
 31
0.0
  0
LINE
  5
79
330
1F
100
AcDbEntity
  8
0
  6
Continuous
 62
     7
370
    15
100
AcDbLine
 10
397.5551245895
 20
44.8128780121
 30
0.0
 11
397.5551245895
 21
414.8128827805
 31
0.0
  0
LINE
  5
7A
330
1F
100
AcDbEntity
  8
0
  6
Continuous
 62
     7
370
    15
100
AcDbLine
 10
382.5551239934
 20
44.8128780121
 30
0.0
 11
382.5551239934
 21
219.825388282
 31
0.0
  0
LINE
  5
7B
330
1F
100
AcDbEntity
  8
0
  6
Continuous
 62
     7
370
    15
100
AcDbLine
 10
382.5551239934
 20
239.8003725106
 30
0.0
 11
382.5551239934
 21
414.8128827805
 31
0.0
  0
LINE
  5
7C
330
1F
100
AcDbEntity
  8
0
  6
Continuous
 62
     7
370
    15
100
AcDbLine
 10
382.5551239934
 20
414.8128827805
 30
0.0
 11
397.5551245895
 21
414.8128827805
 31
0.0
  0
LINE
  5
7D
330
1F
100
AcDbEntity
  8
0
  6
Continuous
 62
     7
370
    15
100
AcDbLine
 10
662.5551251855
 20
49.8128732438
 30
0.0
 11
662.5551251855
 21
409.8128875489
 31
0.0
  0
LINE
  5
7E
330
1F
100
AcDbEntity
  8
0
  6
Continuous
 62
     7
370
    15
100
AcDbLine
 10
402.5551347223
 20
409.8128875489
 30
0.0
 11
662.5551251855
 21
409.8128875489
 31
0.0
  0
LINE
  5
7F
330
1F
100
AcDbEntity
  8
0
  6
Continuous
 62
     7
370
    15
100
AcDbLine
 10
402.5551347223
 20
49.8128732438
 30
0.0
 11
402.5551347223
 21
409.8128875489
 31
0.0
  0
LINE
  5
80
330
1F
100
AcDbEntity
  8
0
  6
Continuous
 62
     7
370
    15
100
AcDbLine
 10
662.5551251855
 20
49.8128732438
 30
0.0
 11
402.5551347223
 21
49.8128732438
 31
0.0
  0
LINE
  5
81
330
1F
100
AcDbEntity
  8
0
  6
Continuous
 62
     7
370
    15
100
AcDbLine
 10
397.5551245895
 20
414.8128827805
 30
0.0
 11
667.5551353183
 21
414.8128827805
 31
0.0
  0
LINE
  5
82
330
1F
100
AcDbEntity
  8
0
  6
Continuous
 62
     7
370
    15
100
AcDbLine
 10
397.5551245895
 20
414.8128827805
 30
0.0
 11
397.5551245895
 21
429.8128833766
 31
0.0
  0
LINE
  5
83
330
1F
100
AcDbEntity
  8
0
  6
Continuous
 62
     7
370
    15
100
AcDbLine
 10
397.5551245895
 20
429.8128833766
 30
0.0
 11
667.5551353183
 21
429.8128833766
 31
0.0
  0
LINE
  5
84
330
1F
100
AcDbEntity
  8
0
  6
Continuous
 62
     7
370
    15
100
AcDbLine
 10
667.5551353183
 20
429.8128833766
 30
0.0
 11
667.5551353183
 21
414.8128827805
 31
0.0
  0
ARC
  5
85
330
1F
100
AcDbEntity
  8
0
  6
Continuous
 62
     7
370
    15
100
AcDbCircle
 10
667.5551299539
 20
414.8128803963
 30
0.0
 40
15.0
100
AcDbArc
 50
0.0
 51
90.0
  0
ARC
  5
86
330
1F
100
AcDbEntity
  8
0
  6
Continuous
 62
     7
370
    15
100
AcDbCircle
 10
397.5551299539
 20
414.8128803963
 30
0.0
 40
15.0
100
AcDbArc
 50
90.0
 51
180.0
  0
LINE
  5
87
330
1F
100
AcDbEntity
  8
0
  6
Continuous
 62
     7
370
    15
100
AcDbLine
 10
381.3551334825
 20
240.8473634864
 30
0.0
 11
382.5551239934
 21
240.8473634864
 31
0.0
  0
LINE
  5
88
330
1F
100
AcDbEntity
  8
0
  6
Continuous
 62
     7
370
    15
100
AcDbLine
 10
382.5551239934
 20
239.8003725106
 30
0.0
 11
382.5551239934
 21
219.825388282
 31
0.0
  0
LINE
  5
89
330
1F
100
AcDbEntity
  8
0
  6
Continuous
 62
     7
370
    15
100
AcDbLine
 10
381.3551334825
 20
218.7783973063
 30
0.0
 11
382.5551239934
 21
218.7783973063
 31
0.0
  0
LINE
  5
8A
330
1F
100
AcDbEntity
  8
0
  6
Continuous
 62
     7
370
    15
100
AcDbLine
 10
381.3551334825
 20
218.7783973063
 30
0.0
 11
381.3551334825
 21
240.8473634864
 31
0.0
  0
LINE
  5
8B
330
1F
100
AcDbEntity
  8
0
  6
Continuous
 62
     7
370
    15
100
AcDbLine
 10
381.2551317897
 20
221.8128800163
 30
0.0
 11
381.2551317897
 21
227.8128803013
 31
0.0
  0
LINE
  5
8C
330
1F
100
AcDbEntity
  8
0
  6
Continuous
 62
     7
370
    15
100
AcDbLine
 10
381.2551317897
 20
234.8128802846
 30
0.0
 11
381.2551317897
 21
237.8128807763
 31
0.0
  0
LINE
  5
8D
330
1F
100
AcDbEntity
  8
0
  6
Continuous
 62
     7
370
    15
100
AcDbLine
 10
381.2551317897
 20
231.8128804913
 30
0.0
 11
381.2551317897
 21
234.8128802846
 31
0.0
  0
LINE
  5
8E
330
1F
100
AcDbEntity
  8
0
  6
Continuous
 62
     7
370
    15
100
AcDbLine
 10
381.3551334825
 20
240.8473634864
 30
0.0
 11
381.3551334825
 21
241.3128804187
 31
0.0
  0
LINE
  5
8F
330
1F
100
AcDbEntity
  8
0
  6
Continuous
 62
     7
370
    15
100
AcDbLine
 10
381.3551334825
 20
218.312880374
 30
0.0
 11
381.3551334825
 21
218.7783973063
 31
0.0
  0
LINE
  5
90
330
1F
100
AcDbEntity
  8
0
  6
Continuous
 62
     7
370
    15
100
AcDbLine
 10
683.4564922538
 20
120.8128830189
 30
0.0
 11
683.4564922538
 21
85.8128865952
 31
0.0
  0
LINE
  5
91
330
1F
100
AcDbEntity
  8
0
  6
Continuous
 62
     7
370
    15
100
AcDbLine
 10
683.4564922538
 20
120.8128830189
 30
0.0
 11
694.055136868
 21
120.8128830189
 31
0.0
  0
LINE
  5
92
330
1F
100
AcDbEntity
  8
0
  6
Continuous
 62
     7
370
    15
100
AcDbLine
 10
683.4564922538
 20
85.8128865952
 30
0.0
 11
694.055136868
 21
85.8128865952
 31
0.0
  0
LINE
  5
93
330
1F
100
AcDbEntity
  8
0
  6
Continuous
 62
     7
370
    15
100
AcDbLine
 10
683.4564922538
 20
373.8128741974
 30
0.0
 11
683.4564922538
 21
338.8128777737
 31
0.0
  0
LINE
  5
94
330
1F
100
AcDbEntity
  8
0
  6
Continuous
 62
     7
370
    15
100
AcDbLine
 10
683.4564922538
 20
373.8128741974
 30
0.0
 11
694.055136868
 21
373.8128741974
 31
0.0
  0
LINE
  5
95
330
1F
100
AcDbEntity
  8
0
  6
Continuous
 62
     7
370
    15
100
AcDbLine
 10
683.4564922538
 20
338.8128777737
 30
0.0
 11
694.055136868
 21
338.8128777737
 31
0.0
  0
LINE
  5
96
330
1F
100
AcDbEntity
  8
0
  6
Continuous
 62
     7
370
    15
100
AcDbLine
 10
682.9929767337
 20
120.8128830189
 30
0.0
 11
682.9929767337
 21
85.8128865952
 31
0.0
  0
LINE
  5
97
330
1F
100
AcDbEntity
  8
0
  6
Continuous
 62
     7
370
    15
100
AcDbLine
 10
682.9929767337
 20
120.8128830189
 30
0.0
 11
683.4564922538
 21
120.8128830189
 31
0.0
  0
LINE
  5
98
330
1F
100
AcDbEntity
  8
0
  6
Continuous
 62
     7
370
    15
100
AcDbLine
 10
682.9929767337
 20
85.8128865952
 30
0.0
 11
683.4564922538
 21
85.8128865952
 31
0.0
  0
LINE
  5
99
330
1F
100
AcDbEntity
  8
0
  6
Continuous
 62
     7
370
    15
100
AcDbLine
 10
682.9929767337
 20
373.8128741974
 30
0.0
 11
682.9929767337
 21
338.8128777737
 31
0.0
  0
LINE
  5
9A
330
1F
100
AcDbEntity
  8
0
  6
Continuous
 62
     7
370
    15
100
AcDbLine
 10
682.9929767337
 20
373.8128741974
 30
0.0
 11
683.4564922538
 21
373.8128741974
 31
0.0
  0
LINE
  5
9B
330
1F
100
AcDbEntity
  8
0
  6
Continuous
 62
     7
370
    15
100
AcDbLine
 10
682.9929767337
 20
338.8128777737
 30
0.0
 11
683.4564922538
 21
338.8128777737
 31
0.0
  0
LINE
  5
9C
330
1F
100
AcDbEntity
  8
0
  6
Continuous
 62
     7
370
    15
100
AcDbLine
 10
682.5551359143
 20
120.8128830189
 30
0.0
 11
682.9929767337
 21
120.8128830189
 31
0.0
  0
LINE
  5
9D
330
1F
100
AcDbEntity
  8
0
  6
Continuous
 62
     7
370
    15
100
AcDbLine
 10
682.5551359143
 20
85.8128865952
 30
0.0
 11
682.9929767337
 21
85.8128865952
 31
0.0
  0
LINE
  5
9E
330
1F
100
AcDbEntity
  8
0
  6
Continuous
 62
     7
370
    15
100
AcDbLine
 10
682.5551359143
 20
373.8128741974
 30
0.0
 11
682.9929767337
 21
373.8128741974
 31
0.0
  0
LINE
  5
9F
330
1F
100
AcDbEntity
  8
0
  6
Continuous
 62
     7
370
    15
100
AcDbLine
 10
682.5551359143
 20
338.8128777737
 30
0.0
 11
682.9929767337
 21
338.8128777737
 31
0.0
  0
LINE
  5
A0
330
1F
100
AcDbEntity
  8
0
  6
Continuous
 62
     7
370
    15
100
AcDbLine
 10
374.2856500831
 20
235.1128802406
 30
0.0
 11
373.5551355567
 21
235.1128802406
 31
0.0
  0
LINE
  5
A1
330
1F
100
AcDbEntity
  8
0
  6
Continuous
 62
     7
370
    15
100
AcDbLine
 10
374.2856500831
 20
235.1128802406
 30
0.0
 11
374.2856500831
 21
224.512880552
 31
0.0
  0
LINE
  5
A2
330
1F
100
AcDbEntity
  8
0
  6
Continuous
 62
     7
370
    15
100
AcDbLine
 10
373.5551355567
 20
224.512880552
 30
0.0
 11
374.2856500831
 21
224.512880552
 31
0.0
  0
LINE
  5
A3
330
1F
100
AcDbEntity
  8
0
  6
Continuous
 62
     7
370
    15
100
AcDbLine
 10
373.5551355567
 20
235.1128802406
 30
0.0
 11
373.5551355567
 21
224.512880552
 31
0.0
  0
LINE
  5
A4
330
1F
100
AcDbEntity
  8
0
  6
Continuous
 62
     7
370
    15
100
AcDbLine
 10
375.2376703706
 20
223.3128802622
 30
0.0
 11
374.5071558442
 21
223.3128802622
 31
0.0
  0
ARC
  5
A5
330
1F
100
AcDbEntity
  8
0
  6
Continuous
 62
     7
370
    15
100
AcDbCircle
 10
374.6472844117
 20
224.4016940832
 30
0.0
 40
1.097793948007137
100
AcDbArc
 50
174.1870171141
 51
262.6664383425
  0
ARC
  5
A6
330
1F
100
AcDbEntity
  8
0
  6
Continuous
 62
     7
370
    15
100
AcDbCircle
 10
375.3777916435
 20
224.4016882961
 30
0.0
 40
1.097787277143248
100
AcDbArc
 50
174.1866780666
 51
262.6667773901
  0
ARC
  5
A7
330
1F
100
AcDbEntity
  8
0
  6
Continuous
 62
     7
370
    15
100
AcDbCircle
 10
375.3777916435
 20
235.2240724965
 30
0.0
 40
1.097787277143248
100
AcDbArc
 50
97.3332226099
 51
185.8133219334
  0
LINE
  5
A8
330
1F
100
AcDbEntity
  8
0
  6
Continuous
 62
     7
370
    15
100
AcDbLine
 10
375.2376703706
 20
236.3128805304
 30
0.0
 11
378.7811068978
 21
236.3128805304
 31
0.0
  0
LINE
  5
A9
330
1F
100
AcDbEntity
  8
0
  6
Continuous
 62
     7
370
    15
100
AcDbLine
 10
378.7811068978
 20
236.3128805304
 30
0.0
 11
378.7811068978
 21
223.3128802622
 31
0.0
  0
LINE
  5
AA
330
1F
100
AcDbEntity
  8
0
  6
Continuous
 62
     7
370
    15
100
AcDbLine
 10
378.7811068978
 20
223.3128802622
 30
0.0
 11
375.2376703706
 21
223.3128802622
 31
0.0
  0
LINE
  5
AB
330
1F
100
AcDbEntity
  8
0
  6
Continuous
 62
     7
370
    15
100
AcDbLine
 10
374.5071558442
 20
236.3128805304
 30
0.0
 11
375.2376703706
 21
236.3128805304
 31
0.0
  0
ARC
  5
AC
330
1F
100
AcDbEntity
  8
0
  6
Continuous
 62
     7
370
    15
100
AcDbCircle
 10
374.6472844117
 20
235.2240667094
 30
0.0
 40
1.097793948007137
100
AcDbArc
 50
97.3335616575
 51
185.8129828859
  0
LINE
  5
AD
330
1F
100
AcDbEntity
  8
0
  6
Continuous
 62
     7
370
    15
100
AcDbLine
 10
378.8810638871
 20
236.3128805304
 30
0.0
 11
378.7811068978
 21
236.3128805304
 31
0.0
  0
LINE
  5
AE
330
1F
100
AcDbEntity
  8
0
  6
Continuous
 62
     7
370
    15
100
AcDbLine
 10
378.7811068978
 20
223.3128802622
 30
0.0
 11
378.9146362033
 21
223.3128802622
 31
0.0
  0
SPLINE
  5
AF
330
1F
100
AcDbEntity
  8
0
  6
Continuous
 62
     7
370
    15
100
AcDbSpline
210
0.0
220
0.0
230
1.0
 70
    24
 71
     3
 72
    12
 73
     8
 74
     0
 42
0.00000001
 43
0.00000001
 40
0.0
 40
0.0
 40
0.0
 40
0.0
 40
0.2185045281652869
 40
0.4370083809750159
 40
0.655518221401872
 40
0.8740244204541278
 40
1.0
 40
1.0
 40
1.0
 40
1.0
 10
380.7144729581061
 20
236.5052754762008
 30
0.0
 10
380.5177535396064
 20
236.5052754762008
 30
0.0
 10
380.1243153106288
 20
236.5052754762008
 30
0.0
 10
379.5635545337654
 20
236.5052754762008
 30
0.0
 10
379.1458905525804
 20
236.5052754762008
 30
0.0
 10
378.9193235042578
 20
236.5052754762008
 30
0.0
 10
378.9368514395936
 20
236.5052754762008
 30
0.0
 10
378.9432613339606
 20
236.5052754762008
 30
0.0
  0
SPLINE
  5
B0
330
1F
100
AcDbEntity
  8
0
  6
Continuous
 62
     7
370
    15
100
AcDbSpline
210
0.0
220
0.0
230
1.0
 70
    24
 71
     3
 72
     9
 73
     5
 74
     0
 42
0.00000001
 43
0.00000001
 40
0.0
 40
0.0
 40
0.0
 40
0.0
 40
0.1970130322720919
 40
1.0
 40
1.0
 40
1.0
 40
1.0
 10
381.3551334824744
 20
236.5052754762008
 30
0.0
 10
381.3224812865498
 20
236.5052754762008
 30
0.0
 10
381.1567450631742
 20
236.5052754762008
 30
0.0
 10
380.9114453949101
 20
236.5052754762008
 30
0.0
 10
380.7144729581061
 20
236.5052754762008
 30
0.0
  0
SPLINE
  5
B1
330
1F
100
AcDbEntity
  8
0
  6
Continuous
 62
     7
370
    15
100
AcDbSpline
210
0.0
220
0.0
230
1.0
 70
     8
 71
     3
 72
    13
 73
     9
 74
     0
 42
0.00000001
 43
0.00000001
 40
0.0
 40
0.0
 40
0.0
 40
0.0
 40
0.1877343531938777
 40
0.3754727167530941
 40
0.5632110648104007
 40
0.7509477880705518
 40
0.9386848209004788
 40
0.9999999999999999
 40
0.9999999999999999
 40
0.9999999999999999
 40
0.9999999999999999
 10
380.4211883034888
 20
240.1201141769423
 30
0.0
 10
380.2244967163008
 20
240.117413880903
 30
0.0
 10
379.8311093402156
 20
240.1120132311409
 30
0.0
 10
379.2980913338124
 20
239.8214812297594
 30
0.0
 10
378.907564156258
 20
239.3665776647056
 30
0.0
 10
378.7346231147255
 20
238.8048967725009
 30
0.0
 10
378.7378933098413
 20
238.3316992907437
 30
0.0
 10
378.8652271571145
 20
238.1102680095434
 30
0.0
 10
378.8965759959403
 20
238.0557529399528
 30
0.0
  0
SPLINE
  5
B2
330
1F
100
AcDbEntity
  8
0
  6
Continuous
 62
     7
370
    15
100
AcDbSpline
210
0.0
220
0.0
230
1.0
 70
     8
 71
     3
 72
    10
 73
     6
 74
     0
 42
0.00000001
 43
0.00000001
 40
0.0
 40
0.0
 40
0.0
 40
0.0
 40
0.2093428725105197
 40
0.6046699278794417
 40
0.9999999999999999
 40
0.9999999999999999
 40
0.9999999999999999
 40
0.9999999999999999
 10
381.5583704199972
 20
239.3139995405807
 30
0.0
 10
381.5166623864619
 20
239.4070629963248
 30
0.0
 10
381.3961921104627
 20
239.6758692489483
 30
0.0
 10
380.9894959548332
 20
239.9925319218282
 30
0.0
 10
380.6106246691313
 20
240.0775866503955
 30
0.0
 10
380.4211883034888
 20
240.1201141769423
 30
0.0
  0
SPLINE
  5
B3
330
1F
100
AcDbEntity
  8
0
  6
Continuous
 62
     7
370
    15
100
AcDbSpline
210
0.0
220
0.0
230
1.0
 70
     8
 71
     3
 72
    13
 73
     9
 74
     0
 42
0.00000001
 43
0.00000001
 40
0.0
 40
0.0
 40
0.0
 40
0.0
 40
0.1768614158016835
 40
0.3537267399476782
 40
0.5305919192438419
 40
0.7074547270595563
 40
0.8843194473083311
 40
1.0
 40
1.0
 40
1.0
 40
1.0
 10
380.4039625611487
 20
219.4769274214639
 30
0.0
 10
380.2072954346076
 20
219.4796181691356
 30
0.0
 10
379.8139568355077
 20
219.4849997239401
 30
0.0
 10
379.2805717994009
 20
219.7756751301172
 30
0.0
 10
378.8914416161031
 20
220.2300378329585
 30
0.0
 10
378.7132810889832
 20
220.7937360056072
 30
0.0
 10
378.7342425017075
 20
221.3268829068881
 30
0.0
 10
378.9003370102171
 20
221.6001542321004
 30
0.0
 10
378.9660154071036
 20
221.708213328792
 30
0.0
  0
SPLINE
  5
B4
330
1F
100
AcDbEntity
  8
0
  6
Continuous
 62
     7
370
    15
100
AcDbSpline
210
0.0
220
0.0
230
1.0
 70
     8
 71
     3
 72
    10
 73
     6
 74
     0
 42
0.00000001
 43
0.00000001
 40
0.0
 40
0.0
 40
0.0
 40
0.0
 40
0.0588212984257692
 40
0.5294125327652901
 40
1.0
 40
1.0
 40
1.0
 40
1.0
 10
381.4340798344794
 20
220.0768369952573
 30
0.0
 10
381.4234453063394
 20
220.0553566593461
 30
0.0
 10
381.3277307840834
 20
219.8620260232709
 30
0.0
 10
380.9668430321353
 20
219.6078573265869
 30
0.0
 10
380.5915888841544
 20
219.5205706067154
 30
0.0
 10
380.4039625611487
 20
219.4769274214639
 30
0.0
  0
SPLINE
  5
B5
330
1F
100
AcDbEntity
  8
0
  6
Continuous
 62
     7
370
    15
100
AcDbSpline
210
0.0
220
0.0
230
1.0
 70
    24
 71
     3
 72
    12
 73
     8
 74
     0
 42
0.00000001
 43
0.00000001
 40
0.0
 40
0.0
 40
0.0
 40
0.0
 40
0.2193538838170249
 40
0.4387070896532966
 40
0.6580663063813456
 40
0.8774218675802953
 40
1.0
 40
1.0
 40
1.0
 40
1.0
 10
380.7144729581061
 20
222.9466446446611
 30
0.0
 10
380.5177582234062
 20
222.9466446446611
 30
0.0
 10
380.1243293620138
 20
222.9466446446611
 30
0.0
 10
379.5634983277864
 20
222.9466446446611
 30
0.0
 10
379.1461013299904
 20
222.9466446446611
 30
0.0
 10
378.9202415931449
 20
222.9466446446611
 30
0.0
 10
378.9372306242034
 20
222.9466446446611
 30
0.0
 10
378.9433209386054
 20
222.9466446446611
 30
0.0
  0
SPLINE
  5
B6
330
1F
100
AcDbEntity
  8
0
  6
Continuous
 62
     7
370
    15
100
AcDbSpline
210
0.0
220
0.0
230
1.0
 70
    24
 71
     3
 72
     9
 73
     5
 74
     0
 42
0.00000001
 43
0.00000001
 40
0.0
 40
0.0
 40
0.0
 40
0.0
 40
0.1970130322720919
 40
1.0
 40
1.0
 40
1.0
 40
1.0
 10
381.3551334824744
 20
222.9466446446611
 30
0.0
 10
381.3224812865498
 20
222.9466446446611
 30
0.0
 10
381.1567450631742
 20
222.9466446446611
 30
0.0
 10
380.9114453949101
 20
222.9466446446611
 30
0.0
 10
380.7144729581061
 20
222.9466446446611
 30
0.0
  0
SPLINE
  5
B7
330
1F
100
AcDbEntity
  8
0
  6
Continuous
 62
     7
370
    15
100
AcDbSpline
210
0.0
220
0.0
230
1.0
 70
     8
 71
     3
 72
    13
 73
     9
 74
     0
 42
0.00000001
 43
0.00000001
 40
0.0
 40
0.0
 40
0.0
 40
0.0
 40
0.1768614774712451
 40
0.3537265172110513
 40
0.530591640972232
 40
0.7074548960608414
 40
0.8843190982005572
 40
0.9999999999999999
 40
0.9999999999999999
 40
0.9999999999999999
 40
0.9999999999999999
 10
378.8521109309378
 20
242.7365327025189
 30
0.0
 10
378.6554439070029
 20
242.7338418725242
 30
0.0
 10
378.2621058979497
 20
242.7284601583372
 30
0.0
 10
377.7287197330316
 20
242.4377865173296
 30
0.0
 10
377.3395896242621
 20
241.9834206610497
 30
0.0
 10
377.1614296162061
 20
241.4197265678086
 30
0.0
 10
377.1823914090241
 20
240.8865754640202
 30
0.0
 10
377.3484853630966
 20
240.6133056735377
 30
0.0
 10
377.4141637768927
 20
240.5052467951907
 30
0.0
  0
SPLINE
  5
B8
330
1F
100
AcDbEntity
  8
0
  6
Continuous
 62
     7
370
    15
100
AcDbSpline
210
0.0
220
0.0
230
1.0
 70
     8
 71
     3
 72
    10
 73
     6
 74
     0
 42
0.00000001
 43
0.00000001
 40
0.0
 40
0.0
 40
0.0
 40
0.0
 40
0.1474573734895173
 40
0.573730886909061
 40
1.0
 40
1.0
 40
1.0
 40
1.0
 10
379.9407003607931
 20
242.0240066716804
 30
0.0
 10
379.9126438139299
 20
242.0843010275773
 30
0.0
 10
379.8034806901437
 20
242.3188958360003
 30
0.0
 10
379.4184007583259
 20
242.607703295463
 30
0.0
 10
379.0408735572086
 20
242.6935897145988
 30
0.0
 10
378.8521109309378
 20
242.7365327025189
 30
0.0
  0
SPLINE
  5
B9
330
1F
100
AcDbEntity
  8
0
  6
Continuous
 62
     7
370
    15
100
AcDbSpline
210
0.0
220
0.0
230
1.0
 70
     8
 71
     3
 72
    13
 73
     9
 74
     0
 42
0.00000001
 43
0.00000001
 40
0.0
 40
0.0
 40
0.0
 40
0.0
 40
0.1768652274756148
 40
0.3537298964291658
 40
0.5305915122055381
 40
0.7074553349849598
 40
0.8843190100278324
 40
1.0
 40
1.0
 40
1.0
 40
1.0
 10
378.8349000897589
 20
216.8605088958873
 30
0.0
 10
378.6382282591087
 20
216.8631992320761
 30
0.0
 10
378.2448852188776
 20
216.8685798959579
 30
0.0
 10
377.7114925268621
 20
217.1592514182784
 30
0.0
 10
377.3223849179828
 20
217.6136285350563
 30
0.0
 10
377.1441980171216
 20
218.1773118233351
 30
0.0
 10
377.1651669076078
 20
218.7104674067648
 30
0.0
 10
377.3312598659113
 20
218.9837361102205
 30
0.0
 10
377.3969380345526
 20
219.0917948032154
 30
0.0
  0
SPLINE
  5
BA
330
1F
100
AcDbEntity
  8
0
  6
Continuous
 62
     7
370
    15
100
AcDbSpline
210
0.0
220
0.0
230
1.0
 70
     8
 71
     3
 72
    10
 73
     6
 74
     0
 42
0.00000001
 43
0.00000001
 40
0.0
 40
0.0
 40
0.0
 40
0.0
 40
0.147458888279366
 40
0.5737367806918053
 40
1.0
 40
1.0
 40
1.0
 40
1.0
 10
379.9234746184531
 20
217.5730349267258
 30
0.0
 10
379.8954180755009
 20
217.5127405620945
 30
0.0
 10
379.7862549669316
 20
217.2781457196873
 30
0.0
 10
379.4011787078325
 20
216.9893418591989
 30
0.0
 10
379.0236574632746
 20
216.9034527242445
 30
0.0
 10
378.8349000897589
 20
216.8605088958873
 30
0.0
  0
LINE
  5
BB
330
1F
100
AcDbEntity
  8
0
  6
Continuous
 62
     7
370
    15
100
AcDbLine
 10
373.5551355567
 20
225.1128804641
 30
0.0
 11
373.4503207889
 21
225.1128804641
 31
0.0
  0
LINE
  5
BC
330
1F
100
AcDbEntity
  8
0
  6
Continuous
 62
     7
370
    15
100
AcDbLine
 10
373.5551355567
 20
233.7128802905
 30
0.0
 11
373.4503207889
 21
233.7128802905
 31
0.0
  0
LINE
  5
BD
330
1F
100
AcDbEntity
  8
0
  6
Continuous
 62
     7
370
    15
100
AcDbLine
 10
378.9210139003
 20
222.61288052
 30
0.0
 11
374.0551291194
 21
222.61288052
 31
0.0
  0
LINE
  5
BE
330
1F
100
AcDbEntity
  8
0
  6
Continuous
 62
     7
370
    15
100
AcDbLine
 10
378.9292840448
 20
221.8128800163
 30
0.0
 11
374.055740067
 21
221.8128800163
 31
0.0
  0
LINE
  5
BF
330
1F
100
AcDbEntity
  8
0
  6
Continuous
 62
     7
370
    15
100
AcDbLine
 10
378.8810638871
 20
237.0128802726
 30
0.0
 11
374.0551291194
 21
237.0128802726
 31
0.0
  0
LINE
  5
C0
330
1F
100
AcDbEntity
  8
0
  6
Continuous
 62
     7
370
    15
100
AcDbLine
 10
378.8835970845
 20
237.8128807763
 30
0.0
 11
374.055740067
 21
237.8128807763
 31
0.0
  0
LINE
  5
C1
330
1F
100
AcDbEntity
  8
0
  6
Continuous
 62
     7
370
    15
100
AcDbLine
 10
377.6551304546
 20
238.1128802667
 30
0.0
 11
378.8184939113
 21
238.1128802667
 31
0.0
  0
LINE
  5
C2
330
1F
100
AcDbEntity
  8
0
  6
Continuous
 62
     7
370
    15
100
AcDbLine
 10
378.9378224101
 20
238.1128802667
 30
0.0
 11
379.0439782825
 21
238.1128802667
 31
0.0
  0
LINE
  5
C3
330
1F
100
AcDbEntity
  8
0
  6
Continuous
 62
     7
370
    15
100
AcDbLine
 10
375.4551230159
 20
238.1128802667
 30
0.0
 11
377.6551304546
 21
238.1128802667
 31
0.0
  0
LINE
  5
C4
330
1F
100
AcDbEntity
  8
0
  6
Continuous
 62
     7
370
    15
100
AcDbLine
 10
377.6551304546
 20
221.4128806958
 30
0.0
 11
378.7585167375
 21
221.4128806958
 31
0.0
  0
LINE
  5
C5
330
1F
100
AcDbEntity
  8
0
  6
Continuous
 62
     7
370
    15
100
AcDbLine
 10
375.5551247087
 20
221.4128806958
 30
0.0
 11
377.6551304546
 21
221.4128806958
 31
0.0
  0
LINE
  5
C6
330
1F
100
AcDbEntity
  8
0
  6
Continuous
 62
     7
370
    15
100
AcDbLine
 10
377.6551304546
 20
221.012880444
 30
0.0
 11
378.5186378446
 21
221.012880444
 31
0.0
  0
LINE
  5
C7
330
1F
100
AcDbEntity
  8
0
  6
Continuous
 62
     7
370
    15
100
AcDbLine
 10
375.5551247087
 20
221.012880444
 30
0.0
 11
377.6551304546
 21
221.012880444
 31
0.0
  0
ARC
  5
C8
330
1F
100
AcDbEntity
  8
0
  6
Continuous
 62
     7
370
    15
100
AcDbCircle
 10
374.5209155916
 20
222.6106440333
 30
0.0
 40
0.8027495456831002
100
AcDbArc
 50
179.8403718595
 51
234.5326562665
  0
ARC
  5
C9
330
1F
100
AcDbEntity
  8
0
  6
Continuous
 62
     7
370
    15
100
AcDbCircle
 10
374.5209155916
 20
237.0151167594
 30
0.0
 40
0.8027495456831002
100
AcDbArc
 50
125.4673437335
 51
180.1596281405
  0
LINE
  5
CA
330
1F
100
AcDbEntity
  8
0
  6
Continuous
 62
     7
370
    15
100
AcDbLine
 10
374.506023356
 20
223.0628802212
 30
0.0
 11
374.506023356
 21
222.61288052
 31
0.0
  0
LINE
  5
CB
330
1F
100
AcDbEntity
  8
0
  6
Continuous
 62
     7
370
    15
100
AcDbLine
 10
374.506023356
 20
237.0128802726
 30
0.0
 11
374.506023356
 21
236.5628805714
 31
0.0
  0
LINE
  5
CC
330
1F
100
AcDbEntity
  8
0
  6
Continuous
 62
     7
370
    15
100
AcDbLine
 10
373.7181691613
 20
235.7844383227
 30
0.0
 11
373.7181691613
 21
237.0128802726
 31
0.0
  0
LINE
  5
CD
330
1F
100
AcDbEntity
  8
0
  6
Continuous
 62
     7
370
    15
100
AcDbLine
 10
373.7181691613
 20
222.61288052
 30
0.0
 11
373.7181691613
 21
223.8413224699
 31
0.0
  0
LINE
  5
CE
330
1F
100
AcDbEntity
  8
0
  6
Continuous
 62
     7
370
    15
100
AcDbLine
 10
683.4564922538
 20
84.8128845686
 30
0.0
 11
683.4564922538
 21
49.8128732438
 31
0.0
  0
LINE
  5
CF
330
1F
100
AcDbEntity
  8
0
  6
Continuous
 62
     7
370
    15
100
AcDbLine
 10
694.055136868
 20
84.8128845686
 30
0.0
 11
683.4564922538
 21
84.8128845686
 31
0.0
  0
LINE
  5
D0
330
1F
100
AcDbEntity
  8
0
  6
Continuous
 62
     7
370
    15
100
AcDbLine
 10
694.055136868
 20
49.8128732438
 30
0.0
 11
683.4564922538
 21
49.8128732438
 31
0.0
  0
LINE
  5
D1
330
1F
100
AcDbEntity
  8
0
  6
Continuous
 62
     7
370
    15
100
AcDbLine
 10
683.4564922538
 20
409.8128875489
 30
0.0
 11
683.4564922538
 21
374.812876224
 31
0.0
  0
LINE
  5
D2
330
1F
100
AcDbEntity
  8
0
  6
Continuous
 62
     7
370
    15
100
AcDbLine
 10
694.055136868
 20
409.8128875489
 30
0.0
 11
683.4564922538
 21
409.8128875489
 31
0.0
  0
LINE
  5
D3
330
1F
100
AcDbEntity
  8
0
  6
Continuous
 62
     7
370
    15
100
AcDbLine
 10
694.055136868
 20
374.812876224
 30
0.0
 11
683.4564922538
 21
374.812876224
 31
0.0
  0
LINE
  5
D4
330
1F
100
AcDbEntity
  8
0
  6
Continuous
 62
     7
370
    15
100
AcDbLine
 10
691.0551307883
 20
121.8128775949
 30
0.0
 11
686.0551355567
 21
121.8128775949
 31
0.0
  0
LINE
  5
D5
330
1F
100
AcDbEntity
  8
0
  6
Continuous
 62
     7
370
    15
100
AcDbLine
 10
686.0551355567
 20
337.8128831977
 30
0.0
 11
691.0551307883
 21
337.8128831977
 31
0.0
  0
LINE
  5
D6
330
1F
100
AcDbEntity
  8
0
  6
Continuous
 62
     7
370
    15
100
AcDbLine
 10
682.9929767337
 20
49.8128732438
 30
0.0
 11
682.9929767337
 21
84.8128845686
 31
0.0
  0
LINE
  5
D7
330
1F
100
AcDbEntity
  8
0
  6
Continuous
 62
     7
370
    15
100
AcDbLine
 10
682.9929767337
 20
84.8128845686
 30
0.0
 11
683.4564922538
 21
84.8128845686
 31
0.0
  0
LINE
  5
D8
330
1F
100
AcDbEntity
  8
0
  6
Continuous
 62
     7
370
    15
100
AcDbLine
 10
683.4564922538
 20
49.8128732438
 30
0.0
 11
682.9929767337
 21
49.8128732438
 31
0.0
  0
LINE
  5
D9
330
1F
100
AcDbEntity
  8
0
  6
Continuous
 62
     7
370
    15
100
AcDbLine
 10
682.9929767337
 20
374.812876224
 30
0.0
 11
682.9929767337
 21
409.8128875489
 31
0.0
  0
LINE
  5
DA
330
1F
100
AcDbEntity
  8
0
  6
Continuous
 62
     7
370
    15
100
AcDbLine
 10
682.9929767337
 20
409.8128875489
 30
0.0
 11
683.4564922538
 21
409.8128875489
 31
0.0
  0
LINE
  5
DB
330
1F
100
AcDbEntity
  8
0
  6
Continuous
 62
     7
370
    15
100
AcDbLine
 10
683.4564922538
 20
374.812876224
 30
0.0
 11
682.9929767337
 21
374.812876224
 31
0.0
  0
LINE
  5
DC
330
1F
100
AcDbEntity
  8
0
  6
Continuous
 62
     7
370
    15
100
AcDbLine
 10
682.9929767337
 20
409.8128875489
 30
0.0
 11
682.5551359143
 21
409.8128875489
 31
0.0
  0
LINE
  5
DD
330
1F
100
AcDbEntity
  8
0
  6
Continuous
 62
     7
370
    15
100
AcDbLine
 10
682.9929767337
 20
374.812876224
 30
0.0
 11
682.5551359143
 21
374.812876224
 31
0.0
  0
LINE
  5
DE
330
1F
100
AcDbEntity
  8
0
  6
Continuous
 62
     7
370
    15
100
AcDbLine
 10
682.9929767337
 20
84.8128845686
 30
0.0
 11
682.5551359143
 21
84.8128845686
 31
0.0
  0
LINE
  5
DF
330
1F
100
AcDbEntity
  8
0
  6
Continuous
 62
     7
370
    15
100
AcDbLine
 10
682.9929767337
 20
49.8128732438
 30
0.0
 11
682.5551359143
 21
49.8128732438
 31
0.0
  0
LINE
  5
E0
330
1F
100
AcDbEntity
  8
0
  6
Continuous
 62
     7
370
    15
100
AcDbLine
 10
377.3551253762
 20
236.5628805714
 30
0.0
 11
374.255132505
 21
236.5628805714
 31
0.0
  0
LINE
  5
E1
330
1F
100
AcDbEntity
  8
0
  6
Continuous
 62
     7
370
    15
100
AcDbLine
 10
377.3551253762
 20
223.0628802212
 30
0.0
 11
374.255132505
 21
223.0628802212
 31
0.0
  0
LINE
  5
E2
330
1F
100
AcDbEntity
  8
0
  6
Continuous
 62
     7
370
    15
100
AcDbLine
 10
377.3551253762
 20
223.0628802212
 30
0.0
 11
378.9146362033
 21
223.0628802212
 31
0.0
  0
LINE
  5
E3
330
1F
100
AcDbEntity
  8
0
  6
Continuous
 62
     7
370
    15
100
AcDbLine
 10
377.3551253762
 20
236.5628805714
 30
0.0
 11
378.9152024474
 21
236.5628805714
 31
0.0
  0
LINE
  5
E4
330
1F
100
AcDbEntity
  8
0
  6
Continuous
 62
     8
370
    15
100
AcDbLine
 10
377.3551253762
 20
236.5628805714
 30
0.0
 11
377.3551253762
 21
236.3128805304
 31
0.0
  0
LINE
  5
E5
330
1F
100
AcDbEntity
  8
0
  6
Continuous
 62
     8
370
    15
100
AcDbLine
 10
377.3551253762
 20
223.3128802622
 30
0.0
 11
377.3551253762
 21
223.0628802212
 31
0.0
  0
LINE
  5
E6
330
1F
100
AcDbEntity
  8
0
  6
Continuous
 62
     7
370
    15
100
AcDbLine
 10
240.6033228468
 20
236.3128805304
 30
0.0
 11
240.6033228468
 21
223.3128802622
 31
0.0
  0
SPLINE
  5
E7
330
1F
100
AcDbEntity
  8
0
  6
Continuous
 62
     7
370
    15
100
AcDbSpline
210
0.0
220
0.0
230
1.0
 70
     8
 71
     3
 72
    15
 73
    11
 74
     0
 42
0.00000001
 43
0.00000001
 40
0.0
 40
0.0
 40
0.0
 40
0.0
 40
0.1356028663338301
 40
0.2953315886943306
 40
0.4038095484465317
 40
0.5319635813589845
 40
0.6738457581954921
 40
0.8261073253668793
 40
0.9126171788294358
 40
1.0
 40
1.0
 40
1.0
 40
1.0
 10
229.5833255480892
 20
224.3789256321623
 30
0.0
 10
229.6277070214448
 20
224.3716025189293
 30
0.0
 10
229.7243661215734
 20
224.3556533968807
 30
0.0
 10
229.931217251091
 20
224.4033193971565
 30
0.0
 10
230.1244776263168
 20
224.4910502934531
 30
0.0
 10
230.2710661229387
 20
224.6107098361023
 30
0.0
 10
230.3697687624656
 20
224.7615994363273
 30
0.0
 10
230.3994361283445
 20
224.8834534385962
 30
0.0
 10
230.378247138717
 20
225.0126960466735
 30
0.0
 10
230.3319939974491
 20
225.0793740803435
 30
0.0
 10
230.3087513279087
 20
225.1128804641201
 30
0.0
  0
SPLINE
  5
E8
330
1F
100
AcDbEntity
  8
0
  6
Continuous
 62
     7
370
    15
100
AcDbSpline
210
0.0
220
0.0
230
1.0
 70
     8
 71
     3
 72
    20
 73
    16
 74
     0
 42
0.00000001
 43
0.00000001
 40
0.0
 40
0.0
 40
0.0
 40
0.0
 40
0.0607086123965684
 40
0.2265341556312683
 40
0.3908035227156336
 40
0.47059495370885
 40
0.5476205410215486
 40
0.6228560695700163
 40
0.7003373840453081
 40
0.7786475224298974
 40
0.856657977712297
 40
0.933101309579349
 40
0.970373601682483
 40
0.9892352123565442
 40
1.0
 40
1.0
 40
1.0
 40
1.0
 10
225.8471275996334
 20
225.1128804641201
 30
0.0
 10
225.893402160593
 20
225.0595470666288
 30
0.0
 10
226.0660756607826
 20
224.8605335215863
 30
0.0
 10
226.4830490730569
 20
224.8426067685553
 30
0.0
 10
227.0480035300659
 20
224.7675838058209
 30
0.0
 10
227.5676162401045
 20
224.7246416229406
 30
0.0
 10
227.9615073287267
 20
224.6940910618165
 30
0.0
 10
228.3544176904895
 20
224.6664075741447
 30
0.0
 10
228.7355799920991
 20
224.6351010746369
 30
0.0
 10
229.0913051198363
 20
224.6026281146661
 30
0.0
 10
229.3939356463874
 20
224.5718022368142
 30
0.0
 10
229.5864359599341
 20
224.5488999069772
 30
0.0
 10
229.6745660390972
 20
224.5408724832208
 30
0.0
 10
229.7199891812414
 20
224.5330779090442
 30
0.0
 10
229.7194334972191
 20
224.5370367202098
 30
0.0
 10
229.7192315887577
 20
224.5384751590325
 30
0.0
  0
SPLINE
  5
E9
330
1F
100
AcDbEntity
  8
0
  6
Continuous
 62
     7
370
    15
100
AcDbSpline
210
0.0
220
0.0
230
1.0
 70
     8
 71
     3
 72
    18
 73
    14
 74
     0
 42
0.00000001
 43
0.00000001
 40
0.0
 40
0.0
 40
0.0
 40
0.0
 40
0.0057536117614248
 40
0.1156379965053346
 40
0.2383937881526184
 40
0.3593078905080883
 40
0.4757042930345473
 40
0.5872128412016234
 40
0.7047314987254447
 40
0.8265010043940745
 40
0.8891454358173227
 40
0.951792939132898
 40
1.0
 40
1.0
 40
1.0
 40
1.0
 10
230.0899426769383
 20
233.7597043956055
 30
0.0
 10
230.085295514166
 20
233.7626578724255
 30
0.0
 10
229.9918952962325
 20
233.8220178286315
 30
0.0
 10
229.7695326858778
 20
233.8282013872457
 30
0.0
 10
229.3781553832478
 20
233.887397667583
 30
0.0
 10
228.8662651489758
 20
233.9329447790044
 30
0.0
 10
228.3152398024873
 20
233.9790963335476
 30
0.0
 10
227.7531234802132
 20
234.0179925061803
 30
0.0
 10
227.2188439247271
 20
234.0627225801276
 30
0.0
 10
226.8212092134302
 20
234.1037929953551
 30
0.0
 10
226.6064804997253
 20
234.1249143585147
 30
0.0
 10
226.5104134058697
 20
234.1272033946267
 30
0.0
 10
226.4949775256889
 20
234.1111282929456
 30
0.0
 10
226.4882649611599
 20
234.104137751682
 30
0.0
  0
SPLINE
  5
EA
330
1F
100
AcDbEntity
  8
0
  6
Continuous
 62
     7
370
    15
100
AcDbSpline
210
0.0
220
0.0
230
1.0
 70
     8
 71
     3
 72
    12
 73
     8
 74
     0
 42
0.00000001
 43
0.00000001
 40
0.0
 40
0.0
 40
0.0
 40
0.0
 40
0.2236729820054967
 40
0.4523097742282867
 40
0.6822372678484837
 40
0.9102273613192214
 40
1.0
 40
1.0
 40
1.0
 40
1.0
 10
225.7890279721386
 20
234.9147311183049
 30
0.0
 10
225.7762925531163
 20
234.8721831906558
 30
0.0
 10
225.7505390872704
 20
234.7861431004479
 30
0.0
 10
225.8716620922558
 20
234.6945280485641
 30
0.0
 10
226.1033433949191
 20
234.5982226855645
 30
0.0
 10
226.3481998349359
 20
234.5357316272234
 30
0.0
 10
226.5315326938266
 20
234.540951770155
 30
0.0
 10
226.5833269189961
 20
234.5424265371992
 30
0.0
  0
SPLINE
  5
EB
330
1F
100
AcDbEntity
  8
0
  6
Continuous
 62
     7
370
    15
100
AcDbSpline
210
0.0
220
0.0
230
1.0
 70
     8
 71
     3
 72
    19
 73
    15
 74
     0
 42
0.00000001
 43
0.00000001
 40
0.0
 40
0.0
 40
0.0
 40
0.0
 40
0.0979033736757284
 40
0.1753767752232956
 40
0.2884822032961697
 40
0.3734525700840743
 40
0.4570022720946865
 40
0.6168867031555729
 40
0.6796659019373148
 40
0.7634255342528317
 40
0.8137555855017751
 40
0.8702971455237448
 40
0.9323987944767276
 40
1.0
 40
1.0
 40
1.0
 40
1.0
 10
225.9652640055783
 20
234.4196004564299
 30
0.0
 10
226.0157711098769
 20
234.3932234619358
 30
0.0
 10
226.1062457558998
 20
234.3459736884012
 30
0.0
 10
226.4808891758765
 20
234.2853250562521
 30
0.0
 10
226.9674015695782
 20
234.23143827565
 30
0.0
 10
227.5587294924671
 20
234.1782047695388
 30
0.0
 10
228.3128319982772
 20
234.1266550565425
 30
0.0
 10
228.9539227202648
 20
234.0597111811776
 30
0.0
 10
229.6031988263389
 20
234.0241914122972
 30
0.0
 10
229.9815292152575
 20
234.1023788368228
 30
0.0
 10
230.2333824163666
 20
234.2105757397795
 30
0.0
 10
230.3669792992877
 20
234.298918175991
 30
0.0
 10
230.4287362750428
 20
234.372758773955
 30
0.0
 10
230.35730091324
 20
234.4532741094912
 30
0.0
 10
230.3200687598355
 20
234.4952387506499
 30
0.0
  0
SPLINE
  5
EC
330
1F
100
AcDbEntity
  8
0
  6
Continuous
 62
     7
370
    15
100
AcDbSpline
210
0.0
220
0.0
230
1.0
 70
     8
 71
     3
 72
    25
 73
    21
 74
     0
 42
0.00000001
 43
0.00000001
 40
0.0
 40
0.0
 40
0.0
 40
0.0
 40
0.0176268899162512
 40
0.0344980499122053
 40
0.050315126133779
 40
0.0649738322073702
 40
0.090944518425799
 40
0.1134381532453552
 40
0.1538408905572516
 40
0.191235137456296
 40
0.2995722695172233
 40
0.3999649734684962
 40
0.5012971299072176
 40
0.5949075374227529
 40
0.6784886355470741
 40
0.733631620823079
 40
0.8075209696764402
 40
0.8952853682008521
 40
0.945310775473205
 40
1.0
 40
1.0
 40
1.0
 40
1.0
 10
229.9627463649876
 20
233.8696568044259
 30
0.0
 10
230.0024570309588
 20
233.8740512630017
 30
0.0
 10
230.0801758198789
 20
233.882651773472
 30
0.0
 10
230.1820556991873
 20
233.9286549011733
 30
0.0
 10
230.2630710504419
 20
233.9876145542706
 30
0.0
 10
230.3392705063536
 20
234.0711869460665
 30
0.0
 10
230.3923237942873
 20
234.1748403550021
 30
0.0
 10
230.4164820717672
 20
234.3071729035968
 30
0.0
 10
230.3935930405324
 20
234.4390340471982
 30
0.0
 10
230.2223555278346
 20
234.6842498113828
 30
0.0
 10
229.8795609264914
 20
234.7713296230318
 30
0.0
 10
229.3844487041504
 20
234.8298851421521
 30
0.0
 10
228.7712353846407
 20
234.8882423793122
 30
0.0
 10
228.121769263616
 20
234.9378643471913
 30
0.0
 10
227.5820606532783
 20
234.9773464889667
 30
0.0
 10
227.1360666672392
 20
235.0165215856235
 30
0.0
 10
226.7473436182197
 20
235.0547508470278
 30
0.0
 10
226.4871979382197
 20
235.0825927249503
 30
0.0
 10
226.3567583619542
 20
235.1050862658458
 30
0.0
 10
226.3480929256634
 20
235.1175496592533
 30
0.0
 10
226.3435672353871
 20
235.1240589054658
 30
0.0
  0
SPLINE
  5
ED
330
1F
100
AcDbEntity
  8
0
  6
Continuous
 62
     7
370
    15
100
AcDbSpline
210
0.0
220
0.0
230
1.0
 70
     8
 71
     3
 72
    12
 73
     8
 74
     0
 42
0.00000001
 43
0.00000001
 40
0.0
 40
0.0
 40
0.0
 40
0.0
 40
0.175647670400461
 40
0.5723083889404248
 40
0.758616423787197
 40
0.9207513991597377
 40
1.0
 40
1.0
 40
1.0
 40
1.0
 10
226.4318938683636
 20
234.3055711830391
 30
0.0
 10
226.3663302252979
 20
234.2964001548547
 30
0.0
 10
226.1527058552708
 20
234.2665184242677
 30
0.0
 10
225.936788805029
 20
234.1925774272956
 30
0.0
 10
225.7756375256355
 20
233.9776549844954
 30
0.0
 10
225.7444238776937
 20
233.8174331003317
 30
0.0
 10
225.7754008561987
 20
233.7387699662767
 30
0.0
 10
225.7855709027417
 20
233.7129440861179
 30
0.0
  0
LINE
  5
EE
330
1F
100
AcDbEntity
  8
0
  6
Continuous
 62
     7
370
    15
100
AcDbLine
 10
225.9430836271
 20
225.0151400226
 30
0.0
 11
224.8246248197
 21
225.0151400226
 31
0.0
  0
LINE
  5
EF
330
1F
100
AcDbEntity
  8
0
  6
Continuous
 62
     7
370
    15
100
AcDbLine
 10
224.8246248197
 20
224.2151404502
 30
0.0
 11
226.583326919
 21
224.2151404502
 31
0.0
  0
LINE
  5
F0
330
1F
100
AcDbEntity
  8
0
  6
Continuous
 62
     7
370
    15
100
AcDbLine
 10
223.4143342208
 20
237.8128807763
 30
0.0
 11
223.4143342208
 21
237.8663507993
 31
0.0
  0
LINE
  5
F1
330
1F
100
AcDbEntity
  8
0
  6
Continuous
 62
     7
370
    15
100
AcDbLine
 10
220.4143355917
 20
237.8663507993
 30
0.0
 11
220.4143355917
 21
237.8128807763
 31
0.0
  0
SPLINE
  5
F2
330
1F
100
AcDbEntity
  8
0
  6
Continuous
 62
     7
370
    15
100
AcDbSpline
210
0.0
220
0.0
230
1.0
 70
     8
 71
     3
 72
    15
 73
    11
 74
     0
 42
0.00000001
 43
0.00000001
 40
0.0
 40
0.0
 40
0.0
 40
0.0
 40
0.1077551036863209
 40
0.235250774724543
 40
0.3627908901706017
 40
0.4902566411288575
 40
0.6176624605260265
 40
0.7450971317547226
 40
0.8724965622541917
 40
1.0
 40
1.0
 40
1.0
 40
1.0
 10
220.4303915928967
 20
221.8128800163402
 30
0.0
 10
220.4469315258032
 20
221.5003592531309
 30
0.0
 10
220.4830414815922
 20
220.8180644091067
 30
0.0
 10
220.8192416635312
 20
219.8089106751333
 30
0.0
 10
221.3773286708632
 20
218.8454323218287
 30
0.0
 10
222.132158992728
 20
218.0245133842738
 30
0.0
 10
223.0473144734052
 20
217.3892348479445
 30
0.0
 10
224.0745731885612
 20
216.9690789321151
 30
0.0
 10
225.1705548092852
 20
216.7552705675117
 30
0.0
 10
225.9063141272527
 20
216.8208011803727
 30
0.0
 10
226.2743438910611
 20
216.8535798559322
 30
0.0
  0
SPLINE
  5
F3
330
1F
100
AcDbEntity
  8
0
  6
Continuous
 62
     7
370
    15
100
AcDbSpline
210
0.0
220
0.0
230
1.0
 70
     8
 71
     3
 72
    15
 73
    11
 74
     0
 42
0.00000001
 43
0.00000001
 40
0.0
 40
0.0
 40
0.0
 40
0.0
 40
0.1316515586047396
 40
0.2633127136958283
 40
0.3951895423885307
 40
0.526669131905233
 40
0.6575467008163791
 40
0.7882127138924467
 40
0.9184595642371461
 40
1.0
 40
1.0
 40
1.0
 40
1.0
 10
225.7766525577671
 20
219.8112647751703
 30
0.0
 10
225.624468578633
 20
219.7994504426152
 30
0.0
 10
225.3200895272072
 20
219.775820916322
 30
0.0
 10
224.869231680385
 20
219.8773008592115
 30
0.0
 10
224.4502014857568
 20
220.064151528326
 30
0.0
 10
224.0798084097032
 20
220.3367485557126
 30
0.0
 10
223.7775470292004
 20
220.6826589292675
 30
0.0
 10
223.558389714252
 20
221.0843672229473
 30
0.0
 10
223.4410168005481
 20
221.4706795379566
 30
0.0
 10
223.4308428030202
 20
221.7177537325109
 30
0.0
 10
223.4269257020123
 20
221.8128800163402
 30
0.0
  0
SPLINE
  5
F4
330
1F
100
AcDbEntity
  8
0
  6
Continuous
 62
     7
370
    15
100
AcDbSpline
210
0.0
220
0.0
230
1.0
 70
     8
 71
     3
 72
    15
 73
    11
 74
     0
 42
0.00000001
 43
0.00000001
 40
0.0
 40
0.0
 40
0.0
 40
0.0
 40
0.1249271199019881
 40
0.2499164786626197
 40
0.3749670180552142
 40
0.4999570436912684
 40
0.624920505096255
 40
0.7499166867458813
 40
0.8748739282905801
 40
1.0
 40
1.0
 40
1.0
 40
1.0
 10
226.4452155064709
 20
242.7434012065067
 30
0.0
 10
226.078838847066
 20
242.786733063077
 30
0.0
 10
225.3459029989133
 20
242.8734183642067
 30
0.0
 10
224.2418769213266
 20
242.7082286225601
 30
0.0
 10
223.2010776292025
 20
242.3192978230158
 30
0.0
 10
222.2658886523857
 20
241.71428332658
 30
0.0
 10
221.4852451436513
 20
240.9180894796367
 30
0.0
 10
220.8972828165944
 20
239.9737262142162
 30
0.0
 10
220.5014464863071
 20
238.9252836681464
 30
0.0
 10
220.4433856221221
 20
238.1861614715913
 30
0.0
 10
220.4143355917103
 20
237.8163508842124
 30
0.0
  0
SPLINE
  5
F5
330
1F
100
AcDbEntity
  8
0
  6
Continuous
 62
     7
370
    15
100
AcDbSpline
210
0.0
220
0.0
230
1.0
 70
     8
 71
     3
 72
    15
 73
    11
 74
     0
 42
0.00000001
 43
0.00000001
 40
0.0
 40
0.0
 40
0.0
 40
0.0
 40
0.1242530462176843
 40
0.2486332419100647
 40
0.3735411395592486
 40
0.4985830848606487
 40
0.623663589876646
 40
0.7490697403789933
 40
0.8744383161927857
 40
1.0
 40
1.0
 40
1.0
 40
1.0
 10
223.4143342208035
 20
237.8163508842124
 30
0.0
 10
223.4278948441363
 20
237.9683070274467
 30
0.0
 10
223.4550299675332
 20
238.2723748122663
 30
0.0
 10
223.6294855730168
 20
238.6996911096242
 30
0.0
 10
223.8828196281571
 20
239.0813331336244
 30
0.0
 10
224.2126428059707
 20
239.401262267707
 30
0.0
 10
224.6035691033637
 20
239.6418384408457
 30
0.0
 10
225.0362671404039
 20
239.7934622119177
 30
0.0
 10
225.4937989999238
 20
239.8469196926917
 30
0.0
 10
225.7957182283297
 20
239.8062296849256
 30
0.0
 10
225.9467940162785
 20
239.7858690241708
 30
0.0
  0
LINE
  5
F6
330
1F
100
AcDbEntity
  8
0
  6
Continuous
 62
     7
370
    15
100
AcDbLine
 10
241.3174013924
 20
222.4280171799
 30
0.0
 11
225.7764290403
 21
219.81159912
 31
0.0
  0
LINE
  5
F7
330
1F
100
AcDbEntity
  8
0
  6
Continuous
 62
     7
370
    15
100
AcDbLine
 10
226.2744854521
 20
216.8532315413
 30
0.0
 11
241.8154578041
 21
219.4696500669
 31
0.0
  0
LINE
  5
F8
330
1F
100
AcDbEntity
  8
0
  6
Continuous
 62
     7
370
    15
100
AcDbLine
 10
225.9470100831
 20
239.7854434098
 30
0.0
 11
241.4879749846
 21
237.1690244185
 31
0.0
  0
LINE
  5
F9
330
1F
100
AcDbEntity
  8
0
  6
Continuous
 62
     7
370
    15
100
AcDbLine
 10
241.9860462975
 20
240.1273915315
 30
0.0
 11
226.4450739454
 21
242.7438100571
 31
0.0
  0
SPLINE
  5
FA
330
1F
100
AcDbEntity
  8
0
  6
Continuous
 62
     7
370
    15
100
AcDbSpline
210
0.0
220
0.0
230
1.0
 70
     8
 71
     3
 72
    12
 73
     8
 74
     0
 42
0.00000001
 43
0.00000001
 40
0.0
 40
0.0
 40
0.0
 40
0.0
 40
0.152613930552983
 40
0.2973908389818963
 40
0.5623711722461424
 40
0.7966022734797539
 40
1.0
 40
1.0
 40
1.0
 40
1.0
 10
241.8151150774128
 20
219.4699592659606
 30
0.0
 10
242.066334698581
 20
219.522697341197
 30
0.0
 10
242.5558733248206
 20
219.6254652889459
 30
0.0
 10
243.405395149494
 20
220.0547107561219
 30
0.0
 10
244.2173903334867
 20
220.7991007912993
 30
0.0
 10
244.7818151243175
 20
221.8701484675269
 30
0.0
 10
244.8635058195495
 20
222.6050724062306
 30
0.0
 10
244.9014733862049
 20
222.9466446446611
 30
0.0
  0
SPLINE
  5
FB
330
1F
100
AcDbEntity
  8
0
  6
Continuous
 62
     7
370
    15
100
AcDbSpline
210
0.0
220
0.0
230
1.0
 70
     8
 71
     3
 72
    11
 73
     7
 74
     0
 42
0.00000001
 43
0.00000001
 40
0.0
 40
0.0
 40
0.0
 40
0.0
 40
0.2003557084226641
 40
0.4328019081171545
 40
0.6990219638969846
 40
1.0
 40
1.0
 40
1.0
 40
1.0
 10
241.9031660389073
 20
222.9466446446611
 30
0.0
 10
241.8899385399152
 20
222.8902181706894
 30
0.0
 10
241.8613649252753
 20
222.7683275303102
 30
0.0
 10
241.7454797391862
 20
222.6026246703285
 30
0.0
 10
241.5607204498661
 20
222.4637194927404
 30
0.0
 10
241.4030983532566
 20
222.4403302139375
 30
0.0
 10
241.3194577526219
 20
222.4279189253582
 30
0.0
  0
SPLINE
  5
FC
330
1F
100
AcDbEntity
  8
0
  6
Continuous
 62
     7
370
    15
100
AcDbSpline
210
0.0
220
0.0
230
1.0
 70
     8
 71
     3
 72
    12
 73
     8
 74
     0
 42
0.00000001
 43
0.00000001
 40
0.0
 40
0.0
 40
0.0
 40
0.0
 40
0.203406314462845
 40
0.4376409325717662
 40
0.7026159820239064
 40
0.8473900631967533
 40
0.9999999999999999
 40
0.9999999999999999
 40
0.9999999999999999
 40
0.9999999999999999
 10
244.901473386205
 20
236.5052754762008
 30
0.0
 10
244.8800392351687
 20
236.8482846815999
 30
0.0
 10
244.8339223686735
 20
237.5862896394497
 30
0.0
 10
244.3218024534611
 20
238.6833938995669
 30
0.0
 10
243.5465994789406
 20
239.4661530654581
 30
0.0
 10
242.7187486773872
 20
239.9358807997758
 30
0.0
 10
242.2347598282867
 20
240.0621420453649
 30
0.0
 10
241.9863890241749
 20
240.1269361148013
 30
0.0
  0
SPLINE
  5
FD
330
1F
100
AcDbEntity
  8
0
  6
Continuous
 62
     7
370
    15
100
AcDbSpline
210
0.0
220
0.0
230
1.0
 70
     8
 71
     3
 72
    12
 73
     8
 74
     0
 42
0.00000001
 43
0.00000001
 40
0.0
 40
0.0
 40
0.0
 40
0.0
 40
0.1555467668030945
 40
0.3021964619754383
 40
0.5679612517421782
 40
0.799944018567254
 40
1.0
 40
1.0
 40
1.0
 40
1.0
 10
241.4860676359303
 20
237.1699427025749
 30
0.0
 10
241.526609250271
 20
237.1541928252485
 30
0.0
 10
241.605373551634
 20
237.1235939429804
 30
0.0
 10
241.7350023983576
 20
237.0285516387781
 30
0.0
 10
241.8494308735864
 20
236.882377173567
 30
0.0
 10
241.9135878874446
 20
236.6881265198595
 30
0.0
 10
241.9064645209853
 20
236.5631472528141
 30
0.0
 10
241.9031660389073
 20
236.5052754762008
 30
0.0
  0
LINE
  5
FE
330
1F
100
AcDbEntity
  8
0
  6
Continuous
 62
     7
370
    15
100
AcDbLine
 10
241.9023166727
 20
236.5552753913
 30
0.0
 11
241.9023166727
 21
236.3128805304
 31
0.0
  0
LINE
  5
FF
330
1F
100
AcDbEntity
  8
0
  6
Continuous
 62
     7
370
    15
100
AcDbLine
 10
241.9023166727
 20
223.3128802622
 30
0.0
 11
241.9023166727
 21
222.8966447296
 31
0.0
  0
LINE
  5
100
330
1F
100
AcDbEntity
  8
0
  6
Continuous
 62
     7
370
    15
100
AcDbLine
 10
244.9023227524
 20
222.8966447296
 30
0.0
 11
244.9023227524
 21
223.3156248698
 31
0.0
  0
LINE
  5
101
330
1F
100
AcDbEntity
  8
0
  6
Continuous
 62
     7
370
    15
100
AcDbLine
 10
244.9023227524
 20
236.3101359228
 30
0.0
 11
244.9023227524
 21
236.5552753913
 31
0.0
  0
LINE
  5
102
330
1F
100
AcDbEntity
  8
0
  6
Continuous
 62
     7
370
    15
100
AcDbLine
 10
231.2015991043
 20
235.4128801966
 30
0.0
 11
229.5833255481
 21
235.4128801966
 31
0.0
  0
LINE
  5
103
330
1F
100
AcDbEntity
  8
0
  6
Continuous
 62
     7
370
    15
100
AcDbLine
 10
230.2102472018
 20
234.6128806243
 30
0.0
 11
231.2015991043
 21
234.6128806243
 31
0.0
  0
LINE
  5
104
330
1F
100
AcDbEntity
  8
0
  6
Continuous
 62
     7
370
    15
100
AcDbLine
 10
231.5398256611
 20
236.6810193057
 30
0.0
 11
231.273303492
 21
235.4727721544
 31
0.0
  0
LINE
  5
105
330
1F
100
AcDbEntity
  8
0
  6
Continuous
 62
     7
370
    15
100
AcDbLine
 10
232.0414583515
 20
235.2412220793
 30
0.0
 11
232.3210413884
 21
236.5086915674
 31
0.0
  0
SPLINE
  5
106
330
1F
100
AcDbEntity
  8
0
  6
Continuous
 62
     7
370
    15
100
AcDbSpline
210
0.0
220
0.0
230
1.0
 70
     8
 71
     3
 72
    11
 73
     7
 74
     0
 42
0.00000001
 43
0.00000001
 40
0.0
 40
0.0
 40
0.0
 40
0.0
 40
0.2541309399275824
 40
0.5022690019548702
 40
0.7495126202113759
 40
1.0
 40
1.0
 40
1.0
 40
1.0
 10
231.2015991043217
 20
234.6128806243076
 30
0.0
 10
231.3016878487568
 20
234.6231267357858
 30
0.0
 10
231.4995050597923
 20
234.6433773364705
 30
0.0
 10
231.7576503859904
 20
234.7974098242403
 30
0.0
 10
231.961099371826
 20
235.0164839569374
 30
0.0
 10
232.0228378531753
 20
235.2035337407975
 30
0.0
 10
232.0539082717068
 20
235.2976681435837
 30
0.0
  0
LINE
  5
107
330
1F
100
AcDbEntity
  8
0
  6
Continuous
 62
     7
370
    15
100
AcDbLine
 10
230.8133269977
 20
237.0128802726
 30
0.0
 11
230.8133269977
 21
237.8128807763
 31
0.0
  0
LINE
  5
108
330
1F
100
AcDbEntity
  8
0
  6
Continuous
 62
     7
370
    15
100
AcDbLine
 10
230.8133269977
 20
221.8128800163
 30
0.0
 11
230.8133269977
 21
222.61288052
 31
0.0
  0
LINE
  5
109
330
1F
100
AcDbEntity
  8
0
  6
Continuous
 62
     7
370
    15
100
AcDbLine
 10
225.8833299708
 20
238.1128802667
 30
0.0
 11
225.8833299708
 21
237.8128807763
 31
0.0
  0
LINE
  5
10A
330
1F
100
AcDbEntity
  8
0
  6
Continuous
 62
     7
370
    15
100
AcDbLine
 10
230.2833299469
 20
237.8128807763
 30
0.0
 11
230.2833299469
 21
238.1128802667
 31
0.0
  0
ARC
  5
10B
330
1F
100
AcDbEntity
  8
0
  6
Continuous
 62
     7
370
    15
100
AcDbCircle
 10
228.0833262562
 20
235.0057375392
 30
0.0
 40
3.807142857143189
100
AcDbArc
 50
54.6997515601
 51
125.3002484399
  0
LINE
  5
10C
330
1F
100
AcDbEntity
  8
0
  6
Continuous
 62
     7
370
    15
100
AcDbLine
 10
225.9833242129
 20
221.4128806958
 30
0.0
 11
225.9833242129
 21
221.012880444
 31
0.0
  0
LINE
  5
10D
330
1F
100
AcDbEntity
  8
0
  6
Continuous
 62
     7
370
    15
100
AcDbLine
 10
230.1833282541
 20
221.012880444
 30
0.0
 11
230.1833282541
 21
221.4128806958
 31
0.0
  0
ARC
  5
10E
330
1F
100
AcDbEntity
  8
0
  6
Continuous
 62
     7
370
    15
100
AcDbCircle
 10
226.1833262562
 20
221.8128803964
 30
0.0
 40
0.4000000000007731
100
AcDbArc
 50
270.0
 51
0.0
  0
ARC
  5
10F
330
1F
100
AcDbEntity
  8
0
  6
Continuous
 62
     7
370
    15
100
AcDbCircle
 10
229.9833262562
 20
221.8128803964
 30
0.0
 40
0.4000000000008015
100
AcDbArc
 50
180.0
 51
270.0
  0
LINE
  5
110
330
1F
100
AcDbEntity
  8
0
  6
Continuous
 62
     7
370
    15
100
AcDbLine
 10
226.583326919
 20
237.0128802726
 30
0.0
 11
226.583326919
 21
236.5628805714
 31
0.0
  0
LINE
  5
111
330
1F
100
AcDbEntity
  8
0
  6
Continuous
 62
     7
370
    15
100
AcDbLine
 10
226.583326919
 20
235.5628804075
 30
0.0
 11
226.583326919
 21
235.0741758714
 31
0.0
  0
LINE
  5
112
330
1F
100
AcDbEntity
  8
0
  6
Continuous
 62
     7
370
    15
100
AcDbLine
 10
226.583326919
 20
234.2780613112
 30
0.0
 11
226.583326919
 21
234.1223642001
 31
0.0
  0
LINE
  5
113
330
1F
100
AcDbEntity
  8
0
  6
Continuous
 62
     7
370
    15
100
AcDbLine
 10
226.583326919
 20
224.8232535789
 30
0.0
 11
226.583326919
 21
224.0628803851
 31
0.0
  0
LINE
  5
114
330
1F
100
AcDbEntity
  8
0
  6
Continuous
 62
     7
370
    15
100
AcDbLine
 10
226.583326919
 20
223.0628802212
 30
0.0
 11
226.583326919
 21
222.61288052
 31
0.0
  0
LINE
  5
115
330
1F
100
AcDbEntity
  8
0
  6
Continuous
 62
     7
370
    15
100
AcDbLine
 10
229.5833255481
 20
222.61288052
 30
0.0
 11
229.5833255481
 21
223.0628802212
 31
0.0
  0
LINE
  5
116
330
1F
100
AcDbEntity
  8
0
  6
Continuous
 62
     7
370
    15
100
AcDbLine
 10
229.5833255481
 20
224.0628803851
 30
0.0
 11
229.5833255481
 21
224.5500226276
 31
0.0
  0
LINE
  5
117
330
1F
100
AcDbEntity
  8
0
  6
Continuous
 62
     7
370
    15
100
AcDbLine
 10
229.5833255481
 20
233.8579398351
 30
0.0
 11
229.5833255481
 21
234.0458784024
 31
0.0
  0
LINE
  5
118
330
1F
100
AcDbEntity
  8
0
  6
Continuous
 62
     7
370
    15
100
AcDbLine
 10
229.5833255481
 20
234.800957493
 30
0.0
 11
229.5833255481
 21
235.5628804075
 31
0.0
  0
LINE
  5
119
330
1F
100
AcDbEntity
  8
0
  6
Continuous
 62
     7
370
    15
100
AcDbLine
 10
229.5833255481
 20
236.5628805714
 30
0.0
 11
229.5833255481
 21
237.0128802726
 31
0.0
  0
LINE
  5
11A
330
1F
100
AcDbEntity
  8
0
  6
Continuous
 62
     7
370
    15
100
AcDbLine
 10
241.181934936
 20
236.3128805304
 30
0.0
 11
241.181934936
 21
223.3128802622
 31
0.0
  0
LINE
  5
11B
330
1F
100
AcDbEntity
  8
0
  6
Continuous
 62
     7
370
    15
100
AcDbLine
 10
241.181934936
 20
236.3128805304
 30
0.0
 11
243.9009200167
 21
236.3128805304
 31
0.0
  0
LWPOLYLINE
  5
11C
330
1F
100
AcDbEntity
  8
0
  6
Continuous
 62
     7
370
    15
100
AcDbPolyline
 90
        9
 70
   128
 43
0.0
 10
244.6314345431
 20
235.1128802406
 10
244.6173976492
 20
235.3469886588
 10
244.5758234095
 20
235.572100501
 10
244.5083211493
 20
235.7795647117
 10
244.4174687695
 20
235.961408704
 10
244.306768043
 20
236.1106438334
 10
244.1804658007
 20
236.2215359467
 10
244.0434347223
 20
236.2898228461
 10
243.9009200167
 20
236.3128805304
  0
LINE
  5
11D
330
1F
100
AcDbEntity
  8
0
  6
Continuous
 62
     7
370
    15
100
AcDbLine
 10
244.6314345431
 20
235.1128802406
 30
0.0
 11
244.6314345431
 21
224.512880552
 31
0.0
  0
LWPOLYLINE
  5
11E
330
1F
100
AcDbEntity
  8
0
  6
Continuous
 62
     7
370
    15
100
AcDbPolyline
 90
        9
 70
   128
 43
0.0
 10
243.9009200167
 20
223.3128802622
 10
244.0434347223
 20
223.3359379465
 10
244.1804658007
 20
223.404224846
 10
244.306768043
 20
223.5151169593
 10
244.4174687695
 20
223.6643520886
 10
244.5083211493
 20
223.846196081
 10
244.5758234095
 20
224.0536602917
 10
244.6173976492
 20
224.2787721338
 10
244.6314345431
 20
224.512880552
  0
LINE
  5
11F
330
1F
100
AcDbEntity
  8
0
  6
Continuous
 62
     7
370
    15
100
AcDbLine
 10
243.9009200167
 20
223.3128802622
 30
0.0
 11
241.181934936
 21
223.3128802622
 31
0.0
  0
LINE
  5
120
330
1F
100
AcDbEntity
  8
0
  6
Continuous
 62
     7
370
    15
100
AcDbLine
 10
245.5834548306
 20
235.1128802406
 30
0.0
 11
244.6314345431
 21
235.1128802406
 31
0.0
  0
LINE
  5
121
330
1F
100
AcDbEntity
  8
0
  6
Continuous
 62
     7
370
    15
100
AcDbLine
 10
245.5834548306
 20
235.1128802406
 30
0.0
 11
245.5834548306
 21
224.512880552
 31
0.0
  0
LINE
  5
122
330
1F
100
AcDbEntity
  8
0
  6
Continuous
 62
     7
370
    15
100
AcDbLine
 10
244.6314345431
 20
224.512880552
 30
0.0
 11
245.5834548306
 21
224.512880552
 31
0.0
  0
LINE
  5
123
330
1F
100
AcDbEntity
  8
0
  6
Continuous
 62
     7
370
    15
100
AcDbLine
 10
243.9009200167
 20
236.3128805304
 30
0.0
 11
244.8529403042
 21
236.3128805304
 31
0.0
  0
LWPOLYLINE
  5
124
330
1F
100
AcDbEntity
  8
0
  6
Continuous
 62
     7
370
    15
100
AcDbPolyline
 90
        9
 70
   128
 43
0.0
 10
244.8529403042
 20
236.3128805304
 10
244.9954550099
 20
236.2898228461
 10
245.1325009894
 20
236.2215359467
 10
245.2587883305
 20
236.1106438334
 10
245.369489057
 20
235.961408704
 10
245.4603414368
 20
235.7795647117
 10
245.527843697
 20
235.572100501
 10
245.5694179367
 20
235.3469886588
 10
245.5834548306
 20
235.1128802406
  0
LINE
  5
125
330
1F
100
AcDbEntity
  8
0
  6
Continuous
 62
     7
370
    15
100
AcDbLine
 10
244.8529403042
 20
223.3128802622
 30
0.0
 11
243.9009200167
 21
223.3128802622
 31
0.0
  0
LWPOLYLINE
  5
126
330
1F
100
AcDbEntity
  8
0
  6
Continuous
 62
     7
370
    15
100
AcDbPolyline
 90
        9
 70
   128
 43
0.0
 10
245.5834548306
 20
224.512880552
 10
245.5694179367
 20
224.2787721338
 10
245.527843697
 20
224.0536602917
 10
245.4603414368
 20
223.846196081
 10
245.369489057
 20
223.6643520886
 10
245.2587883305
 20
223.5151169593
 10
245.1325009894
 20
223.404224846
 10
244.9954550099
 20
223.3359379465
 10
244.8529403042
 20
223.3128802622
  0
LINE
  5
127
330
1F
100
AcDbEntity
  8
0
  6
Continuous
 62
     7
370
    15
100
AcDbLine
 10
240.6033228468
 20
236.3128805304
 30
0.0
 11
241.181934936
 21
236.3128805304
 31
0.0
  0
LINE
  5
128
330
1F
100
AcDbEntity
  8
0
  6
Continuous
 62
     7
370
    15
100
AcDbLine
 10
241.181934936
 20
223.3128802622
 30
0.0
 11
240.6033228468
 21
223.3128802622
 31
0.0
  0
CIRCLE
  5
129
330
1F
100
AcDbEntity
  8
0
  6
Continuous
 62
     7
370
    15
100
AcDbCircle
 10
251.1033262562
 20
234.8128803963
 30
0.0
 40
3.0
  0
LINE
  5
12A
330
1F
100
AcDbEntity
  8
0
  6
Continuous
 62
     7
370
    15
100
AcDbLine
 10
249.2033194136
 20
235.2128805364
 30
0.0
 11
249.2033194136
 21
234.4128804984
 31
0.0
  0
LINE
  5
12B
330
1F
100
AcDbEntity
  8
0
  6
Continuous
 62
     7
370
    15
100
AcDbLine
 10
249.2033194136
 20
234.4128804984
 30
0.0
 11
250.703329904
 21
234.4128804984
 31
0.0
  0
LINE
  5
12C
330
1F
100
AcDbEntity
  8
0
  6
Continuous
 62
     7
370
    15
100
AcDbLine
 10
250.703329904
 20
234.4128804984
 30
0.0
 11
250.703329904
 21
232.9128804854
 31
0.0
  0
LINE
  5
12D
330
1F
100
AcDbEntity
  8
0
  6
Continuous
 62
     7
370
    15
100
AcDbLine
 10
250.703329904
 20
232.9128804854
 30
0.0
 11
251.503328545
 21
232.9128804854
 31
0.0
  0
LINE
  5
12E
330
1F
100
AcDbEntity
  8
0
  6
Continuous
 62
     7
370
    15
100
AcDbLine
 10
251.503328545
 20
232.9128804854
 30
0.0
 11
251.503328545
 21
234.4128804984
 31
0.0
  0
LINE
  5
12F
330
1F
100
AcDbEntity
  8
0
  6
Continuous
 62
     7
370
    15
100
AcDbLine
 10
251.503328545
 20
234.4128804984
 30
0.0
 11
253.0033241343
 21
234.4128804984
 31
0.0
  0
LINE
  5
130
330
1F
100
AcDbEntity
  8
0
  6
Continuous
 62
     7
370
    15
100
AcDbLine
 10
253.0033241343
 20
234.4128804984
 30
0.0
 11
253.0033241343
 21
235.2128805364
 31
0.0
  0
LINE
  5
131
330
1F
100
AcDbEntity
  8
0
  6
Continuous
 62
     7
370
    15
100
AcDbLine
 10
253.0033241343
 20
235.2128805364
 30
0.0
 11
251.503328545
 21
235.2128805364
 31
0.0
  0
LINE
  5
132
330
1F
100
AcDbEntity
  8
0
  6
Continuous
 62
     7
370
    15
100
AcDbLine
 10
251.503328545
 20
235.2128805364
 30
0.0
 11
251.503328545
 21
236.7128803166
 31
0.0
  0
LINE
  5
133
330
1F
100
AcDbEntity
  8
0
  6
Continuous
 62
     7
370
    15
100
AcDbLine
 10
251.503328545
 20
236.7128803166
 30
0.0
 11
250.703329904
 21
236.7128803166
 31
0.0
  0
LINE
  5
134
330
1F
100
AcDbEntity
  8
0
  6
Continuous
 62
     7
370
    15
100
AcDbLine
 10
250.703329904
 20
236.7128803166
 30
0.0
 11
250.703329904
 21
235.2128805364
 31
0.0
  0
LINE
  5
135
330
1F
100
AcDbEntity
  8
0
  6
Continuous
 62
     7
370
    15
100
AcDbLine
 10
250.703329904
 20
235.2128805364
 30
0.0
 11
249.2033194136
 21
235.2128805364
 31
0.0
  0
LINE
  5
136
330
1F
100
AcDbEntity
  8
0
  6
Continuous
 62
     7
370
    15
100
AcDbLine
 10
250.703329904
 20
222.912880476
 30
0.0
 11
251.503328545
 21
222.912880476
 31
0.0
  0
LINE
  5
137
330
1F
100
AcDbEntity
  8
0
  6
Continuous
 62
     7
370
    15
100
AcDbLine
 10
251.503328545
 20
222.912880476
 30
0.0
 11
251.503328545
 21
224.4128802562
 31
0.0
  0
LINE
  5
138
330
1F
100
AcDbEntity
  8
0
  6
Continuous
 62
     7
370
    15
100
AcDbLine
 10
251.503328545
 20
224.4128802562
 30
0.0
 11
253.0033241343
 21
224.4128802562
 31
0.0
  0
LINE
  5
139
330
1F
100
AcDbEntity
  8
0
  6
Continuous
 62
     7
370
    15
100
AcDbLine
 10
253.0033241343
 20
224.4128802562
 30
0.0
 11
253.0033241343
 21
225.2128802942
 31
0.0
  0
LINE
  5
13A
330
1F
100
AcDbEntity
  8
0
  6
Continuous
 62
     7
370
    15
100
AcDbLine
 10
253.0033241343
 20
225.2128802942
 30
0.0
 11
251.503328545
 21
225.2128802942
 31
0.0
  0
LINE
  5
13B
330
1F
100
AcDbEntity
  8
0
  6
Continuous
 62
     7
370
    15
100
AcDbLine
 10
251.503328545
 20
225.2128802942
 30
0.0
 11
251.503328545
 21
226.7128803073
 31
0.0
  0
LINE
  5
13C
330
1F
100
AcDbEntity
  8
0
  6
Continuous
 62
     7
370
    15
100
AcDbLine
 10
251.503328545
 20
226.7128803073
 30
0.0
 11
250.703329904
 21
226.7128803073
 31
0.0
  0
LINE
  5
13D
330
1F
100
AcDbEntity
  8
0
  6
Continuous
 62
     7
370
    15
100
AcDbLine
 10
250.703329904
 20
226.7128803073
 30
0.0
 11
250.703329904
 21
225.2128802942
 31
0.0
  0
LINE
  5
13E
330
1F
100
AcDbEntity
  8
0
  6
Continuous
 62
     7
370
    15
100
AcDbLine
 10
250.703329904
 20
224.4128802562
 30
0.0
 11
250.703329904
 21
222.912880476
 31
0.0
  0
LINE
  5
13F
330
1F
100
AcDbEntity
  8
0
  6
Continuous
 62
     7
370
    15
100
AcDbLine
 10
250.703329904
 20
225.2128802942
 30
0.0
 11
249.2033194136
 21
225.2128802942
 31
0.0
  0
CIRCLE
  5
140
330
1F
100
AcDbEntity
  8
0
  6
Continuous
 62
     7
370
    15
100
AcDbCircle
 10
251.1033262562
 20
224.8128803963
 30
0.0
 40
3.0
  0
LINE
  5
141
330
1F
100
AcDbEntity
  8
0
  6
Continuous
 62
     7
370
    15
100
AcDbLine
 10
249.2033194136
 20
225.2128802942
 30
0.0
 11
249.2033194136
 21
224.4128802562
 31
0.0
  0
LINE
  5
142
330
1F
100
AcDbEntity
  8
0
  6
Continuous
 62
     7
370
    15
100
AcDbLine
 10
249.2033194136
 20
224.4128802562
 30
0.0
 11
250.703329904
 21
224.4128802562
 31
0.0
  0
ARC
  5
143
330
1F
100
AcDbEntity
  8
0
  6
Continuous
 62
     7
370
    15
100
AcDbCircle
 10
240.6033262562
 20
229.8128803963
 30
0.0
 40
15.99999999999999
100
AcDbArc
 50
316.3971810272
 51
43.6028189726
  0
ARC
  5
144
330
1F
100
AcDbEntity
  8
0
  6
Continuous
 62
     7
370
    15
100
AcDbCircle
 10
251.1033262562
 20
219.8128803963
 30
0.0
 40
1.50000000000001
100
AcDbArc
 50
227.2726046868
 51
316.3971810272
  0
LINE
  5
145
330
1F
100
AcDbEntity
  8
0
  6
Continuous
 62
     7
370
    15
100
AcDbLine
 10
245.1033245157
 20
236.3128805304
 30
0.0
 11
250.0855575632
 21
240.9147660951
 31
0.0
  0
ARC
  5
146
330
1F
100
AcDbEntity
  8
0
  6
Continuous
 62
     7
370
    15
100
AcDbCircle
 10
251.1033262562
 20
239.8128803963
 30
0.0
 40
1.500000000000015
100
AcDbArc
 50
43.6028189726
 51
132.7273953127
  0
LINE
  5
147
330
1F
100
AcDbEntity
  8
0
  6
Continuous
 62
     7
370
    15
100
AcDbLine
 10
250.0855575632
 20
218.7109946976
 30
0.0
 11
245.1033245157
 21
223.3128802622
 31
0.0
  0
LINE
  5
148
330
1F
100
AcDbEntity
  8
0
  6
Continuous
 62
     7
370
    15
100
AcDbLine
 10
244.9023227524
 20
236.3128805304
 30
0.0
 11
245.1033245157
 21
236.3128805304
 31
0.0
  0
LINE
  5
149
330
1F
100
AcDbEntity
  8
0
  6
Continuous
 62
     7
370
    15
100
AcDbLine
 10
245.1033245157
 20
223.3128802622
 30
0.0
 11
244.9023227524
 21
223.3128802622
 31
0.0
  0
LINE
  5
14A
330
1F
100
AcDbEntity
  8
0
  6
Continuous
 62
     7
370
    15
100
AcDbLine
 10
248.1033305954
 20
414.8128827805
 30
0.0
 11
253.103325827
 21
414.8128827805
 31
0.0
  0
LINE
  5
14B
330
1F
100
AcDbEntity
  8
0
  6
Continuous
 62
     7
370
    15
100
AcDbLine
 10
248.1033305954
 20
429.8128833766
 30
0.0
 11
253.103325827
 21
429.8128833766
 31
0.0
  0
LINE
  5
14C
330
1F
100
AcDbEntity
  8
0
  6
Continuous
 62
     7
370
    15
100
AcDbLine
 10
253.103325827
 20
414.8128827805
 30
0.0
 11
253.103325827
 21
429.8128833766
 31
0.0
  0
LINE
  5
14D
330
1F
100
AcDbEntity
  8
0
  6
Continuous
 62
     7
370
    15
100
AcDbLine
 10
248.1033305954
 20
414.8128827805
 30
0.0
 11
248.1033305954
 21
429.8128833766
 31
0.0
  0
LINE
  5
14E
330
1F
100
AcDbEntity
  8
0
  6
Continuous
 62
     7
370
    15
100
AcDbLine
 10
253.103325827
 20
414.8128827805
 30
0.0
 11
268.1033264231
 21
414.8128827805
 31
0.0
  0
ARC
  5
14F
330
1F
100
AcDbEntity
  8
0
  6
Continuous
 62
     7
370
    15
100
AcDbCircle
 10
253.1033262562
 20
414.8128803963
 30
0.0
 40
15.0
100
AcDbArc
 50
0.0
 51
90.0
  0
LINE
  5
150
330
1F
100
AcDbEntity
  8
0
  6
Continuous
 62
     7
370
    15
100
AcDbLine
 10
268.1033264231
 20
44.8128780121
 30
0.0
 11
268.1033264231
 21
414.8128827805
 31
0.0
  0
LINE
  5
151
330
1F
100
AcDbEntity
  8
0
  6
Continuous
 62
     7
370
    15
100
AcDbLine
 10
253.103325827
 20
44.8128780121
 30
0.0
 11
268.1033264231
 21
44.8128780121
 31
0.0
  0
LINE
  5
152
330
1F
100
AcDbEntity
  8
0
  6
Continuous
 62
     7
370
    15
100
AcDbLine
 10
253.103325827
 20
44.8128780121
 30
0.0
 11
253.103325827
 21
219.825388282
 31
0.0
  0
LINE
  5
153
330
1F
100
AcDbEntity
  8
0
  6
Continuous
 62
     7
370
    15
100
AcDbLine
 10
253.103325827
 20
239.8003725106
 30
0.0
 11
253.103325827
 21
414.8128827805
 31
0.0
  0
LINE
  5
154
330
1F
100
AcDbEntity
  8
0
  6
Continuous
 62
     7
370
    15
100
AcDbLine
 10
248.1033305954
 20
239.0838576252
 30
0.0
 11
248.1033305954
 21
414.8128827805
 31
0.0
  0
LINE
  5
155
330
1F
100
AcDbEntity
  8
0
  6
Continuous
 62
     7
370
    15
100
AcDbLine
 10
248.1033305954
 20
29.8128774161
 30
0.0
 11
253.103325827
 21
29.8128774161
 31
0.0
  0
LINE
  5
156
330
1F
100
AcDbEntity
  8
0
  6
Continuous
 62
     7
370
    15
100
AcDbLine
 10
248.1033305954
 20
44.8128780121
 30
0.0
 11
253.103325827
 21
44.8128780121
 31
0.0
  0
LINE
  5
157
330
1F
100
AcDbEntity
  8
0
  6
Continuous
 62
     7
370
    15
100
AcDbLine
 10
253.103325827
 20
44.8128780121
 30
0.0
 11
253.103325827
 21
29.8128774161
 31
0.0
  0
LINE
  5
158
330
1F
100
AcDbEntity
  8
0
  6
Continuous
 62
     7
370
    15
100
AcDbLine
 10
248.1033305954
 20
44.8128780121
 30
0.0
 11
248.1033305954
 21
29.8128774161
 31
0.0
  0
LINE
  5
159
330
1F
100
AcDbEntity
  8
0
  6
Continuous
 62
     7
370
    15
100
AcDbLine
 10
248.1033305954
 20
44.8128780121
 30
0.0
 11
248.1033305954
 21
220.5419031674
 31
0.0
  0
ARC
  5
15A
330
1F
100
AcDbEntity
  8
0
  6
Continuous
 62
     7
370
    15
100
AcDbCircle
 10
253.1033262562
 20
44.8128803963
 30
0.0
 40
15.00000000000001
100
AcDbArc
 50
270.0
 51
0.0
  0
SPLINE
  5
15B
330
1F
100
AcDbEntity
  8
0
  6
Continuous
 62
     7
370
    15
100
AcDbSpline
210
0.0
220
0.0
230
1.0
 70
     8
 71
     3
 72
    16
 73
    12
 74
     0
 42
0.00000001
 43
0.00000001
 40
0.0
 40
0.0
 40
0.0
 40
0.0
 40
0.1207070428064245
 40
0.2414137044325139
 40
0.362118282325166
 40
0.4828243664540374
 40
0.6035303497556166
 40
0.7242372755897817
 40
0.8449422991791885
 40
0.965648579102772
 40
1.0
 40
1.0
 40
1.0
 40
1.0
 10
226.2556280326016
 20
216.8605088958873
 30
0.0
 10
226.2750290238439
 20
216.8631812189553
 30
0.0
 10
226.3138309450622
 20
216.8685258566523
 30
0.0
 10
226.3187531831783
 20
217.1594675731495
 30
0.0
 10
226.2815422395421
 20
217.6128179655592
 30
0.0
 10
226.2046266507851
 20
218.1803379922013
 30
0.0
 10
226.1008120966784
 20
218.7686663374647
 30
0.0
 10
225.9847046501475
 20
219.2953588693306
 30
0.0
 10
225.8777076640609
 20
219.6586506186001
 30
0.0
 10
225.8051310959139
 20
219.8291153287007
 30
0.0
 10
225.7855807432823
 20
219.7959647614696
 30
0.0
 10
225.7812495659954
 20
219.7886205980911
 30
0.0
  0
SPLINE
  5
15C
330
1F
100
AcDbEntity
  8
0
  6
Continuous
 62
     7
370
    15
100
AcDbSpline
210
0.0
220
0.0
230
1.0
 70
     8
 71
     3
 72
    16
 73
    12
 74
     0
 42
0.00000001
 43
0.00000001
 40
0.0
 40
0.0
 40
0.0
 40
0.0
 40
0.1205802291477629
 40
0.241162886971151
 40
0.361745602078447
 40
0.4823270431662671
 40
0.6029091299325076
 40
0.7234904747922106
 40
0.8440739268470613
 40
0.9646562545538607
 40
0.9999999999999999
 40
0.9999999999999999
 40
0.9999999999999999
 40
0.9999999999999999
 10
226.4262090753681
 20
242.7365327025189
 30
0.0
 10
226.4456143715838
 20
242.7338598712305
 30
0.0
 10
226.4844253548682
 20
242.7285141548186
 30
0.0
 10
226.4893272061138
 20
242.4375705262857
 30
0.0
 10
226.4521376502457
 20
241.9842306237369
 30
0.0
 10
226.375204634599
 20
241.4167027360344
 30
0.0
 10
226.2713907760448
 20
240.8283705008089
 30
0.0
 10
226.1553002870844
 20
240.3017137525843
 30
0.0
 10
226.0482699903199
 20
239.9382419762313
 30
0.0
 10
225.9755197470592
 20
239.7676940543166
 30
0.0
 10
225.9558678659313
 20
239.8012794513693
 30
0.0
 10
225.9514133762486
 20
239.8088922495379
 30
0.0
  0
SPLINE
  5
15D
330
1F
100
AcDbEntity
  8
0
  6
Continuous
 62
     7
370
    15
100
AcDbSpline
210
0.0
220
0.0
230
1.0
 70
     8
 71
     3
 72
    16
 73
    12
 74
     0
 42
0.00000001
 43
0.00000001
 40
0.0
 40
0.0
 40
0.0
 40
0.0
 40
0.1205148478020363
 40
0.2410323587825712
 40
0.36154977106122
 40
0.4820655673932582
 40
0.6025826668731772
 40
0.7230987590871006
 40
0.8436172367068354
 40
0.9641338966220048
 40
1.0
 40
1.0
 40
1.0
 40
1.0
 10
241.7965929340489
 20
219.4769274214639
 30
0.0
 10
241.8159938717692
 20
219.4796001805723
 30
0.0
 10
241.8547961759385
 20
219.4849457578527
 30
0.0
 10
241.8597186539194
 20
219.7758909999581
 30
0.0
 10
241.8225042774889
 20
220.2292283269746
 30
0.0
 10
241.7456053809854
 20
220.7967581298932
 30
0.0
 10
241.6417680170798
 20
221.385094219027
 30
0.0
 10
241.5256940159042
 20
221.911725854913
 30
0.0
 10
241.4186206730414
 20
222.2752969414788
 30
0.0
 10
241.3458140335453
 20
222.4458903878528
 30
0.0
 10
241.3260960103906
 20
222.4120755210621
 30
0.0
 10
241.3215737175114
 20
222.40432014264
 30
0.0
  0
SPLINE
  5
15E
330
1F
100
AcDbEntity
  8
0
  6
Continuous
 62
     7
370
    15
100
AcDbSpline
210
0.0
220
0.0
230
1.0
 70
     8
 71
     3
 72
    16
 73
    12
 74
     0
 42
0.00000001
 43
0.00000001
 40
0.0
 40
0.0
 40
0.0
 40
0.0
 40
0.1205148134883834
 40
0.2410322014039964
 40
0.3615495793682622
 40
0.4820659143048517
 40
0.6025824479676901
 40
0.7230985058676063
 40
0.8436169491726547
 40
0.9641311127312384
 40
0.9999999999999999
 40
0.9999999999999999
 40
0.9999999999999999
 40
0.9999999999999999
 10
241.967181427396
 20
240.1201141769423
 30
0.0
 10
241.9865825165438
 20
240.117441320847
 30
0.0
 10
242.0253851092838
 20
240.1120955515592
 30
0.0
 10
242.0303053342023
 20
239.8211519398913
 30
0.0
 10
241.9930994951312
 20
239.367812496206
 30
0.0
 10
241.9161683833123
 20
238.8002867763348
 30
0.0
 10
241.8123640011183
 20
238.2119455169332
 30
0.0
 10
241.696277223043
 20
237.6853159458974
 30
0.0
 10
241.5892233789581
 20
237.3217474114026
 30
0.0
 10
241.5163689747972
 20
237.1511514366369
 30
0.0
 10
241.4966785226079
 20
237.184966020252
 30
0.0
 10
241.4921622108586
 20
237.1927219214274
 30
0.0
  0
SPLINE
  5
15F
330
1F
100
AcDbEntity
  8
0
  6
Continuous
 62
     7
370
    15
100
AcDbSpline
210
0.0
220
0.0
230
1.0
 70
    24
 71
     3
 72
    16
 73
    12
 74
     0
 42
0.00000001
 43
0.00000001
 40
0.0
 40
0.0
 40
0.0
 40
0.0
 40
0.0611072658103903
 40
0.1864685567105957
 40
0.3118332828610396
 40
0.437195919861042
 40
0.5625575982301341
 40
0.6879218439160338
 40
0.8132843021357672
 40
0.9386469391357697
 40
1.0
 40
1.0
 40
1.0
 40
1.0
 10
244.8735188078053
 20
222.9466446446611
 30
0.0
 10
244.8792858297063
 20
222.9466446446611
 30
0.0
 10
244.8968838720361
 20
222.9466446446611
 30
0.0
 10
244.6784820203172
 20
222.9466446446611
 30
0.0
 10
244.2657218955221
 20
222.9466446446611
 30
0.0
 10
243.7092619566147
 20
222.9466446446611
 30
0.0
 10
243.1101601536769
 20
222.9466446446611
 30
0.0
 10
242.5514464711651
 20
222.9466446446611
 30
0.0
 10
242.1345119689031
 20
222.9466446446611
 30
0.0
 10
241.9115199780822
 20
222.9466446446611
 30
0.0
 10
241.9263177953208
 20
222.9466446446611
 30
0.0
 10
241.9311802219517
 20
222.9466446446611
 30
0.0
  0
SPLINE
  5
160
330
1F
100
AcDbEntity
  8
0
  6
Continuous
 62
     7
370
    15
100
AcDbSpline
210
0.0
220
0.0
230
1.0
 70
    24
 71
     3
 72
    16
 73
    12
 74
     0
 42
0.00000001
 43
0.00000001
 40
0.0
 40
0.0
 40
0.0
 40
0.0
 40
0.0610097057000779
 40
0.1861708524569159
 40
0.3113354289794829
 40
0.4364979196870177
 40
0.5616594532941334
 40
0.6868235501192362
 40
0.8119858623319317
 40
0.9371483530394665
 40
1.0
 40
1.0
 40
1.0
 40
1.0
 10
244.8735188078053
 20
236.5052754762008
 30
0.0
 10
244.8792858234973
 20
236.5052754762008
 30
0.0
 10
244.8968838468807
 20
236.5052754762008
 30
0.0
 10
244.6784822535319
 20
236.5052754762008
 30
0.0
 10
244.2657210410377
 20
236.5052754762008
 30
0.0
 10
243.7092651412604
 20
236.5052754762008
 30
0.0
 10
243.1101482695514
 20
236.5052754762008
 30
0.0
 10
242.5514908237761
 20
236.5052754762008
 30
0.0
 10
242.1343464454246
 20
236.5052754762008
 30
0.0
 10
241.9108651276525
 20
236.5052754762008
 30
0.0
 10
241.9260681641448
 20
236.5052754762008
 30
0.0
 10
241.9311504196293
 20
236.5052754762008
 30
0.0
  0
SPLINE
  5
161
330
1F
100
AcDbEntity
  8
0
  6
Continuous
 62
     7
370
    15
100
AcDbSpline
210
0.0
220
0.0
230
1.0
 70
     8
 71
     3
 72
    19
 73
    15
 74
     0
 42
0.00000001
 43
0.00000001
 40
0.0
 40
0.0
 40
0.0
 40
0.0
 40
0.0039549776378648
 40
0.1157677199366972
 40
0.2280449053829162
 40
0.3355201711885925
 40
0.4377087198385091
 40
0.5348831260867358
 40
0.628304564211407
 40
0.7302987403351634
 40
0.8413366346615325
 40
0.9641210806095101
 40
0.9937658844715932
 40
1.0
 40
1.0
 40
1.0
 40
1.0
 10
231.2015991043217
 20
235.4128801966442
 30
0.0
 10
231.2019938934467
 20
235.4128745839454
 30
0.0
 10
231.2135499225938
 20
235.4127102924099
 30
0.0
 10
231.2367775950366
 20
235.397579171325
 30
0.0
 10
231.2802807150632
 20
235.3306845330788
 30
0.0
 10
231.3182548850072
 20
235.2259861075741
 30
0.0
 10
231.3417510807694
 20
235.1009104515592
 30
0.0
 10
231.3530759055052
 20
234.9724746282875
 30
0.0
 10
231.3536854005396
 20
234.8512994590339
 30
0.0
 10
231.33789879021
 20
234.7420749941149
 30
0.0
 10
231.2975241775501
 20
234.652657397469
 30
0.0
 10
231.2456561024228
 20
234.6176030412219
 30
0.0
 10
231.2109520150129
 20
234.6129935060907
 30
0.0
 10
231.2029836430017
 20
234.6128973345275
 30
0.0
 10
231.2015991043217
 20
234.6128806243076
 30
0.0
  0
SPLINE
  5
162
330
1F
100
AcDbEntity
  8
0
  6
Continuous
 62
     7
370
    15
100
AcDbSpline
210
0.0
220
0.0
230
1.0
 70
     8
 71
     3
 72
    30
 73
    26
 74
     0
 42
0.00000001
 43
0.00000001
 40
0.0
 40
0.0
 40
0.0
 40
0.0
 40
0.1247101350178456
 40
0.2494120074117842
 40
0.3741270138621569
 40
0.4367848053677046
 40
0.4681540445569458
 40
0.483841760203463
 40
0.4916884763780781
 40
0.4956128155993287
 40
0.4975718017968226
 40
0.4985512768059792
 40
0.4990412458894969
 40
0.4992860713214644
 40
0.4994085274245891
 40
0.4994755181334227
 40
0.4995061105324881
 40
0.4995185841155532
 40
0.4995368262351859
 40
0.5609177874858622
 40
0.6646245350065487
 40
0.7325819853722026
 40
0.8111453701247551
 40
0.9002973735135731
 40
1.0
 40
1.0
 40
1.0
 40
1.0
 10
231.2733034919865
 20
235.4727721544339
 30
0.0
 10
231.2790672503647
 20
235.4709795845394
 30
0.0
 10
231.2905943852456
 20
235.4673945635164
 30
0.0
 10
231.3804453305698
 20
235.4455514703654
 30
0.0
 10
231.4879165987828
 20
235.4198733933283
 30
0.0
 10
231.5734700938212
 20
235.3994620552969
 30
0.0
 10
231.617572331666
 20
235.3889270418935
 30
0.0
 10
231.6397980254844
 20
235.3836081687979
 30
0.0
 10
231.6509315071349
 20
235.3809424937286
 30
0.0
 10
231.6565018271331
 20
235.3796101010603
 30
0.0
 10
231.6592855317872
 20
235.3789411398163
 30
0.0
 10
231.6606769875396
 20
235.3786089164192
 30
0.0
 10
231.6613716521201
 20
235.378440205329
 30
0.0
 10
231.6617198187459
 20
235.37835843885
 30
0.0
 10
231.661895651335
 20
235.3783145083564
 30
0.0
 10
231.6619853452128
 20
235.3782952261255
 30
0.0
 10
231.6620304455956
 20
235.3782861482025
 30
0.0
 10
231.6620546215165
 20
235.378277626766
 30
0.0
 10
231.6873505088516
 20
235.3738695354739
 30
0.0
 10
231.7540651756146
 20
235.3562975885479
 30
0.0
 10
231.8453212276928
 20
235.3384494684903
 30
0.0
 10
231.9287900458821
 20
235.3208019010131
 30
0.0
 10
231.9923582044303
 20
235.3080537339054
 30
0.0
 10
232.0428573931835
 20
235.2983631692618
 30
0.0
 10
232.0500899597792
 20
235.2979082896346
 30
0.0
 10
232.0539082717068
 20
235.2976681435837
 30
0.0
  0
ELLIPSE
  5
163
330
1F
100
AcDbEntity
  8
0
  6
Continuous
 62
     7
370
    15
100
AcDbEllipse
 10
231.9304346499
 20
236.5948555751
 30
0.0
 11
0.3906095144045878
 21
-0.08616383961160068
 31
0.0
210
0.0
220
0.0
230
1.0
 40
0.0142285888
 41
0.0
 42
6.283185307179586
  0
LINE
  5
164
330
1F
100
AcDbEntity
  8
0
  6
Continuous
 62
     7
370
    15
100
AcDbLine
 10
231.3142518829
 20
225.1128804641
 30
0.0
 11
231.3142518829
 21
233.7128802905
 31
0.0
  0
LINE
  5
165
330
1F
100
AcDbEntity
  8
0
  6
Continuous
 62
     7
370
    15
100
AcDbLine
 10
231.3142518829
 20
225.1128804641
 30
0.0
 11
225.7999579739
 21
225.1128804641
 31
0.0
  0
LINE
  5
166
330
1F
100
AcDbEntity
  8
0
  6
Continuous
 62
     7
370
    15
100
AcDbLine
 10
225.7999579739
 20
225.1128804641
 30
0.0
 11
225.7999579739
 21
233.7128802905
 31
0.0
  0
LINE
  5
167
330
1F
100
AcDbEntity
  8
0
  6
Continuous
 62
     7
370
    15
100
AcDbLine
 10
231.3142518829
 20
233.7128802905
 30
0.0
 11
225.7999579739
 21
233.7128802905
 31
0.0
  0
LINE
  5
168
330
1F
100
AcDbEntity
  8
0
  6
Continuous
 62
     7
370
    15
100
AcDbLine
 10
224.6857012939
 20
237.0128802726
 30
0.0
 11
199.8735915255
 21
237.0128802726
 31
0.0
  0
LINE
  5
169
330
1F
100
AcDbEntity
  8
0
  6
Continuous
 62
     7
370
    15
100
AcDbLine
 10
224.6857012939
 20
233.7128802905
 30
0.0
 11
224.6857012939
 21
237.0128802726
 31
0.0
  0
LINE
  5
16A
330
1F
100
AcDbEntity
  8
0
  6
Continuous
 62
     7
370
    15
100
AcDbLine
 10
224.6857012939
 20
222.61288052
 30
0.0
 11
224.6857012939
 21
225.1128804641
 31
0.0
  0
LINE
  5
16B
330
1F
100
AcDbEntity
  8
0
  6
Continuous
 62
     7
370
    15
100
AcDbLine
 10
199.8735915255
 20
222.61288052
 30
0.0
 11
224.6857012939
 21
222.61288052
 31
0.0
  0
LINE
  5
16C
330
1F
100
AcDbEntity
  8
0
  6
Continuous
 62
     7
370
    15
100
AcDbLine
 10
199.8735915255
 20
222.61288052
 30
0.0
 11
199.8735915255
 21
237.0128802726
 31
0.0
  0
LINE
  5
16D
330
1F
100
AcDbEntity
  8
0
  6
Continuous
 62
     7
370
    15
100
AcDbLine
 10
224.6857012939
 20
225.1128804641
 30
0.0
 11
225.7999579739
 21
225.1128804641
 31
0.0
  0
LINE
  5
16E
330
1F
100
AcDbEntity
  8
0
  6
Continuous
 62
     7
370
    15
100
AcDbLine
 10
224.6857012939
 20
233.7128802905
 30
0.0
 11
225.7999579739
 21
233.7128802905
 31
0.0
  0
LINE
  5
16F
330
1F
100
AcDbEntity
  8
0
  6
Continuous
 62
     7
370
    15
100
AcDbLine
 10
224.8133297395
 20
221.8155296291
 30
0.0
 11
226.7055611443
 21
221.8155296291
 31
0.0
  0
LINE
  5
170
330
1F
100
AcDbEntity
  8
0
  6
Continuous
 62
     7
370
    15
100
AcDbLine
 10
226.7055611443
 20
221.8155296291
 30
0.0
 11
227.3783113193
 21
221.8128800163
 31
0.0
  0
LINE
  5
171
330
1F
100
AcDbEntity
  8
0
  6
Continuous
 62
     7
370
    15
100
AcDbLine
 10
227.3783113193
 20
221.8128800163
 30
0.0
 11
200.0125150513
 21
221.8128800163
 31
0.0
  0
ARC
  5
172
330
1F
100
AcDbEntity
  8
0
  6
Continuous
 62
     7
370
    15
100
AcDbCircle
 10
201.1295396433
 20
222.4189187231
 30
0.0
 40
1.270837067952057
100
AcDbArc
 50
171.2209068749
 51
208.4819261599
  0
ARC
  5
173
330
1F
100
AcDbEntity
  8
0
  6
Continuous
 62
     7
370
    15
100
AcDbCircle
 10
226.1599530414
 20
222.4399675976
 30
0.0
 40
1.484357468314301
100
AcDbArc
 50
173.3104218707
 51
204.8774610248
  0
LINE
  5
174
330
1F
100
AcDbEntity
  8
0
  6
Continuous
 62
     7
370
    15
100
AcDbLine
 10
226.7055611443
 20
237.8102311636
 30
0.0
 11
224.8133297395
 21
237.8102311636
 31
0.0
  0
ARC
  5
175
330
1F
100
AcDbEntity
  8
0
  6
Continuous
 62
     7
370
    15
100
AcDbCircle
 10
226.1599530414
 20
237.185793195
 30
0.0
 40
1.484357468314245
100
AcDbArc
 50
155.1225389752
 51
186.6895781293
  0
ARC
  5
176
330
1F
100
AcDbEntity
  8
0
  6
Continuous
 62
     7
370
    15
100
AcDbCircle
 10
201.1295396433
 20
237.2068420695
 30
0.0
 40
1.270837067952045
100
AcDbArc
 50
151.5180738401
 51
188.7790931251
  0
LINE
  5
177
330
1F
100
AcDbEntity
  8
0
  6
Continuous
 62
     7
370
    15
100
AcDbLine
 10
200.0125150513
 20
237.8128807763
 30
0.0
 11
227.3783113193
 21
237.8128807763
 31
0.0
  0
LINE
  5
178
330
1F
100
AcDbEntity
  8
0
  6
Continuous
 62
     7
370
    15
100
AcDbLine
 10
227.3783113193
 20
237.8128807763
 30
0.0
 11
226.7055611443
 21
237.8102311636
 31
0.0
  0
LINE
  5
179
330
1F
100
AcDbEntity
  8
0
  6
Continuous
 62
     7
370
    15
100
AcDbLine
 10
224.8133297395
 20
221.8155296291
 30
0.0
 11
224.8133297395
 21
222.61288052
 31
0.0
  0
LINE
  5
17A
330
1F
100
AcDbEntity
  8
0
  6
Continuous
 62
     7
370
    15
100
AcDbLine
 10
224.8246248197
 20
225.1128804641
 30
0.0
 11
224.8246248197
 21
222.61288052
 31
0.0
  0
LINE
  5
17B
330
1F
100
AcDbEntity
  8
0
  6
Continuous
 62
     7
370
    15
100
AcDbLine
 10
224.8133297395
 20
237.0128802726
 30
0.0
 11
224.8133297395
 21
237.8102311636
 31
0.0
  0
LINE
  5
17C
330
1F
100
AcDbEntity
  8
0
  6
Continuous
 62
     7
370
    15
100
AcDbLine
 10
224.8246248197
 20
237.0128802726
 30
0.0
 11
224.8246248197
 21
233.7128802905
 31
0.0
  0
LINE
  5
17D
330
1F
100
AcDbEntity
  8
0
  6
Continuous
 62
     7
370
    15
100
AcDbLine
 10
226.7055611443
 20
237.0128802726
 30
0.0
 11
226.7055611443
 21
237.8102311636
 31
0.0
  0
LINE
  5
17E
330
1F
100
AcDbEntity
  8
0
  6
Continuous
 62
     7
370
    15
100
AcDbLine
 10
230.8133269977
 20
237.8128807763
 30
0.0
 11
227.3783113193
 21
237.8128807763
 31
0.0
  0
LINE
  5
17F
330
1F
100
AcDbEntity
  8
0
  6
Continuous
 62
     7
370
    15
100
AcDbLine
 10
230.8133269977
 20
237.0128802726
 30
0.0
 11
226.7055611443
 21
237.0128802726
 31
0.0
  0
LINE
  5
180
330
1F
100
AcDbEntity
  8
0
  6
Continuous
 62
     7
370
    15
100
AcDbLine
 10
230.8133269977
 20
221.8128800163
 30
0.0
 11
227.3783113193
 21
221.8128800163
 31
0.0
  0
LINE
  5
181
330
1F
100
AcDbEntity
  8
0
  6
Continuous
 62
     7
370
    15
100
AcDbLine
 10
226.7055611443
 20
221.8155296291
 30
0.0
 11
226.7055611443
 21
222.61288052
 31
0.0
  0
LINE
  5
182
330
1F
100
AcDbEntity
  8
0
  6
Continuous
 62
     7
370
    15
100
AcDbLine
 10
230.8133269977
 20
222.61288052
 30
0.0
 11
226.7055611443
 21
222.61288052
 31
0.0
  0
LINE
  5
183
330
1F
100
AcDbEntity
  8
0
  6
Continuous
 62
     7
370
    15
100
AcDbLine
 10
224.8133297395
 20
222.61288052
 30
0.0
 11
226.7055611443
 21
222.61288052
 31
0.0
  0
LINE
  5
184
330
1F
100
AcDbEntity
  8
0
  6
Continuous
 62
     7
370
    15
100
AcDbLine
 10
224.8133297395
 20
237.0128802726
 30
0.0
 11
226.7055611443
 21
237.0128802726
 31
0.0
  0
LINE
  5
185
330
1F
100
AcDbEntity
  8
0
  6
Continuous
 62
     7
370
    15
100
AcDbLine
 10
225.8833299708
 20
238.1128802667
 30
0.0
 11
230.2833299469
 21
238.1128802667
 31
0.0
  0
LINE
  5
186
330
1F
100
AcDbEntity
  8
0
  6
Continuous
 62
     7
370
    15
100
AcDbLine
 10
225.9833242129
 20
221.4128806958
 30
0.0
 11
230.1833282541
 21
221.4128806958
 31
0.0
  0
LINE
  5
187
330
1F
100
AcDbEntity
  8
0
  6
Continuous
 62
     7
370
    15
100
AcDbLine
 10
225.9833242129
 20
221.012880444
 30
0.0
 11
230.1833282541
 21
221.012880444
 31
0.0
  0
LINE
  5
188
330
1F
100
AcDbEntity
  8
0
  6
Continuous
 62
     7
370
    15
100
AcDbLine
 10
194.974745376
 20
237.0128802726
 30
0.0
 11
192.9852689933
 21
237.0128802726
 31
0.0
  0
LINE
  5
189
330
1F
100
AcDbEntity
  8
0
  6
Continuous
 62
     7
370
    15
100
AcDbLine
 10
194.974745376
 20
222.61288052
 30
0.0
 11
194.974745376
 21
237.0128802726
 31
0.0
  0
LINE
  5
18A
330
1F
100
AcDbEntity
  8
0
  6
Continuous
 62
     7
370
    15
100
AcDbLine
 10
192.9852689933
 20
222.61288052
 30
0.0
 11
194.974745376
 21
222.61288052
 31
0.0
  0
ARC
  5
18B
330
1F
100
AcDbEntity
  8
0
  6
Continuous
 62
     7
370
    15
100
AcDbCircle
 10
208.2792261642
 20
229.8128803963
 30
0.0
 40
16.90399728363031
100
AcDbArc
 50
154.7901555355
 51
205.2098444645
  0
SPLINE
  5
18C
330
1F
100
AcDbEntity
  8
0
  6
Continuous
 62
     7
370
    15
100
AcDbSpline
210
0.0
220
0.0
230
1.0
 70
     8
 71
     3
 72
    12
 73
     8
 74
     0
 42
0.00000001
 43
0.00000001
 40
0.0
 40
0.0
 40
0.0
 40
0.0
 40
0.1818726160796446
 40
0.3633444960054099
 40
0.555080703869878
 40
0.7712620712687422
 40
1.0
 40
1.0
 40
1.0
 40
1.0
 10
193.1176434587605
 20
221.8128800163402
 30
0.0
 10
193.1415048104799
 20
221.8202016588441
 30
0.0
 10
193.1891749380748
 20
221.8348288114241
 30
0.0
 10
193.2039040576078
 20
221.9468187690204
 30
0.0
 10
193.1766885797591
 20
222.1162107781403
 30
0.0
 10
193.1050049707123
 20
222.3446342212407
 30
0.0
 10
193.0259249210551
 20
222.5217984377423
 30
0.0
 10
192.9852689932949
 20
222.6128805199994
 30
0.0
  0
LINE
  5
18D
330
1F
100
AcDbEntity
  8
0
  6
Continuous
 62
     7
370
    15
100
AcDbLine
 10
192.7332829069
 20
222.5673793586
 30
0.0
 11
193.0877219271
 21
221.8128800163
 31
0.0
  0
ARC
  5
18E
330
1F
100
AcDbEntity
  8
0
  6
Continuous
 62
     7
370
    15
100
AcDbCircle
 10
208.0039433255
 20
229.8128803963
 30
0.0
 40
16.90237719687147
100
AcDbArc
 50
154.6169692401
 51
205.3830307599
  0
LINE
  5
18F
330
1F
100
AcDbEntity
  8
0
  6
Continuous
 62
     7
370
    15
100
AcDbLine
 10
193.0877219271
 20
237.8128807763
 30
0.0
 11
192.7332829069
 21
237.058381434
 31
0.0
  0
SPLINE
  5
190
330
1F
100
AcDbEntity
  8
0
  6
Continuous
 62
     7
370
    15
100
AcDbSpline
210
0.0
220
0.0
230
1.0
 70
     8
 71
     3
 72
    12
 73
     8
 74
     0
 42
0.00000001
 43
0.00000001
 40
0.0
 40
0.0
 40
0.0
 40
0.0
 40
0.251021990599481
 40
0.5023977458077202
 40
0.7402765908566765
 40
0.9473178514528033
 40
1.0
 40
1.0
 40
1.0
 40
1.0
 10
192.9852689932949
 20
237.0128802726402
 30
0.0
 10
193.0295866321758
 20
237.1127623903698
 30
0.0
 10
193.1182843666655
 20
237.3126673894259
 30
0.0
 10
193.1932785977764
 20
237.5714024687785
 30
0.0
 10
193.2047676904556
 20
237.7486362893008
 30
0.0
 10
193.1631338992138
 20
237.8090795131364
 30
0.0
 10
193.1253146863761
 20
237.8122397546989
 30
0.0
 10
193.1176434587605
 20
237.8128807762994
 30
0.0
  0
LINE
  5
191
330
1F
100
AcDbEntity
  8
0
  6
Continuous
 62
     7
370
    15
100
AcDbLine
 10
193.1176434588
 20
237.8128807763
 30
0.0
 11
193.0877219271
 21
237.8128807763
 31
0.0
  0
LINE
  5
192
330
1F
100
AcDbEntity
  8
0
  6
Continuous
 62
     7
370
    15
100
AcDbLine
 10
193.1176434588
 20
221.8128800163
 30
0.0
 11
193.0877219271
 21
221.8128800163
 31
0.0
  0
LWPOLYLINE
  5
193
330
1F
100
AcDbEntity
  8
0
  6
Continuous
 62
     7
370
    15
100
AcDbPolyline
 90
        9
 70
   128
 43
0.0
 10
194.974745376
 20
237.0128802726
 10
194.9694852661
 20
237.1689527067
 10
194.9539135527
 20
237.3190269577
 10
194.9286337327
 20
237.4573367419
 10
194.8946069311
 20
237.5785656045
 10
194.8531444501
 20
237.6780560011
 10
194.8058332633
 20
237.7519843871
 10
194.7545062136
 20
237.7975083659
 10
194.7011302542
 20
237.8128807763
  0
LINE
  5
194
330
1F
100
AcDbEntity
  8
0
  6
Continuous
 62
     7
370
    15
100
AcDbLine
 10
193.1176434588
 20
237.8128807763
 30
0.0
 11
194.7011302542
 21
237.8128807763
 31
0.0
  0
LWPOLYLINE
  5
195
330
1F
100
AcDbEntity
  8
0
  6
Continuous
 62
     7
370
    15
100
AcDbPolyline
 90
        9
 70
   128
 43
0.0
 10
194.974745376
 20
222.61288052
 10
194.9694852661
 20
222.456808086
 10
194.9539135527
 20
222.306733835
 10
194.9286337327
 20
222.1684240507
 10
194.8946069311
 20
222.0471951882
 10
194.8531444501
 20
221.9477047915
 10
194.8058332633
 20
221.8737764055
 10
194.7545062136
 20
221.8282524268
 10
194.7011302542
 20
221.8128800163
  0
LINE
  5
196
330
1F
100
AcDbEntity
  8
0
  6
Continuous
 62
     7
370
    15
100
AcDbLine
 10
194.7011302542
 20
221.8128800163
 30
0.0
 11
193.1176434588
 21
221.8128800163
 31
0.0
  0
LINE
  5
197
330
1F
100
AcDbEntity
  8
0
  6
Continuous
 62
     7
370
    15
100
AcDbLine
 10
194.974745376
 20
222.61288052
 30
0.0
 11
199.8735915255
 21
222.61288052
 31
0.0
  0
LINE
  5
198
330
1F
100
AcDbEntity
  8
0
  6
Continuous
 62
     7
370
    15
100
AcDbLine
 10
200.0125150513
 20
221.8128800163
 30
0.0
 11
194.7011302542
 21
221.8128800163
 31
0.0
  0
LINE
  5
199
330
1F
100
AcDbEntity
  8
0
  6
Continuous
 62
     7
370
    15
100
AcDbLine
 10
199.8735915255
 20
237.0128802726
 30
0.0
 11
194.974745376
 21
237.0128802726
 31
0.0
  0
LINE
  5
19A
330
1F
100
AcDbEntity
  8
0
  6
Continuous
 62
     7
370
    15
100
AcDbLine
 10
194.7011302542
 20
237.8128807763
 30
0.0
 11
200.0125150513
 21
237.8128807763
 31
0.0
  0
LINE
  5
19B
330
1F
100
AcDbEntity
  8
0
  6
Continuous
 62
     7
370
    15
100
AcDbLine
 10
231.1033259462
 20
236.5628805714
 30
0.0
 11
224.9033253025
 21
236.5628805714
 31
0.0
  0
LINE
  5
19C
330
1F
100
AcDbEntity
  8
0
  6
Continuous
 62
     7
370
    15
100
AcDbLine
 10
231.1033259462
 20
236.5628805714
 30
0.0
 11
231.1033259462
 21
235.5628804075
 31
0.0
  0
LINE
  5
19D
330
1F
100
AcDbEntity
  8
0
  6
Continuous
 62
     7
370
    15
100
AcDbLine
 10
231.1033259462
 20
235.5628804075
 30
0.0
 11
224.9033253025
 21
235.5628804075
 31
0.0
  0
LINE
  5
19E
330
1F
100
AcDbEntity
  8
0
  6
Continuous
 62
     7
370
    15
100
AcDbLine
 10
224.9033253025
 20
236.5628805714
 30
0.0
 11
224.9033253025
 21
235.5628804075
 31
0.0
  0
LINE
  5
19F
330
1F
100
AcDbEntity
  8
0
  6
Continuous
 62
     7
370
    15
100
AcDbLine
 10
231.1033259462
 20
224.0628803851
 30
0.0
 11
231.1033259462
 21
223.0628802212
 31
0.0
  0
LINE
  5
1A0
330
1F
100
AcDbEntity
  8
0
  6
Continuous
 62
     7
370
    15
100
AcDbLine
 10
224.9033253025
 20
224.0628803851
 30
0.0
 11
224.9033253025
 21
223.0628802212
 31
0.0
  0
LINE
  5
1A1
330
1F
100
AcDbEntity
  8
0
  6
Continuous
 62
     7
370
    15
100
AcDbLine
 10
231.1033259462
 20
224.0628803851
 30
0.0
 11
224.9033253025
 21
224.0628803851
 31
0.0
  0
LINE
  5
1A2
330
1F
100
AcDbEntity
  8
0
  6
Continuous
 62
     7
370
    15
100
AcDbLine
 10
231.1033259462
 20
223.0628802212
 30
0.0
 11
224.9033253025
 21
223.0628802212
 31
0.0
  0
LWPOLYLINE
  5
1A3
330
1F
100
AcDbEntity
  8
0
  6
Continuous
 62
     7
370
    15
100
AcDbPolyline
 90
        3
 70
   128
 43
0.0
 10
224.8246248197
 20
223.4517418551
 10
224.8272027206
 20
223.4455639268
 10
224.9033253025
 20
223.0628802212
  0
LWPOLYLINE
  5
1A4
330
1F
100
AcDbEntity
  8
0
  6
Continuous
 62
     7
370
    15
100
AcDbPolyline
 90
        3
 70
   128
 43
0.0
 10
224.9033253025
 20
236.5628805714
 10
224.8272027206
 20
236.1801968659
 10
224.8246248197
 20
236.1740189376
  0
LINE
  5
1A5
330
1F
100
AcDbEntity
  8
0
  6
Continuous
 62
     7
370
    15
100
AcDbLine
 10
231.1033259462
 20
235.5628804075
 30
0.0
 11
231.1033259462
 21
235.4128801966
 31
0.0
  0
LINE
  5
1A6
330
1F
100
AcDbEntity
  8
0
  6
Continuous
 62
     7
370
    15
100
AcDbLine
 10
231.1033259462
 20
234.6128806243
 30
0.0
 11
231.1033259462
 21
233.7128802905
 31
0.0
  0
LINE
  5
1A7
330
1F
100
AcDbEntity
  8
0
  6
Continuous
 62
     7
370
    15
100
AcDbLine
 10
231.1033259462
 20
225.1128804641
 30
0.0
 11
231.1033259462
 21
224.0628803851
 31
0.0
  0
LINE
  5
1A8
330
1F
100
AcDbEntity
  8
0
  6
Continuous
 62
     7
370
    15
100
AcDbLine
 10
123.1033259388
 20
44.8128780121
 30
0.0
 11
108.1033262741
 21
44.8128780121
 31
0.0
  0
LINE
  5
1A9
330
1F
100
AcDbEntity
  8
0
  6
Continuous
 62
     7
370
    15
100
AcDbLine
 10
123.1033259388
 20
44.8128780121
 30
0.0
 11
123.1033259388
 21
29.8128774161
 31
0.0
  0
ARC
  5
1AA
330
1F
100
AcDbEntity
  8
0
  6
Continuous
 62
     7
370
    15
100
AcDbCircle
 10
123.1033262562
 20
44.8128803963
 30
0.0
 40
15.00000000000001
100
AcDbArc
 50
180.0
 51
270.0
  0
LINE
  5
1AB
330
1F
100
AcDbEntity
  8
0
  6
Continuous
 62
     7
370
    15
100
AcDbLine
 10
108.1033262741
 20
414.8128827805
 30
0.0
 11
123.1033259388
 21
414.8128827805
 31
0.0
  0
LINE
  5
1AC
330
1F
100
AcDbEntity
  8
0
  6
Continuous
 62
     7
370
    15
100
AcDbLine
 10
123.1033259388
 20
414.8128827805
 30
0.0
 11
123.1033259388
 21
44.8128780121
 31
0.0
  0
LINE
  5
1AD
330
1F
100
AcDbEntity
  8
0
  6
Continuous
 62
     7
370
    15
100
AcDbLine
 10
108.1033262741
 20
414.8128827805
 30
0.0
 11
108.1033262741
 21
44.8128780121
 31
0.0
  0
ARC
  5
1AE
330
1F
100
AcDbEntity
  8
0
  6
Continuous
 62
     7
370
    15
100
AcDbCircle
 10
123.1033262562
 20
414.8128803963
 30
0.0
 40
15.0
100
AcDbArc
 50
90.0
 51
180.0
  0
LINE
  5
1AF
330
1F
100
AcDbEntity
  8
0
  6
Continuous
 62
     7
370
    15
100
AcDbLine
 10
123.1033259388
 20
429.8128833766
 30
0.0
 11
123.1033259388
 21
414.8128827805
 31
0.0
  0
LINE
  5
1B0
330
1F
100
AcDbEntity
  8
0
  6
Continuous
 62
     7
370
    15
100
AcDbLine
 10
244.1033224892
 20
429.8128833766
 30
0.0
 11
123.1033259388
 21
429.8128833766
 31
0.0
  0
LINE
  5
1B1
330
1F
100
AcDbEntity
  8
0
  6
Continuous
 62
     7
370
    15
100
AcDbLine
 10
244.1033224892
 20
429.8128833766
 30
0.0
 11
244.1033224892
 21
414.8128827805
 31
0.0
  0
LINE
  5
1B2
330
1F
100
AcDbEntity
  8
0
  6
Continuous
 62
     7
370
    15
100
AcDbLine
 10
244.1033224892
 20
414.8128827805
 30
0.0
 11
123.1033259388
 21
414.8128827805
 31
0.0
  0
LINE
  5
1B3
330
1F
100
AcDbEntity
  8
0
  6
Continuous
 62
     7
370
    15
100
AcDbLine
 10
244.1033224892
 20
44.8128780121
 30
0.0
 11
123.1033259388
 21
44.8128780121
 31
0.0
  0
LINE
  5
1B4
330
1F
100
AcDbEntity
  8
0
  6
Continuous
 62
     7
370
    15
100
AcDbLine
 10
244.1033224892
 20
44.8128780121
 30
0.0
 11
244.1033224892
 21
29.8128774161
 31
0.0
  0
LINE
  5
1B5
330
1F
100
AcDbEntity
  8
0
  6
Continuous
 62
     7
370
    15
100
AcDbLine
 10
244.1033224892
 20
29.8128774161
 30
0.0
 11
123.1033259388
 21
29.8128774161
 31
0.0
  0
LINE
  5
1B6
330
1F
100
AcDbEntity
  8
0
  6
Continuous
 62
     7
370
    15
100
AcDbLine
 10
224.1033266615
 20
49.8128732438
 30
0.0
 11
128.103325827
 21
49.8128732438
 31
0.0
  0
LINE
  5
1B7
330
1F
100
AcDbEntity
  8
0
  6
Continuous
 62
     7
370
    15
100
AcDbLine
 10
224.1033266615
 20
49.8128732438
 30
0.0
 11
224.1033266615
 21
217.0003339419
 31
0.0
  0
LINE
  5
1B8
330
1F
100
AcDbEntity
  8
0
  6
Continuous
 62
     7
370
    15
100
AcDbLine
 10
224.1033266615
 20
220.3401200245
 30
0.0
 11
224.1033266615
 21
221.8128800163
 31
0.0
  0
LINE
  5
1B9
330
1F
100
AcDbEntity
  8
0
  6
Continuous
 62
     7
370
    15
100
AcDbLine
 10
224.1033266615
 20
237.8128807763
 30
0.0
 11
224.1033266615
 21
239.2722828085
 31
0.0
  0
LINE
  5
1BA
330
1F
100
AcDbEntity
  8
0
  6
Continuous
 62
     7
370
    15
100
AcDbLine
 10
224.1033266615
 20
242.6149988318
 30
0.0
 11
224.1033266615
 21
409.8128875489
 31
0.0
  0
LINE
  5
1BB
330
1F
100
AcDbEntity
  8
0
  6
Continuous
 62
     7
370
    15
100
AcDbLine
 10
224.1033266615
 20
409.8128875489
 30
0.0
 11
128.103325827
 21
409.8128875489
 31
0.0
  0
LINE
  5
1BC
330
1F
100
AcDbEntity
  8
0
  6
Continuous
 62
     7
370
    15
100
AcDbLine
 10
128.103325827
 20
409.8128875489
 30
0.0
 11
128.103325827
 21
49.8128732438
 31
0.0
  0
LINE
  5
1BD
330
1F
100
AcDbEntity
  8
0
  6
Continuous
 62
     7
370
    15
100
AcDbLine
 10
244.1033224892
 20
414.8128827805
 30
0.0
 11
244.1033224892
 21
238.7888099769
 31
0.0
  0
LINE
  5
1BE
330
1F
100
AcDbEntity
  8
0
  6
Continuous
 62
     7
370
    15
100
AcDbLine
 10
244.1033224892
 20
220.8049729238
 30
0.0
 11
244.1033224892
 21
44.8128780121
 31
0.0
  0
LINE
  5
1BF
330
1F
100
AcDbEntity
  8
0
  6
Continuous
 62
     7
370
    15
100
AcDbLine
 10
248.1033305954
 20
424.8128732438
 30
0.0
 11
244.1033224892
 21
424.8128732438
 31
0.0
  0
LINE
  5
1C0
330
1F
100
AcDbEntity
  8
0
  6
Continuous
 62
     7
370
    15
100
AcDbLine
 10
248.1033305954
 20
409.8128875489
 30
0.0
 11
244.1033224892
 21
409.8128875489
 31
0.0
  0
LINE
  5
1C1
330
1F
100
AcDbEntity
  8
0
  6
Continuous
 62
     7
370
    15
100
AcDbLine
 10
248.1033305954
 20
49.8128732438
 30
0.0
 11
244.1033224892
 21
49.8128732438
 31
0.0
  0
LINE
  5
1C2
330
1F
100
AcDbEntity
  8
0
  6
Continuous
 62
     7
370
    15
100
AcDbLine
 10
248.1033305954
 20
34.8128875489
 30
0.0
 11
244.1033224892
 21
34.8128875489
 31
0.0
  0
LINE
  5
1C3
330
1F
100
AcDbEntity
  8
0
  6
Continuous
 62
     7
370
    15
100
AcDbLine
 10
381.3551334825
 20
474.5829448774
 30
0.0
 11
382.5551239934
 21
474.5829448774
 31
0.0
  0
LINE
  5
1C4
330
1F
100
AcDbEntity
  8
0
  6
Continuous
 62
     7
370
    15
100
AcDbLine
 10
381.2551317897
 20
477.0829424932
 30
0.0
 11
381.3551334825
 21
477.0829424932
 31
0.0
  0
LINE
  5
1C5
330
1F
100
AcDbEntity
  8
0
  6
Continuous
 62
     7
370
    15
100
AcDbLine
 10
381.3551334825
 20
483.0829397514
 30
0.0
 11
381.2551317897
 21
483.0829397514
 31
0.0
  0
SPLINE
  5
1C6
330
1F
100
AcDbEntity
  8
0
  6
Continuous
 62
     7
370
    15
100
AcDbSpline
210
0.0
220
0.0
230
1.0
 70
     8
 71
     3
 72
    15
 73
    11
 74
     0
 42
0.00000001
 43
0.00000001
 40
0.0
 40
0.0
 40
0.0
 40
0.0
 40
0.1250754827816088
 40
0.2501512818632861
 40
0.3752910914598436
 40
0.5003038788291839
 40
0.6252879686926238
 40
0.7502620296543432
 40
0.8750785631983024
 40
1.0
 40
1.0
 40
1.0
 40
1.0
 10
380.1695672955694
 20
505.1407710387527
 30
0.0
 10
380.1434423564717
 20
505.3995350542272
 30
0.0
 10
380.0911924122097
 20
505.9170637395574
 30
0.0
 10
380.0123252312468
 20
506.6981772856665
 30
0.0
 10
379.9378920745747
 20
507.4353554107255
 30
0.0
 10
379.870902095098
 20
508.098935818319
 30
0.0
 10
379.8147948674926
 20
508.6546995126882
 30
0.0
 10
379.7722529982818
 20
509.075796063951
 30
0.0
 10
379.7434268686159
 20
509.3614035480196
 30
0.0
 10
379.7390842844483
 20
509.4044385026769
 30
0.0
 10
379.736912080306
 20
509.4259650184929
 30
0.0
  0
SPLINE
  5
1C7
330
1F
100
AcDbEntity
  8
0
  6
Continuous
 62
     7
370
    15
100
AcDbSpline
210
0.0
220
0.0
230
1.0
 70
     8
 71
     3
 72
    15
 73
    11
 74
     0
 42
0.00000001
 43
0.00000001
 40
0.0
 40
0.0
 40
0.0
 40
0.0
 40
0.12493963109233
 40
0.2497688790883884
 40
0.3747512836112952
 40
0.4997376592982848
 40
0.6247480829411527
 40
0.7498793062078932
 40
0.8749425528717422
 40
0.9999999999999999
 40
0.9999999999999999
 40
0.9999999999999999
 40
0.9999999999999999
 10
376.7526714291753
 20
509.1245815827667
 30
0.0
 10
376.7548481518008
 20
509.103003416382
 30
0.0
 10
376.7591996739359
 20
509.0598661477383
 30
0.0
 10
376.7880457591615
 20
508.7741558714901
 30
0.0
 10
376.8305819106993
 20
508.3529721054223
 30
0.0
 10
376.8866892936493
 20
507.7971956876332
 30
0.0
 10
376.9536837887576
 20
507.1336698715418
 30
0.0
 10
377.0280962488528
 20
506.3966235709148
 30
0.0
 10
377.1069540760705
 20
505.6157150375486
 30
0.0
 10
377.1591829904441
 20
505.0983580980404
 30
0.0
 10
377.1852968421163
 20
504.8396856262505
 30
0.0
  0
LINE
  5
1C8
330
1F
100
AcDbEntity
  8
0
  6
Continuous
 62
     7
370
    15
100
AcDbLine
 10
377.1850137201
 20
504.8395515158
 30
0.0
 11
378.7540910926
 21
489.2985717132
 31
0.0
  0
LINE
  5
1C9
330
1F
100
AcDbEntity
  8
0
  6
Continuous
 62
     7
370
    15
100
AcDbLine
 10
381.738912889
 20
489.5999327972
 30
0.0
 11
380.1698504176
 21
505.1409051492
 31
0.0
  0
SPLINE
  5
1CA
330
1F
100
AcDbEntity
  8
0
  6
Continuous
 62
     7
370
    15
100
AcDbSpline
210
0.0
220
0.0
230
1.0
 70
     8
 71
     3
 72
     9
 73
     5
 74
     0
 42
0.00000001
 43
0.00000001
 40
0.0
 40
0.0
 40
0.0
 40
0.0
 40
0.4837344539668944
 40
1.0
 40
1.0
 40
1.0
 40
1.0
 10
378.9241729464712
 20
487.6171991898834
 30
0.0
 10
378.9336335910033
 20
487.5529744049398
 30
0.0
 10
378.9531911074352
 20
487.4202057248986
 30
0.0
 10
378.9870334638524
 20
487.3840502782663
 30
0.0
 10
379.0045051064672
 20
487.3653844668686
 30
0.0
  0
SPLINE
  5
1CB
330
1F
100
AcDbEntity
  8
0
  6
Continuous
 62
     7
370
    15
100
AcDbSpline
210
0.0
220
0.0
230
1.0
 70
     8
 71
     3
 72
    11
 73
     7
 74
     0
 42
0.00000001
 43
0.00000001
 40
0.0
 40
0.0
 40
0.0
 40
0.0
 40
0.2484397085448712
 40
0.4978879353345394
 40
0.7483890246597131
 40
0.9999999999999999
 40
0.9999999999999999
 40
0.9999999999999999
 40
0.9999999999999999
 10
378.7543742146673
 20
489.2987356259644
 30
0.0
 10
378.7723890817101
 20
489.1202642975253
 30
0.0
 10
378.8084919454986
 20
488.7625971526337
 30
0.0
 10
378.8554841320425
 20
488.2977556073981
 30
0.0
 10
378.8943130863465
 20
487.9148733632368
 30
0.0
 10
378.9093408744573
 20
487.7675838172341
 30
0.0
 10
378.9168713774862
 20
487.6937762572586
 30
0.0
  0
SPLINE
  5
1CC
330
1F
100
AcDbEntity
  8
0
  6
Continuous
 62
     7
370
    15
100
AcDbSpline
210
0.0
220
0.0
230
1.0
 70
     8
 71
     3
 72
    19
 73
    15
 74
     0
 42
0.00000001
 43
0.00000001
 40
0.0
 40
0.0
 40
0.0
 40
0.0
 40
0.0802803041969105
 40
0.1534414420360333
 40
0.2193399577831859
 40
0.2779481048339253
 40
0.3728435281058353
 40
0.4421524404775586
 40
0.5315362088906506
 40
0.6554828487286151
 40
0.7303554330370282
 40
0.8130766996630142
 40
0.9031427803889727
 40
1.0
 40
1.0
 40
1.0
 40
1.0
 10
378.9398191657247
 20
487.5345573499023
 30
0.0
 10
378.9751797924964
 20
487.4116835519168
 30
0.0
 10
379.0427653057481
 20
487.1768322650418
 30
0.0
 10
379.2399887044665
 20
486.882420612178
 30
0.0
 10
379.4648425017031
 20
486.6582956687333
 30
0.0
 10
379.7605134326709
 20
486.4652677516821
 30
0.0
 10
380.1024537157517
 20
486.3473362010367
 30
0.0
 10
380.5122115948099
 20
486.3175661054121
 30
0.0
 10
380.9512961486625
 20
486.4198659387415
 30
0.0
 10
381.3378360229675
 20
486.6710957190389
 30
0.0
 10
381.6306772596518
 20
487.0118097147087
 30
0.0
 10
381.8114469696174
 20
487.3672771557801
 30
0.0
 10
381.9173661275277
 20
487.7942180254671
 30
0.0
 10
381.8850956355444
 20
488.0892883881814
 30
0.0
 10
381.868374177474
 20
488.2421836926758
 30
0.0
  0
SPLINE
  5
1CD
330
1F
100
AcDbEntity
  8
0
  6
Continuous
 62
     7
370
    15
100
AcDbSpline
210
0.0
220
0.0
230
1.0
 70
     8
 71
     3
 72
    11
 73
     7
 74
     0
 42
0.00000001
 43
0.00000001
 40
0.0
 40
0.0
 40
0.0
 40
0.0
 40
0.2477445749809089
 40
0.4969511806463745
 40
0.7476788971516558
 40
1.0
 40
1.0
 40
1.0
 40
1.0
 10
381.8921564307394
 20
488.0745009257614
 30
0.0
 10
381.8857142969998
 20
488.1391264356529
 30
0.0
 10
381.8727920121505
 20
488.2687588340331
 30
0.0
 10
381.8368396748934
 20
488.6266337067435
 30
0.0
 10
381.7918544853965
 20
489.0729516996488
 30
0.0
 10
381.7564186876873
 20
489.4238125785888
 30
0.0
 10
381.7386446681203
 20
489.5997986867249
 30
0.0
  0
LINE
  5
1CE
330
1F
100
AcDbEntity
  8
0
  6
Continuous
 62
     7
370
    15
100
AcDbLine
 10
382.0224372831
 20
499.2546112015
 30
0.0
 11
382.0224223819
 21
499.5544300153
 31
0.0
  0
LINE
  5
1CF
330
1F
100
AcDbEntity
  8
0
  6
Continuous
 62
     7
370
    15
100
AcDbLine
 10
381.2224237409
 20
499.5544300153
 30
0.0
 11
381.2224237409
 21
499.2570624425
 31
0.0
  0
SPLINE
  5
1D0
330
1F
100
AcDbEntity
  8
0
  6
Continuous
 62
     7
370
    15
100
AcDbSpline
210
0.0
220
0.0
230
1.0
 70
    24
 71
     3
 72
    11
 73
     7
 74
     0
 42
0.00000001
 43
0.00000001
 40
0.0
 40
0.0
 40
0.0
 40
0.0
 40
0.0207832163337777
 40
0.3465538622668197
 40
0.6711424087355256
 40
1.0
 40
1.0
 40
1.0
 40
1.0
 10
381.2224237408819
 20
499.8407483770668
 30
0.0
 10
381.2224237408819
 20
499.8374266648913
 30
0.0
 10
381.2224237408819
 20
499.7820381164934
 30
0.0
 10
381.2224237408819
 20
499.6888052217699
 30
0.0
 10
381.2224237408819
 20
499.5760918174477
 30
0.0
 10
381.2224237408819
 20
499.5415694915275
 30
0.0
 10
381.2224237408819
 20
499.5241955592453
 30
0.0
  0
SPLINE
  5
1D1
330
1F
100
AcDbEntity
  8
0
  6
Continuous
 62
     7
370
    15
100
AcDbSpline
210
0.0
220
0.0
230
1.0
 70
    24
 71
     3
 72
    11
 73
     7
 74
     0
 42
0.00000001
 43
0.00000001
 40
0.0
 40
0.0
 40
0.0
 40
0.0
 40
0.2504863591729243
 40
0.4977314983156908
 40
0.7458651761595598
 40
1.0
 40
1.0
 40
1.0
 40
1.0
 10
382.0224372830572
 20
499.5217443182289
 30
0.0
 10
382.0224372830571
 20
499.5379610909204
 30
0.0
 10
382.0224372830571
 20
499.5701847960204
 30
0.0
 10
382.0224372830572
 20
499.6789673829871
 30
0.0
 10
382.0224372830572
 20
499.8177995889015
 30
0.0
 10
382.0224372830572
 20
499.924826274297
 30
0.0
 10
382.0224372830572
 20
499.9789789988815
 30
0.0
  0
LINE
  5
1D2
330
1F
100
AcDbEntity
  8
0
  6
Continuous
 62
     7
370
    15
100
AcDbLine
 10
381.0156999316
 20
500.0829444005
 30
0.0
 11
381.2246142116
 21
499.8357192352
 31
0.0
  0
LINE
  5
1D3
330
1F
100
AcDbEntity
  8
0
  6
Continuous
 62
     7
370
    15
100
AcDbLine
 10
382.0224372831
 20
499.9789789989
 30
0.0
 11
382.0224372831
 21
500.0829444005
 31
0.0
  0
LINE
  5
1D4
330
1F
100
AcDbEntity
  8
0
  6
Continuous
 62
     7
370
    15
100
AcDbLine
 10
376.7460404124
 20
509.2209622934
 30
0.0
 11
376.7304388967
 21
509.6801937296
 31
0.0
  0
SPLINE
  5
1D5
330
1F
100
AcDbEntity
  8
0
  6
Continuous
 62
     7
370
    15
100
AcDbSpline
210
0.0
220
0.0
230
1.0
 70
     8
 71
     3
 72
    11
 73
     7
 74
     0
 42
0.00000001
 43
0.00000001
 40
0.0
 40
0.0
 40
0.0
 40
0.0
 40
0.1207587006651574
 40
0.4133918797399851
 40
0.7063569142102074
 40
1.0
 40
1.0
 40
1.0
 40
1.0
 10
378.778722712058
 20
489.0575305297195
 30
0.0
 10
378.7886401927013
 20
488.9592299405066
 30
0.0
 10
378.822590590833
 20
488.6227186570096
 30
0.0
 10
378.8699631517636
 20
488.153807301787
 30
0.0
 10
378.9128438307001
 20
487.7290729271554
 30
0.0
 10
378.9203936656347
 20
487.6545191608254
 30
0.0
 10
378.9241729464712
 20
487.6171991898834
 30
0.0
  0
LINE
  5
1D6
330
1F
100
AcDbEntity
  8
0
  6
Continuous
 62
     7
370
    15
100
AcDbLine
 10
377.1068869319
 20
540.0829435065
 30
0.0
 11
376.3551233497
 21
539.8093283846
 31
0.0
  0
LINE
  5
1D7
330
1F
100
AcDbEntity
  8
0
  6
Continuous
 62
     7
370
    15
100
AcDbLine
 10
382.5551239934
 20
539.0829414799
 30
0.0
 11
382.2551338163
 21
539.0829414799
 31
0.0
  0
LINE
  5
1D8
330
1F
100
AcDbEntity
  8
0
  6
Continuous
 62
     7
370
    15
100
AcDbLine
 10
382.2551338163
 20
538.0829469039
 30
0.0
 11
382.1551321235
 21
538.0829469039
 31
0.0
  0
LINE
  5
1D9
330
1F
100
AcDbEntity
  8
0
  6
Continuous
 62
     7
370
    15
100
AcDbLine
 10
382.1551321235
 20
532.0829421952
 30
0.0
 11
382.2551338163
 21
532.0829421952
 31
0.0
  0
LINE
  5
1DA
330
1F
100
AcDbEntity
  8
0
  6
Continuous
 62
     7
370
    15
100
AcDbLine
 10
382.2551338163
 20
515.0829449966
 30
0.0
 11
382.1551321235
 21
515.0829449966
 31
0.0
  0
LINE
  5
1DB
330
1F
100
AcDbEntity
  8
0
  6
Continuous
 62
     7
370
    15
100
AcDbLine
 10
382.1551321235
 20
509.0829477384
 30
0.0
 11
382.2551338163
 21
509.0829477384
 31
0.0
  0
LINE
  5
1DC
330
1F
100
AcDbEntity
  8
0
  6
Continuous
 62
     7
370
    15
100
AcDbLine
 10
667.5551353183
 20
483.0829397514
 30
0.0
 11
667.5551353183
 21
478.0829445197
 31
0.0
  0
LINE
  5
1DD
330
1F
100
AcDbEntity
  8
0
  6
Continuous
 62
     7
370
    15
100
AcDbLine
 10
682.5551359143
 20
483.0829397514
 30
0.0
 11
667.5551353183
 21
483.0829397514
 31
0.0
  0
LINE
  5
1DE
330
1F
100
AcDbEntity
  8
0
  6
Continuous
 62
     7
370
    15
100
AcDbLine
 10
682.5551359143
 20
483.0829397514
 30
0.0
 11
682.5551359143
 21
478.0829445197
 31
0.0
  0
LINE
  5
1DF
330
1F
100
AcDbEntity
  8
0
  6
Continuous
 62
     7
370
    15
100
AcDbLine
 10
682.5551359143
 20
478.0829445197
 30
0.0
 11
667.5551353183
 21
478.0829445197
 31
0.0
  0
LINE
  5
1E0
330
1F
100
AcDbEntity
  8
0
  6
Continuous
 62
     7
370
    15
100
AcDbLine
 10
397.5551245895
 20
483.0829397514
 30
0.0
 11
397.5551245895
 21
478.0829445197
 31
0.0
  0
LINE
  5
1E1
330
1F
100
AcDbEntity
  8
0
  6
Continuous
 62
     7
370
    15
100
AcDbLine
 10
397.5551245895
 20
483.0829397514
 30
0.0
 11
667.5551353183
 21
483.0829397514
 31
0.0
  0
LINE
  5
1E2
330
1F
100
AcDbEntity
  8
0
  6
Continuous
 62
     7
370
    15
100
AcDbLine
 10
397.5551245895
 20
478.0829445197
 30
0.0
 11
667.5551353183
 21
478.0829445197
 31
0.0
  0
LINE
  5
1E3
330
1F
100
AcDbEntity
  8
0
  6
Continuous
 62
     7
370
    15
100
AcDbLine
 10
397.5551245895
 20
463.0829439237
 30
0.0
 11
397.5551245895
 21
478.0829445197
 31
0.0
  0
LINE
  5
1E4
330
1F
100
AcDbEntity
  8
0
  6
Continuous
 62
     7
370
    15
100
AcDbLine
 10
667.5551353183
 20
478.0829445197
 30
0.0
 11
667.5551353183
 21
463.0829439237
 31
0.0
  0
LINE
  5
1E5
330
1F
100
AcDbEntity
  8
0
  6
Continuous
 62
     7
370
    15
100
AcDbLine
 10
397.5551245895
 20
463.0829439237
 30
0.0
 11
667.5551353183
 21
463.0829439237
 31
0.0
  0
ARC
  5
1E6
330
1F
100
AcDbEntity
  8
0
  6
Continuous
 62
     7
370
    15
100
AcDbCircle
 10
667.5551299539
 20
478.0829440906
 30
0.0
 40
15.0
100
AcDbArc
 50
270.0
 51
0.0
  0
LINE
  5
1E7
330
1F
100
AcDbEntity
  8
0
  6
Continuous
 62
     7
370
    15
100
AcDbLine
 10
382.5551239934
 20
483.0829397514
 30
0.0
 11
382.5551239934
 21
478.0829445197
 31
0.0
  0
LINE
  5
1E8
330
1F
100
AcDbEntity
  8
0
  6
Continuous
 62
     7
370
    15
100
AcDbLine
 10
382.5551239934
 20
478.0829445197
 30
0.0
 11
397.5551245895
 21
478.0829445197
 31
0.0
  0
LINE
  5
1E9
330
1F
100
AcDbEntity
  8
0
  6
Continuous
 62
     7
370
    15
100
AcDbLine
 10
382.5551239934
 20
483.0829397514
 30
0.0
 11
397.5551245895
 21
483.0829397514
 31
0.0
  0
ARC
  5
1EA
330
1F
100
AcDbEntity
  8
0
  6
Continuous
 62
     7
370
    15
100
AcDbCircle
 10
397.5551299539
 20
478.0829440906
 30
0.0
 40
15.0
100
AcDbArc
 50
180.0
 51
270.0
  0
LINE
  5
1EB
330
1F
100
AcDbEntity
  8
0
  6
Continuous
 62
     7
370
    15
100
AcDbLine
 10
381.3551334825
 20
481.1007127836
 30
0.0
 11
382.5551239934
 21
481.1007127836
 31
0.0
  0
LINE
  5
1EC
330
1F
100
AcDbEntity
  8
0
  6
Continuous
 62
     7
370
    15
100
AcDbLine
 10
381.3551334825
 20
478.9967433288
 30
0.0
 11
382.5551239934
 21
478.9967433288
 31
0.0
  0
LINE
  5
1ED
330
1F
100
AcDbEntity
  8
0
  6
Continuous
 62
     7
370
    15
100
AcDbLine
 10
381.3551334825
 20
478.9967433288
 30
0.0
 11
381.3551334825
 21
481.1007127836
 31
0.0
  0
LINE
  5
1EE
330
1F
100
AcDbEntity
  8
0
  6
Continuous
 62
     7
370
    15
100
AcDbLine
 10
381.3551334825
 20
486.082945831
 30
0.0
 11
382.5551239934
 21
486.082945831
 31
0.0
  0
LINE
  5
1EF
330
1F
100
AcDbEntity
  8
0
  6
Continuous
 62
     7
370
    15
100
AcDbLine
 10
382.5551239934
 20
483.0829397514
 30
0.0
 11
382.5551239934
 21
486.082945831
 31
0.0
  0
LINE
  5
1F0
330
1F
100
AcDbEntity
  8
0
  6
Continuous
 62
     7
370
    15
100
AcDbLine
 10
381.3551334825
 20
486.082945831
 30
0.0
 11
381.3551334825
 21
481.1007127836
 31
0.0
  0
LINE
  5
1F1
330
1F
100
AcDbEntity
  8
0
  6
Continuous
 62
     7
370
    15
100
AcDbLine
 10
382.5551239934
 20
478.0829445197
 30
0.0
 11
382.5551239934
 21
474.5829448774
 31
0.0
  0
LINE
  5
1F2
330
1F
100
AcDbEntity
  8
0
  6
Continuous
 62
     7
370
    15
100
AcDbLine
 10
381.3551334825
 20
474.5829448774
 30
0.0
 11
381.3551334825
 21
478.9967433288
 31
0.0
  0
LINE
  5
1F3
330
1F
100
AcDbEntity
  8
0
  6
Continuous
 62
     7
370
    15
100
AcDbLine
 10
381.2551317897
 20
477.0829424932
 30
0.0
 11
381.2551317897
 21
483.0829397514
 31
0.0
  0
ARC
  5
1F4
330
1F
100
AcDbEntity
  8
0
  6
Continuous
 62
     7
370
    15
100
AcDbCircle
 10
379.7551299539
 20
487.7829440906
 30
0.0
 40
2.800000000000011
100
AcDbArc
 50
0.0
 51
45.4024529621
  0
LINE
  5
1F5
330
1F
100
AcDbEntity
  8
0
  6
Continuous
 62
     7
370
    15
100
AcDbLine
 10
378.6474732843
 20
490.3545425012
 30
0.0
 11
378.0505923715
 21
490.0043354108
 31
0.0
  0
LINE
  5
1F6
330
1F
100
AcDbEntity
  8
0
  6
Continuous
 62
     7
370
    15
100
AcDbLine
 10
375.2376703706
 20
486.3333300426
 30
0.0
 11
378.7811068978
 21
489.0523151233
 31
0.0
  0
LINE
  5
1F7
330
1F
100
AcDbEntity
  8
0
  6
Continuous
 62
     7
370
    15
100
AcDbLine
 10
374.5071558442
 20
487.2853503301
 30
0.0
 11
375.2376703706
 21
486.3333300426
 31
0.0
  0
LINE
  5
1F8
330
1F
100
AcDbEntity
  8
0
  6
Continuous
 62
     7
370
    15
100
AcDbLine
 10
378.0505923715
 20
490.0043354108
 30
0.0
 11
374.5071558442
 21
487.2853503301
 31
0.0
  0
LINE
  5
1F9
330
1F
100
AcDbEntity
  8
0
  6
Continuous
 62
     7
370
    15
100
AcDbLine
 10
382.5551239934
 20
486.082945831
 30
0.0
 11
382.5551239934
 21
487.0829478576
 31
0.0
  0
LINE
  5
1FA
330
1F
100
AcDbEntity
  8
0
  6
Continuous
 62
     7
370
    15
100
AcDbLine
 10
381.3551334825
 20
486.7238894775
 30
0.0
 11
381.3551334825
 21
486.082945831
 31
0.0
  0
LINE
  5
1FB
330
1F
100
AcDbEntity
  8
0
  6
Continuous
 62
     7
370
    15
100
AcDbLine
 10
374.2856500831
 20
485.6028155162
 30
0.0
 11
373.5551355567
 21
486.5548358037
 31
0.0
  0
LWPOLYLINE
  5
1FC
330
1F
100
AcDbEntity
  8
0
  6
Continuous
 62
     7
370
    15
100
AcDbPolyline
 90
        9
 70
   128
 43
0.0
 10
373.5551355567
 20
486.5548358037
 10
373.5734192815
 20
486.5688726976
 10
373.6275999036
 20
486.6104469373
 10
373.7155763593
 20
486.6779491975
 10
373.833966085
 20
486.7688015773
 10
373.9782391277
 20
486.8795023038
 10
374.1428373542
 20
487.0058045461
 10
374.3214277711
 20
487.1428356244
 10
374.5071558442
 20
487.2853503301
  0
LWPOLYLINE
  5
1FD
330
1F
100
AcDbEntity
  8
0
  6
Continuous
 62
     7
370
    15
100
AcDbPolyline
 90
        9
 70
   128
 43
0.0
 10
375.2376703706
 20
486.3333300426
 10
375.0519422975
 20
486.1908153369
 10
374.8733369794
 20
486.0537693574
 10
374.708753654
 20
485.9274820163
 10
374.5644806113
 20
485.8167812898
 10
374.4460908857
 20
485.72592891
 10
374.35811443
 20
485.6584266498
 10
374.3039338079
 20
485.6168524101
 10
374.2856500831
 20
485.6028155162
  0
SPLINE
  5
1FE
330
1F
100
AcDbEntity
  8
0
  6
Continuous
 62
     7
370
    15
100
AcDbSpline
210
0.0
220
0.0
230
1.0
 70
     8
 71
     3
 72
    12
 73
     8
 74
     0
 42
0.00000001
 43
0.00000001
 40
0.0
 40
0.0
 40
0.0
 40
0.0
 40
0.2340518048260158
 40
0.4681083238238113
 40
0.7021649540123228
 40
0.9362191112700744
 40
0.9999999999999999
 40
0.9999999999999999
 40
0.9999999999999999
 40
0.9999999999999999
 10
378.8521109309377
 20
504.7600612714111
 30
0.0
 10
378.6557180688387
 20
504.7406783658441
 30
0.0
 10
378.2629283889793
 20
504.7019121643077
 30
0.0
 10
377.7254296909517
 20
504.6966744447124
 30
0.0
 10
377.3519272252846
 20
504.7351403017212
 30
0.0
 10
377.1727346212792
 20
504.7898044002162
 30
0.0
 10
377.2014537301562
 20
504.8337595701152
 30
0.0
 10
377.2076038804235
 20
504.8431724979698
 30
0.0
  0
SPLINE
  5
1FF
330
1F
100
AcDbEntity
  8
0
  6
Continuous
 62
     7
370
    15
100
AcDbSpline
210
0.0
220
0.0
230
1.0
 70
     8
 71
     3
 72
    11
 73
     7
 74
     0
 42
0.00000001
 43
0.00000001
 40
0.0
 40
0.0
 40
0.0
 40
0.0
 40
0.198686486802408
 40
0.4657890565669508
 40
0.7328959069263856
 40
1.0
 40
1.0
 40
1.0
 40
1.0
 10
380.1480202164831
 20
505.1389456465065
 30
0.0
 10
380.146836463711
 20
505.1144558973459
 30
0.0
 10
380.1440613424847
 20
505.0570435521953
 30
0.0
 10
379.8745441915976
 20
504.94994837985
 30
0.0
 10
379.4274758016498
 20
504.8391454800629
 30
0.0
 10
379.043898561241
 20
504.7864225835867
 30
0.0
 10
378.8521109309377
 20
504.7600612714111
 30
0.0
  0
SPLINE
  5
200
330
1F
100
AcDbEntity
  8
0
  6
Continuous
 62
     7
370
    15
100
AcDbSpline
210
0.0
220
0.0
230
1.0
 70
     8
 71
     3
 72
    12
 73
     8
 74
     0
 42
0.00000001
 43
0.00000001
 40
0.0
 40
0.0
 40
0.0
 40
0.0
 40
0.2339702271248437
 40
0.467932890478384
 40
0.7018980302872534
 40
0.9358659172968862
 40
1.0
 40
1.0
 40
1.0
 40
1.0
 10
378.2451419320287
 20
510.771934755069
 30
0.0
 10
378.0490565685244
 20
510.7494295606139
 30
0.0
 10
377.6568921805482
 20
510.7044198992496
 30
0.0
 10
377.1539557230921
 20
510.3569277191324
 30
0.0
 10
376.8341426045924
 20
509.8634388662965
 30
0.0
 10
376.7062144562435
 20
509.4098531442322
 30
0.0
 10
376.7640055277709
 20
509.1668606542763
 30
0.0
 10
376.7764387812795
 20
509.1145829036057
 30
0.0
  0
SPLINE
  5
201
330
1F
100
AcDbEntity
  8
0
  6
Continuous
 62
     7
370
    15
100
AcDbSpline
210
0.0
220
0.0
230
1.0
 70
     8
 71
     3
 72
    11
 73
     7
 74
     0
 42
0.00000001
 43
0.00000001
 40
0.0
 40
0.0
 40
0.0
 40
0.0
 40
0.1976896372521521
 40
0.4651276561127174
 40
0.7325628442169249
 40
1.0
 40
1.0
 40
1.0
 40
1.0
 10
379.7153501000585
 20
509.4216436817467
 30
0.0
 10
379.6970699061096
 20
509.5663946694748
 30
0.0
 10
379.6540599442171
 20
509.9069673397363
 30
0.0
 10
379.3286007132356
 20
510.3567402893123
 30
0.0
 10
378.8353091440549
 20
510.7044637343102
 30
0.0
 10
378.4418648185027
 20
510.7494443596581
 30
0.0
 10
378.2451419320287
 20
510.771934755069
 30
0.0
  0
SPLINE
  5
202
330
1F
100
AcDbEntity
  8
0
  6
Continuous
 62
     7
370
    15
100
AcDbSpline
210
0.0
220
0.0
230
1.0
 70
     8
 71
     3
 72
    12
 73
     8
 74
     0
 42
0.00000001
 43
0.00000001
 40
0.0
 40
0.0
 40
0.0
 40
0.0
 40
0.2350124346011034
 40
0.4700298895179127
 40
0.7050473250288888
 40
0.9400627265619128
 40
1.0
 40
1.0
 40
1.0
 40
1.0
 10
380.4211883034887
 20
489.2190889193832
 30
0.0
 10
380.224802754343
 20
489.1997109787822
 30
0.0
 10
379.8320274608803
 20
489.1609546836303
 30
0.0
 10
379.2944187597529
 20
489.1556872211246
 30
0.0
 10
378.9213362475788
 20
489.1942125649504
 30
0.0
 10
378.7423401169669
 20
489.2483337175675
 30
0.0
 10
378.7702126237938
 20
489.2916350943255
 30
0.0
 10
378.77587659027
 20
489.3004343583405
 30
0.0
  0
SPLINE
  5
203
330
1F
100
AcDbEntity
  8
0
  6
Continuous
 62
     7
370
    15
100
AcDbSpline
210
0.0
220
0.0
230
1.0
 70
     8
 71
     3
 72
    11
 73
     7
 74
     0
 42
0.00000001
 43
0.00000001
 40
0.0
 40
0.0
 40
0.0
 40
0.0
 40
0.1989239597362801
 40
0.465950584310487
 40
0.7329742733226847
 40
1.0
 40
1.0
 40
1.0
 40
1.0
 10
381.7171422925176
 20
489.5980850531876
 30
0.0
 10
381.7159685050816
 20
489.5735587750794
 30
0.0
 10
381.7132190779017
 20
489.5161095184361
 30
0.0
 10
381.4436121992183
 20
489.4089916011637
 30
0.0
 10
380.9965511680658
 20
489.2981684898187
 30
0.0
 10
380.6129764128574
 20
489.2454488432457
 30
0.0
 10
380.4211883034887
 20
489.2190889193832
 30
0.0
  0
ARC
  5
204
330
1F
100
AcDbEntity
  8
0
  6
Continuous
 62
     7
370
    15
100
AcDbCircle
 10
381.6224161666
 20
499.5207197319
 30
0.0
 40
0.4000075274666015
100
AcDbArc
 50
0.1467585748
 51
179.5021275156
  0
ELLIPSE
  5
205
330
1F
100
AcDbEntity
  8
0
  6
Continuous
 62
     7
370
    15
100
AcDbEllipse
 10
381.6224293542
 20
499.2558356968
 30
0.0
 11
0.3991830274372887
 21
-0.02624604221148274
 31
0.0
210
0.0
220
0.0
230
0.9999999999999998
 40
0.9763157485
 41
0.0
 42
6.283185307179586
  0
SPLINE
  5
206
330
1F
100
AcDbEntity
  8
0
  6
Continuous
 62
     7
370
    15
100
AcDbSpline
210
0.0
220
0.0
230
1.0
 70
     8
 71
     3
 72
    13
 73
     9
 74
     0
 42
0.00000001
 43
0.00000001
 40
0.0
 40
0.0
 40
0.0
 40
0.0
 40
0.0081702280425704
 40
0.2391539873185931
 40
0.4710971973866074
 40
0.6931205590767906
 40
0.9042225733627326
 40
1.0
 40
1.0
 40
1.0
 40
1.0
 10
381.6224305119695
 20
499.9846712424576
 30
0.0
 10
381.6207716109952
 20
499.9842764463922
 30
0.0
 10
381.5722132622528
 20
499.9727202140899
 30
0.0
 10
381.4760797775673
 20
499.9495272832929
 30
0.0
 10
381.3532473016807
 20
499.905869873888
 30
0.0
 10
381.2675951082352
 20
499.8684305287381
 30
0.0
 10
381.2235772808618
 20
499.8472808219733
 30
0.0
 10
381.226809257581
 20
499.8423022081652
 30
0.0
 10
381.2278179612341
 20
499.8407483770668
 30
0.0
  0
SPLINE
  5
207
330
1F
100
AcDbEntity
  8
0
  6
Continuous
 62
     7
370
    15
100
AcDbSpline
210
0.0
220
0.0
230
1.0
 70
     8
 71
     3
 72
    13
 73
     9
 74
     0
 42
0.00000001
 43
0.00000001
 40
0.0
 40
0.0
 40
0.0
 40
0.0
 40
0.1252289053032055
 40
0.2499779394264892
 40
0.4999780623493859
 40
0.7499979040631034
 40
0.8747543590072153
 40
1.0
 40
1.0
 40
1.0
 40
1.0
 10
382.0224372830572
 20
499.9789789988815
 30
0.0
 10
382.0207229591207
 20
499.9790018434002
 30
0.0
 10
382.0173008804551
 20
499.9790474448983
 30
0.0
 10
381.9829210257694
 20
499.9795425237224
 30
0.0
 10
381.907657195655
 20
499.9806107913764
 30
0.0
 10
381.7989948572973
 20
499.9821627970599
 30
0.0
 10
381.700281617957
 20
499.983559325569
 30
0.0
 10
381.6484147104384
 20
499.9843001203168
 30
0.0
 10
381.6224305119695
 20
499.9846712424576
 30
0.0
  0
SPLINE
  5
208
330
1F
100
AcDbEntity
  8
0
  6
Continuous
 62
     7
370
    15
100
AcDbSpline
210
0.0
220
0.0
230
1.0
 70
     8
 71
     3
 72
    10
 73
     6
 74
     0
 42
0.00000001
 43
0.00000001
 40
0.0
 40
0.0
 40
0.0
 40
0.0
 40
0.0190107309040389
 40
0.5253203859619627
 40
1.0
 40
1.0
 40
1.0
 40
1.0
 10
381.6224305119695
 20
499.9846712424576
 30
0.0
 10
381.6239548619503
 20
499.985408939258
 30
0.0
 10
381.6660769731047
 20
500.0057935930561
 30
0.0
 10
381.748595807129
 20
500.0442083283468
 30
0.0
 10
381.8187513818022
 20
500.0703129401716
 30
0.0
 10
381.8526981558981
 20
500.082944400531
 30
0.0
  0
LINE
  5
209
330
1F
100
AcDbEntity
  8
0
  6
Continuous
 62
     7
370
    15
100
AcDbLine
 10
376.745906302
 20
509.2239052727
 30
0.0
 11
376.7583636728
 21
509.0731353237
 31
0.0
  0
LINE
  5
20A
330
1F
100
AcDbEntity
  8
0
  6
Continuous
 62
     7
370
    15
100
AcDbLine
 10
379.7381339755
 20
509.4166443422
 30
0.0
 11
379.7025500026
 21
509.6268028691
 31
0.0
  0
ARC
  5
20B
330
1F
100
AcDbEntity
  8
0
  6
Continuous
 62
     7
370
    15
100
AcDbCircle
 10
377.6551299539
 20
503.1029440906
 30
0.0
 40
2.200000000000049
100
AcDbArc
 50
103.5934783353
 51
268.1042765976
  0
LINE
  5
20C
330
1F
100
AcDbEntity
  8
0
  6
Continuous
 62
     7
370
    15
100
AcDbLine
 10
374.1082964626
 20
504.4807092025
 30
0.0
 11
374.4419483628
 21
506.3729406073
 31
0.0
  0
LWPOLYLINE
  5
20D
330
1F
100
AcDbEntity
  8
0
  6
Continuous
 62
     7
370
    15
100
AcDbPolyline
 90
        9
 70
   128
 43
0.0
 10
374.4419483628
 20
506.3729406073
 10
374.2977200237
 20
506.3983768894
 10
374.1606740442
 20
506.4225391223
 10
374.0355638948
 20
506.4446002915
 10
373.9267258134
 20
506.4637929871
 10
373.8378999915
 20
506.4794541075
 10
373.7721560683
 20
506.4910472109
 10
373.7317888227
 20
506.4981625154
 10
373.7181691613
 20
506.5005690529
  0
LINE
  5
20E
330
1F
100
AcDbEntity
  8
0
  6
Continuous
 62
     7
370
    15
100
AcDbLine
 10
373.7181691613
 20
506.5005690529
 30
0.0
 11
378.0932096925
 21
531.3126788213
 31
0.0
  0
LWPOLYLINE
  5
20F
330
1F
100
AcDbEntity
  8
0
  6
Continuous
 62
     7
370
    15
100
AcDbPolyline
 90
        9
 70
   128
 43
0.0
 10
378.0932096925
 20
531.3126788213
 10
378.1083492723
 20
531.3100040629
 10
378.1531868663
 20
531.3020989969
 10
378.2259939399
 20
531.2892616465
 10
378.3239690747
 20
531.2719912007
 10
378.4433571782
 20
531.2509358599
 10
378.5795686927
 20
531.2269226386
 10
378.7273584094
 20
531.2008605077
 10
378.8810638871
 20
531.1737552955
  0
LINE
  5
210
330
1F
100
AcDbEntity
  8
0
  6
Continuous
 62
     7
370
    15
100
AcDbLine
 10
378.8810638871
 20
531.1737552955
 30
0.0
 11
374.055740067
 21
503.8079590275
 31
0.0
  0
LINE
  5
211
330
1F
100
AcDbEntity
  8
0
  6
Continuous
 62
     7
370
    15
100
AcDbLine
 10
374.055740067
 20
503.8079590275
 30
0.0
 11
374.1082964626
 21
504.4807092025
 31
0.0
  0
LWPOLYLINE
  5
212
330
1F
100
AcDbEntity
  8
0
  6
Continuous
 62
     7
370
    15
100
AcDbPolyline
 90
        5
 70
   128
 43
0.0
 10
376.9405154672
 20
538.2010013535
 10
376.6870467153
 20
538.8974071219
 10
376.5034793105
 20
539.4017220213
 10
376.3923464503
 20
539.7070766165
 10
376.3551233497
 20
539.8093283846
  0
LWPOLYLINE
  5
213
330
1F
100
AcDbEntity
  8
0
  6
Continuous
 62
     7
370
    15
100
AcDbPolyline
 90
        5
 70
   128
 43
0.0
 10
377.7001319614
 20
538.4529874399
 10
377.443295547
 20
539.1586617305
 10
377.2572694507
 20
539.66977901
 10
377.1446017709
 20
539.9792984798
 10
377.1068869319
 20
540.0829435065
  0
LINE
  5
214
330
1F
100
AcDbEntity
  8
0
  6
Continuous
 62
     7
370
    15
100
AcDbLine
 10
377.922233769
 20
538.0985484197
 30
0.0
 11
377.7001319614
 21
538.4529874399
 31
0.0
  0
LINE
  5
215
330
1F
100
AcDbEntity
  8
0
  6
Continuous
 62
     7
370
    15
100
AcDbLine
 10
377.8400389638
 20
538.068626888
 30
0.0
 11
377.922233769
 21
538.0985484197
 31
0.0
  0
SPLINE
  5
216
330
1F
100
AcDbEntity
  8
0
  6
Continuous
 62
     7
370
    15
100
AcDbSpline
210
0.0
220
0.0
230
1.0
 70
     8
 71
     3
 72
    12
 73
     8
 74
     0
 42
0.00000001
 43
0.00000001
 40
0.0
 40
0.0
 40
0.0
 40
0.0
 40
0.251021990599481
 40
0.5023977458077202
 40
0.7402765908566765
 40
0.9473178514528033
 40
1.0
 40
1.0
 40
1.0
 40
1.0
 10
376.940515467185
 20
538.2010013534843
 30
0.0
 10
376.9682242645135
 20
538.1566837146034
 30
0.0
 10
377.0236809091033
 20
538.0679859801138
 30
0.0
 10
377.2306794747111
 20
537.992991749003
 30
0.0
 10
377.4920697542998
 20
537.9815026563238
 30
0.0
 10
377.7086580220495
 20
538.0231364475655
 30
0.0
 10
377.8178836912197
 20
538.0609556604031
 30
0.0
 10
377.8400389638128
 20
538.0686268880188
 30
0.0
  0
LINE
  5
217
330
1F
100
AcDbEntity
  8
0
  6
Continuous
 62
     7
370
    15
100
AcDbLine
 10
377.8400389638
 20
538.068626888
 30
0.0
 11
378.4163711753
 21
536.4851400926
 31
0.0
  0
LWPOLYLINE
  5
218
330
1F
100
AcDbEntity
  8
0
  6
Continuous
 62
     7
370
    15
100
AcDbPolyline
 90
        9
 70
   128
 43
0.0
 10
377.6646224942
 20
536.2115249708
 10
377.6790617194
 20
536.2167850807
 10
377.7218429532
 20
536.2323567941
 10
377.7913121667
 20
536.2576366141
 10
377.884802052
 20
536.2916634157
 10
377.9987214294
 20
536.3331258967
 10
378.1286893573
 20
536.3804370835
 10
378.2697139468
 20
536.4317641332
 10
378.4163711753
 20
536.4851400926
  0
LINE
  5
219
330
1F
100
AcDbEntity
  8
0
  6
Continuous
 62
     7
370
    15
100
AcDbLine
 10
377.6646224942
 20
536.2115249708
 30
0.0
 11
376.9405154672
 21
538.2010013535
 31
0.0
  0
ARC
  5
21A
330
1F
100
AcDbEntity
  8
0
  6
Continuous
 62
     7
370
    15
100
AcDbCircle
 10
378.24513546
 20
509.2719350091
 30
0.0
 40
1.599999999999986
100
AcDbArc
 50
347.034367059
 51
204.5950707184
  0
ARC
  5
21B
330
1F
100
AcDbEntity
  8
0
  6
Continuous
 62
     7
370
    15
100
AcDbCircle
 10
378.7578444253
 20
537.2950089449
 30
0.0
 40
0.5
100
AcDbArc
 50
36.8410865502
 51
90.0
  0
ARC
  5
21C
330
1F
100
AcDbEntity
  8
0
  6
Continuous
 62
     7
370
    15
100
AcDbCircle
 10
371.5551299539
 20
531.8986301365
 30
0.0
 40
9.5
100
AcDbArc
 50
0.0
 51
36.8410865502
  0
LINE
  5
21D
330
1F
100
AcDbEntity
  8
0
  6
Continuous
 62
     7
370
    15
100
AcDbLine
 10
381.0551284042
 20
531.8986297324
 30
0.0
 11
381.0551284042
 21
503.8729429915
 31
0.0
  0
ARC
  5
21E
330
1F
100
AcDbEntity
  8
0
  6
Continuous
 62
     7
370
    15
100
AcDbCircle
 10
368.7375429134
 20
532.9623345589
 30
0.0
 40
10.30000000000011
100
AcDbArc
 50
350.0
 51
20.0
  0
ARC
  5
21F
330
1F
100
AcDbEntity
  8
0
  6
Continuous
 62
     7
370
    15
100
AcDbCircle
 10
378.6398318797
 20
538.7950089449
 30
0.0
 40
1.0
100
AcDbArc
 50
224.1440002858
 51
270.0
  0
LINE
  5
220
330
1F
100
AcDbEntity
  8
0
  6
Continuous
 62
     7
370
    15
100
AcDbLine
 10
378.6398289886
 20
537.7950117662
 30
0.0
 11
378.7578461852
 21
537.7950117662
 31
0.0
  0
LWPOLYLINE
  5
221
330
1F
100
AcDbEntity
  8
0
  6
Continuous
 62
     7
370
    15
100
AcDbPolyline
 90
        3
 70
   128
 43
0.0
 10
381.0551284042
 20
503.8729429915
 10
380.8465121474
 20
502.6826605871
 10
380.4903445926
 20
501.9665033295
  0
ARC
  5
222
330
1F
100
AcDbEntity
  8
0
  6
Continuous
 62
     7
370
    15
100
AcDbCircle
 10
377.5551299539
 20
503.8729440906
 30
0.0
 40
3.500000000000063
100
AcDbArc
 50
181.0639402281
 51
271.3221928089
  0
ARC
  5
223
330
1F
100
AcDbEntity
  8
0
  6
Continuous
 62
     7
370
    15
100
AcDbCircle
 10
368.7375429134
 20
532.9623345589
 30
0.0
 40
9.500000000000298
100
AcDbArc
 50
350.0
 51
20.0
  0
ARC
  5
224
330
1F
100
AcDbEntity
  8
0
  6
Continuous
 62
     7
370
    15
100
AcDbCircle
 10
378.1487477473
 20
504.5704396174
 30
0.0
 40
4.698428302688304
100
AcDbArc
 50
170.0
 51
264.3261771657
  0
LINE
  5
225
330
1F
100
AcDbEntity
  8
0
  6
Continuous
 62
     7
370
    15
100
AcDbLine
 10
373.7181691613
 20
506.5005690529
 30
0.0
 11
373.521697351
 21
505.3863123729
 31
0.0
  0
LINE
  5
226
330
1F
100
AcDbEntity
  8
0
  6
Continuous
 62
     7
370
    15
100
AcDbLine
 10
667.5551353183
 20
608.082944408
 30
0.0
 11
682.5551359143
 21
608.082944408
 31
0.0
  0
LINE
  5
227
330
1F
100
AcDbEntity
  8
0
  6
Continuous
 62
     7
370
    15
100
AcDbLine
 10
667.5551353183
 20
608.082944408
 30
0.0
 11
667.5551353183
 21
623.0829440727
 31
0.0
  0
ARC
  5
228
330
1F
100
AcDbEntity
  8
0
  6
Continuous
 62
     7
370
    15
100
AcDbCircle
 10
667.5551299539
 20
608.0829440906
 30
0.0
 40
14.99999999999989
100
AcDbArc
 50
0.0
 51
90.0
  0
LINE
  5
229
330
1F
100
AcDbEntity
  8
0
  6
Continuous
 62
     7
370
    15
100
AcDbLine
 10
667.5551353183
 20
623.0829440727
 30
0.0
 11
397.5551245895
 21
623.0829440727
 31
0.0
  0
LINE
  5
22A
330
1F
100
AcDbEntity
  8
0
  6
Continuous
 62
     7
370
    15
100
AcDbLine
 10
667.5551353183
 20
608.082944408
 30
0.0
 11
397.5551245895
 21
608.082944408
 31
0.0
  0
LINE
  5
22B
330
1F
100
AcDbEntity
  8
0
  6
Continuous
 62
     7
370
    15
100
AcDbLine
 10
397.5551245895
 20
608.082944408
 30
0.0
 11
397.5551245895
 21
623.0829440727
 31
0.0
  0
LINE
  5
22C
330
1F
100
AcDbEntity
  8
0
  6
Continuous
 62
     7
370
    15
100
AcDbLine
 10
397.5551245895
 20
608.082944408
 30
0.0
 11
382.5551239934
 21
608.082944408
 31
0.0
  0
ARC
  5
22D
330
1F
100
AcDbEntity
  8
0
  6
Continuous
 62
     7
370
    15
100
AcDbCircle
 10
397.5551299539
 20
608.0829440906
 30
0.0
 40
15.0
100
AcDbArc
 50
90.0
 51
180.0
  0
LINE
  5
22E
330
1F
100
AcDbEntity
  8
0
  6
Continuous
 62
     7
370
    15
100
AcDbLine
 10
397.5551245895
 20
487.0829478576
 30
0.0
 11
397.5551245895
 21
608.082944408
 31
0.0
  0
LINE
  5
22F
330
1F
100
AcDbEntity
  8
0
  6
Continuous
 62
     7
370
    15
100
AcDbLine
 10
397.5551245895
 20
487.0829478576
 30
0.0
 11
382.5551239934
 21
487.0829478576
 31
0.0
  0
LINE
  5
230
330
1F
100
AcDbEntity
  8
0
  6
Continuous
 62
     7
370
    15
100
AcDbLine
 10
382.5551239934
 20
487.0829478576
 30
0.0
 11
382.5551239934
 21
608.082944408
 31
0.0
  0
LINE
  5
231
330
1F
100
AcDbEntity
  8
0
  6
Continuous
 62
     7
370
    15
100
AcDbLine
 10
682.5551359143
 20
487.0829478576
 30
0.0
 11
682.5551359143
 21
608.082944408
 31
0.0
  0
LINE
  5
232
330
1F
100
AcDbEntity
  8
0
  6
Continuous
 62
     7
370
    15
100
AcDbLine
 10
682.5551359143
 20
487.0829478576
 30
0.0
 11
667.5551353183
 21
487.0829478576
 31
0.0
  0
LINE
  5
233
330
1F
100
AcDbEntity
  8
0
  6
Continuous
 62
     7
370
    15
100
AcDbLine
 10
667.5551353183
 20
487.0829478576
 30
0.0
 11
667.5551353183
 21
608.082944408
 31
0.0
  0
LINE
  5
234
330
1F
100
AcDbEntity
  8
0
  6
Continuous
 62
     7
370
    15
100
AcDbLine
 10
402.5551347223
 20
507.0829436853
 30
0.0
 11
662.5551251855
 21
507.0829436853
 31
0.0
  0
LINE
  5
235
330
1F
100
AcDbEntity
  8
0
  6
Continuous
 62
     7
370
    15
100
AcDbLine
 10
662.5551251855
 20
603.0829445197
 30
0.0
 11
662.5551251855
 21
507.0829436853
 31
0.0
  0
LINE
  5
236
330
1F
100
AcDbEntity
  8
0
  6
Continuous
 62
     7
370
    15
100
AcDbLine
 10
662.5551251855
 20
603.0829445197
 30
0.0
 11
402.5551347223
 21
603.0829445197
 31
0.0
  0
LINE
  5
237
330
1F
100
AcDbEntity
  8
0
  6
Continuous
 62
     7
370
    15
100
AcDbLine
 10
402.5551347223
 20
507.0829436853
 30
0.0
 11
402.5551347223
 21
603.0829445197
 31
0.0
  0
LINE
  5
238
330
1F
100
AcDbEntity
  8
0
  6
Continuous
 62
     7
370
    15
100
AcDbLine
 10
667.5551353183
 20
487.0829478576
 30
0.0
 11
397.5551245895
 21
487.0829478576
 31
0.0
  0
LINE
  5
239
330
1F
100
AcDbEntity
  8
0
  6
Continuous
 62
     7
370
    15
100
AcDbLine
 10
402.5551347223
 20
483.0829397514
 30
0.0
 11
402.5551347223
 21
487.0829478576
 31
0.0
  0
LINE
  5
23A
330
1F
100
AcDbEntity
  8
0
  6
Continuous
 62
     7
370
    15
100
AcDbLine
 10
387.5551341262
 20
483.0829397514
 30
0.0
 11
387.5551341262
 21
487.0829478576
 31
0.0
  0
LINE
  5
23B
330
1F
100
AcDbEntity
  8
0
  6
Continuous
 62
     7
370
    15
100
AcDbLine
 10
677.5551257816
 20
483.0829397514
 30
0.0
 11
677.5551257816
 21
487.0829478576
 31
0.0
  0
LINE
  5
23C
330
1F
100
AcDbEntity
  8
0
  6
Continuous
 62
     7
370
    15
100
AcDbLine
 10
662.5551251855
 20
483.0829397514
 30
0.0
 11
662.5551251855
 21
487.0829478576
 31
0.0
  0
LINE
  5
23D
330
1F
100
AcDbEntity
  8
0
  6
Continuous
 62
     7
370
    15
100
AcDbLine
 10
682.5551359143
 20
487.0829478576
 30
0.0
 11
683.2224546161
 21
487.0829478576
 31
0.0
  0
ARC
  5
23E
330
1F
100
AcDbEntity
  8
0
  6
Continuous
 62
     7
370
    15
100
AcDbCircle
 10
683.222447702
 20
487.5829440906
 30
0.0
 40
0.50000000000008
100
AcDbArc
 50
270.0
 51
332.720387264
  0
ARC
  5
23F
330
1F
100
AcDbEntity
  8
0
  6
Continuous
 62
     7
370
    15
100
AcDbCircle
 10
688.5551299539
 20
484.8329440906
 30
0.0
 40
5.500000000000155
100
AcDbArc
 50
202.024312837
 51
152.720387264
  0
ARC
  5
240
330
1F
100
AcDbEntity
  8
0
  6
Continuous
 62
     7
370
    15
100
AcDbCircle
 10
682.9929810886
 20
482.5829440906
 30
0.0
 40
0.5000000000000568
100
AcDbArc
 50
22.0243128371
 51
90.0
  0
LINE
  5
241
330
1F
100
AcDbEntity
  8
0
  6
Continuous
 62
     7
370
    15
100
AcDbLine
 10
682.9929767337
 20
483.0829397514
 30
0.0
 11
682.5551359143
 21
483.0829397514
 31
0.0
  0
LINE
  5
242
330
1F
100
AcDbEntity
  8
0
  6
Continuous
 62
     7
370
    15
100
AcDbLine
 10
382.5551239934
 20
508.2829416468
 30
0.0
 11
382.2551338163
 21
508.2829416468
 31
0.0
  0
LINE
  5
243
330
1F
100
AcDbEntity
  8
0
  6
Continuous
 62
     7
370
    15
100
AcDbLine
 10
382.2551338163
 20
506.2829450443
 30
0.0
 11
382.5551239934
 21
506.2840030267
 31
0.0
  0
LINE
  5
244
330
1F
100
AcDbEntity
  8
0
  6
Continuous
 62
     7
370
    15
100
AcDbLine
 10
382.2551338163
 20
506.2829450443
 30
0.0
 11
382.2551338163
 21
508.2829416468
 31
0.0
  0
LINE
  5
245
330
1F
100
AcDbEntity
  8
0
  6
Continuous
 62
     7
370
    15
100
AcDbLine
 10
382.2551338163
 20
500.0829444005
 30
0.0
 11
382.2551338163
 21
506.2829450443
 31
0.0
  0
LINE
  5
246
330
1F
100
AcDbEntity
  8
0
  6
Continuous
 62
     7
370
    15
100
AcDbLine
 10
382.5551239934
 20
500.0829444005
 30
0.0
 11
382.2551338163
 21
500.0829444005
 31
0.0
  0
ARC
  5
247
330
1F
100
AcDbEntity
  8
0
  6
Continuous
 62
     7
370
    15
100
AcDbCircle
 10
377.3551299539
 20
503.1829440906
 30
0.0
 40
3.100000000000013
100
AcDbArc
 50
192.3149210922
 51
270.0
  0
LINE
  5
248
330
1F
100
AcDbEntity
  8
0
  6
Continuous
 62
     7
370
    15
100
AcDbLine
 10
382.2551338163
 20
506.2829450443
 30
0.0
 11
381.0551284042
 21
506.2829450443
 31
0.0
  0
LINE
  5
249
330
1F
100
AcDbEntity
  8
0
  6
Continuous
 62
     7
370
    15
100
AcDbLine
 10
377.3551253762
 20
500.0829444005
 30
0.0
 11
377.6652632442
 21
500.0829444005
 31
0.0
  0
LINE
  5
24A
330
1F
100
AcDbEntity
  8
0
  6
Continuous
 62
     7
370
    15
100
AcDbLine
 10
380.6805132117
 20
500.0829444005
 30
0.0
 11
382.2551338163
 21
500.0829444005
 31
0.0
  0
LINE
  5
24B
330
1F
100
AcDbEntity
  8
0
  6
Continuous
 62
     7
370
    15
100
AcDbLine
 10
382.2551338163
 20
508.2829416468
 30
0.0
 11
382.2551338163
 21
532.3329464271
 31
0.0
  0
LINE
  5
24C
330
1F
100
AcDbEntity
  8
0
  6
Continuous
 62
     7
370
    15
100
AcDbLine
 10
382.2551338163
 20
539.0829414799
 30
0.0
 11
382.2551338163
 21
532.3329464271
 31
0.0
  0
LINE
  5
24D
330
1F
100
AcDbEntity
  8
0
  6
Continuous
 62
     7
370
    15
100
AcDbLine
 10
382.1551321235
 20
532.0829421952
 30
0.0
 11
382.1551321235
 21
538.0829469039
 31
0.0
  0
LINE
  5
24E
330
1F
100
AcDbEntity
  8
0
  6
Continuous
 62
     7
370
    15
100
AcDbLine
 10
382.1551321235
 20
509.0829477384
 30
0.0
 11
382.1551321235
 21
515.0829449966
 31
0.0
  0
LINE
  5
24F
330
1F
100
AcDbEntity
  8
0
  6
Continuous
 62
     7
370
    15
100
AcDbLine
 10
382.2551338163
 20
523.0829463079
 30
0.0
 11
381.0551284042
 21
523.4044835641
 31
0.0
  0
LINE
  5
250
330
1F
100
AcDbEntity
  8
0
  6
Continuous
 62
     7
370
    15
100
AcDbLine
 10
381.0551284042
 20
524.4397566392
 30
0.0
 11
382.2551338163
 21
524.118219383
 31
0.0
  0
LINE
  5
251
330
1F
100
AcDbEntity
  8
0
  6
Continuous
 62
     8
370
    15
100
AcDbLine
 10
382.5551239934
 20
532.3329464271
 30
0.0
 11
382.2551338163
 21
532.3329464271
 31
0.0
  0
ENDSEC
  0
SECTION
  2
OBJECTS
  0
DICTIONARY
  5
C
330
0
100
AcDbDictionary
281
     1
  3
ACAD_GROUP
350
D
  3
ACAD_LAYOUT
350
1A
  3
ACAD_MLINESTYLE
350
17
  3
ACAD_PLOTSETTINGS
350
19
  3
ACAD_PLOTSTYLENAME
350
E
  0
DICTIONARY
  5
D
102
{ACAD_REACTORS
330
C
102
}
330
C
100
AcDbDictionary
281
     1
  0
DICTIONARY
  5
1A
102
{ACAD_REACTORS
330
C
102
}
330
C
100
AcDbDictionary
281
     1
  3
Layout1
350
1E
  3
Layout2
350
26
  3
Model
350
22
  0
DICTIONARY
  5
17
102
{ACAD_REACTORS
330
C
102
}
330
C
100
AcDbDictionary
281
     1
  3
Standard
350
18
  0
DICTIONARY
  5
19
102
{ACAD_REACTORS
330
C
102
}
330
C
100
AcDbDictionary
281
     1
  0
ACDBDICTIONARYWDFLT
  5
E
102
{ACAD_REACTORS
330
C
102
}
330
C
100
AcDbDictionary
281
     1
  3
Normal
350
F
100
AcDbDictionaryWithDefault
340
F
  0
LAYOUT
  5
1E
102
{ACAD_REACTORS
330
1A
102
}
330
1A
100
AcDbPlotSettings
  1

  2
none_device
  4

  6

 40
0.0
 41
0.0
 42
0.0
 43
0.0
 44
0.0
 45
0.0
 46
0.0
 47
0.0
 48
0.0
 49
0.0
140
0.0
141
0.0
142
1.0
143
1.0
 70
   688
 72
     0
 73
     0
 74
     5
  7

 75
    16
147
1.0
148
0.0
149
0.0
100
AcDbLayout
  1
Layout1
 70
     1
 71
     1
 10
0.0
 20
0.0
 11
420.0
 21
297.0
 12
0.0
 22
0.0
 32
0.0
 14
1.0000000000E+20
 24
1.0000000000E+20
 34
1.0000000000E+20
 15
-1.0000000000E+20
 25
-1.0000000000E+20
 35
-1.0000000000E+20
146
0.0
 13
0.0
 23
0.0
 33
0.0
 16
1.0
 26
0.0
 36
0.0
 17
0.0
 27
1.0
 37
0.0
 76
     0
330
1B
  0
LAYOUT
  5
26
102
{ACAD_REACTORS
330
1A
102
}
330
1A
100
AcDbPlotSettings
  1

  2
none_device
  4

  6

 40
0.0
 41
0.0
 42
0.0
 43
0.0
 44
0.0
 45
0.0
 46
0.0
 47
0.0
 48
0.0
 49
0.0
140
0.0
141
0.0
142
1.0
143
1.0
 70
   688
 72
     0
 73
     0
 74
     5
  7

 75
    16
147
1.0
148
0.0
149
0.0
100
AcDbLayout
  1
Layout2
 70
     1
 71
     2
 10
0.0
 20
0.0
 11
0.0
 21
0.0
 12
0.0
 22
0.0
 32
0.0
 14
0.0
 24
0.0
 34
0.0
 15
0.0
 25
0.0
 35
0.0
146
0.0
 13
0.0
 23
0.0
 33
0.0
 16
1.0
 26
0.0
 36
0.0
 17
0.0
 27
1.0
 37
0.0
 76
     0
330
23
  0
LAYOUT
  5
22
102
{ACAD_REACTORS
330
1A
102
}
330
1A
100
AcDbPlotSettings
  1

  2
none_device
  4

  6

 40
0.0
 41
0.0
 42
0.0
 43
0.0
 44
0.0
 45
0.0
 46
0.0
 47
0.0
 48
0.0
 49
0.0
140
0.0
141
0.0
142
1.0
143
1.0
 70
  1712
 72
     0
 73
     0
 74
     0
  7

 75
     0
147
1.0
148
0.0
149
0.0
100
AcDbLayout
  1
Model
 70
     1
 71
     0
 10
0.0
 20
0.0
 11
840.0
 21
594.0
 12
0.0
 22
0.0
 32
0.0
 14
0.0
 24
0.0
 34
0.0
 15
840.0
 25
594.0
 35
0.0
146
0.0
 13
0.0
 23
0.0
 33
0.0
 16
1.0
 26
0.0
 36
0.0
 17
0.0
 27
1.0
 37
0.0
 76
     0
330
1F
331
29
  0
MLINESTYLE
  5
18
102
{ACAD_REACTORS
330
17
102
}
330
17
100
AcDbMlineStyle
  2
Standard
 70
     0
  3

 62
   256
 51
90.0
 52
90.0
 71
     2
 49
0.5
 62
   256
  6
BYLAYER
 49
-0.5
 62
   256
  6
BYLAYER
  0
ACDBPLACEHOLDER
  5
F
102
{ACAD_REACTORS
330
E
102
}
330
E
  0
ENDSEC
  0
EOF
