  0
SECTION
  2
HEADER
  9
$ACADVER
  1
AC1015
  9
$ACADMAINTVER
 70
     6
  9
$DWGCODEPAGE
  3
DOS932
  9
$INSBASE
 10
0.0
 20
0.0
 30
0.0
  9
$EXTMIN
 10
0.0
 20
0.0
 30
0.0
  9
$EXTMAX
 10
840.0
 20
594.0
 30
0.0
  9
$LIMMIN
 10
0.0
 20
0.0
  9
$LIMMAX
 10
840.0
 20
594.0
  9
$ORTHOMODE
 70
     0
  9
$REGENMODE
 70
     1
  9
$FILLMODE
 70
     1
  9
$QTEXTMODE
 70
     0
  9
$MIRRTEXT
 70
     1
  9
$LTSCALE
 40
2.0
  9
$ATTMODE
 70
     1
  9
$TEXTSIZE
 40
7.0
  9
$TRACEWID
 40
1.0
  9
$TEXTSTYLE
  7
Standard
  9
$CLAYER
  8
0
  9
$CELTYPE
  6
ByLayer
  9
$CECOLOR
 62
   256
  9
$CELTSCALE
 40
1.0
  9
$DISPSILH
 70
     0
  9
$DIMSCALE
 40
1.0
  9
$DIMASZ
 40
6.0
  9
$DIMEXO
 40
2.0
  9
$DIMDLI
 40
3.75
  9
$DIMRND
 40
0.0
  9
$DIMDLE
 40
0.0
  9
$DIMEXE
 40
2.0
  9
$DIMTP
 40
0.0
  9
$DIMTM
 40
0.0
  9
$DIMTXT
 40
7.0
  9
$DIMCEN
 40
2.5
  9
$DIMTSZ
 40
0.0
  9
$DIMTOL
 70
     0
  9
$DIMLIM
 70
     0
  9
$DIMTIH
 70
     1
  9
$DIMTOH
 70
     1
  9
$DIMSE1
 70
     0
  9
$DIMSE2
 70
     0
  9
$DIMTAD
 70
     1
  9
$DIMZIN
 70
     0
  9
$DIMBLK
  1

  9
$DIMASO
 70
     1
  9
$DIMSHO
 70
     1
  9
$DIMPOST
  1

  9
$DIMAPOST
  1

  9
$DIMALT
 70
     0
  9
$DIMALTD
 70
     3
  9
$DIMALTF
 40
0.0393700787
  9
$DIMLFAC
 40
1.0
  9
$DIMTOFL
 70
     1
  9
$DIMTVP
 40
0.0
  9
$DIMTIX
 70
     0
  9
$DIMSOXD
 70
     0
  9
$DIMSAH
 70
     0
  9
$DIMBLK1
  1

  9
$DIMBLK2
  1

  9
$DIMSTYLE
  2
ISO-25
  9
$DIMCLRD
 70
     0
  9
$DIMCLRE
 70
     0
  9
$DIMCLRT
 70
     0
  9
$DIMTFAC
 40
1.0
  9
$DIMGAP
 40
3.048
  9
$DIMJUST
 70
     0
  9
$DIMSD1
 70
     0
  9
$DIMSD2
 70
     0
  9
$DIMTOLJ
 70
     0
  9
$DIMTZIN
 70
     0
  9
$DIMALTZ
 70
     0
  9
$DIMALTTZ
 70
     0
  9
$DIMUPT
 70
     0
  9
$DIMDEC
 70
     1
  9
$DIMTDEC
 70
     1
  9
$DIMALTU
 70
     2
  9
$DIMALTTD
 70
     3
  9
$DIMTXSTY
  7
Standard
  9
$DIMAUNIT
 70
     0
  9
$DIMADEC
 70
     2
  9
$DIMALTRND
 40
0.0
  9
$DIMAZIN
 70
     0
  9
$DIMDSEP
 70
    44
  9
$DIMATFIT
 70
     3
  9
$DIMFRAC
 70
     0
  9
$DIMLDRBLK
  1

  9
$DIMLUNIT
 70
     2
  9
$DIMLWD
 70
    -2
  9
$DIMLWE
 70
    -2
  9
$DIMTMOVE
 70
     0
  9
$LUNITS
 70
     2
  9
$LUPREC
 70
     1
  9
$SKETCHINC
 40
1.0
  9
$FILLETRAD
 40
10.0
  9
$AUNITS
 70
     0
  9
$AUPREC
 70
     2
  9
$MENU
  1
.
  9
$ELEVATION
 40
0.0
  9
$PELEVATION
 40
0.0
  9
$THICKNESS
 40
0.0
  9
$LIMCHECK
 70
     0
  9
$CHAMFERA
 40
10.0
  9
$CHAMFERB
 40
10.0
  9
$CHAMFERC
 40
20.0
  9
$CHAMFERD
 40
0.0
  9
$SKPOLY
 70
     0
  9
$TDCREATE
 40
2460440.673013438
  9
$TDUCREATE
 40
2460440.298013438
  9
$TDUPDATE
 40
2460440.673013449
  9
$TDUUPDATE
 40
2460440.298013449
  9
$TDINDWG
 40
0.0000000116
  9
$TDUSRTIMER
 40
0.0000000116
  9
$USRTIMER
 70
     1
  9
$ANGBASE
 50
0.0
  9
$ANGDIR
 70
     0
  9
$PDMODE
 70
     0
  9
$PDSIZE
 40
-1.0
  9
$PLINEWID
 40
0.0
  9
$SPLFRAME
 70
     0
  9
$SPLINETYPE
 70
     6
  9
$SPLINESEGS
 70
     8
  9
$HANDSEED
  5
253
  9
$SURFTAB1
 70
     6
  9
$SURFTAB2
 70
     6
  9
$SURFTYPE
 70
     6
  9
$SURFU
 70
     6
  9
$SURFV
 70
     6
  9
$UCSBASE
  2

  9
$UCSNAME
  2

  9
$UCSORG
 10
0.0
 20
0.0
 30
0.0
  9
$UCSXDIR
 10
1.0
 20
0.0
 30
0.0
  9
$UCSYDIR
 10
0.0
 20
1.0
 30
0.0
  9
$UCSORTHOREF
  2

  9
$UCSORTHOVIEW
 70
     0
  9
$UCSORGTOP
 10
0.0
 20
0.0
 30
0.0
  9
$UCSORGBOTTOM
 10
0.0
 20
0.0
 30
0.0
  9
$UCSORGLEFT
 10
0.0
 20
0.0
 30
0.0
  9
$UCSORGRIGHT
 10
0.0
 20
0.0
 30
0.0
  9
$UCSORGFRONT
 10
0.0
 20
0.0
 30
0.0
  9
$UCSORGBACK
 10
0.0
 20
0.0
 30
0.0
  9
$PUCSBASE
  2

  9
$PUCSNAME
  2

  9
$PUCSORG
 10
0.0
 20
0.0
 30
0.0
  9
$PUCSXDIR
 10
1.0
 20
0.0
 30
0.0
  9
$PUCSYDIR
 10
0.0
 20
1.0
 30
0.0
  9
$PUCSORTHOREF
  2

  9
$PUCSORTHOVIEW
 70
     0
  9
$PUCSORGTOP
 10
0.0
 20
0.0
 30
0.0
  9
$PUCSORGBOTTOM
 10
0.0
 20
0.0
 30
0.0
  9
$PUCSORGLEFT
 10
0.0
 20
0.0
 30
0.0
  9
$PUCSORGRIGHT
 10
0.0
 20
0.0
 30
0.0
  9
$PUCSORGFRONT
 10
0.0
 20
0.0
 30
0.0
  9
$PUCSORGBACK
 10
0.0
 20
0.0
 30
0.0
  9
$USERI1
 70
     0
  9
$USERI2
 70
     0
  9
$USERI3
 70
     0
  9
$USERI4
 70
     0
  9
$USERI5
 70
     0
  9
$USERR1
 40
0.0
  9
$USERR2
 40
0.0
  9
$USERR3
 40
0.0
  9
$USERR4
 40
0.0
  9
$USERR5
 40
0.0
  9
$WORLDVIEW
 70
     1
  9
$SHADEDGE
 70
     3
  9
$SHADEDIF
 70
    70
  9
$TILEMODE
 70
     1
  9
$MAXACTVP
 70
    64
  9
$PINSBASE
 10
0.0
 20
0.0
 30
0.0
  9
$PLIMCHECK
 70
     0
  9
$PEXTMIN
 10
1.0000000000E+20
 20
1.0000000000E+20
 30
1.0000000000E+20
  9
$PEXTMAX
 10
-1.0000000000E+20
 20
-1.0000000000E+20
 30
-1.0000000000E+20
  9
$PLIMMIN
 10
0.0
 20
0.0
  9
$PLIMMAX
 10
420.0
 20
297.0
  9
$UNITMODE
 70
     0
  9
$VISRETAIN
 70
     1
  9
$PLINEGEN
 70
     0
  9
$PSLTSCALE
 70
     1
  9
$TREEDEPTH
 70
  3020
  9
$CMLSTYLE
  2
Standard
  9
$CMLJUST
 70
     0
  9
$CMLSCALE
 40
20.0
  9
$PROXYGRAPHICS
 70
     1
  9
$MEASUREMENT
 70
     1
  9
$CELWEIGHT
370
    -1
  9
$ENDCAPS
280
     0
  9
$JOINSTYLE
280
     0
  9
$LWDISPLAY
290
     1
  9
$INSUNITS
 70
     4
  9
$HYPERLINKBASE
  1

  9
$STYLESHEET
  1

  9
$XEDIT
290
     1
  9
$CEPSNTYPE
380
     0
  9
$PSTYLEMODE
290
     1
  9
$FINGERPRINTGUID
  2
{E301B36A-8816-423B-A3FB-DA844639D6CA}
  9
$VERSIONGUID
  2
{FAEB1C32-E019-11D5-929B-00C0DF256EC4}
  9
$EXTNAMES
290
     1
  9
$PSVPSCALE
 40
0.0
  9
$OLESTARTUP
290
     0
  0
ENDSEC
  0
SECTION
  2
CLASSES
  0
CLASS
  1
ACDBDICTIONARYWDFLT
  2
AcDbDictionaryWithDefault
  3
ObjectDBX Classes
 90
        0
280
     0
281
     0
  0
CLASS
  1
VISUALSTYLE
  2
AcDbVisualStyle
  3
ObjectDBX Classes
 90
     4095
280
     0
281
     0
  0
CLASS
  1
MATERIAL
  2
AcDbMaterial
  3
ObjectDBX Classes
 90
     1153
280
     0
281
     0
  0
CLASS
  1
ACDBPLACEHOLDER
  2
AcDbPlaceHolder
  3
ObjectDBX Classes
 90
        0
280
     0
281
     0
  0
CLASS
  1
LAYOUT
  2
AcDbLayout
  3
ObjectDBX Classes
 90
        0
280
     0
281
     0
  0
ENDSEC
  0
SECTION
  2
TABLES
  0
TABLE
  2
VPORT
  5
8
330
0
100
AcDbSymbolTable
 70
     1
  0
VPORT
  5
29
330
8
100
AcDbSymbolTableRecord
100
AcDbViewportTableRecord
  2
*Active
 70
     0
 10
0.0
 20
0.0
 11
1.0
 21
1.0
 12
420.0
 22
297.0
 13
0.0
 23
0.0
 14
10.0
 24
10.0
 15
10.0
 25
10.0
 16
0.0
 26
0.0
 36
1.0
 17
0.0
 27
0.0
 37
0.0
 40
594.0
 41
1.4141414141
 42
50.0
 43
0.0
 44
0.0
 50
0.0
 51
0.0
 71
     0
 72
  2000
 73
     1
 74
     3
 75
     0
 76
     0
 77
     0
 78
     0
281
     0
 65
     1
110
0.0
120
0.0
130
0.0
111
1.0
121
0.0
131
0.0
112
0.0
122
1.0
132
0.0
 79
     0
146
0.0
  0
ENDTAB
  0
TABLE
  2
LTYPE
  5
5
330
0
100
AcDbSymbolTable
 70
     6
  0
LTYPE
  5
14
330
5
100
AcDbSymbolTableRecord
100
AcDbLinetypeTableRecord
  2
ByBlock
 70
     0
  3

 72
    65
 73
     0
 40
0.0
  0
LTYPE
  5
15
330
5
100
AcDbSymbolTableRecord
100
AcDbLinetypeTableRecord
  2
ByLayer
 70
     0
  3

 72
    65
 73
     0
 40
0.0
  0
LTYPE
  5
16
330
5
100
AcDbSymbolTableRecord
100
AcDbLinetypeTableRecord
  2
Continuous
 70
     0
  3
Solid line
 72
    65
 73
     0
 40
0.0
  0
LTYPE
  5
3F
330
5
100
AcDbSymbolTableRecord
100
AcDbLinetypeTableRecord
  2
HIDDEN
 70
     0
  3
Hidden __ __ __ __ __ __ __ __ __ __ __ __ __ __
 72
    65
 73
     2
 40
1.905
 49
1.27
 74
     0
 49
-0.635
 74
     0
  0
LTYPE
  5
40
330
5
100
AcDbSymbolTableRecord
100
AcDbLinetypeTableRecord
  2
PHANTOM
 70
     0
  3
Phantom ______  __  __  ______  __  __  ______
 72
    65
 73
     6
 40
12.7
 49
6.35
 74
     0
 49
-1.27
 74
     0
 49
1.27
 74
     0
 49
-1.27
 74
     0
 49
1.27
 74
     0
 49
-1.27
 74
     0
  0
LTYPE
  5
41
330
5
100
AcDbSymbolTableRecord
100
AcDbLinetypeTableRecord
  2
CENTER
 70
     0
  3
Center ____ _ ____ _ ____ _ ____ _ ____ _ ____
 72
    65
 73
     4
 40
10.16
 49
6.35
 74
     0
 49
-1.27
 74
     0
 49
1.27
 74
     0
 49
-1.27
 74
     0
  0
LTYPE
  5
42
330
5
100
AcDbSymbolTableRecord
100
AcDbLinetypeTableRecord
  2
CENTERX2
 70
     0
  3
Center (2x) ________  __  ________  __  _____
 72
    65
 73
     4
 40
20.32
 49
12.7
 74
     0
 49
-2.54
 74
     0
 49
2.54
 74
     0
 49
-2.54
 74
     0
  0
LTYPE
  5
43
330
5
100
AcDbSymbolTableRecord
100
AcDbLinetypeTableRecord
  2
DOT2
 70
     0
  3
Dot (.5x) ........................................
 72
    65
 73
     2
 40
0.635
 49
0.0
 74
     0
 49
-0.635
 74
     0
  0
ENDTAB
  0
TABLE
  2
LAYER
  5
2
330
0
100
AcDbSymbolTable
 70
     1
  0
LAYER
  5
10
330
2
100
AcDbSymbolTableRecord
100
AcDbLayerTableRecord
  2
0
 70
     0
 62
     7
  6
Continuous
370
    -3
390
F
  0
ENDTAB
  0
TABLE
  2
STYLE
  5
3
330
0
100
AcDbSymbolTable
 70
     2
  0
STYLE
  5
11
330
3
100
AcDbSymbolTableRecord
100
AcDbTextStyleTableRecord
  2
Standard
 70
     0
 40
0.0
 41
1.0
 50
0.0
 71
     0
 42
2.5
  3
txt
  4
bigfont
  0
STYLE
  5
44
330
3
100
AcDbSymbolTableRecord
100
AcDbTextStyleTableRecord
  2
SLDTEXTSTYLE0
 70
     0
 40
0.0
 41
0.7
 50
0.0
 71
     0
 42
0.2
  3
TXT
  4
bigfont
  0
ENDTAB
  0
TABLE
  2
VIEW
  5
6
330
0
100
AcDbSymbolTable
 70
     0
  0
ENDTAB
  0
TABLE
  2
UCS
  5
7
330
0
100
AcDbSymbolTable
 70
     0
  0
ENDTAB
  0
TABLE
  2
APPID
  5
9
330
0
100
AcDbSymbolTable
 70
     1
  0
APPID
  5
12
330
9
100
AcDbSymbolTableRecord
100
AcDbRegAppTableRecord
  2
ACAD
 70
     0
  0
ENDTAB
  0
TABLE
  2
DIMSTYLE
  5
A
330
0
100
AcDbSymbolTable
 70
     1
100
AcDbDimStyleTable
  0
DIMSTYLE
105
27
330
A
100
AcDbSymbolTableRecord
100
AcDbDimStyleTableRecord
  2
ISO-25
 70
     0
 41
2.5
 42
0.625
 43
3.75
 44
1.25
 73
     0
 74
     0
 77
     1
 78
     8
140
2.5
141
2.5
143
0.0393700787
147
0.625
171
     3
172
     1
178
     0
271
     2
272
     2
274
     3
278
    44
283
     0
284
     8
340
11
  0
ENDTAB
  0
TABLE
  2
BLOCK_RECORD
  5
1
330
0
100
AcDbSymbolTable
 70
     1
  0
BLOCK_RECORD
  5
1F
330
1
100
AcDbSymbolTableRecord
100
AcDbBlockTableRecord
  2
*Model_Space
340
22
  0
BLOCK_RECORD
  5
1B
330
1
100
AcDbSymbolTableRecord
100
AcDbBlockTableRecord
  2
*Paper_Space
340
1E
  0
BLOCK_RECORD
  5
23
330
1
100
AcDbSymbolTableRecord
100
AcDbBlockTableRecord
  2
*Paper_Space0
340
26
  0
ENDTAB
  0
ENDSEC
  0
SECTION
  2
BLOCKS
  0
BLOCK
  5
20
330
1F
100
AcDbEntity
  8
0
100
AcDbBlockBegin
  2
*Model_Space
 70
     0
 10
0.0
 20
0.0
 30
0.0
  3
*Model_Space
  1

  0
ENDBLK
  5
21
330
1F
100
AcDbEntity
  8
0
100
AcDbBlockEnd
  0
BLOCK
  5
1C
330
1B
100
AcDbEntity
 67
     1
  8
0
100
AcDbBlockBegin
  2
*Paper_Space
 70
     0
 10
0.0
 20
0.0
 30
0.0
  3
*Paper_Space
  1

  0
ENDBLK
  5
1D
330
1B
100
AcDbEntity
 67
     1
  8
0
100
AcDbBlockEnd
  0
BLOCK
  5
24
330
23
100
AcDbEntity
  8
0
100
AcDbBlockBegin
  2
*Paper_Space0
 70
     0
 10
0.0
 20
0.0
 30
0.0
  3
*Paper_Space0
  1

  0
ENDBLK
  5
25
330
23
100
AcDbEntity
  8
0
100
AcDbBlockEnd
  0
ENDSEC
  0
SECTION
  2
ENTITIES
  0
MTEXT
  5
45
330
1F
100
AcDbEntity
  8
0
  6
Continuous
 62
     7
370
     0
100
AcDbMText
 10
184.8653927813
 20
522.0598506041
 30
0.0
 40
7.0
 41
0.0
 71
     1
 72
     1
  1
CHB-505N
  7
SLDTEXTSTYLE0
 73
     1
 44
1.0
  0
LINE
  5
46
330
1F
100
AcDbEntity
  8
0
  6
Continuous
 62
     7
370
    15
100
AcDbLine
 10
423.3482669631
 20
238.2887474411
 30
0.0
 11
423.4482686559
 21
238.2887474411
 31
0.0
  0
LINE
  5
47
330
1F
100
AcDbEntity
  8
0
  6
Continuous
 62
     7
370
    15
100
AcDbLine
 10
423.4482686559
 20
244.2887477261
 30
0.0
 11
423.3482669631
 21
244.2887477261
 31
0.0
  0
LINE
  5
48
330
1F
100
AcDbEntity
  8
0
  6
Continuous
 62
     7
370
    15
100
AcDbLine
 10
423.3482669631
 20
228.2887469661
 30
0.0
 11
423.4482686559
 21
228.2887469661
 31
0.0
  0
LINE
  5
49
330
1F
100
AcDbEntity
  8
0
  6
Continuous
 62
     7
370
    15
100
AcDbLine
 10
423.4482686559
 20
234.2887472511
 30
0.0
 11
423.3482669631
 21
234.2887472511
 31
0.0
  0
LINE
  5
4A
330
1F
100
AcDbEntity
  8
0
  6
Continuous
 62
     7
370
    15
100
AcDbLine
 10
424.6482591668
 20
247.7887473684
 30
0.0
 11
423.4482686559
 21
247.7887473684
 31
0.0
  0
LINE
  5
4B
330
1F
100
AcDbEntity
  8
0
  6
Continuous
 62
     7
370
    15
100
AcDbLine
 10
423.4482686559
 20
224.7887473237
 30
0.0
 11
424.6482591668
 21
224.7887473237
 31
0.0
  0
LINE
  5
4C
330
1F
100
AcDbEntity
  8
0
  6
Continuous
 62
     7
370
    15
100
AcDbLine
 10
736.1482720414
 20
345.2887447235
 30
0.0
 11
736.1482720414
 21
380.2887411472
 31
0.0
  0
LINE
  5
4D
330
1F
100
AcDbEntity
  8
0
  6
Continuous
 62
     7
370
    15
100
AcDbLine
 10
736.1482720414
 20
92.288753545
 30
0.0
 11
736.1482720414
 21
127.2887499687
 31
0.0
  0
SPLINE
  5
4E
330
1F
100
AcDbEntity
  8
0
  6
Continuous
 62
     7
370
    15
100
AcDbSpline
210
0.0
220
0.0
230
1.0
 70
     8
 71
     3
 72
    11
 73
     7
 74
     0
 42
0.00000001
 43
0.00000001
 40
0.0
 40
0.0
 40
0.0
 40
0.0
 40
0.2262212516214751
 40
0.4679441910674981
 40
0.7254890426979009
 40
1.0
 40
1.0
 40
1.0
 40
1.0
 10
420.9687750378528
 20
244.519182076721
 30
0.0
 10
420.9716021373655
 20
244.4962831348059
 30
0.0
 10
420.9774500618421
 20
244.4489161134763
 30
0.0
 10
420.9942100309916
 20
244.1241255917396
 30
0.0
 10
421.007811235912
 20
243.623640536191
 30
0.0
 10
421.0083452312432
 20
243.1998134383102
 30
0.0
 10
421.0086207428852
 20
242.9811424259529
 30
0.0
  0
SPLINE
  5
4F
330
1F
100
AcDbEntity
  8
0
  6
Continuous
 62
     7
370
    15
100
AcDbSpline
210
0.0
220
0.0
230
1.0
 70
     8
 71
     3
 72
    12
 73
     8
 74
     0
 42
0.00000001
 43
0.00000001
 40
0.0
 40
0.0
 40
0.0
 40
0.0
 40
0.2489445739028115
 40
0.4822862098310756
 40
0.6998114639483098
 40
0.9035368778110593
 40
1.0
 40
1.0
 40
1.0
 40
1.0
 10
421.0086207428851
 20
229.4225115944133
 30
0.0
 10
421.0071948963677
 20
229.2851780755198
 30
0.0
 10
421.0044325701924
 20
229.0191186018326
 30
0.0
 10
420.9935313463467
 20
228.6833030491856
 30
0.0
 10
420.9910211919866
 20
228.4501369910193
 30
0.0
 10
420.9958103342801
 20
228.3300278887586
 30
0.0
 10
421.0222408400141
 20
228.3286816241703
 30
0.0
 10
421.0307340660968
 20
228.3282490130947
 30
0.0
  0
LINE
  5
50
330
1F
100
AcDbEntity
  8
0
  6
Continuous
 62
     7
370
    15
100
AcDbLine
 10
421.0077713767
 20
243.031142341
 30
0.0
 11
421.0077713767
 21
229.3725116793
 31
0.0
  0
LINE
  5
51
330
1F
100
AcDbEntity
  8
0
  6
Continuous
 62
     7
370
    15
100
AcDbLine
 10
419.4841574469
 20
246.9690307659
 30
0.0
 11
420.9715168515
 21
244.4888833594
 31
0.0
  0
LINE
  5
52
330
1F
100
AcDbEntity
  8
0
  6
Continuous
 62
     7
370
    15
100
AcDbLine
 10
423.4482686559
 20
246.1919929516
 30
0.0
 11
422.0569770375
 21
248.5119566005
 31
0.0
  0
LINE
  5
53
330
1F
100
AcDbEntity
  8
0
  6
Continuous
 62
     7
370
    15
100
AcDbLine
 10
421.0360090772
 20
228.1961632576
 30
0.0
 11
419.4669317046
 21
225.5797447321
 31
0.0
  0
LINE
  5
54
330
1F
100
AcDbEntity
  8
0
  6
Continuous
 62
     7
370
    15
100
AcDbLine
 10
422.0397512952
 20
224.0368188974
 30
0.0
 11
423.4482686559
 21
226.3855017405
 31
0.0
  0
LINE
  5
55
330
1F
100
AcDbEntity
  8
0
  6
Continuous
 62
     7
370
    15
100
AcDbLine
 10
422.0768700877
 20
248.4764480647
 30
0.0
 11
421.9869117776
 21
248.5902351942
 31
0.0
  0
SPLINE
  5
56
330
1F
100
AcDbEntity
  8
0
  6
Continuous
 62
     7
370
    15
100
AcDbSpline
210
0.0
220
0.0
230
1.0
 70
     8
 71
     3
 72
    20
 73
    16
 74
     0
 42
0.00000001
 43
0.00000001
 40
0.0
 40
0.0
 40
0.0
 40
0.0
 40
0.0337795050543948
 40
0.1101051841529493
 40
0.1739290285231793
 40
0.2252746548070327
 40
0.2665370945345786
 40
0.3037733232441076
 40
0.3388589253082213
 40
0.3726389058879608
 40
0.4139176362643257
 40
0.6259827951436343
 40
0.8390272748670135
 40
0.9659462426554039
 40
0.9999999999999999
 40
0.9999999999999999
 40
0.9999999999999999
 40
0.9999999999999999
 10
421.8746017256656
 20
248.7323047277019
 30
0.0
 10
421.8339465719
 20
248.788490221105
 30
0.0
 10
421.7014300301413
 20
248.9716283129125
 30
0.0
 10
421.3915540066272
 20
249.1488047437322
 30
0.0
 10
421.0042871539548
 20
249.2717610911681
 30
0.0
 10
420.6344363329857
 20
249.2865491358498
 30
0.0
 10
420.3001203977754
 20
249.2359609126972
 30
0.0
 10
420.0256441309321
 20
249.1349058661314
 30
0.0
 10
419.7981298432135
 20
249.0002011233059
 30
0.0
 10
419.5921139498334
 20
248.8240115124367
 30
0.0
 10
419.2475447265891
 20
248.3815338810967
 30
0.0
 10
419.066496844393
 20
247.6948500606056
 30
0.0
 10
418.9166822061973
 20
246.5140187207138
 30
0.0
 10
418.8615644768009
 20
245.6093752601234
 30
0.0
 10
418.8550029096403
 20
245.1947873323569
 30
0.0
 10
418.8536148110309
 20
245.1070813145921
 30
0.0
  0
SPLINE
  5
57
330
1F
100
AcDbEntity
  8
0
  6
Continuous
 62
     7
370
    15
100
AcDbSpline
210
0.0
220
0.0
230
1.0
 70
     8
 71
     3
 72
    19
 73
    15
 74
     0
 42
0.00000001
 43
0.00000001
 40
0.0
 40
0.0
 40
0.0
 40
0.0
 40
0.0102737053477949
 40
0.1295968921188889
 40
0.3268122850643485
 40
0.5525085230171803
 40
0.5858532753149814
 40
0.6186007963878319
 40
0.6529066586472678
 40
0.6960060375611246
 40
0.7523135488775782
 40
0.822314170160229
 40
0.9054608819237085
 40
1.0
 40
1.0
 40
1.0
 40
1.0
 10
418.8507686892429
 20
227.4887473937557
 30
0.0
 10
418.8510918718786
 20
227.4615484238056
 30
0.0
 10
418.855168635203
 20
227.1184490399868
 30
0.0
 10
418.8949561324664
 20
226.2984595477502
 30
0.0
 10
419.0299523156107
 20
225.07602598134
 30
0.0
 10
419.1203330524994
 20
224.4326712021989
 30
0.0
 10
419.4712322683641
 20
223.8925676171815
 30
0.0
 10
419.6404525702677
 20
223.7047211336704
 30
0.0
 10
419.8771709896379
 20
223.5282491741056
 30
0.0
 10
420.1907924551817
 20
223.3747640340941
 30
0.0
 10
420.5942856901563
 20
223.2729846545992
 30
0.0
 10
421.0801388969773
 20
223.2961452966667
 30
0.0
 10
421.6099061588989
 20
223.506468907863
 30
0.0
 10
421.8751253459771
 20
223.8282882860281
 30
0.0
 10
422.0162372628131
 20
223.9995147716687
 30
0.0
  0
LINE
  5
58
330
1F
100
AcDbEntity
  8
0
  6
Continuous
 62
     7
370
    15
100
AcDbLine
 10
415.5434559623
 20
240.1887472403
 30
0.0
 11
415.5434559623
 21
231.5887474139
 31
0.0
  0
LINE
  5
59
330
1F
100
AcDbEntity
  8
0
  6
Continuous
 62
     7
370
    15
100
AcDbLine
 10
416.1482642928
 20
244.288493475
 30
0.0
 11
416.1482642928
 21
243.4887472224
 31
0.0
  0
LINE
  5
5A
330
1F
100
AcDbEntity
  8
0
  6
Continuous
 62
     7
370
    15
100
AcDbLine
 10
416.1482642928
 20
229.0887474698
 30
0.0
 11
416.1482642928
 21
228.2890012172
 31
0.0
  0
ARC
  5
5B
330
1F
100
AcDbEntity
  8
0
  6
Continuous
 62
     7
370
    15
100
AcDbCircle
 10
419.7482651273
 20
241.481604489
 30
0.0
 40
3.807142857143215
100
AcDbArc
 50
77.9663271603
 51
90.0
  0
ARC
  5
5C
330
1F
100
AcDbEntity
  8
0
  6
Continuous
 62
     7
370
    15
100
AcDbCircle
 10
419.7482651273
 20
241.481604489
 30
0.0
 40
3.807142857143191
100
AcDbArc
 50
90.0
 51
125.3002484399
  0
LINE
  5
5D
330
1F
100
AcDbEntity
  8
0
  6
Continuous
 62
     7
370
    15
100
AcDbLine
 10
417.5482581893
 20
244.5887472164
 30
0.0
 11
417.5482581893
 21
244.2887477261
 31
0.0
  0
LINE
  5
5E
330
1F
100
AcDbEntity
  8
0
  6
Continuous
 62
     7
370
    15
100
AcDbLine
 10
417.6482598821
 20
227.8887476456
 30
0.0
 11
417.6482598821
 21
227.4887473938
 31
0.0
  0
ARC
  5
5F
330
1F
100
AcDbEntity
  8
0
  6
Continuous
 62
     7
370
    15
100
AcDbCircle
 10
417.8482651273
 20
228.2887473461
 30
0.0
 40
0.4000000000008299
100
AcDbArc
 50
270.0
 51
0.0
  0
LINE
  5
60
330
1F
100
AcDbEntity
  8
0
  6
Continuous
 62
     7
370
    15
100
AcDbLine
 10
418.2482700387
 20
243.4887472224
 30
0.0
 11
418.2482700387
 21
243.0387475212
 31
0.0
  0
LINE
  5
61
330
1F
100
AcDbEntity
  8
0
  6
Continuous
 62
     7
370
    15
100
AcDbLine
 10
418.2482700387
 20
229.538747171
 30
0.0
 11
418.2482700387
 21
229.0887474698
 31
0.0
  0
LINE
  5
62
330
1F
100
AcDbEntity
  8
0
  6
Continuous
 62
     7
370
    15
100
AcDbLine
 10
736.1482720414
 20
56.2887401935
 30
0.0
 11
736.1482720414
 21
91.2887515184
 31
0.0
  0
LINE
  5
63
330
1F
100
AcDbEntity
  8
0
  6
Continuous
 62
     7
370
    15
100
AcDbLine
 10
736.1482720414
 20
381.2887431737
 30
0.0
 11
736.1482720414
 21
416.2887544986
 31
0.0
  0
LINE
  5
64
330
1F
100
AcDbEntity
  8
0
  6
Continuous
 62
     7
370
    15
100
AcDbLine
 10
733.1482659617
 20
91.2887515184
 30
0.0
 11
733.1482659617
 21
92.288753545
 31
0.0
  0
LINE
  5
65
330
1F
100
AcDbEntity
  8
0
  6
Continuous
 62
     7
370
    15
100
AcDbLine
 10
733.1482659617
 20
127.2887499687
 30
0.0
 11
733.1482659617
 21
128.2887445447
 31
0.0
  0
LINE
  5
66
330
1F
100
AcDbEntity
  8
0
  6
Continuous
 62
     7
370
    15
100
AcDbLine
 10
728.1482707301
 20
128.2887445447
 30
0.0
 11
728.1482707301
 21
127.2887499687
 31
0.0
  0
LINE
  5
67
330
1F
100
AcDbEntity
  8
0
  6
Continuous
 62
     7
370
    15
100
AcDbLine
 10
728.1482707301
 20
92.288753545
 30
0.0
 11
728.1482707301
 21
91.2887515184
 31
0.0
  0
LINE
  5
68
330
1F
100
AcDbEntity
  8
0
  6
Continuous
 62
     7
370
    15
100
AcDbLine
 10
728.1482707301
 20
381.2887431737
 30
0.0
 11
728.1482707301
 21
380.2887411472
 31
0.0
  0
LINE
  5
69
330
1F
100
AcDbEntity
  8
0
  6
Continuous
 62
     7
370
    15
100
AcDbLine
 10
728.1482707301
 20
345.2887447235
 30
0.0
 11
728.1482707301
 21
344.2887501475
 31
0.0
  0
LINE
  5
6A
330
1F
100
AcDbEntity
  8
0
  6
Continuous
 62
     7
370
    15
100
AcDbLine
 10
733.1482659617
 20
344.2887501475
 30
0.0
 11
733.1482659617
 21
345.2887447235
 31
0.0
  0
LINE
  5
6B
330
1F
100
AcDbEntity
  8
0
  6
Continuous
 62
     7
370
    15
100
AcDbLine
 10
733.1482659617
 20
380.2887411472
 30
0.0
 11
733.1482659617
 21
381.2887431737
 31
0.0
  0
LINE
  5
6C
330
1F
100
AcDbEntity
  8
0
  6
Continuous
 62
     7
370
    15
100
AcDbLine
 10
416.3482676783
 20
243.0387475212
 30
0.0
 11
416.3482676783
 21
242.7459364441
 31
0.0
  0
LINE
  5
6D
330
1F
100
AcDbEntity
  8
0
  6
Continuous
 62
     7
370
    15
100
AcDbLine
 10
416.3482676783
 20
229.8315582481
 30
0.0
 11
416.3482676783
 21
229.538747171
 31
0.0
  0
LINE
  5
6E
330
1F
100
AcDbEntity
  8
0
  6
Continuous
 62
     7
370
    15
100
AcDbLine
 10
439.6482597629
 20
421.2887497303
 30
0.0
 11
439.6482597629
 21
436.2887503263
 31
0.0
  0
LINE
  5
6F
330
1F
100
AcDbEntity
  8
0
  6
Continuous
 62
     7
370
    15
100
AcDbLine
 10
439.6482597629
 20
436.2887503263
 30
0.0
 11
709.6482704917
 21
436.2887503263
 31
0.0
  0
LINE
  5
70
330
1F
100
AcDbEntity
  8
0
  6
Continuous
 62
     7
370
    15
100
AcDbLine
 10
709.6482704917
 20
436.2887503263
 30
0.0
 11
709.6482704917
 21
421.2887497303
 31
0.0
  0
LINE
  5
71
330
1F
100
AcDbEntity
  8
0
  6
Continuous
 62
     7
370
    15
100
AcDbLine
 10
439.6482597629
 20
421.2887497303
 30
0.0
 11
709.6482704917
 21
421.2887497303
 31
0.0
  0
LINE
  5
72
330
1F
100
AcDbEntity
  8
0
  6
Continuous
 62
     7
370
    15
100
AcDbLine
 10
424.6482591668
 20
421.2887497303
 30
0.0
 11
439.6482597629
 21
421.2887497303
 31
0.0
  0
ARC
  5
73
330
1F
100
AcDbEntity
  8
0
  6
Continuous
 62
     7
370
    15
100
AcDbCircle
 10
439.6482651273
 20
421.2887473461
 30
0.0
 40
15.00000000000006
100
AcDbArc
 50
90.0
 51
180.0
  0
ARC
  5
74
330
1F
100
AcDbEntity
  8
0
  6
Continuous
 62
     7
370
    15
100
AcDbCircle
 10
709.6482651273
 20
421.2887473461
 30
0.0
 40
15.00000000000006
100
AcDbArc
 50
0.0
 51
90.0
  0
LINE
  5
75
330
1F
100
AcDbEntity
  8
0
  6
Continuous
 62
     7
370
    15
100
AcDbLine
 10
724.6482710877
 20
421.2887497303
 30
0.0
 11
709.6482704917
 21
421.2887497303
 31
0.0
  0
LINE
  5
76
330
1F
100
AcDbEntity
  8
0
  6
Continuous
 62
     7
370
    15
100
AcDbLine
 10
724.6482710877
 20
51.2887449619
 30
0.0
 11
724.6482710877
 21
421.2887497303
 31
0.0
  0
LINE
  5
77
330
1F
100
AcDbEntity
  8
0
  6
Continuous
 62
     7
370
    15
100
AcDbLine
 10
709.6482704917
 20
51.2887449619
 30
0.0
 11
724.6482710877
 21
51.2887449619
 31
0.0
  0
LINE
  5
78
330
1F
100
AcDbEntity
  8
0
  6
Continuous
 62
     7
370
    15
100
AcDbLine
 10
709.6482704917
 20
51.2887449619
 30
0.0
 11
709.6482704917
 21
421.2887497303
 31
0.0
  0
LINE
  5
79
330
1F
100
AcDbEntity
  8
0
  6
Continuous
 62
     7
370
    15
100
AcDbLine
 10
704.6482603589
 20
56.2887401935
 30
0.0
 11
704.6482603589
 21
416.2887544986
 31
0.0
  0
LINE
  5
7A
330
1F
100
AcDbEntity
  8
0
  6
Continuous
 62
     7
370
    15
100
AcDbLine
 10
704.6482603589
 20
56.2887401935
 30
0.0
 11
444.6482698956
 21
56.2887401935
 31
0.0
  0
LINE
  5
7B
330
1F
100
AcDbEntity
  8
0
  6
Continuous
 62
     7
370
    15
100
AcDbLine
 10
709.6482704917
 20
51.2887449619
 30
0.0
 11
439.6482597629
 21
51.2887449619
 31
0.0
  0
LINE
  5
7C
330
1F
100
AcDbEntity
  8
0
  6
Continuous
 62
     7
370
    15
100
AcDbLine
 10
439.6482597629
 20
51.2887449619
 30
0.0
 11
439.6482597629
 21
421.2887497303
 31
0.0
  0
LINE
  5
7D
330
1F
100
AcDbEntity
  8
0
  6
Continuous
 62
     7
370
    15
100
AcDbLine
 10
444.6482698956
 20
56.2887401935
 30
0.0
 11
444.6482698956
 21
416.2887544986
 31
0.0
  0
LINE
  5
7E
330
1F
100
AcDbEntity
  8
0
  6
Continuous
 62
     7
370
    15
100
AcDbLine
 10
444.6482698956
 20
416.2887544986
 30
0.0
 11
704.6482603589
 21
416.2887544986
 31
0.0
  0
LINE
  5
7F
330
1F
100
AcDbEntity
  8
0
  6
Continuous
 62
     7
370
    15
100
AcDbLine
 10
424.6482591668
 20
51.2887449619
 30
0.0
 11
439.6482597629
 21
51.2887449619
 31
0.0
  0
LINE
  5
80
330
1F
100
AcDbEntity
  8
0
  6
Continuous
 62
     7
370
    15
100
AcDbLine
 10
424.6482591668
 20
51.2887449619
 30
0.0
 11
424.6482591668
 21
226.3012552318
 31
0.0
  0
LINE
  5
81
330
1F
100
AcDbEntity
  8
0
  6
Continuous
 62
     7
370
    15
100
AcDbLine
 10
424.6482591668
 20
246.2762394604
 30
0.0
 11
424.6482591668
 21
421.2887497303
 31
0.0
  0
LINE
  5
82
330
1F
100
AcDbEntity
  8
0
  6
Continuous
 62
     7
370
    15
100
AcDbLine
 10
709.6482704917
 20
51.2887449619
 30
0.0
 11
709.6482704917
 21
36.2887443658
 31
0.0
  0
LINE
  5
83
330
1F
100
AcDbEntity
  8
0
  6
Continuous
 62
     7
370
    15
100
AcDbLine
 10
709.6482704917
 20
36.2887443658
 30
0.0
 11
439.6482597629
 21
36.2887443658
 31
0.0
  0
LINE
  5
84
330
1F
100
AcDbEntity
  8
0
  6
Continuous
 62
     7
370
    15
100
AcDbLine
 10
439.6482597629
 20
36.2887443658
 30
0.0
 11
439.6482597629
 21
51.2887449619
 31
0.0
  0
ARC
  5
85
330
1F
100
AcDbEntity
  8
0
  6
Continuous
 62
     7
370
    15
100
AcDbCircle
 10
709.6482651273
 20
51.2887473461
 30
0.0
 40
15.00000000000001
100
AcDbArc
 50
270.0
 51
0.0
  0
ARC
  5
86
330
1F
100
AcDbEntity
  8
0
  6
Continuous
 62
     7
370
    15
100
AcDbCircle
 10
439.6482651273
 20
51.2887473461
 30
0.0
 40
15.00000000000001
100
AcDbArc
 50
180.0
 51
270.0
  0
LINE
  5
87
330
1F
100
AcDbEntity
  8
0
  6
Continuous
 62
     7
370
    15
100
AcDbLine
 10
423.4482686559
 20
247.3232304361
 30
0.0
 11
424.6482591668
 21
247.3232304361
 31
0.0
  0
LINE
  5
88
330
1F
100
AcDbEntity
  8
0
  6
Continuous
 62
     7
370
    15
100
AcDbLine
 10
423.4482686559
 20
225.254264256
 30
0.0
 11
424.6482591668
 21
225.254264256
 31
0.0
  0
LINE
  5
89
330
1F
100
AcDbEntity
  8
0
  6
Continuous
 62
     7
370
    15
100
AcDbLine
 10
424.6482591668
 20
246.2762394604
 30
0.0
 11
424.6482591668
 21
226.3012552318
 31
0.0
  0
LINE
  5
8A
330
1F
100
AcDbEntity
  8
0
  6
Continuous
 62
     7
370
    15
100
AcDbLine
 10
423.4482686559
 20
225.254264256
 30
0.0
 11
423.4482686559
 21
247.3232304361
 31
0.0
  0
LINE
  5
8B
330
1F
100
AcDbEntity
  8
0
  6
Continuous
 62
     7
370
    15
100
AcDbLine
 10
423.3482669631
 20
241.2887472343
 30
0.0
 11
423.3482669631
 21
244.2887477261
 31
0.0
  0
LINE
  5
8C
330
1F
100
AcDbEntity
  8
0
  6
Continuous
 62
     7
370
    15
100
AcDbLine
 10
423.3482669631
 20
238.2887474411
 30
0.0
 11
423.3482669631
 21
241.2887472343
 31
0.0
  0
LINE
  5
8D
330
1F
100
AcDbEntity
  8
0
  6
Continuous
 62
     7
370
    15
100
AcDbLine
 10
423.3482669631
 20
228.2887469661
 30
0.0
 11
423.3482669631
 21
234.2887472511
 31
0.0
  0
LINE
  5
8E
330
1F
100
AcDbEntity
  8
0
  6
Continuous
 62
     7
370
    15
100
AcDbLine
 10
423.4482686559
 20
247.3232304361
 30
0.0
 11
423.4482686559
 21
247.7887473684
 31
0.0
  0
LINE
  5
8F
330
1F
100
AcDbEntity
  8
0
  6
Continuous
 62
     7
370
    15
100
AcDbLine
 10
423.4482686559
 20
224.7887473237
 30
0.0
 11
423.4482686559
 21
225.254264256
 31
0.0
  0
LINE
  5
90
330
1F
100
AcDbEntity
  8
0
  6
Continuous
 62
     7
370
    15
100
AcDbLine
 10
725.5496274272
 20
345.2887447235
 30
0.0
 11
736.1482720414
 21
345.2887447235
 31
0.0
  0
LINE
  5
91
330
1F
100
AcDbEntity
  8
0
  6
Continuous
 62
     7
370
    15
100
AcDbLine
 10
725.5496274272
 20
380.2887411472
 30
0.0
 11
725.5496274272
 21
345.2887447235
 31
0.0
  0
LINE
  5
92
330
1F
100
AcDbEntity
  8
0
  6
Continuous
 62
     7
370
    15
100
AcDbLine
 10
725.5496274272
 20
380.2887411472
 30
0.0
 11
736.1482720414
 21
380.2887411472
 31
0.0
  0
LINE
  5
93
330
1F
100
AcDbEntity
  8
0
  6
Continuous
 62
     7
370
    15
100
AcDbLine
 10
725.5496274272
 20
92.288753545
 30
0.0
 11
736.1482720414
 21
92.288753545
 31
0.0
  0
LINE
  5
94
330
1F
100
AcDbEntity
  8
0
  6
Continuous
 62
     7
370
    15
100
AcDbLine
 10
725.5496274272
 20
127.2887499687
 30
0.0
 11
725.5496274272
 21
92.288753545
 31
0.0
  0
LINE
  5
95
330
1F
100
AcDbEntity
  8
0
  6
Continuous
 62
     7
370
    15
100
AcDbLine
 10
725.5496274272
 20
127.2887499687
 30
0.0
 11
736.1482720414
 21
127.2887499687
 31
0.0
  0
LINE
  5
96
330
1F
100
AcDbEntity
  8
0
  6
Continuous
 62
     7
370
    15
100
AcDbLine
 10
725.0861119071
 20
380.2887411472
 30
0.0
 11
725.0861119071
 21
345.2887447235
 31
0.0
  0
LINE
  5
97
330
1F
100
AcDbEntity
  8
0
  6
Continuous
 62
     7
370
    15
100
AcDbLine
 10
725.0861119071
 20
345.2887447235
 30
0.0
 11
725.5496274272
 21
345.2887447235
 31
0.0
  0
LINE
  5
98
330
1F
100
AcDbEntity
  8
0
  6
Continuous
 62
     7
370
    15
100
AcDbLine
 10
725.0861119071
 20
380.2887411472
 30
0.0
 11
725.5496274272
 21
380.2887411472
 31
0.0
  0
LINE
  5
99
330
1F
100
AcDbEntity
  8
0
  6
Continuous
 62
     7
370
    15
100
AcDbLine
 10
725.0861119071
 20
127.2887499687
 30
0.0
 11
725.0861119071
 21
92.288753545
 31
0.0
  0
LINE
  5
9A
330
1F
100
AcDbEntity
  8
0
  6
Continuous
 62
     7
370
    15
100
AcDbLine
 10
725.0861119071
 20
92.288753545
 30
0.0
 11
725.5496274272
 21
92.288753545
 31
0.0
  0
LINE
  5
9B
330
1F
100
AcDbEntity
  8
0
  6
Continuous
 62
     7
370
    15
100
AcDbLine
 10
725.0861119071
 20
127.2887499687
 30
0.0
 11
725.5496274272
 21
127.2887499687
 31
0.0
  0
LINE
  5
9C
330
1F
100
AcDbEntity
  8
0
  6
Continuous
 62
     7
370
    15
100
AcDbLine
 10
724.6482710877
 20
345.2887447235
 30
0.0
 11
725.0861119071
 21
345.2887447235
 31
0.0
  0
LINE
  5
9D
330
1F
100
AcDbEntity
  8
0
  6
Continuous
 62
     7
370
    15
100
AcDbLine
 10
724.6482710877
 20
380.2887411472
 30
0.0
 11
725.0861119071
 21
380.2887411472
 31
0.0
  0
LINE
  5
9E
330
1F
100
AcDbEntity
  8
0
  6
Continuous
 62
     7
370
    15
100
AcDbLine
 10
724.6482710877
 20
92.288753545
 30
0.0
 11
725.0861119071
 21
92.288753545
 31
0.0
  0
LINE
  5
9F
330
1F
100
AcDbEntity
  8
0
  6
Continuous
 62
     7
370
    15
100
AcDbLine
 10
724.6482710877
 20
127.2887499687
 30
0.0
 11
725.0861119071
 21
127.2887499687
 31
0.0
  0
ARC
  5
A0
330
1F
100
AcDbEntity
  8
0
  6
Continuous
 62
     7
370
    15
100
AcDbCircle
 10
417.4709268169
 20
241.6999394463
 30
0.0
 40
1.09778727714322
100
AcDbArc
 50
97.3332226099
 51
185.8133219334
  0
LINE
  5
A1
330
1F
100
AcDbEntity
  8
0
  6
Continuous
 62
     7
370
    15
100
AcDbLine
 10
417.330805544
 20
242.7887474802
 30
0.0
 11
420.8742420712
 21
242.7887474802
 31
0.0
  0
LINE
  5
A2
330
1F
100
AcDbEntity
  8
0
  6
Continuous
 62
     7
370
    15
100
AcDbLine
 10
420.8742420712
 20
242.7887474802
 30
0.0
 11
420.8742420712
 21
229.788747212
 31
0.0
  0
LINE
  5
A3
330
1F
100
AcDbEntity
  8
0
  6
Continuous
 62
     7
370
    15
100
AcDbLine
 10
420.8742420712
 20
229.788747212
 30
0.0
 11
417.330805544
 21
229.788747212
 31
0.0
  0
ARC
  5
A4
330
1F
100
AcDbEntity
  8
0
  6
Continuous
 62
     7
370
    15
100
AcDbCircle
 10
417.4709268169
 20
230.8775552459
 30
0.0
 40
1.097787277143248
100
AcDbArc
 50
174.1866780666
 51
262.6667773901
  0
LINE
  5
A5
330
1F
100
AcDbEntity
  8
0
  6
Continuous
 62
     7
370
    15
100
AcDbLine
 10
416.3787852565
 20
241.5887471904
 30
0.0
 11
416.3787852565
 21
230.9887475018
 31
0.0
  0
LINE
  5
A6
330
1F
100
AcDbEntity
  8
0
  6
Continuous
 62
     7
370
    15
100
AcDbLine
 10
416.3787852565
 20
241.5887471904
 30
0.0
 11
415.6482707301
 21
241.5887471904
 31
0.0
  0
LINE
  5
A7
330
1F
100
AcDbEntity
  8
0
  6
Continuous
 62
     7
370
    15
100
AcDbLine
 10
415.6482707301
 20
230.9887475018
 30
0.0
 11
416.3787852565
 21
230.9887475018
 31
0.0
  0
LINE
  5
A8
330
1F
100
AcDbEntity
  8
0
  6
Continuous
 62
     7
370
    15
100
AcDbLine
 10
415.6482707301
 20
241.5887471904
 30
0.0
 11
415.6482707301
 21
230.9887475018
 31
0.0
  0
LINE
  5
A9
330
1F
100
AcDbEntity
  8
0
  6
Continuous
 62
     7
370
    15
100
AcDbLine
 10
416.6002910176
 20
242.7887474802
 30
0.0
 11
417.330805544
 21
242.7887474802
 31
0.0
  0
ARC
  5
AA
330
1F
100
AcDbEntity
  8
0
  6
Continuous
 62
     7
370
    15
100
AcDbCircle
 10
416.7404195851
 20
241.6999336592
 30
0.0
 40
1.097793948007182
100
AcDbArc
 50
97.3335616575
 51
185.8129828859
  0
LINE
  5
AB
330
1F
100
AcDbEntity
  8
0
  6
Continuous
 62
     7
370
    15
100
AcDbLine
 10
417.330805544
 20
229.788747212
 30
0.0
 11
416.6002910176
 21
229.788747212
 31
0.0
  0
ARC
  5
AC
330
1F
100
AcDbEntity
  8
0
  6
Continuous
 62
     7
370
    15
100
AcDbCircle
 10
416.7404195851
 20
230.877561033
 30
0.0
 40
1.097793948007137
100
AcDbArc
 50
174.1870171141
 51
262.6664383425
  0
LINE
  5
AD
330
1F
100
AcDbEntity
  8
0
  6
Continuous
 62
     7
370
    15
100
AcDbLine
 10
420.9741990605
 20
242.7887474802
 30
0.0
 11
420.8742420712
 21
242.7887474802
 31
0.0
  0
LINE
  5
AE
330
1F
100
AcDbEntity
  8
0
  6
Continuous
 62
     7
370
    15
100
AcDbLine
 10
420.8742420712
 20
229.788747212
 30
0.0
 11
421.0077713767
 21
229.788747212
 31
0.0
  0
SPLINE
  5
AF
330
1F
100
AcDbEntity
  8
0
  6
Continuous
 62
     7
370
    15
100
AcDbSpline
210
0.0
220
0.0
230
1.0
 70
    24
 71
     3
 72
    12
 73
     8
 74
     0
 42
0.00000001
 43
0.00000001
 40
0.0
 40
0.0
 40
0.0
 40
0.0
 40
0.2185045281652869
 40
0.4370083809750159
 40
0.655518221401872
 40
0.8740244204541278
 40
1.0
 40
1.0
 40
1.0
 40
1.0
 10
422.807608131496
 20
242.9811424259529
 30
0.0
 10
422.6108887129964
 20
242.9811424259529
 30
0.0
 10
422.2174504840188
 20
242.9811424259529
 30
0.0
 10
421.6566897071553
 20
242.9811424259529
 30
0.0
 10
421.2390257259704
 20
242.9811424259529
 30
0.0
 10
421.0124586776477
 20
242.9811424259529
 30
0.0
 10
421.0299866129835
 20
242.9811424259529
 30
0.0
 10
421.0363965073505
 20
242.9811424259529
 30
0.0
  0
SPLINE
  5
B0
330
1F
100
AcDbEntity
  8
0
  6
Continuous
 62
     7
370
    15
100
AcDbSpline
210
0.0
220
0.0
230
1.0
 70
    24
 71
     3
 72
     9
 73
     5
 74
     0
 42
0.00000001
 43
0.00000001
 40
0.0
 40
0.0
 40
0.0
 40
0.0
 40
0.0025141086251864
 40
1.0
 40
1.0
 40
1.0
 40
1.0
 10
423.3482669630924
 20
242.9811424259529
 30
0.0
 10
423.347919402156
 20
242.9811424259529
 30
0.0
 10
423.2096752018535
 20
242.9811424259531
 30
0.0
 10
423.0083886385323
 20
242.981142425953
 30
0.0
 10
422.807608131496
 20
242.9811424259529
 30
0.0
  0
SPLINE
  5
B1
330
1F
100
AcDbEntity
  8
0
  6
Continuous
 62
     7
370
    15
100
AcDbSpline
210
0.0
220
0.0
230
1.0
 70
     8
 71
     3
 72
    13
 73
     9
 74
     0
 42
0.00000001
 43
0.00000001
 40
0.0
 40
0.0
 40
0.0
 40
0.0
 40
0.1877343531938777
 40
0.3754727167530941
 40
0.5632110648104007
 40
0.7509477880705518
 40
0.9386848209004788
 40
0.9999999999999999
 40
0.9999999999999999
 40
0.9999999999999999
 40
0.9999999999999999
 10
422.5143234768787
 20
246.5959811266945
 30
0.0
 10
422.3176318896907
 20
246.5932808306551
 30
0.0
 10
421.9242445136056
 20
246.5878801808931
 30
0.0
 10
421.3912265072024
 20
246.2973481795116
 30
0.0
 10
421.000699329648
 20
245.8424446144578
 30
0.0
 10
420.8277582881154
 20
245.2807637222531
 30
0.0
 10
420.8310284832313
 20
244.8075662404958
 30
0.0
 10
420.9583623305044
 20
244.5861349592956
 30
0.0
 10
420.9897111693302
 20
244.531619889705
 30
0.0
  0
SPLINE
  5
B2
330
1F
100
AcDbEntity
  8
0
  6
Continuous
 62
     7
370
    15
100
AcDbSpline
210
0.0
220
0.0
230
1.0
 70
     8
 71
     3
 72
    10
 73
     6
 74
     0
 42
0.00000001
 43
0.00000001
 40
0.0
 40
0.0
 40
0.0
 40
0.0
 40
0.2093428725105197
 40
0.6046699278794417
 40
0.9999999999999999
 40
0.9999999999999999
 40
0.9999999999999999
 40
0.9999999999999999
 10
423.6515055933871
 20
245.7898664903329
 30
0.0
 10
423.6097975598518
 20
245.882929946077
 30
0.0
 10
423.4893272838527
 20
246.1517361987005
 30
0.0
 10
423.0826311282231
 20
246.4683988715804
 30
0.0
 10
422.7037598425212
 20
246.5534536001477
 30
0.0
 10
422.5143234768787
 20
246.5959811266945
 30
0.0
  0
SPLINE
  5
B3
330
1F
100
AcDbEntity
  8
0
  6
Continuous
 62
     7
370
    15
100
AcDbSpline
210
0.0
220
0.0
230
1.0
 70
     8
 71
     3
 72
    13
 73
     9
 74
     0
 42
0.00000001
 43
0.00000001
 40
0.0
 40
0.0
 40
0.0
 40
0.0
 40
0.1768614158016835
 40
0.3537267399476782
 40
0.5305919192438419
 40
0.7074547270595563
 40
0.8843194473083311
 40
1.0
 40
1.0
 40
1.0
 40
1.0
 10
422.4970977345386
 20
225.9527943712161
 30
0.0
 10
422.3004306079976
 20
225.9554851188878
 30
0.0
 10
421.9070920088976
 20
225.9608666736922
 30
0.0
 10
421.3737069727908
 20
226.2515420798694
 30
0.0
 10
420.9845767894931
 20
226.7059047827106
 30
0.0
 10
420.8064162623731
 20
227.2696029553594
 30
0.0
 10
420.8273776750975
 20
227.8027498566403
 30
0.0
 10
420.9934721836071
 20
228.0760211818526
 30
0.0
 10
421.0591505804935
 20
228.1840802785442
 30
0.0
  0
SPLINE
  5
B4
330
1F
100
AcDbEntity
  8
0
  6
Continuous
 62
     7
370
    15
100
AcDbSpline
210
0.0
220
0.0
230
1.0
 70
     8
 71
     3
 72
    10
 73
     6
 74
     0
 42
0.00000001
 43
0.00000001
 40
0.0
 40
0.0
 40
0.0
 40
0.0
 40
0.0588212984257692
 40
0.5294125327652901
 40
1.0
 40
1.0
 40
1.0
 40
1.0
 10
423.5272150078693
 20
226.5527039450095
 30
0.0
 10
423.5165804797294
 20
226.5312236090982
 30
0.0
 10
423.4208659574734
 20
226.3378929730231
 30
0.0
 10
423.0599782055253
 20
226.083724276339
 30
0.0
 10
422.6847240575443
 20
225.9964375564676
 30
0.0
 10
422.4970977345386
 20
225.9527943712161
 30
0.0
  0
SPLINE
  5
B5
330
1F
100
AcDbEntity
  8
0
  6
Continuous
 62
     7
370
    15
100
AcDbSpline
210
0.0
220
0.0
230
1.0
 70
    24
 71
     3
 72
    12
 73
     8
 74
     0
 42
0.00000001
 43
0.00000001
 40
0.0
 40
0.0
 40
0.0
 40
0.0
 40
0.2193538838170249
 40
0.4387070896532966
 40
0.6580663063813456
 40
0.8774218675802953
 40
1.0
 40
1.0
 40
1.0
 40
1.0
 10
422.807608131496
 20
229.4225115944133
 30
0.0
 10
422.6108933967961
 20
229.4225115944133
 30
0.0
 10
422.2174645354038
 20
229.4225115944133
 30
0.0
 10
421.6566335011763
 20
229.4225115944133
 30
0.0
 10
421.2392365033803
 20
229.4225115944133
 30
0.0
 10
421.0133767665347
 20
229.4225115944133
 30
0.0
 10
421.0303657975933
 20
229.4225115944133
 30
0.0
 10
421.0364561119953
 20
229.4225115944133
 30
0.0
  0
SPLINE
  5
B6
330
1F
100
AcDbEntity
  8
0
  6
Continuous
 62
     7
370
    15
100
AcDbSpline
210
0.0
220
0.0
230
1.0
 70
    24
 71
     3
 72
     9
 73
     5
 74
     0
 42
0.00000001
 43
0.00000001
 40
0.0
 40
0.0
 40
0.0
 40
0.0
 40
0.1970130322720919
 40
1.0
 40
1.0
 40
1.0
 40
1.0
 10
423.4482686558643
 20
229.4225115944133
 30
0.0
 10
423.4156164599398
 20
229.4225115944133
 30
0.0
 10
423.2498802365642
 20
229.4225115944133
 30
0.0
 10
423.0045805683
 20
229.4225115944133
 30
0.0
 10
422.807608131496
 20
229.4225115944133
 30
0.0
  0
SPLINE
  5
B7
330
1F
100
AcDbEntity
  8
0
  6
Continuous
 62
     7
370
    15
100
AcDbSpline
210
0.0
220
0.0
230
1.0
 70
     8
 71
     3
 72
    13
 73
     9
 74
     0
 42
0.00000001
 43
0.00000001
 40
0.0
 40
0.0
 40
0.0
 40
0.0
 40
0.1768614774712451
 40
0.3537265172110513
 40
0.530591640972232
 40
0.7074548960608414
 40
0.8843190982005572
 40
0.9999999999999999
 40
0.9999999999999999
 40
0.9999999999999999
 40
0.9999999999999999
 10
420.9452461043277
 20
249.212399652271
 30
0.0
 10
420.7485790803929
 20
249.2097088222763
 30
0.0
 10
420.3552410713397
 20
249.2043271080894
 30
0.0
 10
419.8218549064215
 20
248.9136534670818
 30
0.0
 10
419.4327247976522
 20
248.4592876108019
 30
0.0
 10
419.254564789596
 20
247.8955935175608
 30
0.0
 10
419.275526582414
 20
247.3624424137724
 30
0.0
 10
419.4416205364865
 20
247.0891726232899
 30
0.0
 10
419.5072989502826
 20
246.9811137449429
 30
0.0
  0
SPLINE
  5
B8
330
1F
100
AcDbEntity
  8
0
  6
Continuous
 62
     7
370
    15
100
AcDbSpline
210
0.0
220
0.0
230
1.0
 70
     8
 71
     3
 72
    10
 73
     6
 74
     0
 42
0.00000001
 43
0.00000001
 40
0.0
 40
0.0
 40
0.0
 40
0.0
 40
0.1474573734895173
 40
0.573730886909061
 40
1.0
 40
1.0
 40
1.0
 40
1.0
 10
422.033835534183
 20
248.4998736214326
 30
0.0
 10
422.0057789873198
 20
248.5601679773294
 30
0.0
 10
421.8966158635337
 20
248.7947627857524
 30
0.0
 10
421.5115359317159
 20
249.0835702452151
 30
0.0
 10
421.1340087305986
 20
249.169456664351
 30
0.0
 10
420.9452461043277
 20
249.212399652271
 30
0.0
  0
SPLINE
  5
B9
330
1F
100
AcDbEntity
  8
0
  6
Continuous
 62
     7
370
    15
100
AcDbSpline
210
0.0
220
0.0
230
1.0
 70
     8
 71
     3
 72
    13
 73
     9
 74
     0
 42
0.00000001
 43
0.00000001
 40
0.0
 40
0.0
 40
0.0
 40
0.0
 40
0.1768652274756148
 40
0.3537298964291658
 40
0.5305915122055381
 40
0.7074553349849598
 40
0.8843190100278324
 40
1.0
 40
1.0
 40
1.0
 40
1.0
 10
420.9280352631488
 20
223.3363758456395
 30
0.0
 10
420.7313634324986
 20
223.3390661818283
 30
0.0
 10
420.3380203922675
 20
223.34444684571
 30
0.0
 10
419.804627700252
 20
223.6351183680306
 30
0.0
 10
419.4155200913729
 20
224.0894954848085
 30
0.0
 10
419.2373331905116
 20
224.6531787730872
 30
0.0
 10
419.2583020809978
 20
225.186334356517
 30
0.0
 10
419.4243950393013
 20
225.4596030599727
 30
0.0
 10
419.4900732079425
 20
225.5676617529676
 30
0.0
  0
SPLINE
  5
BA
330
1F
100
AcDbEntity
  8
0
  6
Continuous
 62
     7
370
    15
100
AcDbSpline
210
0.0
220
0.0
230
1.0
 70
     8
 71
     3
 72
    10
 73
     6
 74
     0
 42
0.00000001
 43
0.00000001
 40
0.0
 40
0.0
 40
0.0
 40
0.0
 40
0.147458888279366
 40
0.5737367806918053
 40
1.0
 40
1.0
 40
1.0
 40
1.0
 10
422.016609791843
 20
224.048901876478
 30
0.0
 10
421.9885532488909
 20
223.9886075118466
 30
0.0
 10
421.8793901403216
 20
223.7540126694394
 30
0.0
 10
421.4943138812224
 20
223.465208808951
 30
0.0
 10
421.1167926366645
 20
223.3793196739967
 30
0.0
 10
420.9280352631488
 20
223.3363758456395
 30
0.0
  0
LINE
  5
BB
330
1F
100
AcDbEntity
  8
0
  6
Continuous
 62
     7
370
    15
100
AcDbLine
 10
415.6482707301
 20
240.1887472403
 30
0.0
 11
415.5434559623
 21
240.1887472403
 31
0.0
  0
LINE
  5
BC
330
1F
100
AcDbEntity
  8
0
  6
Continuous
 62
     7
370
    15
100
AcDbLine
 10
415.6482707301
 20
231.5887474139
 30
0.0
 11
415.5434559623
 21
231.5887474139
 31
0.0
  0
LINE
  5
BD
330
1F
100
AcDbEntity
  8
0
  6
Continuous
 62
     7
370
    15
100
AcDbLine
 10
420.99254239
 20
244.2887477261
 30
0.0
 11
416.1488752404
 21
244.2887477261
 31
0.0
  0
LINE
  5
BE
330
1F
100
AcDbEntity
  8
0
  6
Continuous
 62
     7
370
    15
100
AcDbLine
 10
420.9741990605
 20
243.4887472224
 30
0.0
 11
416.1482642928
 21
243.4887472224
 31
0.0
  0
LINE
  5
BF
330
1F
100
AcDbEntity
  8
0
  6
Continuous
 62
     7
370
    15
100
AcDbLine
 10
421.0301231185
 20
228.2887469661
 30
0.0
 11
416.1488752404
 21
228.2887469661
 31
0.0
  0
LINE
  5
C0
330
1F
100
AcDbEntity
  8
0
  6
Continuous
 62
     7
370
    15
100
AcDbLine
 10
420.9741990605
 20
229.0887474698
 30
0.0
 11
416.1482642928
 21
229.0887474698
 31
0.0
  0
LINE
  5
C1
330
1F
100
AcDbEntity
  8
0
  6
Continuous
 62
     7
370
    15
100
AcDbLine
 10
419.7482656279
 20
244.5887472164
 30
0.0
 11
420.9116290847
 21
244.5887472164
 31
0.0
  0
LINE
  5
C2
330
1F
100
AcDbEntity
  8
0
  6
Continuous
 62
     7
370
    15
100
AcDbLine
 10
417.5482581893
 20
244.5887472164
 30
0.0
 11
419.7482656279
 21
244.5887472164
 31
0.0
  0
LINE
  5
C3
330
1F
100
AcDbEntity
  8
0
  6
Continuous
 62
     7
370
    15
100
AcDbLine
 10
419.7482656279
 20
227.8887476456
 30
0.0
 11
420.8516519109
 21
227.8887476456
 31
0.0
  0
LINE
  5
C4
330
1F
100
AcDbEntity
  8
0
  6
Continuous
 62
     7
370
    15
100
AcDbLine
 10
417.6482598821
 20
227.8887476456
 30
0.0
 11
419.7482656279
 21
227.8887476456
 31
0.0
  0
LINE
  5
C5
330
1F
100
AcDbEntity
  8
0
  6
Continuous
 62
     7
370
    15
100
AcDbLine
 10
419.7482656279
 20
227.4887473938
 30
0.0
 11
420.611773018
 21
227.4887473938
 31
0.0
  0
LINE
  5
C6
330
1F
100
AcDbEntity
  8
0
  6
Continuous
 62
     7
370
    15
100
AcDbLine
 10
417.6482598821
 20
227.4887473938
 30
0.0
 11
419.7482656279
 21
227.4887473938
 31
0.0
  0
ARC
  5
C7
330
1F
100
AcDbEntity
  8
0
  6
Continuous
 62
     7
370
    15
100
AcDbCircle
 10
416.6140507649
 20
229.086510983
 30
0.0
 40
0.8027495456830569
100
AcDbArc
 50
179.8403718595
 51
234.5326562665
  0
ARC
  5
C8
330
1F
100
AcDbEntity
  8
0
  6
Continuous
 62
     7
370
    15
100
AcDbCircle
 10
416.6140507649
 20
243.4909837091
 30
0.0
 40
0.8027495456830435
100
AcDbArc
 50
125.4673437335
 51
180.1596281405
  0
LINE
  5
C9
330
1F
100
AcDbEntity
  8
0
  6
Continuous
 62
     7
370
    15
100
AcDbLine
 10
416.5991585294
 20
229.538747171
 30
0.0
 11
416.5991585294
 21
229.0887474698
 31
0.0
  0
LINE
  5
CA
330
1F
100
AcDbEntity
  8
0
  6
Continuous
 62
     7
370
    15
100
AcDbLine
 10
416.5991585294
 20
243.4887472224
 30
0.0
 11
416.5991585294
 21
243.0387475212
 31
0.0
  0
LINE
  5
CB
330
1F
100
AcDbEntity
  8
0
  6
Continuous
 62
     7
370
    15
100
AcDbLine
 10
415.8113043347
 20
229.0887474698
 30
0.0
 11
415.8113043347
 21
230.3171894197
 31
0.0
  0
LINE
  5
CC
330
1F
100
AcDbEntity
  8
0
  6
Continuous
 62
     7
370
    15
100
AcDbLine
 10
415.8113043347
 20
242.2603052725
 30
0.0
 11
415.8113043347
 21
243.4887472224
 31
0.0
  0
LINE
  5
CD
330
1F
100
AcDbEntity
  8
0
  6
Continuous
 62
     7
370
    15
100
AcDbLine
 10
725.5496274272
 20
91.2887515184
 30
0.0
 11
725.5496274272
 21
56.2887401935
 31
0.0
  0
LINE
  5
CE
330
1F
100
AcDbEntity
  8
0
  6
Continuous
 62
     7
370
    15
100
AcDbLine
 10
736.1482720414
 20
91.2887515184
 30
0.0
 11
725.5496274272
 21
91.2887515184
 31
0.0
  0
LINE
  5
CF
330
1F
100
AcDbEntity
  8
0
  6
Continuous
 62
     7
370
    15
100
AcDbLine
 10
736.1482720414
 20
56.2887401935
 30
0.0
 11
725.5496274272
 21
56.2887401935
 31
0.0
  0
LINE
  5
D0
330
1F
100
AcDbEntity
  8
0
  6
Continuous
 62
     7
370
    15
100
AcDbLine
 10
725.5496274272
 20
416.2887544986
 30
0.0
 11
725.5496274272
 21
381.2887431737
 31
0.0
  0
LINE
  5
D1
330
1F
100
AcDbEntity
  8
0
  6
Continuous
 62
     7
370
    15
100
AcDbLine
 10
736.1482720414
 20
416.2887544986
 30
0.0
 11
725.5496274272
 21
416.2887544986
 31
0.0
  0
LINE
  5
D2
330
1F
100
AcDbEntity
  8
0
  6
Continuous
 62
     7
370
    15
100
AcDbLine
 10
736.1482720414
 20
381.2887431737
 30
0.0
 11
725.5496274272
 21
381.2887431737
 31
0.0
  0
LINE
  5
D3
330
1F
100
AcDbEntity
  8
0
  6
Continuous
 62
     7
370
    15
100
AcDbLine
 10
733.1482659617
 20
128.2887445447
 30
0.0
 11
728.1482707301
 21
128.2887445447
 31
0.0
  0
LINE
  5
D4
330
1F
100
AcDbEntity
  8
0
  6
Continuous
 62
     7
370
    15
100
AcDbLine
 10
728.1482707301
 20
344.2887501475
 30
0.0
 11
733.1482659617
 21
344.2887501475
 31
0.0
  0
LINE
  5
D5
330
1F
100
AcDbEntity
  8
0
  6
Continuous
 62
     7
370
    15
100
AcDbLine
 10
725.0861119071
 20
56.2887401935
 30
0.0
 11
725.0861119071
 21
91.2887515184
 31
0.0
  0
LINE
  5
D6
330
1F
100
AcDbEntity
  8
0
  6
Continuous
 62
     7
370
    15
100
AcDbLine
 10
725.0861119071
 20
91.2887515184
 30
0.0
 11
725.5496274272
 21
91.2887515184
 31
0.0
  0
LINE
  5
D7
330
1F
100
AcDbEntity
  8
0
  6
Continuous
 62
     7
370
    15
100
AcDbLine
 10
725.5496274272
 20
56.2887401935
 30
0.0
 11
725.0861119071
 21
56.2887401935
 31
0.0
  0
LINE
  5
D8
330
1F
100
AcDbEntity
  8
0
  6
Continuous
 62
     7
370
    15
100
AcDbLine
 10
725.0861119071
 20
381.2887431737
 30
0.0
 11
725.0861119071
 21
416.2887544986
 31
0.0
  0
LINE
  5
D9
330
1F
100
AcDbEntity
  8
0
  6
Continuous
 62
     7
370
    15
100
AcDbLine
 10
725.5496274272
 20
381.2887431737
 30
0.0
 11
725.0861119071
 21
381.2887431737
 31
0.0
  0
LINE
  5
DA
330
1F
100
AcDbEntity
  8
0
  6
Continuous
 62
     7
370
    15
100
AcDbLine
 10
725.0861119071
 20
416.2887544986
 30
0.0
 11
725.5496274272
 21
416.2887544986
 31
0.0
  0
LINE
  5
DB
330
1F
100
AcDbEntity
  8
0
  6
Continuous
 62
     7
370
    15
100
AcDbLine
 10
725.0861119071
 20
381.2887431737
 30
0.0
 11
724.6482710877
 21
381.2887431737
 31
0.0
  0
LINE
  5
DC
330
1F
100
AcDbEntity
  8
0
  6
Continuous
 62
     7
370
    15
100
AcDbLine
 10
725.0861119071
 20
416.2887544986
 30
0.0
 11
724.6482710877
 21
416.2887544986
 31
0.0
  0
LINE
  5
DD
330
1F
100
AcDbEntity
  8
0
  6
Continuous
 62
     7
370
    15
100
AcDbLine
 10
725.0861119071
 20
91.2887515184
 30
0.0
 11
724.6482710877
 21
91.2887515184
 31
0.0
  0
LINE
  5
DE
330
1F
100
AcDbEntity
  8
0
  6
Continuous
 62
     7
370
    15
100
AcDbLine
 10
725.0861119071
 20
56.2887401935
 30
0.0
 11
724.6482710877
 21
56.2887401935
 31
0.0
  0
LINE
  5
DF
330
1F
100
AcDbEntity
  8
0
  6
Continuous
 62
     7
370
    15
100
AcDbLine
 10
419.4482605496
 20
243.0387475212
 30
0.0
 11
416.3482676783
 21
243.0387475212
 31
0.0
  0
LINE
  5
E0
330
1F
100
AcDbEntity
  8
0
  6
Continuous
 62
     7
370
    15
100
AcDbLine
 10
419.4482605496
 20
229.538747171
 30
0.0
 11
421.0077713767
 21
229.538747171
 31
0.0
  0
LINE
  5
E1
330
1F
100
AcDbEntity
  8
0
  6
Continuous
 62
     7
370
    15
100
AcDbLine
 10
419.4482605496
 20
243.0387475212
 30
0.0
 11
421.0083376208
 21
243.0387475212
 31
0.0
  0
LINE
  5
E2
330
1F
100
AcDbEntity
  8
0
  6
Continuous
 62
     7
370
    15
100
AcDbLine
 10
419.4482605496
 20
229.538747171
 30
0.0
 11
416.3482676783
 21
229.538747171
 31
0.0
  0
LINE
  5
E3
330
1F
100
AcDbEntity
  8
0
  6
Continuous
 62
     8
370
    15
100
AcDbLine
 10
419.4482605496
 20
243.0387475212
 30
0.0
 11
419.4482605496
 21
242.7887474802
 31
0.0
  0
LINE
  5
E4
330
1F
100
AcDbEntity
  8
0
  6
Continuous
 62
     8
370
    15
100
AcDbLine
 10
419.4482605496
 20
229.788747212
 30
0.0
 11
419.4482605496
 21
229.538747171
 31
0.0
  0
LINE
  5
E5
330
1F
100
AcDbEntity
  8
0
  6
Continuous
 62
     7
370
    15
100
AcDbLine
 10
282.6964580202
 20
242.7887474802
 30
0.0
 11
282.6964580202
 21
229.788747212
 31
0.0
  0
SPLINE
  5
E6
330
1F
100
AcDbEntity
  8
0
  6
Continuous
 62
     7
370
    15
100
AcDbSpline
210
0.0
220
0.0
230
1.0
 70
     8
 71
     3
 72
    15
 73
    11
 74
     0
 42
0.00000001
 43
0.00000001
 40
0.0
 40
0.0
 40
0.0
 40
0.0
 40
0.1356028663338301
 40
0.2953315886943306
 40
0.4038095484465317
 40
0.5319635813589845
 40
0.6738457581954921
 40
0.8261073253668793
 40
0.9126171788294358
 40
1.0
 40
1.0
 40
1.0
 40
1.0
 10
271.6764607214793
 20
230.8547925819144
 30
0.0
 10
271.7208421948349
 20
230.8474694686814
 30
0.0
 10
271.8175012949634
 20
230.8315203466328
 30
0.0
 10
272.024352424481
 20
230.8791863469086
 30
0.0
 10
272.2176127997068
 20
230.9669172432052
 30
0.0
 10
272.3642012963287
 20
231.0865767858544
 30
0.0
 10
272.4629039358556
 20
231.2374663860794
 30
0.0
 10
272.4925713017345
 20
231.3593203883483
 30
0.0
 10
272.471382312107
 20
231.4885629964257
 30
0.0
 10
272.4251291708392
 20
231.5552410300957
 30
0.0
 10
272.4018865012987
 20
231.5887474138723
 30
0.0
  0
SPLINE
  5
E7
330
1F
100
AcDbEntity
  8
0
  6
Continuous
 62
     7
370
    15
100
AcDbSpline
210
0.0
220
0.0
230
1.0
 70
     8
 71
     3
 72
    20
 73
    16
 74
     0
 42
0.00000001
 43
0.00000001
 40
0.0
 40
0.0
 40
0.0
 40
0.0
 40
0.0607086123965684
 40
0.2265341556312683
 40
0.3908035227156336
 40
0.47059495370885
 40
0.5476205410215486
 40
0.6228560695700163
 40
0.7003373840453081
 40
0.7786475224298974
 40
0.856657977712297
 40
0.933101309579349
 40
0.970373601682483
 40
0.9892352123565442
 40
1.0
 40
1.0
 40
1.0
 40
1.0
 10
267.9402627730234
 20
231.5887474138723
 30
0.0
 10
267.986537333983
 20
231.5354140163809
 30
0.0
 10
268.1592108341726
 20
231.3364004713385
 30
0.0
 10
268.5761842464469
 20
231.3184737183075
 30
0.0
 10
269.1411387034559
 20
231.2434507555731
 30
0.0
 10
269.6607514134945
 20
231.2005085726928
 30
0.0
 10
270.0546425021167
 20
231.1699580115686
 30
0.0
 10
270.4475528638795
 20
231.1422745238968
 30
0.0
 10
270.8287151654892
 20
231.1109680243891
 30
0.0
 10
271.1844402932264
 20
231.0784950644183
 30
0.0
 10
271.4870708197774
 20
231.0476691865664
 30
0.0
 10
271.6795711333241
 20
231.0247668567293
 30
0.0
 10
271.7677012124872
 20
231.016739432973
 30
0.0
 10
271.8131243546314
 20
231.0089448587963
 30
0.0
 10
271.8125686706091
 20
231.0129036699619
 30
0.0
 10
271.8123667621477
 20
231.0143421087847
 30
0.0
  0
SPLINE
  5
E8
330
1F
100
AcDbEntity
  8
0
  6
Continuous
 62
     7
370
    15
100
AcDbSpline
210
0.0
220
0.0
230
1.0
 70
     8
 71
     3
 72
    18
 73
    14
 74
     0
 42
0.00000001
 43
0.00000001
 40
0.0
 40
0.0
 40
0.0
 40
0.0
 40
0.0057536117614248
 40
0.1156379965053346
 40
0.2383937881526184
 40
0.3593078905080883
 40
0.4757042930345473
 40
0.5872128412016234
 40
0.7047314987254447
 40
0.8265010043940745
 40
0.8891454358173227
 40
0.951792939132898
 40
1.0
 40
1.0
 40
1.0
 40
1.0
 10
272.1830778503283
 20
240.2355713453577
 30
0.0
 10
272.178430687556
 20
240.2385248221776
 30
0.0
 10
272.0850304696225
 20
240.2978847783837
 30
0.0
 10
271.8626678592678
 20
240.3040683369979
 30
0.0
 10
271.4712905566378
 20
240.3632646173351
 30
0.0
 10
270.9594003223658
 20
240.4088117287565
 30
0.0
 10
270.4083749758773
 20
240.4549632832997
 30
0.0
 10
269.8462586536032
 20
240.4938594559325
 30
0.0
 10
269.3119790981171
 20
240.5385895298797
 30
0.0
 10
268.9143443868202
 20
240.5796599451073
 30
0.0
 10
268.6996156731153
 20
240.6007813082669
 30
0.0
 10
268.6035485792597
 20
240.6030703443789
 30
0.0
 10
268.588112699079
 20
240.5869952426978
 30
0.0
 10
268.5814001345499
 20
240.5800047014341
 30
0.0
  0
SPLINE
  5
E9
330
1F
100
AcDbEntity
  8
0
  6
Continuous
 62
     7
370
    15
100
AcDbSpline
210
0.0
220
0.0
230
1.0
 70
     8
 71
     3
 72
    12
 73
     8
 74
     0
 42
0.00000001
 43
0.00000001
 40
0.0
 40
0.0
 40
0.0
 40
0.0
 40
0.2236729820054967
 40
0.4523097742282867
 40
0.6822372678484837
 40
0.9102273613192214
 40
1.0
 40
1.0
 40
1.0
 40
1.0
 10
267.8821631455286
 20
241.3905980680571
 30
0.0
 10
267.8694277265063
 20
241.348050140408
 30
0.0
 10
267.8436742606605
 20
241.2620100502001
 30
0.0
 10
267.9647972656459
 20
241.1703949983163
 30
0.0
 10
268.1964785683091
 20
241.0740896353167
 30
0.0
 10
268.441335008326
 20
241.0115985769756
 30
0.0
 10
268.6246678672167
 20
241.0168187199071
 30
0.0
 10
268.6764620923861
 20
241.0182934869514
 30
0.0
  0
SPLINE
  5
EA
330
1F
100
AcDbEntity
  8
0
  6
Continuous
 62
     7
370
    15
100
AcDbSpline
210
0.0
220
0.0
230
1.0
 70
     8
 71
     3
 72
    19
 73
    15
 74
     0
 42
0.00000001
 43
0.00000001
 40
0.0
 40
0.0
 40
0.0
 40
0.0
 40
0.0979033736757284
 40
0.1753767752232956
 40
0.2884822032961697
 40
0.3734525700840743
 40
0.4570022720946865
 40
0.6168867031555729
 40
0.6796659019373148
 40
0.7634255342528317
 40
0.8137555855017751
 40
0.8702971455237448
 40
0.9323987944767276
 40
1.0
 40
1.0
 40
1.0
 40
1.0
 10
268.0583991789683
 20
240.8954674061821
 30
0.0
 10
268.1089062832669
 20
240.869090411688
 30
0.0
 10
268.1993809292899
 20
240.8218406381534
 30
0.0
 10
268.5740243492666
 20
240.7611920060043
 30
0.0
 10
269.0605367429682
 20
240.7073052254022
 30
0.0
 10
269.6518646658571
 20
240.6540717192909
 30
0.0
 10
270.4059671716672
 20
240.6025220062947
 30
0.0
 10
271.0470578936548
 20
240.5355781309298
 30
0.0
 10
271.6963339997289
 20
240.5000583620494
 30
0.0
 10
272.0746643886476
 20
240.5782457865749
 30
0.0
 10
272.3265175897567
 20
240.6864426895316
 30
0.0
 10
272.4601144726778
 20
240.7747851257431
 30
0.0
 10
272.5218714484328
 20
240.8486257237072
 30
0.0
 10
272.45043608663
 20
240.9291410592433
 30
0.0
 10
272.4132039332255
 20
240.971105700402
 30
0.0
  0
SPLINE
  5
EB
330
1F
100
AcDbEntity
  8
0
  6
Continuous
 62
     7
370
    15
100
AcDbSpline
210
0.0
220
0.0
230
1.0
 70
     8
 71
     3
 72
    25
 73
    21
 74
     0
 42
0.00000001
 43
0.00000001
 40
0.0
 40
0.0
 40
0.0
 40
0.0
 40
0.0176268899162512
 40
0.0344980499122053
 40
0.050315126133779
 40
0.0649738322073702
 40
0.090944518425799
 40
0.1134381532453552
 40
0.1538408905572516
 40
0.191235137456296
 40
0.2995722695172233
 40
0.3999649734684962
 40
0.5012971299072176
 40
0.5949075374227529
 40
0.6784886355470741
 40
0.733631620823079
 40
0.8075209696764402
 40
0.8952853682008521
 40
0.945310775473205
 40
1.0
 40
1.0
 40
1.0
 40
1.0
 10
272.0558815383776
 20
240.3455237541781
 30
0.0
 10
272.0955922043487
 20
240.3499182127539
 30
0.0
 10
272.173310993269
 20
240.3585187232242
 30
0.0
 10
272.2751908725773
 20
240.4045218509254
 30
0.0
 10
272.3562062238319
 20
240.4634815040228
 30
0.0
 10
272.4324056797436
 20
240.5470538958187
 30
0.0
 10
272.4854589676773
 20
240.6507073047543
 30
0.0
 10
272.5096172451572
 20
240.783039853349
 30
0.0
 10
272.4867282139224
 20
240.9149009969504
 30
0.0
 10
272.3154907012246
 20
241.1601167611349
 30
0.0
 10
271.9726960998814
 20
241.247196572784
 30
0.0
 10
271.4775838775404
 20
241.3057520919042
 30
0.0
 10
270.8643705580308
 20
241.3641093290643
 30
0.0
 10
270.2149044370061
 20
241.4137312969434
 30
0.0
 10
269.6751958266683
 20
241.4532134387188
 30
0.0
 10
269.2292018406292
 20
241.4923885353757
 30
0.0
 10
268.8404787916097
 20
241.5306177967799
 30
0.0
 10
268.5803331116097
 20
241.5584596747025
 30
0.0
 10
268.4498935353442
 20
241.5809532155979
 30
0.0
 10
268.4412280990535
 20
241.5934166090055
 30
0.0
 10
268.4367024087771
 20
241.5999258552179
 30
0.0
  0
SPLINE
  5
EC
330
1F
100
AcDbEntity
  8
0
  6
Continuous
 62
     7
370
    15
100
AcDbSpline
210
0.0
220
0.0
230
1.0
 70
     8
 71
     3
 72
    12
 73
     8
 74
     0
 42
0.00000001
 43
0.00000001
 40
0.0
 40
0.0
 40
0.0
 40
0.0
 40
0.175647670400461
 40
0.5723083889404248
 40
0.758616423787197
 40
0.9207513991597377
 40
1.0
 40
1.0
 40
1.0
 40
1.0
 10
268.5250290417536
 20
240.7814381327913
 30
0.0
 10
268.4594653986879
 20
240.7722671046069
 30
0.0
 10
268.2458410286608
 20
240.7423853740198
 30
0.0
 10
268.029923978419
 20
240.6684443770478
 30
0.0
 10
267.8687726990256
 20
240.4535219342476
 30
0.0
 10
267.8375590510838
 20
240.2933000500838
 30
0.0
 10
267.8685360295888
 20
240.2146369160288
 30
0.0
 10
267.8787060761317
 20
240.1888110358701
 30
0.0
  0
LINE
  5
ED
330
1F
100
AcDbEntity
  8
0
  6
Continuous
 62
     7
370
    15
100
AcDbLine
 10
268.0362188005
 20
231.4910069723
 30
0.0
 11
266.9177599931
 21
231.4910069723
 31
0.0
  0
LINE
  5
EE
330
1F
100
AcDbEntity
  8
0
  6
Continuous
 62
     7
370
    15
100
AcDbLine
 10
266.9177599931
 20
230.6910074
 30
0.0
 11
268.6764620924
 21
230.6910074
 31
0.0
  0
LINE
  5
EF
330
1F
100
AcDbEntity
  8
0
  6
Continuous
 62
     7
370
    15
100
AcDbLine
 10
265.5074693942
 20
244.2887477261
 30
0.0
 11
265.5074693942
 21
244.342217749
 31
0.0
  0
LINE
  5
F0
330
1F
100
AcDbEntity
  8
0
  6
Continuous
 62
     7
370
    15
100
AcDbLine
 10
262.5074707651
 20
244.342217749
 30
0.0
 11
262.5074707651
 21
244.2887477261
 31
0.0
  0
SPLINE
  5
F1
330
1F
100
AcDbEntity
  8
0
  6
Continuous
 62
     7
370
    15
100
AcDbSpline
210
0.0
220
0.0
230
1.0
 70
     8
 71
     3
 72
    15
 73
    11
 74
     0
 42
0.00000001
 43
0.00000001
 40
0.0
 40
0.0
 40
0.0
 40
0.0
 40
0.1077551036863209
 40
0.235250774724543
 40
0.3627908901706017
 40
0.4902566411288575
 40
0.6176624605260265
 40
0.7450971317547226
 40
0.8724965622541917
 40
1.0
 40
1.0
 40
1.0
 40
1.0
 10
262.5235267662867
 20
228.2887469660924
 30
0.0
 10
262.5400666991932
 20
227.9762262028831
 30
0.0
 10
262.5761766549822
 20
227.2939313588588
 30
0.0
 10
262.9123768369212
 20
226.2847776248855
 30
0.0
 10
263.4704638442532
 20
225.3212992715808
 30
0.0
 10
264.2252941661181
 20
224.5003803340259
 30
0.0
 10
265.1404496467952
 20
223.8651017976967
 30
0.0
 10
266.1677083619512
 20
223.4449458818673
 30
0.0
 10
267.2636899826753
 20
223.2311375172638
 30
0.0
 10
267.9994493006427
 20
223.2966681301249
 30
0.0
 10
268.3674790644511
 20
223.3294468056843
 30
0.0
  0
SPLINE
  5
F2
330
1F
100
AcDbEntity
  8
0
  6
Continuous
 62
     7
370
    15
100
AcDbSpline
210
0.0
220
0.0
230
1.0
 70
     8
 71
     3
 72
    15
 73
    11
 74
     0
 42
0.00000001
 43
0.00000001
 40
0.0
 40
0.0
 40
0.0
 40
0.0
 40
0.1316515586047396
 40
0.2633127136958283
 40
0.3951895423885307
 40
0.526669131905233
 40
0.6575467008163791
 40
0.7882127138924467
 40
0.9184595642371461
 40
1.0
 40
1.0
 40
1.0
 40
1.0
 10
267.8697877311571
 20
226.2871317249224
 30
0.0
 10
267.717603752023
 20
226.2753173923673
 30
0.0
 10
267.4132247005972
 20
226.2516878660742
 30
0.0
 10
266.9623668537751
 20
226.3531678089636
 30
0.0
 10
266.5433366591468
 20
226.5400184780781
 30
0.0
 10
266.1729435830932
 20
226.8126155054648
 30
0.0
 10
265.8706822025904
 20
227.1585258790197
 30
0.0
 10
265.651524887642
 20
227.5602341726995
 30
0.0
 10
265.5341519739382
 20
227.9465464877087
 30
0.0
 10
265.5239779764103
 20
228.193620682263
 30
0.0
 10
265.5200608754023
 20
228.2887469660924
 30
0.0
  0
SPLINE
  5
F3
330
1F
100
AcDbEntity
  8
0
  6
Continuous
 62
     7
370
    15
100
AcDbSpline
210
0.0
220
0.0
230
1.0
 70
     8
 71
     3
 72
    15
 73
    11
 74
     0
 42
0.00000001
 43
0.00000001
 40
0.0
 40
0.0
 40
0.0
 40
0.0
 40
0.1249271199019881
 40
0.2499164786626197
 40
0.3749670180552142
 40
0.4999570436912684
 40
0.624920505096255
 40
0.7499166867458813
 40
0.8748739282905801
 40
1.0
 40
1.0
 40
1.0
 40
1.0
 10
268.5383506798609
 20
249.2192681562588
 30
0.0
 10
268.171974020456
 20
249.2626000128292
 30
0.0
 10
267.4390381723033
 20
249.3492853139589
 30
0.0
 10
266.3350120947167
 20
249.1840955723123
 30
0.0
 10
265.2942128025925
 20
248.7951647727679
 30
0.0
 10
264.3590238257758
 20
248.1901502763322
 30
0.0
 10
263.5783803170414
 20
247.3939564293889
 30
0.0
 10
262.9904179899844
 20
246.4495931639684
 30
0.0
 10
262.594581659697
 20
245.4011506178985
 30
0.0
 10
262.5365207955122
 20
244.6620284213435
 30
0.0
 10
262.5074707651003
 20
244.2922178339646
 30
0.0
  0
SPLINE
  5
F4
330
1F
100
AcDbEntity
  8
0
  6
Continuous
 62
     7
370
    15
100
AcDbSpline
210
0.0
220
0.0
230
1.0
 70
     8
 71
     3
 72
    15
 73
    11
 74
     0
 42
0.00000001
 43
0.00000001
 40
0.0
 40
0.0
 40
0.0
 40
0.0
 40
0.1242530462176843
 40
0.2486332419100647
 40
0.3735411395592486
 40
0.4985830848606487
 40
0.623663589876646
 40
0.7490697403789933
 40
0.8744383161927857
 40
1.0
 40
1.0
 40
1.0
 40
1.0
 10
265.5074693941935
 20
244.2922178339646
 30
0.0
 10
265.5210300175264
 20
244.4441739771989
 30
0.0
 10
265.5481651409233
 20
244.7482417620184
 30
0.0
 10
265.7226207464068
 20
245.1755580593764
 30
0.0
 10
265.9759548015472
 20
245.5572000833766
 30
0.0
 10
266.3057779793607
 20
245.8771292174591
 30
0.0
 10
266.6967042767537
 20
246.1177053905979
 30
0.0
 10
267.1294023137939
 20
246.2693291616698
 30
0.0
 10
267.5869341733138
 20
246.3227866424438
 30
0.0
 10
267.8888534017198
 20
246.2820966346777
 30
0.0
 10
268.0399291896685
 20
246.261735973923
 30
0.0
  0
LINE
  5
F5
330
1F
100
AcDbEntity
  8
0
  6
Continuous
 62
     7
370
    15
100
AcDbLine
 10
283.4105365658
 20
228.9038841296
 30
0.0
 11
267.8695642137
 21
226.2874660697
 31
0.0
  0
LINE
  5
F6
330
1F
100
AcDbEntity
  8
0
  6
Continuous
 62
     7
370
    15
100
AcDbLine
 10
268.3676206255
 20
223.329098491
 30
0.0
 11
283.9085929775
 21
225.9455170166
 31
0.0
  0
LINE
  5
F7
330
1F
100
AcDbEntity
  8
0
  6
Continuous
 62
     7
370
    15
100
AcDbLine
 10
268.0401452565
 20
246.2613103595
 30
0.0
 11
283.581110158
 21
243.6448913683
 31
0.0
  0
LINE
  5
F8
330
1F
100
AcDbEntity
  8
0
  6
Continuous
 62
     7
370
    15
100
AcDbLine
 10
284.0791814709
 20
246.6032584813
 30
0.0
 11
268.5382091188
 21
249.2196770069
 31
0.0
  0
SPLINE
  5
F9
330
1F
100
AcDbEntity
  8
0
  6
Continuous
 62
     7
370
    15
100
AcDbSpline
210
0.0
220
0.0
230
1.0
 70
     8
 71
     3
 72
    12
 73
     8
 74
     0
 42
0.00000001
 43
0.00000001
 40
0.0
 40
0.0
 40
0.0
 40
0.0
 40
0.152613930552983
 40
0.2973908389818963
 40
0.5623711722461424
 40
0.7966022734797539
 40
1.0
 40
1.0
 40
1.0
 40
1.0
 10
283.9082502508028
 20
225.9458262157128
 30
0.0
 10
284.1594698719711
 20
225.9985642909491
 30
0.0
 10
284.6490084982106
 20
226.101332238698
 30
0.0
 10
285.4985303228841
 20
226.5305777058741
 30
0.0
 10
286.3105255068767
 20
227.2749677410515
 30
0.0
 10
286.8749502977075
 20
228.3460154172791
 30
0.0
 10
286.9566409929396
 20
229.0809393559827
 30
0.0
 10
286.994608559595
 20
229.4225115944133
 30
0.0
  0
SPLINE
  5
FA
330
1F
100
AcDbEntity
  8
0
  6
Continuous
 62
     7
370
    15
100
AcDbSpline
210
0.0
220
0.0
230
1.0
 70
     8
 71
     3
 72
    11
 73
     7
 74
     0
 42
0.00000001
 43
0.00000001
 40
0.0
 40
0.0
 40
0.0
 40
0.0
 40
0.2003557084226641
 40
0.4328019081171545
 40
0.6990219638969846
 40
1.0
 40
1.0
 40
1.0
 40
1.0
 10
283.9963012122973
 20
229.4225115944133
 30
0.0
 10
283.9830737133052
 20
229.3660851204416
 30
0.0
 10
283.9545000986653
 20
229.2441944800623
 30
0.0
 10
283.8386149125762
 20
229.0784916200807
 30
0.0
 10
283.653855623256
 20
228.9395864424926
 30
0.0
 10
283.4962335266467
 20
228.9161971636897
 30
0.0
 10
283.4125929260119
 20
228.9037858751104
 30
0.0
  0
SPLINE
  5
FB
330
1F
100
AcDbEntity
  8
0
  6
Continuous
 62
     7
370
    15
100
AcDbSpline
210
0.0
220
0.0
230
1.0
 70
     8
 71
     3
 72
    12
 73
     8
 74
     0
 42
0.00000001
 43
0.00000001
 40
0.0
 40
0.0
 40
0.0
 40
0.0
 40
0.203406314462845
 40
0.4376409325717662
 40
0.7026159820239064
 40
0.8473900631967533
 40
0.9999999999999999
 40
0.9999999999999999
 40
0.9999999999999999
 40
0.9999999999999999
 10
286.994608559595
 20
242.9811424259529
 30
0.0
 10
286.9731744085587
 20
243.324151631352
 30
0.0
 10
286.9270575420635
 20
244.0621565892019
 30
0.0
 10
286.4149376268511
 20
245.1592608493191
 30
0.0
 10
285.6397346523306
 20
245.9420200152102
 30
0.0
 10
284.8118838507772
 20
246.411747749528
 30
0.0
 10
284.3278950016767
 20
246.538008995117
 30
0.0
 10
284.0795241975649
 20
246.6028030645535
 30
0.0
  0
SPLINE
  5
FC
330
1F
100
AcDbEntity
  8
0
  6
Continuous
 62
     7
370
    15
100
AcDbSpline
210
0.0
220
0.0
230
1.0
 70
     8
 71
     3
 72
    12
 73
     8
 74
     0
 42
0.00000001
 43
0.00000001
 40
0.0
 40
0.0
 40
0.0
 40
0.0
 40
0.1555467668030945
 40
0.3021964619754383
 40
0.5679612517421782
 40
0.799944018567254
 40
1.0
 40
1.0
 40
1.0
 40
1.0
 10
283.5792028093203
 20
243.6458096523271
 30
0.0
 10
283.619744423661
 20
243.6300597750007
 30
0.0
 10
283.6985087250241
 20
243.5994608927326
 30
0.0
 10
283.8281375717476
 20
243.5044185885303
 30
0.0
 10
283.9425660469764
 20
243.3582441233191
 30
0.0
 10
284.0067230608346
 20
243.1639934696116
 30
0.0
 10
283.9995996943753
 20
243.0390142025663
 30
0.0
 10
283.9963012122973
 20
242.9811424259529
 30
0.0
  0
LINE
  5
FD
330
1F
100
AcDbEntity
  8
0
  6
Continuous
 62
     7
370
    15
100
AcDbLine
 10
283.9954518461
 20
243.031142341
 30
0.0
 11
283.9954518461
 21
242.7887474802
 31
0.0
  0
LINE
  5
FE
330
1F
100
AcDbEntity
  8
0
  6
Continuous
 62
     7
370
    15
100
AcDbLine
 10
283.9954518461
 20
229.788747212
 30
0.0
 11
283.9954518461
 21
229.3725116793
 31
0.0
  0
LINE
  5
FF
330
1F
100
AcDbEntity
  8
0
  6
Continuous
 62
     7
370
    15
100
AcDbLine
 10
286.9954579258
 20
229.3725116793
 30
0.0
 11
286.9954579258
 21
229.7914918196
 31
0.0
  0
LINE
  5
100
330
1F
100
AcDbEntity
  8
0
  6
Continuous
 62
     7
370
    15
100
AcDbLine
 10
286.9954579258
 20
242.7860028726
 30
0.0
 11
286.9954579258
 21
243.031142341
 31
0.0
  0
LINE
  5
101
330
1F
100
AcDbEntity
  8
0
  6
Continuous
 62
     7
370
    15
100
AcDbLine
 10
273.2947342777
 20
241.8887471464
 30
0.0
 11
271.6764607215
 21
241.8887471464
 31
0.0
  0
LINE
  5
102
330
1F
100
AcDbEntity
  8
0
  6
Continuous
 62
     7
370
    15
100
AcDbLine
 10
272.3033823752
 20
241.0887475741
 30
0.0
 11
273.2947342777
 21
241.0887475741
 31
0.0
  0
LINE
  5
103
330
1F
100
AcDbEntity
  8
0
  6
Continuous
 62
     7
370
    15
100
AcDbLine
 10
273.6329608345
 20
243.1568862554
 30
0.0
 11
273.3664386654
 21
241.9486391042
 31
0.0
  0
LINE
  5
104
330
1F
100
AcDbEntity
  8
0
  6
Continuous
 62
     7
370
    15
100
AcDbLine
 10
274.1345935249
 20
241.7170890291
 30
0.0
 11
274.4141765618
 21
242.9845585172
 31
0.0
  0
SPLINE
  5
105
330
1F
100
AcDbEntity
  8
0
  6
Continuous
 62
     7
370
    15
100
AcDbSpline
210
0.0
220
0.0
230
1.0
 70
     8
 71
     3
 72
    11
 73
     7
 74
     0
 42
0.00000001
 43
0.00000001
 40
0.0
 40
0.0
 40
0.0
 40
0.0
 40
0.2541309399275824
 40
0.5022690019548702
 40
0.7495126202113759
 40
1.0
 40
1.0
 40
1.0
 40
1.0
 10
273.2947342777117
 20
241.0887475740597
 30
0.0
 10
273.3948230221468
 20
241.098993685538
 30
0.0
 10
273.5926402331823
 20
241.1192442862226
 30
0.0
 10
273.8507855593804
 20
241.2732767739924
 30
0.0
 10
274.054234545216
 20
241.4923509066896
 30
0.0
 10
274.1159730265654
 20
241.6794006905497
 30
0.0
 10
274.1470434450968
 20
241.7735350933359
 30
0.0
  0
LINE
  5
106
330
1F
100
AcDbEntity
  8
0
  6
Continuous
 62
     7
370
    15
100
AcDbLine
 10
272.9064621711
 20
243.4887472224
 30
0.0
 11
272.9064621711
 21
244.2887477261
 31
0.0
  0
LINE
  5
107
330
1F
100
AcDbEntity
  8
0
  6
Continuous
 62
     7
370
    15
100
AcDbLine
 10
272.9064621711
 20
228.2887469661
 30
0.0
 11
272.9064621711
 21
229.0887474698
 31
0.0
  0
LINE
  5
108
330
1F
100
AcDbEntity
  8
0
  6
Continuous
 62
     7
370
    15
100
AcDbLine
 10
267.9764651441
 20
244.5887472164
 30
0.0
 11
267.9764651441
 21
244.2887477261
 31
0.0
  0
LINE
  5
109
330
1F
100
AcDbEntity
  8
0
  6
Continuous
 62
     7
370
    15
100
AcDbLine
 10
272.3764651203
 20
244.2887477261
 30
0.0
 11
272.3764651203
 21
244.5887472164
 31
0.0
  0
ARC
  5
10A
330
1F
100
AcDbEntity
  8
0
  6
Continuous
 62
     7
370
    15
100
AcDbCircle
 10
270.1764614296
 20
241.481604489
 30
0.0
 40
3.807142857143189
100
AcDbArc
 50
54.6997515601
 51
125.3002484399
  0
LINE
  5
10B
330
1F
100
AcDbEntity
  8
0
  6
Continuous
 62
     7
370
    15
100
AcDbLine
 10
268.0764593863
 20
227.8887476456
 30
0.0
 11
268.0764593863
 21
227.4887473938
 31
0.0
  0
LINE
  5
10C
330
1F
100
AcDbEntity
  8
0
  6
Continuous
 62
     7
370
    15
100
AcDbLine
 10
272.2764634275
 20
227.4887473938
 30
0.0
 11
272.2764634275
 21
227.8887476456
 31
0.0
  0
ARC
  5
10D
330
1F
100
AcDbEntity
  8
0
  6
Continuous
 62
     7
370
    15
100
AcDbCircle
 10
268.2764614296
 20
228.2887473461
 30
0.0
 40
0.4000000000008868
100
AcDbArc
 50
270.0
 51
0.0
  0
ARC
  5
10E
330
1F
100
AcDbEntity
  8
0
  6
Continuous
 62
     7
370
    15
100
AcDbCircle
 10
272.0764614296
 20
228.2887473461
 30
0.0
 40
0.4000000000008299
100
AcDbArc
 50
180.0
 51
270.0
  0
LINE
  5
10F
330
1F
100
AcDbEntity
  8
0
  6
Continuous
 62
     7
370
    15
100
AcDbLine
 10
268.6764620924
 20
243.4887472224
 30
0.0
 11
268.6764620924
 21
243.0387475212
 31
0.0
  0
LINE
  5
110
330
1F
100
AcDbEntity
  8
0
  6
Continuous
 62
     7
370
    15
100
AcDbLine
 10
268.6764620924
 20
242.0387473572
 30
0.0
 11
268.6764620924
 21
241.5500428211
 31
0.0
  0
LINE
  5
111
330
1F
100
AcDbEntity
  8
0
  6
Continuous
 62
     7
370
    15
100
AcDbLine
 10
268.6764620924
 20
240.7539282609
 30
0.0
 11
268.6764620924
 21
240.5982311499
 31
0.0
  0
LINE
  5
112
330
1F
100
AcDbEntity
  8
0
  6
Continuous
 62
     7
370
    15
100
AcDbLine
 10
268.6764620924
 20
231.2991205287
 30
0.0
 11
268.6764620924
 21
230.5387473349
 31
0.0
  0
LINE
  5
113
330
1F
100
AcDbEntity
  8
0
  6
Continuous
 62
     7
370
    15
100
AcDbLine
 10
268.6764620924
 20
229.538747171
 30
0.0
 11
268.6764620924
 21
229.0887474698
 31
0.0
  0
LINE
  5
114
330
1F
100
AcDbEntity
  8
0
  6
Continuous
 62
     7
370
    15
100
AcDbLine
 10
271.6764607215
 20
229.0887474698
 30
0.0
 11
271.6764607215
 21
229.538747171
 31
0.0
  0
LINE
  5
115
330
1F
100
AcDbEntity
  8
0
  6
Continuous
 62
     7
370
    15
100
AcDbLine
 10
271.6764607215
 20
230.5387473349
 30
0.0
 11
271.6764607215
 21
231.0258895774
 31
0.0
  0
LINE
  5
116
330
1F
100
AcDbEntity
  8
0
  6
Continuous
 62
     7
370
    15
100
AcDbLine
 10
271.6764607215
 20
240.3338067849
 30
0.0
 11
271.6764607215
 21
240.5217453521
 31
0.0
  0
LINE
  5
117
330
1F
100
AcDbEntity
  8
0
  6
Continuous
 62
     7
370
    15
100
AcDbLine
 10
271.6764607215
 20
241.2768244427
 30
0.0
 11
271.6764607215
 21
242.0387473572
 31
0.0
  0
LINE
  5
118
330
1F
100
AcDbEntity
  8
0
  6
Continuous
 62
     7
370
    15
100
AcDbLine
 10
271.6764607215
 20
243.0387475212
 30
0.0
 11
271.6764607215
 21
243.4887472224
 31
0.0
  0
LINE
  5
119
330
1F
100
AcDbEntity
  8
0
  6
Continuous
 62
     7
370
    15
100
AcDbLine
 10
283.2750701094
 20
242.7887474802
 30
0.0
 11
283.2750701094
 21
229.788747212
 31
0.0
  0
LINE
  5
11A
330
1F
100
AcDbEntity
  8
0
  6
Continuous
 62
     7
370
    15
100
AcDbLine
 10
283.2750701094
 20
242.7887474802
 30
0.0
 11
285.9940551901
 21
242.7887474802
 31
0.0
  0
LWPOLYLINE
  5
11B
330
1F
100
AcDbEntity
  8
0
  6
Continuous
 62
     7
370
    15
100
AcDbPolyline
 90
        9
 70
   128
 43
0.0
 10
286.7245697164
 20
241.5887471904
 10
286.7105328226
 20
241.8228556086
 10
286.6689585829
 20
242.0479674507
 10
286.6014563227
 20
242.2554316614
 10
286.5106039429
 20
242.4372756537
 10
286.3999032163
 20
242.5865107831
 10
286.2736009741
 20
242.6974028964
 10
286.1365698957
 20
242.7656897959
 10
285.9940551901
 20
242.7887474802
  0
LINE
  5
11C
330
1F
100
AcDbEntity
  8
0
  6
Continuous
 62
     7
370
    15
100
AcDbLine
 10
286.7245697164
 20
241.5887471904
 30
0.0
 11
286.7245697164
 21
230.9887475018
 31
0.0
  0
LWPOLYLINE
  5
11D
330
1F
100
AcDbEntity
  8
0
  6
Continuous
 62
     7
370
    15
100
AcDbPolyline
 90
        9
 70
   128
 43
0.0
 10
285.9940551901
 20
229.788747212
 10
286.1365698957
 20
229.8118048963
 10
286.2736009741
 20
229.8800917957
 10
286.3999032163
 20
229.990983909
 10
286.5106039429
 20
230.1402190384
 10
286.6014563227
 20
230.3220630307
 10
286.6689585829
 20
230.5295272414
 10
286.7105328226
 20
230.7546390836
 10
286.7245697164
 20
230.9887475018
  0
LINE
  5
11E
330
1F
100
AcDbEntity
  8
0
  6
Continuous
 62
     7
370
    15
100
AcDbLine
 10
285.9940551901
 20
229.788747212
 30
0.0
 11
283.2750701094
 21
229.788747212
 31
0.0
  0
LINE
  5
11F
330
1F
100
AcDbEntity
  8
0
  6
Continuous
 62
     7
370
    15
100
AcDbLine
 10
285.9940551901
 20
242.7887474802
 30
0.0
 11
286.9460754776
 21
242.7887474802
 31
0.0
  0
LWPOLYLINE
  5
120
330
1F
100
AcDbEntity
  8
0
  6
Continuous
 62
     7
370
    15
100
AcDbPolyline
 90
        9
 70
   128
 43
0.0
 10
286.9460754776
 20
242.7887474802
 10
287.0885901832
 20
242.7656897959
 10
287.2256361627
 20
242.6974028964
 10
287.3519235039
 20
242.5865107831
 10
287.4626242304
 20
242.4372756537
 10
287.5534766102
 20
242.2554316614
 10
287.6209788704
 20
242.0479674507
 10
287.6625531101
 20
241.8228556086
 10
287.676590004
 20
241.5887471904
  0
LINE
  5
121
330
1F
100
AcDbEntity
  8
0
  6
Continuous
 62
     7
370
    15
100
AcDbLine
 10
287.676590004
 20
241.5887471904
 30
0.0
 11
286.7245697164
 21
241.5887471904
 31
0.0
  0
LINE
  5
122
330
1F
100
AcDbEntity
  8
0
  6
Continuous
 62
     7
370
    15
100
AcDbLine
 10
286.9460754776
 20
229.788747212
 30
0.0
 11
285.9940551901
 21
229.788747212
 31
0.0
  0
LINE
  5
123
330
1F
100
AcDbEntity
  8
0
  6
Continuous
 62
     7
370
    15
100
AcDbLine
 10
286.7245697164
 20
230.9887475018
 30
0.0
 11
287.676590004
 21
230.9887475018
 31
0.0
  0
LWPOLYLINE
  5
124
330
1F
100
AcDbEntity
  8
0
  6
Continuous
 62
     7
370
    15
100
AcDbPolyline
 90
        9
 70
   128
 43
0.0
 10
287.676590004
 20
230.9887475018
 10
287.6625531101
 20
230.7546390836
 10
287.6209788704
 20
230.5295272414
 10
287.5534766102
 20
230.3220630307
 10
287.4626242304
 20
230.1402190384
 10
287.3519235039
 20
229.990983909
 10
287.2256361627
 20
229.8800917957
 10
287.0885901832
 20
229.8118048963
 10
286.9460754776
 20
229.788747212
  0
LINE
  5
125
330
1F
100
AcDbEntity
  8
0
  6
Continuous
 62
     7
370
    15
100
AcDbLine
 10
287.676590004
 20
241.5887471904
 30
0.0
 11
287.676590004
 21
230.9887475018
 31
0.0
  0
LINE
  5
126
330
1F
100
AcDbEntity
  8
0
  6
Continuous
 62
     7
370
    15
100
AcDbLine
 10
282.6964580202
 20
242.7887474802
 30
0.0
 11
283.2750701094
 21
242.7887474802
 31
0.0
  0
LINE
  5
127
330
1F
100
AcDbEntity
  8
0
  6
Continuous
 62
     7
370
    15
100
AcDbLine
 10
283.2750701094
 20
229.788747212
 30
0.0
 11
282.6964580202
 21
229.788747212
 31
0.0
  0
CIRCLE
  5
128
330
1F
100
AcDbEntity
  8
0
  6
Continuous
 62
     7
370
    15
100
AcDbCircle
 10
293.1964614296
 20
231.2887473461
 30
0.0
 40
2.999999999999943
  0
LINE
  5
129
330
1F
100
AcDbEntity
  8
0
  6
Continuous
 62
     7
370
    15
100
AcDbLine
 10
292.7964650774
 20
229.3887474258
 30
0.0
 11
293.5964637184
 21
229.3887474258
 31
0.0
  0
LINE
  5
12A
330
1F
100
AcDbEntity
  8
0
  6
Continuous
 62
     7
370
    15
100
AcDbLine
 10
293.5964637184
 20
229.3887474258
 30
0.0
 11
293.5964637184
 21
230.888747206
 31
0.0
  0
LINE
  5
12B
330
1F
100
AcDbEntity
  8
0
  6
Continuous
 62
     7
370
    15
100
AcDbLine
 10
293.5964637184
 20
230.888747206
 30
0.0
 11
295.0964593077
 21
230.888747206
 31
0.0
  0
LINE
  5
12C
330
1F
100
AcDbEntity
  8
0
  6
Continuous
 62
     7
370
    15
100
AcDbLine
 10
295.0964593077
 20
230.888747206
 30
0.0
 11
295.0964593077
 21
231.688747244
 31
0.0
  0
LINE
  5
12D
330
1F
100
AcDbEntity
  8
0
  6
Continuous
 62
     7
370
    15
100
AcDbLine
 10
295.0964593077
 20
231.688747244
 30
0.0
 11
293.5964637184
 21
231.688747244
 31
0.0
  0
LINE
  5
12E
330
1F
100
AcDbEntity
  8
0
  6
Continuous
 62
     7
370
    15
100
AcDbLine
 10
293.5964637184
 20
231.688747244
 30
0.0
 11
293.5964637184
 21
233.188747257
 31
0.0
  0
LINE
  5
12F
330
1F
100
AcDbEntity
  8
0
  6
Continuous
 62
     7
370
    15
100
AcDbLine
 10
293.5964637184
 20
233.188747257
 30
0.0
 11
292.7964650774
 21
233.188747257
 31
0.0
  0
LINE
  5
130
330
1F
100
AcDbEntity
  8
0
  6
Continuous
 62
     7
370
    15
100
AcDbLine
 10
292.7964650774
 20
233.188747257
 30
0.0
 11
292.7964650774
 21
231.688747244
 31
0.0
  0
LINE
  5
131
330
1F
100
AcDbEntity
  8
0
  6
Continuous
 62
     7
370
    15
100
AcDbLine
 10
292.7964650774
 20
231.688747244
 30
0.0
 11
291.296454587
 21
231.688747244
 31
0.0
  0
LINE
  5
132
330
1F
100
AcDbEntity
  8
0
  6
Continuous
 62
     7
370
    15
100
AcDbLine
 10
291.296454587
 20
231.688747244
 30
0.0
 11
291.296454587
 21
230.888747206
 31
0.0
  0
LINE
  5
133
330
1F
100
AcDbEntity
  8
0
  6
Continuous
 62
     7
370
    15
100
AcDbLine
 10
291.296454587
 20
230.888747206
 30
0.0
 11
292.7964650774
 21
230.888747206
 31
0.0
  0
LINE
  5
134
330
1F
100
AcDbEntity
  8
0
  6
Continuous
 62
     7
370
    15
100
AcDbLine
 10
292.7964650774
 20
230.888747206
 30
0.0
 11
292.7964650774
 21
229.3887474258
 31
0.0
  0
CIRCLE
  5
135
330
1F
100
AcDbEntity
  8
0
  6
Continuous
 62
     7
370
    15
100
AcDbCircle
 10
293.1964614296
 20
241.2887473461
 30
0.0
 40
3.0
  0
LINE
  5
136
330
1F
100
AcDbEntity
  8
0
  6
Continuous
 62
     7
370
    15
100
AcDbLine
 10
292.7964650774
 20
241.6887474861
 30
0.0
 11
291.296454587
 21
241.6887474861
 31
0.0
  0
LINE
  5
137
330
1F
100
AcDbEntity
  8
0
  6
Continuous
 62
     7
370
    15
100
AcDbLine
 10
291.296454587
 20
241.6887474861
 30
0.0
 11
291.296454587
 21
240.8887474481
 31
0.0
  0
LINE
  5
138
330
1F
100
AcDbEntity
  8
0
  6
Continuous
 62
     7
370
    15
100
AcDbLine
 10
291.296454587
 20
240.8887474481
 30
0.0
 11
292.7964650774
 21
240.8887474481
 31
0.0
  0
LINE
  5
139
330
1F
100
AcDbEntity
  8
0
  6
Continuous
 62
     7
370
    15
100
AcDbLine
 10
292.7964650774
 20
240.8887474481
 30
0.0
 11
292.7964650774
 21
239.3887474351
 31
0.0
  0
LINE
  5
13A
330
1F
100
AcDbEntity
  8
0
  6
Continuous
 62
     7
370
    15
100
AcDbLine
 10
292.7964650774
 20
239.3887474351
 30
0.0
 11
293.5964637184
 21
239.3887474351
 31
0.0
  0
LINE
  5
13B
330
1F
100
AcDbEntity
  8
0
  6
Continuous
 62
     7
370
    15
100
AcDbLine
 10
293.5964637184
 20
239.3887474351
 30
0.0
 11
293.5964637184
 21
240.8887474481
 31
0.0
  0
LINE
  5
13C
330
1F
100
AcDbEntity
  8
0
  6
Continuous
 62
     7
370
    15
100
AcDbLine
 10
293.5964637184
 20
240.8887474481
 30
0.0
 11
295.0964593077
 21
240.8887474481
 31
0.0
  0
LINE
  5
13D
330
1F
100
AcDbEntity
  8
0
  6
Continuous
 62
     7
370
    15
100
AcDbLine
 10
295.0964593077
 20
240.8887474481
 30
0.0
 11
295.0964593077
 21
241.6887474861
 31
0.0
  0
LINE
  5
13E
330
1F
100
AcDbEntity
  8
0
  6
Continuous
 62
     7
370
    15
100
AcDbLine
 10
295.0964593077
 20
241.6887474861
 30
0.0
 11
293.5964637184
 21
241.6887474861
 31
0.0
  0
LINE
  5
13F
330
1F
100
AcDbEntity
  8
0
  6
Continuous
 62
     7
370
    15
100
AcDbLine
 10
293.5964637184
 20
241.6887474861
 30
0.0
 11
293.5964637184
 21
243.1887472664
 31
0.0
  0
LINE
  5
140
330
1F
100
AcDbEntity
  8
0
  6
Continuous
 62
     7
370
    15
100
AcDbLine
 10
293.5964637184
 20
243.1887472664
 30
0.0
 11
292.7964650774
 21
243.1887472664
 31
0.0
  0
LINE
  5
141
330
1F
100
AcDbEntity
  8
0
  6
Continuous
 62
     7
370
    15
100
AcDbLine
 10
292.7964650774
 20
243.1887472664
 30
0.0
 11
292.7964650774
 21
241.6887474861
 31
0.0
  0
LINE
  5
142
330
1F
100
AcDbEntity
  8
0
  6
Continuous
 62
     7
370
    15
100
AcDbLine
 10
292.1786927366
 20
225.1868616473
 30
0.0
 11
287.1964596891
 21
229.788747212
 31
0.0
  0
ARC
  5
143
330
1F
100
AcDbEntity
  8
0
  6
Continuous
 62
     7
370
    15
100
AcDbCircle
 10
282.6964614296
 20
236.2887473461
 30
0.0
 40
15.99999999999999
100
AcDbArc
 50
316.3971810272
 51
43.6028189726
  0
LINE
  5
144
330
1F
100
AcDbEntity
  8
0
  6
Continuous
 62
     7
370
    15
100
AcDbLine
 10
287.1964596891
 20
242.7887474802
 30
0.0
 11
292.1786927366
 21
247.3906330448
 31
0.0
  0
ARC
  5
145
330
1F
100
AcDbEntity
  8
0
  6
Continuous
 62
     7
370
    15
100
AcDbCircle
 10
293.1964614296
 20
226.2887473461
 30
0.0
 40
1.500000000000011
100
AcDbArc
 50
227.2726046868
 51
316.3971810272
  0
ARC
  5
146
330
1F
100
AcDbEntity
  8
0
  6
Continuous
 62
     7
370
    15
100
AcDbCircle
 10
293.1964614296
 20
246.2887473461
 30
0.0
 40
1.50000000000001
100
AcDbArc
 50
43.6028189726
 51
132.7273953127
  0
LINE
  5
147
330
1F
100
AcDbEntity
  8
0
  6
Continuous
 62
     7
370
    15
100
AcDbLine
 10
286.9954579258
 20
242.7887474802
 30
0.0
 11
287.1964596891
 21
242.7887474802
 31
0.0
  0
LINE
  5
148
330
1F
100
AcDbEntity
  8
0
  6
Continuous
 62
     7
370
    15
100
AcDbLine
 10
287.1964596891
 20
229.788747212
 30
0.0
 11
286.9954579258
 21
229.788747212
 31
0.0
  0
LINE
  5
149
330
1F
100
AcDbEntity
  8
0
  6
Continuous
 62
     7
370
    15
100
AcDbLine
 10
290.1964657688
 20
36.2887443658
 30
0.0
 11
295.1964610004
 21
36.2887443658
 31
0.0
  0
LINE
  5
14A
330
1F
100
AcDbEntity
  8
0
  6
Continuous
 62
     7
370
    15
100
AcDbLine
 10
290.1964657688
 20
51.2887449619
 30
0.0
 11
290.1964657688
 21
36.2887443658
 31
0.0
  0
LINE
  5
14B
330
1F
100
AcDbEntity
  8
0
  6
Continuous
 62
     7
370
    15
100
AcDbLine
 10
290.1964657688
 20
51.2887449619
 30
0.0
 11
295.1964610004
 21
51.2887449619
 31
0.0
  0
LINE
  5
14C
330
1F
100
AcDbEntity
  8
0
  6
Continuous
 62
     7
370
    15
100
AcDbLine
 10
295.1964610004
 20
51.2887449619
 30
0.0
 11
295.1964610004
 21
36.2887443658
 31
0.0
  0
LINE
  5
14D
330
1F
100
AcDbEntity
  8
0
  6
Continuous
 62
     7
370
    15
100
AcDbLine
 10
295.1964610004
 20
51.2887449619
 30
0.0
 11
310.1964615965
 21
51.2887449619
 31
0.0
  0
ARC
  5
14E
330
1F
100
AcDbEntity
  8
0
  6
Continuous
 62
     7
370
    15
100
AcDbCircle
 10
295.1964614296
 20
51.2887473461
 30
0.0
 40
15.00000000000006
100
AcDbArc
 50
270.0
 51
0.0
  0
LINE
  5
14F
330
1F
100
AcDbEntity
  8
0
  6
Continuous
 62
     7
370
    15
100
AcDbLine
 10
295.1964610004
 20
51.2887449619
 30
0.0
 11
295.1964610004
 21
226.3012552318
 31
0.0
  0
LINE
  5
150
330
1F
100
AcDbEntity
  8
0
  6
Continuous
 62
     7
370
    15
100
AcDbLine
 10
290.1964657688
 20
51.2887449619
 30
0.0
 11
290.1964657688
 21
227.0177701172
 31
0.0
  0
LINE
  5
151
330
1F
100
AcDbEntity
  8
0
  6
Continuous
 62
     7
370
    15
100
AcDbLine
 10
310.1964615965
 20
51.2887449619
 30
0.0
 11
310.1964615965
 21
421.2887497303
 31
0.0
  0
LINE
  5
152
330
1F
100
AcDbEntity
  8
0
  6
Continuous
 62
     7
370
    15
100
AcDbLine
 10
295.1964610004
 20
246.2762394604
 30
0.0
 11
295.1964610004
 21
421.2887497303
 31
0.0
  0
LINE
  5
153
330
1F
100
AcDbEntity
  8
0
  6
Continuous
 62
     7
370
    15
100
AcDbLine
 10
295.1964610004
 20
421.2887497303
 30
0.0
 11
310.1964615965
 21
421.2887497303
 31
0.0
  0
LINE
  5
154
330
1F
100
AcDbEntity
  8
0
  6
Continuous
 62
     7
370
    15
100
AcDbLine
 10
290.1964657688
 20
421.2887497303
 30
0.0
 11
295.1964610004
 21
421.2887497303
 31
0.0
  0
LINE
  5
155
330
1F
100
AcDbEntity
  8
0
  6
Continuous
 62
     7
370
    15
100
AcDbLine
 10
290.1964657688
 20
245.559724575
 30
0.0
 11
290.1964657688
 21
421.2887497303
 31
0.0
  0
LINE
  5
156
330
1F
100
AcDbEntity
  8
0
  6
Continuous
 62
     7
370
    15
100
AcDbLine
 10
290.1964657688
 20
436.2887503263
 30
0.0
 11
295.1964610004
 21
436.2887503263
 31
0.0
  0
LINE
  5
157
330
1F
100
AcDbEntity
  8
0
  6
Continuous
 62
     7
370
    15
100
AcDbLine
 10
295.1964610004
 20
421.2887497303
 30
0.0
 11
295.1964610004
 21
436.2887503263
 31
0.0
  0
LINE
  5
158
330
1F
100
AcDbEntity
  8
0
  6
Continuous
 62
     7
370
    15
100
AcDbLine
 10
290.1964657688
 20
421.2887497303
 30
0.0
 11
290.1964657688
 21
436.2887503263
 31
0.0
  0
ARC
  5
159
330
1F
100
AcDbEntity
  8
0
  6
Continuous
 62
     7
370
    15
100
AcDbCircle
 10
295.1964614296
 20
421.2887473461
 30
0.0
 40
15.00000000000006
100
AcDbArc
 50
0.0
 51
90.0
  0
LINE
  5
15A
330
1F
100
AcDbEntity
  8
0
  6
Continuous
 62
     7
370
    15
100
AcDbLine
 10
262.5074707651
 20
244.292217834
 30
0.0
 11
265.5074693942
 21
244.292217834
 31
0.0
  0
SPLINE
  5
15B
330
1F
100
AcDbEntity
  8
0
  6
Continuous
 62
     7
370
    15
100
AcDbSpline
210
0.0
220
0.0
230
1.0
 70
     8
 71
     3
 72
    16
 73
    12
 74
     0
 42
0.00000001
 43
0.00000001
 40
0.0
 40
0.0
 40
0.0
 40
0.0
 40
0.1207070428064245
 40
0.2414137044325139
 40
0.362118282325166
 40
0.4828243664540374
 40
0.6035303497556166
 40
0.7242372755897817
 40
0.8449422991791885
 40
0.965648579102772
 40
1.0
 40
1.0
 40
1.0
 40
1.0
 10
268.3487632059916
 20
223.3363758456395
 30
0.0
 10
268.3681641972339
 20
223.3390481687074
 30
0.0
 10
268.4069661184521
 20
223.3443928064044
 30
0.0
 10
268.4118883565683
 20
223.6353345229016
 30
0.0
 10
268.3746774129321
 20
224.0886849153114
 30
0.0
 10
268.2977618241752
 20
224.6562049419535
 30
0.0
 10
268.1939472700684
 20
225.2445332872169
 30
0.0
 10
268.0778398235375
 20
225.7712258190828
 30
0.0
 10
267.970842837451
 20
226.1345175683523
 30
0.0
 10
267.898266269304
 20
226.3049822784528
 30
0.0
 10
267.8787159166723
 20
226.2718317112218
 30
0.0
 10
267.8743847393854
 20
226.2644875478432
 30
0.0
  0
SPLINE
  5
15C
330
1F
100
AcDbEntity
  8
0
  6
Continuous
 62
     7
370
    15
100
AcDbSpline
210
0.0
220
0.0
230
1.0
 70
     8
 71
     3
 72
    16
 73
    12
 74
     0
 42
0.00000001
 43
0.00000001
 40
0.0
 40
0.0
 40
0.0
 40
0.0
 40
0.1205802291477629
 40
0.241162886971151
 40
0.361745602078447
 40
0.4823270431662671
 40
0.6029091299325076
 40
0.7234904747922106
 40
0.8440739268470613
 40
0.9646562545538607
 40
0.9999999999999999
 40
0.9999999999999999
 40
0.9999999999999999
 40
0.9999999999999999
 10
268.5193442487582
 20
249.212399652271
 30
0.0
 10
268.5387495449738
 20
249.2097268209826
 30
0.0
 10
268.5775605282582
 20
249.2043811045708
 30
0.0
 10
268.5824623795039
 20
248.9134374760379
 30
0.0
 10
268.5452728236357
 20
248.460097573489
 30
0.0
 10
268.4683398079891
 20
247.8925696857866
 30
0.0
 10
268.3645259494348
 20
247.3042374505611
 30
0.0
 10
268.2484354604745
 20
246.7775807023365
 30
0.0
 10
268.1414051637099
 20
246.4141089259835
 30
0.0
 10
268.0686549204492
 20
246.2435610040688
 30
0.0
 10
268.0490030393213
 20
246.2771464011215
 30
0.0
 10
268.0445485496386
 20
246.2847591992901
 30
0.0
  0
SPLINE
  5
15D
330
1F
100
AcDbEntity
  8
0
  6
Continuous
 62
     7
370
    15
100
AcDbSpline
210
0.0
220
0.0
230
1.0
 70
     8
 71
     3
 72
    16
 73
    12
 74
     0
 42
0.00000001
 43
0.00000001
 40
0.0
 40
0.0
 40
0.0
 40
0.0
 40
0.1205148478020363
 40
0.2410323587825712
 40
0.36154977106122
 40
0.4820655673932582
 40
0.6025826668731772
 40
0.7230987590871006
 40
0.8436172367068354
 40
0.9641338966220048
 40
1.0
 40
1.0
 40
1.0
 40
1.0
 10
283.8897281074389
 20
225.9527943712161
 30
0.0
 10
283.9091290451593
 20
225.9554671303245
 30
0.0
 10
283.9479313493285
 20
225.9608127076049
 30
0.0
 10
283.9528538273094
 20
226.2517579497103
 30
0.0
 10
283.9156394508789
 20
226.7050952767268
 30
0.0
 10
283.8387405543754
 20
227.2726250796454
 30
0.0
 10
283.7349031904699
 20
227.8609611687792
 30
0.0
 10
283.6188291892943
 20
228.3875928046651
 30
0.0
 10
283.5117558464315
 20
228.751163891231
 30
0.0
 10
283.4389492069354
 20
228.921757337605
 30
0.0
 10
283.4192311837807
 20
228.8879424708143
 30
0.0
 10
283.4147088909014
 20
228.8801870923922
 30
0.0
  0
SPLINE
  5
15E
330
1F
100
AcDbEntity
  8
0
  6
Continuous
 62
     7
370
    15
100
AcDbSpline
210
0.0
220
0.0
230
1.0
 70
     8
 71
     3
 72
    16
 73
    12
 74
     0
 42
0.00000001
 43
0.00000001
 40
0.0
 40
0.0
 40
0.0
 40
0.0
 40
0.1205148134883834
 40
0.2410322014039964
 40
0.3615495793682622
 40
0.4820659143048517
 40
0.6025824479676901
 40
0.7230985058676063
 40
0.8436169491726547
 40
0.9641311127312384
 40
0.9999999999999999
 40
0.9999999999999999
 40
0.9999999999999999
 40
0.9999999999999999
 10
284.0603166007861
 20
246.5959811266945
 30
0.0
 10
284.0797176899338
 20
246.5933082705992
 30
0.0
 10
284.1185202826738
 20
246.5879625013113
 30
0.0
 10
284.1234405075923
 20
246.2970188896434
 30
0.0
 10
284.0862346685213
 20
245.8436794459581
 30
0.0
 10
284.0093035567023
 20
245.2761537260869
 30
0.0
 10
283.9054991745083
 20
244.6878124666854
 30
0.0
 10
283.789412396433
 20
244.1611828956496
 30
0.0
 10
283.6823585523481
 20
243.7976143611548
 30
0.0
 10
283.6095041481872
 20
243.6270183863891
 30
0.0
 10
283.5898136959979
 20
243.6608329700042
 30
0.0
 10
283.5852973842486
 20
243.6685888711796
 30
0.0
  0
SPLINE
  5
15F
330
1F
100
AcDbEntity
  8
0
  6
Continuous
 62
     7
370
    15
100
AcDbSpline
210
0.0
220
0.0
230
1.0
 70
    24
 71
     3
 72
    16
 73
    12
 74
     0
 42
0.00000001
 43
0.00000001
 40
0.0
 40
0.0
 40
0.0
 40
0.0
 40
0.0611072658103903
 40
0.1864685567105957
 40
0.3118332828610396
 40
0.437195919861042
 40
0.5625575982301341
 40
0.6879218439160338
 40
0.8132843021357672
 40
0.9386469391357697
 40
1.0
 40
1.0
 40
1.0
 40
1.0
 10
286.9666539811953
 20
229.4225115944133
 30
0.0
 10
286.9724210030963
 20
229.4225115944133
 30
0.0
 10
286.9900190454261
 20
229.4225115944133
 30
0.0
 10
286.7716171937072
 20
229.4225115944133
 30
0.0
 10
286.3588570689122
 20
229.4225115944133
 30
0.0
 10
285.8023971300046
 20
229.4225115944133
 30
0.0
 10
285.2032953270669
 20
229.4225115944133
 30
0.0
 10
284.6445816445552
 20
229.4225115944133
 30
0.0
 10
284.2276471422931
 20
229.4225115944133
 30
0.0
 10
284.0046551514722
 20
229.4225115944133
 30
0.0
 10
284.0194529687108
 20
229.4225115944133
 30
0.0
 10
284.0243153953417
 20
229.4225115944133
 30
0.0
  0
SPLINE
  5
160
330
1F
100
AcDbEntity
  8
0
  6
Continuous
 62
     7
370
    15
100
AcDbSpline
210
0.0
220
0.0
230
1.0
 70
    24
 71
     3
 72
    16
 73
    12
 74
     0
 42
0.00000001
 43
0.00000001
 40
0.0
 40
0.0
 40
0.0
 40
0.0
 40
0.0610097057000779
 40
0.1861708524569159
 40
0.3113354289794829
 40
0.4364979196870177
 40
0.5616594532941334
 40
0.6868235501192362
 40
0.8119858623319317
 40
0.9371483530394665
 40
1.0
 40
1.0
 40
1.0
 40
1.0
 10
286.9666539811953
 20
242.9811424259529
 30
0.0
 10
286.9724209968874
 20
242.9811424259529
 30
0.0
 10
286.9900190202707
 20
242.9811424259529
 30
0.0
 10
286.7716174269219
 20
242.9811424259529
 30
0.0
 10
286.3588562144277
 20
242.9811424259529
 30
0.0
 10
285.8024003146504
 20
242.9811424259529
 30
0.0
 10
285.2032834429414
 20
242.9811424259529
 30
0.0
 10
284.6446259971661
 20
242.9811424259529
 30
0.0
 10
284.2274816188146
 20
242.9811424259529
 30
0.0
 10
284.0040003010425
 20
242.9811424259529
 30
0.0
 10
284.0192033375348
 20
242.9811424259529
 30
0.0
 10
284.0242855930193
 20
242.9811424259529
 30
0.0
  0
SPLINE
  5
161
330
1F
100
AcDbEntity
  8
0
  6
Continuous
 62
     7
370
    15
100
AcDbSpline
210
0.0
220
0.0
230
1.0
 70
     8
 71
     3
 72
    19
 73
    15
 74
     0
 42
0.00000001
 43
0.00000001
 40
0.0
 40
0.0
 40
0.0
 40
0.0
 40
0.0039549776378648
 40
0.1157677199366972
 40
0.2280449053829162
 40
0.3355201711885925
 40
0.4377087198385091
 40
0.5348831260867358
 40
0.628304564211407
 40
0.7302987403351634
 40
0.8413366346615325
 40
0.9641210806095101
 40
0.9937658844715932
 40
1.0
 40
1.0
 40
1.0
 40
1.0
 10
273.2947342777117
 20
241.8887471463964
 30
0.0
 10
273.2951290668368
 20
241.8887415336976
 30
0.0
 10
273.3066850959839
 20
241.8885772421621
 30
0.0
 10
273.3299127684266
 20
241.8734461210772
 30
0.0
 10
273.3734158884532
 20
241.8065514828309
 30
0.0
 10
273.4113900583972
 20
241.7018530573262
 30
0.0
 10
273.4348862541594
 20
241.5767774013114
 30
0.0
 10
273.4462110788952
 20
241.4483415780396
 30
0.0
 10
273.4468205739296
 20
241.327166408786
 30
0.0
 10
273.4310339636
 20
241.2179419438671
 30
0.0
 10
273.3906593509402
 20
241.1285243472211
 30
0.0
 10
273.3387912758128
 20
241.0934699909741
 30
0.0
 10
273.3040871884029
 20
241.0888604558428
 30
0.0
 10
273.2961188163917
 20
241.0887642842797
 30
0.0
 10
273.2947342777117
 20
241.0887475740597
 30
0.0
  0
SPLINE
  5
162
330
1F
100
AcDbEntity
  8
0
  6
Continuous
 62
     7
370
    15
100
AcDbSpline
210
0.0
220
0.0
230
1.0
 70
     8
 71
     3
 72
    30
 73
    26
 74
     0
 42
0.00000001
 43
0.00000001
 40
0.0
 40
0.0
 40
0.0
 40
0.0
 40
0.1247101350178456
 40
0.2494120074117842
 40
0.3741270138621569
 40
0.4367848053677046
 40
0.4681540445569458
 40
0.483841760203463
 40
0.4916884763780781
 40
0.4956128155993287
 40
0.4975718017968226
 40
0.4985512768059792
 40
0.4990412458894969
 40
0.4992860713214644
 40
0.4994085274245891
 40
0.4994755181334227
 40
0.4995061105324881
 40
0.4995185841155532
 40
0.4995368262351859
 40
0.5609177874858622
 40
0.6646245350065487
 40
0.7325819853722026
 40
0.8111453701247551
 40
0.9002973735135731
 40
1.0
 40
1.0
 40
1.0
 40
1.0
 10
273.3664386653765
 20
241.9486391041861
 30
0.0
 10
273.3722024237547
 20
241.9468465342916
 30
0.0
 10
273.3837295586355
 20
241.9432615132686
 30
0.0
 10
273.4735805039599
 20
241.9214184201175
 30
0.0
 10
273.5810517721728
 20
241.8957403430805
 30
0.0
 10
273.6666052672112
 20
241.875329005049
 30
0.0
 10
273.710707505056
 20
241.8647939916457
 30
0.0
 10
273.7329331988744
 20
241.8594751185501
 30
0.0
 10
273.7440666805249
 20
241.8568094434808
 30
0.0
 10
273.7496370005231
 20
241.8554770508125
 30
0.0
 10
273.7524207051773
 20
241.8548080895685
 30
0.0
 10
273.7538121609297
 20
241.8544758661714
 30
0.0
 10
273.7545068255101
 20
241.8543071550812
 30
0.0
 10
273.7548549921359
 20
241.8542253886022
 30
0.0
 10
273.755030824725
 20
241.8541814581085
 30
0.0
 10
273.7551205186028
 20
241.8541621758777
 30
0.0
 10
273.7551656189856
 20
241.8541530979546
 30
0.0
 10
273.7551897949065
 20
241.8541445765181
 30
0.0
 10
273.7804856822416
 20
241.8497364852261
 30
0.0
 10
273.8472003490046
 20
241.8321645383
 30
0.0
 10
273.9384564010828
 20
241.8143164182424
 30
0.0
 10
274.0219252192721
 20
241.7966688507653
 30
0.0
 10
274.0854933778203
 20
241.7839206836575
 30
0.0
 10
274.1359925665736
 20
241.7742301190139
 30
0.0
 10
274.1432251331693
 20
241.7737752393868
 30
0.0
 10
274.1470434450968
 20
241.7735350933359
 30
0.0
  0
ELLIPSE
  5
163
330
1F
100
AcDbEntity
  8
0
  6
Continuous
 62
     7
370
    15
100
AcDbEllipse
 10
274.0235698233
 20
243.0707225248
 30
0.0
 11
0.3906095144045594
 21
-0.08616383961160068
 31
0.0
210
0.0
220
0.0
230
1.0
 40
0.0142285888
 41
0.0
 42
6.283185307179586
  0
LINE
  5
164
330
1F
100
AcDbEntity
  8
0
  6
Continuous
 62
     7
370
    15
100
AcDbLine
 10
273.4073870563
 20
231.5887474139
 30
0.0
 11
273.4073870563
 21
240.1887472403
 31
0.0
  0
LINE
  5
165
330
1F
100
AcDbEntity
  8
0
  6
Continuous
 62
     7
370
    15
100
AcDbLine
 10
267.8930931473
 20
231.5887474139
 30
0.0
 11
267.8930931473
 21
240.1887472403
 31
0.0
  0
LINE
  5
166
330
1F
100
AcDbEntity
  8
0
  6
Continuous
 62
     7
370
    15
100
AcDbLine
 10
273.4073870563
 20
240.1887472403
 30
0.0
 11
267.8930931473
 21
240.1887472403
 31
0.0
  0
LINE
  5
167
330
1F
100
AcDbEntity
  8
0
  6
Continuous
 62
     7
370
    15
100
AcDbLine
 10
273.4073870563
 20
231.5887474139
 30
0.0
 11
267.8930931473
 21
231.5887474139
 31
0.0
  0
LINE
  5
168
330
1F
100
AcDbEntity
  8
0
  6
Continuous
 62
     7
370
    15
100
AcDbLine
 10
266.7788364673
 20
243.4887472224
 30
0.0
 11
241.9667266989
 21
243.4887472224
 31
0.0
  0
LINE
  5
169
330
1F
100
AcDbEntity
  8
0
  6
Continuous
 62
     7
370
    15
100
AcDbLine
 10
266.7788364673
 20
240.1887472403
 30
0.0
 11
266.7788364673
 21
243.4887472224
 31
0.0
  0
LINE
  5
16A
330
1F
100
AcDbEntity
  8
0
  6
Continuous
 62
     7
370
    15
100
AcDbLine
 10
266.7788364673
 20
229.0887474698
 30
0.0
 11
266.7788364673
 21
231.5887474139
 31
0.0
  0
LINE
  5
16B
330
1F
100
AcDbEntity
  8
0
  6
Continuous
 62
     7
370
    15
100
AcDbLine
 10
241.9667266989
 20
229.0887474698
 30
0.0
 11
266.7788364673
 21
229.0887474698
 31
0.0
  0
LINE
  5
16C
330
1F
100
AcDbEntity
  8
0
  6
Continuous
 62
     7
370
    15
100
AcDbLine
 10
241.9667266989
 20
229.0887474698
 30
0.0
 11
241.9667266989
 21
243.4887472224
 31
0.0
  0
LINE
  5
16D
330
1F
100
AcDbEntity
  8
0
  6
Continuous
 62
     7
370
    15
100
AcDbLine
 10
266.7788364673
 20
240.1887472403
 30
0.0
 11
267.8930931473
 21
240.1887472403
 31
0.0
  0
LINE
  5
16E
330
1F
100
AcDbEntity
  8
0
  6
Continuous
 62
     7
370
    15
100
AcDbLine
 10
266.7788364673
 20
231.5887474139
 30
0.0
 11
267.8930931473
 21
231.5887474139
 31
0.0
  0
LINE
  5
16F
330
1F
100
AcDbEntity
  8
0
  6
Continuous
 62
     7
370
    15
100
AcDbLine
 10
268.7986963177
 20
244.2860981133
 30
0.0
 11
266.9064649129
 21
244.2860981133
 31
0.0
  0
ARC
  5
170
330
1F
100
AcDbEntity
  8
0
  6
Continuous
 62
     7
370
    15
100
AcDbCircle
 10
268.2530882148
 20
243.6616601448
 30
0.0
 40
1.484357468314245
100
AcDbArc
 50
155.1225389752
 51
186.6895781293
  0
ARC
  5
171
330
1F
100
AcDbEntity
  8
0
  6
Continuous
 62
     7
370
    15
100
AcDbCircle
 10
243.2226748167
 20
243.6827090193
 30
0.0
 40
1.270837067952018
100
AcDbArc
 50
151.5180738401
 51
188.7790931251
  0
LINE
  5
172
330
1F
100
AcDbEntity
  8
0
  6
Continuous
 62
     7
370
    15
100
AcDbLine
 10
242.1056502247
 20
244.2887477261
 30
0.0
 11
269.4714464927
 21
244.2887477261
 31
0.0
  0
LINE
  5
173
330
1F
100
AcDbEntity
  8
0
  6
Continuous
 62
     7
370
    15
100
AcDbLine
 10
269.4714464927
 20
244.2887477261
 30
0.0
 11
268.7986963177
 21
244.2860981133
 31
0.0
  0
LINE
  5
174
330
1F
100
AcDbEntity
  8
0
  6
Continuous
 62
     7
370
    15
100
AcDbLine
 10
266.9064649129
 20
228.2913965788
 30
0.0
 11
268.7986963177
 21
228.2913965788
 31
0.0
  0
LINE
  5
175
330
1F
100
AcDbEntity
  8
0
  6
Continuous
 62
     7
370
    15
100
AcDbLine
 10
268.7986963177
 20
228.2913965788
 30
0.0
 11
269.4714464927
 21
228.2887469661
 31
0.0
  0
LINE
  5
176
330
1F
100
AcDbEntity
  8
0
  6
Continuous
 62
     7
370
    15
100
AcDbLine
 10
269.4714464927
 20
228.2887469661
 30
0.0
 11
242.1056502247
 21
228.2887469661
 31
0.0
  0
ARC
  5
177
330
1F
100
AcDbEntity
  8
0
  6
Continuous
 62
     7
370
    15
100
AcDbCircle
 10
243.2226748167
 20
228.8947856729
 30
0.0
 40
1.270837067952018
100
AcDbArc
 50
171.2209068749
 51
208.4819261599
  0
ARC
  5
178
330
1F
100
AcDbEntity
  8
0
  6
Continuous
 62
     7
370
    15
100
AcDbCircle
 10
268.2530882148
 20
228.9158345474
 30
0.0
 40
1.484357468314261
100
AcDbArc
 50
173.3104218707
 51
204.8774610248
  0
LINE
  5
179
330
1F
100
AcDbEntity
  8
0
  6
Continuous
 62
     7
370
    15
100
AcDbLine
 10
266.9064649129
 20
228.2913965788
 30
0.0
 11
266.9064649129
 21
229.0887474698
 31
0.0
  0
LINE
  5
17A
330
1F
100
AcDbEntity
  8
0
  6
Continuous
 62
     7
370
    15
100
AcDbLine
 10
266.9177599931
 20
231.5887474139
 30
0.0
 11
266.9177599931
 21
229.0887474698
 31
0.0
  0
LINE
  5
17B
330
1F
100
AcDbEntity
  8
0
  6
Continuous
 62
     7
370
    15
100
AcDbLine
 10
266.9064649129
 20
243.4887472224
 30
0.0
 11
266.9064649129
 21
244.2860981133
 31
0.0
  0
LINE
  5
17C
330
1F
100
AcDbEntity
  8
0
  6
Continuous
 62
     7
370
    15
100
AcDbLine
 10
266.9177599931
 20
243.4887472224
 30
0.0
 11
266.9177599931
 21
240.1887472403
 31
0.0
  0
LINE
  5
17D
330
1F
100
AcDbEntity
  8
0
  6
Continuous
 62
     7
370
    15
100
AcDbLine
 10
268.7986963177
 20
243.4887472224
 30
0.0
 11
268.7986963177
 21
244.2860981133
 31
0.0
  0
LINE
  5
17E
330
1F
100
AcDbEntity
  8
0
  6
Continuous
 62
     7
370
    15
100
AcDbLine
 10
272.9064621711
 20
244.2887477261
 30
0.0
 11
269.4714464927
 21
244.2887477261
 31
0.0
  0
LINE
  5
17F
330
1F
100
AcDbEntity
  8
0
  6
Continuous
 62
     7
370
    15
100
AcDbLine
 10
272.9064621711
 20
243.4887472224
 30
0.0
 11
268.7986963177
 21
243.4887472224
 31
0.0
  0
LINE
  5
180
330
1F
100
AcDbEntity
  8
0
  6
Continuous
 62
     7
370
    15
100
AcDbLine
 10
272.9064621711
 20
228.2887469661
 30
0.0
 11
269.4714464927
 21
228.2887469661
 31
0.0
  0
LINE
  5
181
330
1F
100
AcDbEntity
  8
0
  6
Continuous
 62
     7
370
    15
100
AcDbLine
 10
268.7986963177
 20
228.2913965788
 30
0.0
 11
268.7986963177
 21
229.0887474698
 31
0.0
  0
LINE
  5
182
330
1F
100
AcDbEntity
  8
0
  6
Continuous
 62
     7
370
    15
100
AcDbLine
 10
272.9064621711
 20
229.0887474698
 30
0.0
 11
268.7986963177
 21
229.0887474698
 31
0.0
  0
LINE
  5
183
330
1F
100
AcDbEntity
  8
0
  6
Continuous
 62
     7
370
    15
100
AcDbLine
 10
266.9064649129
 20
229.0887474698
 30
0.0
 11
268.7986963177
 21
229.0887474698
 31
0.0
  0
LINE
  5
184
330
1F
100
AcDbEntity
  8
0
  6
Continuous
 62
     7
370
    15
100
AcDbLine
 10
266.9064649129
 20
243.4887472224
 30
0.0
 11
268.7986963177
 21
243.4887472224
 31
0.0
  0
LINE
  5
185
330
1F
100
AcDbEntity
  8
0
  6
Continuous
 62
     7
370
    15
100
AcDbLine
 10
267.9764651441
 20
244.5887472164
 30
0.0
 11
272.3764651203
 21
244.5887472164
 31
0.0
  0
LINE
  5
186
330
1F
100
AcDbEntity
  8
0
  6
Continuous
 62
     7
370
    15
100
AcDbLine
 10
268.0764593863
 20
227.4887473938
 30
0.0
 11
272.2764634275
 21
227.4887473938
 31
0.0
  0
LINE
  5
187
330
1F
100
AcDbEntity
  8
0
  6
Continuous
 62
     7
370
    15
100
AcDbLine
 10
268.0764593863
 20
227.8887476456
 30
0.0
 11
272.2764634275
 21
227.8887476456
 31
0.0
  0
LINE
  5
188
330
1F
100
AcDbEntity
  8
0
  6
Continuous
 62
     7
370
    15
100
AcDbLine
 10
237.0678805494
 20
243.4887472224
 30
0.0
 11
235.0784041667
 21
243.4887472224
 31
0.0
  0
LINE
  5
189
330
1F
100
AcDbEntity
  8
0
  6
Continuous
 62
     7
370
    15
100
AcDbLine
 10
237.0678805494
 20
229.0887474698
 30
0.0
 11
237.0678805494
 21
243.4887472224
 31
0.0
  0
LINE
  5
18A
330
1F
100
AcDbEntity
  8
0
  6
Continuous
 62
     7
370
    15
100
AcDbLine
 10
235.0784041667
 20
229.0887474698
 30
0.0
 11
237.0678805494
 21
229.0887474698
 31
0.0
  0
ARC
  5
18B
330
1F
100
AcDbEntity
  8
0
  6
Continuous
 62
     7
370
    15
100
AcDbCircle
 10
250.3723613376
 20
236.2887473461
 30
0.0
 40
16.90399728363026
100
AcDbArc
 50
154.7901555355
 51
205.2098444645
  0
SPLINE
  5
18C
330
1F
100
AcDbEntity
  8
0
  6
Continuous
 62
     7
370
    15
100
AcDbSpline
210
0.0
220
0.0
230
1.0
 70
     8
 71
     3
 72
    12
 73
     8
 74
     0
 42
0.00000001
 43
0.00000001
 40
0.0
 40
0.0
 40
0.0
 40
0.0
 40
0.1818726160796446
 40
0.3633444960054099
 40
0.555080703869878
 40
0.7712620712687422
 40
1.0
 40
1.0
 40
1.0
 40
1.0
 10
235.2107786321505
 20
228.2887469660924
 30
0.0
 10
235.23463998387
 20
228.2960686085963
 30
0.0
 10
235.2823101114648
 20
228.3106957611762
 30
0.0
 10
235.2970392309979
 20
228.4226857187726
 30
0.0
 10
235.2698237531492
 20
228.5920777278924
 30
0.0
 10
235.1981401441023
 20
228.8205011709928
 30
0.0
 10
235.1190600944451
 20
228.9976653874945
 30
0.0
 10
235.078404166685
 20
229.0887474697516
 30
0.0
  0
LINE
  5
18D
330
1F
100
AcDbEntity
  8
0
  6
Continuous
 62
     7
370
    15
100
AcDbLine
 10
234.8264180803
 20
229.0432463084
 30
0.0
 11
235.1808571005
 21
228.2887469661
 31
0.0
  0
ARC
  5
18E
330
1F
100
AcDbEntity
  8
0
  6
Continuous
 62
     7
370
    15
100
AcDbCircle
 10
250.0970784989
 20
236.2887473461
 30
0.0
 40
16.90237719687147
100
AcDbArc
 50
154.6169692401
 51
205.3830307599
  0
LINE
  5
18F
330
1F
100
AcDbEntity
  8
0
  6
Continuous
 62
     7
370
    15
100
AcDbLine
 10
235.1808571005
 20
244.2887477261
 30
0.0
 11
234.8264180803
 21
243.5342483838
 31
0.0
  0
SPLINE
  5
190
330
1F
100
AcDbEntity
  8
0
  6
Continuous
 62
     7
370
    15
100
AcDbSpline
210
0.0
220
0.0
230
1.0
 70
     8
 71
     3
 72
    12
 73
     8
 74
     0
 42
0.00000001
 43
0.00000001
 40
0.0
 40
0.0
 40
0.0
 40
0.0
 40
0.251021990599481
 40
0.5023977458077202
 40
0.7402765908566765
 40
0.9473178514528033
 40
1.0
 40
1.0
 40
1.0
 40
1.0
 10
235.078404166685
 20
243.4887472223923
 30
0.0
 10
235.1227218055658
 20
243.5886293401219
 30
0.0
 10
235.2114195400555
 20
243.7885343391781
 30
0.0
 10
235.2864137711664
 20
244.0472694185307
 30
0.0
 10
235.2979028638457
 20
244.224503239053
 30
0.0
 10
235.2562690726038
 20
244.2849464628886
 30
0.0
 10
235.2184498597661
 20
244.288106704451
 30
0.0
 10
235.2107786321505
 20
244.2887477260516
 30
0.0
  0
LINE
  5
191
330
1F
100
AcDbEntity
  8
0
  6
Continuous
 62
     7
370
    15
100
AcDbLine
 10
235.2107786322
 20
244.2887477261
 30
0.0
 11
235.1808571005
 21
244.2887477261
 31
0.0
  0
LINE
  5
192
330
1F
100
AcDbEntity
  8
0
  6
Continuous
 62
     7
370
    15
100
AcDbLine
 10
235.2107786322
 20
228.2887469661
 30
0.0
 11
235.1808571005
 21
228.2887469661
 31
0.0
  0
LWPOLYLINE
  5
193
330
1F
100
AcDbEntity
  8
0
  6
Continuous
 62
     7
370
    15
100
AcDbPolyline
 90
        9
 70
   128
 43
0.0
 10
237.0678805494
 20
243.4887472224
 10
237.0626204395
 20
243.6448196564
 10
237.0470487261
 20
243.7948939074
 10
237.0217689061
 20
243.9332036917
 10
236.9877421045
 20
244.0544325542
 10
236.9462796235
 20
244.1539229509
 10
236.8989684367
 20
244.2278513369
 10
236.847641387
 20
244.2733753156
 10
236.7942654276
 20
244.2887477261
  0
LINE
  5
194
330
1F
100
AcDbEntity
  8
0
  6
Continuous
 62
     7
370
    15
100
AcDbLine
 10
235.2107786322
 20
244.2887477261
 30
0.0
 11
236.7942654276
 21
244.2887477261
 31
0.0
  0
LWPOLYLINE
  5
195
330
1F
100
AcDbEntity
  8
0
  6
Continuous
 62
     7
370
    15
100
AcDbPolyline
 90
        9
 70
   128
 43
0.0
 10
237.0678805494
 20
229.0887474698
 10
237.0626204395
 20
228.9326750357
 10
237.0470487261
 20
228.7826007847
 10
237.0217689061
 20
228.6442910005
 10
236.9877421045
 20
228.5230621379
 10
236.9462796235
 20
228.4235717413
 10
236.8989684367
 20
228.3496433553
 10
236.847641387
 20
228.3041193765
 10
236.7942654276
 20
228.2887469661
  0
LINE
  5
196
330
1F
100
AcDbEntity
  8
0
  6
Continuous
 62
     7
370
    15
100
AcDbLine
 10
236.7942654276
 20
228.2887469661
 30
0.0
 11
235.2107786322
 21
228.2887469661
 31
0.0
  0
LINE
  5
197
330
1F
100
AcDbEntity
  8
0
  6
Continuous
 62
     7
370
    15
100
AcDbLine
 10
237.0678805494
 20
229.0887474698
 30
0.0
 11
241.9667266989
 21
229.0887474698
 31
0.0
  0
LINE
  5
198
330
1F
100
AcDbEntity
  8
0
  6
Continuous
 62
     7
370
    15
100
AcDbLine
 10
242.1056502247
 20
228.2887469661
 30
0.0
 11
236.7942654276
 21
228.2887469661
 31
0.0
  0
LINE
  5
199
330
1F
100
AcDbEntity
  8
0
  6
Continuous
 62
     7
370
    15
100
AcDbLine
 10
241.9667266989
 20
243.4887472224
 30
0.0
 11
237.0678805494
 21
243.4887472224
 31
0.0
  0
LINE
  5
19A
330
1F
100
AcDbEntity
  8
0
  6
Continuous
 62
     7
370
    15
100
AcDbLine
 10
236.7942654276
 20
244.2887477261
 30
0.0
 11
242.1056502247
 21
244.2887477261
 31
0.0
  0
LINE
  5
19B
330
1F
100
AcDbEntity
  8
0
  6
Continuous
 62
     7
370
    15
100
AcDbLine
 10
273.1964611196
 20
230.5387473349
 30
0.0
 11
273.1964611196
 21
229.538747171
 31
0.0
  0
LINE
  5
19C
330
1F
100
AcDbEntity
  8
0
  6
Continuous
 62
     7
370
    15
100
AcDbLine
 10
273.1964611196
 20
229.538747171
 30
0.0
 11
266.9964604759
 21
229.538747171
 31
0.0
  0
LINE
  5
19D
330
1F
100
AcDbEntity
  8
0
  6
Continuous
 62
     7
370
    15
100
AcDbLine
 10
266.9964604759
 20
230.5387473349
 30
0.0
 11
266.9964604759
 21
229.538747171
 31
0.0
  0
LINE
  5
19E
330
1F
100
AcDbEntity
  8
0
  6
Continuous
 62
     7
370
    15
100
AcDbLine
 10
273.1964611196
 20
230.5387473349
 30
0.0
 11
266.9964604759
 21
230.5387473349
 31
0.0
  0
LINE
  5
19F
330
1F
100
AcDbEntity
  8
0
  6
Continuous
 62
     7
370
    15
100
AcDbLine
 10
273.1964611196
 20
243.0387475212
 30
0.0
 11
273.1964611196
 21
242.0387473572
 31
0.0
  0
LINE
  5
1A0
330
1F
100
AcDbEntity
  8
0
  6
Continuous
 62
     7
370
    15
100
AcDbLine
 10
266.9964604759
 20
243.0387475212
 30
0.0
 11
266.9964604759
 21
242.0387473572
 31
0.0
  0
LINE
  5
1A1
330
1F
100
AcDbEntity
  8
0
  6
Continuous
 62
     7
370
    15
100
AcDbLine
 10
273.1964611196
 20
242.0387473572
 30
0.0
 11
266.9964604759
 21
242.0387473572
 31
0.0
  0
LINE
  5
1A2
330
1F
100
AcDbEntity
  8
0
  6
Continuous
 62
     7
370
    15
100
AcDbLine
 10
273.1964611196
 20
243.0387475212
 30
0.0
 11
266.9964604759
 21
243.0387475212
 31
0.0
  0
LWPOLYLINE
  5
1A3
330
1F
100
AcDbEntity
  8
0
  6
Continuous
 62
     7
370
    15
100
AcDbPolyline
 90
        3
 70
   128
 43
0.0
 10
266.9177599931
 20
229.9276088048
 10
266.9203378939
 20
229.9214308765
 10
266.9964604759
 20
229.538747171
  0
LWPOLYLINE
  5
1A4
330
1F
100
AcDbEntity
  8
0
  6
Continuous
 62
     7
370
    15
100
AcDbPolyline
 90
        3
 70
   128
 43
0.0
 10
266.9964604759
 20
243.0387475212
 10
266.9203378939
 20
242.6560638156
 10
266.9177599931
 20
242.6498858873
  0
LINE
  5
1A5
330
1F
100
AcDbEntity
  8
0
  6
Continuous
 62
     7
370
    15
100
AcDbLine
 10
273.1964611196
 20
242.0387473572
 30
0.0
 11
273.1964611196
 21
241.8887471464
 31
0.0
  0
LINE
  5
1A6
330
1F
100
AcDbEntity
  8
0
  6
Continuous
 62
     7
370
    15
100
AcDbLine
 10
273.1964611196
 20
241.0887475741
 30
0.0
 11
273.1964611196
 21
240.1887472403
 31
0.0
  0
LINE
  5
1A7
330
1F
100
AcDbEntity
  8
0
  6
Continuous
 62
     7
370
    15
100
AcDbLine
 10
273.1964611196
 20
231.5887474139
 30
0.0
 11
273.1964611196
 21
230.5387473349
 31
0.0
  0
ARC
  5
1A8
330
1F
100
AcDbEntity
  8
0
  6
Continuous
 62
     7
370
    15
100
AcDbCircle
 10
165.1964614296
 20
421.2887473461
 30
0.0
 40
15.00000000000006
100
AcDbArc
 50
90.0
 51
180.0
  0
LINE
  5
1A9
330
1F
100
AcDbEntity
  8
0
  6
Continuous
 62
     7
370
    15
100
AcDbLine
 10
165.1964611122
 20
436.2887503263
 30
0.0
 11
165.1964611122
 21
421.2887497303
 31
0.0
  0
LINE
  5
1AA
330
1F
100
AcDbEntity
  8
0
  6
Continuous
 62
     7
370
    15
100
AcDbLine
 10
150.1964614475
 20
421.2887497303
 30
0.0
 11
165.1964611122
 21
421.2887497303
 31
0.0
  0
LINE
  5
1AB
330
1F
100
AcDbEntity
  8
0
  6
Continuous
 62
     7
370
    15
100
AcDbLine
 10
165.1964611122
 20
421.2887497303
 30
0.0
 11
165.1964611122
 21
51.2887449619
 31
0.0
  0
LINE
  5
1AC
330
1F
100
AcDbEntity
  8
0
  6
Continuous
 62
     7
370
    15
100
AcDbLine
 10
165.1964611122
 20
51.2887449619
 30
0.0
 11
150.1964614475
 21
51.2887449619
 31
0.0
  0
LINE
  5
1AD
330
1F
100
AcDbEntity
  8
0
  6
Continuous
 62
     7
370
    15
100
AcDbLine
 10
150.1964614475
 20
421.2887497303
 30
0.0
 11
150.1964614475
 21
51.2887449619
 31
0.0
  0
LINE
  5
1AE
330
1F
100
AcDbEntity
  8
0
  6
Continuous
 62
     7
370
    15
100
AcDbLine
 10
165.1964611122
 20
51.2887449619
 30
0.0
 11
165.1964611122
 21
36.2887443658
 31
0.0
  0
ARC
  5
1AF
330
1F
100
AcDbEntity
  8
0
  6
Continuous
 62
     7
370
    15
100
AcDbCircle
 10
165.1964614296
 20
51.2887473461
 30
0.0
 40
15.00000000000001
100
AcDbArc
 50
180.0
 51
270.0
  0
LINE
  5
1B0
330
1F
100
AcDbEntity
  8
0
  6
Continuous
 62
     7
370
    15
100
AcDbLine
 10
286.1964576626
 20
51.2887449619
 30
0.0
 11
165.1964611122
 21
51.2887449619
 31
0.0
  0
LINE
  5
1B1
330
1F
100
AcDbEntity
  8
0
  6
Continuous
 62
     7
370
    15
100
AcDbLine
 10
286.1964576626
 20
51.2887449619
 30
0.0
 11
286.1964576626
 21
36.2887443658
 31
0.0
  0
LINE
  5
1B2
330
1F
100
AcDbEntity
  8
0
  6
Continuous
 62
     7
370
    15
100
AcDbLine
 10
286.1964576626
 20
36.2887443658
 30
0.0
 11
165.1964611122
 21
36.2887443658
 31
0.0
  0
LINE
  5
1B3
330
1F
100
AcDbEntity
  8
0
  6
Continuous
 62
     7
370
    15
100
AcDbLine
 10
286.1964576626
 20
436.2887503263
 30
0.0
 11
165.1964611122
 21
436.2887503263
 31
0.0
  0
LINE
  5
1B4
330
1F
100
AcDbEntity
  8
0
  6
Continuous
 62
     7
370
    15
100
AcDbLine
 10
286.1964576626
 20
436.2887503263
 30
0.0
 11
286.1964576626
 21
421.2887497303
 31
0.0
  0
LINE
  5
1B5
330
1F
100
AcDbEntity
  8
0
  6
Continuous
 62
     7
370
    15
100
AcDbLine
 10
286.1964576626
 20
421.2887497303
 30
0.0
 11
165.1964611122
 21
421.2887497303
 31
0.0
  0
LINE
  5
1B6
330
1F
100
AcDbEntity
  8
0
  6
Continuous
 62
     7
370
    15
100
AcDbLine
 10
266.1964618349
 20
56.2887401935
 30
0.0
 11
170.1964610004
 21
56.2887401935
 31
0.0
  0
LINE
  5
1B7
330
1F
100
AcDbEntity
  8
0
  6
Continuous
 62
     7
370
    15
100
AcDbLine
 10
266.1964618349
 20
56.2887401935
 30
0.0
 11
266.1964618349
 21
223.4762008917
 31
0.0
  0
LINE
  5
1B8
330
1F
100
AcDbEntity
  8
0
  6
Continuous
 62
     7
370
    15
100
AcDbLine
 10
266.1964618349
 20
226.8159869742
 30
0.0
 11
266.1964618349
 21
228.2887469661
 31
0.0
  0
LINE
  5
1B9
330
1F
100
AcDbEntity
  8
0
  6
Continuous
 62
     7
370
    15
100
AcDbLine
 10
266.1964618349
 20
244.2887477261
 30
0.0
 11
266.1964618349
 21
245.7481497582
 31
0.0
  0
LINE
  5
1BA
330
1F
100
AcDbEntity
  8
0
  6
Continuous
 62
     7
370
    15
100
AcDbLine
 10
266.1964618349
 20
249.0908657816
 30
0.0
 11
266.1964618349
 21
416.2887544986
 31
0.0
  0
LINE
  5
1BB
330
1F
100
AcDbEntity
  8
0
  6
Continuous
 62
     7
370
    15
100
AcDbLine
 10
266.1964618349
 20
416.2887544986
 30
0.0
 11
170.1964610004
 21
416.2887544986
 31
0.0
  0
LINE
  5
1BC
330
1F
100
AcDbEntity
  8
0
  6
Continuous
 62
     7
370
    15
100
AcDbLine
 10
170.1964610004
 20
416.2887544986
 30
0.0
 11
170.1964610004
 21
56.2887401935
 31
0.0
  0
LINE
  5
1BD
330
1F
100
AcDbEntity
  8
0
  6
Continuous
 62
     7
370
    15
100
AcDbLine
 10
286.1964576626
 20
421.2887497303
 30
0.0
 11
286.1964576626
 21
245.2646769267
 31
0.0
  0
LINE
  5
1BE
330
1F
100
AcDbEntity
  8
0
  6
Continuous
 62
     7
370
    15
100
AcDbLine
 10
286.1964576626
 20
227.2808398735
 30
0.0
 11
286.1964576626
 21
51.2887449619
 31
0.0
  0
LINE
  5
1BF
330
1F
100
AcDbEntity
  8
0
  6
Continuous
 62
     7
370
    15
100
AcDbLine
 10
290.1964657688
 20
431.2887401935
 30
0.0
 11
286.1964576626
 21
431.2887401935
 31
0.0
  0
LINE
  5
1C0
330
1F
100
AcDbEntity
  8
0
  6
Continuous
 62
     7
370
    15
100
AcDbLine
 10
290.1964657688
 20
416.2887544986
 30
0.0
 11
286.1964576626
 21
416.2887544986
 31
0.0
  0
LINE
  5
1C1
330
1F
100
AcDbEntity
  8
0
  6
Continuous
 62
     7
370
    15
100
AcDbLine
 10
290.1964657688
 20
56.2887401935
 30
0.0
 11
286.1964576626
 21
56.2887401935
 31
0.0
  0
LINE
  5
1C2
330
1F
100
AcDbEntity
  8
0
  6
Continuous
 62
     7
370
    15
100
AcDbLine
 10
290.1964657688
 20
41.2887544986
 30
0.0
 11
286.1964576626
 21
41.2887544986
 31
0.0
  0
LINE
  5
1C3
330
1F
100
AcDbEntity
  8
0
  6
Continuous
 62
     7
370
    15
100
AcDbLine
 10
423.4482686559
 20
485.9157120394
 30
0.0
 11
424.6482591668
 21
485.9157120394
 31
0.0
  0
LINE
  5
1C4
330
1F
100
AcDbEntity
  8
0
  6
Continuous
 62
     7
370
    15
100
AcDbLine
 10
423.3482669631
 20
488.4157096552
 30
0.0
 11
423.4482686559
 21
488.4157096552
 31
0.0
  0
LINE
  5
1C5
330
1F
100
AcDbEntity
  8
0
  6
Continuous
 62
     7
370
    15
100
AcDbLine
 10
423.4482686559
 20
494.4157069134
 30
0.0
 11
423.3482669631
 21
494.4157069134
 31
0.0
  0
SPLINE
  5
1C6
330
1F
100
AcDbEntity
  8
0
  6
Continuous
 62
     7
370
    15
100
AcDbSpline
210
0.0
220
0.0
230
1.0
 70
     8
 71
     3
 72
    15
 73
    11
 74
     0
 42
0.00000001
 43
0.00000001
 40
0.0
 40
0.0
 40
0.0
 40
0.0
 40
0.1250754827816088
 40
0.2501512818632861
 40
0.3752910914598436
 40
0.5003038788291839
 40
0.6252879686926238
 40
0.7502620296543432
 40
0.8750785631983024
 40
1.0
 40
1.0
 40
1.0
 40
1.0
 10
422.2627024689594
 20
516.473538200819
 30
0.0
 10
422.2365775298618
 20
516.7323022162934
 30
0.0
 10
422.1843275855997
 20
517.2498309016236
 30
0.0
 10
422.1054604046369
 20
518.0309444477326
 30
0.0
 10
422.0310272479648
 20
518.7681225727919
 30
0.0
 10
421.9640372684881
 20
519.4317029803852
 30
0.0
 10
421.9079300408826
 20
519.9874666747544
 30
0.0
 10
421.8653881716718
 20
520.4085632260172
 30
0.0
 10
421.8365620420059
 20
520.6941707100859
 30
0.0
 10
421.8322194578383
 20
520.7372056647432
 30
0.0
 10
421.830047253696
 20
520.7587321805592
 30
0.0
  0
SPLINE
  5
1C7
330
1F
100
AcDbEntity
  8
0
  6
Continuous
 62
     7
370
    15
100
AcDbSpline
210
0.0
220
0.0
230
1.0
 70
     8
 71
     3
 72
    15
 73
    11
 74
     0
 42
0.00000001
 43
0.00000001
 40
0.0
 40
0.0
 40
0.0
 40
0.0
 40
0.12493963109233
 40
0.2497688790883884
 40
0.3747512836112952
 40
0.4997376592982848
 40
0.6247480829411527
 40
0.7498793062078932
 40
0.8749425528717422
 40
0.9999999999999999
 40
0.9999999999999999
 40
0.9999999999999999
 40
0.9999999999999999
 10
418.8458066025653
 20
520.457348744833
 30
0.0
 10
418.8479833251909
 20
520.4357705784483
 30
0.0
 10
418.8523348473259
 20
520.3926333098045
 30
0.0
 10
418.8811809325515
 20
520.1069230335563
 30
0.0
 10
418.9237170840894
 20
519.6857392674885
 30
0.0
 10
418.9798244670394
 20
519.1299628496995
 30
0.0
 10
419.0468189621477
 20
518.466437033608
 30
0.0
 10
419.1212314222428
 20
517.7293907329811
 30
0.0
 10
419.2000892494605
 20
516.948482199615
 30
0.0
 10
419.2523181638341
 20
516.4311252601066
 30
0.0
 10
419.2784320155063
 20
516.1724527883167
 30
0.0
  0
LINE
  5
1C8
330
1F
100
AcDbEntity
  8
0
  6
Continuous
 62
     7
370
    15
100
AcDbLine
 10
419.2781488934
 20
516.1723186779
 30
0.0
 11
420.847226266
 21
500.6313388753
 31
0.0
  0
LINE
  5
1C9
330
1F
100
AcDbEntity
  8
0
  6
Continuous
 62
     7
370
    15
100
AcDbLine
 10
423.8320480624
 20
500.9326999592
 30
0.0
 11
422.262985591
 21
516.4736723113
 31
0.0
  0
SPLINE
  5
1CA
330
1F
100
AcDbEntity
  8
0
  6
Continuous
 62
     7
370
    15
100
AcDbSpline
210
0.0
220
0.0
230
1.0
 70
     8
 71
     3
 72
     9
 73
     5
 74
     0
 42
0.00000001
 43
0.00000001
 40
0.0
 40
0.0
 40
0.0
 40
0.0
 40
0.4837344539668944
 40
1.0
 40
1.0
 40
1.0
 40
1.0
 10
421.0173081198612
 20
498.9499663519497
 30
0.0
 10
421.0267687643934
 20
498.8857415670061
 30
0.0
 10
421.0463262808252
 20
498.7529728869649
 30
0.0
 10
421.0801686372425
 20
498.7168174403325
 30
0.0
 10
421.0976402798572
 20
498.6981516289349
 30
0.0
  0
SPLINE
  5
1CB
330
1F
100
AcDbEntity
  8
0
  6
Continuous
 62
     7
370
    15
100
AcDbSpline
210
0.0
220
0.0
230
1.0
 70
     8
 71
     3
 72
    11
 73
     7
 74
     0
 42
0.00000001
 43
0.00000001
 40
0.0
 40
0.0
 40
0.0
 40
0.0
 40
0.2484397085448712
 40
0.4978879353345394
 40
0.7483890246597131
 40
0.9999999999999999
 40
0.9999999999999999
 40
0.9999999999999999
 40
0.9999999999999999
 10
420.8475093880573
 20
500.6315027880306
 30
0.0
 10
420.8655242551001
 20
500.4530314595915
 30
0.0
 10
420.9016271188886
 20
500.0953643146999
 30
0.0
 10
420.9486193054326
 20
499.6305227694643
 30
0.0
 10
420.9874482597365
 20
499.2476405253031
 30
0.0
 10
421.0024760478473
 20
499.1003509793003
 30
0.0
 10
421.0100065508762
 20
499.0265434193249
 30
0.0
  0
SPLINE
  5
1CC
330
1F
100
AcDbEntity
  8
0
  6
Continuous
 62
     7
370
    15
100
AcDbSpline
210
0.0
220
0.0
230
1.0
 70
     8
 71
     3
 72
    19
 73
    15
 74
     0
 42
0.00000001
 43
0.00000001
 40
0.0
 40
0.0
 40
0.0
 40
0.0
 40
0.0802803041969105
 40
0.1534414420360333
 40
0.2193399577831859
 40
0.2779481048339253
 40
0.3728435281058353
 40
0.4421524404775586
 40
0.5315362088906506
 40
0.6554828487286151
 40
0.7303554330370282
 40
0.8130766996630142
 40
0.9031427803889727
 40
1.0
 40
1.0
 40
1.0
 40
1.0
 10
421.0329543391147
 20
498.8673245119686
 30
0.0
 10
421.0683149658865
 20
498.744450713983
 30
0.0
 10
421.1359004791382
 20
498.5095994271081
 30
0.0
 10
421.3331238778566
 20
498.2151877742442
 30
0.0
 10
421.5579776750932
 20
497.9910628307995
 30
0.0
 10
421.853648606061
 20
497.7980349137484
 30
0.0
 10
422.1955888891417
 20
497.680103363103
 30
0.0
 10
422.6053467681999
 20
497.6503332674783
 30
0.0
 10
423.0444313220526
 20
497.7526331008077
 30
0.0
 10
423.4309711963575
 20
498.0038628811052
 30
0.0
 10
423.7238124330419
 20
498.3445768767749
 30
0.0
 10
423.9045821430074
 20
498.7000443178463
 30
0.0
 10
424.0105013009177
 20
499.1269851875334
 30
0.0
 10
423.9782308089345
 20
499.4220555502476
 30
0.0
 10
423.961509350864
 20
499.574950854742
 30
0.0
  0
SPLINE
  5
1CD
330
1F
100
AcDbEntity
  8
0
  6
Continuous
 62
     7
370
    15
100
AcDbSpline
210
0.0
220
0.0
230
1.0
 70
     8
 71
     3
 72
    11
 73
     7
 74
     0
 42
0.00000001
 43
0.00000001
 40
0.0
 40
0.0
 40
0.0
 40
0.0
 40
0.2477445749809089
 40
0.4969511806463745
 40
0.7476788971516558
 40
1.0
 40
1.0
 40
1.0
 40
1.0
 10
423.9852916041294
 20
499.4072680878277
 30
0.0
 10
423.9788494703898
 20
499.4718935977191
 30
0.0
 10
423.9659271855406
 20
499.6015259960993
 30
0.0
 10
423.9299748482836
 20
499.9594008688097
 30
0.0
 10
423.8849896587867
 20
500.4057188617151
 30
0.0
 10
423.8495538610773
 20
500.756579740655
 30
0.0
 10
423.8317798415104
 20
500.9325658487911
 30
0.0
  0
LINE
  5
1CE
330
1F
100
AcDbEntity
  8
0
  6
Continuous
 62
     7
370
    15
100
AcDbLine
 10
424.1155724564
 20
510.5873783636
 30
0.0
 11
424.1155575553
 21
510.8871971774
 31
0.0
  0
LINE
  5
1CF
330
1F
100
AcDbEntity
  8
0
  6
Continuous
 62
     7
370
    15
100
AcDbLine
 10
423.3155589143
 20
510.8871971774
 30
0.0
 11
423.3155589143
 21
510.5898296046
 31
0.0
  0
SPLINE
  5
1D0
330
1F
100
AcDbEntity
  8
0
  6
Continuous
 62
     7
370
    15
100
AcDbSpline
210
0.0
220
0.0
230
1.0
 70
    24
 71
     3
 72
    11
 73
     7
 74
     0
 42
0.00000001
 43
0.00000001
 40
0.0
 40
0.0
 40
0.0
 40
0.0
 40
0.0207832163337777
 40
0.3465538622668197
 40
0.6711424087355256
 40
1.0
 40
1.0
 40
1.0
 40
1.0
 10
423.3155589142719
 20
511.1735155391331
 30
0.0
 10
423.3155589142719
 20
511.1701938269575
 30
0.0
 10
423.3155589142719
 20
511.1148052785596
 30
0.0
 10
423.3155589142719
 20
511.0215723838361
 30
0.0
 10
423.3155589142719
 20
510.9088589795139
 30
0.0
 10
423.3155589142719
 20
510.8743366535937
 30
0.0
 10
423.3155589142719
 20
510.8569627213116
 30
0.0
  0
SPLINE
  5
1D1
330
1F
100
AcDbEntity
  8
0
  6
Continuous
 62
     7
370
    15
100
AcDbSpline
210
0.0
220
0.0
230
1.0
 70
    24
 71
     3
 72
    11
 73
     7
 74
     0
 42
0.00000001
 43
0.00000001
 40
0.0
 40
0.0
 40
0.0
 40
0.0
 40
0.2504863591729243
 40
0.4977314983156908
 40
0.7458651761595598
 40
1.0
 40
1.0
 40
1.0
 40
1.0
 10
424.1155724564472
 20
510.8545114802952
 30
0.0
 10
424.1155724564471
 20
510.8707282529866
 30
0.0
 10
424.1155724564471
 20
510.9029519580866
 30
0.0
 10
424.1155724564472
 20
511.0117345450533
 30
0.0
 10
424.1155724564472
 20
511.1505667509677
 30
0.0
 10
424.1155724564472
 20
511.2575934363632
 30
0.0
 10
424.1155724564472
 20
511.3117461609478
 30
0.0
  0
LINE
  5
1D2
330
1F
100
AcDbEntity
  8
0
  6
Continuous
 62
     7
370
    15
100
AcDbLine
 10
423.108835105
 20
511.4157115626
 30
0.0
 11
423.317749385
 21
511.1684863972
 31
0.0
  0
LINE
  5
1D3
330
1F
100
AcDbEntity
  8
0
  6
Continuous
 62
     7
370
    15
100
AcDbLine
 10
424.1155724564
 20
511.3117461609
 30
0.0
 11
424.1155724564
 21
511.4157115626
 31
0.0
  0
LINE
  5
1D4
330
1F
100
AcDbEntity
  8
0
  6
Continuous
 62
     7
370
    15
100
AcDbLine
 10
418.8391755858
 20
520.5537294554
 30
0.0
 11
418.8235740701
 21
521.0129608917
 31
0.0
  0
SPLINE
  5
1D5
330
1F
100
AcDbEntity
  8
0
  6
Continuous
 62
     7
370
    15
100
AcDbSpline
210
0.0
220
0.0
230
1.0
 70
     8
 71
     3
 72
    11
 73
     7
 74
     0
 42
0.00000001
 43
0.00000001
 40
0.0
 40
0.0
 40
0.0
 40
0.0
 40
0.1207587006651574
 40
0.4133918797399851
 40
0.7063569142102074
 40
1.0
 40
1.0
 40
1.0
 40
1.0
 10
420.871857885448
 20
500.3902976917858
 30
0.0
 10
420.8817753660914
 20
500.2919971025729
 30
0.0
 10
420.9157257642231
 20
499.9554858190759
 30
0.0
 10
420.9630983251537
 20
499.4865744638533
 30
0.0
 10
421.0059790040901
 20
499.0618400892216
 30
0.0
 10
421.0135288390248
 20
498.9872863228916
 30
0.0
 10
421.0173081198612
 20
498.9499663519497
 30
0.0
  0
LINE
  5
1D6
330
1F
100
AcDbEntity
  8
0
  6
Continuous
 62
     7
370
    15
100
AcDbLine
 10
419.2000221053
 20
551.4157106685
 30
0.0
 11
418.4482585231
 21
551.1420955467
 31
0.0
  0
LINE
  5
1D7
330
1F
100
AcDbEntity
  8
0
  6
Continuous
 62
     7
370
    15
100
AcDbLine
 10
424.6482591668
 20
550.415708642
 30
0.0
 11
424.3482689897
 21
550.415708642
 31
0.0
  0
LINE
  5
1D8
330
1F
100
AcDbEntity
  8
0
  6
Continuous
 62
     7
370
    15
100
AcDbLine
 10
424.3482689897
 20
549.415714066
 30
0.0
 11
424.2482672969
 21
549.415714066
 31
0.0
  0
LINE
  5
1D9
330
1F
100
AcDbEntity
  8
0
  6
Continuous
 62
     7
370
    15
100
AcDbLine
 10
424.2482672969
 20
543.4157093572
 30
0.0
 11
424.3482689897
 21
543.4157093572
 31
0.0
  0
LINE
  5
1DA
330
1F
100
AcDbEntity
  8
0
  6
Continuous
 62
     7
370
    15
100
AcDbLine
 10
424.3482689897
 20
526.4157121586
 30
0.0
 11
424.2482672969
 21
526.4157121586
 31
0.0
  0
LINE
  5
1DB
330
1F
100
AcDbEntity
  8
0
  6
Continuous
 62
     7
370
    15
100
AcDbLine
 10
424.2482672969
 20
520.4157149005
 30
0.0
 11
424.3482689897
 21
520.4157149005
 31
0.0
  0
LINE
  5
1DC
330
1F
100
AcDbEntity
  8
0
  6
Continuous
 62
     7
370
    15
100
AcDbLine
 10
424.6482591668
 20
494.4157069134
 30
0.0
 11
424.6482591668
 21
489.4157116818
 31
0.0
  0
LINE
  5
1DD
330
1F
100
AcDbEntity
  8
0
  6
Continuous
 62
     7
370
    15
100
AcDbLine
 10
424.6482591668
 20
494.4157069134
 30
0.0
 11
439.6482597629
 21
494.4157069134
 31
0.0
  0
LINE
  5
1DE
330
1F
100
AcDbEntity
  8
0
  6
Continuous
 62
     7
370
    15
100
AcDbLine
 10
439.6482597629
 20
494.4157069134
 30
0.0
 11
439.6482597629
 21
489.4157116818
 31
0.0
  0
LINE
  5
1DF
330
1F
100
AcDbEntity
  8
0
  6
Continuous
 62
     7
370
    15
100
AcDbLine
 10
424.6482591668
 20
489.4157116818
 30
0.0
 11
439.6482597629
 21
489.4157116818
 31
0.0
  0
LINE
  5
1E0
330
1F
100
AcDbEntity
  8
0
  6
Continuous
 62
     7
370
    15
100
AcDbLine
 10
709.6482704917
 20
494.4157069134
 30
0.0
 11
709.6482704917
 21
489.4157116818
 31
0.0
  0
LINE
  5
1E1
330
1F
100
AcDbEntity
  8
0
  6
Continuous
 62
     7
370
    15
100
AcDbLine
 10
439.6482597629
 20
489.4157116818
 30
0.0
 11
709.6482704917
 21
489.4157116818
 31
0.0
  0
LINE
  5
1E2
330
1F
100
AcDbEntity
  8
0
  6
Continuous
 62
     7
370
    15
100
AcDbLine
 10
439.6482597629
 20
494.4157069134
 30
0.0
 11
709.6482704917
 21
494.4157069134
 31
0.0
  0
ARC
  5
1E3
330
1F
100
AcDbEntity
  8
0
  6
Continuous
 62
     7
370
    15
100
AcDbCircle
 10
439.6482651273
 20
489.4157112527
 30
0.0
 40
15.00000000000006
100
AcDbArc
 50
180.0
 51
270.0
  0
LINE
  5
1E4
330
1F
100
AcDbEntity
  8
0
  6
Continuous
 62
     7
370
    15
100
AcDbLine
 10
439.6482597629
 20
474.4157110858
 30
0.0
 11
439.6482597629
 21
489.4157116818
 31
0.0
  0
LINE
  5
1E5
330
1F
100
AcDbEntity
  8
0
  6
Continuous
 62
     7
370
    15
100
AcDbLine
 10
709.6482704917
 20
489.4157116818
 30
0.0
 11
709.6482704917
 21
474.4157110858
 31
0.0
  0
LINE
  5
1E6
330
1F
100
AcDbEntity
  8
0
  6
Continuous
 62
     7
370
    15
100
AcDbLine
 10
439.6482597629
 20
474.4157110858
 30
0.0
 11
709.6482704917
 21
474.4157110858
 31
0.0
  0
LINE
  5
1E7
330
1F
100
AcDbEntity
  8
0
  6
Continuous
 62
     7
370
    15
100
AcDbLine
 10
724.6482710877
 20
494.4157069134
 30
0.0
 11
724.6482710877
 21
489.4157116818
 31
0.0
  0
LINE
  5
1E8
330
1F
100
AcDbEntity
  8
0
  6
Continuous
 62
     7
370
    15
100
AcDbLine
 10
724.6482710877
 20
489.4157116818
 30
0.0
 11
709.6482704917
 21
489.4157116818
 31
0.0
  0
LINE
  5
1E9
330
1F
100
AcDbEntity
  8
0
  6
Continuous
 62
     7
370
    15
100
AcDbLine
 10
724.6482710877
 20
494.4157069134
 30
0.0
 11
709.6482704917
 21
494.4157069134
 31
0.0
  0
ARC
  5
1EA
330
1F
100
AcDbEntity
  8
0
  6
Continuous
 62
     7
370
    15
100
AcDbCircle
 10
709.6482651273
 20
489.4157112527
 30
0.0
 40
15.00000000000006
100
AcDbArc
 50
270.0
 51
0.0
  0
LINE
  5
1EB
330
1F
100
AcDbEntity
  8
0
  6
Continuous
 62
     7
370
    15
100
AcDbLine
 10
423.4482686559
 20
492.4334799456
 30
0.0
 11
424.6482591668
 21
492.4334799456
 31
0.0
  0
LINE
  5
1EC
330
1F
100
AcDbEntity
  8
0
  6
Continuous
 62
     7
370
    15
100
AcDbLine
 10
423.4482686559
 20
490.3295104909
 30
0.0
 11
424.6482591668
 21
490.3295104909
 31
0.0
  0
LINE
  5
1ED
330
1F
100
AcDbEntity
  8
0
  6
Continuous
 62
     7
370
    15
100
AcDbLine
 10
423.4482686559
 20
490.3295104909
 30
0.0
 11
423.4482686559
 21
492.4334799456
 31
0.0
  0
LINE
  5
1EE
330
1F
100
AcDbEntity
  8
0
  6
Continuous
 62
     7
370
    15
100
AcDbLine
 10
423.4482686559
 20
497.4157129931
 30
0.0
 11
424.6482591668
 21
497.4157129931
 31
0.0
  0
LINE
  5
1EF
330
1F
100
AcDbEntity
  8
0
  6
Continuous
 62
     7
370
    15
100
AcDbLine
 10
424.6482591668
 20
494.4157069134
 30
0.0
 11
424.6482591668
 21
497.4157129931
 31
0.0
  0
LINE
  5
1F0
330
1F
100
AcDbEntity
  8
0
  6
Continuous
 62
     7
370
    15
100
AcDbLine
 10
423.4482686559
 20
497.4157129931
 30
0.0
 11
423.4482686559
 21
492.4334799456
 31
0.0
  0
LINE
  5
1F1
330
1F
100
AcDbEntity
  8
0
  6
Continuous
 62
     7
370
    15
100
AcDbLine
 10
424.6482591668
 20
489.4157116818
 30
0.0
 11
424.6482591668
 21
485.9157120394
 31
0.0
  0
LINE
  5
1F2
330
1F
100
AcDbEntity
  8
0
  6
Continuous
 62
     7
370
    15
100
AcDbLine
 10
423.4482686559
 20
485.9157120394
 30
0.0
 11
423.4482686559
 21
490.3295104909
 31
0.0
  0
LINE
  5
1F3
330
1F
100
AcDbEntity
  8
0
  6
Continuous
 62
     7
370
    15
100
AcDbLine
 10
423.3482669631
 20
488.4157096552
 30
0.0
 11
423.3482669631
 21
494.4157069134
 31
0.0
  0
ARC
  5
1F4
330
1F
100
AcDbEntity
  8
0
  6
Continuous
 62
     7
370
    15
100
AcDbCircle
 10
421.8482651273
 20
499.1157112527
 30
0.0
 40
2.799999999999971
100
AcDbArc
 50
0.0
 51
45.4024529621
  0
LINE
  5
1F5
330
1F
100
AcDbEntity
  8
0
  6
Continuous
 62
     7
370
    15
100
AcDbLine
 10
420.7406084577
 20
501.6873096633
 30
0.0
 11
420.1437275449
 21
501.3371025729
 31
0.0
  0
LINE
  5
1F6
330
1F
100
AcDbEntity
  8
0
  6
Continuous
 62
     7
370
    15
100
AcDbLine
 10
417.330805544
 20
497.6660972046
 30
0.0
 11
420.8742420712
 21
500.3850822854
 31
0.0
  0
LINE
  5
1F7
330
1F
100
AcDbEntity
  8
0
  6
Continuous
 62
     7
370
    15
100
AcDbLine
 10
416.6002910176
 20
498.6181174922
 30
0.0
 11
417.330805544
 21
497.6660972046
 31
0.0
  0
LINE
  5
1F8
330
1F
100
AcDbEntity
  8
0
  6
Continuous
 62
     7
370
    15
100
AcDbLine
 10
420.1437275449
 20
501.3371025729
 30
0.0
 11
416.6002910176
 21
498.6181174922
 31
0.0
  0
LINE
  5
1F9
330
1F
100
AcDbEntity
  8
0
  6
Continuous
 62
     7
370
    15
100
AcDbLine
 10
424.6482591668
 20
497.4157129931
 30
0.0
 11
424.6482591668
 21
498.4157150197
 31
0.0
  0
LINE
  5
1FA
330
1F
100
AcDbEntity
  8
0
  6
Continuous
 62
     7
370
    15
100
AcDbLine
 10
423.4482686559
 20
498.0566566395
 30
0.0
 11
423.4482686559
 21
497.4157129931
 31
0.0
  0
LINE
  5
1FB
330
1F
100
AcDbEntity
  8
0
  6
Continuous
 62
     7
370
    15
100
AcDbLine
 10
416.3787852565
 20
496.9355826783
 30
0.0
 11
415.6482707301
 21
497.8876029658
 31
0.0
  0
LWPOLYLINE
  5
1FC
330
1F
100
AcDbEntity
  8
0
  6
Continuous
 62
     7
370
    15
100
AcDbPolyline
 90
        9
 70
   128
 43
0.0
 10
415.6482707301
 20
497.8876029658
 10
415.6665544549
 20
497.9016398596
 10
415.720735077
 20
497.9432140994
 10
415.8087115327
 20
498.0107163596
 10
415.9271012584
 20
498.1015687394
 10
416.071374301
 20
498.2122694659
 10
416.2359725276
 20
498.3385717082
 10
416.4145629445
 20
498.4756027865
 10
416.6002910176
 20
498.6181174922
  0
LWPOLYLINE
  5
1FD
330
1F
100
AcDbEntity
  8
0
  6
Continuous
 62
     7
370
    15
100
AcDbPolyline
 90
        9
 70
   128
 43
0.0
 10
417.330805544
 20
497.6660972046
 10
417.1450774709
 20
497.523582499
 10
416.9664721528
 20
497.3865365195
 10
416.8018888274
 20
497.2602491784
 10
416.6576157847
 20
497.1495484519
 10
416.539226059
 20
497.0586960721
 10
416.4512496034
 20
496.9911938119
 10
416.3970689813
 20
496.9496195721
 10
416.3787852565
 20
496.9355826783
  0
SPLINE
  5
1FE
330
1F
100
AcDbEntity
  8
0
  6
Continuous
 62
     7
370
    15
100
AcDbSpline
210
0.0
220
0.0
230
1.0
 70
     8
 71
     3
 72
    12
 73
     8
 74
     0
 42
0.00000001
 43
0.00000001
 40
0.0
 40
0.0
 40
0.0
 40
0.0
 40
0.2340518048260158
 40
0.4681083238238113
 40
0.7021649540123228
 40
0.9362191112700744
 40
0.9999999999999999
 40
0.9999999999999999
 40
0.9999999999999999
 40
0.9999999999999999
 10
420.9452461043277
 20
516.0928284334774
 30
0.0
 10
420.7488532422288
 20
516.0734455279104
 30
0.0
 10
420.3560635623694
 20
516.034679326374
 30
0.0
 10
419.8185648643417
 20
516.0294416067785
 30
0.0
 10
419.4450623986746
 20
516.0679074637874
 30
0.0
 10
419.2658697946692
 20
516.1225715622824
 30
0.0
 10
419.2945889035462
 20
516.1665267321815
 30
0.0
 10
419.3007390538135
 20
516.1759396600361
 30
0.0
  0
SPLINE
  5
1FF
330
1F
100
AcDbEntity
  8
0
  6
Continuous
 62
     7
370
    15
100
AcDbSpline
210
0.0
220
0.0
230
1.0
 70
     8
 71
     3
 72
    11
 73
     7
 74
     0
 42
0.00000001
 43
0.00000001
 40
0.0
 40
0.0
 40
0.0
 40
0.0
 40
0.198686486802408
 40
0.4657890565669508
 40
0.7328959069263856
 40
1.0
 40
1.0
 40
1.0
 40
1.0
 10
422.2411553898731
 20
516.4717128085728
 30
0.0
 10
422.239971637101
 20
516.4472230594122
 30
0.0
 10
422.2371965158748
 20
516.3898107142616
 30
0.0
 10
421.9676793649877
 20
516.2827155419162
 30
0.0
 10
421.5206109750399
 20
516.1719126421291
 30
0.0
 10
421.137033734631
 20
516.1191897456531
 30
0.0
 10
420.9452461043277
 20
516.0928284334774
 30
0.0
  0
SPLINE
  5
200
330
1F
100
AcDbEntity
  8
0
  6
Continuous
 62
     7
370
    15
100
AcDbSpline
210
0.0
220
0.0
230
1.0
 70
     8
 71
     3
 72
    12
 73
     8
 74
     0
 42
0.00000001
 43
0.00000001
 40
0.0
 40
0.0
 40
0.0
 40
0.0
 40
0.2339702271248437
 40
0.467932890478384
 40
0.7018980302872534
 40
0.9358659172968862
 40
1.0
 40
1.0
 40
1.0
 40
1.0
 10
420.3382771054187
 20
522.1047019171352
 30
0.0
 10
420.1421917419145
 20
522.0821967226801
 30
0.0
 10
419.7500273539383
 20
522.037187061316
 30
0.0
 10
419.2470908964822
 20
521.6896948811986
 30
0.0
 10
418.9272777779824
 20
521.1962060283627
 30
0.0
 10
418.7993496296336
 20
520.7426203062984
 30
0.0
 10
418.857140701161
 20
520.4996278163425
 30
0.0
 10
418.8695739546695
 20
520.4473500656719
 30
0.0
  0
SPLINE
  5
201
330
1F
100
AcDbEntity
  8
0
  6
Continuous
 62
     7
370
    15
100
AcDbSpline
210
0.0
220
0.0
230
1.0
 70
     8
 71
     3
 72
    11
 73
     7
 74
     0
 42
0.00000001
 43
0.00000001
 40
0.0
 40
0.0
 40
0.0
 40
0.0
 40
0.1976896372521521
 40
0.4651276561127174
 40
0.7325628442169249
 40
1.0
 40
1.0
 40
1.0
 40
1.0
 10
421.8084852734485
 20
520.7544108438129
 30
0.0
 10
421.7902050794997
 20
520.899161831541
 30
0.0
 10
421.7471951176072
 20
521.2397345018024
 30
0.0
 10
421.4217358866257
 20
521.6895074513785
 30
0.0
 10
420.9284443174449
 20
522.0372308963765
 30
0.0
 10
420.5349999918928
 20
522.0822115217243
 30
0.0
 10
420.3382771054187
 20
522.1047019171352
 30
0.0
  0
SPLINE
  5
202
330
1F
100
AcDbEntity
  8
0
  6
Continuous
 62
     7
370
    15
100
AcDbSpline
210
0.0
220
0.0
230
1.0
 70
     8
 71
     3
 72
    12
 73
     8
 74
     0
 42
0.00000001
 43
0.00000001
 40
0.0
 40
0.0
 40
0.0
 40
0.0
 40
0.2350124346011034
 40
0.4700298895179127
 40
0.7050473250288888
 40
0.9400627265619128
 40
1.0
 40
1.0
 40
1.0
 40
1.0
 10
422.5143234768787
 20
500.5518560814495
 30
0.0
 10
422.3179379277331
 20
500.5324781408485
 30
0.0
 10
421.9251626342704
 20
500.4937218456965
 30
0.0
 10
421.3875539331429
 20
500.4884543831908
 30
0.0
 10
421.0144714209689
 20
500.5269797270166
 30
0.0
 10
420.835475290357
 20
500.5811008796337
 30
0.0
 10
420.8633477971838
 20
500.6244022563917
 30
0.0
 10
420.86901176366
 20
500.6332015204067
 30
0.0
  0
SPLINE
  5
203
330
1F
100
AcDbEntity
  8
0
  6
Continuous
 62
     7
370
    15
100
AcDbSpline
210
0.0
220
0.0
230
1.0
 70
     8
 71
     3
 72
    11
 73
     7
 74
     0
 42
0.00000001
 43
0.00000001
 40
0.0
 40
0.0
 40
0.0
 40
0.0
 40
0.1989239597362801
 40
0.465950584310487
 40
0.7329742733226847
 40
1.0
 40
1.0
 40
1.0
 40
1.0
 10
423.8102774659076
 20
500.9308522152538
 30
0.0
 10
423.8091036784717
 20
500.9063259371457
 30
0.0
 10
423.8063542512917
 20
500.8488766805023
 30
0.0
 10
423.5367473726084
 20
500.7417587632299
 30
0.0
 10
423.0896863414558
 20
500.630935651885
 30
0.0
 10
422.7061115862475
 20
500.578216005312
 30
0.0
 10
422.5143234768787
 20
500.5518560814495
 30
0.0
  0
LINE
  5
204
330
1F
100
AcDbEntity
  8
0
  6
Continuous
 62
     7
370
    15
100
AcDbLine
 10
421.0373948852
 20
498.9494299101
 30
0.0
 11
421.0364114085
 21
499.1529648709
 31
0.0
  0
ARC
  5
205
330
1F
100
AcDbEntity
  8
0
  6
Continuous
 62
     7
370
    15
100
AcDbCircle
 10
423.71555134
 20
510.853486894
 30
0.0
 40
0.4000075274666025
100
AcDbArc
 50
0.1467585748
 51
179.5021275156
  0
ELLIPSE
  5
206
330
1F
100
AcDbEntity
  8
0
  6
Continuous
 62
     7
370
    15
100
AcDbEllipse
 10
423.7155645276
 20
510.5886028589
 30
0.0
 11
0.3991830274374024
 21
-0.02624604221148274
 31
0.0
210
0.0
220
0.0
230
1.0
 40
0.9763157485
 41
0.0
 42
6.283185307179586
  0
SPLINE
  5
207
330
1F
100
AcDbEntity
  8
0
  6
Continuous
 62
     7
370
    15
100
AcDbSpline
210
0.0
220
0.0
230
1.0
 70
     8
 71
     3
 72
    13
 73
     9
 74
     0
 42
0.00000001
 43
0.00000001
 40
0.0
 40
0.0
 40
0.0
 40
0.0
 40
0.0081702280425704
 40
0.2391539873185931
 40
0.4710971973866074
 40
0.6931205590767906
 40
0.9042225733627326
 40
1.0
 40
1.0
 40
1.0
 40
1.0
 10
423.7155656853595
 20
511.3174384045238
 30
0.0
 10
423.7139067843852
 20
511.3170436084584
 30
0.0
 10
423.6653484356428
 20
511.3054873761562
 30
0.0
 10
423.5692149509574
 20
511.2822944453591
 30
0.0
 10
423.4463824750707
 20
511.2386370359543
 30
0.0
 10
423.3607302816252
 20
511.2011976908043
 30
0.0
 10
423.3167124542518
 20
511.1800479840396
 30
0.0
 10
423.319944430971
 20
511.1750693702315
 30
0.0
 10
423.3209531346241
 20
511.1735155391331
 30
0.0
  0
SPLINE
  5
208
330
1F
100
AcDbEntity
  8
0
  6
Continuous
 62
     7
370
    15
100
AcDbSpline
210
0.0
220
0.0
230
1.0
 70
     8
 71
     3
 72
    13
 73
     9
 74
     0
 42
0.00000001
 43
0.00000001
 40
0.0
 40
0.0
 40
0.0
 40
0.0
 40
0.1252289053032055
 40
0.2499779394264892
 40
0.4999780623493859
 40
0.7499979040631034
 40
0.8747543590072153
 40
1.0
 40
1.0
 40
1.0
 40
1.0
 10
424.1155724564472
 20
511.3117461609478
 30
0.0
 10
424.1138581325108
 20
511.3117690054664
 30
0.0
 10
424.1104360538451
 20
511.3118146069645
 30
0.0
 10
424.0760561991594
 20
511.3123096857886
 30
0.0
 10
424.0007923690451
 20
511.3133779534426
 30
0.0
 10
423.8921300306874
 20
511.3149299591262
 30
0.0
 10
423.7934167913471
 20
511.3163264876353
 30
0.0
 10
423.7415498838285
 20
511.3170672823831
 30
0.0
 10
423.7155656853595
 20
511.3174384045238
 30
0.0
  0
SPLINE
  5
209
330
1F
100
AcDbEntity
  8
0
  6
Continuous
 62
     7
370
    15
100
AcDbSpline
210
0.0
220
0.0
230
1.0
 70
     8
 71
     3
 72
    10
 73
     6
 74
     0
 42
0.00000001
 43
0.00000001
 40
0.0
 40
0.0
 40
0.0
 40
0.0
 40
0.0190107309040389
 40
0.5253203859619627
 40
1.0
 40
1.0
 40
1.0
 40
1.0
 10
423.7155656853595
 20
511.3174384045238
 30
0.0
 10
423.7170900353403
 20
511.3181761013242
 30
0.0
 10
423.7592121464948
 20
511.3385607551224
 30
0.0
 10
423.8417309805191
 20
511.3769754904131
 30
0.0
 10
423.9118865551923
 20
511.4030801022379
 30
0.0
 10
423.9458333292881
 20
511.4157115625973
 30
0.0
  0
LINE
  5
20A
330
1F
100
AcDbEntity
  8
0
  6
Continuous
 62
     7
370
    15
100
AcDbLine
 10
418.8390414754
 20
520.5566724348
 30
0.0
 11
418.8514988461
 21
520.4059024858
 31
0.0
  0
LINE
  5
20B
330
1F
100
AcDbEntity
  8
0
  6
Continuous
 62
     7
370
    15
100
AcDbLine
 10
421.8312691489
 20
520.7494115042
 30
0.0
 11
421.795685176
 21
520.9595700311
 31
0.0
  0
ARC
  5
20C
330
1F
100
AcDbEntity
  8
0
  6
Continuous
 62
     7
370
    15
100
AcDbCircle
 10
419.7482651273
 20
514.4357112527
 30
0.0
 40
2.200000000000036
100
AcDbArc
 50
103.5934783352
 51
268.1042765976
  0
LINE
  5
20D
330
1F
100
AcDbEntity
  8
0
  6
Continuous
 62
     7
370
    15
100
AcDbLine
 10
416.2014316359
 20
515.8134763646
 30
0.0
 11
416.5350835362
 21
517.7057077694
 31
0.0
  0
LWPOLYLINE
  5
20E
330
1F
100
AcDbEntity
  8
0
  6
Continuous
 62
     7
370
    15
100
AcDbPolyline
 90
        9
 70
   128
 43
0.0
 10
416.5350835362
 20
517.7057077694
 10
416.390855197
 20
517.7311440515
 10
416.2538092175
 20
517.7553062844
 10
416.1286990682
 20
517.7773674535
 10
416.0198609868
 20
517.7965601492
 10
415.9310351649
 20
517.8122212696
 10
415.8652912417
 20
517.823814373
 10
415.8249239961
 20
517.8309296775
 10
415.8113043347
 20
517.833336215
  0
LINE
  5
20F
330
1F
100
AcDbEntity
  8
0
  6
Continuous
 62
     7
370
    15
100
AcDbLine
 10
415.8113043347
 20
517.833336215
 30
0.0
 11
420.1863448659
 21
542.6454459834
 31
0.0
  0
LWPOLYLINE
  5
210
330
1F
100
AcDbEntity
  8
0
  6
Continuous
 62
     7
370
    15
100
AcDbPolyline
 90
        9
 70
   128
 43
0.0
 10
420.1863448659
 20
542.6454459834
 10
420.2014844457
 20
542.6427712249
 10
420.2463220397
 20
542.6348661589
 10
420.3191291133
 20
542.6220288086
 10
420.4171042481
 20
542.6047583627
 10
420.5364923516
 20
542.583703022
 10
420.6727038661
 20
542.5596898007
 10
420.8204935828
 20
542.5336276698
 10
420.9741990605
 20
542.5065224576
  0
LINE
  5
211
330
1F
100
AcDbEntity
  8
0
  6
Continuous
 62
     7
370
    15
100
AcDbLine
 10
420.9741990605
 20
542.5065224576
 30
0.0
 11
416.1488752404
 21
515.1407261896
 31
0.0
  0
LINE
  5
212
330
1F
100
AcDbEntity
  8
0
  6
Continuous
 62
     7
370
    15
100
AcDbLine
 10
416.1488752404
 20
515.1407261896
 30
0.0
 11
416.2014316359
 21
515.8134763646
 31
0.0
  0
LWPOLYLINE
  5
213
330
1F
100
AcDbEntity
  8
0
  6
Continuous
 62
     7
370
    15
100
AcDbPolyline
 90
        5
 70
   128
 43
0.0
 10
419.0336506406
 20
549.5337685156
 10
418.7801818887
 20
550.2301742839
 10
418.5966144839
 20
550.7344891834
 10
418.4854816237
 20
551.0398437786
 10
418.4482585231
 20
551.1420955467
  0
LWPOLYLINE
  5
214
330
1F
100
AcDbEntity
  8
0
  6
Continuous
 62
     7
370
    15
100
AcDbPolyline
 90
        5
 70
   128
 43
0.0
 10
419.7932671348
 20
549.7857546019
 10
419.5364307204
 20
550.4914288926
 10
419.3504046241
 20
551.0025461721
 10
419.2377369443
 20
551.3120656418
 10
419.2000221053
 20
551.4157106685
  0
LINE
  5
215
330
1F
100
AcDbEntity
  8
0
  6
Continuous
 62
     7
370
    15
100
AcDbLine
 10
420.0153689423
 20
549.4313155818
 30
0.0
 11
419.7932671348
 21
549.7857546019
 31
0.0
  0
LINE
  5
216
330
1F
100
AcDbEntity
  8
0
  6
Continuous
 62
     7
370
    15
100
AcDbLine
 10
419.9331741372
 20
549.4013940501
 30
0.0
 11
420.0153689423
 21
549.4313155818
 31
0.0
  0
SPLINE
  5
217
330
1F
100
AcDbEntity
  8
0
  6
Continuous
 62
     7
370
    15
100
AcDbSpline
210
0.0
220
0.0
230
1.0
 70
     8
 71
     3
 72
    12
 73
     8
 74
     0
 42
0.00000001
 43
0.00000001
 40
0.0
 40
0.0
 40
0.0
 40
0.0
 40
0.251021990599481
 40
0.5023977458077202
 40
0.7402765908566765
 40
0.9473178514528033
 40
1.0
 40
1.0
 40
1.0
 40
1.0
 10
419.033650640575
 20
549.5337685155506
 30
0.0
 10
419.0613594379035
 20
549.4894508766698
 30
0.0
 10
419.1168160824934
 20
549.4007531421801
 30
0.0
 10
419.3238146481011
 20
549.3257589110692
 30
0.0
 10
419.5852049276898
 20
549.3142698183899
 30
0.0
 10
419.8017931954395
 20
549.3559036096317
 30
0.0
 10
419.9110188646097
 20
549.3937228224695
 30
0.0
 10
419.9331741372028
 20
549.4013940500851
 30
0.0
  0
LINE
  5
218
330
1F
100
AcDbEntity
  8
0
  6
Continuous
 62
     7
370
    15
100
AcDbLine
 10
419.9331741372
 20
549.4013940501
 30
0.0
 11
420.5095063487
 21
547.8179072547
 31
0.0
  0
LWPOLYLINE
  5
219
330
1F
100
AcDbEntity
  8
0
  6
Continuous
 62
     7
370
    15
100
AcDbPolyline
 90
        9
 70
   128
 43
0.0
 10
419.7577576676
 20
547.5442921328
 10
419.7721968928
 20
547.5495522427
 10
419.8149781266
 20
547.5651239562
 10
419.8844473401
 20
547.5904037761
 10
419.9779372254
 20
547.6244305777
 10
420.0918566028
 20
547.6658930587
 10
420.2218245307
 20
547.7132042455
 10
420.3628491202
 20
547.7645312953
 10
420.5095063487
 20
547.8179072547
  0
LINE
  5
21A
330
1F
100
AcDbEntity
  8
0
  6
Continuous
 62
     7
370
    15
100
AcDbLine
 10
419.7577576676
 20
547.5442921328
 30
0.0
 11
419.0336506406
 21
549.5337685156
 31
0.0
  0
ARC
  5
21B
330
1F
100
AcDbEntity
  8
0
  6
Continuous
 62
     7
370
    15
100
AcDbCircle
 10
420.3382706334
 20
520.6047021711
 30
0.0
 40
1.600000000000023
100
AcDbArc
 50
347.034367059
 51
204.5705045339
  0
ARC
  5
21C
330
1F
100
AcDbEntity
  8
0
  6
Continuous
 62
     7
370
    15
100
AcDbCircle
 10
420.8509795987
 20
548.627776107
 30
0.0
 40
0.5000000000001137
100
AcDbArc
 50
36.8410865503
 51
90.0
  0
ARC
  5
21D
330
1F
100
AcDbEntity
  8
0
  6
Continuous
 62
     7
370
    15
100
AcDbCircle
 10
413.6482651273
 20
543.2313972986
 30
0.0
 40
9.499999999999943
100
AcDbArc
 50
0.0
 51
36.8410865502
  0
LINE
  5
21E
330
1F
100
AcDbEntity
  8
0
  6
Continuous
 62
     7
370
    15
100
AcDbLine
 10
423.1482635775
 20
543.2313968944
 30
0.0
 11
423.1482635775
 21
515.2057101535
 31
0.0
  0
ARC
  5
21F
330
1F
100
AcDbEntity
  8
0
  6
Continuous
 62
     7
370
    15
100
AcDbCircle
 10
410.8306780868
 20
544.295101721
 30
0.0
 40
10.3000000000002
100
AcDbArc
 50
350.0
 51
20.0
  0
ARC
  5
220
330
1F
100
AcDbEntity
  8
0
  6
Continuous
 62
     7
370
    15
100
AcDbCircle
 10
420.7329670531
 20
550.127776107
 30
0.0
 40
1.000000000000028
100
AcDbArc
 50
224.1440002858
 51
270.0
  0
LINE
  5
221
330
1F
100
AcDbEntity
  8
0
  6
Continuous
 62
     7
370
    15
100
AcDbLine
 10
420.732964162
 20
549.1277789282
 30
0.0
 11
420.8509813586
 21
549.1277789282
 31
0.0
  0
LWPOLYLINE
  5
222
330
1F
100
AcDbEntity
  8
0
  6
Continuous
 62
     7
370
    15
100
AcDbPolyline
 90
        3
 70
   128
 43
0.0
 10
423.1482635775
 20
515.2057101535
 10
422.9396473208
 20
514.0154277491
 10
422.583479766
 20
513.2992704916
  0
ARC
  5
223
330
1F
100
AcDbEntity
  8
0
  6
Continuous
 62
     7
370
    15
100
AcDbCircle
 10
419.6482651273
 20
515.2057112527
 30
0.0
 40
3.500000000000063
100
AcDbArc
 50
181.0639402281
 51
271.3221928089
  0
ARC
  5
224
330
1F
100
AcDbEntity
  8
0
  6
Continuous
 62
     7
370
    15
100
AcDbCircle
 10
410.8306780868
 20
544.295101721
 30
0.0
 40
9.50000000000039
100
AcDbArc
 50
350.0
 51
20.0
  0
ARC
  5
225
330
1F
100
AcDbEntity
  8
0
  6
Continuous
 62
     7
370
    15
100
AcDbCircle
 10
420.2418829206
 20
515.9032067794
 30
0.0
 40
4.698428302688295
100
AcDbArc
 50
170.0
 51
264.3261771657
  0
LINE
  5
226
330
1F
100
AcDbEntity
  8
0
  6
Continuous
 62
     7
370
    15
100
AcDbLine
 10
415.8113043347
 20
517.833336215
 30
0.0
 11
415.6148325244
 21
516.719079535
 31
0.0
  0
LINE
  5
227
330
1F
100
AcDbEntity
  8
0
  6
Continuous
 62
     7
370
    15
100
AcDbLine
 10
709.6482704917
 20
634.4157112348
 30
0.0
 11
439.6482597629
 21
634.4157112348
 31
0.0
  0
LINE
  5
228
330
1F
100
AcDbEntity
  8
0
  6
Continuous
 62
     7
370
    15
100
AcDbLine
 10
709.6482704917
 20
619.41571157
 30
0.0
 11
709.6482704917
 21
634.4157112348
 31
0.0
  0
LINE
  5
229
330
1F
100
AcDbEntity
  8
0
  6
Continuous
 62
     7
370
    15
100
AcDbLine
 10
709.6482704917
 20
619.41571157
 30
0.0
 11
439.6482597629
 21
619.41571157
 31
0.0
  0
LINE
  5
22A
330
1F
100
AcDbEntity
  8
0
  6
Continuous
 62
     7
370
    15
100
AcDbLine
 10
439.6482597629
 20
619.41571157
 30
0.0
 11
439.6482597629
 21
634.4157112348
 31
0.0
  0
LINE
  5
22B
330
1F
100
AcDbEntity
  8
0
  6
Continuous
 62
     7
370
    15
100
AcDbLine
 10
439.6482597629
 20
619.41571157
 30
0.0
 11
424.6482591668
 21
619.41571157
 31
0.0
  0
ARC
  5
22C
330
1F
100
AcDbEntity
  8
0
  6
Continuous
 62
     7
370
    15
100
AcDbCircle
 10
439.6482651273
 20
619.4157112527
 30
0.0
 40
15.0
100
AcDbArc
 50
90.0
 51
180.0
  0
LINE
  5
22D
330
1F
100
AcDbEntity
  8
0
  6
Continuous
 62
     7
370
    15
100
AcDbLine
 10
709.6482704917
 20
619.41571157
 30
0.0
 11
724.6482710877
 21
619.41571157
 31
0.0
  0
ARC
  5
22E
330
1F
100
AcDbEntity
  8
0
  6
Continuous
 62
     7
370
    15
100
AcDbCircle
 10
709.6482651273
 20
619.4157112527
 30
0.0
 40
15.0
100
AcDbArc
 50
0.0
 51
90.0
  0
LINE
  5
22F
330
1F
100
AcDbEntity
  8
0
  6
Continuous
 62
     7
370
    15
100
AcDbLine
 10
724.6482710877
 20
498.4157150197
 30
0.0
 11
724.6482710877
 21
619.41571157
 31
0.0
  0
LINE
  5
230
330
1F
100
AcDbEntity
  8
0
  6
Continuous
 62
     7
370
    15
100
AcDbLine
 10
724.6482710877
 20
498.4157150197
 30
0.0
 11
709.6482704917
 21
498.4157150197
 31
0.0
  0
LINE
  5
231
330
1F
100
AcDbEntity
  8
0
  6
Continuous
 62
     7
370
    15
100
AcDbLine
 10
709.6482704917
 20
498.4157150197
 30
0.0
 11
709.6482704917
 21
619.41571157
 31
0.0
  0
LINE
  5
232
330
1F
100
AcDbEntity
  8
0
  6
Continuous
 62
     7
370
    15
100
AcDbLine
 10
439.6482597629
 20
498.4157150197
 30
0.0
 11
439.6482597629
 21
619.41571157
 31
0.0
  0
LINE
  5
233
330
1F
100
AcDbEntity
  8
0
  6
Continuous
 62
     7
370
    15
100
AcDbLine
 10
439.6482597629
 20
498.4157150197
 30
0.0
 11
424.6482591668
 21
498.4157150197
 31
0.0
  0
LINE
  5
234
330
1F
100
AcDbEntity
  8
0
  6
Continuous
 62
     7
370
    15
100
AcDbLine
 10
424.6482591668
 20
498.4157150197
 30
0.0
 11
424.6482591668
 21
619.41571157
 31
0.0
  0
LINE
  5
235
330
1F
100
AcDbEntity
  8
0
  6
Continuous
 62
     7
370
    15
100
AcDbLine
 10
444.6482698956
 20
518.4157108473
 30
0.0
 11
704.6482603589
 21
518.4157108473
 31
0.0
  0
LINE
  5
236
330
1F
100
AcDbEntity
  8
0
  6
Continuous
 62
     7
370
    15
100
AcDbLine
 10
704.6482603589
 20
614.4157116818
 30
0.0
 11
704.6482603589
 21
518.4157108473
 31
0.0
  0
LINE
  5
237
330
1F
100
AcDbEntity
  8
0
  6
Continuous
 62
     7
370
    15
100
AcDbLine
 10
704.6482603589
 20
614.4157116818
 30
0.0
 11
444.6482698956
 21
614.4157116818
 31
0.0
  0
LINE
  5
238
330
1F
100
AcDbEntity
  8
0
  6
Continuous
 62
     7
370
    15
100
AcDbLine
 10
444.6482698956
 20
518.4157108473
 30
0.0
 11
444.6482698956
 21
614.4157116818
 31
0.0
  0
LINE
  5
239
330
1F
100
AcDbEntity
  8
0
  6
Continuous
 62
     7
370
    15
100
AcDbLine
 10
709.6482704917
 20
498.4157150197
 30
0.0
 11
439.6482597629
 21
498.4157150197
 31
0.0
  0
LINE
  5
23A
330
1F
100
AcDbEntity
  8
0
  6
Continuous
 62
     7
370
    15
100
AcDbLine
 10
444.6482698956
 20
494.4157069134
 30
0.0
 11
444.6482698956
 21
498.4157150197
 31
0.0
  0
LINE
  5
23B
330
1F
100
AcDbEntity
  8
0
  6
Continuous
 62
     7
370
    15
100
AcDbLine
 10
429.6482692996
 20
494.4157069134
 30
0.0
 11
429.6482692996
 21
498.4157150197
 31
0.0
  0
LINE
  5
23C
330
1F
100
AcDbEntity
  8
0
  6
Continuous
 62
     7
370
    15
100
AcDbLine
 10
704.6482603589
 20
494.4157069134
 30
0.0
 11
704.6482603589
 21
498.4157150197
 31
0.0
  0
LINE
  5
23D
330
1F
100
AcDbEntity
  8
0
  6
Continuous
 62
     7
370
    15
100
AcDbLine
 10
719.6482609549
 20
494.4157069134
 30
0.0
 11
719.6482609549
 21
498.4157150197
 31
0.0
  0
LINE
  5
23E
330
1F
100
AcDbEntity
  8
0
  6
Continuous
 62
     7
370
    15
100
AcDbLine
 10
724.6482710877
 20
498.4157150197
 30
0.0
 11
725.3155897895
 21
498.4157150197
 31
0.0
  0
ARC
  5
23F
330
1F
100
AcDbEntity
  8
0
  6
Continuous
 62
     7
370
    15
100
AcDbCircle
 10
725.3155828753
 20
498.9157112527
 30
0.0
 40
0.4999999999999791
100
AcDbArc
 50
270.0
 51
332.720387264
  0
ARC
  5
240
330
1F
100
AcDbEntity
  8
0
  6
Continuous
 62
     7
370
    15
100
AcDbCircle
 10
730.6482651273
 20
496.1657112527
 30
0.0
 40
5.500000000000176
100
AcDbArc
 50
202.024312837
 51
152.720387264
  0
ARC
  5
241
330
1F
100
AcDbEntity
  8
0
  6
Continuous
 62
     7
370
    15
100
AcDbCircle
 10
725.0861162619
 20
493.9157112527
 30
0.0
 40
0.5
100
AcDbArc
 50
22.0243128371
 51
90.0
  0
LINE
  5
242
330
1F
100
AcDbEntity
  8
0
  6
Continuous
 62
     7
370
    15
100
AcDbLine
 10
725.0861119071
 20
494.4157069134
 30
0.0
 11
724.6482710877
 21
494.4157069134
 31
0.0
  0
LINE
  5
243
330
1F
100
AcDbEntity
  8
0
  6
Continuous
 62
     7
370
    15
100
AcDbLine
 10
424.6482591668
 20
519.6157088089
 30
0.0
 11
424.3482689897
 21
519.6157088089
 31
0.0
  0
LINE
  5
244
330
1F
100
AcDbEntity
  8
0
  6
Continuous
 62
     7
370
    15
100
AcDbLine
 10
424.3482689897
 20
517.6157122063
 30
0.0
 11
424.6482591668
 21
517.6167701888
 31
0.0
  0
LINE
  5
245
330
1F
100
AcDbEntity
  8
0
  6
Continuous
 62
     7
370
    15
100
AcDbLine
 10
424.3482689897
 20
517.6157122063
 30
0.0
 11
424.3482689897
 21
519.6157088089
 31
0.0
  0
ARC
  5
246
330
1F
100
AcDbEntity
  8
0
  6
Continuous
 62
     7
370
    15
100
AcDbCircle
 10
419.4482651273
 20
514.5157112527
 30
0.0
 40
3.100000000000061
100
AcDbArc
 50
192.3149210922
 51
270.0
  0
LINE
  5
247
330
1F
100
AcDbEntity
  8
0
  6
Continuous
 62
     7
370
    15
100
AcDbLine
 10
424.3482689897
 20
511.4157115626
 30
0.0
 11
424.3482689897
 21
517.6157122063
 31
0.0
  0
LINE
  5
248
330
1F
100
AcDbEntity
  8
0
  6
Continuous
 62
     7
370
    15
100
AcDbLine
 10
419.4482605496
 20
511.4157115626
 30
0.0
 11
419.7583984176
 21
511.4157115626
 31
0.0
  0
LINE
  5
249
330
1F
100
AcDbEntity
  8
0
  6
Continuous
 62
     7
370
    15
100
AcDbLine
 10
422.7736483851
 20
511.4157115626
 30
0.0
 11
424.3482689897
 21
511.4157115626
 31
0.0
  0
LINE
  5
24A
330
1F
100
AcDbEntity
  8
0
  6
Continuous
 62
     7
370
    15
100
AcDbLine
 10
424.3482689897
 20
517.6157122063
 30
0.0
 11
423.1482635775
 21
517.6157122063
 31
0.0
  0
LINE
  5
24B
330
1F
100
AcDbEntity
  8
0
  6
Continuous
 62
     7
370
    15
100
AcDbLine
 10
424.6482591668
 20
511.4157115626
 30
0.0
 11
424.3482689897
 21
511.4157115626
 31
0.0
  0
LINE
  5
24C
330
1F
100
AcDbEntity
  8
0
  6
Continuous
 62
     7
370
    15
100
AcDbLine
 10
424.3482689897
 20
519.6157088089
 30
0.0
 11
424.3482689897
 21
543.6657135892
 31
0.0
  0
LINE
  5
24D
330
1F
100
AcDbEntity
  8
0
  6
Continuous
 62
     7
370
    15
100
AcDbLine
 10
424.3482689897
 20
550.415708642
 30
0.0
 11
424.3482689897
 21
543.6657135892
 31
0.0
  0
LINE
  5
24E
330
1F
100
AcDbEntity
  8
0
  6
Continuous
 62
     7
370
    15
100
AcDbLine
 10
424.2482672969
 20
543.4157093572
 30
0.0
 11
424.2482672969
 21
549.415714066
 31
0.0
  0
LINE
  5
24F
330
1F
100
AcDbEntity
  8
0
  6
Continuous
 62
     7
370
    15
100
AcDbLine
 10
424.2482672969
 20
520.4157149005
 30
0.0
 11
424.2482672969
 21
526.4157121586
 31
0.0
  0
LINE
  5
250
330
1F
100
AcDbEntity
  8
0
  6
Continuous
 62
     7
370
    15
100
AcDbLine
 10
424.3482689897
 20
534.4157134699
 30
0.0
 11
423.1482635775
 21
534.7372507262
 31
0.0
  0
LINE
  5
251
330
1F
100
AcDbEntity
  8
0
  6
Continuous
 62
     7
370
    15
100
AcDbLine
 10
423.1482635775
 20
535.7725238013
 30
0.0
 11
424.3482689897
 21
535.450986545
 31
0.0
  0
LINE
  5
252
330
1F
100
AcDbEntity
  8
0
  6
Continuous
 62
     8
370
    15
100
AcDbLine
 10
424.6482591668
 20
543.6657135892
 30
0.0
 11
424.3482689897
 21
543.6657135892
 31
0.0
  0
ENDSEC
  0
SECTION
  2
OBJECTS
  0
DICTIONARY
  5
C
330
0
100
AcDbDictionary
281
     1
  3
ACAD_GROUP
350
D
  3
ACAD_LAYOUT
350
1A
  3
ACAD_MLINESTYLE
350
17
  3
ACAD_PLOTSETTINGS
350
19
  3
ACAD_PLOTSTYLENAME
350
E
  0
DICTIONARY
  5
D
102
{ACAD_REACTORS
330
C
102
}
330
C
100
AcDbDictionary
281
     1
  0
DICTIONARY
  5
1A
102
{ACAD_REACTORS
330
C
102
}
330
C
100
AcDbDictionary
281
     1
  3
Layout1
350
1E
  3
Layout2
350
26
  3
Model
350
22
  0
DICTIONARY
  5
17
102
{ACAD_REACTORS
330
C
102
}
330
C
100
AcDbDictionary
281
     1
  3
Standard
350
18
  0
DICTIONARY
  5
19
102
{ACAD_REACTORS
330
C
102
}
330
C
100
AcDbDictionary
281
     1
  0
ACDBDICTIONARYWDFLT
  5
E
102
{ACAD_REACTORS
330
C
102
}
330
C
100
AcDbDictionary
281
     1
  3
Normal
350
F
100
AcDbDictionaryWithDefault
340
F
  0
LAYOUT
  5
1E
102
{ACAD_REACTORS
330
1A
102
}
330
1A
100
AcDbPlotSettings
  1

  2
none_device
  4

  6

 40
0.0
 41
0.0
 42
0.0
 43
0.0
 44
0.0
 45
0.0
 46
0.0
 47
0.0
 48
0.0
 49
0.0
140
0.0
141
0.0
142
1.0
143
1.0
 70
   688
 72
     0
 73
     0
 74
     5
  7

 75
    16
147
1.0
148
0.0
149
0.0
100
AcDbLayout
  1
Layout1
 70
     1
 71
     1
 10
0.0
 20
0.0
 11
420.0
 21
297.0
 12
0.0
 22
0.0
 32
0.0
 14
1.0000000000E+20
 24
1.0000000000E+20
 34
1.0000000000E+20
 15
-1.0000000000E+20
 25
-1.0000000000E+20
 35
-1.0000000000E+20
146
0.0
 13
0.0
 23
0.0
 33
0.0
 16
1.0
 26
0.0
 36
0.0
 17
0.0
 27
1.0
 37
0.0
 76
     0
330
1B
  0
LAYOUT
  5
26
102
{ACAD_REACTORS
330
1A
102
}
330
1A
100
AcDbPlotSettings
  1

  2
none_device
  4

  6

 40
0.0
 41
0.0
 42
0.0
 43
0.0
 44
0.0
 45
0.0
 46
0.0
 47
0.0
 48
0.0
 49
0.0
140
0.0
141
0.0
142
1.0
143
1.0
 70
   688
 72
     0
 73
     0
 74
     5
  7

 75
    16
147
1.0
148
0.0
149
0.0
100
AcDbLayout
  1
Layout2
 70
     1
 71
     2
 10
0.0
 20
0.0
 11
0.0
 21
0.0
 12
0.0
 22
0.0
 32
0.0
 14
0.0
 24
0.0
 34
0.0
 15
0.0
 25
0.0
 35
0.0
146
0.0
 13
0.0
 23
0.0
 33
0.0
 16
1.0
 26
0.0
 36
0.0
 17
0.0
 27
1.0
 37
0.0
 76
     0
330
23
  0
LAYOUT
  5
22
102
{ACAD_REACTORS
330
1A
102
}
330
1A
100
AcDbPlotSettings
  1

  2
none_device
  4

  6

 40
0.0
 41
0.0
 42
0.0
 43
0.0
 44
0.0
 45
0.0
 46
0.0
 47
0.0
 48
0.0
 49
0.0
140
0.0
141
0.0
142
1.0
143
1.0
 70
  1712
 72
     0
 73
     0
 74
     0
  7

 75
     0
147
1.0
148
0.0
149
0.0
100
AcDbLayout
  1
Model
 70
     1
 71
     0
 10
0.0
 20
0.0
 11
840.0
 21
594.0
 12
0.0
 22
0.0
 32
0.0
 14
0.0
 24
0.0
 34
0.0
 15
840.0
 25
594.0
 35
0.0
146
0.0
 13
0.0
 23
0.0
 33
0.0
 16
1.0
 26
0.0
 36
0.0
 17
0.0
 27
1.0
 37
0.0
 76
     0
330
1F
331
29
  0
MLINESTYLE
  5
18
102
{ACAD_REACTORS
330
17
102
}
330
17
100
AcDbMlineStyle
  2
Standard
 70
     0
  3

 62
   256
 51
90.0
 52
90.0
 71
     2
 49
0.5
 62
   256
  6
BYLAYER
 49
-0.5
 62
   256
  6
BYLAYER
  0
ACDBPLACEHOLDER
  5
F
102
{ACAD_REACTORS
330
E
102
}
330
E
  0
ENDSEC
  0
EOF
