  0
SECTION
  2
HEADER
  9
$ACADVER
  1
AC1015
  9
$ACADMAINTVER
 70
     6
  9
$DWGCODEPAGE
  3
DOS932
  9
$INSBASE
 10
0.0
 20
0.0
 30
0.0
  9
$EXTMIN
 10
0.0
 20
0.0
 30
0.0
  9
$EXTMAX
 10
840.0
 20
594.0
 30
0.0
  9
$LIMMIN
 10
0.0
 20
0.0
  9
$LIMMAX
 10
840.0
 20
594.0
  9
$ORTHOMODE
 70
     0
  9
$REGENMODE
 70
     1
  9
$FILLMODE
 70
     1
  9
$QTEXTMODE
 70
     0
  9
$MIRRTEXT
 70
     1
  9
$LTSCALE
 40
2.0
  9
$ATTMODE
 70
     1
  9
$TEXTSIZE
 40
7.0
  9
$TRACEWID
 40
1.0
  9
$TEXTSTYLE
  7
Standard
  9
$CLAYER
  8
0
  9
$CELTYPE
  6
ByLayer
  9
$CECOLOR
 62
   256
  9
$CELTSCALE
 40
1.0
  9
$DISPSILH
 70
     0
  9
$DIMSCALE
 40
1.0
  9
$DIMASZ
 40
6.0
  9
$DIMEXO
 40
2.0
  9
$DIMDLI
 40
3.75
  9
$DIMRND
 40
0.0
  9
$DIMDLE
 40
0.0
  9
$DIMEXE
 40
2.0
  9
$DIMTP
 40
0.0
  9
$DIMTM
 40
0.0
  9
$DIMTXT
 40
7.0
  9
$DIMCEN
 40
2.5
  9
$DIMTSZ
 40
0.0
  9
$DIMTOL
 70
     0
  9
$DIMLIM
 70
     0
  9
$DIMTIH
 70
     1
  9
$DIMTOH
 70
     1
  9
$DIMSE1
 70
     0
  9
$DIMSE2
 70
     0
  9
$DIMTAD
 70
     1
  9
$DIMZIN
 70
     0
  9
$DIMBLK
  1

  9
$DIMASO
 70
     1
  9
$DIMSHO
 70
     1
  9
$DIMPOST
  1

  9
$DIMAPOST
  1

  9
$DIMALT
 70
     0
  9
$DIMALTD
 70
     3
  9
$DIMALTF
 40
0.0393700787
  9
$DIMLFAC
 40
1.0
  9
$DIMTOFL
 70
     1
  9
$DIMTVP
 40
0.0
  9
$DIMTIX
 70
     0
  9
$DIMSOXD
 70
     0
  9
$DIMSAH
 70
     0
  9
$DIMBLK1
  1

  9
$DIMBLK2
  1

  9
$DIMSTYLE
  2
ISO-25
  9
$DIMCLRD
 70
     0
  9
$DIMCLRE
 70
     0
  9
$DIMCLRT
 70
     0
  9
$DIMTFAC
 40
1.0
  9
$DIMGAP
 40
3.048
  9
$DIMJUST
 70
     0
  9
$DIMSD1
 70
     0
  9
$DIMSD2
 70
     0
  9
$DIMTOLJ
 70
     0
  9
$DIMTZIN
 70
     0
  9
$DIMALTZ
 70
     0
  9
$DIMALTTZ
 70
     0
  9
$DIMUPT
 70
     0
  9
$DIMDEC
 70
     1
  9
$DIMTDEC
 70
     1
  9
$DIMALTU
 70
     2
  9
$DIMALTTD
 70
     3
  9
$DIMTXSTY
  7
Standard
  9
$DIMAUNIT
 70
     0
  9
$DIMADEC
 70
     2
  9
$DIMALTRND
 40
0.0
  9
$DIMAZIN
 70
     0
  9
$DIMDSEP
 70
    44
  9
$DIMATFIT
 70
     3
  9
$DIMFRAC
 70
     0
  9
$DIMLDRBLK
  1

  9
$DIMLUNIT
 70
     2
  9
$DIMLWD
 70
    -2
  9
$DIMLWE
 70
    -2
  9
$DIMTMOVE
 70
     0
  9
$LUNITS
 70
     2
  9
$LUPREC
 70
     1
  9
$SKETCHINC
 40
1.0
  9
$FILLETRAD
 40
10.0
  9
$AUNITS
 70
     0
  9
$AUPREC
 70
     2
  9
$MENU
  1
.
  9
$ELEVATION
 40
0.0
  9
$PELEVATION
 40
0.0
  9
$THICKNESS
 40
0.0
  9
$LIMCHECK
 70
     0
  9
$CHAMFERA
 40
10.0
  9
$CHAMFERB
 40
10.0
  9
$CHAMFERC
 40
20.0
  9
$CHAMFERD
 40
0.0
  9
$SKPOLY
 70
     0
  9
$TDCREATE
 40
2460440.65331066
  9
$TDUCREATE
 40
2460440.27831066
  9
$TDUPDATE
 40
2460440.653310671
  9
$TDUUPDATE
 40
2460440.278310671
  9
$TDINDWG
 40
0.0000000116
  9
$TDUSRTIMER
 40
0.0000000116
  9
$USRTIMER
 70
     1
  9
$ANGBASE
 50
0.0
  9
$ANGDIR
 70
     0
  9
$PDMODE
 70
     0
  9
$PDSIZE
 40
-1.0
  9
$PLINEWID
 40
0.0
  9
$SPLFRAME
 70
     0
  9
$SPLINETYPE
 70
     6
  9
$SPLINESEGS
 70
     8
  9
$HANDSEED
  5
251
  9
$SURFTAB1
 70
     6
  9
$SURFTAB2
 70
     6
  9
$SURFTYPE
 70
     6
  9
$SURFU
 70
     6
  9
$SURFV
 70
     6
  9
$UCSBASE
  2

  9
$UCSNAME
  2

  9
$UCSORG
 10
0.0
 20
0.0
 30
0.0
  9
$UCSXDIR
 10
1.0
 20
0.0
 30
0.0
  9
$UCSYDIR
 10
0.0
 20
1.0
 30
0.0
  9
$UCSORTHOREF
  2

  9
$UCSORTHOVIEW
 70
     0
  9
$UCSORGTOP
 10
0.0
 20
0.0
 30
0.0
  9
$UCSORGBOTTOM
 10
0.0
 20
0.0
 30
0.0
  9
$UCSORGLEFT
 10
0.0
 20
0.0
 30
0.0
  9
$UCSORGRIGHT
 10
0.0
 20
0.0
 30
0.0
  9
$UCSORGFRONT
 10
0.0
 20
0.0
 30
0.0
  9
$UCSORGBACK
 10
0.0
 20
0.0
 30
0.0
  9
$PUCSBASE
  2

  9
$PUCSNAME
  2

  9
$PUCSORG
 10
0.0
 20
0.0
 30
0.0
  9
$PUCSXDIR
 10
1.0
 20
0.0
 30
0.0
  9
$PUCSYDIR
 10
0.0
 20
1.0
 30
0.0
  9
$PUCSORTHOREF
  2

  9
$PUCSORTHOVIEW
 70
     0
  9
$PUCSORGTOP
 10
0.0
 20
0.0
 30
0.0
  9
$PUCSORGBOTTOM
 10
0.0
 20
0.0
 30
0.0
  9
$PUCSORGLEFT
 10
0.0
 20
0.0
 30
0.0
  9
$PUCSORGRIGHT
 10
0.0
 20
0.0
 30
0.0
  9
$PUCSORGFRONT
 10
0.0
 20
0.0
 30
0.0
  9
$PUCSORGBACK
 10
0.0
 20
0.0
 30
0.0
  9
$USERI1
 70
     0
  9
$USERI2
 70
     0
  9
$USERI3
 70
     0
  9
$USERI4
 70
     0
  9
$USERI5
 70
     0
  9
$USERR1
 40
0.0
  9
$USERR2
 40
0.0
  9
$USERR3
 40
0.0
  9
$USERR4
 40
0.0
  9
$USERR5
 40
0.0
  9
$WORLDVIEW
 70
     1
  9
$SHADEDGE
 70
     3
  9
$SHADEDIF
 70
    70
  9
$TILEMODE
 70
     1
  9
$MAXACTVP
 70
    64
  9
$PINSBASE
 10
0.0
 20
0.0
 30
0.0
  9
$PLIMCHECK
 70
     0
  9
$PEXTMIN
 10
1.0000000000E+20
 20
1.0000000000E+20
 30
1.0000000000E+20
  9
$PEXTMAX
 10
-1.0000000000E+20
 20
-1.0000000000E+20
 30
-1.0000000000E+20
  9
$PLIMMIN
 10
0.0
 20
0.0
  9
$PLIMMAX
 10
420.0
 20
297.0
  9
$UNITMODE
 70
     0
  9
$VISRETAIN
 70
     1
  9
$PLINEGEN
 70
     0
  9
$PSLTSCALE
 70
     1
  9
$TREEDEPTH
 70
  3020
  9
$CMLSTYLE
  2
Standard
  9
$CMLJUST
 70
     0
  9
$CMLSCALE
 40
20.0
  9
$PROXYGRAPHICS
 70
     1
  9
$MEASUREMENT
 70
     1
  9
$CELWEIGHT
370
    -1
  9
$ENDCAPS
280
     0
  9
$JOINSTYLE
280
     0
  9
$LWDISPLAY
290
     1
  9
$INSUNITS
 70
     4
  9
$HYPERLINKBASE
  1

  9
$STYLESHEET
  1

  9
$XEDIT
290
     1
  9
$CEPSNTYPE
380
     0
  9
$PSTYLEMODE
290
     1
  9
$FINGERPRINTGUID
  2
{0FEA798C-7E46-444E-BCFF-006FF1CF2126}
  9
$VERSIONGUID
  2
{FAEB1C32-E019-11D5-929B-00C0DF256EC4}
  9
$EXTNAMES
290
     1
  9
$PSVPSCALE
 40
0.0
  9
$OLESTARTUP
290
     0
  0
ENDSEC
  0
SECTION
  2
CLASSES
  0
CLASS
  1
ACDBDICTIONARYWDFLT
  2
AcDbDictionaryWithDefault
  3
ObjectDBX Classes
 90
        0
280
     0
281
     0
  0
CLASS
  1
VISUALSTYLE
  2
AcDbVisualStyle
  3
ObjectDBX Classes
 90
     4095
280
     0
281
     0
  0
CLASS
  1
MATERIAL
  2
AcDbMaterial
  3
ObjectDBX Classes
 90
     1153
280
     0
281
     0
  0
CLASS
  1
ACDBPLACEHOLDER
  2
AcDbPlaceHolder
  3
ObjectDBX Classes
 90
        0
280
     0
281
     0
  0
CLASS
  1
LAYOUT
  2
AcDbLayout
  3
ObjectDBX Classes
 90
        0
280
     0
281
     0
  0
ENDSEC
  0
SECTION
  2
TABLES
  0
TABLE
  2
VPORT
  5
8
330
0
100
AcDbSymbolTable
 70
     1
  0
VPORT
  5
29
330
8
100
AcDbSymbolTableRecord
100
AcDbViewportTableRecord
  2
*Active
 70
     0
 10
0.0
 20
0.0
 11
1.0
 21
1.0
 12
420.0
 22
297.0
 13
0.0
 23
0.0
 14
10.0
 24
10.0
 15
10.0
 25
10.0
 16
0.0
 26
0.0
 36
1.0
 17
0.0
 27
0.0
 37
0.0
 40
594.0
 41
1.4141414141
 42
50.0
 43
0.0
 44
0.0
 50
0.0
 51
0.0
 71
     0
 72
  2000
 73
     1
 74
     3
 75
     0
 76
     0
 77
     0
 78
     0
281
     0
 65
     1
110
0.0
120
0.0
130
0.0
111
1.0
121
0.0
131
0.0
112
0.0
122
1.0
132
0.0
 79
     0
146
0.0
  0
ENDTAB
  0
TABLE
  2
LTYPE
  5
5
330
0
100
AcDbSymbolTable
 70
     6
  0
LTYPE
  5
14
330
5
100
AcDbSymbolTableRecord
100
AcDbLinetypeTableRecord
  2
ByBlock
 70
     0
  3

 72
    65
 73
     0
 40
0.0
  0
LTYPE
  5
15
330
5
100
AcDbSymbolTableRecord
100
AcDbLinetypeTableRecord
  2
ByLayer
 70
     0
  3

 72
    65
 73
     0
 40
0.0
  0
LTYPE
  5
16
330
5
100
AcDbSymbolTableRecord
100
AcDbLinetypeTableRecord
  2
Continuous
 70
     0
  3
Solid line
 72
    65
 73
     0
 40
0.0
  0
LTYPE
  5
3F
330
5
100
AcDbSymbolTableRecord
100
AcDbLinetypeTableRecord
  2
HIDDEN
 70
     0
  3
Hidden __ __ __ __ __ __ __ __ __ __ __ __ __ __
 72
    65
 73
     2
 40
1.905
 49
1.27
 74
     0
 49
-0.635
 74
     0
  0
LTYPE
  5
40
330
5
100
AcDbSymbolTableRecord
100
AcDbLinetypeTableRecord
  2
PHANTOM
 70
     0
  3
Phantom ______  __  __  ______  __  __  ______
 72
    65
 73
     6
 40
12.7
 49
6.35
 74
     0
 49
-1.27
 74
     0
 49
1.27
 74
     0
 49
-1.27
 74
     0
 49
1.27
 74
     0
 49
-1.27
 74
     0
  0
LTYPE
  5
41
330
5
100
AcDbSymbolTableRecord
100
AcDbLinetypeTableRecord
  2
CENTER
 70
     0
  3
Center ____ _ ____ _ ____ _ ____ _ ____ _ ____
 72
    65
 73
     4
 40
10.16
 49
6.35
 74
     0
 49
-1.27
 74
     0
 49
1.27
 74
     0
 49
-1.27
 74
     0
  0
LTYPE
  5
42
330
5
100
AcDbSymbolTableRecord
100
AcDbLinetypeTableRecord
  2
CENTERX2
 70
     0
  3
Center (2x) ________  __  ________  __  _____
 72
    65
 73
     4
 40
20.32
 49
12.7
 74
     0
 49
-2.54
 74
     0
 49
2.54
 74
     0
 49
-2.54
 74
     0
  0
LTYPE
  5
43
330
5
100
AcDbSymbolTableRecord
100
AcDbLinetypeTableRecord
  2
DOT2
 70
     0
  3
Dot (.5x) ........................................
 72
    65
 73
     2
 40
0.635
 49
0.0
 74
     0
 49
-0.635
 74
     0
  0
ENDTAB
  0
TABLE
  2
LAYER
  5
2
330
0
100
AcDbSymbolTable
 70
     1
  0
LAYER
  5
10
330
2
100
AcDbSymbolTableRecord
100
AcDbLayerTableRecord
  2
0
 70
     0
 62
     7
  6
Continuous
370
    -3
390
F
  0
ENDTAB
  0
TABLE
  2
STYLE
  5
3
330
0
100
AcDbSymbolTable
 70
     2
  0
STYLE
  5
11
330
3
100
AcDbSymbolTableRecord
100
AcDbTextStyleTableRecord
  2
Standard
 70
     0
 40
0.0
 41
1.0
 50
0.0
 71
     0
 42
2.5
  3
txt
  4
bigfont
  0
STYLE
  5
44
330
3
100
AcDbSymbolTableRecord
100
AcDbTextStyleTableRecord
  2
SLDTEXTSTYLE0
 70
     0
 40
0.0
 41
0.7
 50
0.0
 71
     0
 42
0.2
  3
TXT
  4
bigfont
  0
ENDTAB
  0
TABLE
  2
VIEW
  5
6
330
0
100
AcDbSymbolTable
 70
     0
  0
ENDTAB
  0
TABLE
  2
UCS
  5
7
330
0
100
AcDbSymbolTable
 70
     0
  0
ENDTAB
  0
TABLE
  2
APPID
  5
9
330
0
100
AcDbSymbolTable
 70
     1
  0
APPID
  5
12
330
9
100
AcDbSymbolTableRecord
100
AcDbRegAppTableRecord
  2
ACAD
 70
     0
  0
ENDTAB
  0
TABLE
  2
DIMSTYLE
  5
A
330
0
100
AcDbSymbolTable
 70
     1
100
AcDbDimStyleTable
  0
DIMSTYLE
105
27
330
A
100
AcDbSymbolTableRecord
100
AcDbDimStyleTableRecord
  2
ISO-25
 70
     0
 41
2.5
 42
0.625
 43
3.75
 44
1.25
 73
     0
 74
     0
 77
     1
 78
     8
140
2.5
141
2.5
143
0.0393700787
147
0.625
171
     3
172
     1
178
     0
271
     2
272
     2
274
     3
278
    44
283
     0
284
     8
340
11
  0
ENDTAB
  0
TABLE
  2
BLOCK_RECORD
  5
1
330
0
100
AcDbSymbolTable
 70
     1
  0
BLOCK_RECORD
  5
1F
330
1
100
AcDbSymbolTableRecord
100
AcDbBlockTableRecord
  2
*Model_Space
340
22
  0
BLOCK_RECORD
  5
1B
330
1
100
AcDbSymbolTableRecord
100
AcDbBlockTableRecord
  2
*Paper_Space
340
1E
  0
BLOCK_RECORD
  5
23
330
1
100
AcDbSymbolTableRecord
100
AcDbBlockTableRecord
  2
*Paper_Space0
340
26
  0
ENDTAB
  0
ENDSEC
  0
SECTION
  2
BLOCKS
  0
BLOCK
  5
20
330
1F
100
AcDbEntity
  8
0
100
AcDbBlockBegin
  2
*Model_Space
 70
     0
 10
0.0
 20
0.0
 30
0.0
  3
*Model_Space
  1

  0
ENDBLK
  5
21
330
1F
100
AcDbEntity
  8
0
100
AcDbBlockEnd
  0
BLOCK
  5
1C
330
1B
100
AcDbEntity
 67
     1
  8
0
100
AcDbBlockBegin
  2
*Paper_Space
 70
     0
 10
0.0
 20
0.0
 30
0.0
  3
*Paper_Space
  1

  0
ENDBLK
  5
1D
330
1B
100
AcDbEntity
 67
     1
  8
0
100
AcDbBlockEnd
  0
BLOCK
  5
24
330
23
100
AcDbEntity
  8
0
100
AcDbBlockBegin
  2
*Paper_Space0
 70
     0
 10
0.0
 20
0.0
 30
0.0
  3
*Paper_Space0
  1

  0
ENDBLK
  5
25
330
23
100
AcDbEntity
  8
0
100
AcDbBlockEnd
  0
ENDSEC
  0
SECTION
  2
ENTITIES
  0
MTEXT
  5
45
330
1F
100
AcDbEntity
  8
0
  6
Continuous
 62
     7
370
     0
100
AcDbMText
 10
232.6249115357
 20
452.4442808942
 30
0.0
 40
7.0
 41
0.0
 71
     1
 72
     1
  1
CHB-504P
  7
SLDTEXTSTYLE0
 73
     1
 44
1.0
  0
LINE
  5
46
330
1F
100
AcDbEntity
  8
0
  6
Continuous
 62
     7
370
    15
100
AcDbLine
 10
393.3973823205
 20
189.4335452676
 30
0.0
 11
393.4973840133
 21
189.4335452676
 31
0.0
  0
LINE
  5
47
330
1F
100
AcDbEntity
  8
0
  6
Continuous
 62
     7
370
    15
100
AcDbLine
 10
393.4973840133
 20
195.4335455526
 30
0.0
 11
393.3973823205
 21
195.4335455526
 31
0.0
  0
LINE
  5
48
330
1F
100
AcDbEntity
  8
0
  6
Continuous
 62
     7
370
    15
100
AcDbLine
 10
393.3973823205
 20
199.4335457426
 30
0.0
 11
393.4973840133
 21
199.4335457426
 31
0.0
  0
LINE
  5
49
330
1F
100
AcDbEntity
  8
0
  6
Continuous
 62
     7
370
    15
100
AcDbLine
 10
393.4973840133
 20
205.4335460275
 30
0.0
 11
393.3973823205
 21
205.4335460275
 31
0.0
  0
LINE
  5
4A
330
1F
100
AcDbEntity
  8
0
  6
Continuous
 62
     7
370
    15
100
AcDbLine
 10
394.6973745242
 20
208.9335456699
 30
0.0
 11
393.4973840133
 21
208.9335456699
 31
0.0
  0
LINE
  5
4B
330
1F
100
AcDbEntity
  8
0
  6
Continuous
 62
     7
370
    15
100
AcDbLine
 10
393.4973840133
 20
185.9335456252
 30
0.0
 11
394.6973745242
 21
185.9335456252
 31
0.0
  0
LINE
  5
4C
330
1F
100
AcDbEntity
  8
0
  6
Continuous
 62
     7
370
    15
100
AcDbLine
 10
706.1973873988
 20
103.4335488662
 30
0.0
 11
706.1973873988
 21
138.4335452899
 31
0.0
  0
LINE
  5
4D
330
1F
100
AcDbEntity
  8
0
  6
Continuous
 62
     7
370
    15
100
AcDbLine
 10
706.1973873988
 20
256.4335460052
 30
0.0
 11
706.1973873988
 21
291.4335424289
 31
0.0
  0
SPLINE
  5
4E
330
1F
100
AcDbEntity
  8
0
  6
Continuous
 62
     7
370
    15
100
AcDbSpline
210
0.0
220
0.0
230
1.0
 70
     8
 71
     3
 72
    11
 73
     7
 74
     0
 42
0.00000001
 43
0.00000001
 40
0.0
 40
0.0
 40
0.0
 40
0.0
 40
0.2262212516214751
 40
0.4679441910674981
 40
0.7254890426979009
 40
1.0
 40
1.0
 40
1.0
 40
1.0
 10
391.0178903952487
 20
205.6639803782073
 30
0.0
 10
391.0207174947613
 20
205.6410814362922
 30
0.0
 10
391.026565419238
 20
205.5937144149626
 30
0.0
 10
391.0433253883874
 20
205.2689238932259
 30
0.0
 10
391.0569265933078
 20
204.7684388376773
 30
0.0
 10
391.057460588639
 20
204.3446117397965
 30
0.0
 10
391.057736100281
 20
204.1259407274392
 30
0.0
  0
SPLINE
  5
4F
330
1F
100
AcDbEntity
  8
0
  6
Continuous
 62
     7
370
    15
100
AcDbSpline
210
0.0
220
0.0
230
1.0
 70
     8
 71
     3
 72
    12
 73
     8
 74
     0
 42
0.00000001
 43
0.00000001
 40
0.0
 40
0.0
 40
0.0
 40
0.0
 40
0.2489445739028115
 40
0.4822862098310756
 40
0.6998114639483098
 40
0.9035368778110593
 40
1.0
 40
1.0
 40
1.0
 40
1.0
 10
391.057736100281
 20
190.5673098958996
 30
0.0
 10
391.0563102537636
 20
190.4299763770061
 30
0.0
 10
391.0535479275882
 20
190.1639169033189
 30
0.0
 10
391.0426467037425
 20
189.8281013506719
 30
0.0
 10
391.0401365493825
 20
189.5949352925057
 30
0.0
 10
391.0449256916759
 20
189.4748261902449
 30
0.0
 10
391.07135619741
 20
189.4734799256566
 30
0.0
 10
391.0798494234927
 20
189.473047314581
 30
0.0
  0
LINE
  5
50
330
1F
100
AcDbEntity
  8
0
  6
Continuous
 62
     7
370
    15
100
AcDbLine
 10
391.0568867341
 20
204.1759406425
 30
0.0
 11
391.0568867341
 21
190.5173099808
 31
0.0
  0
LINE
  5
51
330
1F
100
AcDbEntity
  8
0
  6
Continuous
 62
     7
370
    15
100
AcDbLine
 10
389.5332728043
 20
208.1138290673
 30
0.0
 11
391.0206322089
 21
205.6336816609
 31
0.0
  0
LINE
  5
52
330
1F
100
AcDbEntity
  8
0
  6
Continuous
 62
     7
370
    15
100
AcDbLine
 10
393.4973840133
 20
207.3367912531
 30
0.0
 11
392.1060923949
 21
209.656754902
 31
0.0
  0
LINE
  5
53
330
1F
100
AcDbEntity
  8
0
  6
Continuous
 62
     7
370
    15
100
AcDbLine
 10
391.0851244346
 20
189.3409615591
 30
0.0
 11
389.516047062
 21
186.7245430335
 31
0.0
  0
LINE
  5
54
330
1F
100
AcDbEntity
  8
0
  6
Continuous
 62
     7
370
    15
100
AcDbLine
 10
392.0888666526
 20
185.1816171989
 30
0.0
 11
393.4973840133
 21
187.530300042
 31
0.0
  0
LINE
  5
55
330
1F
100
AcDbEntity
  8
0
  6
Continuous
 62
     7
370
    15
100
AcDbLine
 10
392.1259854451
 20
209.6212463662
 30
0.0
 11
392.036027135
 21
209.7350334957
 31
0.0
  0
SPLINE
  5
56
330
1F
100
AcDbEntity
  8
0
  6
Continuous
 62
     7
370
    15
100
AcDbSpline
210
0.0
220
0.0
230
1.0
 70
     8
 71
     3
 72
    20
 73
    16
 74
     0
 42
0.00000001
 43
0.00000001
 40
0.0
 40
0.0
 40
0.0
 40
0.0
 40
0.0337795050543948
 40
0.1101051841529493
 40
0.1739290285231793
 40
0.2252746548070327
 40
0.2665370945345786
 40
0.3037733232441076
 40
0.3388589253082213
 40
0.3726389058879608
 40
0.4139176362643257
 40
0.6259827951436343
 40
0.8390272748670135
 40
0.9659462426554039
 40
0.9999999999999999
 40
0.9999999999999999
 40
0.9999999999999999
 40
0.9999999999999999
 10
391.9237170830615
 20
209.8771030291882
 30
0.0
 10
391.8830619292959
 20
209.9332885225913
 30
0.0
 10
391.7505453875372
 20
210.1164266143988
 30
0.0
 10
391.440669364023
 20
210.2936030452185
 30
0.0
 10
391.0534025113507
 20
210.4165593926544
 30
0.0
 10
390.6835516903815
 20
210.4313474373361
 30
0.0
 10
390.3492357551712
 20
210.3807592141835
 30
0.0
 10
390.0747594883279
 20
210.2797041676177
 30
0.0
 10
389.8472452006093
 20
210.1449994247922
 30
0.0
 10
389.6412293072293
 20
209.968809813923
 30
0.0
 10
389.2966600839849
 20
209.526332182583
 30
0.0
 10
389.1156122017888
 20
208.8396483620919
 30
0.0
 10
388.9657975635931
 20
207.6588170222001
 30
0.0
 10
388.9106798341967
 20
206.7541735616097
 30
0.0
 10
388.9041182670361
 20
206.3395856338432
 30
0.0
 10
388.9027301684268
 20
206.2518796160784
 30
0.0
  0
SPLINE
  5
57
330
1F
100
AcDbEntity
  8
0
  6
Continuous
 62
     7
370
    15
100
AcDbSpline
210
0.0
220
0.0
230
1.0
 70
     8
 71
     3
 72
    19
 73
    15
 74
     0
 42
0.00000001
 43
0.00000001
 40
0.0
 40
0.0
 40
0.0
 40
0.0
 40
0.0102737053477949
 40
0.1295968921188889
 40
0.3268122850643485
 40
0.5525085230171803
 40
0.5858532753149814
 40
0.6186007963878319
 40
0.6529066586472678
 40
0.6960060375611246
 40
0.7523135488775782
 40
0.822314170160229
 40
0.9054608819237085
 40
1.0
 40
1.0
 40
1.0
 40
1.0
 10
388.8998840466388
 20
188.633545695242
 30
0.0
 10
388.9002072292744
 20
188.6063467252919
 30
0.0
 10
388.9042839925989
 20
188.2632473414731
 30
0.0
 10
388.9440714898622
 20
187.4432578492365
 30
0.0
 10
389.0790676730065
 20
186.2208242828263
 30
0.0
 10
389.1694484098952
 20
185.5774695036853
 30
0.0
 10
389.5203476257599
 20
185.0373659186678
 30
0.0
 10
389.6895679276635
 20
184.8495194351567
 30
0.0
 10
389.9262863470337
 20
184.6730474755919
 30
0.0
 10
390.2399078125775
 20
184.5195623355804
 30
0.0
 10
390.6434010475521
 20
184.4177829560855
 30
0.0
 10
391.1292542543732
 20
184.440943598153
 30
0.0
 10
391.6590215162947
 20
184.6512672093493
 30
0.0
 10
391.924240703373
 20
184.9730865875144
 30
0.0
 10
392.065352620209
 20
185.144313073155
 30
0.0
  0
LINE
  5
58
330
1F
100
AcDbEntity
  8
0
  6
Continuous
 62
     7
370
    15
100
AcDbLine
 10
385.5925713197
 20
201.3335455418
 30
0.0
 11
385.5925713197
 21
192.7335457154
 31
0.0
  0
LINE
  5
59
330
1F
100
AcDbEntity
  8
0
  6
Continuous
 62
     7
370
    15
100
AcDbLine
 10
386.1973796502
 20
205.4332917765
 30
0.0
 11
386.1973796502
 21
204.6335455239
 31
0.0
  0
LINE
  5
5A
330
1F
100
AcDbEntity
  8
0
  6
Continuous
 62
     7
370
    15
100
AcDbLine
 10
386.1973796502
 20
190.2335457712
 30
0.0
 11
386.1973796502
 21
189.4337995186
 31
0.0
  0
ARC
  5
5B
330
1F
100
AcDbEntity
  8
0
  6
Continuous
 62
     7
370
    15
100
AcDbCircle
 10
389.7973804847
 20
202.6264027905
 30
0.0
 40
3.807142857143215
100
AcDbArc
 50
77.9663271603
 51
90.0
  0
ARC
  5
5C
330
1F
100
AcDbEntity
  8
0
  6
Continuous
 62
     7
370
    15
100
AcDbCircle
 10
389.7973804847
 20
202.6264027905
 30
0.0
 40
3.807142857143191
100
AcDbArc
 50
90.0
 51
125.3002484399
  0
LINE
  5
5D
330
1F
100
AcDbEntity
  8
0
  6
Continuous
 62
     7
370
    15
100
AcDbLine
 10
387.5973735467
 20
205.7335455179
 30
0.0
 11
387.5973735467
 21
205.4335460275
 31
0.0
  0
LINE
  5
5E
330
1F
100
AcDbEntity
  8
0
  6
Continuous
 62
     7
370
    15
100
AcDbLine
 10
387.6973752395
 20
189.0335459471
 30
0.0
 11
387.6973752395
 21
188.6335456952
 31
0.0
  0
ARC
  5
5F
330
1F
100
AcDbEntity
  8
0
  6
Continuous
 62
     7
370
    15
100
AcDbCircle
 10
387.8973804847
 20
189.4335456476
 30
0.0
 40
0.4000000000007731
100
AcDbArc
 50
270.0
 51
0.0
  0
LINE
  5
60
330
1F
100
AcDbEntity
  8
0
  6
Continuous
 62
     7
370
    15
100
AcDbLine
 10
388.2973853961
 20
204.6335455239
 30
0.0
 11
388.2973853961
 21
204.1835458226
 31
0.0
  0
LINE
  5
61
330
1F
100
AcDbEntity
  8
0
  6
Continuous
 62
     7
370
    15
100
AcDbLine
 10
388.2973853961
 20
190.6835454725
 30
0.0
 11
388.2973853961
 21
190.2335457712
 31
0.0
  0
LINE
  5
62
330
1F
100
AcDbEntity
  8
0
  6
Continuous
 62
     7
370
    15
100
AcDbLine
 10
706.1973873988
 20
67.4335504159
 30
0.0
 11
706.1973873988
 21
102.4335468397
 31
0.0
  0
LINE
  5
63
330
1F
100
AcDbEntity
  8
0
  6
Continuous
 62
     7
370
    15
100
AcDbLine
 10
706.1973873988
 20
292.4335444555
 30
0.0
 11
706.1973873988
 21
327.4335408792
 31
0.0
  0
LINE
  5
64
330
1F
100
AcDbEntity
  8
0
  6
Continuous
 62
     7
370
    15
100
AcDbLine
 10
703.1973813191
 20
102.4335468397
 30
0.0
 11
703.1973813191
 21
103.4335488662
 31
0.0
  0
LINE
  5
65
330
1F
100
AcDbEntity
  8
0
  6
Continuous
 62
     7
370
    15
100
AcDbLine
 10
703.1973813191
 20
138.4335452899
 30
0.0
 11
703.1973813191
 21
139.4335473165
 31
0.0
  0
LINE
  5
66
330
1F
100
AcDbEntity
  8
0
  6
Continuous
 62
     7
370
    15
100
AcDbLine
 10
698.1973860875
 20
139.4335473165
 30
0.0
 11
698.1973860875
 21
138.4335452899
 31
0.0
  0
LINE
  5
67
330
1F
100
AcDbEntity
  8
0
  6
Continuous
 62
     7
370
    15
100
AcDbLine
 10
698.1973860875
 20
103.4335488662
 30
0.0
 11
698.1973860875
 21
102.4335468397
 31
0.0
  0
LINE
  5
68
330
1F
100
AcDbEntity
  8
0
  6
Continuous
 62
     7
370
    15
100
AcDbLine
 10
698.1973860875
 20
292.4335444555
 30
0.0
 11
698.1973860875
 21
291.4335424289
 31
0.0
  0
LINE
  5
69
330
1F
100
AcDbEntity
  8
0
  6
Continuous
 62
     7
370
    15
100
AcDbLine
 10
698.1973860875
 20
256.4335460052
 30
0.0
 11
698.1973860875
 21
255.4335439786
 31
0.0
  0
LINE
  5
6A
330
1F
100
AcDbEntity
  8
0
  6
Continuous
 62
     7
370
    15
100
AcDbLine
 10
703.1973813191
 20
255.4335439786
 30
0.0
 11
703.1973813191
 21
256.4335460052
 31
0.0
  0
LINE
  5
6B
330
1F
100
AcDbEntity
  8
0
  6
Continuous
 62
     7
370
    15
100
AcDbLine
 10
703.1973813191
 20
291.4335424289
 30
0.0
 11
703.1973813191
 21
292.4335444555
 31
0.0
  0
LINE
  5
6C
330
1F
100
AcDbEntity
  8
0
  6
Continuous
 62
     7
370
    15
100
AcDbLine
 10
386.3973830357
 20
204.1835458226
 30
0.0
 11
386.3973830357
 21
203.8907347456
 31
0.0
  0
LINE
  5
6D
330
1F
100
AcDbEntity
  8
0
  6
Continuous
 62
     7
370
    15
100
AcDbLine
 10
386.3973830357
 20
190.9763565496
 30
0.0
 11
386.3973830357
 21
190.6835454725
 31
0.0
  0
LINE
  5
6E
330
1F
100
AcDbEntity
  8
0
  6
Continuous
 62
     7
370
    15
100
AcDbLine
 10
679.6973858491
 20
62.4335402831
 30
0.0
 11
679.6973858491
 21
47.4335396871
 31
0.0
  0
LINE
  5
6F
330
1F
100
AcDbEntity
  8
0
  6
Continuous
 62
     7
370
    15
100
AcDbLine
 10
679.6973858491
 20
62.4335402831
 30
0.0
 11
694.6973864451
 21
62.4335402831
 31
0.0
  0
ARC
  5
70
330
1F
100
AcDbEntity
  8
0
  6
Continuous
 62
     7
370
    15
100
AcDbCircle
 10
679.6973804847
 20
62.4335456476
 30
0.0
 40
15.0
100
AcDbArc
 50
270.0
 51
0.0
  0
LINE
  5
71
330
1F
100
AcDbEntity
  8
0
  6
Continuous
 62
     7
370
    15
100
AcDbLine
 10
409.6973751202
 20
47.4335396871
 30
0.0
 11
679.6973858491
 21
47.4335396871
 31
0.0
  0
LINE
  5
72
330
1F
100
AcDbEntity
  8
0
  6
Continuous
 62
     7
370
    15
100
AcDbLine
 10
409.6973751202
 20
47.4335396871
 30
0.0
 11
409.6973751202
 21
62.4335402831
 31
0.0
  0
LINE
  5
73
330
1F
100
AcDbEntity
  8
0
  6
Continuous
 62
     7
370
    15
100
AcDbLine
 10
409.6973751202
 20
62.4335402831
 30
0.0
 11
679.6973858491
 21
62.4335402831
 31
0.0
  0
LINE
  5
74
330
1F
100
AcDbEntity
  8
0
  6
Continuous
 62
     7
370
    15
100
AcDbLine
 10
679.6973858491
 20
62.4335402831
 30
0.0
 11
679.6973858491
 21
332.433551012
 31
0.0
  0
LINE
  5
75
330
1F
100
AcDbEntity
  8
0
  6
Continuous
 62
     7
370
    15
100
AcDbLine
 10
694.6973864451
 20
332.433551012
 30
0.0
 11
679.6973858491
 21
332.433551012
 31
0.0
  0
LINE
  5
76
330
1F
100
AcDbEntity
  8
0
  6
Continuous
 62
     7
370
    15
100
AcDbLine
 10
694.6973864451
 20
62.4335402831
 30
0.0
 11
694.6973864451
 21
332.433551012
 31
0.0
  0
LINE
  5
77
330
1F
100
AcDbEntity
  8
0
  6
Continuous
 62
     7
370
    15
100
AcDbLine
 10
414.697385253
 20
327.4335408792
 30
0.0
 11
674.6973757163
 21
327.4335408792
 31
0.0
  0
LINE
  5
78
330
1F
100
AcDbEntity
  8
0
  6
Continuous
 62
     7
370
    15
100
AcDbLine
 10
414.697385253
 20
67.4335504159
 30
0.0
 11
414.697385253
 21
327.4335408792
 31
0.0
  0
LINE
  5
79
330
1F
100
AcDbEntity
  8
0
  6
Continuous
 62
     7
370
    15
100
AcDbLine
 10
674.6973757163
 20
67.4335504159
 30
0.0
 11
414.697385253
 21
67.4335504159
 31
0.0
  0
LINE
  5
7A
330
1F
100
AcDbEntity
  8
0
  6
Continuous
 62
     7
370
    15
100
AcDbLine
 10
674.6973757163
 20
67.4335504159
 30
0.0
 11
674.6973757163
 21
327.4335408792
 31
0.0
  0
LINE
  5
7B
330
1F
100
AcDbEntity
  8
0
  6
Continuous
 62
     7
370
    15
100
AcDbLine
 10
409.6973751202
 20
62.4335402831
 30
0.0
 11
409.6973751202
 21
332.433551012
 31
0.0
  0
LINE
  5
7C
330
1F
100
AcDbEntity
  8
0
  6
Continuous
 62
     7
370
    15
100
AcDbLine
 10
409.6973751202
 20
332.433551012
 30
0.0
 11
679.6973858491
 21
332.433551012
 31
0.0
  0
ARC
  5
7D
330
1F
100
AcDbEntity
  8
0
  6
Continuous
 62
     7
370
    15
100
AcDbCircle
 10
409.6973804847
 20
62.4335456476
 30
0.0
 40
14.99999999999999
100
AcDbArc
 50
180.0
 51
270.0
  0
LINE
  5
7E
330
1F
100
AcDbEntity
  8
0
  6
Continuous
 62
     7
370
    15
100
AcDbLine
 10
394.6973745242
 20
62.4335402831
 30
0.0
 11
409.6973751202
 21
62.4335402831
 31
0.0
  0
LINE
  5
7F
330
1F
100
AcDbEntity
  8
0
  6
Continuous
 62
     7
370
    15
100
AcDbLine
 10
394.6973745242
 20
187.4460535333
 30
0.0
 11
394.6973745242
 21
62.4335402831
 31
0.0
  0
LINE
  5
80
330
1F
100
AcDbEntity
  8
0
  6
Continuous
 62
     7
370
    15
100
AcDbLine
 10
394.6973745242
 20
207.4210377619
 30
0.0
 11
394.6973745242
 21
332.433551012
 31
0.0
  0
LINE
  5
81
330
1F
100
AcDbEntity
  8
0
  6
Continuous
 62
     7
370
    15
100
AcDbLine
 10
394.6973745242
 20
332.433551012
 30
0.0
 11
409.6973751202
 21
332.433551012
 31
0.0
  0
ARC
  5
82
330
1F
100
AcDbEntity
  8
0
  6
Continuous
 62
     7
370
    15
100
AcDbCircle
 10
679.6973804847
 20
332.4335456476
 30
0.0
 40
14.99999999999994
100
AcDbArc
 50
0.0
 51
90.0
  0
LINE
  5
83
330
1F
100
AcDbEntity
  8
0
  6
Continuous
 62
     7
370
    15
100
AcDbLine
 10
679.6973858491
 20
347.433551608
 30
0.0
 11
679.6973858491
 21
332.433551012
 31
0.0
  0
LINE
  5
84
330
1F
100
AcDbEntity
  8
0
  6
Continuous
 62
     7
370
    15
100
AcDbLine
 10
409.6973751202
 20
332.433551012
 30
0.0
 11
409.6973751202
 21
347.433551608
 31
0.0
  0
LINE
  5
85
330
1F
100
AcDbEntity
  8
0
  6
Continuous
 62
     7
370
    15
100
AcDbLine
 10
409.6973751202
 20
347.433551608
 30
0.0
 11
679.6973858491
 21
347.433551608
 31
0.0
  0
ARC
  5
86
330
1F
100
AcDbEntity
  8
0
  6
Continuous
 62
     7
370
    15
100
AcDbCircle
 10
409.6973804847
 20
332.4335456476
 30
0.0
 40
15.0
100
AcDbArc
 50
90.0
 51
180.0
  0
LINE
  5
87
330
1F
100
AcDbEntity
  8
0
  6
Continuous
 62
     7
370
    15
100
AcDbLine
 10
393.4973840133
 20
208.4680287376
 30
0.0
 11
394.6973745242
 21
208.4680287376
 31
0.0
  0
LINE
  5
88
330
1F
100
AcDbEntity
  8
0
  6
Continuous
 62
     7
370
    15
100
AcDbLine
 10
393.4973840133
 20
186.3990625575
 30
0.0
 11
394.6973745242
 21
186.3990625575
 31
0.0
  0
LINE
  5
89
330
1F
100
AcDbEntity
  8
0
  6
Continuous
 62
     7
370
    15
100
AcDbLine
 10
393.4973840133
 20
186.3990625575
 30
0.0
 11
393.4973840133
 21
208.4680287376
 31
0.0
  0
LINE
  5
8A
330
1F
100
AcDbEntity
  8
0
  6
Continuous
 62
     7
370
    15
100
AcDbLine
 10
394.6973745242
 20
207.4210377619
 30
0.0
 11
394.6973745242
 21
187.4460535333
 31
0.0
  0
LINE
  5
8B
330
1F
100
AcDbEntity
  8
0
  6
Continuous
 62
     7
370
    15
100
AcDbLine
 10
393.3973823205
 20
189.4335452676
 30
0.0
 11
393.3973823205
 21
195.4335455526
 31
0.0
  0
LINE
  5
8C
330
1F
100
AcDbEntity
  8
0
  6
Continuous
 62
     7
370
    15
100
AcDbLine
 10
393.3973823205
 20
202.4335455358
 30
0.0
 11
393.3973823205
 21
205.4335460275
 31
0.0
  0
LINE
  5
8D
330
1F
100
AcDbEntity
  8
0
  6
Continuous
 62
     7
370
    15
100
AcDbLine
 10
393.3973823205
 20
199.4335457426
 30
0.0
 11
393.3973823205
 21
202.4335455358
 31
0.0
  0
LINE
  5
8E
330
1F
100
AcDbEntity
  8
0
  6
Continuous
 62
     7
370
    15
100
AcDbLine
 10
393.4973840133
 20
208.4680287376
 30
0.0
 11
393.4973840133
 21
208.9335456699
 31
0.0
  0
LINE
  5
8F
330
1F
100
AcDbEntity
  8
0
  6
Continuous
 62
     7
370
    15
100
AcDbLine
 10
393.4973840133
 20
185.9335456252
 30
0.0
 11
393.4973840133
 21
186.3990625575
 31
0.0
  0
LINE
  5
90
330
1F
100
AcDbEntity
  8
0
  6
Continuous
 62
     7
370
    15
100
AcDbLine
 10
695.5987427846
 20
138.4335452899
 30
0.0
 11
695.5987427846
 21
103.4335488662
 31
0.0
  0
LINE
  5
91
330
1F
100
AcDbEntity
  8
0
  6
Continuous
 62
     7
370
    15
100
AcDbLine
 10
695.5987427846
 20
138.4335452899
 30
0.0
 11
706.1973873988
 21
138.4335452899
 31
0.0
  0
LINE
  5
92
330
1F
100
AcDbEntity
  8
0
  6
Continuous
 62
     7
370
    15
100
AcDbLine
 10
695.5987427846
 20
103.4335488662
 30
0.0
 11
706.1973873988
 21
103.4335488662
 31
0.0
  0
LINE
  5
93
330
1F
100
AcDbEntity
  8
0
  6
Continuous
 62
     7
370
    15
100
AcDbLine
 10
695.5987427846
 20
256.4335460052
 30
0.0
 11
706.1973873988
 21
256.4335460052
 31
0.0
  0
LINE
  5
94
330
1F
100
AcDbEntity
  8
0
  6
Continuous
 62
     7
370
    15
100
AcDbLine
 10
695.5987427846
 20
291.4335424289
 30
0.0
 11
695.5987427846
 21
256.4335460052
 31
0.0
  0
LINE
  5
95
330
1F
100
AcDbEntity
  8
0
  6
Continuous
 62
     7
370
    15
100
AcDbLine
 10
695.5987427846
 20
291.4335424289
 30
0.0
 11
706.1973873988
 21
291.4335424289
 31
0.0
  0
LINE
  5
96
330
1F
100
AcDbEntity
  8
0
  6
Continuous
 62
     7
370
    15
100
AcDbLine
 10
695.1352272645
 20
138.4335452899
 30
0.0
 11
695.1352272645
 21
103.4335488662
 31
0.0
  0
LINE
  5
97
330
1F
100
AcDbEntity
  8
0
  6
Continuous
 62
     7
370
    15
100
AcDbLine
 10
695.1352272645
 20
138.4335452899
 30
0.0
 11
695.5987427846
 21
138.4335452899
 31
0.0
  0
LINE
  5
98
330
1F
100
AcDbEntity
  8
0
  6
Continuous
 62
     7
370
    15
100
AcDbLine
 10
695.1352272645
 20
103.4335488662
 30
0.0
 11
695.5987427846
 21
103.4335488662
 31
0.0
  0
LINE
  5
99
330
1F
100
AcDbEntity
  8
0
  6
Continuous
 62
     7
370
    15
100
AcDbLine
 10
695.1352272645
 20
291.4335424289
 30
0.0
 11
695.1352272645
 21
256.4335460052
 31
0.0
  0
LINE
  5
9A
330
1F
100
AcDbEntity
  8
0
  6
Continuous
 62
     7
370
    15
100
AcDbLine
 10
695.1352272645
 20
291.4335424289
 30
0.0
 11
695.5987427846
 21
291.4335424289
 31
0.0
  0
LINE
  5
9B
330
1F
100
AcDbEntity
  8
0
  6
Continuous
 62
     7
370
    15
100
AcDbLine
 10
695.1352272645
 20
256.4335460052
 30
0.0
 11
695.5987427846
 21
256.4335460052
 31
0.0
  0
LINE
  5
9C
330
1F
100
AcDbEntity
  8
0
  6
Continuous
 62
     7
370
    15
100
AcDbLine
 10
694.6973864451
 20
138.4335452899
 30
0.0
 11
695.1352272645
 21
138.4335452899
 31
0.0
  0
LINE
  5
9D
330
1F
100
AcDbEntity
  8
0
  6
Continuous
 62
     7
370
    15
100
AcDbLine
 10
694.6973864451
 20
103.4335488662
 30
0.0
 11
695.1352272645
 21
103.4335488662
 31
0.0
  0
LINE
  5
9E
330
1F
100
AcDbEntity
  8
0
  6
Continuous
 62
     7
370
    15
100
AcDbLine
 10
694.6973864451
 20
291.4335424289
 30
0.0
 11
695.1352272645
 21
291.4335424289
 31
0.0
  0
LINE
  5
9F
330
1F
100
AcDbEntity
  8
0
  6
Continuous
 62
     7
370
    15
100
AcDbLine
 10
694.6973864451
 20
256.4335460052
 30
0.0
 11
695.1352272645
 21
256.4335460052
 31
0.0
  0
ARC
  5
A0
330
1F
100
AcDbEntity
  8
0
  6
Continuous
 62
     7
370
    15
100
AcDbCircle
 10
387.5200421743
 20
202.8447377478
 30
0.0
 40
1.097787277143268
100
AcDbArc
 50
97.3332226099
 51
185.8133219334
  0
LINE
  5
A1
330
1F
100
AcDbEntity
  8
0
  6
Continuous
 62
     7
370
    15
100
AcDbLine
 10
387.3799209014
 20
203.9335457817
 30
0.0
 11
390.9233574286
 21
203.9335457817
 31
0.0
  0
LINE
  5
A2
330
1F
100
AcDbEntity
  8
0
  6
Continuous
 62
     7
370
    15
100
AcDbLine
 10
390.9233574286
 20
203.9335457817
 30
0.0
 11
390.9233574286
 21
190.9335455134
 31
0.0
  0
LINE
  5
A3
330
1F
100
AcDbEntity
  8
0
  6
Continuous
 62
     7
370
    15
100
AcDbLine
 10
390.9233574286
 20
190.9335455134
 30
0.0
 11
387.3799209014
 21
190.9335455134
 31
0.0
  0
ARC
  5
A4
330
1F
100
AcDbEntity
  8
0
  6
Continuous
 62
     7
370
    15
100
AcDbCircle
 10
387.5200421743
 20
192.0223535474
 30
0.0
 40
1.097787277143268
100
AcDbArc
 50
174.1866780666
 51
262.6667773901
  0
LINE
  5
A5
330
1F
100
AcDbEntity
  8
0
  6
Continuous
 62
     7
370
    15
100
AcDbLine
 10
386.4279006139
 20
202.7335454918
 30
0.0
 11
386.4279006139
 21
192.1335458033
 31
0.0
  0
LINE
  5
A6
330
1F
100
AcDbEntity
  8
0
  6
Continuous
 62
     7
370
    15
100
AcDbLine
 10
387.3799209014
 20
190.9335455134
 30
0.0
 11
386.649406375
 21
190.9335455134
 31
0.0
  0
ARC
  5
A7
330
1F
100
AcDbEntity
  8
0
  6
Continuous
 62
     7
370
    15
100
AcDbCircle
 10
386.7895349425
 20
192.0223593345
 30
0.0
 40
1.097793948007137
100
AcDbArc
 50
174.1870171141
 51
262.6664383425
  0
LINE
  5
A8
330
1F
100
AcDbEntity
  8
0
  6
Continuous
 62
     7
370
    15
100
AcDbLine
 10
385.6973860875
 20
192.1335458033
 30
0.0
 11
386.4279006139
 21
192.1335458033
 31
0.0
  0
LINE
  5
A9
330
1F
100
AcDbEntity
  8
0
  6
Continuous
 62
     7
370
    15
100
AcDbLine
 10
386.4279006139
 20
202.7335454918
 30
0.0
 11
385.6973860875
 21
202.7335454918
 31
0.0
  0
LINE
  5
AA
330
1F
100
AcDbEntity
  8
0
  6
Continuous
 62
     7
370
    15
100
AcDbLine
 10
385.6973860875
 20
202.7335454918
 30
0.0
 11
385.6973860875
 21
192.1335458033
 31
0.0
  0
LINE
  5
AB
330
1F
100
AcDbEntity
  8
0
  6
Continuous
 62
     7
370
    15
100
AcDbLine
 10
386.649406375
 20
203.9335457817
 30
0.0
 11
387.3799209014
 21
203.9335457817
 31
0.0
  0
ARC
  5
AC
330
1F
100
AcDbEntity
  8
0
  6
Continuous
 62
     7
370
    15
100
AcDbCircle
 10
386.7895349425
 20
202.8447319606
 30
0.0
 40
1.097793948007137
100
AcDbArc
 50
97.3335616575
 51
185.8129828859
  0
LINE
  5
AD
330
1F
100
AcDbEntity
  8
0
  6
Continuous
 62
     7
370
    15
100
AcDbLine
 10
391.0233144179
 20
203.9335457817
 30
0.0
 11
390.9233574286
 21
203.9335457817
 31
0.0
  0
LINE
  5
AE
330
1F
100
AcDbEntity
  8
0
  6
Continuous
 62
     7
370
    15
100
AcDbLine
 10
390.9233574286
 20
190.9335455134
 30
0.0
 11
391.0568867341
 21
190.9335455134
 31
0.0
  0
SPLINE
  5
AF
330
1F
100
AcDbEntity
  8
0
  6
Continuous
 62
     7
370
    15
100
AcDbSpline
210
0.0
220
0.0
230
1.0
 70
    24
 71
     3
 72
    12
 73
     8
 74
     0
 42
0.00000001
 43
0.00000001
 40
0.0
 40
0.0
 40
0.0
 40
0.0
 40
0.2185045281652869
 40
0.4370083809750159
 40
0.655518221401872
 40
0.8740244204541278
 40
1.0
 40
1.0
 40
1.0
 40
1.0
 10
392.8567234888919
 20
204.1259407274392
 30
0.0
 10
392.6600040703921
 20
204.1259407274392
 30
0.0
 10
392.2665658414146
 20
204.1259407274392
 30
0.0
 10
391.7058050645512
 20
204.1259407274392
 30
0.0
 10
391.2881410833662
 20
204.1259407274392
 30
0.0
 10
391.0615740350435
 20
204.1259407274392
 30
0.0
 10
391.0791019703794
 20
204.1259407274392
 30
0.0
 10
391.0855118647464
 20
204.1259407274392
 30
0.0
  0
SPLINE
  5
B0
330
1F
100
AcDbEntity
  8
0
  6
Continuous
 62
     7
370
    15
100
AcDbSpline
210
0.0
220
0.0
230
1.0
 70
    24
 71
     3
 72
     9
 73
     5
 74
     0
 42
0.00000001
 43
0.00000001
 40
0.0
 40
0.0
 40
0.0
 40
0.0
 40
0.0025141086251864
 40
1.0
 40
1.0
 40
1.0
 40
1.0
 10
393.3973823204882
 20
204.1259407274392
 30
0.0
 10
393.3970347595519
 20
204.1259407274392
 30
0.0
 10
393.2587905592494
 20
204.1259407274394
 30
0.0
 10
393.0575039959281
 20
204.1259407274393
 30
0.0
 10
392.8567234888919
 20
204.1259407274392
 30
0.0
  0
SPLINE
  5
B1
330
1F
100
AcDbEntity
  8
0
  6
Continuous
 62
     7
370
    15
100
AcDbSpline
210
0.0
220
0.0
230
1.0
 70
     8
 71
     3
 72
    13
 73
     9
 74
     0
 42
0.00000001
 43
0.00000001
 40
0.0
 40
0.0
 40
0.0
 40
0.0
 40
0.1877343531938777
 40
0.3754727167530941
 40
0.5632110648104007
 40
0.7509477880705518
 40
0.9386848209004788
 40
0.9999999999999999
 40
0.9999999999999999
 40
0.9999999999999999
 40
0.9999999999999999
 10
392.5634388342746
 20
207.7407794281808
 30
0.0
 10
392.3667472470866
 20
207.7380791321415
 30
0.0
 10
391.9733598710013
 20
207.7326784823794
 30
0.0
 10
391.4403418645982
 20
207.4421464809979
 30
0.0
 10
391.0498146870438
 20
206.9872429159441
 30
0.0
 10
390.8768736455113
 20
206.4255620237394
 30
0.0
 10
390.8801438406271
 20
205.9523645419821
 30
0.0
 10
391.0074776879002
 20
205.7309332607819
 30
0.0
 10
391.038826526726
 20
205.6764181911913
 30
0.0
  0
SPLINE
  5
B2
330
1F
100
AcDbEntity
  8
0
  6
Continuous
 62
     7
370
    15
100
AcDbSpline
210
0.0
220
0.0
230
1.0
 70
     8
 71
     3
 72
    10
 73
     6
 74
     0
 42
0.00000001
 43
0.00000001
 40
0.0
 40
0.0
 40
0.0
 40
0.0
 40
0.2093428725105197
 40
0.6046699278794417
 40
0.9999999999999999
 40
0.9999999999999999
 40
0.9999999999999999
 40
0.9999999999999999
 10
393.700620950783
 20
206.9346647918192
 30
0.0
 10
393.6589129172476
 20
207.0277282475633
 30
0.0
 10
393.5384426412485
 20
207.2965345001868
 30
0.0
 10
393.1317464856189
 20
207.6131971730667
 30
0.0
 10
392.7528751999171
 20
207.698251901634
 30
0.0
 10
392.5634388342746
 20
207.7407794281808
 30
0.0
  0
SPLINE
  5
B3
330
1F
100
AcDbEntity
  8
0
  6
Continuous
 62
     7
370
    15
100
AcDbSpline
210
0.0
220
0.0
230
1.0
 70
     8
 71
     3
 72
    13
 73
     9
 74
     0
 42
0.00000001
 43
0.00000001
 40
0.0
 40
0.0
 40
0.0
 40
0.0
 40
0.1768614158016835
 40
0.3537267399476782
 40
0.5305919192438419
 40
0.7074547270595563
 40
0.8843194473083311
 40
1.0
 40
1.0
 40
1.0
 40
1.0
 10
392.5462130919345
 20
187.0975926727024
 30
0.0
 10
392.3495459653934
 20
187.1002834203741
 30
0.0
 10
391.9562073662934
 20
187.1056649751785
 30
0.0
 10
391.4228223301866
 20
187.3963403813557
 30
0.0
 10
391.0336921468889
 20
187.8507030841969
 30
0.0
 10
390.855531619769
 20
188.4144012568457
 30
0.0
 10
390.8764930324933
 20
188.9475481581266
 30
0.0
 10
391.0425875410028
 20
189.2208194833389
 30
0.0
 10
391.1082659378894
 20
189.3288785800305
 30
0.0
  0
SPLINE
  5
B4
330
1F
100
AcDbEntity
  8
0
  6
Continuous
 62
     7
370
    15
100
AcDbSpline
210
0.0
220
0.0
230
1.0
 70
     8
 71
     3
 72
    10
 73
     6
 74
     0
 42
0.00000001
 43
0.00000001
 40
0.0
 40
0.0
 40
0.0
 40
0.0
 40
0.0588212984257692
 40
0.5294125327652901
 40
1.0
 40
1.0
 40
1.0
 40
1.0
 10
393.5763303652652
 20
187.6975022464958
 30
0.0
 10
393.5656958371252
 20
187.6760219105846
 30
0.0
 10
393.4699813148692
 20
187.4826912745094
 30
0.0
 10
393.1090935629211
 20
187.2285225778253
 30
0.0
 10
392.7338394149401
 20
187.1412358579539
 30
0.0
 10
392.5462130919344
 20
187.0975926727024
 30
0.0
  0
SPLINE
  5
B5
330
1F
100
AcDbEntity
  8
0
  6
Continuous
 62
     7
370
    15
100
AcDbSpline
210
0.0
220
0.0
230
1.0
 70
    24
 71
     3
 72
    12
 73
     8
 74
     0
 42
0.00000001
 43
0.00000001
 40
0.0
 40
0.0
 40
0.0
 40
0.0
 40
0.2193538838170249
 40
0.4387070896532966
 40
0.6580663063813456
 40
0.8774218675802953
 40
1.0
 40
1.0
 40
1.0
 40
1.0
 10
392.8567234888919
 20
190.5673098958996
 30
0.0
 10
392.6600087541919
 20
190.5673098958996
 30
0.0
 10
392.2665798927996
 20
190.5673098958996
 30
0.0
 10
391.7057488585721
 20
190.5673098958996
 30
0.0
 10
391.2883518607762
 20
190.5673098958996
 30
0.0
 10
391.0624921239306
 20
190.5673098958996
 30
0.0
 10
391.0794811549891
 20
190.5673098958996
 30
0.0
 10
391.0855714693911
 20
190.5673098958996
 30
0.0
  0
SPLINE
  5
B6
330
1F
100
AcDbEntity
  8
0
  6
Continuous
 62
     7
370
    15
100
AcDbSpline
210
0.0
220
0.0
230
1.0
 70
    24
 71
     3
 72
     9
 73
     5
 74
     0
 42
0.00000001
 43
0.00000001
 40
0.0
 40
0.0
 40
0.0
 40
0.0
 40
0.0025141086251864
 40
1.0
 40
1.0
 40
1.0
 40
1.0
 10
393.3973823204882
 20
190.5673098958996
 30
0.0
 10
393.3970347595519
 20
190.5673098958996
 30
0.0
 10
393.2587905592494
 20
190.5673098958994
 30
0.0
 10
393.0575039959281
 20
190.5673098958995
 30
0.0
 10
392.8567234888919
 20
190.5673098958996
 30
0.0
  0
SPLINE
  5
B7
330
1F
100
AcDbEntity
  8
0
  6
Continuous
 62
     7
370
    15
100
AcDbSpline
210
0.0
220
0.0
230
1.0
 70
     8
 71
     3
 72
    13
 73
     9
 74
     0
 42
0.00000001
 43
0.00000001
 40
0.0
 40
0.0
 40
0.0
 40
0.0
 40
0.1768614774712451
 40
0.3537265172110513
 40
0.530591640972232
 40
0.7074548960608414
 40
0.8843190982005572
 40
0.9999999999999999
 40
0.9999999999999999
 40
0.9999999999999999
 40
0.9999999999999999
 10
390.9943614617235
 20
210.3571979537573
 30
0.0
 10
390.7976944377887
 20
210.3545071237626
 30
0.0
 10
390.4043564287355
 20
210.3491254095757
 30
0.0
 10
389.8709702638174
 20
210.0584517685681
 30
0.0
 10
389.481840155048
 20
209.6040859122882
 30
0.0
 10
389.3036801469918
 20
209.0403918190471
 30
0.0
 10
389.3246419398099
 20
208.5072407152587
 30
0.0
 10
389.4907358938824
 20
208.2339709247762
 30
0.0
 10
389.5564143076785
 20
208.1259120464292
 30
0.0
  0
SPLINE
  5
B8
330
1F
100
AcDbEntity
  8
0
  6
Continuous
 62
     7
370
    15
100
AcDbSpline
210
0.0
220
0.0
230
1.0
 70
     8
 71
     3
 72
    10
 73
     6
 74
     0
 42
0.00000001
 43
0.00000001
 40
0.0
 40
0.0
 40
0.0
 40
0.0
 40
0.1474573734895173
 40
0.573730886909061
 40
1.0
 40
1.0
 40
1.0
 40
1.0
 10
392.0829508915789
 20
209.6446719229189
 30
0.0
 10
392.0548943447157
 20
209.7049662788157
 30
0.0
 10
391.9457312209295
 20
209.9395610872387
 30
0.0
 10
391.5606512891117
 20
210.2283685467014
 30
0.0
 10
391.1831240879944
 20
210.3142549658373
 30
0.0
 10
390.9943614617236
 20
210.3571979537573
 30
0.0
  0
SPLINE
  5
B9
330
1F
100
AcDbEntity
  8
0
  6
Continuous
 62
     7
370
    15
100
AcDbSpline
210
0.0
220
0.0
230
1.0
 70
     8
 71
     3
 72
    13
 73
     9
 74
     0
 42
0.00000001
 43
0.00000001
 40
0.0
 40
0.0
 40
0.0
 40
0.0
 40
0.1768652274756148
 40
0.3537298964291658
 40
0.5305915122055381
 40
0.7074553349849598
 40
0.8843190100278324
 40
1.0
 40
1.0
 40
1.0
 40
1.0
 10
390.9771506205446
 20
184.4811741471258
 30
0.0
 10
390.7804787898945
 20
184.4838644833146
 30
0.0
 10
390.3871357496633
 20
184.4892451471963
 30
0.0
 10
389.8537430576478
 20
184.7799166695169
 30
0.0
 10
389.4646354487687
 20
185.2342937862948
 30
0.0
 10
389.2864485479074
 20
185.7979770745735
 30
0.0
 10
389.3074174383936
 20
186.3311326580033
 30
0.0
 10
389.4735103966971
 20
186.604401361459
 30
0.0
 10
389.5391885653383
 20
186.7124600544539
 30
0.0
  0
SPLINE
  5
BA
330
1F
100
AcDbEntity
  8
0
  6
Continuous
 62
     7
370
    15
100
AcDbSpline
210
0.0
220
0.0
230
1.0
 70
     8
 71
     3
 72
    10
 73
     6
 74
     0
 42
0.00000001
 43
0.00000001
 40
0.0
 40
0.0
 40
0.0
 40
0.0
 40
0.147458888279366
 40
0.5737367806918053
 40
1.0
 40
1.0
 40
1.0
 40
1.0
 10
392.0657251492389
 20
185.1937001779643
 30
0.0
 10
392.0376686062866
 20
185.1334058133329
 30
0.0
 10
391.9285054977174
 20
184.8988109709258
 30
0.0
 10
391.5434292386183
 20
184.6100071104374
 30
0.0
 10
391.1659079940603
 20
184.524117975483
 30
0.0
 10
390.9771506205447
 20
184.4811741471258
 30
0.0
  0
LINE
  5
BB
330
1F
100
AcDbEntity
  8
0
  6
Continuous
 62
     7
370
    15
100
AcDbLine
 10
385.6973860875
 20
192.7335457154
 30
0.0
 11
385.5925713197
 21
192.7335457154
 31
0.0
  0
LINE
  5
BC
330
1F
100
AcDbEntity
  8
0
  6
Continuous
 62
     7
370
    15
100
AcDbLine
 10
385.6973860875
 20
201.3335455418
 30
0.0
 11
385.5925713197
 21
201.3335455418
 31
0.0
  0
LINE
  5
BD
330
1F
100
AcDbEntity
  8
0
  6
Continuous
 62
     7
370
    15
100
AcDbLine
 10
391.0233144179
 20
204.6335455239
 30
0.0
 11
386.1973796502
 21
204.6335455239
 31
0.0
  0
LINE
  5
BE
330
1F
100
AcDbEntity
  8
0
  6
Continuous
 62
     7
370
    15
100
AcDbLine
 10
391.1274437323
 20
205.4335460275
 30
0.0
 11
386.1979905978
 21
205.4335460275
 31
0.0
  0
LINE
  5
BF
330
1F
100
AcDbEntity
  8
0
  6
Continuous
 62
     7
370
    15
100
AcDbLine
 10
391.0233144179
 20
190.2335457712
 30
0.0
 11
386.1973796502
 21
190.2335457712
 31
0.0
  0
LINE
  5
C0
330
1F
100
AcDbEntity
  8
0
  6
Continuous
 62
     7
370
    15
100
AcDbLine
 10
391.0792384759
 20
189.4335452676
 30
0.0
 11
386.1979905978
 21
189.4335452676
 31
0.0
  0
LINE
  5
C1
330
1F
100
AcDbEntity
  8
0
  6
Continuous
 62
     7
370
    15
100
AcDbLine
 10
389.7973809853
 20
205.7335455179
 30
0.0
 11
390.9607444421
 21
205.7335455179
 31
0.0
  0
LINE
  5
C2
330
1F
100
AcDbEntity
  8
0
  6
Continuous
 62
     7
370
    15
100
AcDbLine
 10
387.5973735467
 20
205.7335455179
 30
0.0
 11
389.7973809853
 21
205.7335455179
 31
0.0
  0
LINE
  5
C3
330
1F
100
AcDbEntity
  8
0
  6
Continuous
 62
     7
370
    15
100
AcDbLine
 10
389.7973809853
 20
189.0335459471
 30
0.0
 11
390.9007672683
 21
189.0335459471
 31
0.0
  0
LINE
  5
C4
330
1F
100
AcDbEntity
  8
0
  6
Continuous
 62
     7
370
    15
100
AcDbLine
 10
387.6973752395
 20
189.0335459471
 30
0.0
 11
389.7973809853
 21
189.0335459471
 31
0.0
  0
LINE
  5
C5
330
1F
100
AcDbEntity
  8
0
  6
Continuous
 62
     7
370
    15
100
AcDbLine
 10
389.7973809853
 20
188.6335456952
 30
0.0
 11
390.6608883754
 21
188.6335456952
 31
0.0
  0
LINE
  5
C6
330
1F
100
AcDbEntity
  8
0
  6
Continuous
 62
     7
370
    15
100
AcDbLine
 10
387.6973752395
 20
188.6335456952
 30
0.0
 11
389.7973809853
 21
188.6335456952
 31
0.0
  0
ARC
  5
C7
330
1F
100
AcDbEntity
  8
0
  6
Continuous
 62
     7
370
    15
100
AcDbCircle
 10
386.6631661223
 20
204.6357820106
 30
0.0
 40
0.8027495456831003
100
AcDbArc
 50
125.4673437335
 51
180.1596281405
  0
ARC
  5
C8
330
1F
100
AcDbEntity
  8
0
  6
Continuous
 62
     7
370
    15
100
AcDbCircle
 10
386.6631661223
 20
190.2313092845
 30
0.0
 40
0.8027495456831003
100
AcDbArc
 50
179.8403718595
 51
234.5326562665
  0
LINE
  5
C9
330
1F
100
AcDbEntity
  8
0
  6
Continuous
 62
     7
370
    15
100
AcDbLine
 10
386.6482738868
 20
190.6835454725
 30
0.0
 11
386.6482738868
 21
190.2335457712
 31
0.0
  0
LINE
  5
CA
330
1F
100
AcDbEntity
  8
0
  6
Continuous
 62
     7
370
    15
100
AcDbLine
 10
386.6482738868
 20
204.6335455239
 30
0.0
 11
386.6482738868
 21
204.1835458226
 31
0.0
  0
LINE
  5
CB
330
1F
100
AcDbEntity
  8
0
  6
Continuous
 62
     7
370
    15
100
AcDbLine
 10
385.8604196921
 20
203.4051035739
 30
0.0
 11
385.8604196921
 21
204.6335455239
 31
0.0
  0
LINE
  5
CC
330
1F
100
AcDbEntity
  8
0
  6
Continuous
 62
     7
370
    15
100
AcDbLine
 10
385.8604196921
 20
190.2335457712
 30
0.0
 11
385.8604196921
 21
191.4619877212
 31
0.0
  0
LINE
  5
CD
330
1F
100
AcDbEntity
  8
0
  6
Continuous
 62
     7
370
    15
100
AcDbLine
 10
695.5987427846
 20
102.4335468397
 30
0.0
 11
695.5987427846
 21
67.4335504159
 31
0.0
  0
LINE
  5
CE
330
1F
100
AcDbEntity
  8
0
  6
Continuous
 62
     7
370
    15
100
AcDbLine
 10
706.1973873988
 20
102.4335468397
 30
0.0
 11
695.5987427846
 21
102.4335468397
 31
0.0
  0
LINE
  5
CF
330
1F
100
AcDbEntity
  8
0
  6
Continuous
 62
     7
370
    15
100
AcDbLine
 10
706.1973873988
 20
67.4335504159
 30
0.0
 11
695.5987427846
 21
67.4335504159
 31
0.0
  0
LINE
  5
D0
330
1F
100
AcDbEntity
  8
0
  6
Continuous
 62
     7
370
    15
100
AcDbLine
 10
695.5987427846
 20
327.4335408792
 30
0.0
 11
695.5987427846
 21
292.4335444555
 31
0.0
  0
LINE
  5
D1
330
1F
100
AcDbEntity
  8
0
  6
Continuous
 62
     7
370
    15
100
AcDbLine
 10
706.1973873988
 20
327.4335408792
 30
0.0
 11
695.5987427846
 21
327.4335408792
 31
0.0
  0
LINE
  5
D2
330
1F
100
AcDbEntity
  8
0
  6
Continuous
 62
     7
370
    15
100
AcDbLine
 10
706.1973873988
 20
292.4335444555
 30
0.0
 11
695.5987427846
 21
292.4335444555
 31
0.0
  0
LINE
  5
D3
330
1F
100
AcDbEntity
  8
0
  6
Continuous
 62
     7
370
    15
100
AcDbLine
 10
703.1973813191
 20
139.4335473165
 30
0.0
 11
698.1973860875
 21
139.4335473165
 31
0.0
  0
LINE
  5
D4
330
1F
100
AcDbEntity
  8
0
  6
Continuous
 62
     7
370
    15
100
AcDbLine
 10
698.1973860875
 20
255.4335439786
 30
0.0
 11
703.1973813191
 21
255.4335439786
 31
0.0
  0
LINE
  5
D5
330
1F
100
AcDbEntity
  8
0
  6
Continuous
 62
     7
370
    15
100
AcDbLine
 10
695.1352272645
 20
67.4335504159
 30
0.0
 11
695.1352272645
 21
102.4335468397
 31
0.0
  0
LINE
  5
D6
330
1F
100
AcDbEntity
  8
0
  6
Continuous
 62
     7
370
    15
100
AcDbLine
 10
695.1352272645
 20
102.4335468397
 30
0.0
 11
695.5987427846
 21
102.4335468397
 31
0.0
  0
LINE
  5
D7
330
1F
100
AcDbEntity
  8
0
  6
Continuous
 62
     7
370
    15
100
AcDbLine
 10
695.5987427846
 20
67.4335504159
 30
0.0
 11
695.1352272645
 21
67.4335504159
 31
0.0
  0
LINE
  5
D8
330
1F
100
AcDbEntity
  8
0
  6
Continuous
 62
     7
370
    15
100
AcDbLine
 10
695.1352272645
 20
292.4335444555
 30
0.0
 11
695.1352272645
 21
327.4335408792
 31
0.0
  0
LINE
  5
D9
330
1F
100
AcDbEntity
  8
0
  6
Continuous
 62
     7
370
    15
100
AcDbLine
 10
695.1352272645
 20
327.4335408792
 30
0.0
 11
695.5987427846
 21
327.4335408792
 31
0.0
  0
LINE
  5
DA
330
1F
100
AcDbEntity
  8
0
  6
Continuous
 62
     7
370
    15
100
AcDbLine
 10
695.5987427846
 20
292.4335444555
 30
0.0
 11
695.1352272645
 21
292.4335444555
 31
0.0
  0
LINE
  5
DB
330
1F
100
AcDbEntity
  8
0
  6
Continuous
 62
     7
370
    15
100
AcDbLine
 10
695.1352272645
 20
327.4335408792
 30
0.0
 11
694.6973864451
 21
327.4335408792
 31
0.0
  0
LINE
  5
DC
330
1F
100
AcDbEntity
  8
0
  6
Continuous
 62
     7
370
    15
100
AcDbLine
 10
695.1352272645
 20
292.4335444555
 30
0.0
 11
694.6973864451
 21
292.4335444555
 31
0.0
  0
LINE
  5
DD
330
1F
100
AcDbEntity
  8
0
  6
Continuous
 62
     7
370
    15
100
AcDbLine
 10
695.1352272645
 20
102.4335468397
 30
0.0
 11
694.6973864451
 21
102.4335468397
 31
0.0
  0
LINE
  5
DE
330
1F
100
AcDbEntity
  8
0
  6
Continuous
 62
     7
370
    15
100
AcDbLine
 10
695.1352272645
 20
67.4335504159
 30
0.0
 11
694.6973864451
 21
67.4335504159
 31
0.0
  0
LINE
  5
DF
330
1F
100
AcDbEntity
  8
0
  6
Continuous
 62
     7
370
    15
100
AcDbLine
 10
389.497375907
 20
204.1835458226
 30
0.0
 11
391.0574529782
 21
204.1835458226
 31
0.0
  0
LINE
  5
E0
330
1F
100
AcDbEntity
  8
0
  6
Continuous
 62
     7
370
    15
100
AcDbLine
 10
389.497375907
 20
190.6835454725
 30
0.0
 11
391.0568867341
 21
190.6835454725
 31
0.0
  0
LINE
  5
E1
330
1F
100
AcDbEntity
  8
0
  6
Continuous
 62
     7
370
    15
100
AcDbLine
 10
389.497375907
 20
204.1835458226
 30
0.0
 11
386.3973830357
 21
204.1835458226
 31
0.0
  0
LINE
  5
E2
330
1F
100
AcDbEntity
  8
0
  6
Continuous
 62
     7
370
    15
100
AcDbLine
 10
389.497375907
 20
190.6835454725
 30
0.0
 11
386.3973830357
 21
190.6835454725
 31
0.0
  0
LINE
  5
E3
330
1F
100
AcDbEntity
  8
0
  6
Continuous
 62
     8
370
    15
100
AcDbLine
 10
389.497375907
 20
190.9335455134
 30
0.0
 11
389.497375907
 21
190.6835454725
 31
0.0
  0
LINE
  5
E4
330
1F
100
AcDbEntity
  8
0
  6
Continuous
 62
     8
370
    15
100
AcDbLine
 10
389.497375907
 20
204.1835458226
 30
0.0
 11
389.497375907
 21
203.9335457817
 31
0.0
  0
LINE
  5
E5
330
1F
100
AcDbEntity
  8
0
  6
Continuous
 62
     7
370
    15
100
AcDbLine
 10
292.4102584448
 20
203.9335457817
 30
0.0
 11
292.4102584448
 21
190.9335455134
 31
0.0
  0
SPLINE
  5
E6
330
1F
100
AcDbEntity
  8
0
  6
Continuous
 62
     7
370
    15
100
AcDbSpline
210
0.0
220
0.0
230
1.0
 70
     8
 71
     3
 72
    15
 73
    11
 74
     0
 42
0.00000001
 43
0.00000001
 40
0.0
 40
0.0
 40
0.0
 40
0.0
 40
0.1356028663338301
 40
0.2953315886943306
 40
0.4038095484465317
 40
0.5319635813589845
 40
0.6738457581954921
 40
0.8261073253668793
 40
0.9126171788294358
 40
1.0
 40
1.0
 40
1.0
 40
1.0
 10
281.3902611461075
 20
191.9995908834007
 30
0.0
 10
281.434642619463
 20
191.9922677701677
 30
0.0
 10
281.5313017195916
 20
191.9763186481191
 30
0.0
 10
281.7381528491093
 20
192.0239846483949
 30
0.0
 10
281.9314132243351
 20
192.1117155446915
 30
0.0
 10
282.078001720957
 20
192.2313750873408
 30
0.0
 10
282.1767043604839
 20
192.3822646875657
 30
0.0
 10
282.2063717263628
 20
192.5041186898346
 30
0.0
 10
282.1851827367353
 20
192.633361297912
 30
0.0
 10
282.1389295954674
 20
192.700039331582
 30
0.0
 10
282.115686925927
 20
192.7335457153586
 30
0.0
  0
SPLINE
  5
E7
330
1F
100
AcDbEntity
  8
0
  6
Continuous
 62
     7
370
    15
100
AcDbSpline
210
0.0
220
0.0
230
1.0
 70
     8
 71
     3
 72
    20
 73
    16
 74
     0
 42
0.00000001
 43
0.00000001
 40
0.0
 40
0.0
 40
0.0
 40
0.0
 40
0.0607086123965684
 40
0.2265341556312683
 40
0.3908035227156336
 40
0.47059495370885
 40
0.5476205410215486
 40
0.6228560695700163
 40
0.7003373840453081
 40
0.7786475224298974
 40
0.856657977712297
 40
0.933101309579349
 40
0.970373601682483
 40
0.9892352123565442
 40
1.0
 40
1.0
 40
1.0
 40
1.0
 10
277.6540631976517
 20
192.7335457153586
 30
0.0
 10
277.7003377586112
 20
192.6802123178672
 30
0.0
 10
277.8730112588009
 20
192.4811987728248
 30
0.0
 10
278.2899846710752
 20
192.4632720197938
 30
0.0
 10
278.8549391280842
 20
192.3882490570594
 30
0.0
 10
279.3745518381228
 20
192.3453068741791
 30
0.0
 10
279.768442926745
 20
192.3147563130549
 30
0.0
 10
280.1613532885078
 20
192.2870728253831
 30
0.0
 10
280.5425155901174
 20
192.2557663258754
 30
0.0
 10
280.8982407178546
 20
192.2232933659046
 30
0.0
 10
281.2008712444057
 20
192.1924674880527
 30
0.0
 10
281.3933715579524
 20
192.1695651582156
 30
0.0
 10
281.4815016371155
 20
192.1615377344593
 30
0.0
 10
281.5269247792597
 20
192.1537431602826
 30
0.0
 10
281.5263690952373
 20
192.1577019714482
 30
0.0
 10
281.526167186776
 20
192.159140410271
 30
0.0
  0
SPLINE
  5
E8
330
1F
100
AcDbEntity
  8
0
  6
Continuous
 62
     7
370
    15
100
AcDbSpline
210
0.0
220
0.0
230
1.0
 70
     8
 71
     3
 72
    18
 73
    14
 74
     0
 42
0.00000001
 43
0.00000001
 40
0.0
 40
0.0
 40
0.0
 40
0.0
 40
0.0057536117614248
 40
0.1156379965053346
 40
0.2383937881526184
 40
0.3593078905080883
 40
0.4757042930345473
 40
0.5872128412016234
 40
0.7047314987254447
 40
0.8265010043940745
 40
0.8891454358173227
 40
0.951792939132898
 40
1.0
 40
1.0
 40
1.0
 40
1.0
 10
281.8968782749566
 20
201.380369646844
 30
0.0
 10
281.8922311121843
 20
201.3833231236639
 30
0.0
 10
281.7988308942508
 20
201.44268307987
 30
0.0
 10
281.576468283896
 20
201.4488666384842
 30
0.0
 10
281.1850909812661
 20
201.5080629188215
 30
0.0
 10
280.6732007469941
 20
201.5536100302428
 30
0.0
 10
280.1221754005056
 20
201.5997615847861
 30
0.0
 10
279.5600590782315
 20
201.6386577574188
 30
0.0
 10
279.0257795227454
 20
201.683387831366
 30
0.0
 10
278.6281448114485
 20
201.7244582465936
 30
0.0
 10
278.4134160977435
 20
201.7455796097532
 30
0.0
 10
278.317349003888
 20
201.7478686458652
 30
0.0
 10
278.3019131237072
 20
201.7317935441841
 30
0.0
 10
278.2952005591782
 20
201.7248030029205
 30
0.0
  0
SPLINE
  5
E9
330
1F
100
AcDbEntity
  8
0
  6
Continuous
 62
     7
370
    15
100
AcDbSpline
210
0.0
220
0.0
230
1.0
 70
     8
 71
     3
 72
    12
 73
     8
 74
     0
 42
0.00000001
 43
0.00000001
 40
0.0
 40
0.0
 40
0.0
 40
0.0
 40
0.2236729820054967
 40
0.4523097742282867
 40
0.6822372678484837
 40
0.9102273613192214
 40
1.0
 40
1.0
 40
1.0
 40
1.0
 10
277.5959635701569
 20
202.5353963695434
 30
0.0
 10
277.5832281511346
 20
202.4928484418943
 30
0.0
 10
277.5574746852887
 20
202.4068083516864
 30
0.0
 10
277.6785976902742
 20
202.3151932998026
 30
0.0
 10
277.9102789929374
 20
202.218887936803
 30
0.0
 10
278.1551354329542
 20
202.1563968784619
 30
0.0
 10
278.3384682918449
 20
202.1616170213935
 30
0.0
 10
278.3902625170144
 20
202.1630917884377
 30
0.0
  0
SPLINE
  5
EA
330
1F
100
AcDbEntity
  8
0
  6
Continuous
 62
     7
370
    15
100
AcDbSpline
210
0.0
220
0.0
230
1.0
 70
     8
 71
     3
 72
    19
 73
    15
 74
     0
 42
0.00000001
 43
0.00000001
 40
0.0
 40
0.0
 40
0.0
 40
0.0
 40
0.0979033736757284
 40
0.1753767752232956
 40
0.2884822032961697
 40
0.3734525700840743
 40
0.4570022720946865
 40
0.6168867031555729
 40
0.6796659019373148
 40
0.7634255342528317
 40
0.8137555855017751
 40
0.8702971455237448
 40
0.9323987944767276
 40
1.0
 40
1.0
 40
1.0
 40
1.0
 10
277.7721996035966
 20
202.0402657076684
 30
0.0
 10
277.8227067078952
 20
202.0138887131743
 30
0.0
 10
277.9131813539181
 20
201.9666389396397
 30
0.0
 10
278.2878247738948
 20
201.9059903074906
 30
0.0
 10
278.7743371675965
 20
201.8521035268885
 30
0.0
 10
279.3656650904854
 20
201.7988700207772
 30
0.0
 10
280.1197675962955
 20
201.747320307781
 30
0.0
 10
280.7608583182831
 20
201.6803764324161
 30
0.0
 10
281.4101344243572
 20
201.6448566635357
 30
0.0
 10
281.7884648132758
 20
201.7230440880612
 30
0.0
 10
282.0403180143849
 20
201.8312409910179
 30
0.0
 10
282.173914897306
 20
201.9195834272294
 30
0.0
 10
282.2356718730611
 20
201.9934240251935
 30
0.0
 10
282.1642365112583
 20
202.0739393607296
 30
0.0
 10
282.1270043578538
 20
202.1159040018883
 30
0.0
  0
SPLINE
  5
EB
330
1F
100
AcDbEntity
  8
0
  6
Continuous
 62
     7
370
    15
100
AcDbSpline
210
0.0
220
0.0
230
1.0
 70
     8
 71
     3
 72
    25
 73
    21
 74
     0
 42
0.00000001
 43
0.00000001
 40
0.0
 40
0.0
 40
0.0
 40
0.0
 40
0.0176268899162512
 40
0.0344980499122053
 40
0.050315126133779
 40
0.0649738322073702
 40
0.090944518425799
 40
0.1134381532453552
 40
0.1538408905572516
 40
0.191235137456296
 40
0.2995722695172233
 40
0.3999649734684962
 40
0.5012971299072176
 40
0.5949075374227529
 40
0.6784886355470741
 40
0.733631620823079
 40
0.8075209696764402
 40
0.8952853682008521
 40
0.945310775473205
 40
1.0
 40
1.0
 40
1.0
 40
1.0
 10
281.7696819630059
 20
201.4903220556644
 30
0.0
 10
281.809392628977
 20
201.4947165142402
 30
0.0
 10
281.8871114178972
 20
201.5033170247105
 30
0.0
 10
281.9889912972056
 20
201.5493201524117
 30
0.0
 10
282.0700066484602
 20
201.6082798055091
 30
0.0
 10
282.1462061043719
 20
201.691852197305
 30
0.0
 10
282.1992593923056
 20
201.7955056062406
 30
0.0
 10
282.2234176697855
 20
201.9278381548353
 30
0.0
 10
282.2005286385507
 20
202.0596992984367
 30
0.0
 10
282.0292911258529
 20
202.3049150626212
 30
0.0
 10
281.6864965245097
 20
202.3919948742703
 30
0.0
 10
281.1913843021687
 20
202.4505503933905
 30
0.0
 10
280.578170982659
 20
202.5089076305506
 30
0.0
 10
279.9287048616343
 20
202.5585295984297
 30
0.0
 10
279.3889962512965
 20
202.5980117402052
 30
0.0
 10
278.9430022652575
 20
202.637186836862
 30
0.0
 10
278.5542792162379
 20
202.6754160982663
 30
0.0
 10
278.294133536238
 20
202.7032579761888
 30
0.0
 10
278.1636939599724
 20
202.7257515170842
 30
0.0
 10
278.1550285236817
 20
202.7382149104918
 30
0.0
 10
278.1505028334054
 20
202.7447241567043
 30
0.0
  0
SPLINE
  5
EC
330
1F
100
AcDbEntity
  8
0
  6
Continuous
 62
     7
370
    15
100
AcDbSpline
210
0.0
220
0.0
230
1.0
 70
     8
 71
     3
 72
    12
 73
     8
 74
     0
 42
0.00000001
 43
0.00000001
 40
0.0
 40
0.0
 40
0.0
 40
0.0
 40
0.175647670400461
 40
0.5723083889404248
 40
0.758616423787197
 40
0.9207513991597377
 40
1.0
 40
1.0
 40
1.0
 40
1.0
 10
278.2388294663819
 20
201.9262364342776
 30
0.0
 10
278.1732658233161
 20
201.9170654060932
 30
0.0
 10
277.9596414532891
 20
201.8871836755062
 30
0.0
 10
277.7437244030473
 20
201.8132426785341
 30
0.0
 10
277.5825731236538
 20
201.5983202357339
 30
0.0
 10
277.551359475712
 20
201.4380983515701
 30
0.0
 10
277.5823364542171
 20
201.3594352175151
 30
0.0
 10
277.59250650076
 20
201.3336093373564
 30
0.0
  0
LINE
  5
ED
330
1F
100
AcDbEntity
  8
0
  6
Continuous
 62
     7
370
    15
100
AcDbLine
 10
277.7500192252
 20
192.6358052738
 30
0.0
 11
276.6315604177
 21
192.6358052738
 31
0.0
  0
LINE
  5
EE
330
1F
100
AcDbEntity
  8
0
  6
Continuous
 62
     7
370
    15
100
AcDbLine
 10
276.6315604177
 20
191.8358057015
 30
0.0
 11
278.390262517
 21
191.8358057015
 31
0.0
  0
LINE
  5
EF
330
1F
100
AcDbEntity
  8
0
  6
Continuous
 62
     7
370
    15
100
AcDbLine
 10
275.2212698188
 20
205.4335460275
 30
0.0
 11
275.2212698188
 21
205.4870160505
 31
0.0
  0
LINE
  5
F0
330
1F
100
AcDbEntity
  8
0
  6
Continuous
 62
     7
370
    15
100
AcDbLine
 10
272.2212711897
 20
205.4870160505
 30
0.0
 11
272.2212711897
 21
205.4335460275
 31
0.0
  0
SPLINE
  5
F1
330
1F
100
AcDbEntity
  8
0
  6
Continuous
 62
     7
370
    15
100
AcDbSpline
210
0.0
220
0.0
230
1.0
 70
     8
 71
     3
 72
    15
 73
    11
 74
     0
 42
0.00000001
 43
0.00000001
 40
0.0
 40
0.0
 40
0.0
 40
0.0
 40
0.1077551036863209
 40
0.235250774724543
 40
0.3627908901706017
 40
0.4902566411288575
 40
0.6176624605260265
 40
0.7450971317547226
 40
0.8724965622541917
 40
1.0
 40
1.0
 40
1.0
 40
1.0
 10
272.237327190915
 20
189.4335452675787
 30
0.0
 10
272.2538671238215
 20
189.1210245043694
 30
0.0
 10
272.2899770796104
 20
188.4387296603451
 30
0.0
 10
272.6261772615494
 20
187.4295759263718
 30
0.0
 10
273.1842642688814
 20
186.4660975730671
 30
0.0
 10
273.9390945907463
 20
185.6451786355123
 30
0.0
 10
274.8542500714235
 20
185.009900099183
 30
0.0
 10
275.8815087865794
 20
184.5897441833536
 30
0.0
 10
276.9774904073034
 20
184.3759358187502
 30
0.0
 10
277.713249725271
 20
184.4414664316112
 30
0.0
 10
278.0812794890793
 20
184.4742451071706
 30
0.0
  0
SPLINE
  5
F2
330
1F
100
AcDbEntity
  8
0
  6
Continuous
 62
     7
370
    15
100
AcDbSpline
210
0.0
220
0.0
230
1.0
 70
     8
 71
     3
 72
    15
 73
    11
 74
     0
 42
0.00000001
 43
0.00000001
 40
0.0
 40
0.0
 40
0.0
 40
0.0
 40
0.1316515586047396
 40
0.2633127136958283
 40
0.3951895423885307
 40
0.526669131905233
 40
0.6575467008163791
 40
0.7882127138924467
 40
0.9184595642371461
 40
1.0
 40
1.0
 40
1.0
 40
1.0
 10
277.5835881557854
 20
187.4319300264087
 30
0.0
 10
277.4314041766513
 20
187.4201156938536
 30
0.0
 10
277.1270251252255
 20
187.3964861675605
 30
0.0
 10
276.6761672784033
 20
187.4979661104499
 30
0.0
 10
276.2571370837751
 20
187.6848167795644
 30
0.0
 10
275.8867440077215
 20
187.9574138069511
 30
0.0
 10
275.5844826272187
 20
188.303324180506
 30
0.0
 10
275.3653253122703
 20
188.7050324741858
 30
0.0
 10
275.2479523985664
 20
189.091344789195
 30
0.0
 10
275.2377784010384
 20
189.3384189837493
 30
0.0
 10
275.2338613000306
 20
189.4335452675787
 30
0.0
  0
SPLINE
  5
F3
330
1F
100
AcDbEntity
  8
0
  6
Continuous
 62
     7
370
    15
100
AcDbSpline
210
0.0
220
0.0
230
1.0
 70
     8
 71
     3
 72
    15
 73
    11
 74
     0
 42
0.00000001
 43
0.00000001
 40
0.0
 40
0.0
 40
0.0
 40
0.0
 40
0.1249271199019881
 40
0.2499164786626197
 40
0.3749670180552142
 40
0.4999570436912684
 40
0.624920505096255
 40
0.7499166867458813
 40
0.8748739282905801
 40
1.0
 40
1.0
 40
1.0
 40
1.0
 10
278.2521511044892
 20
210.3640664577451
 30
0.0
 10
277.8857744450843
 20
210.4073983143155
 30
0.0
 10
277.1528385969316
 20
210.4940836154452
 30
0.0
 10
276.0488125193449
 20
210.3288938737986
 30
0.0
 10
275.0080132272208
 20
209.9399630742543
 30
0.0
 10
274.072824250404
 20
209.3349485778185
 30
0.0
 10
273.2921807416696
 20
208.5387547308752
 30
0.0
 10
272.7042184146127
 20
207.5943914654547
 30
0.0
 10
272.3083820843253
 20
206.5459489193848
 30
0.0
 10
272.2503212201404
 20
205.8068267228298
 30
0.0
 10
272.2212711897286
 20
205.4370161354509
 30
0.0
  0
SPLINE
  5
F4
330
1F
100
AcDbEntity
  8
0
  6
Continuous
 62
     7
370
    15
100
AcDbSpline
210
0.0
220
0.0
230
1.0
 70
     8
 71
     3
 72
    15
 73
    11
 74
     0
 42
0.00000001
 43
0.00000001
 40
0.0
 40
0.0
 40
0.0
 40
0.0
 40
0.1242530462176843
 40
0.2486332419100647
 40
0.3735411395592486
 40
0.4985830848606487
 40
0.623663589876646
 40
0.7490697403789933
 40
0.8744383161927857
 40
1.0
 40
1.0
 40
1.0
 40
1.0
 10
275.2212698188218
 20
205.4370161354509
 30
0.0
 10
275.2348304421546
 20
205.5889722786852
 30
0.0
 10
275.2619655655515
 20
205.8930400635047
 30
0.0
 10
275.4364211710351
 20
206.3203563608627
 30
0.0
 10
275.6897552261755
 20
206.7019983848629
 30
0.0
 10
276.0195784039889
 20
207.0219275189454
 30
0.0
 10
276.410504701382
 20
207.2625036920842
 30
0.0
 10
276.8432027384222
 20
207.4141274631561
 30
0.0
 10
277.3007345979421
 20
207.4675849439301
 30
0.0
 10
277.602653826348
 20
207.426894936164
 30
0.0
 10
277.7537296142968
 20
207.4065342754093
 30
0.0
  0
LINE
  5
F5
330
1F
100
AcDbEntity
  8
0
  6
Continuous
 62
     7
370
    15
100
AcDbLine
 10
293.1243369904
 20
190.0486824311
 30
0.0
 11
277.5833646384
 21
187.4322643712
 31
0.0
  0
LINE
  5
F6
330
1F
100
AcDbEntity
  8
0
  6
Continuous
 62
     7
370
    15
100
AcDbLine
 10
278.0814210501
 20
184.4738967925
 30
0.0
 11
293.6223934021
 21
187.0903153181
 31
0.0
  0
LINE
  5
F7
330
1F
100
AcDbEntity
  8
0
  6
Continuous
 62
     7
370
    15
100
AcDbLine
 10
277.7539456811
 20
207.406108661
 30
0.0
 11
293.2949105826
 21
204.7896896698
 31
0.0
  0
LINE
  5
F8
330
1F
100
AcDbEntity
  8
0
  6
Continuous
 62
     7
370
    15
100
AcDbLine
 10
293.7929818955
 20
207.7480567828
 30
0.0
 11
278.2520095435
 21
210.3644753084
 31
0.0
  0
SPLINE
  5
F9
330
1F
100
AcDbEntity
  8
0
  6
Continuous
 62
     7
370
    15
100
AcDbSpline
210
0.0
220
0.0
230
1.0
 70
     8
 71
     3
 72
    12
 73
     8
 74
     0
 42
0.00000001
 43
0.00000001
 40
0.0
 40
0.0
 40
0.0
 40
0.0
 40
0.152613930552983
 40
0.2973908389818963
 40
0.5623711722461424
 40
0.7966022734797539
 40
1.0
 40
1.0
 40
1.0
 40
1.0
 10
293.6220506754311
 20
187.0906245171991
 30
0.0
 10
293.8732702965993
 20
187.1433625924354
 30
0.0
 10
294.3628089228389
 20
187.2461305401843
 30
0.0
 10
295.2123307475123
 20
187.6753760073604
 30
0.0
 10
296.024325931505
 20
188.4197660425378
 30
0.0
 10
296.5887507223358
 20
189.4908137187654
 30
0.0
 10
296.6704414175678
 20
190.225737657469
 30
0.0
 10
296.7084089842232
 20
190.5673098958996
 30
0.0
  0
SPLINE
  5
FA
330
1F
100
AcDbEntity
  8
0
  6
Continuous
 62
     7
370
    15
100
AcDbSpline
210
0.0
220
0.0
230
1.0
 70
     8
 71
     3
 72
    11
 73
     7
 74
     0
 42
0.00000001
 43
0.00000001
 40
0.0
 40
0.0
 40
0.0
 40
0.0
 40
0.2003557084226641
 40
0.4328019081171545
 40
0.6990219638969846
 40
1.0
 40
1.0
 40
1.0
 40
1.0
 10
293.7101016369256
 20
190.5673098958996
 30
0.0
 10
293.6968741379335
 20
190.5108834219279
 30
0.0
 10
293.6683005232936
 20
190.3889927815486
 30
0.0
 10
293.5524153372045
 20
190.223289921567
 30
0.0
 10
293.3676560478843
 20
190.0843847439789
 30
0.0
 10
293.2100339512749
 20
190.0609954651759
 30
0.0
 10
293.1263933506402
 20
190.0485841765967
 30
0.0
  0
SPLINE
  5
FB
330
1F
100
AcDbEntity
  8
0
  6
Continuous
 62
     7
370
    15
100
AcDbSpline
210
0.0
220
0.0
230
1.0
 70
     8
 71
     3
 72
    12
 73
     8
 74
     0
 42
0.00000001
 43
0.00000001
 40
0.0
 40
0.0
 40
0.0
 40
0.0
 40
0.203406314462845
 40
0.4376409325717662
 40
0.7026159820239064
 40
0.8473900631967533
 40
0.9999999999999999
 40
0.9999999999999999
 40
0.9999999999999999
 40
0.9999999999999999
 10
296.7084089842232
 20
204.1259407274392
 30
0.0
 10
296.686974833187
 20
204.4689499328383
 30
0.0
 10
296.6408579666918
 20
205.2069548906882
 30
0.0
 10
296.1287380514794
 20
206.3040591508054
 30
0.0
 10
295.3535350769589
 20
207.0868183166965
 30
0.0
 10
294.5256842754055
 20
207.5565460510143
 30
0.0
 10
294.041695426305
 20
207.6828072966033
 30
0.0
 10
293.7933246221932
 20
207.7476013660398
 30
0.0
  0
SPLINE
  5
FC
330
1F
100
AcDbEntity
  8
0
  6
Continuous
 62
     7
370
    15
100
AcDbSpline
210
0.0
220
0.0
230
1.0
 70
     8
 71
     3
 72
    12
 73
     8
 74
     0
 42
0.00000001
 43
0.00000001
 40
0.0
 40
0.0
 40
0.0
 40
0.0
 40
0.1555467668030945
 40
0.3021964619754383
 40
0.5679612517421782
 40
0.799944018567254
 40
1.0
 40
1.0
 40
1.0
 40
1.0
 10
293.2930032339486
 20
204.7906079538134
 30
0.0
 10
293.3335448482893
 20
204.774858076487
 30
0.0
 10
293.4123091496523
 20
204.7442591942189
 30
0.0
 10
293.5419379963759
 20
204.6492168900166
 30
0.0
 10
293.6563664716047
 20
204.5030424248054
 30
0.0
 10
293.7205234854628
 20
204.3087917710979
 30
0.0
 10
293.7134001190036
 20
204.1838125040526
 30
0.0
 10
293.7101016369256
 20
204.1259407274392
 30
0.0
  0
LINE
  5
FD
330
1F
100
AcDbEntity
  8
0
  6
Continuous
 62
     7
370
    15
100
AcDbLine
 10
293.7092522707
 20
204.1759406425
 30
0.0
 11
293.7092522707
 21
203.9335457817
 31
0.0
  0
LINE
  5
FE
330
1F
100
AcDbEntity
  8
0
  6
Continuous
 62
     7
370
    15
100
AcDbLine
 10
293.7092522707
 20
190.9335455134
 30
0.0
 11
293.7092522707
 21
190.5173099808
 31
0.0
  0
LINE
  5
FF
330
1F
100
AcDbEntity
  8
0
  6
Continuous
 62
     7
370
    15
100
AcDbLine
 10
296.7092583504
 20
190.5173099808
 30
0.0
 11
296.7092583504
 21
190.9362901211
 31
0.0
  0
LINE
  5
100
330
1F
100
AcDbEntity
  8
0
  6
Continuous
 62
     7
370
    15
100
AcDbLine
 10
296.7092583504
 20
203.930801174
 30
0.0
 11
296.7092583504
 21
204.1759406425
 31
0.0
  0
LINE
  5
101
330
1F
100
AcDbEntity
  8
0
  6
Continuous
 62
     7
370
    15
100
AcDbLine
 10
283.0085347023
 20
203.0335454479
 30
0.0
 11
281.3902611461
 21
203.0335454479
 31
0.0
  0
LINE
  5
102
330
1F
100
AcDbEntity
  8
0
  6
Continuous
 62
     7
370
    15
100
AcDbLine
 10
282.0171827999
 20
202.2335458755
 30
0.0
 11
283.0085347023
 21
202.2335458755
 31
0.0
  0
LINE
  5
103
330
1F
100
AcDbEntity
  8
0
  6
Continuous
 62
     7
370
    15
100
AcDbLine
 10
283.3467612591
 20
204.3016845569
 30
0.0
 11
283.08023909
 21
203.0934374057
 31
0.0
  0
LINE
  5
104
330
1F
100
AcDbEntity
  8
0
  6
Continuous
 62
     7
370
    15
100
AcDbLine
 10
283.8483939495
 20
202.8618873306
 30
0.0
 11
284.1279769864
 21
204.1293568186
 31
0.0
  0
SPLINE
  5
105
330
1F
100
AcDbEntity
  8
0
  6
Continuous
 62
     7
370
    15
100
AcDbSpline
210
0.0
220
0.0
230
1.0
 70
     8
 71
     3
 72
    11
 73
     7
 74
     0
 42
0.00000001
 43
0.00000001
 40
0.0
 40
0.0
 40
0.0
 40
0.0
 40
0.2541309399275824
 40
0.5022690019548702
 40
0.7495126202113759
 40
1.0
 40
1.0
 40
1.0
 40
1.0
 10
283.00853470234
 20
202.233545875546
 30
0.0
 10
283.108623446775
 20
202.2437919870243
 30
0.0
 10
283.3064406578105
 20
202.2640425877089
 30
0.0
 10
283.5645859840087
 20
202.4180750754787
 30
0.0
 10
283.7680349698443
 20
202.6371492081759
 30
0.0
 10
283.8297734511937
 20
202.824198992036
 30
0.0
 10
283.8608438697251
 20
202.9183333948222
 30
0.0
  0
LINE
  5
106
330
1F
100
AcDbEntity
  8
0
  6
Continuous
 62
     7
370
    15
100
AcDbLine
 10
282.6202625957
 20
204.6335455239
 30
0.0
 11
282.6202625957
 21
205.4335460275
 31
0.0
  0
LINE
  5
107
330
1F
100
AcDbEntity
  8
0
  6
Continuous
 62
     7
370
    15
100
AcDbLine
 10
282.6202625957
 20
189.4335452676
 30
0.0
 11
282.6202625957
 21
190.2335457712
 31
0.0
  0
LINE
  5
108
330
1F
100
AcDbEntity
  8
0
  6
Continuous
 62
     7
370
    15
100
AcDbLine
 10
277.6902655688
 20
205.7335455179
 30
0.0
 11
277.6902655688
 21
205.4335460275
 31
0.0
  0
LINE
  5
109
330
1F
100
AcDbEntity
  8
0
  6
Continuous
 62
     7
370
    15
100
AcDbLine
 10
282.0902655449
 20
205.4335460275
 30
0.0
 11
282.0902655449
 21
205.7335455179
 31
0.0
  0
ARC
  5
10A
330
1F
100
AcDbEntity
  8
0
  6
Continuous
 62
     7
370
    15
100
AcDbCircle
 10
279.8902618542
 20
202.6264027905
 30
0.0
 40
3.807142857143189
100
AcDbArc
 50
54.6997515601
 51
125.3002484399
  0
LINE
  5
10B
330
1F
100
AcDbEntity
  8
0
  6
Continuous
 62
     7
370
    15
100
AcDbLine
 10
277.790259811
 20
189.0335459471
 30
0.0
 11
277.790259811
 21
188.6335456952
 31
0.0
  0
LINE
  5
10C
330
1F
100
AcDbEntity
  8
0
  6
Continuous
 62
     7
370
    15
100
AcDbLine
 10
281.9902638522
 20
188.6335456952
 30
0.0
 11
281.9902638522
 21
189.0335459471
 31
0.0
  0
ARC
  5
10D
330
1F
100
AcDbEntity
  8
0
  6
Continuous
 62
     7
370
    15
100
AcDbCircle
 10
277.9902618542
 20
189.4335456476
 30
0.0
 40
0.4000000000007731
100
AcDbArc
 50
270.0
 51
0.0
  0
ARC
  5
10E
330
1F
100
AcDbEntity
  8
0
  6
Continuous
 62
     7
370
    15
100
AcDbCircle
 10
281.7902618542
 20
189.4335456476
 30
0.0
 40
0.4000000000007731
100
AcDbArc
 50
180.0
 51
270.0
  0
LINE
  5
10F
330
1F
100
AcDbEntity
  8
0
  6
Continuous
 62
     7
370
    15
100
AcDbLine
 10
278.390262517
 20
204.6335455239
 30
0.0
 11
278.390262517
 21
204.1835458226
 31
0.0
  0
LINE
  5
110
330
1F
100
AcDbEntity
  8
0
  6
Continuous
 62
     7
370
    15
100
AcDbLine
 10
278.390262517
 20
203.1835456587
 30
0.0
 11
278.390262517
 21
202.6948411226
 31
0.0
  0
LINE
  5
111
330
1F
100
AcDbEntity
  8
0
  6
Continuous
 62
     7
370
    15
100
AcDbLine
 10
278.390262517
 20
201.8987265624
 30
0.0
 11
278.390262517
 21
201.7430294514
 31
0.0
  0
LINE
  5
112
330
1F
100
AcDbEntity
  8
0
  6
Continuous
 62
     7
370
    15
100
AcDbLine
 10
278.390262517
 20
192.4439188302
 30
0.0
 11
278.390262517
 21
191.6835456364
 31
0.0
  0
LINE
  5
113
330
1F
100
AcDbEntity
  8
0
  6
Continuous
 62
     7
370
    15
100
AcDbLine
 10
278.390262517
 20
190.6835454725
 30
0.0
 11
278.390262517
 21
190.2335457712
 31
0.0
  0
LINE
  5
114
330
1F
100
AcDbEntity
  8
0
  6
Continuous
 62
     7
370
    15
100
AcDbLine
 10
281.3902611461
 20
190.2335457712
 30
0.0
 11
281.3902611461
 21
190.6835454725
 31
0.0
  0
LINE
  5
115
330
1F
100
AcDbEntity
  8
0
  6
Continuous
 62
     7
370
    15
100
AcDbLine
 10
281.3902611461
 20
191.6835456364
 30
0.0
 11
281.3902611461
 21
192.1706878789
 31
0.0
  0
LINE
  5
116
330
1F
100
AcDbEntity
  8
0
  6
Continuous
 62
     7
370
    15
100
AcDbLine
 10
281.3902611461
 20
201.4786050864
 30
0.0
 11
281.3902611461
 21
201.6665436536
 31
0.0
  0
LINE
  5
117
330
1F
100
AcDbEntity
  8
0
  6
Continuous
 62
     7
370
    15
100
AcDbLine
 10
281.3902611461
 20
202.4216227442
 30
0.0
 11
281.3902611461
 21
203.1835456587
 31
0.0
  0
LINE
  5
118
330
1F
100
AcDbEntity
  8
0
  6
Continuous
 62
     7
370
    15
100
AcDbLine
 10
281.3902611461
 20
204.1835458226
 30
0.0
 11
281.3902611461
 21
204.6335455239
 31
0.0
  0
LINE
  5
119
330
1F
100
AcDbEntity
  8
0
  6
Continuous
 62
     7
370
    15
100
AcDbLine
 10
292.988870534
 20
203.9335457817
 30
0.0
 11
292.988870534
 21
190.9335455134
 31
0.0
  0
LINE
  5
11A
330
1F
100
AcDbEntity
  8
0
  6
Continuous
 62
     7
370
    15
100
AcDbLine
 10
292.988870534
 20
203.9335457817
 30
0.0
 11
295.7078556147
 21
203.9335457817
 31
0.0
  0
LWPOLYLINE
  5
11B
330
1F
100
AcDbEntity
  8
0
  6
Continuous
 62
     7
370
    15
100
AcDbPolyline
 90
        9
 70
   128
 43
0.0
 10
296.4383701411
 20
202.7335454918
 10
296.4243332472
 20
202.9676539101
 10
296.3827590075
 20
203.1927657522
 10
296.3152567473
 20
203.4002299629
 10
296.2244043675
 20
203.5820739552
 10
296.113703641
 20
203.7313090846
 10
295.9874013987
 20
203.8422011979
 10
295.8503703204
 20
203.9104880974
 10
295.7078556147
 20
203.9335457817
  0
LINE
  5
11C
330
1F
100
AcDbEntity
  8
0
  6
Continuous
 62
     7
370
    15
100
AcDbLine
 10
296.4383701411
 20
202.7335454918
 30
0.0
 11
296.4383701411
 21
192.1335458033
 31
0.0
  0
LWPOLYLINE
  5
11D
330
1F
100
AcDbEntity
  8
0
  6
Continuous
 62
     7
370
    15
100
AcDbPolyline
 90
        9
 70
   128
 43
0.0
 10
295.7078556147
 20
190.9335455134
 10
295.8503703204
 20
190.9566031978
 10
295.9874013987
 20
191.0248900972
 10
296.113703641
 20
191.1357822105
 10
296.2244043675
 20
191.2850173399
 10
296.3152567473
 20
191.4668613322
 10
296.3827590075
 20
191.6743255429
 10
296.4243332472
 20
191.899437385
 10
296.4383701411
 20
192.1335458033
  0
LINE
  5
11E
330
1F
100
AcDbEntity
  8
0
  6
Continuous
 62
     7
370
    15
100
AcDbLine
 10
295.7078556147
 20
190.9335455134
 30
0.0
 11
292.988870534
 21
190.9335455134
 31
0.0
  0
LINE
  5
11F
330
1F
100
AcDbEntity
  8
0
  6
Continuous
 62
     7
370
    15
100
AcDbLine
 10
297.3903904286
 20
202.7335454918
 30
0.0
 11
296.4383701411
 21
202.7335454918
 31
0.0
  0
LINE
  5
120
330
1F
100
AcDbEntity
  8
0
  6
Continuous
 62
     7
370
    15
100
AcDbLine
 10
297.3903904286
 20
202.7335454918
 30
0.0
 11
297.3903904286
 21
192.1335458033
 31
0.0
  0
LINE
  5
121
330
1F
100
AcDbEntity
  8
0
  6
Continuous
 62
     7
370
    15
100
AcDbLine
 10
296.4383701411
 20
192.1335458033
 30
0.0
 11
297.3903904286
 21
192.1335458033
 31
0.0
  0
LINE
  5
122
330
1F
100
AcDbEntity
  8
0
  6
Continuous
 62
     7
370
    15
100
AcDbLine
 10
296.6598759022
 20
190.9335455134
 30
0.0
 11
295.7078556147
 21
190.9335455134
 31
0.0
  0
LWPOLYLINE
  5
123
330
1F
100
AcDbEntity
  8
0
  6
Continuous
 62
     7
370
    15
100
AcDbPolyline
 90
        9
 70
   128
 43
0.0
 10
297.3903904286
 20
192.1335458033
 10
297.3763535347
 20
191.899437385
 10
297.334779295
 20
191.6743255429
 10
297.2672770348
 20
191.4668613322
 10
297.176424655
 20
191.2850173399
 10
297.0657239285
 20
191.1357822105
 10
296.9394365874
 20
191.0248900972
 10
296.8023906079
 20
190.9566031978
 10
296.6598759022
 20
190.9335455134
  0
LINE
  5
124
330
1F
100
AcDbEntity
  8
0
  6
Continuous
 62
     7
370
    15
100
AcDbLine
 10
295.7078556147
 20
203.9335457817
 30
0.0
 11
296.6598759022
 21
203.9335457817
 31
0.0
  0
LWPOLYLINE
  5
125
330
1F
100
AcDbEntity
  8
0
  6
Continuous
 62
     7
370
    15
100
AcDbPolyline
 90
        9
 70
   128
 43
0.0
 10
296.6598759022
 20
203.9335457817
 10
296.8023906079
 20
203.9104880974
 10
296.9394365874
 20
203.8422011979
 10
297.0657239285
 20
203.7313090846
 10
297.176424655
 20
203.5820739552
 10
297.2672770348
 20
203.4002299629
 10
297.334779295
 20
203.1927657522
 10
297.3763535347
 20
202.9676539101
 10
297.3903904286
 20
202.7335454918
  0
LINE
  5
126
330
1F
100
AcDbEntity
  8
0
  6
Continuous
 62
     7
370
    15
100
AcDbLine
 10
292.4102584448
 20
203.9335457817
 30
0.0
 11
292.988870534
 21
203.9335457817
 31
0.0
  0
LINE
  5
127
330
1F
100
AcDbEntity
  8
0
  6
Continuous
 62
     7
370
    15
100
AcDbLine
 10
292.988870534
 20
190.9335455134
 30
0.0
 11
292.4102584448
 21
190.9335455134
 31
0.0
  0
LINE
  5
128
330
1F
100
AcDbEntity
  8
0
  6
Continuous
 62
     7
370
    15
100
AcDbLine
 10
302.510265502
 20
202.8335457876
 30
0.0
 11
301.0102550116
 21
202.8335457876
 31
0.0
  0
LINE
  5
129
330
1F
100
AcDbEntity
  8
0
  6
Continuous
 62
     7
370
    15
100
AcDbLine
 10
301.0102550116
 20
202.0335457496
 30
0.0
 11
302.510265502
 21
202.0335457496
 31
0.0
  0
LINE
  5
12A
330
1F
100
AcDbEntity
  8
0
  6
Continuous
 62
     7
370
    15
100
AcDbLine
 10
302.510265502
 20
202.0335457496
 30
0.0
 11
302.510265502
 21
200.5335457366
 31
0.0
  0
LINE
  5
12B
330
1F
100
AcDbEntity
  8
0
  6
Continuous
 62
     7
370
    15
100
AcDbLine
 10
302.510265502
 20
200.5335457366
 30
0.0
 11
303.310264143
 21
200.5335457366
 31
0.0
  0
LINE
  5
12C
330
1F
100
AcDbEntity
  8
0
  6
Continuous
 62
     7
370
    15
100
AcDbLine
 10
303.310264143
 20
200.5335457366
 30
0.0
 11
303.310264143
 21
202.0335457496
 31
0.0
  0
LINE
  5
12D
330
1F
100
AcDbEntity
  8
0
  6
Continuous
 62
     7
370
    15
100
AcDbLine
 10
304.8102597323
 20
202.0335457496
 30
0.0
 11
304.8102597323
 21
202.8335457876
 31
0.0
  0
LINE
  5
12E
330
1F
100
AcDbEntity
  8
0
  6
Continuous
 62
     7
370
    15
100
AcDbLine
 10
304.8102597323
 20
202.8335457876
 30
0.0
 11
303.310264143
 21
202.8335457876
 31
0.0
  0
LINE
  5
12F
330
1F
100
AcDbEntity
  8
0
  6
Continuous
 62
     7
370
    15
100
AcDbLine
 10
303.310264143
 20
202.8335457876
 30
0.0
 11
303.310264143
 21
204.3335455678
 31
0.0
  0
LINE
  5
130
330
1F
100
AcDbEntity
  8
0
  6
Continuous
 62
     7
370
    15
100
AcDbLine
 10
303.310264143
 20
204.3335455678
 30
0.0
 11
302.510265502
 21
204.3335455678
 31
0.0
  0
LINE
  5
131
330
1F
100
AcDbEntity
  8
0
  6
Continuous
 62
     7
370
    15
100
AcDbLine
 10
302.510265502
 20
204.3335455678
 30
0.0
 11
302.510265502
 21
202.8335457876
 31
0.0
  0
LINE
  5
132
330
1F
100
AcDbEntity
  8
0
  6
Continuous
 62
     7
370
    15
100
AcDbLine
 10
301.0102550116
 20
202.8335457876
 30
0.0
 11
301.0102550116
 21
202.0335457496
 31
0.0
  0
LINE
  5
133
330
1F
100
AcDbEntity
  8
0
  6
Continuous
 62
     7
370
    15
100
AcDbLine
 10
303.310264143
 20
202.0335457496
 30
0.0
 11
304.8102597323
 21
202.0335457496
 31
0.0
  0
CIRCLE
  5
134
330
1F
100
AcDbEntity
  8
0
  6
Continuous
 62
     7
370
    15
100
AcDbCircle
 10
302.9102618542
 20
202.4335456476
 30
0.0
 40
3.0
  0
LINE
  5
135
330
1F
100
AcDbEntity
  8
0
  6
Continuous
 62
     7
370
    15
100
AcDbLine
 10
302.510265502
 20
190.5335457273
 30
0.0
 11
303.310264143
 21
190.5335457273
 31
0.0
  0
LINE
  5
136
330
1F
100
AcDbEntity
  8
0
  6
Continuous
 62
     7
370
    15
100
AcDbLine
 10
303.310264143
 20
190.5335457273
 30
0.0
 11
303.310264143
 21
192.0335455075
 31
0.0
  0
LINE
  5
137
330
1F
100
AcDbEntity
  8
0
  6
Continuous
 62
     7
370
    15
100
AcDbLine
 10
303.310264143
 20
192.8335455455
 30
0.0
 11
303.310264143
 21
194.3335455585
 31
0.0
  0
LINE
  5
138
330
1F
100
AcDbEntity
  8
0
  6
Continuous
 62
     7
370
    15
100
AcDbLine
 10
303.310264143
 20
194.3335455585
 30
0.0
 11
302.510265502
 21
194.3335455585
 31
0.0
  0
LINE
  5
139
330
1F
100
AcDbEntity
  8
0
  6
Continuous
 62
     7
370
    15
100
AcDbLine
 10
302.510265502
 20
194.3335455585
 30
0.0
 11
302.510265502
 21
192.8335455455
 31
0.0
  0
LINE
  5
13A
330
1F
100
AcDbEntity
  8
0
  6
Continuous
 62
     7
370
    15
100
AcDbLine
 10
302.510265502
 20
192.0335455075
 30
0.0
 11
302.510265502
 21
190.5335457273
 31
0.0
  0
CIRCLE
  5
13B
330
1F
100
AcDbEntity
  8
0
  6
Continuous
 62
     7
370
    15
100
AcDbCircle
 10
302.9102618542
 20
192.4335456476
 30
0.0
 40
3.000000000000057
  0
LINE
  5
13C
330
1F
100
AcDbEntity
  8
0
  6
Continuous
 62
     7
370
    15
100
AcDbLine
 10
304.8102597323
 20
192.8335455455
 30
0.0
 11
303.310264143
 21
192.8335455455
 31
0.0
  0
LINE
  5
13D
330
1F
100
AcDbEntity
  8
0
  6
Continuous
 62
     7
370
    15
100
AcDbLine
 10
301.0102550116
 20
192.0335455075
 30
0.0
 11
302.510265502
 21
192.0335455075
 31
0.0
  0
LINE
  5
13E
330
1F
100
AcDbEntity
  8
0
  6
Continuous
 62
     7
370
    15
100
AcDbLine
 10
303.310264143
 20
192.0335455075
 30
0.0
 11
304.8102597323
 21
192.0335455075
 31
0.0
  0
LINE
  5
13F
330
1F
100
AcDbEntity
  8
0
  6
Continuous
 62
     7
370
    15
100
AcDbLine
 10
301.0102550116
 20
192.8335455455
 30
0.0
 11
301.0102550116
 21
192.0335455075
 31
0.0
  0
LINE
  5
140
330
1F
100
AcDbEntity
  8
0
  6
Continuous
 62
     7
370
    15
100
AcDbLine
 10
302.510265502
 20
192.8335455455
 30
0.0
 11
301.0102550116
 21
192.8335455455
 31
0.0
  0
LINE
  5
141
330
1F
100
AcDbEntity
  8
0
  6
Continuous
 62
     7
370
    15
100
AcDbLine
 10
304.8102597323
 20
192.0335455075
 30
0.0
 11
304.8102597323
 21
192.8335455455
 31
0.0
  0
LINE
  5
142
330
1F
100
AcDbEntity
  8
0
  6
Continuous
 62
     7
370
    15
100
AcDbLine
 10
296.9102601138
 20
203.9335457817
 30
0.0
 11
301.8924931612
 21
208.5354313463
 31
0.0
  0
ARC
  5
143
330
1F
100
AcDbEntity
  8
0
  6
Continuous
 62
     7
370
    15
100
AcDbCircle
 10
292.4102618542
 20
197.4335456476
 30
0.0
 40
16.00000000000001
100
AcDbArc
 50
316.3971810272
 51
43.6028189726
  0
ARC
  5
144
330
1F
100
AcDbEntity
  8
0
  6
Continuous
 62
     7
370
    15
100
AcDbCircle
 10
302.9102618542
 20
187.4335456475
 30
0.0
 40
1.500000000000032
100
AcDbArc
 50
227.2726046868
 51
316.3971810272
  0
ARC
  5
145
330
1F
100
AcDbEntity
  8
0
  6
Continuous
 62
     7
370
    15
100
AcDbCircle
 10
302.9102618542
 20
207.4335456475
 30
0.0
 40
1.499999999999994
100
AcDbArc
 50
43.6028189726
 51
132.7273953127
  0
LINE
  5
146
330
1F
100
AcDbEntity
  8
0
  6
Continuous
 62
     7
370
    15
100
AcDbLine
 10
301.8924931612
 20
186.3316599488
 30
0.0
 11
296.9102601138
 21
190.9335455134
 31
0.0
  0
LINE
  5
147
330
1F
100
AcDbEntity
  8
0
  6
Continuous
 62
     7
370
    15
100
AcDbLine
 10
296.7092583504
 20
203.9335457817
 30
0.0
 11
296.9102601138
 21
203.9335457817
 31
0.0
  0
LINE
  5
148
330
1F
100
AcDbEntity
  8
0
  6
Continuous
 62
     7
370
    15
100
AcDbLine
 10
296.9102601138
 20
190.9335455134
 30
0.0
 11
296.7092583504
 21
190.9335455134
 31
0.0
  0
LINE
  5
149
330
1F
100
AcDbEntity
  8
0
  6
Continuous
 62
     7
370
    15
100
AcDbLine
 10
304.9102614251
 20
62.4335402831
 30
0.0
 11
304.9102614251
 21
47.4335396871
 31
0.0
  0
LINE
  5
14A
330
1F
100
AcDbEntity
  8
0
  6
Continuous
 62
     7
370
    15
100
AcDbLine
 10
304.9102614251
 20
62.4335402831
 30
0.0
 11
319.9102620211
 21
62.4335402831
 31
0.0
  0
ARC
  5
14B
330
1F
100
AcDbEntity
  8
0
  6
Continuous
 62
     7
370
    15
100
AcDbCircle
 10
304.9102618542
 20
62.4335456476
 30
0.0
 40
14.99999999999999
100
AcDbArc
 50
270.0
 51
0.0
  0
LINE
  5
14C
330
1F
100
AcDbEntity
  8
0
  6
Continuous
 62
     7
370
    15
100
AcDbLine
 10
304.9102614251
 20
187.4460535333
 30
0.0
 11
304.9102614251
 21
62.4335402831
 31
0.0
  0
LINE
  5
14D
330
1F
100
AcDbEntity
  8
0
  6
Continuous
 62
     7
370
    15
100
AcDbLine
 10
304.9102614251
 20
207.4210377619
 30
0.0
 11
304.9102614251
 21
332.433551012
 31
0.0
  0
LINE
  5
14E
330
1F
100
AcDbEntity
  8
0
  6
Continuous
 62
     7
370
    15
100
AcDbLine
 10
304.9102614251
 20
332.433551012
 30
0.0
 11
319.9102620211
 21
332.433551012
 31
0.0
  0
LINE
  5
14F
330
1F
100
AcDbEntity
  8
0
  6
Continuous
 62
     7
370
    15
100
AcDbLine
 10
319.9102620211
 20
62.4335402831
 30
0.0
 11
319.9102620211
 21
332.433551012
 31
0.0
  0
LINE
  5
150
330
1F
100
AcDbEntity
  8
0
  6
Continuous
 62
     7
370
    15
100
AcDbLine
 10
299.9102661934
 20
47.4335396871
 30
0.0
 11
304.9102614251
 21
47.4335396871
 31
0.0
  0
LINE
  5
151
330
1F
100
AcDbEntity
  8
0
  6
Continuous
 62
     7
370
    15
100
AcDbLine
 10
299.9102661934
 20
62.4335402831
 30
0.0
 11
304.9102614251
 21
62.4335402831
 31
0.0
  0
LINE
  5
152
330
1F
100
AcDbEntity
  8
0
  6
Continuous
 62
     7
370
    15
100
AcDbLine
 10
299.9102661934
 20
62.4335402831
 30
0.0
 11
299.9102661934
 21
47.4335396871
 31
0.0
  0
LINE
  5
153
330
1F
100
AcDbEntity
  8
0
  6
Continuous
 62
     7
370
    15
100
AcDbLine
 10
299.9102661934
 20
188.1625684187
 30
0.0
 11
299.9102661934
 21
62.4335402831
 31
0.0
  0
LINE
  5
154
330
1F
100
AcDbEntity
  8
0
  6
Continuous
 62
     7
370
    15
100
AcDbLine
 10
299.9102661934
 20
332.433551012
 30
0.0
 11
304.9102614251
 21
332.433551012
 31
0.0
  0
LINE
  5
155
330
1F
100
AcDbEntity
  8
0
  6
Continuous
 62
     7
370
    15
100
AcDbLine
 10
299.9102661934
 20
347.433551608
 30
0.0
 11
304.9102614251
 21
347.433551608
 31
0.0
  0
LINE
  5
156
330
1F
100
AcDbEntity
  8
0
  6
Continuous
 62
     7
370
    15
100
AcDbLine
 10
304.9102614251
 20
332.433551012
 30
0.0
 11
304.9102614251
 21
347.433551608
 31
0.0
  0
LINE
  5
157
330
1F
100
AcDbEntity
  8
0
  6
Continuous
 62
     7
370
    15
100
AcDbLine
 10
299.9102661934
 20
332.433551012
 30
0.0
 11
299.9102661934
 21
347.433551608
 31
0.0
  0
LINE
  5
158
330
1F
100
AcDbEntity
  8
0
  6
Continuous
 62
     7
370
    15
100
AcDbLine
 10
299.9102661934
 20
206.7045228764
 30
0.0
 11
299.9102661934
 21
332.433551012
 31
0.0
  0
ARC
  5
159
330
1F
100
AcDbEntity
  8
0
  6
Continuous
 62
     7
370
    15
100
AcDbCircle
 10
304.9102618542
 20
332.4335456476
 30
0.0
 40
15.0
100
AcDbArc
 50
0.0
 51
90.0
  0
SPLINE
  5
15A
330
1F
100
AcDbEntity
  8
0
  6
Continuous
 62
     7
370
    15
100
AcDbSpline
210
0.0
220
0.0
230
1.0
 70
     8
 71
     3
 72
    16
 73
    12
 74
     0
 42
0.00000001
 43
0.00000001
 40
0.0
 40
0.0
 40
0.0
 40
0.0
 40
0.1207070428064245
 40
0.2414137044325139
 40
0.362118282325166
 40
0.4828243664540374
 40
0.6035303497556166
 40
0.7242372755897817
 40
0.8449422991791885
 40
0.965648579102772
 40
1.0
 40
1.0
 40
1.0
 40
1.0
 10
278.0625636306199
 20
184.4811741471258
 30
0.0
 10
278.0819646218621
 20
184.4838464701938
 30
0.0
 10
278.1207665430804
 20
184.4891911078907
 30
0.0
 10
278.1256887811966
 20
184.7801328243879
 30
0.0
 10
278.0884778375603
 20
185.2334832167977
 30
0.0
 10
278.0115622488034
 20
185.8010032434398
 30
0.0
 10
277.9077476946967
 20
186.3893315887032
 30
0.0
 10
277.7916402481658
 20
186.9160241205691
 30
0.0
 10
277.6846432620792
 20
187.2793158698386
 30
0.0
 10
277.6120666939323
 20
187.4497805799391
 30
0.0
 10
277.5925163413006
 20
187.4166300127081
 30
0.0
 10
277.5881851640137
 20
187.4092858493295
 30
0.0
  0
SPLINE
  5
15B
330
1F
100
AcDbEntity
  8
0
  6
Continuous
 62
     7
370
    15
100
AcDbSpline
210
0.0
220
0.0
230
1.0
 70
     8
 71
     3
 72
    16
 73
    12
 74
     0
 42
0.00000001
 43
0.00000001
 40
0.0
 40
0.0
 40
0.0
 40
0.0
 40
0.1205802291477629
 40
0.241162886971151
 40
0.361745602078447
 40
0.4823270431662671
 40
0.6029091299325076
 40
0.7234904747922106
 40
0.8440739268470613
 40
0.9646562545538607
 40
0.9999999999999999
 40
0.9999999999999999
 40
0.9999999999999999
 40
0.9999999999999999
 10
278.2331446733864
 20
210.3571979537573
 30
0.0
 10
278.252549969602
 20
210.3545251224689
 30
0.0
 10
278.2913609528865
 20
210.3491794060571
 30
0.0
 10
278.2962628041321
 20
210.0582357775242
 30
0.0
 10
278.2590732482639
 20
209.6048958749753
 30
0.0
 10
278.1821402326173
 20
209.0373679872729
 30
0.0
 10
278.0783263740631
 20
208.4490357520474
 30
0.0
 10
277.9622358851027
 20
207.9223790038228
 30
0.0
 10
277.8552055883381
 20
207.5589072274698
 30
0.0
 10
277.7824553450774
 20
207.3883593055551
 30
0.0
 10
277.7628034639495
 20
207.4219447026078
 30
0.0
 10
277.7583489742669
 20
207.4295575007764
 30
0.0
  0
SPLINE
  5
15C
330
1F
100
AcDbEntity
  8
0
  6
Continuous
 62
     7
370
    15
100
AcDbSpline
210
0.0
220
0.0
230
1.0
 70
     8
 71
     3
 72
    16
 73
    12
 74
     0
 42
0.00000001
 43
0.00000001
 40
0.0
 40
0.0
 40
0.0
 40
0.0
 40
0.1205148478020363
 40
0.2410323587825712
 40
0.36154977106122
 40
0.4820655673932582
 40
0.6025826668731772
 40
0.7230987590871006
 40
0.8436172367068354
 40
0.9641338966220048
 40
1.0
 40
1.0
 40
1.0
 40
1.0
 10
293.6035285320672
 20
187.0975926727024
 30
0.0
 10
293.6229294697875
 20
187.1002654318108
 30
0.0
 10
293.6617317739568
 20
187.1056110090912
 30
0.0
 10
293.6666542519376
 20
187.3965562511966
 30
0.0
 10
293.6294398755072
 20
187.8498935782131
 30
0.0
 10
293.5525409790037
 20
188.4174233811316
 30
0.0
 10
293.4487036150981
 20
189.0057594702655
 30
0.0
 10
293.3326296139225
 20
189.5323911061514
 30
0.0
 10
293.2255562710597
 20
189.8959621927173
 30
0.0
 10
293.1527496315636
 20
190.0665556390913
 30
0.0
 10
293.1330316084089
 20
190.0327407723006
 30
0.0
 10
293.1285093155297
 20
190.0249853938785
 30
0.0
  0
SPLINE
  5
15D
330
1F
100
AcDbEntity
  8
0
  6
Continuous
 62
     7
370
    15
100
AcDbSpline
210
0.0
220
0.0
230
1.0
 70
     8
 71
     3
 72
    16
 73
    12
 74
     0
 42
0.00000001
 43
0.00000001
 40
0.0
 40
0.0
 40
0.0
 40
0.0
 40
0.1205148134883834
 40
0.2410322014039964
 40
0.3615495793682622
 40
0.4820659143048517
 40
0.6025824479676901
 40
0.7230985058676063
 40
0.8436169491726547
 40
0.9641311127312384
 40
0.9999999999999999
 40
0.9999999999999999
 40
0.9999999999999999
 40
0.9999999999999999
 10
293.7741170254143
 20
207.7407794281808
 30
0.0
 10
293.7935181145621
 20
207.7381065720855
 30
0.0
 10
293.8323207073021
 20
207.7327608027976
 30
0.0
 10
293.8372409322206
 20
207.4418171911297
 30
0.0
 10
293.8000350931496
 20
206.9884777474444
 30
0.0
 10
293.7231039813306
 20
206.4209520275732
 30
0.0
 10
293.6192995991366
 20
205.8326107681717
 30
0.0
 10
293.5032128210613
 20
205.3059811971359
 30
0.0
 10
293.3961589769763
 20
204.9424126626411
 30
0.0
 10
293.3233045728155
 20
204.7718166878754
 30
0.0
 10
293.3036141206262
 20
204.8056312714905
 30
0.0
 10
293.2990978088769
 20
204.8133871726659
 30
0.0
  0
SPLINE
  5
15E
330
1F
100
AcDbEntity
  8
0
  6
Continuous
 62
     7
370
    15
100
AcDbSpline
210
0.0
220
0.0
230
1.0
 70
    24
 71
     3
 72
    16
 73
    12
 74
     0
 42
0.00000001
 43
0.00000001
 40
0.0
 40
0.0
 40
0.0
 40
0.0
 40
0.0611072658103903
 40
0.1864685567105957
 40
0.3118332828610396
 40
0.437195919861042
 40
0.5625575982301341
 40
0.6879218439160338
 40
0.8132843021357672
 40
0.9386469391357697
 40
1.0
 40
1.0
 40
1.0
 40
1.0
 10
296.6804544058236
 20
190.5673098958996
 30
0.0
 10
296.6862214277245
 20
190.5673098958996
 30
0.0
 10
296.7038194700544
 20
190.5673098958996
 30
0.0
 10
296.4854176183355
 20
190.5673098958996
 30
0.0
 10
296.0726574935405
 20
190.5673098958996
 30
0.0
 10
295.5161975546329
 20
190.5673098958996
 30
0.0
 10
294.9170957516952
 20
190.5673098958996
 30
0.0
 10
294.3583820691834
 20
190.5673098958996
 30
0.0
 10
293.9414475669213
 20
190.5673098958996
 30
0.0
 10
293.7184555761004
 20
190.5673098958996
 30
0.0
 10
293.7332533933391
 20
190.5673098958996
 30
0.0
 10
293.73811581997
 20
190.5673098958996
 30
0.0
  0
SPLINE
  5
15F
330
1F
100
AcDbEntity
  8
0
  6
Continuous
 62
     7
370
    15
100
AcDbSpline
210
0.0
220
0.0
230
1.0
 70
    24
 71
     3
 72
    16
 73
    12
 74
     0
 42
0.00000001
 43
0.00000001
 40
0.0
 40
0.0
 40
0.0
 40
0.0
 40
0.0610097057000779
 40
0.1861708524569159
 40
0.3113354289794829
 40
0.4364979196870177
 40
0.5616594532941334
 40
0.6868235501192362
 40
0.8119858623319317
 40
0.9371483530394665
 40
1.0
 40
1.0
 40
1.0
 40
1.0
 10
296.6804544058236
 20
204.1259407274392
 30
0.0
 10
296.6862214215157
 20
204.1259407274392
 30
0.0
 10
296.703819444899
 20
204.1259407274392
 30
0.0
 10
296.4854178515502
 20
204.1259407274392
 30
0.0
 10
296.072656639056
 20
204.1259407274392
 30
0.0
 10
295.5162007392787
 20
204.1259407274392
 30
0.0
 10
294.9170838675697
 20
204.1259407274392
 30
0.0
 10
294.3584264217944
 20
204.1259407274392
 30
0.0
 10
293.9412820434429
 20
204.1259407274392
 30
0.0
 10
293.7178007256708
 20
204.1259407274392
 30
0.0
 10
293.733003762163
 20
204.1259407274392
 30
0.0
 10
293.7380860176476
 20
204.1259407274392
 30
0.0
  0
SPLINE
  5
160
330
1F
100
AcDbEntity
  8
0
  6
Continuous
 62
     7
370
    15
100
AcDbSpline
210
0.0
220
0.0
230
1.0
 70
     8
 71
     3
 72
    19
 73
    15
 74
     0
 42
0.00000001
 43
0.00000001
 40
0.0
 40
0.0
 40
0.0
 40
0.0
 40
0.0039549776378648
 40
0.1157677199366972
 40
0.2280449053829162
 40
0.3355201711885925
 40
0.4377087198385091
 40
0.5348831260867358
 40
0.628304564211407
 40
0.7302987403351634
 40
0.8413366346615325
 40
0.9641210806095101
 40
0.9937658844715932
 40
1.0
 40
1.0
 40
1.0
 40
1.0
 10
283.00853470234
 20
203.0335454478827
 30
0.0
 10
283.008929491465
 20
203.0335398351839
 30
0.0
 10
283.0204855206122
 20
203.0333755436484
 30
0.0
 10
283.0437131930549
 20
203.0182444225635
 30
0.0
 10
283.0872163130815
 20
202.9513497843172
 30
0.0
 10
283.1251904830255
 20
202.8466513588126
 30
0.0
 10
283.1486866787877
 20
202.7215757027977
 30
0.0
 10
283.1600115035235
 20
202.5931398795259
 30
0.0
 10
283.1606209985579
 20
202.4719647102723
 30
0.0
 10
283.1448343882282
 20
202.3627402453534
 30
0.0
 10
283.1044597755684
 20
202.2733226487074
 30
0.0
 10
283.052591700441
 20
202.2382682924604
 30
0.0
 10
283.0178876130312
 20
202.2336587573291
 30
0.0
 10
283.00991924102
 20
202.233562585766
 30
0.0
 10
283.00853470234
 20
202.233545875546
 30
0.0
  0
SPLINE
  5
161
330
1F
100
AcDbEntity
  8
0
  6
Continuous
 62
     7
370
    15
100
AcDbSpline
210
0.0
220
0.0
230
1.0
 70
     8
 71
     3
 72
    30
 73
    26
 74
     0
 42
0.00000001
 43
0.00000001
 40
0.0
 40
0.0
 40
0.0
 40
0.0
 40
0.1247101350178456
 40
0.2494120074117842
 40
0.3741270138621569
 40
0.4367848053677046
 40
0.4681540445569458
 40
0.483841760203463
 40
0.4916884763780781
 40
0.4956128155993287
 40
0.4975718017968226
 40
0.4985512768059792
 40
0.4990412458894969
 40
0.4992860713214644
 40
0.4994085274245891
 40
0.4994755181334227
 40
0.4995061105324881
 40
0.4995185841155532
 40
0.4995368262351859
 40
0.5609177874858622
 40
0.6646245350065487
 40
0.7325819853722026
 40
0.8111453701247551
 40
0.9002973735135731
 40
1.0
 40
1.0
 40
1.0
 40
1.0
 10
283.0802390900048
 20
203.0934374056724
 30
0.0
 10
283.086002848383
 20
203.0916448357779
 30
0.0
 10
283.0975299832638
 20
203.0880598147549
 30
0.0
 10
283.1873809285881
 20
203.0662167216038
 30
0.0
 10
283.2948521968011
 20
203.0405386445668
 30
0.0
 10
283.3804056918395
 20
203.0201273065353
 30
0.0
 10
283.4245079296842
 20
203.009592293132
 30
0.0
 10
283.4467336235027
 20
203.0042734200364
 30
0.0
 10
283.4578671051532
 20
203.0016077449671
 30
0.0
 10
283.4634374251514
 20
203.0002753522988
 30
0.0
 10
283.4662211298055
 20
202.9996063910548
 30
0.0
 10
283.4676125855579
 20
202.9992741676577
 30
0.0
 10
283.4683072501383
 20
202.9991054565675
 30
0.0
 10
283.4686554167641
 20
202.9990236900885
 30
0.0
 10
283.4688312493533
 20
202.9989797595948
 30
0.0
 10
283.4689209432311
 20
202.998960477364
 30
0.0
 10
283.4689660436139
 20
202.9989513994409
 30
0.0
 10
283.4689902195348
 20
202.9989428780044
 30
0.0
 10
283.4942861068699
 20
202.9945347867124
 30
0.0
 10
283.5610007736329
 20
202.9769628397863
 30
0.0
 10
283.6522568257111
 20
202.9591147197287
 30
0.0
 10
283.7357256439004
 20
202.9414671522516
 30
0.0
 10
283.7992938024486
 20
202.9287189851438
 30
0.0
 10
283.8497929912018
 20
202.9190284205002
 30
0.0
 10
283.8570255577975
 20
202.9185735408731
 30
0.0
 10
283.8608438697251
 20
202.9183333948222
 30
0.0
  0
ELLIPSE
  5
162
330
1F
100
AcDbEntity
  8
0
  6
Continuous
 62
     7
370
    15
100
AcDbEllipse
 10
283.737370248
 20
204.2155208263
 30
0.0
 11
0.3906095144046163
 21
-0.0861638396116291
 31
0.0
210
0.0
220
0.0
230
1.0
 40
0.0142285888
 41
0.0
 42
6.283185307179586
  0
LINE
  5
163
330
1F
100
AcDbEntity
  8
0
  6
Continuous
 62
     7
370
    15
100
AcDbLine
 10
283.121187481
 20
192.7335457154
 30
0.0
 11
283.121187481
 21
201.3335455418
 31
0.0
  0
LINE
  5
164
330
1F
100
AcDbEntity
  8
0
  6
Continuous
 62
     7
370
    15
100
AcDbLine
 10
277.6068935719
 20
192.7335457154
 30
0.0
 11
277.6068935719
 21
201.3335455418
 31
0.0
  0
LINE
  5
165
330
1F
100
AcDbEntity
  8
0
  6
Continuous
 62
     7
370
    15
100
AcDbLine
 10
283.121187481
 20
201.3335455418
 30
0.0
 11
277.6068935719
 21
201.3335455418
 31
0.0
  0
LINE
  5
166
330
1F
100
AcDbEntity
  8
0
  6
Continuous
 62
     7
370
    15
100
AcDbLine
 10
283.121187481
 20
192.7335457154
 30
0.0
 11
277.6068935719
 21
192.7335457154
 31
0.0
  0
LINE
  5
167
330
1F
100
AcDbEntity
  8
0
  6
Continuous
 62
     7
370
    15
100
AcDbLine
 10
276.4926368919
 20
204.6335455239
 30
0.0
 11
251.6805271235
 21
204.6335455239
 31
0.0
  0
LINE
  5
168
330
1F
100
AcDbEntity
  8
0
  6
Continuous
 62
     7
370
    15
100
AcDbLine
 10
276.4926368919
 20
201.3335455418
 30
0.0
 11
276.4926368919
 21
204.6335455239
 31
0.0
  0
LINE
  5
169
330
1F
100
AcDbEntity
  8
0
  6
Continuous
 62
     7
370
    15
100
AcDbLine
 10
276.4926368919
 20
190.2335457712
 30
0.0
 11
276.4926368919
 21
192.7335457154
 31
0.0
  0
LINE
  5
16A
330
1F
100
AcDbEntity
  8
0
  6
Continuous
 62
     7
370
    15
100
AcDbLine
 10
251.6805271235
 20
190.2335457712
 30
0.0
 11
276.4926368919
 21
190.2335457712
 31
0.0
  0
LINE
  5
16B
330
1F
100
AcDbEntity
  8
0
  6
Continuous
 62
     7
370
    15
100
AcDbLine
 10
251.6805271235
 20
190.2335457712
 30
0.0
 11
251.6805271235
 21
204.6335455239
 31
0.0
  0
LINE
  5
16C
330
1F
100
AcDbEntity
  8
0
  6
Continuous
 62
     7
370
    15
100
AcDbLine
 10
276.4926368919
 20
201.3335455418
 30
0.0
 11
277.6068935719
 21
201.3335455418
 31
0.0
  0
LINE
  5
16D
330
1F
100
AcDbEntity
  8
0
  6
Continuous
 62
     7
370
    15
100
AcDbLine
 10
276.4926368919
 20
192.7335457154
 30
0.0
 11
277.6068935719
 21
192.7335457154
 31
0.0
  0
LINE
  5
16E
330
1F
100
AcDbEntity
  8
0
  6
Continuous
 62
     7
370
    15
100
AcDbLine
 10
278.5124967423
 20
205.4308964148
 30
0.0
 11
276.6202653375
 21
205.4308964148
 31
0.0
  0
ARC
  5
16F
330
1F
100
AcDbEntity
  8
0
  6
Continuous
 62
     7
370
    15
100
AcDbCircle
 10
277.9668886394
 20
204.8064584463
 30
0.0
 40
1.484357468314245
100
AcDbArc
 50
155.1225389752
 51
186.6895781293
  0
ARC
  5
170
330
1F
100
AcDbEntity
  8
0
  6
Continuous
 62
     7
370
    15
100
AcDbCircle
 10
252.9364752413
 20
204.8275073207
 30
0.0
 40
1.270837067952021
100
AcDbArc
 50
151.5180738401
 51
188.7790931251
  0
LINE
  5
171
330
1F
100
AcDbEntity
  8
0
  6
Continuous
 62
     7
370
    15
100
AcDbLine
 10
251.8194506493
 20
205.4335460275
 30
0.0
 11
279.1852469173
 21
205.4335460275
 31
0.0
  0
LINE
  5
172
330
1F
100
AcDbEntity
  8
0
  6
Continuous
 62
     7
370
    15
100
AcDbLine
 10
279.1852469173
 20
205.4335460275
 30
0.0
 11
278.5124967423
 21
205.4308964148
 31
0.0
  0
LINE
  5
173
330
1F
100
AcDbEntity
  8
0
  6
Continuous
 62
     7
370
    15
100
AcDbLine
 10
276.6202653375
 20
189.4361948803
 30
0.0
 11
278.5124967423
 21
189.4361948803
 31
0.0
  0
LINE
  5
174
330
1F
100
AcDbEntity
  8
0
  6
Continuous
 62
     7
370
    15
100
AcDbLine
 10
278.5124967423
 20
189.4361948803
 30
0.0
 11
279.1852469173
 21
189.4335452676
 31
0.0
  0
LINE
  5
175
330
1F
100
AcDbEntity
  8
0
  6
Continuous
 62
     7
370
    15
100
AcDbLine
 10
279.1852469173
 20
189.4335452676
 30
0.0
 11
251.8194506493
 21
189.4335452676
 31
0.0
  0
ARC
  5
176
330
1F
100
AcDbEntity
  8
0
  6
Continuous
 62
     7
370
    15
100
AcDbCircle
 10
252.9364752413
 20
190.0395839744
 30
0.0
 40
1.270837067952021
100
AcDbArc
 50
171.2209068749
 51
208.4819261599
  0
ARC
  5
177
330
1F
100
AcDbEntity
  8
0
  6
Continuous
 62
     7
370
    15
100
AcDbCircle
 10
277.9668886394
 20
190.0606328489
 30
0.0
 40
1.484357468314249
100
AcDbArc
 50
173.3104218707
 51
204.8774610248
  0
LINE
  5
178
330
1F
100
AcDbEntity
  8
0
  6
Continuous
 62
     7
370
    15
100
AcDbLine
 10
276.6202653375
 20
204.6335455239
 30
0.0
 11
276.6202653375
 21
205.4308964148
 31
0.0
  0
LINE
  5
179
330
1F
100
AcDbEntity
  8
0
  6
Continuous
 62
     7
370
    15
100
AcDbLine
 10
276.6315604177
 20
204.6335455239
 30
0.0
 11
276.6315604177
 21
201.3335455418
 31
0.0
  0
LINE
  5
17A
330
1F
100
AcDbEntity
  8
0
  6
Continuous
 62
     7
370
    15
100
AcDbLine
 10
276.6202653375
 20
189.4361948803
 30
0.0
 11
276.6202653375
 21
190.2335457712
 31
0.0
  0
LINE
  5
17B
330
1F
100
AcDbEntity
  8
0
  6
Continuous
 62
     7
370
    15
100
AcDbLine
 10
276.6315604177
 20
192.7335457154
 30
0.0
 11
276.6315604177
 21
190.2335457712
 31
0.0
  0
LINE
  5
17C
330
1F
100
AcDbEntity
  8
0
  6
Continuous
 62
     7
370
    15
100
AcDbLine
 10
278.5124967423
 20
204.6335455239
 30
0.0
 11
278.5124967423
 21
205.4308964148
 31
0.0
  0
LINE
  5
17D
330
1F
100
AcDbEntity
  8
0
  6
Continuous
 62
     7
370
    15
100
AcDbLine
 10
282.6202625957
 20
205.4335460275
 30
0.0
 11
279.1852469173
 21
205.4335460275
 31
0.0
  0
LINE
  5
17E
330
1F
100
AcDbEntity
  8
0
  6
Continuous
 62
     7
370
    15
100
AcDbLine
 10
282.6202625957
 20
204.6335455239
 30
0.0
 11
278.5124967423
 21
204.6335455239
 31
0.0
  0
LINE
  5
17F
330
1F
100
AcDbEntity
  8
0
  6
Continuous
 62
     7
370
    15
100
AcDbLine
 10
282.6202625957
 20
189.4335452676
 30
0.0
 11
279.1852469173
 21
189.4335452676
 31
0.0
  0
LINE
  5
180
330
1F
100
AcDbEntity
  8
0
  6
Continuous
 62
     7
370
    15
100
AcDbLine
 10
278.5124967423
 20
189.4361948803
 30
0.0
 11
278.5124967423
 21
190.2335457712
 31
0.0
  0
LINE
  5
181
330
1F
100
AcDbEntity
  8
0
  6
Continuous
 62
     7
370
    15
100
AcDbLine
 10
282.6202625957
 20
190.2335457712
 30
0.0
 11
278.5124967423
 21
190.2335457712
 31
0.0
  0
LINE
  5
182
330
1F
100
AcDbEntity
  8
0
  6
Continuous
 62
     7
370
    15
100
AcDbLine
 10
276.6202653375
 20
204.6335455239
 30
0.0
 11
278.5124967423
 21
204.6335455239
 31
0.0
  0
LINE
  5
183
330
1F
100
AcDbEntity
  8
0
  6
Continuous
 62
     7
370
    15
100
AcDbLine
 10
276.6202653375
 20
190.2335457712
 30
0.0
 11
278.5124967423
 21
190.2335457712
 31
0.0
  0
LINE
  5
184
330
1F
100
AcDbEntity
  8
0
  6
Continuous
 62
     7
370
    15
100
AcDbLine
 10
277.6902655688
 20
205.7335455179
 30
0.0
 11
282.0902655449
 21
205.7335455179
 31
0.0
  0
LINE
  5
185
330
1F
100
AcDbEntity
  8
0
  6
Continuous
 62
     7
370
    15
100
AcDbLine
 10
277.790259811
 20
189.0335459471
 30
0.0
 11
281.9902638522
 21
189.0335459471
 31
0.0
  0
LINE
  5
186
330
1F
100
AcDbEntity
  8
0
  6
Continuous
 62
     7
370
    15
100
AcDbLine
 10
277.790259811
 20
188.6335456952
 30
0.0
 11
281.9902638522
 21
188.6335456952
 31
0.0
  0
LINE
  5
187
330
1F
100
AcDbEntity
  8
0
  6
Continuous
 62
     7
370
    15
100
AcDbLine
 10
246.781680974
 20
204.6335455239
 30
0.0
 11
244.7922045913
 21
204.6335455239
 31
0.0
  0
LINE
  5
188
330
1F
100
AcDbEntity
  8
0
  6
Continuous
 62
     7
370
    15
100
AcDbLine
 10
246.781680974
 20
190.2335457712
 30
0.0
 11
246.781680974
 21
204.6335455239
 31
0.0
  0
LINE
  5
189
330
1F
100
AcDbEntity
  8
0
  6
Continuous
 62
     7
370
    15
100
AcDbLine
 10
244.7922045913
 20
190.2335457712
 30
0.0
 11
246.781680974
 21
190.2335457712
 31
0.0
  0
ARC
  5
18A
330
1F
100
AcDbEntity
  8
0
  6
Continuous
 62
     7
370
    15
100
AcDbCircle
 10
260.0861617622
 20
197.4335456476
 30
0.0
 40
16.90399728363023
100
AcDbArc
 50
154.7901555355
 51
205.2098444645
  0
SPLINE
  5
18B
330
1F
100
AcDbEntity
  8
0
  6
Continuous
 62
     7
370
    15
100
AcDbSpline
210
0.0
220
0.0
230
1.0
 70
     8
 71
     3
 72
    12
 73
     8
 74
     0
 42
0.00000001
 43
0.00000001
 40
0.0
 40
0.0
 40
0.0
 40
0.0
 40
0.1818726160796446
 40
0.3633444960054099
 40
0.555080703869878
 40
0.7712620712687422
 40
1.0
 40
1.0
 40
1.0
 40
1.0
 10
244.9245790567788
 20
189.4335452675787
 30
0.0
 10
244.9484404084982
 20
189.4408669100826
 30
0.0
 10
244.9961105360931
 20
189.4554940626626
 30
0.0
 10
245.0108396556261
 20
189.5674840202589
 30
0.0
 10
244.9836241777774
 20
189.7368760293787
 30
0.0
 10
244.9119405687305
 20
189.9652994724791
 30
0.0
 10
244.8328605190734
 20
190.1424636889808
 30
0.0
 10
244.7922045913132
 20
190.2335457712379
 30
0.0
  0
LINE
  5
18C
330
1F
100
AcDbEntity
  8
0
  6
Continuous
 62
     7
370
    15
100
AcDbLine
 10
244.5402185049
 20
190.1880446099
 30
0.0
 11
244.8946575251
 21
189.4335452676
 31
0.0
  0
ARC
  5
18D
330
1F
100
AcDbEntity
  8
0
  6
Continuous
 62
     7
370
    15
100
AcDbCircle
 10
259.8108789235
 20
197.4335456476
 30
0.0
 40
16.90237719687144
100
AcDbArc
 50
154.6169692401
 51
205.3830307599
  0
LINE
  5
18E
330
1F
100
AcDbEntity
  8
0
  6
Continuous
 62
     7
370
    15
100
AcDbLine
 10
244.8946575251
 20
205.4335460275
 30
0.0
 11
244.5402185049
 21
204.6790466852
 31
0.0
  0
SPLINE
  5
18F
330
1F
100
AcDbEntity
  8
0
  6
Continuous
 62
     7
370
    15
100
AcDbSpline
210
0.0
220
0.0
230
1.0
 70
     8
 71
     3
 72
    12
 73
     8
 74
     0
 42
0.00000001
 43
0.00000001
 40
0.0
 40
0.0
 40
0.0
 40
0.0
 40
0.251021990599481
 40
0.5023977458077202
 40
0.7402765908566765
 40
0.9473178514528033
 40
1.0
 40
1.0
 40
1.0
 40
1.0
 10
244.7922045913132
 20
204.6335455238786
 30
0.0
 10
244.8365222301941
 20
204.7334276416082
 30
0.0
 10
244.9252199646838
 20
204.9333326406644
 30
0.0
 10
245.0002141957947
 20
205.192067720017
 30
0.0
 10
245.0117032884739
 20
205.3693015405393
 30
0.0
 10
244.9700694972321
 20
205.4297447643749
 30
0.0
 10
244.9322502843944
 20
205.4329050059373
 30
0.0
 10
244.9245790567788
 20
205.4335460275379
 30
0.0
  0
LINE
  5
190
330
1F
100
AcDbEntity
  8
0
  6
Continuous
 62
     7
370
    15
100
AcDbLine
 10
244.9245790568
 20
189.4335452676
 30
0.0
 11
244.8946575251
 21
189.4335452676
 31
0.0
  0
LINE
  5
191
330
1F
100
AcDbEntity
  8
0
  6
Continuous
 62
     7
370
    15
100
AcDbLine
 10
244.9245790568
 20
205.4335460275
 30
0.0
 11
244.8946575251
 21
205.4335460275
 31
0.0
  0
LWPOLYLINE
  5
192
330
1F
100
AcDbEntity
  8
0
  6
Continuous
 62
     7
370
    15
100
AcDbPolyline
 90
        9
 70
   128
 43
0.0
 10
246.781680974
 20
204.6335455239
 10
246.7764208641
 20
204.7896179579
 10
246.7608491507
 20
204.9396922089
 10
246.7355693307
 20
205.0780019931
 10
246.7015425291
 20
205.1992308557
 10
246.6600800481
 20
205.2987212524
 10
246.6127688613
 20
205.3726496384
 10
246.5614418116
 20
205.4181736171
 10
246.5080658522
 20
205.4335460275
  0
LINE
  5
193
330
1F
100
AcDbEntity
  8
0
  6
Continuous
 62
     7
370
    15
100
AcDbLine
 10
244.9245790568
 20
205.4335460275
 30
0.0
 11
246.5080658522
 21
205.4335460275
 31
0.0
  0
LWPOLYLINE
  5
194
330
1F
100
AcDbEntity
  8
0
  6
Continuous
 62
     7
370
    15
100
AcDbPolyline
 90
        9
 70
   128
 43
0.0
 10
246.781680974
 20
190.2335457712
 10
246.7764208641
 20
190.0774733372
 10
246.7608491507
 20
189.9273990862
 10
246.7355693307
 20
189.789089302
 10
246.7015425291
 20
189.6678604394
 10
246.6600800481
 20
189.5683700427
 10
246.6127688613
 20
189.4944416568
 10
246.5614418116
 20
189.448917678
 10
246.5080658522
 20
189.4335452676
  0
LINE
  5
195
330
1F
100
AcDbEntity
  8
0
  6
Continuous
 62
     7
370
    15
100
AcDbLine
 10
246.5080658522
 20
189.4335452676
 30
0.0
 11
244.9245790568
 21
189.4335452676
 31
0.0
  0
LINE
  5
196
330
1F
100
AcDbEntity
  8
0
  6
Continuous
 62
     7
370
    15
100
AcDbLine
 10
246.781680974
 20
190.2335457712
 30
0.0
 11
251.6805271235
 21
190.2335457712
 31
0.0
  0
LINE
  5
197
330
1F
100
AcDbEntity
  8
0
  6
Continuous
 62
     7
370
    15
100
AcDbLine
 10
251.8194506493
 20
189.4335452676
 30
0.0
 11
246.5080658522
 21
189.4335452676
 31
0.0
  0
LINE
  5
198
330
1F
100
AcDbEntity
  8
0
  6
Continuous
 62
     7
370
    15
100
AcDbLine
 10
251.6805271235
 20
204.6335455239
 30
0.0
 11
246.781680974
 21
204.6335455239
 31
0.0
  0
LINE
  5
199
330
1F
100
AcDbEntity
  8
0
  6
Continuous
 62
     7
370
    15
100
AcDbLine
 10
246.5080658522
 20
205.4335460275
 30
0.0
 11
251.8194506493
 21
205.4335460275
 31
0.0
  0
LINE
  5
19A
330
1F
100
AcDbEntity
  8
0
  6
Continuous
 62
     7
370
    15
100
AcDbLine
 10
282.9102615443
 20
204.1835458226
 30
0.0
 11
282.9102615443
 21
203.1835456587
 31
0.0
  0
LINE
  5
19B
330
1F
100
AcDbEntity
  8
0
  6
Continuous
 62
     7
370
    15
100
AcDbLine
 10
282.9102615443
 20
203.1835456587
 30
0.0
 11
276.7102609005
 21
203.1835456587
 31
0.0
  0
LINE
  5
19C
330
1F
100
AcDbEntity
  8
0
  6
Continuous
 62
     7
370
    15
100
AcDbLine
 10
276.7102609005
 20
204.1835458226
 30
0.0
 11
276.7102609005
 21
203.1835456587
 31
0.0
  0
LINE
  5
19D
330
1F
100
AcDbEntity
  8
0
  6
Continuous
 62
     7
370
    15
100
AcDbLine
 10
282.9102615443
 20
204.1835458226
 30
0.0
 11
276.7102609005
 21
204.1835458226
 31
0.0
  0
LINE
  5
19E
330
1F
100
AcDbEntity
  8
0
  6
Continuous
 62
     7
370
    15
100
AcDbLine
 10
282.9102615443
 20
191.6835456364
 30
0.0
 11
282.9102615443
 21
190.6835454725
 31
0.0
  0
LINE
  5
19F
330
1F
100
AcDbEntity
  8
0
  6
Continuous
 62
     7
370
    15
100
AcDbLine
 10
282.9102615443
 20
190.6835454725
 30
0.0
 11
276.7102609005
 21
190.6835454725
 31
0.0
  0
LINE
  5
1A0
330
1F
100
AcDbEntity
  8
0
  6
Continuous
 62
     7
370
    15
100
AcDbLine
 10
276.7102609005
 20
191.6835456364
 30
0.0
 11
276.7102609005
 21
190.6835454725
 31
0.0
  0
LINE
  5
1A1
330
1F
100
AcDbEntity
  8
0
  6
Continuous
 62
     7
370
    15
100
AcDbLine
 10
282.9102615443
 20
191.6835456364
 30
0.0
 11
276.7102609005
 21
191.6835456364
 31
0.0
  0
LWPOLYLINE
  5
1A2
330
1F
100
AcDbEntity
  8
0
  6
Continuous
 62
     7
370
    15
100
AcDbPolyline
 90
        3
 70
   128
 43
0.0
 10
276.6315604177
 20
191.0724071063
 10
276.6341383186
 20
191.066229178
 10
276.7102609005
 20
190.6835454725
  0
LWPOLYLINE
  5
1A3
330
1F
100
AcDbEntity
  8
0
  6
Continuous
 62
     7
370
    15
100
AcDbPolyline
 90
        3
 70
   128
 43
0.0
 10
276.7102609005
 20
204.1835458226
 10
276.6341383186
 20
203.8008621171
 10
276.6315604177
 20
203.7946841888
  0
LINE
  5
1A4
330
1F
100
AcDbEntity
  8
0
  6
Continuous
 62
     7
370
    15
100
AcDbLine
 10
282.9102615443
 20
203.1835456587
 30
0.0
 11
282.9102615443
 21
203.0335454479
 31
0.0
  0
LINE
  5
1A5
330
1F
100
AcDbEntity
  8
0
  6
Continuous
 62
     7
370
    15
100
AcDbLine
 10
282.9102615443
 20
202.2335458755
 30
0.0
 11
282.9102615443
 21
201.3335455418
 31
0.0
  0
LINE
  5
1A6
330
1F
100
AcDbEntity
  8
0
  6
Continuous
 62
     7
370
    15
100
AcDbLine
 10
282.9102615443
 20
192.7335457154
 30
0.0
 11
282.9102615443
 21
191.6835456364
 31
0.0
  0
ARC
  5
1A7
330
1F
100
AcDbEntity
  8
0
  6
Continuous
 62
     7
370
    15
100
AcDbCircle
 10
174.9102618542
 20
332.4335456476
 30
0.0
 40
15.0
100
AcDbArc
 50
90.0
 51
180.0
  0
LINE
  5
1A8
330
1F
100
AcDbEntity
  8
0
  6
Continuous
 62
     7
370
    15
100
AcDbLine
 10
174.9102615368
 20
347.433551608
 30
0.0
 11
174.9102615368
 21
332.433551012
 31
0.0
  0
LINE
  5
1A9
330
1F
100
AcDbEntity
  8
0
  6
Continuous
 62
     7
370
    15
100
AcDbLine
 10
159.9102618721
 20
332.433551012
 30
0.0
 11
174.9102615368
 21
332.433551012
 31
0.0
  0
LINE
  5
1AA
330
1F
100
AcDbEntity
  8
0
  6
Continuous
 62
     7
370
    15
100
AcDbLine
 10
174.9102615368
 20
332.433551012
 30
0.0
 11
174.9102615368
 21
62.4335402831
 31
0.0
  0
LINE
  5
1AB
330
1F
100
AcDbEntity
  8
0
  6
Continuous
 62
     7
370
    15
100
AcDbLine
 10
174.9102615368
 20
62.4335402831
 30
0.0
 11
159.9102618721
 21
62.4335402831
 31
0.0
  0
LINE
  5
1AC
330
1F
100
AcDbEntity
  8
0
  6
Continuous
 62
     7
370
    15
100
AcDbLine
 10
159.9102618721
 20
332.433551012
 30
0.0
 11
159.9102618721
 21
62.4335402831
 31
0.0
  0
LINE
  5
1AD
330
1F
100
AcDbEntity
  8
0
  6
Continuous
 62
     7
370
    15
100
AcDbLine
 10
174.9102615368
 20
62.4335402831
 30
0.0
 11
174.9102615368
 21
47.4335396871
 31
0.0
  0
ARC
  5
1AE
330
1F
100
AcDbEntity
  8
0
  6
Continuous
 62
     7
370
    15
100
AcDbCircle
 10
174.9102618542
 20
62.4335456476
 30
0.0
 40
14.99999999999999
100
AcDbArc
 50
180.0
 51
270.0
  0
LINE
  5
1AF
330
1F
100
AcDbEntity
  8
0
  6
Continuous
 62
     7
370
    15
100
AcDbLine
 10
295.9102580872
 20
347.433551608
 30
0.0
 11
174.9102615368
 21
347.433551608
 31
0.0
  0
LINE
  5
1B0
330
1F
100
AcDbEntity
  8
0
  6
Continuous
 62
     7
370
    15
100
AcDbLine
 10
295.9102580872
 20
347.433551608
 30
0.0
 11
295.9102580872
 21
332.433551012
 31
0.0
  0
LINE
  5
1B1
330
1F
100
AcDbEntity
  8
0
  6
Continuous
 62
     7
370
    15
100
AcDbLine
 10
295.9102580872
 20
332.433551012
 30
0.0
 11
174.9102615368
 21
332.433551012
 31
0.0
  0
LINE
  5
1B2
330
1F
100
AcDbEntity
  8
0
  6
Continuous
 62
     7
370
    15
100
AcDbLine
 10
295.9102580872
 20
62.4335402831
 30
0.0
 11
174.9102615368
 21
62.4335402831
 31
0.0
  0
LINE
  5
1B3
330
1F
100
AcDbEntity
  8
0
  6
Continuous
 62
     7
370
    15
100
AcDbLine
 10
295.9102580872
 20
62.4335402831
 30
0.0
 11
295.9102580872
 21
47.4335396871
 31
0.0
  0
LINE
  5
1B4
330
1F
100
AcDbEntity
  8
0
  6
Continuous
 62
     7
370
    15
100
AcDbLine
 10
295.9102580872
 20
47.4335396871
 30
0.0
 11
174.9102615368
 21
47.4335396871
 31
0.0
  0
LINE
  5
1B5
330
1F
100
AcDbEntity
  8
0
  6
Continuous
 62
     7
370
    15
100
AcDbLine
 10
179.9102614251
 20
327.4335408792
 30
0.0
 11
179.9102614251
 21
67.4335504159
 31
0.0
  0
LINE
  5
1B6
330
1F
100
AcDbEntity
  8
0
  6
Continuous
 62
     7
370
    15
100
AcDbLine
 10
275.9102622595
 20
67.4335504159
 30
0.0
 11
179.9102614251
 21
67.4335504159
 31
0.0
  0
LINE
  5
1B7
330
1F
100
AcDbEntity
  8
0
  6
Continuous
 62
     7
370
    15
100
AcDbLine
 10
275.9102622595
 20
67.4335504159
 30
0.0
 11
275.9102622595
 21
184.6209991932
 31
0.0
  0
LINE
  5
1B8
330
1F
100
AcDbEntity
  8
0
  6
Continuous
 62
     7
370
    15
100
AcDbLine
 10
275.9102622595
 20
187.9607852757
 30
0.0
 11
275.9102622595
 21
189.4335452676
 31
0.0
  0
LINE
  5
1B9
330
1F
100
AcDbEntity
  8
0
  6
Continuous
 62
     7
370
    15
100
AcDbLine
 10
275.9102622595
 20
205.4335460275
 30
0.0
 11
275.9102622595
 21
206.8929480597
 31
0.0
  0
LINE
  5
1BA
330
1F
100
AcDbEntity
  8
0
  6
Continuous
 62
     7
370
    15
100
AcDbLine
 10
275.9102622595
 20
210.2356640831
 30
0.0
 11
275.9102622595
 21
327.4335408792
 31
0.0
  0
LINE
  5
1BB
330
1F
100
AcDbEntity
  8
0
  6
Continuous
 62
     7
370
    15
100
AcDbLine
 10
275.9102622595
 20
327.4335408792
 30
0.0
 11
179.9102614251
 21
327.4335408792
 31
0.0
  0
LINE
  5
1BC
330
1F
100
AcDbEntity
  8
0
  6
Continuous
 62
     7
370
    15
100
AcDbLine
 10
295.9102580872
 20
332.433551012
 30
0.0
 11
295.9102580872
 21
206.4094752282
 31
0.0
  0
LINE
  5
1BD
330
1F
100
AcDbEntity
  8
0
  6
Continuous
 62
     7
370
    15
100
AcDbLine
 10
295.9102580872
 20
188.425638175
 30
0.0
 11
295.9102580872
 21
62.4335402831
 31
0.0
  0
LINE
  5
1BE
330
1F
100
AcDbEntity
  8
0
  6
Continuous
 62
     7
370
    15
100
AcDbLine
 10
299.9102661934
 20
67.4335504159
 30
0.0
 11
295.9102580872
 21
67.4335504159
 31
0.0
  0
LINE
  5
1BF
330
1F
100
AcDbEntity
  8
0
  6
Continuous
 62
     7
370
    15
100
AcDbLine
 10
299.9102661934
 20
52.4335498199
 30
0.0
 11
295.9102580872
 21
52.4335498199
 31
0.0
  0
LINE
  5
1C0
330
1F
100
AcDbEntity
  8
0
  6
Continuous
 62
     7
370
    15
100
AcDbLine
 10
299.9102661934
 20
342.4335414752
 30
0.0
 11
295.9102580872
 21
342.4335414752
 31
0.0
  0
LINE
  5
1C1
330
1F
100
AcDbEntity
  8
0
  6
Continuous
 62
     7
370
    15
100
AcDbLine
 10
299.9102661934
 20
327.4335408792
 30
0.0
 11
295.9102580872
 21
327.4335408792
 31
0.0
  0
LINE
  5
1C2
330
1F
100
AcDbEntity
  8
0
  6
Continuous
 62
     7
370
    15
100
AcDbLine
 10
393.4973840133
 20
400.1104749552
 30
0.0
 11
394.6973745242
 21
400.1104749552
 31
0.0
  0
LINE
  5
1C3
330
1F
100
AcDbEntity
  8
0
  6
Continuous
 62
     7
370
    15
100
AcDbLine
 10
393.3973823205
 20
402.610472571
 30
0.0
 11
393.4973840133
 21
402.610472571
 31
0.0
  0
LINE
  5
1C4
330
1F
100
AcDbEntity
  8
0
  6
Continuous
 62
     7
370
    15
100
AcDbLine
 10
393.4973840133
 20
408.6104698292
 30
0.0
 11
393.3973823205
 21
408.6104698292
 31
0.0
  0
SPLINE
  5
1C5
330
1F
100
AcDbEntity
  8
0
  6
Continuous
 62
     7
370
    15
100
AcDbSpline
210
0.0
220
0.0
230
1.0
 70
     8
 71
     3
 72
    15
 73
    11
 74
     0
 42
0.00000001
 43
0.00000001
 40
0.0
 40
0.0
 40
0.0
 40
0.0
 40
0.1250754827816088
 40
0.2501512818632861
 40
0.3752910914598436
 40
0.5003038788291839
 40
0.6252879686926238
 40
0.7502620296543432
 40
0.8750785631983024
 40
1.0
 40
1.0
 40
1.0
 40
1.0
 10
392.3118178263553
 20
430.6683011166019
 30
0.0
 10
392.2856928872575
 20
430.9270651320763
 30
0.0
 10
392.2334429429956
 20
431.4445938174065
 30
0.0
 10
392.1545757620327
 20
432.2257073635155
 30
0.0
 10
392.0801426053606
 20
432.9628854885747
 30
0.0
 10
392.0131526258839
 20
433.6264658961681
 30
0.0
 10
391.9570453982785
 20
434.1822295905373
 30
0.0
 10
391.9145035290676
 20
434.6033261418002
 30
0.0
 10
391.8856773994018
 20
434.8889336258688
 30
0.0
 10
391.8813348152341
 20
434.9319685805261
 30
0.0
 10
391.8791626110919
 20
434.9534950963421
 30
0.0
  0
SPLINE
  5
1C6
330
1F
100
AcDbEntity
  8
0
  6
Continuous
 62
     7
370
    15
100
AcDbSpline
210
0.0
220
0.0
230
1.0
 70
     8
 71
     3
 72
    15
 73
    11
 74
     0
 42
0.00000001
 43
0.00000001
 40
0.0
 40
0.0
 40
0.0
 40
0.0
 40
0.12493963109233
 40
0.2497688790883884
 40
0.3747512836112952
 40
0.4997376592982848
 40
0.6247480829411527
 40
0.7498793062078932
 40
0.8749425528717422
 40
0.9999999999999999
 40
0.9999999999999999
 40
0.9999999999999999
 40
0.9999999999999999
 10
388.8949219599612
 20
434.6521116606159
 30
0.0
 10
388.8970986825867
 20
434.6305334942312
 30
0.0
 10
388.9014502047218
 20
434.5873962255874
 30
0.0
 10
388.9302962899474
 20
434.3016859493393
 30
0.0
 10
388.9728324414852
 20
433.8805021832714
 30
0.0
 10
389.0289398244352
 20
433.3247257654824
 30
0.0
 10
389.0959343195435
 20
432.6611999493909
 30
0.0
 10
389.1703467796386
 20
431.9241536487639
 30
0.0
 10
389.2492046068564
 20
431.1432451153979
 30
0.0
 10
389.30143352123
 20
430.6258881758895
 30
0.0
 10
389.3275473729022
 20
430.3672157040996
 30
0.0
  0
LINE
  5
1C7
330
1F
100
AcDbEntity
  8
0
  6
Continuous
 62
     7
370
    15
100
AcDbLine
 10
389.3272642508
 20
430.3670815936
 30
0.0
 11
390.8963416234
 21
414.826101791
 31
0.0
  0
LINE
  5
1C8
330
1F
100
AcDbEntity
  8
0
  6
Continuous
 62
     7
370
    15
100
AcDbLine
 10
393.8811634198
 20
415.127462875
 30
0.0
 11
392.3121009484
 21
430.6684352271
 31
0.0
  0
SPLINE
  5
1C9
330
1F
100
AcDbEntity
  8
0
  6
Continuous
 62
     7
370
    15
100
AcDbSpline
210
0.0
220
0.0
230
1.0
 70
     8
 71
     3
 72
     9
 73
     5
 74
     0
 42
0.00000001
 43
0.00000001
 40
0.0
 40
0.0
 40
0.0
 40
0.0
 40
0.4837344539668944
 40
1.0
 40
1.0
 40
1.0
 40
1.0
 10
391.066423477257
 20
413.1447292677326
 30
0.0
 10
391.0758841217892
 20
413.0805044827889
 30
0.0
 10
391.0954416382211
 20
412.9477358027477
 30
0.0
 10
391.1292839946383
 20
412.9115803561154
 30
0.0
 10
391.1467556372531
 20
412.8929145447178
 30
0.0
  0
SPLINE
  5
1CA
330
1F
100
AcDbEntity
  8
0
  6
Continuous
 62
     7
370
    15
100
AcDbSpline
210
0.0
220
0.0
230
1.0
 70
     8
 71
     3
 72
    11
 73
     7
 74
     0
 42
0.00000001
 43
0.00000001
 40
0.0
 40
0.0
 40
0.0
 40
0.0
 40
0.2484397085448712
 40
0.4978879353345394
 40
0.7483890246597131
 40
0.9999999999999999
 40
0.9999999999999999
 40
0.9999999999999999
 40
0.9999999999999999
 10
390.8966247454532
 20
414.8262657038135
 30
0.0
 10
390.9146396124959
 20
414.6477943753745
 30
0.0
 10
390.9507424762845
 20
414.2901272304829
 30
0.0
 10
390.9977346628284
 20
413.8252856852473
 30
0.0
 10
391.0365636171323
 20
413.442403441086
 30
0.0
 10
391.0515914052431
 20
413.2951138950831
 30
0.0
 10
391.0591219082721
 20
413.2213063351078
 30
0.0
  0
SPLINE
  5
1CB
330
1F
100
AcDbEntity
  8
0
  6
Continuous
 62
     7
370
    15
100
AcDbSpline
210
0.0
220
0.0
230
1.0
 70
     8
 71
     3
 72
    19
 73
    15
 74
     0
 42
0.00000001
 43
0.00000001
 40
0.0
 40
0.0
 40
0.0
 40
0.0
 40
0.0802803041969105
 40
0.1534414420360333
 40
0.2193399577831859
 40
0.2779481048339253
 40
0.3728435281058353
 40
0.4421524404775586
 40
0.5315362088906506
 40
0.6554828487286151
 40
0.7303554330370282
 40
0.8130766996630142
 40
0.9031427803889727
 40
1.0
 40
1.0
 40
1.0
 40
1.0
 10
391.0820696965106
 20
413.0620874277515
 30
0.0
 10
391.1174303232823
 20
412.939213629766
 30
0.0
 10
391.185015836534
 20
412.704362342891
 30
0.0
 10
391.3822392352524
 20
412.4099506900271
 30
0.0
 10
391.607093032489
 20
412.1858257465824
 30
0.0
 10
391.9027639634568
 20
411.9927978295313
 30
0.0
 10
392.2447042465376
 20
411.8748662788859
 30
0.0
 10
392.6544621255957
 20
411.8450961832613
 30
0.0
 10
393.0935466794484
 20
411.9473960165906
 30
0.0
 10
393.4800865537533
 20
412.1986257968881
 30
0.0
 10
393.7729277904377
 20
412.5393397925579
 30
0.0
 10
393.9536975004033
 20
412.8948072336293
 30
0.0
 10
394.0596166583135
 20
413.3217481033163
 30
0.0
 10
394.0273461663303
 20
413.6168184660306
 30
0.0
 10
394.0106247082599
 20
413.769713770525
 30
0.0
  0
SPLINE
  5
1CC
330
1F
100
AcDbEntity
  8
0
  6
Continuous
 62
     7
370
    15
100
AcDbSpline
210
0.0
220
0.0
230
1.0
 70
     8
 71
     3
 72
    11
 73
     7
 74
     0
 42
0.00000001
 43
0.00000001
 40
0.0
 40
0.0
 40
0.0
 40
0.0
 40
0.2477445749809089
 40
0.4969511806463745
 40
0.7476788971516558
 40
1.0
 40
1.0
 40
1.0
 40
1.0
 10
394.0344069615252
 20
413.6020310036106
 30
0.0
 10
394.0279648277857
 20
413.6666565135021
 30
0.0
 10
394.0150425429364
 20
413.7962889118822
 30
0.0
 10
393.9790902056793
 20
414.1541637845926
 30
0.0
 10
393.9341050161824
 20
414.6004817774979
 30
0.0
 10
393.8986692184732
 20
414.951342656438
 30
0.0
 10
393.8808951989062
 20
415.127328764574
 30
0.0
  0
LINE
  5
1CD
330
1F
100
AcDbEntity
  8
0
  6
Continuous
 62
     7
370
    15
100
AcDbLine
 10
394.1646878138
 20
424.7821412794
 30
0.0
 11
394.1646729127
 21
425.0819600932
 31
0.0
  0
LINE
  5
1CE
330
1F
100
AcDbEntity
  8
0
  6
Continuous
 62
     7
370
    15
100
AcDbLine
 10
393.3646742717
 20
425.0819600932
 30
0.0
 11
393.3646742717
 21
424.7845925204
 31
0.0
  0
SPLINE
  5
1CF
330
1F
100
AcDbEntity
  8
0
  6
Continuous
 62
     7
370
    15
100
AcDbSpline
210
0.0
220
0.0
230
1.0
 70
    24
 71
     3
 72
    11
 73
     7
 74
     0
 42
0.00000001
 43
0.00000001
 40
0.0
 40
0.0
 40
0.0
 40
0.0
 40
0.0207832163337777
 40
0.3465538622668197
 40
0.6711424087355256
 40
1.0
 40
1.0
 40
1.0
 40
1.0
 10
393.3646742716678
 20
425.368278454916
 30
0.0
 10
393.3646742716678
 20
425.3649567427404
 30
0.0
 10
393.3646742716678
 20
425.3095681943425
 30
0.0
 10
393.3646742716678
 20
425.2163352996191
 30
0.0
 10
393.3646742716678
 20
425.1036218952968
 30
0.0
 10
393.3646742716678
 20
425.0690995693765
 30
0.0
 10
393.3646742716678
 20
425.0517256370945
 30
0.0
  0
SPLINE
  5
1D0
330
1F
100
AcDbEntity
  8
0
  6
Continuous
 62
     7
370
    15
100
AcDbSpline
210
0.0
220
0.0
230
1.0
 70
    24
 71
     3
 72
    11
 73
     7
 74
     0
 42
0.00000001
 43
0.00000001
 40
0.0
 40
0.0
 40
0.0
 40
0.0
 40
0.2504863591729243
 40
0.4977314983156908
 40
0.7458651761595598
 40
1.0
 40
1.0
 40
1.0
 40
1.0
 10
394.164687813843
 20
425.0492743960781
 30
0.0
 10
394.164687813843
 20
425.0654911687695
 30
0.0
 10
394.164687813843
 20
425.0977148738695
 30
0.0
 10
394.164687813843
 20
425.2064974608363
 30
0.0
 10
394.164687813843
 20
425.3453296667507
 30
0.0
 10
394.164687813843
 20
425.4523563521461
 30
0.0
 10
394.164687813843
 20
425.5065090767307
 30
0.0
  0
LINE
  5
1D1
330
1F
100
AcDbEntity
  8
0
  6
Continuous
 62
     7
370
    15
100
AcDbLine
 10
393.1579504624
 20
425.6104744784
 30
0.0
 11
393.3668647424
 21
425.363249313
 31
0.0
  0
LINE
  5
1D2
330
1F
100
AcDbEntity
  8
0
  6
Continuous
 62
     7
370
    15
100
AcDbLine
 10
394.1646878138
 20
425.5065090767
 30
0.0
 11
394.1646878138
 21
425.6104744784
 31
0.0
  0
LINE
  5
1D3
330
1F
100
AcDbEntity
  8
0
  6
Continuous
 62
     7
370
    15
100
AcDbLine
 10
388.8882909432
 20
434.7484923712
 30
0.0
 11
388.8726894275
 21
435.2077238075
 31
0.0
  0
SPLINE
  5
1D4
330
1F
100
AcDbEntity
  8
0
  6
Continuous
 62
     7
370
    15
100
AcDbSpline
210
0.0
220
0.0
230
1.0
 70
     8
 71
     3
 72
    11
 73
     7
 74
     0
 42
0.00000001
 43
0.00000001
 40
0.0
 40
0.0
 40
0.0
 40
0.0
 40
0.1207587006651574
 40
0.4133918797399851
 40
0.7063569142102074
 40
1.0
 40
1.0
 40
1.0
 40
1.0
 10
390.9209732428438
 20
414.5850606075687
 30
0.0
 10
390.9308907234873
 20
414.4867600183558
 30
0.0
 10
390.9648411216189
 20
414.1502487348588
 30
0.0
 10
391.0122136825495
 20
413.6813373796362
 30
0.0
 10
391.0550943614859
 20
413.2566030050045
 30
0.0
 10
391.0626441964205
 20
413.1820492386745
 30
0.0
 10
391.066423477257
 20
413.1447292677326
 30
0.0
  0
LINE
  5
1D5
330
1F
100
AcDbEntity
  8
0
  6
Continuous
 62
     7
370
    15
100
AcDbLine
 10
389.2491374627
 20
465.6104735843
 30
0.0
 11
388.4973738805
 21
465.3368584625
 31
0.0
  0
LINE
  5
1D6
330
1F
100
AcDbEntity
  8
0
  6
Continuous
 62
     7
370
    15
100
AcDbLine
 10
394.6973745242
 20
464.6104715578
 30
0.0
 11
394.397384347
 21
464.6104715578
 31
0.0
  0
LINE
  5
1D7
330
1F
100
AcDbEntity
  8
0
  6
Continuous
 62
     7
370
    15
100
AcDbLine
 10
394.397384347
 20
463.6104769818
 30
0.0
 11
394.2973826543
 21
463.6104769818
 31
0.0
  0
LINE
  5
1D8
330
1F
100
AcDbEntity
  8
0
  6
Continuous
 62
     7
370
    15
100
AcDbLine
 10
394.2973826543
 20
457.610472273
 30
0.0
 11
394.397384347
 21
457.610472273
 31
0.0
  0
LINE
  5
1D9
330
1F
100
AcDbEntity
  8
0
  6
Continuous
 62
     7
370
    15
100
AcDbLine
 10
394.397384347
 20
440.6104750744
 30
0.0
 11
394.2973826543
 21
440.6104750744
 31
0.0
  0
LINE
  5
1DA
330
1F
100
AcDbEntity
  8
0
  6
Continuous
 62
     7
370
    15
100
AcDbLine
 10
394.2973826543
 20
434.6104778162
 30
0.0
 11
394.397384347
 21
434.6104778162
 31
0.0
  0
LINE
  5
1DB
330
1F
100
AcDbEntity
  8
0
  6
Continuous
 62
     7
370
    15
100
AcDbLine
 10
394.6973745242
 20
408.6104698292
 30
0.0
 11
394.6973745242
 21
403.6104745976
 31
0.0
  0
LINE
  5
1DC
330
1F
100
AcDbEntity
  8
0
  6
Continuous
 62
     7
370
    15
100
AcDbLine
 10
409.6973751202
 20
408.6104698292
 30
0.0
 11
409.6973751202
 21
403.6104745976
 31
0.0
  0
LINE
  5
1DD
330
1F
100
AcDbEntity
  8
0
  6
Continuous
 62
     7
370
    15
100
AcDbLine
 10
394.6973745242
 20
403.6104745976
 30
0.0
 11
409.6973751202
 21
403.6104745976
 31
0.0
  0
LINE
  5
1DE
330
1F
100
AcDbEntity
  8
0
  6
Continuous
 62
     7
370
    15
100
AcDbLine
 10
394.6973745242
 20
408.6104698292
 30
0.0
 11
409.6973751202
 21
408.6104698292
 31
0.0
  0
LINE
  5
1DF
330
1F
100
AcDbEntity
  8
0
  6
Continuous
 62
     7
370
    15
100
AcDbLine
 10
679.6973858491
 20
408.6104698292
 30
0.0
 11
679.6973858491
 21
403.6104745976
 31
0.0
  0
LINE
  5
1E0
330
1F
100
AcDbEntity
  8
0
  6
Continuous
 62
     7
370
    15
100
AcDbLine
 10
409.6973751202
 20
403.6104745976
 30
0.0
 11
679.6973858491
 21
403.6104745976
 31
0.0
  0
LINE
  5
1E1
330
1F
100
AcDbEntity
  8
0
  6
Continuous
 62
     7
370
    15
100
AcDbLine
 10
409.6973751202
 20
408.6104698292
 30
0.0
 11
679.6973858491
 21
408.6104698292
 31
0.0
  0
ARC
  5
1E2
330
1F
100
AcDbEntity
  8
0
  6
Continuous
 62
     7
370
    15
100
AcDbCircle
 10
409.6973804847
 20
403.6104741684
 30
0.0
 40
15.0
100
AcDbArc
 50
180.0
 51
270.0
  0
LINE
  5
1E3
330
1F
100
AcDbEntity
  8
0
  6
Continuous
 62
     7
370
    15
100
AcDbLine
 10
409.6973751202
 20
388.6104740015
 30
0.0
 11
409.6973751202
 21
403.6104745976
 31
0.0
  0
LINE
  5
1E4
330
1F
100
AcDbEntity
  8
0
  6
Continuous
 62
     7
370
    15
100
AcDbLine
 10
409.6973751202
 20
388.6104740015
 30
0.0
 11
679.6973858491
 21
388.6104740015
 31
0.0
  0
LINE
  5
1E5
330
1F
100
AcDbEntity
  8
0
  6
Continuous
 62
     7
370
    15
100
AcDbLine
 10
679.6973858491
 20
403.6104745976
 30
0.0
 11
679.6973858491
 21
388.6104740015
 31
0.0
  0
LINE
  5
1E6
330
1F
100
AcDbEntity
  8
0
  6
Continuous
 62
     7
370
    15
100
AcDbLine
 10
694.6973864451
 20
408.6104698292
 30
0.0
 11
694.6973864451
 21
403.6104745976
 31
0.0
  0
LINE
  5
1E7
330
1F
100
AcDbEntity
  8
0
  6
Continuous
 62
     7
370
    15
100
AcDbLine
 10
694.6973864451
 20
403.6104745976
 30
0.0
 11
679.6973858491
 21
403.6104745976
 31
0.0
  0
LINE
  5
1E8
330
1F
100
AcDbEntity
  8
0
  6
Continuous
 62
     7
370
    15
100
AcDbLine
 10
694.6973864451
 20
408.6104698292
 30
0.0
 11
679.6973858491
 21
408.6104698292
 31
0.0
  0
ARC
  5
1E9
330
1F
100
AcDbEntity
  8
0
  6
Continuous
 62
     7
370
    15
100
AcDbCircle
 10
679.6973804847
 20
403.6104741684
 30
0.0
 40
14.99999999999994
100
AcDbArc
 50
270.0
 51
0.0
  0
LINE
  5
1EA
330
1F
100
AcDbEntity
  8
0
  6
Continuous
 62
     7
370
    15
100
AcDbLine
 10
393.4973840133
 20
406.6282428614
 30
0.0
 11
394.6973745242
 21
406.6282428614
 31
0.0
  0
LINE
  5
1EB
330
1F
100
AcDbEntity
  8
0
  6
Continuous
 62
     7
370
    15
100
AcDbLine
 10
393.4973840133
 20
404.5242734066
 30
0.0
 11
394.6973745242
 21
404.5242734066
 31
0.0
  0
LINE
  5
1EC
330
1F
100
AcDbEntity
  8
0
  6
Continuous
 62
     7
370
    15
100
AcDbLine
 10
393.4973840133
 20
404.5242734066
 30
0.0
 11
393.4973840133
 21
406.6282428614
 31
0.0
  0
LINE
  5
1ED
330
1F
100
AcDbEntity
  8
0
  6
Continuous
 62
     7
370
    15
100
AcDbLine
 10
393.4973840133
 20
411.6104759089
 30
0.0
 11
394.6973745242
 21
411.6104759089
 31
0.0
  0
LINE
  5
1EE
330
1F
100
AcDbEntity
  8
0
  6
Continuous
 62
     7
370
    15
100
AcDbLine
 10
394.6973745242
 20
408.6104698292
 30
0.0
 11
394.6973745242
 21
411.6104759089
 31
0.0
  0
LINE
  5
1EF
330
1F
100
AcDbEntity
  8
0
  6
Continuous
 62
     7
370
    15
100
AcDbLine
 10
393.4973840133
 20
411.6104759089
 30
0.0
 11
393.4973840133
 21
406.6282428614
 31
0.0
  0
LINE
  5
1F0
330
1F
100
AcDbEntity
  8
0
  6
Continuous
 62
     7
370
    15
100
AcDbLine
 10
394.6973745242
 20
403.6104745976
 30
0.0
 11
394.6973745242
 21
400.1104749552
 31
0.0
  0
LINE
  5
1F1
330
1F
100
AcDbEntity
  8
0
  6
Continuous
 62
     7
370
    15
100
AcDbLine
 10
393.4973840133
 20
400.1104749552
 30
0.0
 11
393.4973840133
 21
404.5242734066
 31
0.0
  0
LINE
  5
1F2
330
1F
100
AcDbEntity
  8
0
  6
Continuous
 62
     7
370
    15
100
AcDbLine
 10
393.3973823205
 20
402.610472571
 30
0.0
 11
393.3973823205
 21
408.6104698292
 31
0.0
  0
ARC
  5
1F3
330
1F
100
AcDbEntity
  8
0
  6
Continuous
 62
     7
370
    15
100
AcDbCircle
 10
391.8973804847
 20
413.3104741684
 30
0.0
 40
2.800000000000011
100
AcDbArc
 50
0.0
 51
45.4024529621
  0
LINE
  5
1F4
330
1F
100
AcDbEntity
  8
0
  6
Continuous
 62
     7
370
    15
100
AcDbLine
 10
390.789723815
 20
415.882072579
 30
0.0
 11
390.1928429023
 21
415.5318654887
 31
0.0
  0
LINE
  5
1F5
330
1F
100
AcDbEntity
  8
0
  6
Continuous
 62
     7
370
    15
100
AcDbLine
 10
387.3799209014
 20
411.8608601204
 30
0.0
 11
390.9233574286
 21
414.5798452012
 31
0.0
  0
LINE
  5
1F6
330
1F
100
AcDbEntity
  8
0
  6
Continuous
 62
     7
370
    15
100
AcDbLine
 10
386.649406375
 20
412.8128804079
 30
0.0
 11
387.3799209014
 21
411.8608601204
 31
0.0
  0
LINE
  5
1F7
330
1F
100
AcDbEntity
  8
0
  6
Continuous
 62
     7
370
    15
100
AcDbLine
 10
390.1928429023
 20
415.5318654887
 30
0.0
 11
386.649406375
 21
412.8128804079
 31
0.0
  0
LINE
  5
1F8
330
1F
100
AcDbEntity
  8
0
  6
Continuous
 62
     7
370
    15
100
AcDbLine
 10
394.6973745242
 20
411.6104759089
 30
0.0
 11
394.6973745242
 21
412.6104779354
 31
0.0
  0
LINE
  5
1F9
330
1F
100
AcDbEntity
  8
0
  6
Continuous
 62
     7
370
    15
100
AcDbLine
 10
393.4973840133
 20
412.2514195553
 30
0.0
 11
393.4973840133
 21
411.6104759089
 31
0.0
  0
LINE
  5
1FA
330
1F
100
AcDbEntity
  8
0
  6
Continuous
 62
     7
370
    15
100
AcDbLine
 10
386.4279006139
 20
411.1303455941
 30
0.0
 11
385.6973860875
 21
412.0823658816
 31
0.0
  0
LWPOLYLINE
  5
1FB
330
1F
100
AcDbEntity
  8
0
  6
Continuous
 62
     7
370
    15
100
AcDbPolyline
 90
        9
 70
   128
 43
0.0
 10
385.6973860875
 20
412.0823658816
 10
385.7156698123
 20
412.0964027754
 10
385.7698504344
 20
412.1379770152
 10
385.8578268901
 20
412.2054792754
 10
385.9762166158
 20
412.2963316552
 10
386.1204896584
 20
412.4070323817
 10
386.285087885
 20
412.5333346239
 10
386.4636783019
 20
412.6703657023
 10
386.649406375
 20
412.8128804079
  0
LWPOLYLINE
  5
1FC
330
1F
100
AcDbEntity
  8
0
  6
Continuous
 62
     7
370
    15
100
AcDbPolyline
 90
        9
 70
   128
 43
0.0
 10
387.3799209014
 20
411.8608601204
 10
387.1941928283
 20
411.7183454148
 10
387.0155875102
 20
411.5812994353
 10
386.8510041848
 20
411.4550120942
 10
386.7067311421
 20
411.3443113676
 10
386.5883414164
 20
411.2534589878
 10
386.5003649608
 20
411.1859567276
 10
386.4461843387
 20
411.1443824879
 10
386.4279006139
 20
411.1303455941
  0
SPLINE
  5
1FD
330
1F
100
AcDbEntity
  8
0
  6
Continuous
 62
     7
370
    15
100
AcDbSpline
210
0.0
220
0.0
230
1.0
 70
     8
 71
     3
 72
    12
 73
     8
 74
     0
 42
0.00000001
 43
0.00000001
 40
0.0
 40
0.0
 40
0.0
 40
0.0
 40
0.2340518048260158
 40
0.4681083238238113
 40
0.7021649540123228
 40
0.9362191112700744
 40
0.9999999999999999
 40
0.9999999999999999
 40
0.9999999999999999
 40
0.9999999999999999
 10
390.9943614617236
 20
430.2875913492603
 30
0.0
 10
390.7979685996246
 20
430.2682084436933
 30
0.0
 10
390.4051789197652
 20
430.2294422421568
 30
0.0
 10
389.8676802217375
 20
430.2242045225615
 30
0.0
 10
389.4941777560704
 20
430.2626703795703
 30
0.0
 10
389.3149851520651
 20
430.3173344780653
 30
0.0
 10
389.343704260942
 20
430.3612896479644
 30
0.0
 10
389.3498544112094
 20
430.370702575819
 30
0.0
  0
SPLINE
  5
1FE
330
1F
100
AcDbEntity
  8
0
  6
Continuous
 62
     7
370
    15
100
AcDbSpline
210
0.0
220
0.0
230
1.0
 70
     8
 71
     3
 72
    11
 73
     7
 74
     0
 42
0.00000001
 43
0.00000001
 40
0.0
 40
0.0
 40
0.0
 40
0.0
 40
0.198686486802408
 40
0.4657890565669508
 40
0.7328959069263856
 40
1.0
 40
1.0
 40
1.0
 40
1.0
 10
392.2902707472689
 20
430.6664757243557
 30
0.0
 10
392.2890869944969
 20
430.6419859751951
 30
0.0
 10
392.2863118732706
 20
430.5845736300445
 30
0.0
 10
392.0167947223835
 20
430.4774784576991
 30
0.0
 10
391.5697263324357
 20
430.3666755579121
 30
0.0
 10
391.1861490920269
 20
430.3139526614359
 30
0.0
 10
390.9943614617236
 20
430.2875913492603
 30
0.0
  0
SPLINE
  5
1FF
330
1F
100
AcDbEntity
  8
0
  6
Continuous
 62
     7
370
    15
100
AcDbSpline
210
0.0
220
0.0
230
1.0
 70
     8
 71
     3
 72
    12
 73
     8
 74
     0
 42
0.00000001
 43
0.00000001
 40
0.0
 40
0.0
 40
0.0
 40
0.0
 40
0.2339702271248437
 40
0.467932890478384
 40
0.7018980302872534
 40
0.9358659172968862
 40
1.0
 40
1.0
 40
1.0
 40
1.0
 10
390.3873924628145
 20
436.2994648329181
 30
0.0
 10
390.1913070993103
 20
436.276959638463
 30
0.0
 10
389.7991427113341
 20
436.2319499770989
 30
0.0
 10
389.296206253878
 20
435.8844577969816
 30
0.0
 10
388.9763931353783
 20
435.3909689441456
 30
0.0
 10
388.8484649870294
 20
434.9373832220813
 30
0.0
 10
388.9062560585568
 20
434.6943907321254
 30
0.0
 10
388.9186893120654
 20
434.6421129814548
 30
0.0
  0
SPLINE
  5
200
330
1F
100
AcDbEntity
  8
0
  6
Continuous
 62
     7
370
    15
100
AcDbSpline
210
0.0
220
0.0
230
1.0
 70
     8
 71
     3
 72
    11
 73
     7
 74
     0
 42
0.00000001
 43
0.00000001
 40
0.0
 40
0.0
 40
0.0
 40
0.0
 40
0.1976896372521521
 40
0.4651276561127174
 40
0.7325628442169249
 40
1.0
 40
1.0
 40
1.0
 40
1.0
 10
391.8576006308444
 20
434.9491737595959
 30
0.0
 10
391.8393204368955
 20
435.093924747324
 30
0.0
 10
391.796310475003
 20
435.4344974175854
 30
0.0
 10
391.4708512440215
 20
435.8842703671614
 30
0.0
 10
390.9775596748408
 20
436.2319938121594
 30
0.0
 10
390.5841153492886
 20
436.2769744375072
 30
0.0
 10
390.3873924628146
 20
436.2994648329181
 30
0.0
  0
SPLINE
  5
201
330
1F
100
AcDbEntity
  8
0
  6
Continuous
 62
     7
370
    15
100
AcDbSpline
210
0.0
220
0.0
230
1.0
 70
     8
 71
     3
 72
    12
 73
     8
 74
     0
 42
0.00000001
 43
0.00000001
 40
0.0
 40
0.0
 40
0.0
 40
0.0
 40
0.2350124346011034
 40
0.4700298895179127
 40
0.7050473250288888
 40
0.9400627265619128
 40
1.0
 40
1.0
 40
1.0
 40
1.0
 10
392.5634388342746
 20
414.7466189972324
 30
0.0
 10
392.3670532851289
 20
414.7272410566314
 30
0.0
 10
391.9742779916662
 20
414.6884847614794
 30
0.0
 10
391.4366692905388
 20
414.6832172989737
 30
0.0
 10
391.0635867783647
 20
414.7217426427995
 30
0.0
 10
390.8845906477528
 20
414.7758637954166
 30
0.0
 10
390.9124631545797
 20
414.8191651721747
 30
0.0
 10
390.9181271210559
 20
414.8279644361896
 30
0.0
  0
SPLINE
  5
202
330
1F
100
AcDbEntity
  8
0
  6
Continuous
 62
     7
370
    15
100
AcDbSpline
210
0.0
220
0.0
230
1.0
 70
     8
 71
     3
 72
    11
 73
     7
 74
     0
 42
0.00000001
 43
0.00000001
 40
0.0
 40
0.0
 40
0.0
 40
0.0
 40
0.1989239597362801
 40
0.465950584310487
 40
0.7329742733226847
 40
1.0
 40
1.0
 40
1.0
 40
1.0
 10
393.8593928233035
 20
415.1256151310367
 30
0.0
 10
393.8582190358675
 20
415.1010888529286
 30
0.0
 10
393.8554696086875
 20
415.0436395962852
 30
0.0
 10
393.5858627300042
 20
414.9365216790129
 30
0.0
 10
393.1388016988516
 20
414.8256985676679
 30
0.0
 10
392.7552269436433
 20
414.7729789210948
 30
0.0
 10
392.5634388342746
 20
414.7466189972324
 30
0.0
  0
ARC
  5
203
330
1F
100
AcDbEntity
  8
0
  6
Continuous
 62
     7
370
    15
100
AcDbCircle
 10
393.7646666974
 20
425.0482498098
 30
0.0
 40
0.4000075274666112
100
AcDbArc
 50
0.1467585748
 51
179.5021275156
  0
ELLIPSE
  5
204
330
1F
100
AcDbEntity
  8
0
  6
Continuous
 62
     7
370
    15
100
AcDbEllipse
 10
393.764679885
 20
424.7833657747
 30
0.0
 11
0.3991830274372887
 21
-0.02624604221148274
 31
0.0
210
0.0
220
0.0
230
0.9999999999999998
 40
0.9763157485
 41
0.0
 42
6.283185307179586
  0
SPLINE
  5
205
330
1F
100
AcDbEntity
  8
0
  6
Continuous
 62
     7
370
    15
100
AcDbSpline
210
0.0
220
0.0
230
1.0
 70
     8
 71
     3
 72
    13
 73
     9
 74
     0
 42
0.00000001
 43
0.00000001
 40
0.0
 40
0.0
 40
0.0
 40
0.0
 40
0.0081702280425704
 40
0.2391539873185931
 40
0.4710971973866074
 40
0.6931205590767906
 40
0.9042225733627326
 40
1.0
 40
1.0
 40
1.0
 40
1.0
 10
393.7646810427554
 20
425.5122013203068
 30
0.0
 10
393.7630221417811
 20
425.5118065242414
 30
0.0
 10
393.7144637930387
 20
425.500250291939
 30
0.0
 10
393.6183303083532
 20
425.477057361142
 30
0.0
 10
393.4954978324665
 20
425.4333999517372
 30
0.0
 10
393.4098456390211
 20
425.3959606065873
 30
0.0
 10
393.3658278116477
 20
425.3748108998225
 30
0.0
 10
393.3690597883669
 20
425.3698322860144
 30
0.0
 10
393.3700684920199
 20
425.368278454916
 30
0.0
  0
SPLINE
  5
206
330
1F
100
AcDbEntity
  8
0
  6
Continuous
 62
     7
370
    15
100
AcDbSpline
210
0.0
220
0.0
230
1.0
 70
     8
 71
     3
 72
    13
 73
     9
 74
     0
 42
0.00000001
 43
0.00000001
 40
0.0
 40
0.0
 40
0.0
 40
0.0
 40
0.1252289053032055
 40
0.2499779394264892
 40
0.4999780623493859
 40
0.7499979040631034
 40
0.8747543590072153
 40
1.0
 40
1.0
 40
1.0
 40
1.0
 10
394.164687813843
 20
425.5065090767307
 30
0.0
 10
394.1629734899066
 20
425.5065319212493
 30
0.0
 10
394.159551411241
 20
425.5065775227475
 30
0.0
 10
394.1251715565553
 20
425.5070726015716
 30
0.0
 10
394.0499077264409
 20
425.5081408692255
 30
0.0
 10
393.9412453880832
 20
425.509692874909
 30
0.0
 10
393.8425321487429
 20
425.5110894034182
 30
0.0
 10
393.7906652412243
 20
425.511830198166
 30
0.0
 10
393.7646810427554
 20
425.5122013203068
 30
0.0
  0
SPLINE
  5
207
330
1F
100
AcDbEntity
  8
0
  6
Continuous
 62
     7
370
    15
100
AcDbSpline
210
0.0
220
0.0
230
1.0
 70
     8
 71
     3
 72
    10
 73
     6
 74
     0
 42
0.00000001
 43
0.00000001
 40
0.0
 40
0.0
 40
0.0
 40
0.0
 40
0.0190107309040389
 40
0.5253203859619627
 40
1.0
 40
1.0
 40
1.0
 40
1.0
 10
393.7646810427554
 20
425.5122013203068
 30
0.0
 10
393.7662053927362
 20
425.5129390171072
 30
0.0
 10
393.8083275038906
 20
425.5333236709052
 30
0.0
 10
393.8908463379149
 20
425.571738406196
 30
0.0
 10
393.9610019125881
 20
425.5978430180208
 30
0.0
 10
393.9949486866839
 20
425.6104744783802
 30
0.0
  0
LINE
  5
208
330
1F
100
AcDbEntity
  8
0
  6
Continuous
 62
     7
370
    15
100
AcDbLine
 10
388.8881568328
 20
434.7514353506
 30
0.0
 11
388.9006142035
 21
434.6006654016
 31
0.0
  0
LINE
  5
209
330
1F
100
AcDbEntity
  8
0
  6
Continuous
 62
     7
370
    15
100
AcDbLine
 10
391.8803845063
 20
434.94417442
 30
0.0
 11
391.8448005334
 21
435.1543329469
 31
0.0
  0
ARC
  5
20A
330
1F
100
AcDbEntity
  8
0
  6
Continuous
 62
     7
370
    15
100
AcDbCircle
 10
389.7973804847
 20
428.6304741684
 30
0.0
 40
2.200000000000049
100
AcDbArc
 50
103.5934783353
 51
268.1042765976
  0
LINE
  5
20B
330
1F
100
AcDbEntity
  8
0
  6
Continuous
 62
     7
370
    15
100
AcDbLine
 10
386.2505469933
 20
430.0082392804
 30
0.0
 11
386.5841988936
 21
431.9004706851
 31
0.0
  0
LWPOLYLINE
  5
20C
330
1F
100
AcDbEntity
  8
0
  6
Continuous
 62
     7
370
    15
100
AcDbPolyline
 90
        9
 70
   128
 43
0.0
 10
386.5841988936
 20
431.9004706851
 10
386.4399705544
 20
431.9259069673
 10
386.3029245749
 20
431.9500692002
 10
386.1778144256
 20
431.9721303693
 10
386.0689763442
 20
431.9913230649
 10
385.9801505223
 20
432.0069841854
 10
385.9144065991
 20
432.0185772888
 10
385.8740393535
 20
432.0256925932
 10
385.8604196921
 20
432.0280991308
  0
LINE
  5
20D
330
1F
100
AcDbEntity
  8
0
  6
Continuous
 62
     7
370
    15
100
AcDbLine
 10
385.8604196921
 20
432.0280991308
 30
0.0
 11
390.2354602233
 21
456.8402088992
 31
0.0
  0
LWPOLYLINE
  5
20E
330
1F
100
AcDbEntity
  8
0
  6
Continuous
 62
     7
370
    15
100
AcDbPolyline
 90
        9
 70
   128
 43
0.0
 10
390.2354602233
 20
456.8402088992
 10
390.2505998031
 20
456.8375341407
 10
390.2954373971
 20
456.8296290747
 10
390.3682444707
 20
456.8167917243
 10
390.4662196055
 20
456.7995212785
 10
390.585607709
 20
456.7784659377
 10
390.7218192235
 20
456.7544527165
 10
390.8696089402
 20
456.7283905856
 10
391.0233144179
 20
456.7012853733
  0
LINE
  5
20F
330
1F
100
AcDbEntity
  8
0
  6
Continuous
 62
     7
370
    15
100
AcDbLine
 10
391.0233144179
 20
456.7012853733
 30
0.0
 11
386.1979905978
 21
429.3354891054
 31
0.0
  0
LINE
  5
210
330
1F
100
AcDbEntity
  8
0
  6
Continuous
 62
     7
370
    15
100
AcDbLine
 10
386.1979905978
 20
429.3354891054
 30
0.0
 11
386.2505469933
 21
430.0082392804
 31
0.0
  0
LWPOLYLINE
  5
211
330
1F
100
AcDbEntity
  8
0
  6
Continuous
 62
     7
370
    15
100
AcDbPolyline
 90
        5
 70
   128
 43
0.0
 10
389.082765998
 20
463.7285314313
 10
388.8292972461
 20
464.4249371997
 10
388.6457298413
 20
464.9292520992
 10
388.5345969811
 20
465.2346066944
 10
388.4973738805
 20
465.3368584625
  0
LWPOLYLINE
  5
212
330
1F
100
AcDbEntity
  8
0
  6
Continuous
 62
     7
370
    15
100
AcDbPolyline
 90
        5
 70
   128
 43
0.0
 10
389.8423824921
 20
463.9805175177
 10
389.5855460778
 20
464.6861918084
 10
389.3995199815
 20
465.1973090879
 10
389.2868523017
 20
465.5068285576
 10
389.2491374627
 20
465.6104735843
  0
LINE
  5
213
330
1F
100
AcDbEntity
  8
0
  6
Continuous
 62
     7
370
    15
100
AcDbLine
 10
390.0644842997
 20
463.6260784975
 30
0.0
 11
389.8423824921
 21
463.9805175177
 31
0.0
  0
LINE
  5
214
330
1F
100
AcDbEntity
  8
0
  6
Continuous
 62
     7
370
    15
100
AcDbLine
 10
389.9822894946
 20
463.5961569659
 30
0.0
 11
390.0644842997
 21
463.6260784975
 31
0.0
  0
SPLINE
  5
215
330
1F
100
AcDbEntity
  8
0
  6
Continuous
 62
     7
370
    15
100
AcDbSpline
210
0.0
220
0.0
230
1.0
 70
     8
 71
     3
 72
    12
 73
     8
 74
     0
 42
0.00000001
 43
0.00000001
 40
0.0
 40
0.0
 40
0.0
 40
0.0
 40
0.251021990599481
 40
0.5023977458077202
 40
0.7402765908566765
 40
0.9473178514528033
 40
1.0
 40
1.0
 40
1.0
 40
1.0
 10
389.0827659979709
 20
463.7285314313335
 30
0.0
 10
389.1104747952994
 20
463.6842137924526
 30
0.0
 10
389.1659314398892
 20
463.5955160579629
 30
0.0
 10
389.372930005497
 20
463.5205218268521
 30
0.0
 10
389.6343202850857
 20
463.5090327341728
 30
0.0
 10
389.8509085528353
 20
463.5506665254147
 30
0.0
 10
389.9601342220055
 20
463.5884857382523
 30
0.0
 10
389.9822894945987
 20
463.596156965868
 30
0.0
  0
LINE
  5
216
330
1F
100
AcDbEntity
  8
0
  6
Continuous
 62
     7
370
    15
100
AcDbLine
 10
389.9822894946
 20
463.5961569659
 30
0.0
 11
390.5586217061
 21
462.0126701704
 31
0.0
  0
LWPOLYLINE
  5
217
330
1F
100
AcDbEntity
  8
0
  6
Continuous
 62
     7
370
    15
100
AcDbPolyline
 90
        9
 70
   128
 43
0.0
 10
389.806873025
 20
461.7390550486
 10
389.8213122502
 20
461.7443151585
 10
389.864093484
 20
461.759886872
 10
389.9335626975
 20
461.7851666919
 10
390.0270525828
 20
461.8191934935
 10
390.1409719602
 20
461.8606559745
 10
390.2709398881
 20
461.9079671613
 10
390.4119644776
 20
461.959294211
 10
390.5586217061
 20
462.0126701704
  0
LINE
  5
218
330
1F
100
AcDbEntity
  8
0
  6
Continuous
 62
     7
370
    15
100
AcDbLine
 10
389.806873025
 20
461.7390550486
 30
0.0
 11
389.082765998
 21
463.7285314313
 31
0.0
  0
ARC
  5
219
330
1F
100
AcDbEntity
  8
0
  6
Continuous
 62
     7
370
    15
100
AcDbCircle
 10
390.3873859908
 20
434.7994650869
 30
0.0
 40
1.600000000000034
100
AcDbArc
 50
347.034367059
 51
204.5950707184
  0
ARC
  5
21A
330
1F
100
AcDbEntity
  8
0
  6
Continuous
 62
     7
370
    15
100
AcDbCircle
 10
390.9000949561
 20
462.8225390228
 30
0.0
 40
0.5
100
AcDbArc
 50
36.8410865503
 51
90.0
  0
ARC
  5
21B
330
1F
100
AcDbEntity
  8
0
  6
Continuous
 62
     7
370
    15
100
AcDbCircle
 10
383.6973804847
 20
457.4261602144
 30
0.0
 40
9.5
100
AcDbArc
 50
0.0
 51
36.8410865502
  0
LINE
  5
21C
330
1F
100
AcDbEntity
  8
0
  6
Continuous
 62
     7
370
    15
100
AcDbLine
 10
393.1973789349
 20
457.4261598102
 30
0.0
 11
393.1973789349
 21
429.4004730693
 31
0.0
  0
ARC
  5
21D
330
1F
100
AcDbEntity
  8
0
  6
Continuous
 62
     7
370
    15
100
AcDbCircle
 10
380.8797934442
 20
458.4898646367
 30
0.0
 40
10.30000000000011
100
AcDbArc
 50
350.0
 51
20.0
  0
ARC
  5
21E
330
1F
100
AcDbEntity
  8
0
  6
Continuous
 62
     7
370
    15
100
AcDbCircle
 10
390.7820824105
 20
464.3225390228
 30
0.0
 40
1.0
100
AcDbArc
 50
224.1440002858
 51
270.0
  0
LINE
  5
21F
330
1F
100
AcDbEntity
  8
0
  6
Continuous
 62
     7
370
    15
100
AcDbLine
 10
390.7820795194
 20
463.322541844
 30
0.0
 11
390.900096716
 21
463.322541844
 31
0.0
  0
LWPOLYLINE
  5
220
330
1F
100
AcDbEntity
  8
0
  6
Continuous
 62
     7
370
    15
100
AcDbPolyline
 90
        3
 70
   128
 43
0.0
 10
393.1973789349
 20
429.4004730693
 10
392.9887626782
 20
428.2101906649
 10
392.6325951234
 20
427.4940334073
  0
ARC
  5
221
330
1F
100
AcDbEntity
  8
0
  6
Continuous
 62
     7
370
    15
100
AcDbCircle
 10
389.6973804847
 20
429.4004741684
 30
0.0
 40
3.500000000000005
100
AcDbArc
 50
181.0639402281
 51
271.3221928089
  0
ARC
  5
222
330
1F
100
AcDbEntity
  8
0
  6
Continuous
 62
     7
370
    15
100
AcDbCircle
 10
380.8797934442
 20
458.4898646367
 30
0.0
 40
9.500000000000298
100
AcDbArc
 50
350.0
 51
20.0
  0
ARC
  5
223
330
1F
100
AcDbEntity
  8
0
  6
Continuous
 62
     7
370
    15
100
AcDbCircle
 10
390.290998278
 20
430.0979696952
 30
0.0
 40
4.698428302688314
100
AcDbArc
 50
170.0
 51
264.3261771657
  0
LINE
  5
224
330
1F
100
AcDbEntity
  8
0
  6
Continuous
 62
     7
370
    15
100
AcDbLine
 10
385.8604196921
 20
432.0280991308
 30
0.0
 11
385.6639478818
 21
430.9138424508
 31
0.0
  0
LINE
  5
225
330
1F
100
AcDbEntity
  8
0
  6
Continuous
 62
     7
370
    15
100
AcDbLine
 10
409.6973751202
 20
533.6104744858
 30
0.0
 11
409.6973751202
 21
548.6104741506
 31
0.0
  0
LINE
  5
226
330
1F
100
AcDbEntity
  8
0
  6
Continuous
 62
     7
370
    15
100
AcDbLine
 10
409.6973751202
 20
533.6104744858
 30
0.0
 11
394.6973745242
 21
533.6104744858
 31
0.0
  0
ARC
  5
227
330
1F
100
AcDbEntity
  8
0
  6
Continuous
 62
     7
370
    15
100
AcDbCircle
 10
409.6973804847
 20
533.6104741684
 30
0.0
 40
15.0
100
AcDbArc
 50
90.0
 51
180.0
  0
LINE
  5
228
330
1F
100
AcDbEntity
  8
0
  6
Continuous
 62
     7
370
    15
100
AcDbLine
 10
679.6973858491
 20
533.6104744858
 30
0.0
 11
694.6973864451
 21
533.6104744858
 31
0.0
  0
LINE
  5
229
330
1F
100
AcDbEntity
  8
0
  6
Continuous
 62
     7
370
    15
100
AcDbLine
 10
679.6973858491
 20
533.6104744858
 30
0.0
 11
679.6973858491
 21
548.6104741506
 31
0.0
  0
ARC
  5
22A
330
1F
100
AcDbEntity
  8
0
  6
Continuous
 62
     7
370
    15
100
AcDbCircle
 10
679.6973804847
 20
533.6104741684
 30
0.0
 40
15.0
100
AcDbArc
 50
0.0
 51
90.0
  0
LINE
  5
22B
330
1F
100
AcDbEntity
  8
0
  6
Continuous
 62
     7
370
    15
100
AcDbLine
 10
679.6973858491
 20
548.6104741506
 30
0.0
 11
409.6973751202
 21
548.6104741506
 31
0.0
  0
LINE
  5
22C
330
1F
100
AcDbEntity
  8
0
  6
Continuous
 62
     7
370
    15
100
AcDbLine
 10
679.6973858491
 20
533.6104744858
 30
0.0
 11
409.6973751202
 21
533.6104744858
 31
0.0
  0
LINE
  5
22D
330
1F
100
AcDbEntity
  8
0
  6
Continuous
 62
     7
370
    15
100
AcDbLine
 10
409.6973751202
 20
412.6104779354
 30
0.0
 11
409.6973751202
 21
533.6104744858
 31
0.0
  0
LINE
  5
22E
330
1F
100
AcDbEntity
  8
0
  6
Continuous
 62
     7
370
    15
100
AcDbLine
 10
409.6973751202
 20
412.6104779354
 30
0.0
 11
394.6973745242
 21
412.6104779354
 31
0.0
  0
LINE
  5
22F
330
1F
100
AcDbEntity
  8
0
  6
Continuous
 62
     7
370
    15
100
AcDbLine
 10
394.6973745242
 20
412.6104779354
 30
0.0
 11
394.6973745242
 21
533.6104744858
 31
0.0
  0
LINE
  5
230
330
1F
100
AcDbEntity
  8
0
  6
Continuous
 62
     7
370
    15
100
AcDbLine
 10
694.6973864451
 20
412.6104779354
 30
0.0
 11
694.6973864451
 21
533.6104744858
 31
0.0
  0
LINE
  5
231
330
1F
100
AcDbEntity
  8
0
  6
Continuous
 62
     7
370
    15
100
AcDbLine
 10
694.6973864451
 20
412.6104779354
 30
0.0
 11
679.6973858491
 21
412.6104779354
 31
0.0
  0
LINE
  5
232
330
1F
100
AcDbEntity
  8
0
  6
Continuous
 62
     7
370
    15
100
AcDbLine
 10
679.6973858491
 20
412.6104779354
 30
0.0
 11
679.6973858491
 21
533.6104744858
 31
0.0
  0
LINE
  5
233
330
1F
100
AcDbEntity
  8
0
  6
Continuous
 62
     7
370
    15
100
AcDbLine
 10
414.697385253
 20
432.6104737631
 30
0.0
 11
414.697385253
 21
528.6104745976
 31
0.0
  0
LINE
  5
234
330
1F
100
AcDbEntity
  8
0
  6
Continuous
 62
     7
370
    15
100
AcDbLine
 10
414.697385253
 20
432.6104737631
 30
0.0
 11
674.6973757163
 21
432.6104737631
 31
0.0
  0
LINE
  5
235
330
1F
100
AcDbEntity
  8
0
  6
Continuous
 62
     7
370
    15
100
AcDbLine
 10
674.6973757163
 20
528.6104745976
 30
0.0
 11
674.6973757163
 21
432.6104737631
 31
0.0
  0
LINE
  5
236
330
1F
100
AcDbEntity
  8
0
  6
Continuous
 62
     7
370
    15
100
AcDbLine
 10
674.6973757163
 20
528.6104745976
 30
0.0
 11
414.697385253
 21
528.6104745976
 31
0.0
  0
LINE
  5
237
330
1F
100
AcDbEntity
  8
0
  6
Continuous
 62
     7
370
    15
100
AcDbLine
 10
409.6973751202
 20
412.6104779354
 30
0.0
 11
679.6973858491
 21
412.6104779354
 31
0.0
  0
LINE
  5
238
330
1F
100
AcDbEntity
  8
0
  6
Continuous
 62
     7
370
    15
100
AcDbLine
 10
414.697385253
 20
408.6104698292
 30
0.0
 11
414.697385253
 21
412.6104779354
 31
0.0
  0
LINE
  5
239
330
1F
100
AcDbEntity
  8
0
  6
Continuous
 62
     7
370
    15
100
AcDbLine
 10
399.697384657
 20
408.6104698292
 30
0.0
 11
399.697384657
 21
412.6104779354
 31
0.0
  0
LINE
  5
23A
330
1F
100
AcDbEntity
  8
0
  6
Continuous
 62
     7
370
    15
100
AcDbLine
 10
689.6973763123
 20
408.6104698292
 30
0.0
 11
689.6973763123
 21
412.6104779354
 31
0.0
  0
LINE
  5
23B
330
1F
100
AcDbEntity
  8
0
  6
Continuous
 62
     7
370
    15
100
AcDbLine
 10
674.6973757163
 20
408.6104698292
 30
0.0
 11
674.6973757163
 21
412.6104779354
 31
0.0
  0
LINE
  5
23C
330
1F
100
AcDbEntity
  8
0
  6
Continuous
 62
     7
370
    15
100
AcDbLine
 10
694.6973864451
 20
412.6104779354
 30
0.0
 11
695.3647051469
 21
412.6104779354
 31
0.0
  0
ARC
  5
23D
330
1F
100
AcDbEntity
  8
0
  6
Continuous
 62
     7
370
    15
100
AcDbCircle
 10
695.3646982327
 20
413.1104741684
 30
0.0
 40
0.5000000000001061
100
AcDbArc
 50
270.0
 51
332.720387264
  0
ARC
  5
23E
330
1F
100
AcDbEntity
  8
0
  6
Continuous
 62
     7
370
    15
100
AcDbCircle
 10
695.1352316193
 20
408.1104741684
 30
0.0
 40
0.5
100
AcDbArc
 50
22.0243128371
 51
90.0
  0
ARC
  5
23F
330
1F
100
AcDbEntity
  8
0
  6
Continuous
 62
     7
370
    15
100
AcDbCircle
 10
700.6973804847
 20
410.3604741684
 30
0.0
 40
5.500000000000386
100
AcDbArc
 50
202.024312837
 51
152.720387264
  0
LINE
  5
240
330
1F
100
AcDbEntity
  8
0
  6
Continuous
 62
     7
370
    15
100
AcDbLine
 10
695.1352272645
 20
408.6104698292
 30
0.0
 11
694.6973864451
 21
408.6104698292
 31
0.0
  0
LINE
  5
241
330
1F
100
AcDbEntity
  8
0
  6
Continuous
 62
     7
370
    15
100
AcDbLine
 10
394.397384347
 20
431.8104751221
 30
0.0
 11
394.6973745242
 21
431.8115331046
 31
0.0
  0
LINE
  5
242
330
1F
100
AcDbEntity
  8
0
  6
Continuous
 62
     7
370
    15
100
AcDbLine
 10
394.6973745242
 20
433.8104717246
 30
0.0
 11
394.397384347
 21
433.8104717246
 31
0.0
  0
LINE
  5
243
330
1F
100
AcDbEntity
  8
0
  6
Continuous
 62
     7
370
    15
100
AcDbLine
 10
394.397384347
 20
431.8104751221
 30
0.0
 11
394.397384347
 21
433.8104717246
 31
0.0
  0
LINE
  5
244
330
1F
100
AcDbEntity
  8
0
  6
Continuous
 62
     7
370
    15
100
AcDbLine
 10
394.397384347
 20
425.6104744784
 30
0.0
 11
394.397384347
 21
431.8104751221
 31
0.0
  0
LINE
  5
245
330
1F
100
AcDbEntity
  8
0
  6
Continuous
 62
     7
370
    15
100
AcDbLine
 10
394.6973745242
 20
425.6104744784
 30
0.0
 11
394.397384347
 21
425.6104744784
 31
0.0
  0
ARC
  5
246
330
1F
100
AcDbEntity
  8
0
  6
Continuous
 62
     7
370
    15
100
AcDbCircle
 10
389.4973804847
 20
428.7104741684
 30
0.0
 40
3.100000000000025
100
AcDbArc
 50
192.3149210922
 51
270.0
  0
LINE
  5
247
330
1F
100
AcDbEntity
  8
0
  6
Continuous
 62
     7
370
    15
100
AcDbLine
 10
394.397384347
 20
431.8104751221
 30
0.0
 11
393.1973789349
 21
431.8104751221
 31
0.0
  0
LINE
  5
248
330
1F
100
AcDbEntity
  8
0
  6
Continuous
 62
     7
370
    15
100
AcDbLine
 10
389.497375907
 20
425.6104744784
 30
0.0
 11
389.807513775
 21
425.6104744784
 31
0.0
  0
LINE
  5
249
330
1F
100
AcDbEntity
  8
0
  6
Continuous
 62
     7
370
    15
100
AcDbLine
 10
392.8227637425
 20
425.6104744784
 30
0.0
 11
394.397384347
 21
425.6104744784
 31
0.0
  0
LINE
  5
24A
330
1F
100
AcDbEntity
  8
0
  6
Continuous
 62
     7
370
    15
100
AcDbLine
 10
394.397384347
 20
433.8104717246
 30
0.0
 11
394.397384347
 21
457.8604765049
 31
0.0
  0
LINE
  5
24B
330
1F
100
AcDbEntity
  8
0
  6
Continuous
 62
     7
370
    15
100
AcDbLine
 10
394.397384347
 20
464.6104715578
 30
0.0
 11
394.397384347
 21
457.8604765049
 31
0.0
  0
LINE
  5
24C
330
1F
100
AcDbEntity
  8
0
  6
Continuous
 62
     7
370
    15
100
AcDbLine
 10
394.2973826543
 20
457.610472273
 30
0.0
 11
394.2973826543
 21
463.6104769818
 31
0.0
  0
LINE
  5
24D
330
1F
100
AcDbEntity
  8
0
  6
Continuous
 62
     7
370
    15
100
AcDbLine
 10
394.2973826543
 20
434.6104778162
 30
0.0
 11
394.2973826543
 21
440.6104750744
 31
0.0
  0
LINE
  5
24E
330
1F
100
AcDbEntity
  8
0
  6
Continuous
 62
     7
370
    15
100
AcDbLine
 10
393.1973789349
 20
449.9672867171
 30
0.0
 11
394.397384347
 21
449.6457494608
 31
0.0
  0
LINE
  5
24F
330
1F
100
AcDbEntity
  8
0
  6
Continuous
 62
     7
370
    15
100
AcDbLine
 10
394.397384347
 20
448.6104763857
 30
0.0
 11
393.1973789349
 21
448.932013642
 31
0.0
  0
LINE
  5
250
330
1F
100
AcDbEntity
  8
0
  6
Continuous
 62
     8
370
    15
100
AcDbLine
 10
394.6973745242
 20
457.8604765049
 30
0.0
 11
394.397384347
 21
457.8604765049
 31
0.0
  0
ENDSEC
  0
SECTION
  2
OBJECTS
  0
DICTIONARY
  5
C
330
0
100
AcDbDictionary
281
     1
  3
ACAD_GROUP
350
D
  3
ACAD_LAYOUT
350
1A
  3
ACAD_MLINESTYLE
350
17
  3
ACAD_PLOTSETTINGS
350
19
  3
ACAD_PLOTSTYLENAME
350
E
  0
DICTIONARY
  5
D
102
{ACAD_REACTORS
330
C
102
}
330
C
100
AcDbDictionary
281
     1
  0
DICTIONARY
  5
1A
102
{ACAD_REACTORS
330
C
102
}
330
C
100
AcDbDictionary
281
     1
  3
Layout1
350
1E
  3
Layout2
350
26
  3
Model
350
22
  0
DICTIONARY
  5
17
102
{ACAD_REACTORS
330
C
102
}
330
C
100
AcDbDictionary
281
     1
  3
Standard
350
18
  0
DICTIONARY
  5
19
102
{ACAD_REACTORS
330
C
102
}
330
C
100
AcDbDictionary
281
     1
  0
ACDBDICTIONARYWDFLT
  5
E
102
{ACAD_REACTORS
330
C
102
}
330
C
100
AcDbDictionary
281
     1
  3
Normal
350
F
100
AcDbDictionaryWithDefault
340
F
  0
LAYOUT
  5
1E
102
{ACAD_REACTORS
330
1A
102
}
330
1A
100
AcDbPlotSettings
  1

  2
none_device
  4

  6

 40
0.0
 41
0.0
 42
0.0
 43
0.0
 44
0.0
 45
0.0
 46
0.0
 47
0.0
 48
0.0
 49
0.0
140
0.0
141
0.0
142
1.0
143
1.0
 70
   688
 72
     0
 73
     0
 74
     5
  7

 75
    16
147
1.0
148
0.0
149
0.0
100
AcDbLayout
  1
Layout1
 70
     1
 71
     1
 10
0.0
 20
0.0
 11
420.0
 21
297.0
 12
0.0
 22
0.0
 32
0.0
 14
1.0000000000E+20
 24
1.0000000000E+20
 34
1.0000000000E+20
 15
-1.0000000000E+20
 25
-1.0000000000E+20
 35
-1.0000000000E+20
146
0.0
 13
0.0
 23
0.0
 33
0.0
 16
1.0
 26
0.0
 36
0.0
 17
0.0
 27
1.0
 37
0.0
 76
     0
330
1B
  0
LAYOUT
  5
26
102
{ACAD_REACTORS
330
1A
102
}
330
1A
100
AcDbPlotSettings
  1

  2
none_device
  4

  6

 40
0.0
 41
0.0
 42
0.0
 43
0.0
 44
0.0
 45
0.0
 46
0.0
 47
0.0
 48
0.0
 49
0.0
140
0.0
141
0.0
142
1.0
143
1.0
 70
   688
 72
     0
 73
     0
 74
     5
  7

 75
    16
147
1.0
148
0.0
149
0.0
100
AcDbLayout
  1
Layout2
 70
     1
 71
     2
 10
0.0
 20
0.0
 11
0.0
 21
0.0
 12
0.0
 22
0.0
 32
0.0
 14
0.0
 24
0.0
 34
0.0
 15
0.0
 25
0.0
 35
0.0
146
0.0
 13
0.0
 23
0.0
 33
0.0
 16
1.0
 26
0.0
 36
0.0
 17
0.0
 27
1.0
 37
0.0
 76
     0
330
23
  0
LAYOUT
  5
22
102
{ACAD_REACTORS
330
1A
102
}
330
1A
100
AcDbPlotSettings
  1

  2
none_device
  4

  6

 40
0.0
 41
0.0
 42
0.0
 43
0.0
 44
0.0
 45
0.0
 46
0.0
 47
0.0
 48
0.0
 49
0.0
140
0.0
141
0.0
142
1.0
143
1.0
 70
  1712
 72
     0
 73
     0
 74
     0
  7

 75
     0
147
1.0
148
0.0
149
0.0
100
AcDbLayout
  1
Model
 70
     1
 71
     0
 10
0.0
 20
0.0
 11
840.0
 21
594.0
 12
0.0
 22
0.0
 32
0.0
 14
0.0
 24
0.0
 34
0.0
 15
840.0
 25
594.0
 35
0.0
146
0.0
 13
0.0
 23
0.0
 33
0.0
 16
1.0
 26
0.0
 36
0.0
 17
0.0
 27
1.0
 37
0.0
 76
     0
330
1F
331
29
  0
MLINESTYLE
  5
18
102
{ACAD_REACTORS
330
17
102
}
330
17
100
AcDbMlineStyle
  2
Standard
 70
     0
  3

 62
   256
 51
90.0
 52
90.0
 71
     2
 49
0.5
 62
   256
  6
BYLAYER
 49
-0.5
 62
   256
  6
BYLAYER
  0
ACDBPLACEHOLDER
  5
F
102
{ACAD_REACTORS
330
E
102
}
330
E
  0
ENDSEC
  0
EOF
